  0
SECTION
  2
HEADER
  9
$ACADVER
  1
AC1021
  9
$ACADMAINTVER
 70
    25
  9
$DWGCODEPAGE
  3
ANSI_1251
  9
$INSBASE
 10
0.0
 20
0.0
 30
0.0
  9
$EXTMIN
 10
1.000000000000000E+20
 20
1.000000000000000E+20
 30
1.000000000000000E+20
  9
$EXTMAX
 10
-1.000000000000000E+20
 20
-1.000000000000000E+20
 30
-1.000000000000000E+20
  9
$LIMMIN
 10
0.0
 20
0.0
  9
$LIMMAX
 10
420.0
 20
297.0
  9
$ORTHOMODE
 70
     0
  9
$REGENMODE
 70
     1
  9
$FILLMODE
 70
     1
  9
$QTEXTMODE
 70
     0
  9
$MIRRTEXT
 70
     1
  9
$LTSCALE
 40
1.0
  9
$ATTMODE
 70
     1
  9
$TEXTSIZE
 40
2.5
  9
$TRACEWID
 40
1.0
  9
$TEXTSTYLE
  7
Standard
  9
$CLAYER
  8
0
  9
$CELTYPE
  6
ByLayer
  9
$CECOLOR
 62
   256
  9
$CELTSCALE
 40
1.0
  9
$DISPSILH
 70
     0
  9
$DIMSCALE
 40
1.0
  9
$DIMASZ
 40
2.5
  9
$DIMEXO
 40
0.625
  9
$DIMDLI
 40
3.75
  9
$DIMRND
 40
0.0
  9
$DIMDLE
 40
0.0
  9
$DIMEXE
 40
1.25
  9
$DIMTP
 40
0.0
  9
$DIMTM
 40
0.0
  9
$DIMTXT
 40
2.5
  9
$DIMCEN
 40
2.5
  9
$DIMTSZ
 40
0.0
  9
$DIMTOL
 70
     0
  9
$DIMLIM
 70
     0
  9
$DIMTIH
 70
     0
  9
$DIMTOH
 70
     0
  9
$DIMSE1
 70
     0
  9
$DIMSE2
 70
     0
  9
$DIMTAD
 70
     1
  9
$DIMZIN
 70
     8
  9
$DIMBLK
  1

  9
$DIMASO
 70
     1
  9
$DIMSHO
 70
     1
  9
$DIMPOST
  1

  9
$DIMAPOST
  1

  9
$DIMALT
 70
     0
  9
$DIMALTD
 70
     3
  9
$DIMALTF
 40
0.03937007874016
  9
$DIMLFAC
 40
1.0
  9
$DIMTOFL
 70
     1
  9
$DIMTVP
 40
0.0
  9
$DIMTIX
 70
     0
  9
$DIMSOXD
 70
     0
  9
$DIMSAH
 70
     0
  9
$DIMBLK1
  1

  9
$DIMBLK2
  1

  9
$DIMSTYLE
  2
ISO-25
  9
$DIMCLRD
 70
     0
  9
$DIMCLRE
 70
     0
  9
$DIMCLRT
 70
     0
  9
$DIMTFAC
 40
1.0
  9
$DIMGAP
 40
0.625
  9
$DIMJUST
 70
     0
  9
$DIMSD1
 70
     0
  9
$DIMSD2
 70
     0
  9
$DIMTOLJ
 70
     0
  9
$DIMTZIN
 70
     8
  9
$DIMALTZ
 70
     0
  9
$DIMALTTZ
 70
     0
  9
$DIMUPT
 70
     0
  9
$DIMDEC
 70
     2
  9
$DIMTDEC
 70
     2
  9
$DIMALTU
 70
     2
  9
$DIMALTTD
 70
     3
  9
$DIMTXSTY
  7
Standard
  9
$DIMAUNIT
 70
     0
  9
$DIMADEC
 70
     0
  9
$DIMALTRND
 40
0.0
  9
$DIMAZIN
 70
     0
  9
$DIMDSEP
 70
    44
  9
$DIMATFIT
 70
     3
  9
$DIMFRAC
 70
     0
  9
$DIMLDRBLK
  1

  9
$DIMLUNIT
 70
     2
  9
$DIMLWD
 70
    -2
  9
$DIMLWE
 70
    -2
  9
$DIMTMOVE
 70
     0
  9
$DIMFXL
 40
1.0
  9
$DIMFXLON
 70
     0
  9
$DIMJOGANG
 40
0.7853981633974483
  9
$DIMTFILL
 70
     0
  9
$DIMTFILLCLR
 70
     0
  9
$DIMARCSYM
 70
     0
  9
$DIMLTYPE
  6

  9
$DIMLTEX1
  6

  9
$DIMLTEX2
  6

  9
$LUNITS
 70
     2
  9
$LUPREC
 70
     4
  9
$SKETCHINC
 40
1.0
  9
$FILLETRAD
 40
10.0
  9
$AUNITS
 70
     0
  9
$AUPREC
 70
     0
  9
$MENU
  1
.
  9
$ELEVATION
 40
0.0
  9
$PELEVATION
 40
0.0
  9
$THICKNESS
 40
0.0
  9
$LIMCHECK
 70
     0
  9
$CHAMFERA
 40
10.0
  9
$CHAMFERB
 40
10.0
  9
$CHAMFERC
 40
20.0
  9
$CHAMFERD
 40
0.0
  9
$SKPOLY
 70
     0
  9
$TDCREATE
 40
2457659.716470798
  9
$TDUCREATE
 40
2457659.549804132
  9
$TDUPDATE
 40
2457659.716471771
  9
$TDUUPDATE
 40
2457659.549805104
  9
$TDINDWG
 40
0.0000000116
  9
$TDUSRTIMER
 40
0.0000000116
  9
$USRTIMER
 70
     1
  9
$ANGBASE
 50
0.0
  9
$ANGDIR
 70
     0
  9
$PDMODE
 70
     0
  9
$PDSIZE
 40
0.0
  9
$PLINEWID
 40
0.0
  9
$SPLFRAME
 70
     0
  9
$SPLINETYPE
 70
     6
  9
$SPLINESEGS
 70
     8
  9
$HANDSEED
  5
1BC
  9
$SURFTAB1
 70
     6
  9
$SURFTAB2
 70
     6
  9
$SURFTYPE
 70
     6
  9
$SURFU
 70
     6
  9
$SURFV
 70
     6
  9
$UCSBASE
  2

  9
$UCSNAME
  2

  9
$UCSORG
 10
0.0
 20
0.0
 30
0.0
  9
$UCSXDIR
 10
1.0
 20
0.0
 30
0.0
  9
$UCSYDIR
 10
0.0
 20
1.0
 30
0.0
  9
$UCSORTHOREF
  2

  9
$UCSORTHOVIEW
 70
     0
  9
$UCSORGTOP
 10
0.0
 20
0.0
 30
0.0
  9
$UCSORGBOTTOM
 10
0.0
 20
0.0
 30
0.0
  9
$UCSORGLEFT
 10
0.0
 20
0.0
 30
0.0
  9
$UCSORGRIGHT
 10
0.0
 20
0.0
 30
0.0
  9
$UCSORGFRONT
 10
0.0
 20
0.0
 30
0.0
  9
$UCSORGBACK
 10
0.0
 20
0.0
 30
0.0
  9
$PUCSBASE
  2

  9
$PUCSNAME
  2

  9
$PUCSORG
 10
0.0
 20
0.0
 30
0.0
  9
$PUCSXDIR
 10
1.0
 20
0.0
 30
0.0
  9
$PUCSYDIR
 10
0.0
 20
1.0
 30
0.0
  9
$PUCSORTHOREF
  2

  9
$PUCSORTHOVIEW
 70
     0
  9
$PUCSORGTOP
 10
0.0
 20
0.0
 30
0.0
  9
$PUCSORGBOTTOM
 10
0.0
 20
0.0
 30
0.0
  9
$PUCSORGLEFT
 10
0.0
 20
0.0
 30
0.0
  9
$PUCSORGRIGHT
 10
0.0
 20
0.0
 30
0.0
  9
$PUCSORGFRONT
 10
0.0
 20
0.0
 30
0.0
  9
$PUCSORGBACK
 10
0.0
 20
0.0
 30
0.0
  9
$USERI1
 70
     0
  9
$USERI2
 70
     0
  9
$USERI3
 70
     0
  9
$USERI4
 70
     0
  9
$USERI5
 70
     0
  9
$USERR1
 40
0.0
  9
$USERR2
 40
0.0
  9
$USERR3
 40
0.0
  9
$USERR4
 40
0.0
  9
$USERR5
 40
0.0
  9
$WORLDVIEW
 70
     1
  9
$SHADEDGE
 70
     3
  9
$SHADEDIF
 70
    70
  9
$TILEMODE
 70
     1
  9
$MAXACTVP
 70
    64
  9
$PINSBASE
 10
0.0
 20
0.0
 30
0.0
  9
$PLIMCHECK
 70
     0
  9
$PEXTMIN
 10
1.000000000000000E+20
 20
1.000000000000000E+20
 30
1.000000000000000E+20
  9
$PEXTMAX
 10
-1.000000000000000E+20
 20
-1.000000000000000E+20
 30
-1.000000000000000E+20
  9
$PLIMMIN
 10
0.0
 20
0.0
  9
$PLIMMAX
 10
420.0
 20
297.0
  9
$UNITMODE
 70
     0
  9
$VISRETAIN
 70
     1
  9
$PLINEGEN
 70
     0
  9
$PSLTSCALE
 70
     1
  9
$TREEDEPTH
 70
  3020
  9
$CMLSTYLE
  2
Standard
  9
$CMLJUST
 70
     0
  9
$CMLSCALE
 40
20.0
  9
$PROXYGRAPHICS
 70
     1
  9
$MEASUREMENT
 70
     1
  9
$CELWEIGHT
370
    -1
  9
$ENDCAPS
280
     0
  9
$JOINSTYLE
280
     0
  9
$LWDISPLAY
290
     0
  9
$INSUNITS
 70
     4
  9
$HYPERLINKBASE
  1

  9
$STYLESHEET
  1

  9
$XEDIT
290
     1
  9
$CEPSNTYPE
380
     0
  9
$PSTYLEMODE
290
     1
  9
$FINGERPRINTGUID
  2
{A4C68244-8B96-4E2A-B2D6-8F63D1A1785B}
  9
$VERSIONGUID
  2
{FAEB1C32-E019-11D5-929B-00C0DF256EC4}
  9
$EXTNAMES
290
     1
  9
$PSVPSCALE
 40
0.0
  9
$OLESTARTUP
290
     0
  9
$SORTENTS
280
   127
  9
$INDEXCTL
280
     0
  9
$HIDETEXT
280
     1
  9
$XCLIPFRAME
290
     0
  9
$HALOGAP
280
     0
  9
$OBSCOLOR
 70
   257
  9
$OBSLTYPE
280
     0
  9
$INTERSECTIONDISPLAY
280
     0
  9
$INTERSECTIONCOLOR
 70
   257
  9
$DIMASSOC
280
     2
  9
$PROJECTNAME
  1

  9
$CAMERADISPLAY
290
     0
  9
$LENSLENGTH
 40
50.0
  9
$CAMERAHEIGHT
 40
0.0
  9
$STEPSPERSEC
 40
2.0
  9
$STEPSIZE
 40
6.0
  9
$3DDWFPREC
 40
2.0
  9
$PSOLWIDTH
 40
5.0
  9
$PSOLHEIGHT
 40
80.0
  9
$LOFTANG1
 40
1.570796326794897
  9
$LOFTANG2
 40
1.570796326794897
  9
$LOFTMAG1
 40
0.0
  9
$LOFTMAG2
 40
0.0
  9
$LOFTPARAM
 70
     7
  9
$LOFTNORMALS
280
     1
  9
$LATITUDE
 40
37.795
  9
$LONGITUDE
 40
-122.394
  9
$NORTHDIRECTION
 40
0.0
  9
$TIMEZONE
 70
 -8000
  9
$LIGHTGLYPHDISPLAY
280
     1
  9
$TILEMODELIGHTSYNCH
280
     1
  9
$SOLIDHIST
280
     1
  9
$SHOWHIST
280
     1
  9
$DWFFRAME
280
     2
  9
$DGNFRAME
280
     2
  9
$REALWORLDSCALE
290
     1
  9
$INTERFERECOLOR
 62
   256
  9
$CSHADOW
280
     0
  9
$SHADOWPLANELOCATION
 40
0.0
  0
ENDSEC
  0
SECTION
  2
CLASSES
  0
CLASS
  1
ACDBDICTIONARYWDFLT
  2
AcDbDictionaryWithDefault
  3
ObjectDBX Classes
 90
        0
 91
        4
280
     0
281
     0
  0
CLASS
  1
VISUALSTYLE
  2
AcDbVisualStyle
  3
ObjectDBX Classes
 90
     4095
 91
        4
280
     0
281
     0
  0
CLASS
  1
MATERIAL
  2
AcDbMaterial
  3
ObjectDBX Classes
 90
     1153
 91
        4
280
     0
281
     0
  0
CLASS
  1
SCALE
  2
AcDbScale
  3
ObjectDBX Classes
 90
     1153
 91
        4
280
     0
281
     0
  0
CLASS
  1
DICTIONARYVAR
  2
AcDbDictionaryVar
  3
ObjectDBX Classes
 90
        0
 91
        4
280
     0
281
     0
  0
ENDSEC
  0
SECTION
  2
TABLES
  0
TABLE
  2
VPORT
  5
8
330
0
100
AcDbSymbolTable
 70
     1
  0
VPORT
  5
29
330
8
100
AcDbSymbolTableRecord
100
AcDbViewportTableRecord
  2
*Active
 70
     0
 10
0.0
 20
0.0
 11
1.0
 21
1.0
 12
42.90702404380824
 22
36.22924937875581
 13
0.0
 23
0.0
 14
10.0
 24
10.0
 15
10.0
 25
10.0
 16
0.0
 26
0.0
 36
1.0
 17
0.0
 27
0.0
 37
0.0
 40
209.2678459222563
 41
2.341869759610658
 42
50.0
 43
0.0
 44
0.0
 50
0.0
 51
0.0
 71
     0
 72
   100
 73
     1
 74
     3
 75
     0
 76
     0
 77
     0
 78
     0
281
     0
 65
     1
110
0.0
120
0.0
130
0.0
111
1.0
121
0.0
131
0.0
112
0.0
122
1.0
132
0.0
 79
     0
146
0.0
 60
     3
 61
     5
292
     1
282
     1
141
0.0
142
0.0
 63
   250
  0
ENDTAB
  0
TABLE
  2
LTYPE
  5
5
330
0
100
AcDbSymbolTable
 70
     3
  0
LTYPE
  5
14
330
5
100
AcDbSymbolTableRecord
100
AcDbLinetypeTableRecord
  2
ByBlock
 70
     0
  3

 72
    65
 73
     0
 40
0.0
  0
LTYPE
  5
15
330
5
100
AcDbSymbolTableRecord
100
AcDbLinetypeTableRecord
  2
ByLayer
 70
     0
  3

 72
    65
 73
     0
 40
0.0
  0
LTYPE
  5
16
330
5
100
AcDbSymbolTableRecord
100
AcDbLinetypeTableRecord
  2
Continuous
 70
     0
  3
Solid line
 72
    65
 73
     0
 40
0.0
  0
LTYPE
  5
42
330
5
100
AcDbSymbolTableRecord
100
AcDbLinetypeTableRecord
  2
K5LT_THIN
 70
     0
  3

 72
    65
 73
     0
 40
0.0
  0
LTYPE
  5
A4
330
5
100
AcDbSymbolTableRecord
100
AcDbLinetypeTableRecord
  2
K5LT32773
 70
     0
  3

 72
    65
 73
     0
 40
0.0
  0
ENDTAB
  0
TABLE
  2
LAYER
  5
2
330
0
100
AcDbSymbolTable
 70
     2
  0
LAYER
  5
10
330
2
100
AcDbSymbolTableRecord
100
AcDbLayerTableRecord
  2
0
 70
     0
 62
     7
  6
Continuous
370
    -3
390
F
347
3E
  0
LAYER
  5
40
330
2
100
AcDbSymbolTableRecord
100
AcDbLayerTableRecord
  2
Системный слой
 70
     0
 62
     7
  6
Continuous
370
    -3
390
F
347
3E
  0
ENDTAB
  0
TABLE
  2
STYLE
  5
3
330
0
100
AcDbSymbolTable
 70
     1
  0
STYLE
  5
11
330
3
100
AcDbSymbolTableRecord
100
AcDbTextStyleTableRecord
  2
Standard
 70
     0
 40
0.0
 41
1.0
 50
0.0
 71
     0
 42
2.5
  3
txt
  4

  0
ENDTAB
  0
TABLE
  2
VIEW
  5
6
330
0
100
AcDbSymbolTable
 70
     0
  0
ENDTAB
  0
TABLE
  2
UCS
  5
7
330
0
100
AcDbSymbolTable
 70
     0
  0
ENDTAB
  0
TABLE
  2
APPID
  5
9
330
0
100
AcDbSymbolTable
 70
     2
  0
APPID
  5
12
330
9
100
AcDbSymbolTableRecord
100
AcDbRegAppTableRecord
  2
ACAD
 70
     0
  0
APPID
  5
3F
330
9
100
AcDbSymbolTableRecord
100
AcDbRegAppTableRecord
  2
KOMPAS
 70
     0
  0
ENDTAB
  0
TABLE
  2
DIMSTYLE
  5
A
330
0
100
AcDbSymbolTable
 70
     1
100
AcDbDimStyleTable
  0
DIMSTYLE
105
27
330
A
100
AcDbSymbolTableRecord
100
AcDbDimStyleTableRecord
  2
ISO-25
 70
     0
 41
2.5
 42
0.625
 43
3.75
 44
1.25
 73
     0
 74
     0
 77
     1
 78
     8
140
2.5
141
2.5
143
0.03937007874016
147
0.625
171
     3
172
     1
178
     0
271
     2
272
     2
274
     3
278
    44
283
     0
284
     8
340
11
  0
ENDTAB
  0
TABLE
  2
BLOCK_RECORD
  5
1
330
0
100
AcDbSymbolTable
 70
    15
  0
BLOCK_RECORD
  5
1F
330
1
100
AcDbSymbolTableRecord
100
AcDbBlockTableRecord
  2
*Model_Space
340
22
 70
     0
280
     1
281
     0
  0
BLOCK_RECORD
  5
1B
330
1
100
AcDbSymbolTableRecord
100
AcDbBlockTableRecord
  2
*Paper_Space
340
1E
 70
     0
280
     1
281
     0
  0
BLOCK_RECORD
  5
23
330
1
100
AcDbSymbolTableRecord
100
AcDbBlockTableRecord
  2
*Paper_Space0
340
26
 70
     0
280
     1
281
     0
  0
BLOCK_RECORD
  5
41
330
1
100
AcDbSymbolTableRecord
100
AcDbBlockTableRecord
  2
KDIMARROW_00
340
0
 70
     0
280
     1
281
     0
  0
BLOCK_RECORD
  5
46
330
1
100
AcDbSymbolTableRecord
100
AcDbBlockTableRecord
  2
KDIMARROW_01
340
0
 70
     0
280
     1
281
     0
  0
BLOCK_RECORD
  5
4F
330
1
100
AcDbSymbolTableRecord
100
AcDbBlockTableRecord
  2
KDIMARROW_02
340
0
 70
     0
280
     1
281
     0
  0
BLOCK_RECORD
  5
59
330
1
100
AcDbSymbolTableRecord
100
AcDbBlockTableRecord
  2
KDIMARROW_03
340
0
 70
     0
280
     1
281
     0
  0
BLOCK_RECORD
  5
5F
330
1
100
AcDbSymbolTableRecord
100
AcDbBlockTableRecord
  2
KDIMARROW_04
340
0
 70
     0
280
     1
281
     0
  0
BLOCK_RECORD
  5
65
330
1
100
AcDbSymbolTableRecord
100
AcDbBlockTableRecord
  2
KDIMARROW_05
340
0
 70
     0
280
     1
281
     0
  0
BLOCK_RECORD
  5
6E
330
1
100
AcDbSymbolTableRecord
100
AcDbBlockTableRecord
  2
KDIMARROW_06
340
0
 70
     0
280
     1
281
     0
  0
BLOCK_RECORD
  5
78
330
1
100
AcDbSymbolTableRecord
100
AcDbBlockTableRecord
  2
KDIMARROW_07
340
0
 70
     0
280
     1
281
     0
  0
BLOCK_RECORD
  5
7E
330
1
100
AcDbSymbolTableRecord
100
AcDbBlockTableRecord
  2
KDIMARROW_08
340
0
 70
     0
280
     1
281
     0
  0
BLOCK_RECORD
  5
85
330
1
100
AcDbSymbolTableRecord
100
AcDbBlockTableRecord
  2
KDIMARROW_09
340
0
 70
     0
280
     1
281
     0
  0
BLOCK_RECORD
  5
8B
330
1
100
AcDbSymbolTableRecord
100
AcDbBlockTableRecord
  2
KDIMARROW_10
340
0
 70
     0
280
     1
281
     0
  0
BLOCK_RECORD
  5
92
330
1
100
AcDbSymbolTableRecord
100
AcDbBlockTableRecord
  2
KDIMARROW_11
340
0
 70
     0
280
     1
281
     0
  0
BLOCK_RECORD
  5
98
330
1
100
AcDbSymbolTableRecord
100
AcDbBlockTableRecord
  2
KDIMARROW_12
340
0
 70
     0
280
     1
281
     0
  0
BLOCK_RECORD
  5
9E
330
1
100
AcDbSymbolTableRecord
100
AcDbBlockTableRecord
  2
KDIMARROW_13
340
0
 70
     0
280
     1
281
     0
  0
ENDTAB
  0
ENDSEC
  0
SECTION
  2
BLOCKS
  0
BLOCK
  5
20
330
1F
100
AcDbEntity
  8
0
100
AcDbBlockBegin
  2
*Model_Space
 70
     0
 10
0.0
 20
0.0
 30
0.0
  3
*Model_Space
  1

  0
ENDBLK
  5
21
330
1F
100
AcDbEntity
  8
0
100
AcDbBlockEnd
  0
BLOCK
  5
1C
330
1B
100
AcDbEntity
 67
     1
  8
0
100
AcDbBlockBegin
  2
*Paper_Space
 70
     0
 10
0.0
 20
0.0
 30
0.0
  3
*Paper_Space
  1

  0
ENDBLK
  5
1D
330
1B
100
AcDbEntity
 67
     1
  8
0
100
AcDbBlockEnd
  0
BLOCK
  5
24
330
23
100
AcDbEntity
  8
0
100
AcDbBlockBegin
  2
*Paper_Space0
 70
     0
 10
0.0
 20
0.0
 30
0.0
  3
*Paper_Space0
  1

  0
ENDBLK
  5
25
330
23
100
AcDbEntity
  8
0
100
AcDbBlockEnd
  0
BLOCK
  5
44
330
41
100
AcDbEntity
  8
0
100
AcDbBlockBegin
  2
KDIMARROW_00
 70
     0
 10
0.0
 20
0.0
 30
0.0
  3
KDIMARROW_00
  1

  0
LINE
  5
43
330
41
100
AcDbEntity
  8
0
  6
K5LT_THIN
 62
     0
100
AcDbLine
 10
0.0
 20
0.0
 30
0.0
 11
-1.0
 21
0.0
 31
0.0
  0
ENDBLK
  5
45
330
41
100
AcDbEntity
  8
0
100
AcDbBlockEnd
  0
BLOCK
  5
4D
330
46
100
AcDbEntity
  8
0
100
AcDbBlockBegin
  2
KDIMARROW_01
 70
     0
 10
0.0
 20
0.0
 30
0.0
  3
KDIMARROW_01
  1

  0
LINE
  5
47
330
46
100
AcDbEntity
  8
0
  6
K5LT_THIN
 62
     0
100
AcDbLine
 10
0.0
 20
0.0
 30
0.0
 11
-5.0
 21
-0.6582624912261956
 31
0.0
  0
LINE
  5
48
330
46
100
AcDbEntity
  8
0
  6
K5LT_THIN
 62
     0
100
AcDbLine
 10
-5.0
 20
-0.6582624912261956
 30
0.0
 11
-4.5
 21
0.0000000000000006
 31
0.0
  0
LINE
  5
49
330
46
100
AcDbEntity
  8
0
  6
K5LT_THIN
 62
     0
100
AcDbLine
 10
-4.5
 20
0.0000000000000006
 30
0.0
 11
-5.0
 21
0.658262491226197
 31
0.0
  0
LINE
  5
4A
330
46
100
AcDbEntity
  8
0
  6
K5LT_THIN
 62
     0
100
AcDbLine
 10
-5.0
 20
0.658262491226197
 30
0.0
 11
0.0
 21
0.0
 31
0.0
  0
HATCH
  5
4B
330
46
100
AcDbEntity
  8
0
 62
     0
100
AcDbHatch
 10
0.0
 20
0.0
 30
0.0
210
0.0
220
0.0
230
1.0
  2
SOLID
 70
     1
 71
     0
 91
        1
 92
        1
 93
        4
 72
     1
 10
0.0
 20
0.0
 11
-5.0
 21
0.658262491226197
 72
     1
 10
-5.0
 20
0.658262491226197
 11
-4.5
 21
0.0000000000000006
 72
     1
 10
-4.5
 20
0.0000000000000006
 11
-5.0
 21
-0.6582624912261956
 72
     1
 10
-5.0
 20
-0.6582624912261956
 11
0.0
 21
0.0
 97
        0
 75
     0
 76
     1
 98
        0
  0
LINE
  5
4C
330
46
100
AcDbEntity
  8
0
  6
K5LT_THIN
 62
     0
100
AcDbLine
 10
0.0
 20
0.0
 30
0.0
 11
-1.0
 21
0.0
 31
0.0
  0
ENDBLK
  5
4E
330
46
100
AcDbEntity
  8
0
100
AcDbBlockEnd
  0
BLOCK
  5
57
330
4F
100
AcDbEntity
  8
0
100
AcDbBlockBegin
  2
KDIMARROW_02
 70
     0
 10
0.0
 20
0.0
 30
0.0
  3
KDIMARROW_02
  1

  0
LINE
  5
50
330
4F
100
AcDbEntity
  8
0
  6
K5LT_THIN
 62
     0
100
AcDbLine
 10
0.0
 20
0.0
 30
0.0
 11
5.0
 21
-0.658262491226197
 31
0.0
  0
LINE
  5
51
330
4F
100
AcDbEntity
  8
0
  6
K5LT_THIN
 62
     0
100
AcDbLine
 10
5.0
 20
-0.658262491226197
 30
0.0
 11
4.5
 21
-0.0000000000000006
 31
0.0
  0
LINE
  5
52
330
4F
100
AcDbEntity
  8
0
  6
K5LT_THIN
 62
     0
100
AcDbLine
 10
4.5
 20
-0.0000000000000006
 30
0.0
 11
5.0
 21
0.6582624912261956
 31
0.0
  0
LINE
  5
53
330
4F
100
AcDbEntity
  8
0
  6
K5LT_THIN
 62
     0
100
AcDbLine
 10
5.0
 20
0.6582624912261956
 30
0.0
 11
0.0
 21
0.0
 31
0.0
  0
LINE
  5
54
330
4F
100
AcDbEntity
  8
0
  6
K5LT_THIN
 62
     0
100
AcDbLine
 10
0.0
 20
0.0
 30
0.0
 11
7.0
 21
-0.0000000000000009
 31
0.0
  0
HATCH
  5
55
330
4F
100
AcDbEntity
  8
0
 62
     0
100
AcDbHatch
 10
0.0
 20
0.0
 30
0.0
210
0.0
220
0.0
230
1.0
  2
SOLID
 70
     1
 71
     0
 91
        1
 92
        1
 93
        4
 72
     1
 10
4.5
 20
-0.0000000000000006
 11
5.0
 21
0.6582624912261956
 72
     1
 10
5.0
 20
0.6582624912261956
 11
0.0
 21
0.0
 72
     1
 10
0.0
 20
0.0
 11
5.0
 21
-0.658262491226197
 72
     1
 10
5.0
 20
-0.658262491226197
 11
4.5
 21
-0.0000000000000006
 97
        0
 75
     0
 76
     1
 98
        0
  0
LINE
  5
56
330
4F
100
AcDbEntity
  8
0
  6
K5LT_THIN
 62
     0
100
AcDbLine
 10
0.0
 20
0.0
 30
0.0
 11
-1.0
 21
0.0
 31
0.0
  0
ENDBLK
  5
58
330
4F
100
AcDbEntity
  8
0
100
AcDbBlockEnd
  0
BLOCK
  5
5D
330
59
100
AcDbEntity
  8
0
100
AcDbBlockBegin
  2
KDIMARROW_03
 70
     0
 10
0.0
 20
0.0
 30
0.0
  3
KDIMARROW_03
  1

  0
LINE
  5
5A
330
59
100
AcDbEntity
  8
0
  6
K5LT_THIN
 62
     0
100
AcDbLine
 10
-1.060500025749207
 20
-1.060500025749206
 30
0.0
 11
1.060500025749207
 21
1.060500025749206
 31
0.0
  0
LINE
  5
5B
330
59
100
AcDbEntity
  8
0
  6
K5LT_THIN
 62
     0
100
AcDbLine
 10
0.0
 20
0.0
 30
0.0
 11
2.0
 21
-0.0000000000000002
 31
0.0
  0
LINE
  5
5C
330
59
100
AcDbEntity
  8
0
  6
K5LT_THIN
 62
     0
100
AcDbLine
 10
0.0
 20
0.0
 30
0.0
 11
-1.0
 21
0.0
 31
0.0
  0
ENDBLK
  5
5E
330
59
100
AcDbEntity
  8
0
100
AcDbBlockEnd
  0
BLOCK
  5
63
330
5F
100
AcDbEntity
  8
0
100
AcDbBlockBegin
  2
KDIMARROW_04
 70
     0
 10
0.0
 20
0.0
 30
0.0
  3
KDIMARROW_04
  1

  0
LWPOLYLINE
  5
60
330
5F
100
AcDbEntity
  8
0
  6
K5LT_THIN
 62
     7
100
AcDbPolyline
 90
       15
 70
     0
 43
0.0
 10
-0.25
 20
0.0
 10
0.0
 20
-0.25
 10
0.25
 20
0.0
 10
0.0
 20
0.25
 10
-0.25
 20
0.0
 10
-0.5
 20
0.0000000000000001
 10
-0.0000000000000001
 20
-0.5
 10
0.5
 20
-0.0000000000000001
 10
0.0000000000000001
 20
0.5
 10
-0.5
 20
0.0000000000000001
 10
-0.75
 20
0.0000000000000001
 10
-0.0000000000000001
 20
-0.75
 10
0.75
 20
-0.0000000000000001
 10
0.0000000000000001
 20
0.75
 10
-0.75
 20
0.0000000000000001
  0
LWPOLYLINE
  5
61
330
5F
100
AcDbEntity
  8
0
  6
K5LT_THIN
 62
     7
100
AcDbPolyline
 90
       15
 70
     0
 43
0.0
 10
-0.25
 20
0.0
 10
0.0
 20
-0.25
 10
0.25
 20
0.0
 10
0.0
 20
0.25
 10
-0.25
 20
0.0
 10
-0.5
 20
0.0000000000000001
 10
-0.0000000000000001
 20
-0.5
 10
0.5
 20
-0.0000000000000001
 10
0.0000000000000001
 20
0.5
 10
-0.5
 20
0.0000000000000001
 10
-0.75
 20
0.0000000000000001
 10
-0.0000000000000001
 20
-0.75
 10
0.75
 20
-0.0000000000000001
 10
0.0000000000000001
 20
0.75
 10
-0.75
 20
0.0000000000000001
  0
LINE
  5
62
330
5F
100
AcDbEntity
  8
0
  6
K5LT_THIN
 62
     0
100
AcDbLine
 10
0.0
 20
0.0
 30
0.0
 11
-1.0
 21
0.0
 31
0.0
  0
ENDBLK
  5
64
330
5F
100
AcDbEntity
  8
0
100
AcDbBlockEnd
  0
BLOCK
  5
6C
330
65
100
AcDbEntity
  8
0
100
AcDbBlockBegin
  2
KDIMARROW_05
 70
     0
 10
0.0
 20
0.0
 30
0.0
  3
KDIMARROW_05
  1

  0
LINE
  5
66
330
65
100
AcDbEntity
  8
0
  6
K5LT_THIN
 62
     0
100
AcDbLine
 10
0.0
 20
0.0
 30
0.0
 11
-5.0
 21
-0.6582624912261956
 31
0.0
  0
LINE
  5
67
330
65
100
AcDbEntity
  8
0
  6
K5LT_THIN
 62
     0
100
AcDbLine
 10
-5.0
 20
-0.6582624912261956
 30
0.0
 11
-5.0
 21
0.0000000000000006
 31
0.0
  0
LINE
  5
68
330
65
100
AcDbEntity
  8
0
  6
K5LT_THIN
 62
     0
100
AcDbLine
 10
-5.0
 20
0.0000000000000006
 30
0.0
 11
-5.0
 21
0.658262491226197
 31
0.0
  0
LINE
  5
69
330
65
100
AcDbEntity
  8
0
  6
K5LT_THIN
 62
     0
100
AcDbLine
 10
-5.0
 20
0.658262491226197
 30
0.0
 11
0.0
 21
0.0
 31
0.0
  0
HATCH
  5
6A
330
65
100
AcDbEntity
  8
0
 62
     0
100
AcDbHatch
 10
0.0
 20
0.0
 30
0.0
210
0.0
220
0.0
230
1.0
  2
SOLID
 70
     1
 71
     0
 91
        1
 92
        1
 93
        4
 72
     1
 10
0.0
 20
0.0
 11
-5.0
 21
0.658262491226197
 72
     1
 10
-5.0
 20
0.658262491226197
 11
-5.0
 21
0.0000000000000007
 72
     1
 10
-5.0
 20
0.0000000000000006
 11
-5.0
 21
-0.6582624912261956
 72
     1
 10
-5.0
 20
-0.6582624912261956
 11
0.0
 21
0.0
 97
        0
 75
     0
 76
     1
 98
        0
  0
LINE
  5
6B
330
65
100
AcDbEntity
  8
0
  6
K5LT_THIN
 62
     0
100
AcDbLine
 10
0.0
 20
0.0
 30
0.0
 11
-1.0
 21
0.0
 31
0.0
  0
ENDBLK
  5
6D
330
65
100
AcDbEntity
  8
0
100
AcDbBlockEnd
  0
BLOCK
  5
76
330
6E
100
AcDbEntity
  8
0
100
AcDbBlockBegin
  2
KDIMARROW_06
 70
     0
 10
0.0
 20
0.0
 30
0.0
  3
KDIMARROW_06
  1

  0
LINE
  5
6F
330
6E
100
AcDbEntity
  8
0
  6
K5LT_THIN
 62
     0
100
AcDbLine
 10
0.0
 20
0.0
 30
0.0
 11
5.0
 21
-0.658262491226197
 31
0.0
  0
LINE
  5
70
330
6E
100
AcDbEntity
  8
0
  6
K5LT_THIN
 62
     0
100
AcDbLine
 10
5.0
 20
-0.658262491226197
 30
0.0
 11
5.0
 21
-0.0000000000000006
 31
0.0
  0
LINE
  5
71
330
6E
100
AcDbEntity
  8
0
  6
K5LT_THIN
 62
     0
100
AcDbLine
 10
5.0
 20
-0.0000000000000006
 30
0.0
 11
5.0
 21
0.6582624912261956
 31
0.0
  0
LINE
  5
72
330
6E
100
AcDbEntity
  8
0
  6
K5LT_THIN
 62
     0
100
AcDbLine
 10
5.0
 20
0.6582624912261956
 30
0.0
 11
0.0
 21
0.0
 31
0.0
  0
LINE
  5
73
330
6E
100
AcDbEntity
  8
0
  6
K5LT_THIN
 62
     0
100
AcDbLine
 10
0.0
 20
0.0
 30
0.0
 11
7.0
 21
-0.0000000000000009
 31
0.0
  0
HATCH
  5
74
330
6E
100
AcDbEntity
  8
0
 62
     0
100
AcDbHatch
 10
0.0
 20
0.0
 30
0.0
210
0.0
220
0.0
230
1.0
  2
SOLID
 70
     1
 71
     0
 91
        1
 92
        1
 93
        4
 72
     1
 10
5.0
 20
-0.0000000000000006
 11
5.0
 21
0.6582624912261956
 72
     1
 10
5.0
 20
0.6582624912261956
 11
0.0
 21
0.0
 72
     1
 10
0.0
 20
0.0
 11
5.0
 21
-0.658262491226197
 72
     1
 10
5.0
 20
-0.658262491226197
 11
5.0
 21
-0.0000000000000007
 97
        0
 75
     0
 76
     1
 98
        0
  0
LINE
  5
75
330
6E
100
AcDbEntity
  8
0
  6
K5LT_THIN
 62
     0
100
AcDbLine
 10
0.0
 20
0.0
 30
0.0
 11
-1.0
 21
0.0
 31
0.0
  0
ENDBLK
  5
77
330
6E
100
AcDbEntity
  8
0
100
AcDbBlockEnd
  0
BLOCK
  5
7C
330
78
100
AcDbEntity
  8
0
100
AcDbBlockBegin
  2
KDIMARROW_07
 70
     0
 10
0.0
 20
0.0
 30
0.0
  3
KDIMARROW_07
  1

  0
LINE
  5
79
330
78
100
AcDbEntity
  8
0
  6
K5LT_THIN
 62
     0
100
AcDbLine
 10
0.0
 20
0.0
 30
0.0
 11
-5.0
 21
-0.6582624912261956
 31
0.0
  0
LINE
  5
7A
330
78
100
AcDbEntity
  8
0
  6
K5LT_THIN
 62
     0
100
AcDbLine
 10
0.0
 20
0.0
 30
0.0
 11
-5.0
 21
0.658262491226197
 31
0.0
  0
LINE
  5
7B
330
78
100
AcDbEntity
  8
0
  6
K5LT_THIN
 62
     0
100
AcDbLine
 10
0.0
 20
0.0
 30
0.0
 11
-1.0
 21
0.0
 31
0.0
  0
ENDBLK
  5
7D
330
78
100
AcDbEntity
  8
0
100
AcDbBlockEnd
  0
BLOCK
  5
83
330
7E
100
AcDbEntity
  8
0
100
AcDbBlockBegin
  2
KDIMARROW_08
 70
     0
 10
0.0
 20
0.0
 30
0.0
  3
KDIMARROW_08
  1

  0
LINE
  5
7F
330
7E
100
AcDbEntity
  8
0
  6
K5LT_THIN
 62
     0
100
AcDbLine
 10
0.0
 20
0.0
 30
0.0
 11
5.0
 21
-0.658262491226197
 31
0.0
  0
LINE
  5
80
330
7E
100
AcDbEntity
  8
0
  6
K5LT_THIN
 62
     0
100
AcDbLine
 10
0.0
 20
0.0
 30
0.0
 11
5.0
 21
0.6582624912261956
 31
0.0
  0
LINE
  5
81
330
7E
100
AcDbEntity
  8
0
  6
K5LT_THIN
 62
     0
100
AcDbLine
 10
0.0
 20
0.0
 30
0.0
 11
7.0
 21
-0.0000000000000009
 31
0.0
  0
LINE
  5
82
330
7E
100
AcDbEntity
  8
0
  6
K5LT_THIN
 62
     0
100
AcDbLine
 10
0.0
 20
0.0
 30
0.0
 11
-1.0
 21
0.0
 31
0.0
  0
ENDBLK
  5
84
330
7E
100
AcDbEntity
  8
0
100
AcDbBlockEnd
  0
BLOCK
  5
89
330
85
100
AcDbEntity
  8
0
100
AcDbBlockBegin
  2
KDIMARROW_09
 70
     0
 10
0.0
 20
0.0
 30
0.0
  3
KDIMARROW_09
  1

  0
LINE
  5
86
330
85
100
AcDbEntity
  8
0
  6
K5LT_THIN
 62
     0
100
AcDbLine
 10
0.0
 20
0.0
 30
0.0
 11
-2.0
 21
-2.0
 31
0.0
  0
LINE
  5
87
330
85
100
AcDbEntity
  8
0
  6
K5LT_THIN
 62
     0
100
AcDbLine
 10
0.0
 20
0.0
 30
0.0
 11
-2.0
 21
2.0
 31
0.0
  0
LINE
  5
88
330
85
100
AcDbEntity
  8
0
  6
K5LT_THIN
 62
     0
100
AcDbLine
 10
0.0
 20
0.0
 30
0.0
 11
-1.0
 21
0.0
 31
0.0
  0
ENDBLK
  5
8A
330
85
100
AcDbEntity
  8
0
100
AcDbBlockEnd
  0
BLOCK
  5
90
330
8B
100
AcDbEntity
  8
0
100
AcDbBlockBegin
  2
KDIMARROW_10
 70
     0
 10
0.0
 20
0.0
 30
0.0
  3
KDIMARROW_10
  1

  0
LINE
  5
8C
330
8B
100
AcDbEntity
  8
0
  6
K5LT_THIN
 62
     0
100
AcDbLine
 10
0.0
 20
0.0
 30
0.0
 11
2.0
 21
-2.0
 31
0.0
  0
LINE
  5
8D
330
8B
100
AcDbEntity
  8
0
  6
K5LT_THIN
 62
     0
100
AcDbLine
 10
0.0
 20
0.0
 30
0.0
 11
2.0
 21
2.0
 31
0.0
  0
LINE
  5
8E
330
8B
100
AcDbEntity
  8
0
  6
K5LT_THIN
 62
     0
100
AcDbLine
 10
0.0
 20
0.0
 30
0.0
 11
4.0
 21
-0.0000000000000005
 31
0.0
  0
LINE
  5
8F
330
8B
100
AcDbEntity
  8
0
  6
K5LT_THIN
 62
     0
100
AcDbLine
 10
0.0
 20
0.0
 30
0.0
 11
-1.0
 21
0.0
 31
0.0
  0
ENDBLK
  5
91
330
8B
100
AcDbEntity
  8
0
100
AcDbBlockEnd
  0
BLOCK
  5
96
330
92
100
AcDbEntity
  8
0
100
AcDbBlockBegin
  2
KDIMARROW_11
 70
     0
 10
0.0
 20
0.0
 30
0.0
  3
KDIMARROW_11
  1

  0
CIRCLE
  5
93
330
92
100
AcDbEntity
  8
0
  6
K5LT_THIN
 62
     0
100
AcDbCircle
 10
0.0
 20
0.0
 30
0.0
 40
2.5
  0
CIRCLE
  5
94
330
92
100
AcDbEntity
  8
0
  6
K5LT_THIN
 62
     0
100
AcDbCircle
 10
0.0
 20
0.0
 30
0.0
 40
2.5
  0
LINE
  5
95
330
92
100
AcDbEntity
  8
0
  6
K5LT_THIN
 62
     0
100
AcDbLine
 10
0.0
 20
0.0
 30
0.0
 11
-1.0
 21
0.0
 31
0.0
  0
ENDBLK
  5
97
330
92
100
AcDbEntity
  8
0
100
AcDbBlockEnd
  0
BLOCK
  5
9C
330
98
100
AcDbEntity
  8
0
100
AcDbBlockBegin
  2
KDIMARROW_12
 70
     0
 10
0.0
 20
0.0
 30
0.0
  3
KDIMARROW_12
  1

  0
CIRCLE
  5
99
330
98
100
AcDbEntity
  8
0
  6
K5LT_THIN
 62
     0
100
AcDbCircle
 10
0.0
 20
0.0
 30
0.0
 40
1.5
  0
CIRCLE
  5
9A
330
98
100
AcDbEntity
  8
0
  6
K5LT_THIN
 62
     0
100
AcDbCircle
 10
0.0
 20
0.0
 30
0.0
 40
1.5
  0
LINE
  5
9B
330
98
100
AcDbEntity
  8
0
  6
K5LT_THIN
 62
     0
100
AcDbLine
 10
0.0
 20
0.0
 30
0.0
 11
-1.0
 21
0.0
 31
0.0
  0
ENDBLK
  5
9D
330
98
100
AcDbEntity
  8
0
100
AcDbBlockEnd
  0
BLOCK
  5
A2
330
9E
100
AcDbEntity
  8
0
100
AcDbBlockBegin
  2
KDIMARROW_13
 70
     0
 10
0.0
 20
0.0
 30
0.0
  3
KDIMARROW_13
  1

  0
LINE
  5
9F
330
9E
100
AcDbEntity
  8
0
  6
K5LT_THIN
 62
     0
100
AcDbLine
 10
-1.060500025749206
 20
1.060500025749207
 30
0.0
 11
1.060500025749206
 21
-1.060500025749207
 31
0.0
  0
LINE
  5
A0
330
9E
100
AcDbEntity
  8
0
  6
K5LT_THIN
 62
     0
100
AcDbLine
 10
0.0
 20
0.0
 30
0.0
 11
2.0
 21
-0.0000000000000002
 31
0.0
  0
LINE
  5
A1
330
9E
100
AcDbEntity
  8
0
  6
K5LT_THIN
 62
     0
100
AcDbLine
 10
0.0
 20
0.0
 30
0.0
 11
-1.0
 21
0.0
 31
0.0
  0
ENDBLK
  5
A3
330
9E
100
AcDbEntity
  8
0
100
AcDbBlockEnd
  0
ENDSEC
  0
SECTION
  2
ENTITIES
  0
SPLINE
  5
A5
330
1F
100
AcDbEntity
  8
0
  6
K5LT32773
 62
    30
420
 16744448
100
AcDbSpline
210
0.0
220
0.0
230
1.0
 70
     8
 71
     3
 72
    17
 73
    13
 74
     0
 42
0.0
 43
0.0
 12
1.0
 22
0.0
 32
0.0
 13
1.0
 23
0.0
 33
0.0
 40
0.0
 40
0.0
 40
0.0
 40
0.0
 40
1.0
 40
1.0
 40
1.0
 40
2.0
 40
2.0
 40
2.0
 40
3.0
 40
3.0
 40
3.0
 40
4.0
 40
4.0
 40
4.0
 40
4.0
 10
-112.0681938243575
 20
138.5608575445037
 30
0.0
 10
-115.6034351909602
 20
138.8950832073342
 30
0.0
 10
-119.1024020773428
 20
138.8950832073341
 30
0.0
 10
-122.5650944835052
 20
138.5608575445037
 30
0.0
 10
-126.879535068218
 20
138.144419526041
 30
0.0
 10
-132.4035983315244
 20
138.5157653974054
 30
0.0
 10
-135.3394719122698
 20
135.754924930093
 30
0.0
 10
-136.9370687164169
 20
134.2525748506259
 30
0.0
 10
-138.797121132357
 20
131.7821100119158
 30
0.0
 10
-138.9576481782204
 20
129.6261773775643
 30
0.0
 10
-139.0961639558196
 20
127.7658635364147
 30
0.0
 10
-138.4562144121821
 20
125.8214014615161
 30
0.0
 10
-137.0377995473078
 20
123.7927911528684
 30
0.0
  0
SPLINE
  5
A6
330
1F
100
AcDbEntity
  8
0
  6
K5LT32773
 62
    30
420
 16744448
100
AcDbSpline
210
0.0
220
0.0
230
1.0
 70
     8
 71
     3
 72
    17
 73
    13
 74
     0
 42
0.0
 43
0.0
 12
1.0
 22
0.0
 32
0.0
 13
1.0
 23
0.0
 33
0.0
 40
0.0
 40
0.0
 40
0.0
 40
0.0
 40
1.0
 40
1.0
 40
1.0
 40
2.0
 40
2.0
 40
2.0
 40
3.0
 40
3.0
 40
3.0
 40
4.0
 40
4.0
 40
4.0
 40
4.0
 10
-137.0377995473078
 20
123.7927911528684
 30
0.0
 10
-143.6251700951357
 20
124.8659063818829
 30
0.0
 10
-149.5077832078038
 20
124.2997971702035
 30
0.0
 10
-154.6856388853121
 20
122.0944635178303
 30
0.0
 10
-159.9743964597689
 20
119.8418949287022
 30
0.0
 10
-165.404804577024
 20
115.1606085480182
 30
0.0
 10
-168.3461002975748
 20
110.2061700725638
 30
0.0
 10
-171.0061936594475
 20
105.7254003191928
 30
0.0
 10
-172.55637288525
 20
99.61436195355861
 30
0.0
 10
-172.3703990274733
 20
94.33049974317942
 30
0.0
 10
-172.2229488927919
 20
90.14116795282753
 30
0.0
 10
-171.1153439574314
 20
85.95688264146607
 30
0.0
 10
-169.0475842213921
 20
81.77764380909505
 30
0.0
  0
SPLINE
  5
A7
330
1F
100
AcDbEntity
  8
0
  6
K5LT32773
 62
    30
420
 16744448
100
AcDbSpline
210
0.0
220
0.0
230
1.0
 70
     8
 71
     3
 72
    17
 73
    13
 74
     0
 42
0.0
 43
0.0
 12
1.0
 22
0.0
 32
0.0
 13
1.0
 23
0.0
 33
0.0
 40
0.0
 40
0.0
 40
0.0
 40
0.0
 40
1.0
 40
1.0
 40
1.0
 40
2.0
 40
2.0
 40
2.0
 40
3.0
 40
3.0
 40
3.0
 40
4.0
 40
4.0
 40
4.0
 40
4.0
 10
-169.0475842213921
 20
81.77764380909505
 30
0.0
 10
-170.7305887327002
 20
81.99803469879524
 30
0.0
 10
-172.2334866265751
 20
81.83525662474123
 30
0.0
 10
-173.5562779030167
 20
81.28930958693303
 30
0.0
 10
-175.307858582388
 20
80.56639108844004
 30
0.0
 10
-177.0595195808599
 20
78.79736727996571
 30
0.0
 10
-177.8636304294183
 20
77.10502427557157
 30
0.0
 10
-178.6820099875183
 20
75.38265114433875
 30
0.0
 10
-178.9090068283399
 20
72.86636841690003
 30
0.0
 10
-178.3558992895784
 20
71.01319713108944
 30
0.0
 10
-177.9403240709577
 20
69.62082402410383
 30
0.0
 10
-177.1198759706907
 20
68.32861826618337
 30
0.0
 10
-175.8945549887776
 20
67.13657985732809
 30
0.0
  0
SPLINE
  5
A8
330
1F
100
AcDbEntity
  8
0
  6
K5LT32773
 62
    30
420
 16744448
100
AcDbSpline
210
0.0
220
0.0
230
1.0
 70
     8
 71
     3
 72
    17
 73
    13
 74
     0
 42
0.0
 43
0.0
 12
1.0
 22
0.0
 32
0.0
 13
1.0
 23
0.0
 33
0.0
 40
0.0
 40
0.0
 40
0.0
 40
0.0
 40
1.0
 40
1.0
 40
1.0
 40
2.0
 40
2.0
 40
2.0
 40
3.0
 40
3.0
 40
3.0
 40
4.0
 40
4.0
 40
4.0
 40
4.0
 10
-175.8945549887776
 20
67.13657985732809
 30
0.0
 10
-183.5778160833534
 20
62.84795874279487
 30
0.0
 10
-189.1773743676753
 20
57.45351248353964
 30
0.0
 10
-192.6932298417434
 20
50.95324107956244
 30
0.0
 10
-196.3832577288409
 20
44.13095190092794
 30
0.0
 10
-198.2634198797594
 20
34.4467179523866
 30
0.0
 10
-196.8775151531049
 20
26.83206693171402
 30
0.0
 10
-195.7059314569778
 20
20.39497149799505
 30
0.0
 10
-192.412198843826
 20
12.94223777225569
 30
0.0
 10
-187.4013395950216
 20
8.433518283227606
 30
0.0
 10
-185.6242055253269
 20
6.834471369954141
 30
0.0
 10
-183.6141076796729
 20
5.439709599500322
 30
0.0
 10
-181.3710460580595
 20
4.249232971866149
 30
0.0
  0
SPLINE
  5
A9
330
1F
100
AcDbEntity
  8
0
  6
K5LT32773
 62
    30
420
 16744448
100
AcDbSpline
210
0.0
220
0.0
230
1.0
 70
     8
 71
     3
 72
    14
 73
    10
 74
     0
 42
0.0
 43
0.0
 12
1.0
 22
0.0
 32
0.0
 13
1.0
 23
0.0
 33
0.0
 40
0.0
 40
0.0
 40
0.0
 40
0.0
 40
1.0
 40
1.0
 40
1.0
 40
2.0
 40
2.0
 40
2.0
 40
3.0
 40
3.0
 40
3.0
 40
3.0
 10
-181.3710460580595
 20
4.249232971866149
 30
0.0
 10
-182.8628264549985
 20
3.154507615294162
 30
0.0
 10
-183.8678753778255
 20
1.944346667400407
 30
0.0
 10
-184.3861928265405
 20
0.6187501281848835
 30
0.0
 10
-185.3157143512437
 20
-1.758500568907317
 30
0.0
 10
-184.4708262264426
 20
-6.012866479243963
 30
0.0
 10
-182.4786509934199
 20
-7.626753279497992
 30
0.0
 10
-181.5961699431626
 20
-8.341662537918811
 30
0.0
 10
-180.4475426027888
 20
-8.833931398078985
 30
0.0
 10
-179.0327689722987
 20
-9.103559859978509
 30
0.0
  0
SPLINE
  5
AA
330
1F
100
AcDbEntity
  8
0
  6
K5LT32773
 62
    30
420
 16744448
100
AcDbSpline
210
0.0
220
0.0
230
1.0
 70
     8
 71
     3
 72
    20
 73
    16
 74
     0
 42
0.0
 43
0.0
 12
1.0
 22
0.0
 32
0.0
 13
1.0
 23
0.0
 33
0.0
 40
0.0
 40
0.0
 40
0.0
 40
0.0
 40
1.0
 40
1.0
 40
1.0
 40
2.0
 40
2.0
 40
2.0
 40
3.0
 40
3.0
 40
3.0
 40
4.0
 40
4.0
 40
4.0
 40
5.0
 40
5.0
 40
5.0
 40
5.0
 10
-179.0327689722987
 20
-9.103559859978509
 30
0.0
 10
-181.4408507275586
 20
-12.75682015256243
 30
0.0
 10
-182.8151012955057
 20
-16.44883660376372
 30
0.0
 10
-183.1555206761401
 20
-20.17960921358237
 30
0.0
 10
-183.6278356434086
 20
-25.35587074078692
 30
0.0
 10
-181.5057799512704
 20
-31.60252052045401
 30
0.0
 10
-178.6020337196585
 20
-35.93221273870787
 30
0.0
 10
-175.7736669241467
 20
-40.1495088548692
 30
0.0
 10
-170.7800198899842
 20
-43.67857230817872
 30
0.0
 10
-166.1722450006142
 20
-45.96219076447136
 30
0.0
 10
-159.6397830785603
 20
-49.19968629504639
 30
0.0
 10
-151.2563130076893
 20
-49.33629705672127
 30
0.0
 10
-143.7740118633264
 20
-49.28500557055252
 30
0.0
 10
-138.3061844651624
 20
-49.24752338586696
 30
0.0
 10
-132.8296933958805
 20
-48.59116490565339
 30
0.0
 10
-127.3445386554807
 20
-47.31593012991183
 30
0.0
  0
SPLINE
  5
AB
330
1F
100
AcDbEntity
  8
0
  6
K5LT32773
 62
    30
420
 16744448
100
AcDbSpline
210
0.0
220
0.0
230
1.0
 70
     8
 71
     3
 72
    17
 73
    13
 74
     0
 42
0.0
 43
0.0
 12
1.0
 22
0.0
 32
0.0
 13
1.0
 23
0.0
 33
0.0
 40
0.0
 40
0.0
 40
0.0
 40
0.0
 40
1.0
 40
1.0
 40
1.0
 40
2.0
 40
2.0
 40
2.0
 40
3.0
 40
3.0
 40
3.0
 40
4.0
 40
4.0
 40
4.0
 40
4.0
 10
-127.3445386554807
 20
-47.31593012991183
 30
0.0
 10
-128.4696912290241
 20
-49.17903415630911
 30
0.0
 10
-129.1169340176996
 20
-51.07233165641351
 30
0.0
 10
-129.2862670215072
 20
-52.99582263022502
 30
0.0
 10
-129.48934564537
 20
-55.30263755224685
 30
0.0
 10
-128.9436998971148
 20
-58.14178214469975
 30
0.0
 10
-127.8333902927488
 20
-60.04654793155283
 30
0.0
 10
-126.1458543394947
 20
-62.94156093981915
 30
0.0
 10
-121.8758546604767
 20
-64.7009141214499
 30
0.0
 10
-118.4324232243117
 20
-65.64439650412218
 30
0.0
 10
-116.4171206704334
 20
-66.19657896820988
 30
0.0
 10
-114.2960171837947
 20
-66.42624606073562
 30
0.0
 10
-112.0681938243575
 20
-66.3530280341149
 30
0.0
  0
SPLINE
  5
AC
330
1F
100
AcDbEntity
  8
0
  6
K5LT32773
 62
    30
420
 16744448
100
AcDbSpline
210
0.0
220
0.0
230
1.0
 70
     8
 71
     3
 72
    17
 73
    13
 74
     0
 42
0.0
 43
0.0
 12
1.0
 22
0.0
 32
0.0
 13
1.0
 23
0.0
 33
0.0
 40
0.0
 40
0.0
 40
0.0
 40
0.0
 40
1.0
 40
1.0
 40
1.0
 40
2.0
 40
2.0
 40
2.0
 40
3.0
 40
3.0
 40
3.0
 40
4.0
 40
4.0
 40
4.0
 40
4.0
 10
-112.0681938243575
 20
138.5608575445037
 30
0.0
 10
-108.5329524577548
 20
138.8950832073342
 30
0.0
 10
-105.0339855713723
 20
138.8950832073341
 30
0.0
 10
-101.5712931652099
 20
138.5608575445037
 30
0.0
 10
-97.25685258049701
 20
138.144419526041
 30
0.0
 10
-91.73278931719068
 20
138.5157653974054
 30
0.0
 10
-88.79691573644527
 20
135.754924930093
 30
0.0
 10
-87.19931893229818
 20
134.2525748506259
 30
0.0
 10
-85.33926651635807
 20
131.7821100119158
 30
0.0
 10
-85.1787394704946
 20
129.6261773775643
 30
0.0
 10
-85.04022369289541
 20
127.7658635364147
 30
0.0
 10
-85.68017323653295
 20
125.8214014615161
 30
0.0
 10
-87.09858810140722
 20
123.7927911528684
 30
0.0
  0
SPLINE
  5
AD
330
1F
100
AcDbEntity
  8
0
  6
K5LT32773
 62
    30
420
 16744448
100
AcDbSpline
210
0.0
220
0.0
230
1.0
 70
     8
 71
     3
 72
    17
 73
    13
 74
     0
 42
0.0
 43
0.0
 12
1.0
 22
0.0
 32
0.0
 13
1.0
 23
0.0
 33
0.0
 40
0.0
 40
0.0
 40
0.0
 40
0.0
 40
1.0
 40
1.0
 40
1.0
 40
2.0
 40
2.0
 40
2.0
 40
3.0
 40
3.0
 40
3.0
 40
4.0
 40
4.0
 40
4.0
 40
4.0
 10
-87.09858810140722
 20
123.7927911528684
 30
0.0
 10
-80.51121755357939
 20
124.8659063818829
 30
0.0
 10
-74.62860444091129
 20
124.2997971702035
 30
0.0
 10
-69.45074876340297
 20
122.0944635178303
 30
0.0
 10
-64.16199118894619
 20
119.8418949287022
 30
0.0
 10
-58.73158307169101
 20
115.1606085480182
 30
0.0
 10
-55.79028735114028
 20
110.2061700725638
 30
0.0
 10
-53.1301939892675
 20
105.7254003191928
 30
0.0
 10
-51.58001476346504
 20
99.61436195355861
 30
0.0
 10
-51.76598862124177
 20
94.33049974317942
 30
0.0
 10
-51.91343875592318
 20
90.14116795282753
 30
0.0
 10
-53.02104369128358
 20
85.95688264146607
 30
0.0
 10
-55.08880342732294
 20
81.77764380909505
 30
0.0
  0
SPLINE
  5
AE
330
1F
100
AcDbEntity
  8
0
  6
K5LT32773
 62
    30
420
 16744448
100
AcDbSpline
210
0.0
220
0.0
230
1.0
 70
     8
 71
     3
 72
    17
 73
    13
 74
     0
 42
0.0
 43
0.0
 12
1.0
 22
0.0
 32
0.0
 13
1.0
 23
0.0
 33
0.0
 40
0.0
 40
0.0
 40
0.0
 40
0.0
 40
1.0
 40
1.0
 40
1.0
 40
2.0
 40
2.0
 40
2.0
 40
3.0
 40
3.0
 40
3.0
 40
4.0
 40
4.0
 40
4.0
 40
4.0
 10
-55.08880342732294
 20
81.77764380909505
 30
0.0
 10
-53.40579891601485
 20
81.99803469879524
 30
0.0
 10
-51.90290102213996
 20
81.83525662474123
 30
0.0
 10
-50.58010974569831
 20
81.28930958693303
 30
0.0
 10
-48.82852906632704
 20
80.56639108844004
 30
0.0
 10
-47.07686806785512
 20
78.79736727996571
 30
0.0
 10
-46.27275721929678
 20
77.10502427557157
 30
0.0
 10
-45.45437766119679
 20
75.38265114433875
 30
0.0
 10
-45.22738082037517
 20
72.86636841690003
 30
0.0
 10
-45.78048835913663
 20
71.01319713108944
 30
0.0
 10
-46.19606357775737
 20
69.62082402410383
 30
0.0
 10
-47.01651167802433
 20
68.32861826618337
 30
0.0
 10
-48.24183265993747
 20
67.13657985732809
 30
0.0
  0
SPLINE
  5
AF
330
1F
100
AcDbEntity
  8
0
  6
K5LT32773
 62
    30
420
 16744448
100
AcDbSpline
210
0.0
220
0.0
230
1.0
 70
     8
 71
     3
 72
    17
 73
    13
 74
     0
 42
0.0
 43
0.0
 12
1.0
 22
0.0
 32
0.0
 13
1.0
 23
0.0
 33
0.0
 40
0.0
 40
0.0
 40
0.0
 40
0.0
 40
1.0
 40
1.0
 40
1.0
 40
2.0
 40
2.0
 40
2.0
 40
3.0
 40
3.0
 40
3.0
 40
4.0
 40
4.0
 40
4.0
 40
4.0
 10
-48.24183265993747
 20
67.13657985732809
 30
0.0
 10
-40.55857156536169
 20
62.84795874279487
 30
0.0
 10
-34.95901328103974
 20
57.45351248353964
 30
0.0
 10
-31.44315780697161
 20
50.95324107956244
 30
0.0
 10
-27.75312991987417
 20
44.13095190092794
 30
0.0
 10
-25.87296776895565
 20
34.4467179523866
 30
0.0
 10
-27.25887249561015
 20
26.83206693171402
 30
0.0
 10
-28.43045619173722
 20
20.39497149799505
 30
0.0
 10
-31.72418880488902
 20
12.94223777225569
 30
0.0
 10
-36.73504805369345
 20
8.433518283227606
 30
0.0
 10
-38.51218212338819
 20
6.834471369954141
 30
0.0
 10
-40.52227996904222
 20
5.439709599500322
 30
0.0
 10
-42.76534159065554
 20
4.249232971866149
 30
0.0
  0
SPLINE
  5
B0
330
1F
100
AcDbEntity
  8
0
  6
K5LT32773
 62
    30
420
 16744448
100
AcDbSpline
210
0.0
220
0.0
230
1.0
 70
     8
 71
     3
 72
    14
 73
    10
 74
     0
 42
0.0
 43
0.0
 12
1.0
 22
0.0
 32
0.0
 13
1.0
 23
0.0
 33
0.0
 40
0.0
 40
0.0
 40
0.0
 40
0.0
 40
1.0
 40
1.0
 40
1.0
 40
2.0
 40
2.0
 40
2.0
 40
3.0
 40
3.0
 40
3.0
 40
3.0
 10
-42.76534159065554
 20
4.249232971866149
 30
0.0
 10
-41.27356119371655
 20
3.154507615294162
 30
0.0
 10
-40.26851227088954
 20
1.944346667400407
 30
0.0
 10
-39.75019482217451
 20
0.6187501281848835
 30
0.0
 10
-38.8206732974713
 20
-1.758500568907317
 30
0.0
 10
-39.66556142227245
 20
-6.012866479243963
 30
0.0
 10
-41.65773665529517
 20
-7.626753279497992
 30
0.0
 10
-42.54021770555249
 20
-8.341662537918811
 30
0.0
 10
-43.68884504592623
 20
-8.833931398078985
 30
0.0
 10
-45.10361867641637
 20
-9.103559859978509
 30
0.0
  0
SPLINE
  5
B1
330
1F
100
AcDbEntity
  8
0
  6
K5LT32773
 62
    30
420
 16744448
100
AcDbSpline
210
0.0
220
0.0
230
1.0
 70
     8
 71
     3
 72
    20
 73
    16
 74
     0
 42
0.0
 43
0.0
 12
1.0
 22
0.0
 32
0.0
 13
1.0
 23
0.0
 33
0.0
 40
0.0
 40
0.0
 40
0.0
 40
0.0
 40
1.0
 40
1.0
 40
1.0
 40
2.0
 40
2.0
 40
2.0
 40
3.0
 40
3.0
 40
3.0
 40
4.0
 40
4.0
 40
4.0
 40
5.0
 40
5.0
 40
5.0
 40
5.0
 10
-45.10361867641637
 20
-9.103559859978509
 30
0.0
 10
-42.69553692115647
 20
-12.75682015256243
 30
0.0
 10
-41.32128635320933
 20
-16.44883660376372
 30
0.0
 10
-40.98086697257492
 20
-20.17960921358237
 30
0.0
 10
-40.5085520053064
 20
-25.35587074078692
 30
0.0
 10
-42.63060769744462
 20
-31.60252052045401
 30
0.0
 10
-45.53435392905652
 20
-35.93221273870787
 30
0.0
 10
-48.36272072456831
 20
-40.1495088548692
 30
0.0
 10
-53.35636775873087
 20
-43.67857230817872
 30
0.0
 10
-57.96414264810085
 20
-45.96219076447136
 30
0.0
 10
-64.49660457015474
 20
-49.19968629504639
 30
0.0
 10
-72.88007464102574
 20
-49.33629705672127
 30
0.0
 10
-80.36237578538865
 20
-49.28500557055252
 30
0.0
 10
-85.83020318355267
 20
-49.24752338586696
 30
0.0
 10
-91.30669425283457
 20
-48.59116490565339
 30
0.0
 10
-96.79184899323438
 20
-47.31593012991183
 30
0.0
  0
SPLINE
  5
B2
330
1F
100
AcDbEntity
  8
0
  6
K5LT32773
 62
    30
420
 16744448
100
AcDbSpline
210
0.0
220
0.0
230
1.0
 70
     8
 71
     3
 72
    17
 73
    13
 74
     0
 42
0.0
 43
0.0
 12
1.0
 22
0.0
 32
0.0
 13
1.0
 23
0.0
 33
0.0
 40
0.0
 40
0.0
 40
0.0
 40
0.0
 40
1.0
 40
1.0
 40
1.0
 40
2.0
 40
2.0
 40
2.0
 40
3.0
 40
3.0
 40
3.0
 40
4.0
 40
4.0
 40
4.0
 40
4.0
 10
-96.79184899323438
 20
-47.31593012991183
 30
0.0
 10
-95.66669641969094
 20
-49.17903415630911
 30
0.0
 10
-95.01945363101541
 20
-51.07233165641351
 30
0.0
 10
-94.85012062720782
 20
-52.99582263022502
 30
0.0
 10
-94.647042003345
 20
-55.30263755224685
 30
0.0
 10
-95.1926877516002
 20
-58.14178214469975
 30
0.0
 10
-96.30299735596628
 20
-60.04654793155283
 30
0.0
 10
-97.99053330922035
 20
-62.94156093981915
 30
0.0
 10
-102.2605329882384
 20
-64.7009141214499
 30
0.0
 10
-105.7039644244034
 20
-65.64439650412218
 30
0.0
 10
-107.7192669782817
 20
-66.19657896820988
 30
0.0
 10
-109.8403704649204
 20
-66.42624606073562
 30
0.0
 10
-112.0681938243575
 20
-66.3530280341149
 30
0.0
  0
SPLINE
  5
B3
330
1F
100
AcDbEntity
  8
0
  6
K5LT32773
 62
    30
420
 16744448
100
AcDbSpline
210
0.0
220
0.0
230
1.0
 70
     8
 71
     3
 72
    17
 73
    13
 74
     0
 42
0.0
 43
0.0
 12
1.0
 22
0.0
 32
0.0
 13
1.0
 23
0.0
 33
0.0
 40
0.0
 40
0.0
 40
0.0
 40
0.0
 40
1.0
 40
1.0
 40
1.0
 40
2.0
 40
2.0
 40
2.0
 40
3.0
 40
3.0
 40
3.0
 40
4.0
 40
4.0
 40
4.0
 40
4.0
 10
75.36945566090489
 20
124.0892538046008
 30
0.0
 10
64.94660035334182
 20
124.1868428454078
 30
0.0
 10
55.64612176968154
 20
122.1453051040579
 30
0.0
 10
47.46801990992405
 20
117.9646405805511
 30
0.0
 10
38.62861794726829
 20
113.4459179199622
 30
0.0
 10
29.18064096240114
 20
105.8889731891378
 30
0.0
 10
24.88350864624065
 20
96.91128262288015
 30
0.0
 10
22.81980307483579
 20
92.59973048140711
 30
0.0
 10
20.2597058623639
 20
87.1678140271963
 30
0.0
 10
20.92802927237519
 20
82.62051843343073
 30
0.0
 10
21.48113766199135
 20
78.85714982281476
 30
0.0
 10
23.39507929450689
 20
75.24192673917429
 30
0.0
 10
26.66985416992182
 20
71.77484918250933
 30
0.0
  0
SPLINE
  5
B4
330
1F
100
AcDbEntity
  8
0
  6
K5LT32773
 62
    30
420
 16744448
100
AcDbSpline
210
0.0
220
0.0
230
1.0
 70
     8
 71
     3
 72
    14
 73
    10
 74
     0
 42
0.0
 43
0.0
 12
1.0
 22
0.0
 32
0.0
 13
1.0
 23
0.0
 33
0.0
 40
0.0
 40
0.0
 40
0.0
 40
0.0
 40
1.0
 40
1.0
 40
1.0
 40
2.0
 40
2.0
 40
2.0
 40
3.0
 40
3.0
 40
3.0
 40
3.0
 10
75.36945566090489
 20
116.9296962678927
 30
0.0
 10
71.99019464453353
 20
117.1551179284821
 30
0.0
 10
68.6613291376041
 20
117.0320507085518
 30
0.0
 10
65.3828591401166
 20
116.5604946081018
 30
0.0
 10
62.05742129018715
 20
116.0821829242971
 30
0.0
 10
58.6836665723017
 20
115.3021143485068
 30
0.0
 10
55.5620949896791
 20
114.0499233215238
 30
0.0
 10
53.89420898162309
 20
113.3808654966305
 30
0.0
 10
52.26972167854321
 20
112.5932352890767
 30
0.0
 10
50.68863308043944
 20
111.6870326988622
 30
0.0
  0
SPLINE
  5
B5
330
1F
100
AcDbEntity
  8
0
  6
K5LT32773
 62
    30
420
 16744448
100
AcDbSpline
210
0.0
220
0.0
230
1.0
 70
     8
 71
     3
 72
    17
 73
    13
 74
     0
 42
0.0
 43
0.0
 12
1.0
 22
0.0
 32
0.0
 13
1.0
 23
0.0
 33
0.0
 40
0.0
 40
0.0
 40
0.0
 40
0.0
 40
1.0
 40
1.0
 40
1.0
 40
2.0
 40
2.0
 40
2.0
 40
3.0
 40
3.0
 40
3.0
 40
4.0
 40
4.0
 40
4.0
 40
4.0
 10
50.68863308043944
 20
111.6870326988622
 30
0.0
 10
54.30882240514354
 20
111.9669546885194
 30
0.0
 10
57.6808642312336
 20
111.5485261407564
 30
0.0
 10
60.80475855870964
 20
110.4317470555732
 30
0.0
 10
63.87500171554201
 20
109.3341480382762
 30
0.0
 10
67.03443746840804
 20
107.470881320069
 30
0.0
 10
69.29639673389995
 20
105.1152431545844
 30
0.0
 10
70.9563434139762
 20
103.3865498876849
 30
0.0
 10
71.24829356697084
 20
100.0402436928346
 30
0.0
 10
73.35761499159968
 20
98.9864956020558
 30
0.0
 10
73.9654791993059
 20
98.6828264974593
 30
0.0
 10
74.63609275574098
 20
98.46130550158476
 30
0.0
 10
75.36945566090489
 20
98.3219326144322
 30
0.0
  0
SPLINE
  5
B6
330
1F
100
AcDbEntity
  8
0
  6
K5LT32773
 62
    30
420
 16744448
100
AcDbSpline
210
0.0
220
0.0
230
1.0
 70
     8
 71
     3
 72
    32
 73
    28
 74
     0
 42
0.0
 43
0.0
 12
1.0
 22
0.0
 32
0.0
 13
1.0
 23
0.0
 33
0.0
 40
0.0
 40
0.0
 40
0.0
 40
0.0
 40
1.0
 40
1.0
 40
1.0
 40
2.0
 40
2.0
 40
2.0
 40
3.0
 40
3.0
 40
3.0
 40
4.0
 40
4.0
 40
4.0
 40
5.0
 40
5.0
 40
5.0
 40
6.0
 40
6.0
 40
6.0
 40
7.0
 40
7.0
 40
7.0
 40
8.0
 40
8.0
 40
8.0
 40
9.0
 40
9.0
 40
9.0
 40
9.0
 10
64.34909449270212
 20
105.1152431545845
 30
0.0
 10
61.80628735152148
 20
106.3687095000617
 30
0.0
 10
59.2218757329853
 20
107.2055665955877
 30
0.0
 10
56.59585963709358
 20
107.6258144411625
 30
0.0
 10
51.9976413193029
 20
108.3616786822679
 30
0.0
 10
46.62232606786205
 20
107.6876607625982
 30
0.0
 10
42.41851590112365
 20
106.0013271380826
 30
0.0
 10
36.81429868867575
 20
103.7532284967082
 30
0.0
 10
31.64432226545799
 20
98.45176420936113
 30
0.0
 10
28.38885282907009
 20
93.15310937735985
 30
0.0
 10
26.74788050460017
 20
90.48223621877773
 30
0.0
 10
24.75574606461698
 20
87.41972349276212
 30
0.0
 10
24.54915556724491
 20
84.36610987433681
 30
0.0
 10
24.39875920089271
 20
82.1431015641934
 30
0.0
 10
24.42190483596881
 20
79.08986710486587
 30
0.0
 10
25.80444121053391
 20
77.4989590022264
 30
0.0
 10
26.75329094234915
 20
76.40710148997324
 30
0.0
 10
28.60895192409475
 20
75.09361358481972
 30
0.0
 10
30.01334013214998
 20
75.20990871152291
 30
0.0
 10
31.0389949004113
 20
75.29484153176773
 30
0.0
 10
32.49431517535415
 20
75.97294936776382
 30
0.0
 10
33.09257963194527
 20
76.87170121570453
 30
0.0
 10
33.47798673530852
 20
77.45068487843268
 30
0.0
 10
33.81802646619462
 20
78.33566621396025
 30
0.0
 10
33.71574974794156
 20
79.03795923797733
 30
0.0
 10
33.65121860228878
 20
79.48106862003277
 30
0.0
 10
33.46327840857561
 20
79.91629854231589
 30
0.0
 10
33.15192916680206
 20
80.34364900482669
 30
0.0
  0
SPLINE
  5
B7
330
1F
100
AcDbEntity
  8
0
  6
K5LT32773
 62
    30
420
 16744448
100
AcDbSpline
210
0.0
220
0.0
230
1.0
 70
     8
 71
     3
 72
    29
 73
    25
 74
     0
 42
0.0
 43
0.0
 12
1.0
 22
0.0
 32
0.0
 13
1.0
 23
0.0
 33
0.0
 40
0.0
 40
0.0
 40
0.0
 40
0.0
 40
1.0
 40
1.0
 40
1.0
 40
2.0
 40
2.0
 40
2.0
 40
3.0
 40
3.0
 40
3.0
 40
4.0
 40
4.0
 40
4.0
 40
5.0
 40
5.0
 40
5.0
 40
6.0
 40
6.0
 40
6.0
 40
7.0
 40
7.0
 40
7.0
 40
8.0
 40
8.0
 40
8.0
 40
8.0
 10
33.15192916680206
 20
80.34364900482669
 30
0.0
 10
33.07426512727846
 20
79.18115341821111
 30
0.0
 10
32.72805950728052
 20
78.40960946507285
 30
0.0
 10
32.11331230680825
 20
78.02901714541191
 30
0.0
 10
31.58760812283936
 20
77.70355169444528
 30
0.0
 10
30.5383590294901
 20
77.69558131963849
 30
0.0
 10
29.94705428453546
 20
77.91031807569834
 30
0.0
 10
29.02712530892588
 20
78.24439718754957
 30
0.0
 10
28.30222476316705
 20
79.77035011015445
 30
0.0
 10
28.1368934714034
 20
80.75909574882421
 30
0.0
 10
27.91393151029187
 20
82.09249527825766
 30
0.0
 10
28.74298974265836
 20
84.19755458406073
 30
0.0
 10
29.85802998225027
 20
84.97291272365622
 30
0.0
 10
30.59854512380917
 20
85.48783982862918
 30
0.0
 10
31.86567191558838
 20
85.81429677872981
 30
0.0
 10
32.79583195766133
 20
85.68510714193769
 30
0.0
 10
33.70312240694538
 20
85.55909385572218
 30
0.0
 10
34.78820622535928
 20
84.94996834641113
 30
0.0
 10
35.37753672393165
 20
84.26071830537475
 30
0.0
 10
36.08552577536383
 20
83.43269144449609
 30
0.0
 10
36.13872434319298
 20
82.00847914437014
 30
0.0
 10
36.32712928164027
 20
80.84812005110939
 30
0.0
 10
36.4633152740966
 20
80.0093699842386
 30
0.0
 10
36.53255639809619
 20
79.15869331795795
 30
0.0
 10
36.53485265363904
 20
78.29609005226746
 30
0.0
  0
SPLINE
  5
B8
330
1F
100
AcDbEntity
  8
0
  6
K5LT32773
 62
    30
420
 16744448
100
AcDbSpline
210
0.0
220
0.0
230
1.0
 70
     8
 71
     3
 72
    14
 73
    10
 74
     0
 42
0.0
 43
0.0
 12
1.0
 22
0.0
 32
0.0
 13
1.0
 23
0.0
 33
0.0
 40
0.0
 40
0.0
 40
0.0
 40
0.0
 40
1.0
 40
1.0
 40
1.0
 40
2.0
 40
2.0
 40
2.0
 40
3.0
 40
3.0
 40
3.0
 40
3.0
 10
36.53485265363904
 20
78.29609005226746
 30
0.0
 10
37.4172977900165
 20
79.72691654477872
 30
0.0
 10
37.89209406887081
 20
81.17108855962725
 30
0.0
 10
37.95924149020197
 20
82.62860609681306
 30
0.0
 10
38.03278353029435
 20
84.22492671538797
 30
0.0
 10
37.40680003396962
 20
85.98466505438705
 30
0.0
 10
36.7129012582094
 20
87.46559318764136
 30
0.0
 10
35.99883350867183
 20
88.98956621696576
 30
0.0
 10
34.98989141610642
 20
90.37438869695748
 30
0.0
 10
33.68607498051316
 20
91.6200606276166
 30
0.0
  0
SPLINE
  5
B9
330
1F
100
AcDbEntity
  8
0
  6
K5LT32773
 62
    30
420
 16744448
100
AcDbSpline
210
0.0
220
0.0
230
1.0
 70
     8
 71
     3
 72
    11
 73
     7
 74
     0
 42
0.0
 43
0.0
 12
1.0
 22
0.0
 32
0.0
 13
1.0
 23
0.0
 33
0.0
 40
0.0
 40
0.0
 40
0.0
 40
0.0
 40
1.0
 40
1.0
 40
1.0
 40
2.0
 40
2.0
 40
2.0
 40
2.0
 10
33.68607498051316
 20
91.6200606276166
 30
0.0
 10
35.11485992738403
 20
91.4950773839968
 30
0.0
 10
36.3315253919482
 20
91.10930540742768
 30
0.0
 10
37.33607137420569
 20
90.4627446979092
 30
0.0
 10
39.13120190075009
 20
89.30733629707868
 30
0.0
 10
40.24895147388628
 20
87.31912687937623
 30
0.0
 10
40.68932009361426
 20
84.49811644480191
 30
0.0
  0
SPLINE
  5
BA
330
1F
100
AcDbEntity
  8
0
  6
K5LT32773
 62
    30
420
 16744448
100
AcDbSpline
210
0.0
220
0.0
230
1.0
 70
     8
 71
     3
 72
    20
 73
    16
 74
     0
 42
0.0
 43
0.0
 12
1.0
 22
0.0
 32
0.0
 13
1.0
 23
0.0
 33
0.0
 40
0.0
 40
0.0
 40
0.0
 40
0.0
 40
1.0
 40
1.0
 40
1.0
 40
2.0
 40
2.0
 40
2.0
 40
3.0
 40
3.0
 40
3.0
 40
4.0
 40
4.0
 40
4.0
 40
5.0
 40
5.0
 40
5.0
 40
5.0
 10
40.68932009361426
 20
84.49811644480191
 30
0.0
 10
41.30261138053144
 20
87.43835092995995
 30
0.0
 10
42.03890307625984
 20
90.34722161908824
 30
0.0
 10
43.24135009245619
 20
93.04444946417952
 30
0.0
 10
44.21068716524149
 20
95.21878472284747
 30
0.0
 10
45.28554702195773
 20
97.50966883746399
 30
0.0
 10
46.8351624989689
 20
99.27199812688207
 30
0.0
 10
48.49033613376062
 20
101.1543754126924
 30
0.0
 10
50.72342496087026
 20
102.802732296795
 30
0.0
 10
53.00434857639797
 20
103.8460648081151
 30
0.0
 10
55.12491307749247
 20
104.8160463854382
 30
0.0
 10
57.599053354431
 20
105.4267454843665
 30
0.0
 10
59.94824415464227
 20
105.5078517841052
 30
0.0
 10
61.40196050919204
 20
105.558041642833
 30
0.0
 10
62.86891062187866
 20
105.4271720996594
 30
0.0
 10
64.34909449270212
 20
105.1152431545845
 30
0.0
  0
SPLINE
  5
BB
330
1F
100
AcDbEntity
  8
0
  6
K5LT32773
 62
    30
420
 16744448
100
AcDbSpline
210
0.0
220
0.0
230
1.0
 70
     8
 71
     3
 72
    14
 73
    10
 74
     0
 42
0.0
 43
0.0
 12
1.0
 22
0.0
 32
0.0
 13
1.0
 23
0.0
 33
0.0
 40
0.0
 40
0.0
 40
0.0
 40
0.0
 40
1.0
 40
1.0
 40
1.0
 40
2.0
 40
2.0
 40
2.0
 40
3.0
 40
3.0
 40
3.0
 40
3.0
 10
43.49667947498354
 20
80.29472102374011
 30
0.0
 10
43.71703362897308
 20
84.06352904891268
 30
0.0
 10
44.54792714998487
 20
87.57702165204823
 30
0.0
 10
45.9893600380189
 20
90.83519883314676
 30
0.0
 10
47.11358046501485
 20
93.37635726804199
 30
0.0
 10
48.49343467523888
 20
96.05059541828703
 30
0.0
 10
50.47618505148255
 20
97.99275302129115
 30
0.0
 10
51.50761150370347
 20
99.0030631188817
 30
0.0
 10
52.67086243311996
 20
99.89330617710861
 30
0.0
 10
53.96593783973204
 20
100.6634821959719
 30
0.0
  0
SPLINE
  5
BC
330
1F
100
AcDbEntity
  8
0
  6
K5LT32773
 62
    30
420
 16744448
100
AcDbSpline
210
0.0
220
0.0
230
1.0
 70
     8
 71
     3
 72
    14
 73
    10
 74
     0
 42
0.0
 43
0.0
 12
1.0
 22
0.0
 32
0.0
 13
1.0
 23
0.0
 33
0.0
 40
0.0
 40
0.0
 40
0.0
 40
0.0
 40
1.0
 40
1.0
 40
1.0
 40
2.0
 40
2.0
 40
2.0
 40
3.0
 40
3.0
 40
3.0
 40
3.0
 10
53.96593783973204
 20
100.6634821959719
 30
0.0
 10
53.04380936146327
 20
98.99973680476161
 30
0.0
 10
52.20104593300847
 20
97.30234004040896
 30
0.0
 10
51.43764755436761
 20
95.57129190291394
 30
0.0
 10
50.19450655711374
 20
92.75240078636311
 30
0.0
 10
49.79866993783036
 20
89.52823157898473
 30
0.0
 10
48.33960171173795
 20
86.84690993229019
 30
0.0
 10
47.05553329192082
 20
84.48718446618683
 30
0.0
 10
45.44122587966935
 20
82.30312149667014
 30
0.0
 10
43.49667947498354
 20
80.29472102374011
 30
0.0
  0
SPLINE
  5
BD
330
1F
100
AcDbEntity
  8
0
  6
K5LT32773
 62
    30
420
 16744448
100
AcDbSpline
210
0.0
220
0.0
230
1.0
 70
     8
 71
     3
 72
    23
 73
    19
 74
     0
 42
0.0
 43
0.0
 12
1.0
 22
0.0
 32
0.0
 13
1.0
 23
0.0
 33
0.0
 40
0.0
 40
0.0
 40
0.0
 40
0.0
 40
1.0
 40
1.0
 40
1.0
 40
2.0
 40
2.0
 40
2.0
 40
3.0
 40
3.0
 40
3.0
 40
4.0
 40
4.0
 40
4.0
 40
5.0
 40
5.0
 40
5.0
 40
6.0
 40
6.0
 40
6.0
 40
6.0
 10
65.72951615444086
 20
101.6757102628296
 30
0.0
 10
65.09453700053922
 20
102.2329533586135
 30
0.0
 10
64.41795227628675
 20
102.6365302116763
 30
0.0
 10
63.69976198168349
 20
102.8864408220182
 30
0.0
 10
62.49858451154915
 20
103.3044177801389
 30
0.0
 10
60.87734025816801
 20
103.3055552215264
 30
0.0
 10
59.74708280315599
 20
102.8508310996891
 30
0.0
 10
58.51589213075803
 20
102.3554996202657
 30
0.0
 10
57.51919900746081
 20
100.9317808705735
 30
0.0
 10
56.72025640518449
 20
99.7883949793885
 30
0.0
 10
55.17463168920494
 20
97.57641443374897
 30
0.0
 10
55.44239505022274
 20
94.35539940239643
 30
0.0
 10
54.44123417612359
 20
91.77620745534628
 30
0.0
 10
53.61045028675581
 20
89.63594091813822
 30
0.0
 10
52.68429288277432
 20
87.47121648634105
 30
0.0
 10
51.45001750048117
 20
85.54450604775792
 30
0.0
 10
50.30204096373942
 20
83.75250856622387
 30
0.0
 10
48.94887151523451
 20
82.09072152420029
 30
0.0
 10
47.39050915496644
 20
80.55914492168719
 30
0.0
  0
SPLINE
  5
BE
330
1F
100
AcDbEntity
  8
0
  6
K5LT32773
 62
    30
420
 16744448
100
AcDbSpline
210
0.0
220
0.0
230
1.0
 70
     8
 71
     3
 72
    11
 73
     7
 74
     0
 42
0.0
 43
0.0
 12
1.0
 22
0.0
 32
0.0
 13
1.0
 23
0.0
 33
0.0
 40
0.0
 40
0.0
 40
0.0
 40
0.0
 40
1.0
 40
1.0
 40
1.0
 40
2.0
 40
2.0
 40
2.0
 40
2.0
 10
47.39050915496644
 20
80.55914492168719
 30
0.0
 10
49.60030744796201
 20
81.37571286340949
 30
0.0
 10
51.72502088026359
 20
81.64872073459908
 30
0.0
 10
53.76464945187114
 20
81.37816853525595
 30
0.0
 10
56.16113424391164
 20
81.06028015096649
 30
0.0
 10
58.44015647297253
 20
79.9919884810942
 30
0.0
 10
60.60171613905383
 20
78.17329352563905
 30
0.0
  0
SPLINE
  5
BF
330
1F
100
AcDbEntity
  8
0
  6
K5LT32773
 62
    30
420
 16744448
100
AcDbSpline
210
0.0
220
0.0
230
1.0
 70
     8
 71
     3
 72
    11
 73
     7
 74
     0
 42
0.0
 43
0.0
 12
1.0
 22
0.0
 32
0.0
 13
1.0
 23
0.0
 33
0.0
 40
0.0
 40
0.0
 40
0.0
 40
0.0
 40
1.0
 40
1.0
 40
1.0
 40
2.0
 40
2.0
 40
2.0
 40
2.0
 10
60.60171613905383
 20
78.17329352563905
 30
0.0
 10
57.08369159162439
 20
78.88112497226565
 30
0.0
 10
53.77198741502027
 20
78.8099055276075
 30
0.0
 10
50.66660360924148
 20
77.9596351916646
 30
0.0
 10
47.76872649979151
 20
77.16618127502215
 30
0.0
 10
45.05051769533867
 20
75.69431275208699
 30
0.0
 10
42.51197719588296
 20
73.54402962285911
 30
0.0
  0
SPLINE
  5
C0
330
1F
100
AcDbEntity
  8
0
  6
K5LT32773
 62
    30
420
 16744448
100
AcDbSpline
210
0.0
220
0.0
230
1.0
 70
     8
 71
     3
 72
    14
 73
    10
 74
     0
 42
0.0
 43
0.0
 12
1.0
 22
0.0
 32
0.0
 13
1.0
 23
0.0
 33
0.0
 40
0.0
 40
0.0
 40
0.0
 40
0.0
 40
1.0
 40
1.0
 40
1.0
 40
2.0
 40
2.0
 40
2.0
 40
3.0
 40
3.0
 40
3.0
 40
3.0
 10
42.51197719588296
 20
73.54402962285911
 30
0.0
 10
44.30163908696026
 20
74.27302263753114
 30
0.0
 10
46.07525791145542
 20
74.60874788416585
 30
0.0
 10
47.67538693359905
 20
74.1850046247825
 30
0.0
 10
48.69414233066981
 20
73.91521967213484
 30
0.0
 10
49.93587560358753
 20
73.4213646787983
 30
0.0
 10
50.58450199912547
 20
72.60053816035634
 30
0.0
 10
51.01338620697411
 20
72.05779192991474
 30
0.0
 10
51.30189137409268
 20
71.38708676631121
 30
0.0
 10
51.45001750048117
 20
70.58842266954576
 30
0.0
  0
SPLINE
  5
C1
330
1F
100
AcDbEntity
  8
0
  6
K5LT32773
 62
    30
420
 16744448
100
AcDbSpline
210
0.0
220
0.0
230
1.0
 70
     8
 71
     3
 72
    23
 73
    19
 74
     0
 42
0.0
 43
0.0
 12
1.0
 22
0.0
 32
0.0
 13
1.0
 23
0.0
 33
0.0
 40
0.0
 40
0.0
 40
0.0
 40
0.0
 40
1.0
 40
1.0
 40
1.0
 40
2.0
 40
2.0
 40
2.0
 40
3.0
 40
3.0
 40
3.0
 40
4.0
 40
4.0
 40
4.0
 40
5.0
 40
5.0
 40
5.0
 40
6.0
 40
6.0
 40
6.0
 40
6.0
 10
51.45001750048117
 20
70.58842266954576
 30
0.0
 10
52.40370430921338
 20
71.15051257644227
 30
0.0
 10
53.36538600384254
 20
71.69757288558722
 30
0.0
 10
54.33506258436866
 20
72.22960359698064
 30
0.0
 10
56.93591097442669
 20
73.65660642140507
 30
0.0
 10
61.08619796128993
 20
73.80573330706845
 30
0.0
 10
62.3101556969462
 20
76.18623893965477
 30
0.0
 10
62.94103428310605
 20
77.41325028496595
 30
0.0
 10
62.87902639690771
 20
79.19696702021257
 30
0.0
 10
63.05951234019884
 20
80.71343204862431
 30
0.0
 10
63.33547784361188
 20
83.03212804977981
 30
0.0
 10
62.78832610937367
 20
85.53199797031932
 30
0.0
 10
63.40136568814199
 20
87.72142568145921
 30
0.0
 10
64.08212209736111
 20
90.15269928678657
 30
0.0
 10
66.58102985513501
 20
92.01987872434083
 30
0.0
 10
67.2899475209955
 20
94.47302930333672
 30
0.0
 10
67.70233824824777
 20
95.90007309142389
 30
0.0
 10
67.91599659071225
 20
97.39568148867525
 30
0.0
 10
67.93092254838893
 20
98.95985449509077
 30
0.0
  0
SPLINE
  5
C2
330
1F
100
AcDbEntity
  8
0
  6
K5LT32773
 62
    30
420
 16744448
100
AcDbSpline
210
0.0
220
0.0
230
1.0
 70
     8
 71
     3
 72
    20
 73
    16
 74
     0
 42
0.0
 43
0.0
 12
1.0
 22
0.0
 32
0.0
 13
1.0
 23
0.0
 33
0.0
 40
0.0
 40
0.0
 40
0.0
 40
0.0
 40
1.0
 40
1.0
 40
1.0
 40
2.0
 40
2.0
 40
2.0
 40
3.0
 40
3.0
 40
3.0
 40
4.0
 40
4.0
 40
4.0
 40
5.0
 40
5.0
 40
5.0
 40
5.0
 10
65.72951615444086
 20
101.6757102628296
 30
0.0
 10
63.8285851009259
 20
101.7823251102571
 30
0.0
 10
62.52135098640309
 20
101.3766562249127
 30
0.0
 10
61.80781381087242
 20
100.4587036067964
 30
0.0
 10
61.20248861998698
 20
99.67996374174062
 30
0.0
 10
60.86520786196019
 20
97.87729389627411
 30
0.0
 10
61.27366799716132
 20
97.01643058510263
 30
0.0
 10
61.69578681471469
 20
96.12678047810293
 30
0.0
 10
63.35671171371477
 20
95.21779180740765
 30
0.0
 10
64.41919334457113
 20
95.26561930682736
 30
0.0
 10
65.2417126080117
 20
95.30264492539095
 30
0.0
 10
66.32381236324711
 20
95.8699227580154
 30
0.0
 10
66.91187380855627
 20
96.51195953881992
 30
0.0
 10
67.47137218582299
 20
97.12281158476017
 30
0.0
 10
67.81105509910054
 20
97.93877657018379
 30
0.0
 10
67.93092254838893
 20
98.95985449509077
 30
0.0
  0
SPLINE
  5
C3
330
1F
100
AcDbEntity
  8
0
  6
K5LT32773
 62
    30
420
 16744448
100
AcDbSpline
210
0.0
220
0.0
230
1.0
 70
     8
 71
     3
 72
    17
 73
    13
 74
     0
 42
0.0
 43
0.0
 12
1.0
 22
0.0
 32
0.0
 13
1.0
 23
0.0
 33
0.0
 40
0.0
 40
0.0
 40
0.0
 40
0.0
 40
1.0
 40
1.0
 40
1.0
 40
2.0
 40
2.0
 40
2.0
 40
3.0
 40
3.0
 40
3.0
 40
4.0
 40
4.0
 40
4.0
 40
4.0
 10
26.66985416992182
 20
71.77484918250933
 30
0.0
 10
18.39815161516343
 20
68.20312100764548
 30
0.0
 10
12.0982385974725
 20
63.309037516399
 30
0.0
 10
7.770115116849045
 20
57.09259870876995
 30
0.0
 10
2.960068551500086
 20
50.18397877932402
 30
0.0
 10
0.0883015368554662
 20
39.86288809766303
 30
0.0
 10
0.6459993233503489
 20
31.46704786946868
 30
0.0
 10
1.150708954223091
 20
23.86891582546178
 30
0.0
 10
4.510341730108814
 20
15.1219265825879
 30
0.0
 10
9.36506641390099
 20
9.031399624271309
 30
0.0
 10
12.51465524827226
 20
5.080062122601285
 30
0.0
 10
16.48431180982377
 20
1.712942717713843
 30
0.0
 10
21.27403609855552
 20
-1.069958590391018
 30
0.0
  0
SPLINE
  5
C4
330
1F
100
AcDbEntity
  8
0
  6
K5LT32773
 62
    30
420
 16744448
100
AcDbSpline
210
0.0
220
0.0
230
1.0
 70
     8
 71
     3
 72
    26
 73
    22
 74
     0
 42
0.0
 43
0.0
 12
1.0
 22
0.0
 32
0.0
 13
1.0
 23
0.0
 33
0.0
 40
0.0
 40
0.0
 40
0.0
 40
0.0
 40
1.0
 40
1.0
 40
1.0
 40
2.0
 40
2.0
 40
2.0
 40
3.0
 40
3.0
 40
3.0
 40
4.0
 40
4.0
 40
4.0
 40
5.0
 40
5.0
 40
5.0
 40
6.0
 40
6.0
 40
6.0
 40
7.0
 40
7.0
 40
7.0
 40
7.0
 10
7.524962404300478
 20
28.24170606444525
 30
0.0
 10
7.43930058334035
 20
36.62682205930366
 30
0.0
 10
9.063787886420233
 20
44.18314936302373
 30
0.0
 10
12.39842431354013
 20
50.91068797560544
 30
0.0
 10
15.49850026638043
 20
57.16500718865449
 30
0.0
 10
19.81941777608584
 20
64.87756225694933
 30
0.0
 10
26.13272605776097
 20
67.52476266619516
 30
0.0
 10
28.77804666015805
 20
68.63395826837696
 30
0.0
 10
32.50303708177983
 20
70.33532654390396
 30
0.0
 10
34.98262296388765
 20
69.32975021059615
 30
0.0
 10
36.66672807529519
 20
68.64677477705538
 30
0.0
 10
38.73529897803002
 20
66.79586229546898
 30
0.0
 10
39.3839848186559
 20
65.05658336130658
 30
0.0
 10
40.0043703148187
 20
63.39318429051022
 30
0.0
 10
40.23358822759585
 20
60.36170592628886
 30
0.0
 10
38.99939980221984
 20
59.20234477777987
 30
0.0
 10
38.36108199473919
 20
58.602727368332
 30
0.0
 10
37.11127311526347
 20
57.96486294273155
 30
0.0
 10
36.19691282716187
 20
58.03909530959
 30
0.0
 10
35.4210011117281
 20
58.10208772500803
 30
0.0
 10
34.65934874773264
 20
58.49775129071996
 30
0.0
 10
33.9119557351755
 20
59.22608600672577
 30
0.0
  0
SPLINE
  5
C5
330
1F
100
AcDbEntity
  8
0
  6
K5LT32773
 62
    30
420
 16744448
100
AcDbSpline
210
0.0
220
0.0
230
1.0
 70
     8
 71
     3
 72
    26
 73
    22
 74
     0
 42
0.0
 43
0.0
 12
1.0
 22
0.0
 32
0.0
 13
1.0
 23
0.0
 33
0.0
 40
0.0
 40
0.0
 40
0.0
 40
0.0
 40
1.0
 40
1.0
 40
1.0
 40
2.0
 40
2.0
 40
2.0
 40
3.0
 40
3.0
 40
3.0
 40
4.0
 40
4.0
 40
4.0
 40
5.0
 40
5.0
 40
5.0
 40
6.0
 40
6.0
 40
6.0
 40
7.0
 40
7.0
 40
7.0
 40
7.0
 10
33.9119557351755
 20
59.22608600672577
 30
0.0
 10
34.69619104129482
 20
58.76940416661363
 30
0.0
 10
35.37776101561445
 20
58.61153428626064
 30
0.0
 10
35.95666565813441
 20
58.75247636566681
 30
0.0
 10
36.7364266537617
 20
58.94231961115391
 30
0.0
 10
37.50723254797721
 20
60.13345869460106
 30
0.0
 10
37.73715170383807
 20
60.948409155368
 30
0.0
 10
38.01988964371058
 20
61.95057625846417
 30
0.0
 10
37.58000659208005
 20
63.59418668049273
 30
0.0
 10
36.93593298327143
 20
64.33133264220496
 30
0.0
 10
36.09494990698481
 20
65.2938426256519
 30
0.0
 10
33.67364764671627
 20
65.6627259819087
 30
0.0
 10
32.48471786901226
 20
65.22157566505679
 30
0.0
 10
31.201703474004
 20
64.74551541532827
 30
0.0
 10
29.92898955058316
 20
62.69020506053689
 30
0.0
 10
29.66561496331479
 20
61.21548206222355
 30
0.0
 10
29.4324950444127
 20
59.9101651395262
 30
0.0
 10
29.7934822290787
 20
58.07959125783007
 30
0.0
 10
30.55585798616662
 20
56.97199031996315
 30
0.0
 10
31.24437315697551
 20
55.97169611879853
 30
0.0
 10
32.31266478439771
 20
55.22171326545458
 30
0.0
 10
33.76073286843321
 20
54.7220417599313
 30
0.0
  0
SPLINE
  5
C6
330
1F
100
AcDbEntity
  8
0
  6
K5LT32773
 62
    30
420
 16744448
100
AcDbSpline
210
0.0
220
0.0
230
1.0
 70
     8
 71
     3
 72
    17
 73
    13
 74
     0
 42
0.0
 43
0.0
 12
1.0
 22
0.0
 32
0.0
 13
1.0
 23
0.0
 33
0.0
 40
0.0
 40
0.0
 40
0.0
 40
0.0
 40
1.0
 40
1.0
 40
1.0
 40
2.0
 40
2.0
 40
2.0
 40
3.0
 40
3.0
 40
3.0
 40
4.0
 40
4.0
 40
4.0
 40
4.0
 10
38.182273215264
 20
54.7220417599313
 30
0.0
 10
39.79184029244073
 20
55.18796866395463
 30
0.0
 10
41.01839734614769
 20
55.93795151729858
 30
0.0
 10
41.8619443763849
 20
56.97199031996315
 30
0.0
 10
42.92334540819803
 20
58.27307942672507
 30
0.0
 10
43.14980965716251
 20
60.45042638911337
 30
0.0
 10
43.22698367809105
 20
62.22442415478896
 30
0.0
 10
43.29126116378739
 20
63.701969507961
 30
0.0
 10
43.1810610754984
 20
65.33384883040864
 30
0.0
 10
42.63348832952315
 20
66.70531403647651
 30
0.0
 10
42.33265040491426
 20
67.45880067236072
 30
0.0
 10
41.92624551886133
 20
68.17541269735423
 30
0.0
 10
41.41427367136436
 20
68.85515011145706
 30
0.0
  0
SPLINE
  5
C7
330
1F
100
AcDbEntity
  8
0
  6
K5LT32773
 62
    30
420
 16744448
100
AcDbSpline
210
0.0
220
0.0
230
1.0
 70
     8
 71
     3
 72
    14
 73
    10
 74
     0
 42
0.0
 43
0.0
 12
1.0
 22
0.0
 32
0.0
 13
1.0
 23
0.0
 33
0.0
 40
0.0
 40
0.0
 40
0.0
 40
0.0
 40
1.0
 40
1.0
 40
1.0
 40
2.0
 40
2.0
 40
2.0
 40
3.0
 40
3.0
 40
3.0
 40
3.0
 10
41.41427367138886
 20
68.85515011142786
 30
0.0
 10
42.04833724893093
 20
68.09653867680683
 30
0.0
 10
42.76138139840243
 20
67.51840889982222
 30
0.0
 10
43.55340611980338
 20
67.12076078047403
 30
0.0
 10
44.8464268558545
 20
66.47157995306314
 30
0.0
 10
46.71116807280087
 20
66.17142838990634
 30
0.0
 10
48.06397076891933
 20
66.61628973419133
 30
0.0
 10
48.94956278050651
 20
66.90751154642832
 30
0.0
 10
49.77056467935876
 20
67.46144053842502
 30
0.0
 10
50.52697646547607
 20
68.27807671018141
 30
0.0
  0
SPLINE
  5
C8
330
1F
100
AcDbEntity
  8
0
  6
K5LT32773
 62
    30
420
 16744448
100
AcDbSpline
210
0.0
220
0.0
230
1.0
 70
     8
 71
     3
 72
    23
 73
    19
 74
     0
 42
0.0
 43
0.0
 12
1.0
 22
0.0
 32
0.0
 13
1.0
 23
0.0
 33
0.0
 40
0.0
 40
0.0
 40
0.0
 40
0.0
 40
1.0
 40
1.0
 40
1.0
 40
2.0
 40
2.0
 40
2.0
 40
3.0
 40
3.0
 40
3.0
 40
4.0
 40
4.0
 40
4.0
 40
5.0
 40
5.0
 40
5.0
 40
6.0
 40
6.0
 40
6.0
 40
6.0
 10
50.52697646547607
 20
68.27807671018141
 30
0.0
 10
49.48094088514423
 20
66.7332927004912
 30
0.0
 10
48.91256556933341
 20
65.20789317638659
 30
0.0
 10
48.82185051804361
 20
63.70187813786755
 30
0.0
 10
48.67355966172304
 20
61.24001258724136
 30
0.0
 10
51.17655118276812
 20
58.92363120124461
 30
0.0
 10
52.20619879716286
 20
56.47167954156735
 30
0.0
 10
52.99965845175324
 20
54.5821741518001
 30
0.0
 10
54.46599982113229
 20
52.50313521240925
 30
0.0
 10
54.41115297901327
 20
50.72854306791045
 30
0.0
 10
54.3213977023681
 20
47.82447416060322
 30
0.0
 10
49.65191430411711
 20
45.90496758024146
 30
0.0
 10
47.79629043346202
 20
43.13939844200669
 30
0.0
 10
46.02517821961866
 20
40.49978307791532
 30
0.0
 10
44.36895767022558
 20
37.58681352812366
 30
0.0
 10
43.43766007399027
 20
34.57597173575042
 30
0.0
 10
42.41243664062213
 20
31.26147208259635
 30
0.0
 10
42.01930527486586
 20
27.75747512694259
 30
0.0
 10
42.25826597672144
 20
24.06398086878913
 30
0.0
  0
SPLINE
  5
C9
330
1F
100
AcDbEntity
  8
0
  6
K5LT32773
 62
    30
420
 16744448
100
AcDbSpline
210
0.0
220
0.0
230
1.0
 70
     8
 71
     3
 72
    26
 73
    22
 74
     0
 42
0.0
 43
0.0
 12
1.0
 22
0.0
 32
0.0
 13
1.0
 23
0.0
 33
0.0
 40
0.0
 40
0.0
 40
0.0
 40
0.0
 40
1.0
 40
1.0
 40
1.0
 40
2.0
 40
2.0
 40
2.0
 40
3.0
 40
3.0
 40
3.0
 40
4.0
 40
4.0
 40
4.0
 40
5.0
 40
5.0
 40
5.0
 40
6.0
 40
6.0
 40
6.0
 40
7.0
 40
7.0
 40
7.0
 40
7.0
 10
42.25826597672144
 20
24.06398086878913
 30
0.0
 10
39.68072535899859
 20
26.78743914218888
 30
0.0
 10
37.47577117714817
 20
29.72737805132277
 30
0.0
 10
35.64340343117019
 20
32.8837975961908
 30
0.0
 10
33.82264741223712
 20
36.02021488863181
 30
0.0
 10
31.44280213002182
 20
39.45341671730174
 30
0.0
 10
31.28477307169844
 20
42.93428642509038
 30
0.0
 10
31.17346087189228
 20
45.38613463910472
 30
0.0
 10
31.2094963592673
 20
49.01861615863058
 30
0.0
 10
32.87814649816583
 20
50.48438093798914
 30
0.0
 10
34.04905774915006
 20
51.51292516750646
 30
0.0
 10
36.45523329071034
 20
52.30948172757873
 30
0.0
 10
38.07123059178022
 20
52.0175771941991
 30
0.0
 10
39.4489947733255
 20
51.76870573243683
 30
0.0
 10
41.36795669571978
 20
50.76808334167218
 30
0.0
 10
41.95367917605384
 20
49.51995103488932
 30
0.0
 10
42.35920054245192
 20
48.65581428841598
 30
0.0
 10
42.53751697692861
 20
47.18047258929005
 30
0.0
 10
42.15151095104868
 20
46.32991366309762
 30
0.0
 10
41.74529524728776
 20
45.43482299189431
 30
0.0
 10
40.83856627856144
 20
44.77538374191154
 30
0.0
 10
39.43132404486971
 20
44.35159591314927
 30
0.0
  0
SPLINE
  5
CA
330
1F
100
AcDbEntity
  8
0
  6
K5LT32773
 62
    30
420
 16744448
100
AcDbSpline
210
0.0
220
0.0
230
1.0
 70
     8
 71
     3
 72
    29
 73
    25
 74
     0
 42
0.0
 43
0.0
 12
1.0
 22
0.0
 32
0.0
 13
1.0
 23
0.0
 33
0.0
 40
0.0
 40
0.0
 40
0.0
 40
0.0
 40
1.0
 40
1.0
 40
1.0
 40
2.0
 40
2.0
 40
2.0
 40
3.0
 40
3.0
 40
3.0
 40
4.0
 40
4.0
 40
4.0
 40
5.0
 40
5.0
 40
5.0
 40
6.0
 40
6.0
 40
6.0
 40
7.0
 40
7.0
 40
7.0
 40
8.0
 40
8.0
 40
8.0
 40
8.0
 10
39.43132404486971
 20
44.35159591314927
 30
0.0
 10
40.18422139623106
 20
45.36696220089702
 30
0.0
 10
40.4892120493481
 20
46.2407192071242
 30
0.0
 10
40.34629600422082
 20
46.97286693183083
 30
0.0
 10
40.15200192589053
 20
47.96822030343305
 30
0.0
 10
38.29529134438139
 20
49.17214611548041
 30
0.0
 10
37.27990349180089
 20
49.17374542864836
 30
0.0
 10
36.23413413658528
 20
49.17539259499586
 30
0.0
 10
34.58465344822691
 20
47.84482291337105
 30
0.0
 10
34.16405303563225
 20
46.84922207245906
 30
0.0
 10
33.66503298831958
 20
45.66799456088447
 30
0.0
 10
34.41429968241428
 20
43.39794258168413
 30
0.0
 10
35.27685676997819
 20
42.37327816320094
 30
0.0
 10
36.34485711653163
 20
41.10455987218122
 30
0.0
 10
39.08833328100169
 20
40.31878982706673
 30
0.0
 10
40.74195955421048
 20
40.7164370476192
 30
0.0
 10
42.0408996375777
 20
41.02879294216658
 30
0.0
 10
43.56618754208464
 20
42.21209858458609
 30
0.0
 10
44.32766047599185
 20
43.41189498192382
 30
0.0
 10
44.9187095244945
 20
44.34316710922675
 30
0.0
 10
45.27016227144286
 20
45.62047562880363
 30
0.0
 10
45.31681935096602
 20
46.75030618496164
 30
0.0
 10
45.3564784742225
 20
47.71067682417749
 30
0.0
 10
45.19161866172681
 20
48.68334971790208
 30
0.0
 10
44.82223991347894
 20
49.66832486613544
 30
0.0
  0
SPLINE
  5
CB
330
1F
100
AcDbEntity
  8
0
  6
K5LT32773
 62
    30
420
 16744448
100
AcDbSpline
210
0.0
220
0.0
230
1.0
 70
     8
 71
     3
 72
    14
 73
    10
 74
     0
 42
0.0
 43
0.0
 12
1.0
 22
0.0
 32
0.0
 13
1.0
 23
0.0
 33
0.0
 40
0.0
 40
0.0
 40
0.0
 40
0.0
 40
1.0
 40
1.0
 40
1.0
 40
2.0
 40
2.0
 40
2.0
 40
3.0
 40
3.0
 40
3.0
 40
3.0
 10
44.82223991347894
 20
49.66832486613544
 30
0.0
 10
45.79508375464306
 20
49.38790449188711
 30
0.0
 10
46.66884076087024
 20
49.37966150126232
 30
0.0
 10
47.44351093216049
 20
49.64359589426108
 30
0.0
 10
48.30908652314508
 20
49.93850226431088
 30
0.0
 10
49.2241262193315
 20
50.75331107549488
 30
0.0
 10
49.66911840085237
 20
51.54772672858636
 30
0.0
 10
50.15511222198317
 20
52.41533994707599
 30
0.0
 10
50.28700007197971
 20
53.47344495752431
 30
0.0
 10
50.06478195084203
 20
54.7220417599313
 30
0.0
  0
SPLINE
  5
CC
330
1F
100
AcDbEntity
  8
0
  6
K5LT32773
 62
    30
420
 16744448
100
AcDbSpline
210
0.0
220
0.0
230
1.0
 70
     8
 71
     3
 72
    17
 73
    13
 74
     0
 42
0.0
 43
0.0
 12
1.0
 22
0.0
 32
0.0
 13
1.0
 23
0.0
 33
0.0
 40
0.0
 40
0.0
 40
0.0
 40
0.0
 40
1.0
 40
1.0
 40
1.0
 40
2.0
 40
2.0
 40
2.0
 40
3.0
 40
3.0
 40
3.0
 40
4.0
 40
4.0
 40
4.0
 40
4.0
 10
50.06478195084203
 20
54.7220417599313
 30
0.0
 10
49.69845233554052
 20
53.59572916009487
 30
0.0
 10
49.15441495430473
 20
52.83437181213881
 30
0.0
 10
48.43266980713466
 20
52.43796971606312
 30
0.0
 10
47.56717072724978
 20
51.96261404410166
 30
0.0
 10
46.11979649207562
 20
52.28283783417897
 30
0.0
 10
45.06952963222248
 20
52.58634354730924
 30
0.0
 10
44.10283714728927
 20
52.86569796972561
 30
0.0
 10
43.30422538222106
 20
53.71734804516252
 30
0.0
 10
42.34934272604351
 20
54.0700818597705
 30
0.0
 10
41.04954362095971
 20
54.55022786891006
 30
0.0
 10
39.66052045069988
 20
54.76754783563032
 30
0.0
 10
38.182273215264
 20
54.7220417599313
 30
0.0
  0
SPLINE
  5
CD
330
1F
100
AcDbEntity
  8
0
  6
K5LT32773
 62
    30
420
 16744448
100
AcDbSpline
210
0.0
220
0.0
230
1.0
 70
     8
 71
     3
 72
    11
 73
     7
 74
     0
 42
0.0
 43
0.0
 12
1.0
 22
0.0
 32
0.0
 13
1.0
 23
0.0
 33
0.0
 40
0.0
 40
0.0
 40
0.0
 40
0.0
 40
1.0
 40
1.0
 40
1.0
 40
2.0
 40
2.0
 40
2.0
 40
2.0
 10
33.76073286843321
 20
54.7220417599313
 30
0.0
 10
32.04997690300816
 20
54.17572202556656
 30
0.0
 10
30.64603743024565
 20
53.36027223408182
 30
0.0
 10
29.5489144501457
 20
52.27569238547707
 30
0.0
 10
27.86264887484727
 20
50.6087054610049
 30
0.0
 10
26.9011863719622
 20
48.30594341705795
 30
0.0
 10
26.66452694149051
 20
45.36740625363624
 30
0.0
  0
SPLINE
  5
CE
330
1F
100
AcDbEntity
  8
0
  6
K5LT32773
 62
    30
420
 16744448
100
AcDbSpline
210
0.0
220
0.0
230
1.0
 70
     8
 71
     3
 72
    14
 73
    10
 74
     0
 42
0.0
 43
0.0
 12
1.0
 22
0.0
 32
0.0
 13
1.0
 23
0.0
 33
0.0
 40
0.0
 40
0.0
 40
0.0
 40
0.0
 40
1.0
 40
1.0
 40
1.0
 40
2.0
 40
2.0
 40
2.0
 40
3.0
 40
3.0
 40
3.0
 40
3.0
 10
26.66452694149051
 20
45.36740625363624
 30
0.0
 10
25.55237905851055
 20
47.50307278504143
 30
0.0
 10
24.91140405658718
 20
49.67526584711509
 30
0.0
 10
24.74160193572038
 20
51.88398543985723
 30
0.0
 10
24.57281968473451
 20
54.07943896397462
 30
0.0
 10
25.22795738503899
 20
56.36657857911004
 30
0.0
 10
25.63184499394729
 20
58.5786132377236
 30
0.0
 10
26.02754238888643
 20
60.74579126602306
 30
0.0
 10
26.5260785014935
 20
62.89424451321067
 30
0.0
 10
27.12745333176851
 20
65.02397297928643
 30
0.0
  0
SPLINE
  5
CF
330
1F
100
AcDbEntity
  8
0
  6
K5LT32773
 62
    30
420
 16744448
100
AcDbSpline
210
0.0
220
0.0
230
1.0
 70
     8
 71
     3
 72
    14
 73
    10
 74
     0
 42
0.0
 43
0.0
 12
1.0
 22
0.0
 32
0.0
 13
1.0
 23
0.0
 33
0.0
 40
0.0
 40
0.0
 40
0.0
 40
0.0
 40
1.0
 40
1.0
 40
1.0
 40
2.0
 40
2.0
 40
2.0
 40
3.0
 40
3.0
 40
3.0
 40
3.0
 10
27.12745333176851
 20
65.02397297928643
 30
0.0
 10
25.72805033005709
 20
62.94244780642845
 30
0.0
 10
24.60040912296967
 20
60.75838483691176
 30
0.0
 10
23.74452971050624
 20
58.47178407073636
 30
0.0
 10
22.92654379546408
 20
56.2864210478397
 30
0.0
 10
22.16616254069458
 20
53.95049649247868
 30
0.0
 10
22.03526303871057
 20
51.63471738355369
 30
0.0
 10
21.94172053116047
 20
49.97983114260021
 30
0.0
 10
22.07228951303375
 20
48.30617419313363
 30
0.0
 10
22.42696998433041
 20
46.61374653515391
 30
0.0
  0
SPLINE
  5
D0
330
1F
100
AcDbEntity
  8
0
  6
K5LT32773
 62
    30
420
 16744448
100
AcDbSpline
210
0.0
220
0.0
230
1.0
 70
     8
 71
     3
 72
    11
 73
     7
 74
     0
 42
0.0
 43
0.0
 12
1.0
 22
0.0
 32
0.0
 13
1.0
 23
0.0
 33
0.0
 40
0.0
 40
0.0
 40
0.0
 40
0.0
 40
1.0
 40
1.0
 40
1.0
 40
2.0
 40
2.0
 40
2.0
 40
2.0
 10
22.42696998433041
 20
46.61374653515391
 30
0.0
 10
20.66281482468212
 20
47.10863802089789
 30
0.0
 10
19.04850741243065
 20
47.19172737299907
 30
0.0
 10
17.58404774757602
 20
46.86301459145745
 30
0.0
 10
14.83718086436297
 20
46.24645254104745
 30
0.0
 10
12.61750817251721
 20
44.18108864596101
 30
0.0
 10
10.92502967203873
 20
40.66692290619815
 30
0.0
  0
SPLINE
  5
D1
330
1F
100
AcDbEntity
  8
0
  6
K5LT32773
 62
    30
420
 16744448
100
AcDbSpline
210
0.0
220
0.0
230
1.0
 70
     8
 71
     3
 72
    11
 73
     7
 74
     0
 42
0.0
 43
0.0
 12
1.0
 22
0.0
 32
0.0
 13
1.0
 23
0.0
 33
0.0
 40
0.0
 40
0.0
 40
0.0
 40
0.0
 40
1.0
 40
1.0
 40
1.0
 40
2.0
 40
2.0
 40
2.0
 40
2.0
 10
10.92502967203873
 20
40.66692290619815
 30
0.0
 10
12.5775370001138
 20
42.28310914169406
 30
0.0
 10
14.33428330168157
 20
43.24457164457912
 30
0.0
 10
16.19526857674204
 20
43.55131041485335
 30
0.0
 10
18.11419216693286
 20
43.86759892620989
 30
0.0
 10
20.14394633969021
 20
43.48776188803308
 30
0.0
 10
22.28453109501411
 20
42.4117993003229
 30
0.0
  0
SPLINE
  5
D2
330
1F
100
AcDbEntity
  8
0
  6
K5LT32773
 62
    30
420
 16744448
100
AcDbSpline
210
0.0
220
0.0
230
1.0
 70
     8
 71
     3
 72
    11
 73
     7
 74
     0
 42
0.0
 43
0.0
 12
1.0
 22
0.0
 32
0.0
 13
1.0
 23
0.0
 33
0.0
 40
0.0
 40
0.0
 40
0.0
 40
0.0
 40
1.0
 40
1.0
 40
1.0
 40
2.0
 40
2.0
 40
2.0
 40
2.0
 10
22.28453109501411
 20
42.4117993003229
 30
0.0
 10
18.5814257690969
 20
42.42474623231902
 30
0.0
 10
15.56646927856843
 20
41.60572261875026
 30
0.0
 10
13.2396616234287
 20
39.95472845961662
 30
0.0
 10
10.00422003722175
 20
37.6590100536511
 30
0.0
 10
8.09932029751235
 20
33.75466925526065
 30
0.0
 10
7.524962404300478
 20
28.24170606444525
 30
0.0
  0
SPLINE
  5
D3
330
1F
100
AcDbEntity
  8
0
  6
K5LT32773
 62
    30
420
 16744448
100
AcDbSpline
210
0.0
220
0.0
230
1.0
 70
     8
 71
     3
 72
    32
 73
    28
 74
     0
 42
0.0
 43
0.0
 12
1.0
 22
0.0
 32
0.0
 13
1.0
 23
0.0
 33
0.0
 40
0.0
 40
0.0
 40
0.0
 40
0.0
 40
1.0
 40
1.0
 40
1.0
 40
2.0
 40
2.0
 40
2.0
 40
3.0
 40
3.0
 40
3.0
 40
4.0
 40
4.0
 40
4.0
 40
5.0
 40
5.0
 40
5.0
 40
6.0
 40
6.0
 40
6.0
 40
7.0
 40
7.0
 40
7.0
 40
8.0
 40
8.0
 40
8.0
 40
9.0
 40
9.0
 40
9.0
 40
9.0
 10
20.65417571705233
 20
24.41607009813381
 30
0.0
 10
20.52249056634336
 20
22.83958658219246
 30
0.0
 10
20.04769426862234
 20
21.64072593044688
 30
0.0
 10
19.22978682388927
 20
20.81948814289709
 30
0.0
 10
18.22660274142224
 20
19.81221931108047
 30
0.0
 10
15.97920235023975
 20
19.23980080313437
 30
0.0
 10
14.67174236576749
 20
19.50192841672126
 30
0.0
 10
12.91021663071693
 20
19.8550899227593
 30
0.0
 10
11.25103616635359
 20
22.59339641089423
 30
0.0
 10
10.54101457559462
 20
24.38046037580473
 30
0.0
 10
9.269793604582055
 20
27.58001545737168
 30
0.0
 10
10.73644762970028
 20
33.13599828897075
 30
0.0
 10
13.14052430561721
 20
35.52630346480566
 30
0.0
 10
14.92679152740343
 20
37.30233824291079
 30
0.0
 10
18.59403471806414
 20
39.1172991440266
 30
0.0
 10
21.04588266267217
 20
38.65995902976439
 30
0.0
 10
22.98895068008673
 20
38.29752099560412
 30
0.0
 10
25.12376911649836
 20
36.350365979027
 30
0.0
 10
26.52977990134995
 20
34.74288957356598
 30
0.0
 10
29.0659277906122
 20
31.84334005611388
 30
0.0
 10
28.14578808422308
 20
26.62718050947606
 30
0.0
 10
30.01953268959943
 20
23.09851037195798
 30
0.0
 10
31.37869974680491
 20
20.53890209188718
 30
0.0
 10
32.69767945653522
 20
17.15177616408601
 30
0.0
 10
35.21855214964459
 20
15.97656590614269
 30
0.0
 10
36.32498669064516
 20
15.46075516096665
 30
0.0
 10
37.58319687960586
 20
15.17587738233403
 30
0.0
 10
38.9931827165267
 20
15.12193257024486
 30
0.0
  0
SPLINE
  5
D4
330
1F
100
AcDbEntity
  8
0
  6
K5LT32773
 62
    30
420
 16744448
100
AcDbSpline
210
0.0
220
0.0
230
1.0
 70
     8
 71
     3
 72
    32
 73
    28
 74
     0
 42
0.0
 43
0.0
 12
1.0
 22
0.0
 32
0.0
 13
1.0
 23
0.0
 33
0.0
 40
0.0
 40
0.0
 40
0.0
 40
0.0
 40
1.0
 40
1.0
 40
1.0
 40
2.0
 40
2.0
 40
2.0
 40
3.0
 40
3.0
 40
3.0
 40
4.0
 40
4.0
 40
4.0
 40
5.0
 40
5.0
 40
5.0
 40
6.0
 40
6.0
 40
6.0
 40
7.0
 40
7.0
 40
7.0
 40
8.0
 40
8.0
 40
8.0
 40
9.0
 40
9.0
 40
9.0
 40
9.0
 10
20.65417571705233
 20
24.41607009813381
 30
0.0
 10
20.16930135075784
 20
22.80066405360498
 30
0.0
 10
19.46327884411092
 20
21.86541035589056
 30
0.0
 10
18.53610819711157
 20
21.61030900499054
 30
0.0
 10
17.72325573821514
 20
21.3866611133991
 30
0.0
 10
16.21705185661586
 20
21.88129333911304
 30
0.0
 10
15.58762307110177
 20
22.50767404334135
 30
0.0
 10
14.86349830890873
 20
23.22829214809036
 30
0.0
 10
14.64755813810614
 20
24.89233007991374
 30
0.0
 10
14.81845303822965
 20
25.96893919126589
 30
0.0
 10
15.00754155588528
 20
27.16016503131722
 30
0.0
 10
15.99134239146485
 20
28.75252711169836
 30
0.0
 10
16.95503646287443
 20
29.25927766521885
 30
0.0
 10
18.18404259140507
 20
29.90554036869488
 30
0.0
 10
20.74955194246782
 20
29.19892602425594
 30
0.0
 10
21.86917833955743
 20
28.31918095837515
 30
0.0
 10
23.30090129034555
 20
27.19420640888412
 30
0.0
 10
23.93064313343953
 20
24.06786599423038
 30
0.0
 10
23.62117674776614
 20
22.16582069539819
 30
0.0
 10
23.3063928104457
 20
20.23109260909759
 30
0.0
 10
21.66043509644708
 20
17.76254683965935
 30
0.0
 10
19.90352158888423
 20
16.82436213378623
 30
0.0
 10
18.57550570650666
 20
16.11520702476124
 30
0.0
 10
16.56641147252591
 20
15.91655059454066
 30
0.0
 10
15.03211138069413
 20
16.14065543789991
 30
0.0
 10
12.97711248605239
 20
16.44081523573794
 30
0.0
 10
11.08267518286735
 20
17.55183861655323
 30
0.0
 10
9.348799471139014
 20
19.47372558034576
 30
0.0
  0
SPLINE
  5
D5
330
1F
100
AcDbEntity
  8
0
  6
K5LT32773
 62
    30
420
 16744448
100
AcDbSpline
210
0.0
220
0.0
230
1.0
 70
     8
 71
     3
 72
    17
 73
    13
 74
     0
 42
0.0
 43
0.0
 12
1.0
 22
0.0
 32
0.0
 13
1.0
 23
0.0
 33
0.0
 40
0.0
 40
0.0
 40
0.0
 40
0.0
 40
1.0
 40
1.0
 40
1.0
 40
2.0
 40
2.0
 40
2.0
 40
3.0
 40
3.0
 40
3.0
 40
4.0
 40
4.0
 40
4.0
 40
4.0
 10
9.348799471139014
 20
19.47372558034576
 30
0.0
 10
10.30299499122034
 20
15.73674822542503
 30
0.0
 10
11.86982283595984
 20
12.51762919896023
 30
0.0
 10
14.04928300535753
 20
9.816368500951363
 30
0.0
 10
16.65998185746626
 20
6.580623107408742
 30
0.0
 10
20.4945161530355
 20
2.728931640377291
 30
0.0
 10
24.51854178611695
 20
2.338326514694636
 30
0.0
 10
26.26913343794192
 20
2.168399646794324
 30
0.0
 10
28.58342774013574
 20
2.091735733533667
 30
0.0
 10
30.07365869019338
 20
3.022033210580965
 30
0.0
 10
31.01579259861816
 20
3.610173456906132
 30
0.0
 10
31.81345041048555
 20
4.479050716261677
 30
0.0
 10
32.46663212579553
 20
5.628664988647596
 30
0.0
  0
SPLINE
  5
D6
330
1F
100
AcDbEntity
  8
0
  6
K5LT32773
 62
    30
420
 16744448
100
AcDbSpline
210
0.0
220
0.0
230
1.0
 70
     8
 71
     3
 72
    26
 73
    22
 74
     0
 42
0.0
 43
0.0
 12
1.0
 22
0.0
 32
0.0
 13
1.0
 23
0.0
 33
0.0
 40
0.0
 40
0.0
 40
0.0
 40
0.0
 40
1.0
 40
1.0
 40
1.0
 40
2.0
 40
2.0
 40
2.0
 40
3.0
 40
3.0
 40
3.0
 40
4.0
 40
4.0
 40
4.0
 40
5.0
 40
5.0
 40
5.0
 40
6.0
 40
6.0
 40
6.0
 40
7.0
 40
7.0
 40
7.0
 40
7.0
 10
32.46663212579553
 20
5.628664988647596
 30
0.0
 10
31.5138136663264
 20
5.148312979665737
 30
0.0
 10
30.61644862797559
 20
4.963142416196523
 30
0.0
 10
29.77453701074311
 20
5.073153298239955
 30
0.0
 10
28.6673097556515
 20
5.217832436123285
 30
0.0
 10
27.13727783583223
 20
6.14401364439664
 30
0.0
 10
26.74058854774752
 20
7.038810048913152
 30
0.0
 10
26.29021989748892
 20
8.05468887665781
 30
0.0
 10
26.93663871488169
 20
10.25345417689802
 30
0.0
 10
27.76614859157701
 20
11.01285521875244
 30
0.0
 10
28.66935597684158
 20
11.83972497479809
 30
0.0
 10
30.95186685349057
 20
11.95658168877181
 30
0.0
 10
32.21024211483815
 20
11.48290357217429
 30
0.0
 10
33.36737963631431
 20
11.04733340590276
 30
0.0
 10
34.67021077036406
 20
9.762285319950553
 30
0.0
 10
35.11599557235506
 20
8.577150114657393
 30
0.0
 10
35.49611074041234
 20
7.566600033724633
 30
0.0
 10
35.44297001200813
 20
6.145399936305109
 30
0.0
 10
35.11599557235506
 20
5.073153298239955
 30
0.0
 10
34.81291985932868
 20
4.079277707485687
 30
0.0
 10
34.22892038992578
 20
3.167668779637247
 30
0.0
 10
33.36399716414634
 20
2.338326514694636
 30
0.0
  0
SPLINE
  5
D7
330
1F
100
AcDbEntity
  8
0
  6
K5LT32773
 62
    30
420
 16744448
100
AcDbSpline
210
0.0
220
0.0
230
1.0
 70
     8
 71
     3
 72
    14
 73
    10
 74
     0
 42
0.0
 43
0.0
 12
1.0
 22
0.0
 32
0.0
 13
1.0
 23
0.0
 33
0.0
 40
0.0
 40
0.0
 40
0.0
 40
0.0
 40
1.0
 40
1.0
 40
1.0
 40
2.0
 40
2.0
 40
2.0
 40
3.0
 40
3.0
 40
3.0
 40
3.0
 10
33.36399716414634
 20
2.338326514694636
 30
0.0
 10
34.545315043808
 20
3.185865151711451
 30
0.0
 10
35.55663119813985
 20
4.154449637550418
 30
0.0
 10
36.39794562714192
 20
5.244079972211537
 30
0.0
 10
37.66924764265864
 20
6.890609727164103
 30
0.0
 10
38.71719147983067
 20
8.972825799638889
 30
0.0
 10
39.04730907370146
 20
11.01285521875244
 30
0.0
 10
39.26101151535089
 20
12.33347331362407
 30
0.0
 10
39.24296939629264
 20
13.70316576412154
 30
0.0
 10
38.9931827165267
 20
15.12193257024486
 30
0.0
  0
SPLINE
  5
D8
330
1F
100
AcDbEntity
  8
0
  6
K5LT32773
 62
    30
420
 16744448
100
AcDbSpline
210
0.0
220
0.0
230
1.0
 70
    11
 71
     3
 72
    26
 73
    22
 74
     0
 42
0.0
 43
0.0
 12
1.0
 22
0.0
 32
0.0
 13
1.0
 23
0.0
 33
0.0
 40
0.0
 40
0.0
 40
0.0
 40
0.0
 40
1.0
 40
1.0
 40
1.0
 40
2.0
 40
2.0
 40
2.0
 40
3.0
 40
3.0
 40
3.0
 40
4.0
 40
4.0
 40
4.0
 40
5.0
 40
5.0
 40
5.0
 40
6.0
 40
6.0
 40
6.0
 40
7.0
 40
7.0
 40
7.0
 40
7.0
 10
29.36119481206928
 20
36.84538915134503
 30
0.0
 10
29.87335222924314
 20
33.30553180574621
 30
0.0
 10
30.83503443058754
 20
29.95338241820286
 30
0.0
 10
32.24624141610249
 20
26.78894098871498
 30
0.0
 10
33.17716800734872
 20
24.7014635999345
 30
0.0
 10
34.00686121202415
 20
22.33562292824135
 30
0.0
 10
35.62586743796996
 20
20.77155807173143
 30
0.0
 10
36.4575840466589
 20
19.96806596813187
 30
0.0
 10
37.54032246035837
 20
18.51560772122527
 30
0.0
 10
38.51091404200317
 20
18.710810497422
 30
0.0
 10
39.03041767710253
 20
18.81529167543081
 30
0.0
 10
39.78064420214223
 20
19.343443752645
 30
0.0
 10
40.07708219847834
 20
19.78239923606291
 30
0.0
 10
40.69259775897015
 20
20.69383411872409
 30
0.0
 10
39.53291060470277
 20
22.39585194159504
 30
0.0
 10
39.00549345983743
 20
23.57417477279227
 30
0.0
 10
38.15584653894688
 20
25.47240348054008
 30
0.0
 10
36.39250773969554
 20
26.90415078452963
 30
0.0
 10
35.1312880201357
 20
28.60239885410729
 30
0.0
 10
33.13208665357781
 20
31.29434840801916
 30
0.0
 10
31.208722250889
 20
34.04201184043174
 30
0.0
 10
29.36119481206928
 20
36.84538915134503
 30
0.0
  0
SPLINE
  5
D9
330
1F
100
AcDbEntity
  8
0
  6
K5LT32773
 62
    30
420
 16744448
100
AcDbSpline
210
0.0
220
0.0
230
1.0
 70
     8
 71
     3
 72
    11
 73
     7
 74
     0
 42
0.0
 43
0.0
 12
1.0
 22
0.0
 32
0.0
 13
1.0
 23
0.0
 33
0.0
 40
0.0
 40
0.0
 40
0.0
 40
0.0
 40
1.0
 40
1.0
 40
1.0
 40
2.0
 40
2.0
 40
2.0
 40
2.0
 10
43.91124816805637
 20
20.27668201369701
 30
0.0
 10
45.24423433799902
 20
18.03477534253435
 30
0.0
 10
46.78979489590098
 20
15.99310892654041
 30
0.0
 10
48.54792984176224
 20
14.15168276571519
 30
0.0
 10
50.09963322679533
 20
12.52646781064742
 30
0.0
 10
51.81692273557528
 20
11.05723123091346
 30
0.0
 10
53.69979836810209
 20
9.743973026513313
 30
0.0
  0
SPLINE
  5
DA
330
1F
100
AcDbEntity
  8
0
  6
K5LT32773
 62
    30
420
 16744448
100
AcDbSpline
210
0.0
220
0.0
230
1.0
 70
     8
 71
     3
 72
    11
 73
     7
 74
     0
 42
0.0
 43
0.0
 12
1.0
 22
0.0
 32
0.0
 13
1.0
 23
0.0
 33
0.0
 40
0.0
 40
0.0
 40
0.0
 40
0.0
 40
1.0
 40
1.0
 40
1.0
 40
2.0
 40
2.0
 40
2.0
 40
2.0
 10
43.91124816805637
 20
20.27668201369701
 30
0.0
 10
43.96821504222734
 20
19.33091678715743
 30
0.0
 10
43.83464808043333
 20
18.45319103822545
 30
0.0
 10
43.51054728267438
 20
17.64350476690109
 30
0.0
 10
43.29193766488714
 20
17.09736230898142
 30
0.0
 10
42.98664175221515
 20
16.58217545634744
 30
0.0
 10
42.59465954465841
 20
16.09794420899913
 30
0.0
  0
SPLINE
  5
DB
330
1F
100
AcDbEntity
  8
0
  6
K5LT32773
 62
    30
420
 16744448
100
AcDbSpline
210
0.0
220
0.0
230
1.0
 70
     8
 71
     3
 72
    11
 73
     7
 74
     0
 42
0.0
 43
0.0
 12
1.0
 22
0.0
 32
0.0
 13
1.0
 23
0.0
 33
0.0
 40
0.0
 40
0.0
 40
0.0
 40
0.0
 40
1.0
 40
1.0
 40
1.0
 40
2.0
 40
2.0
 40
2.0
 40
2.0
 10
42.59465954465841
 20
16.09794420899913
 30
0.0
 10
42.89142521986147
 20
15.06095221164224
 30
0.0
 10
43.02499218165547
 20
14.03057850637426
 30
0.0
 10
42.9953604300404
 20
13.00682309319522
 30
0.0
 10
42.96141980964913
 20
11.8341994054837
 30
0.0
 10
42.71336688060313
 20
10.67025873842173
 30
0.0
 10
42.25120164290242
 20
9.515001092009317
 30
0.0
  0
SPLINE
  5
DC
330
1F
100
AcDbEntity
  8
0
  6
K5LT32773
 62
    30
420
 16744448
100
AcDbSpline
210
0.0
220
0.0
230
1.0
 70
     8
 71
     3
 72
    11
 73
     7
 74
     0
 42
0.0
 43
0.0
 12
1.0
 22
0.0
 32
0.0
 13
1.0
 23
0.0
 33
0.0
 40
0.0
 40
0.0
 40
0.0
 40
0.0
 40
1.0
 40
1.0
 40
1.0
 40
2.0
 40
2.0
 40
2.0
 40
2.0
 10
42.25120164290242
 20
9.515001092009317
 30
0.0
 10
44.2308235181768
 20
10.62730286426171
 30
0.0
 10
46.21524695054475
 20
11.1806517059797
 30
0.0
 10
48.20447194000625
 20
11.17504761716327
 30
0.0
 10
50.03219387538814
 20
11.16989851833741
 30
0.0
 10
51.8639693514201
 20
10.69287365478742
 30
0.0
 10
53.69979836810209
 20
9.743973026513313
 30
0.0
  0
SPLINE
  5
DD
330
1F
100
AcDbEntity
  8
0
  6
K5LT32773
 62
    30
420
 16744448
100
AcDbSpline
210
0.0
220
0.0
230
1.0
 70
     8
 71
     3
 72
    14
 73
    10
 74
     0
 42
0.0
 43
0.0
 12
1.0
 22
0.0
 32
0.0
 13
1.0
 23
0.0
 33
0.0
 40
0.0
 40
0.0
 40
0.0
 40
0.0
 40
1.0
 40
1.0
 40
1.0
 40
2.0
 40
2.0
 40
2.0
 40
3.0
 40
3.0
 40
3.0
 40
3.0
 10
33.48386447442227
 20
0.0500661869100973
 30
0.0
 10
35.86529146971775
 20
2.104607610050133
 30
0.0
 10
38.44122563052925
 20
3.662888769059559
 30
0.0
 10
41.21166695685677
 20
4.724909663938377
 30
0.0
 10
43.7513529236241
 20
5.698472806209581
 30
0.0
 10
46.71605282060748
 20
6.650586907173737
 30
0.0
 10
49.32108931496704
 20
6.394496620019904
 30
0.0
 10
52.29521018897132
 20
6.10212318482885
 30
0.0
 10
55.1414584283865
 20
4.75055279181047
 30
0.0
 10
57.85983403321256
 20
2.339785440964764
 30
0.0
  0
SPLINE
  5
DE
330
1F
100
AcDbEntity
  8
0
  6
K5LT32773
 62
    30
420
 16744448
100
AcDbSpline
210
0.0
220
0.0
230
1.0
 70
     8
 71
     3
 72
    14
 73
    10
 74
     0
 42
0.0
 43
0.0
 12
1.0
 22
0.0
 32
0.0
 13
1.0
 23
0.0
 33
0.0
 40
0.0
 40
0.0
 40
0.0
 40
0.0
 40
1.0
 40
1.0
 40
1.0
 40
2.0
 40
2.0
 40
2.0
 40
3.0
 40
3.0
 40
3.0
 40
3.0
 10
57.85983403321256
 20
2.339785440964764
 30
0.0
 10
55.8365170352724
 20
3.033174730146829
 30
0.0
 10
53.86481434428088
 20
3.319389636903663
 30
0.0
 10
51.94472596023802
 20
3.198430161235265
 30
0.0
 10
48.88817898120661
 20
3.00587740011653
 30
0.0
 10
46.21267699194506
 20
0.0583642570066187
 30
0.0
 10
43.16746881969513
 20
-0.4746611421440967
 30
0.0
 10
40.06369541080527
 20
-1.017937649550998
 30
0.0
 10
36.83582729571431
 20
-0.8430285398662669
 30
0.0
 10
33.48386447442227
 20
0.0500661869100973
 30
0.0
  0
SPLINE
  5
DF
330
1F
100
AcDbEntity
  8
0
  6
K5LT32773
 62
    30
420
 16744448
100
AcDbSpline
210
0.0
220
0.0
230
1.0
 70
     8
 71
     3
 72
    20
 73
    16
 74
     0
 42
0.0
 43
0.0
 12
1.0
 22
0.0
 32
0.0
 13
1.0
 23
0.0
 33
0.0
 40
0.0
 40
0.0
 40
0.0
 40
0.0
 40
1.0
 40
1.0
 40
1.0
 40
2.0
 40
2.0
 40
2.0
 40
3.0
 40
3.0
 40
3.0
 40
4.0
 40
4.0
 40
4.0
 40
5.0
 40
5.0
 40
5.0
 40
5.0
 10
58.24145390888835
 20
6.537604073398321
 30
0.0
 10
61.05242964150186
 20
5.440756687821446
 30
0.0
 10
63.26264475479075
 20
3.88247552881202
 30
0.0
 10
64.87209924875499
 20
1.862760596370043
 30
0.0
 10
66.67750496171416
 20
-0.4028547976994279
 30
0.0
 10
67.7772833928922
 20
-3.802284623738482
 30
0.0
 10
68.02046322308016
 20
-6.675984121875485
 30
0.0
 10
68.3512126221152
 20
-10.58450885964471
 30
0.0
 10
65.40271427744229
 20
-14.52718932233278
 30
0.0
 10
64.53818185753869
 20
-18.55390275228407
 30
0.0
 10
63.960859356029
 20
-21.24288493123044
 30
0.0
 10
62.97866937065498
 20
-24.00805451324599
 30
0.0
 10
63.20251229267346
 20
-26.71102759485382
 30
0.0
 10
63.32007497094526
 20
-28.13063359313578
 30
0.0
 10
63.62219070585527
 20
-29.54580729876679
 30
0.0
 10
64.10885949740344
 20
-30.95654871174685
 30
0.0
  0
SPLINE
  5
E0
330
1F
100
AcDbEntity
  8
0
  6
K5LT32773
 62
    30
420
 16744448
100
AcDbSpline
210
0.0
220
0.0
230
1.0
 70
     8
 71
     3
 72
    17
 73
    13
 74
     0
 42
0.0
 43
0.0
 12
1.0
 22
0.0
 32
0.0
 13
1.0
 23
0.0
 33
0.0
 40
0.0
 40
0.0
 40
0.0
 40
0.0
 40
1.0
 40
1.0
 40
1.0
 40
2.0
 40
2.0
 40
2.0
 40
3.0
 40
3.0
 40
3.0
 40
4.0
 40
4.0
 40
4.0
 40
4.0
 10
64.10885949740344
 20
-30.95654871174685
 30
0.0
 10
59.39422979997812
 20
-28.92032895886446
 30
0.0
 10
56.26176665380611
 20
-26.05817989129613
 30
0.0
 10
54.71147005888741
 20
-22.37010150904185
 30
0.0
 10
53.73864140407941
 20
-20.05579059383078
 30
0.0
 10
52.71979272304191
 20
-16.70111951365651
 30
0.0
 10
53.66201540077902
 20
-14.45148908876946
 30
0.0
 10
54.2522169816505
 20
-13.04233659805073
 30
0.0
 10
55.49365632460537
 20
-10.98792747289485
 30
0.0
 10
56.9534868284826
 20
-10.68299281647115
 30
0.0
 10
57.73894187114101
 20
-10.51892413662567
 30
0.0
 10
58.62938824771783
 20
-10.63022993369778
 30
0.0
 10
59.62482595821305
 20
-11.01691020768746
 30
0.0
  0
SPLINE
  5
E1
330
1F
100
AcDbEntity
  8
0
  6
K5LT32773
 62
    30
420
 16744448
100
AcDbSpline
210
0.0
220
0.0
230
1.0
 70
     8
 71
     3
 72
    26
 73
    22
 74
     0
 42
0.0
 43
0.0
 12
1.0
 22
0.0
 32
0.0
 13
1.0
 23
0.0
 33
0.0
 40
0.0
 40
0.0
 40
0.0
 40
0.0
 40
1.0
 40
1.0
 40
1.0
 40
2.0
 40
2.0
 40
2.0
 40
3.0
 40
3.0
 40
3.0
 40
4.0
 40
4.0
 40
4.0
 40
5.0
 40
5.0
 40
5.0
 40
6.0
 40
6.0
 40
6.0
 40
7.0
 40
7.0
 40
7.0
 40
7.0
 10
59.62482595821305
 20
-11.01691020768746
 30
0.0
 10
58.91552647226714
 20
-11.45914033747813
 30
0.0
 10
58.486203671422
 20
-11.97105833664016
 30
0.0
 10
58.33685755567767
 20
-12.55266420517355
 30
0.0
 10
58.18290939386561
 20
-13.15219204634689
 30
0.0
 10
58.44098543244051
 20
-14.03802972977157
 30
0.0
 10
58.76750495060091
 20
-14.5733942890441
 30
0.0
 10
59.27101160273011
 20
-15.39894866455778
 30
0.0
 10
60.67295691468235
 20
-16.06636693328448
 30
0.0
 10
61.58327637894512
 20
-16.06409680993221
 30
0.0
 10
62.67278557828897
 20
-16.06137982938522
 30
0.0
 10
64.20017419680333
 20
-14.91480527070659
 30
0.0
 10
64.73031503415336
 20
-13.91085983531605
 30
0.0
 10
65.22345516959204
 20
-12.97698386670312
 30
0.0
 10
65.29705239373861
 20
-11.36934599549688
 30
0.0
 10
64.86282192489897
 20
-10.36630050787098
 30
0.0
 10
64.5242510053687
 20
-9.58422265418264
 30
0.0
 10
63.75156392404052
 20
-8.731667872035612
 30
0.0
 10
62.97459873177402
 20
-8.345570424000432
 30
0.0
 10
62.25198232826416
 20
-7.986480529008299
 30
0.0
 10
61.40172977931316
 20
-7.876058120053623
 30
0.0
 10
60.42384108492104
 20
-8.014303197136407
 30
0.0
  0
SPLINE
  5
E2
330
1F
100
AcDbEntity
  8
0
  6
K5LT32773
 62
    30
420
 16744448
100
AcDbSpline
210
0.0
220
0.0
230
1.0
 70
     8
 71
     3
 72
    14
 73
    10
 74
     0
 42
0.0
 43
0.0
 12
1.0
 22
0.0
 32
0.0
 13
1.0
 23
0.0
 33
0.0
 40
0.0
 40
0.0
 40
0.0
 40
0.0
 40
1.0
 40
1.0
 40
1.0
 40
2.0
 40
2.0
 40
2.0
 40
3.0
 40
3.0
 40
3.0
 40
3.0
 10
60.42384108492104
 20
-8.014303197136407
 30
0.0
 10
61.92190203217175
 20
-6.303203118961117
 30
0.0
 10
62.73902785843635
 20
-4.52540233479085
 30
0.0
 10
62.87521856371482
 20
-2.680900844625604
 30
0.0
 10
62.99378325437846
 20
-1.075117629369611
 30
0.0
 10
62.40599021480956
 20
0.7924303431551019
 30
0.0
 10
61.68265654700433
 20
2.288107558334769
 30
0.0
 10
60.90865020227704
 20
3.888563483089004
 30
0.0
 10
59.76158265623838
 20
5.30506232144352
 30
0.0
 10
58.24145390888835
 20
6.537604073398321
 30
0.0
  0
SPLINE
  5
E3
330
1F
100
AcDbEntity
  8
0
  6
K5LT32773
 62
    30
420
 16744448
100
AcDbSpline
210
0.0
220
0.0
230
1.0
 70
     8
 71
     3
 72
    23
 73
    19
 74
     0
 42
0.0
 43
0.0
 12
1.0
 22
0.0
 32
0.0
 13
1.0
 23
0.0
 33
0.0
 40
0.0
 40
0.0
 40
0.0
 40
0.0
 40
1.0
 40
1.0
 40
1.0
 40
2.0
 40
2.0
 40
2.0
 40
3.0
 40
3.0
 40
3.0
 40
4.0
 40
4.0
 40
4.0
 40
5.0
 40
5.0
 40
5.0
 40
6.0
 40
6.0
 40
6.0
 40
6.0
 10
58.23747738761847
 20
-7.219261852662745
 30
0.0
 10
59.20441231682403
 20
-6.037939489822504
 30
0.0
 10
59.66818643443365
 20
-4.878504195798417
 30
0.0
 10
59.62879974044737
 20
-3.740955970590484
 30
0.0
 10
59.58783547979953
 20
-2.557845196857063
 30
0.0
 10
58.78513592174423
 20
-0.9474074453095563
 30
0.0
 10
57.87308343806804
 20
-0.2626500885182228
 30
0.0
 10
56.81291753876221
 20
0.5333089291502165
 30
0.0
 10
54.81486798519733
 20
0.3659825585488702
 30
0.0
 10
53.3678491527173
 20
0.201124029091412
 30
0.0
 10
51.19003044552306
 20
-0.0469943653856277
 30
0.0
 10
49.35429120856375
 20
-2.015973605192465
 30
0.0
 10
47.20627873304644
 20
-2.714027567312007
 30
0.0
 10
45.63354512146142
 20
-3.225129314363589
 30
0.0
 10
43.97614119223979
 20
-3.748064433944861
 30
0.0
 10
42.33665049814527
 20
-3.807209415963289
 30
0.0
 10
41.00031399758926
 20
-3.855418044765301
 30
0.0
 10
39.65316060834223
 20
-3.700826672228755
 30
0.0
 10
38.29519033040417
 20
-3.343435298353654
 30
0.0
  0
SPLINE
  5
E4
330
1F
100
AcDbEntity
  8
0
  6
K5LT32773
 62
    30
420
 16744448
100
AcDbSpline
210
0.0
220
0.0
230
1.0
 70
     8
 71
     3
 72
    14
 73
    10
 74
     0
 42
0.0
 43
0.0
 12
1.0
 22
0.0
 32
0.0
 13
1.0
 23
0.0
 33
0.0
 40
0.0
 40
0.0
 40
0.0
 40
0.0
 40
1.0
 40
1.0
 40
1.0
 40
2.0
 40
2.0
 40
2.0
 40
3.0
 40
3.0
 40
3.0
 40
3.0
 10
38.29519033040417
 20
-3.343435298353654
 30
0.0
 10
39.38223280397687
 20
-4.299475200078339
 30
0.0
 10
40.06685173949585
 20
-5.370572566938686
 30
0.0
 10
40.34904713696112
 20
-6.556727398934696
 30
0.0
 10
40.55742031038514
 20
-7.432584513314709
 30
0.0
 10
40.58198447392513
 20
-8.498844599479064
 30
0.0
 10
40.31592041427472
 20
-9.372498827278907
 30
0.0
 10
40.13530311193131
 20
-9.965578065464854
 30
0.0
 10
39.83716260775368
 20
-10.5287323511337
 30
0.0
 10
39.42149890174186
 20
-11.06196168428544
 30
0.0
  0
SPLINE
  5
E5
330
1F
100
AcDbEntity
  8
0
  6
K5LT32773
 62
    30
420
 16744448
100
AcDbSpline
210
0.0
220
0.0
230
1.0
 70
     8
 71
     3
 72
    26
 73
    22
 74
     0
 42
0.0
 43
0.0
 12
1.0
 22
0.0
 32
0.0
 13
1.0
 23
0.0
 33
0.0
 40
0.0
 40
0.0
 40
0.0
 40
0.0
 40
1.0
 40
1.0
 40
1.0
 40
2.0
 40
2.0
 40
2.0
 40
3.0
 40
3.0
 40
3.0
 40
4.0
 40
4.0
 40
4.0
 40
5.0
 40
5.0
 40
5.0
 40
6.0
 40
6.0
 40
6.0
 40
7.0
 40
7.0
 40
7.0
 40
7.0
 10
39.42149890174186
 20
-11.06196168428544
 30
0.0
 10
40.52635521551809
 20
-10.8443208271989
 30
0.0
 10
41.5091146552147
 20
-10.89953203167624
 30
0.0
 10
42.36977722083167
 20
-11.22759529771745
 30
0.0
 10
43.53040392026011
 20
-11.66999746655834
 30
0.0
 10
44.83632235492079
 20
-12.902560831495
 30
0.0
 10
45.18554864917589
 20
-14.04336672606166
 30
0.0
 10
45.49003865509385
 20
-15.038034078727
 30
0.0
 10
45.36138770958352
 20
-16.69355247563312
 30
0.0
 10
44.75490125425265
 20
-17.48854588544752
 30
0.0
 10
44.1477526353669
 20
-18.28440727122036
 30
0.0
 10
42.57562065206325
 20
-18.93745816009121
 30
0.0
 10
41.54160915367162
 20
-18.81361479290362
 30
0.0
 10
40.71163147573744
 20
-18.7142085189059
 30
0.0
 10
39.40909112575925
 20
-18.13106597203313
 30
0.0
 10
39.12335839756423
 20
-17.42229244007471
 30
0.0
 10
38.88075957374489
 20
-16.82051459581589
 30
0.0
 10
39.04840183129379
 20
-15.58299323696881
 30
0.0
 10
39.52087906980107
 20
-15.0871201699141
 30
0.0
 10
39.89404541541817
 20
-14.69547560962297
 30
0.0
 10
40.47928418287795
 20
-14.4800646857511
 30
0.0
 10
41.2765953721804
 20
-14.44088739829849
 30
0.0
  0
SPLINE
  5
E6
330
1F
100
AcDbEntity
  8
0
  6
K5LT32773
 62
    30
420
 16744448
100
AcDbSpline
210
0.0
220
0.0
230
1.0
 70
     8
 71
     3
 72
    20
 73
    16
 74
     0
 42
0.0
 43
0.0
 12
1.0
 22
0.0
 32
0.0
 13
1.0
 23
0.0
 33
0.0
 40
0.0
 40
0.0
 40
0.0
 40
0.0
 40
1.0
 40
1.0
 40
1.0
 40
2.0
 40
2.0
 40
2.0
 40
3.0
 40
3.0
 40
3.0
 40
4.0
 40
4.0
 40
4.0
 40
5.0
 40
5.0
 40
5.0
 40
5.0
 10
41.2765953721804
 20
-14.44088739829849
 30
0.0
 10
40.49036338799874
 20
-14.02473322784936
 30
0.0
 10
39.79470221158429
 20
-13.88118409620829
 30
0.0
 10
39.18961184293703
 20
-14.01024000337526
 30
0.0
 10
38.29674356696182
 20
-14.2006742447832
 30
0.0
 10
37.3536009986036
 20
-15.48127222182622
 30
0.0
 10
37.10262831369368
 20
-16.36223731410983
 30
0.0
 10
36.78821646799135
 20
-17.46588674418075
 30
0.0
 10
37.58564065944515
 20
-19.0797229385154
 30
0.0
 10
38.25312931124971
 20
-20.12973268627059
 30
0.0
 10
39.20881637371301
 20
-21.63310016476942
 30
0.0
 10
41.23616351188075
 20
-22.48775780492316
 30
0.0
 10
42.8666775609194
 20
-23.37405934593807
 30
0.0
 10
46.02492656309551
 20
-25.090794604483
 30
0.0
 10
49.38393239355504
 20
-26.26048066049322
 30
0.0
 10
53.38441159591499
 20
-26.32785866810219
 30
0.0
  0
SPLINE
  5
E7
330
1F
100
AcDbEntity
  8
0
  6
K5LT32773
 62
    30
420
 16744448
100
AcDbSpline
210
0.0
220
0.0
230
1.0
 70
     8
 71
     3
 72
    17
 73
    13
 74
     0
 42
0.0
 43
0.0
 12
1.0
 22
0.0
 32
0.0
 13
1.0
 23
0.0
 33
0.0
 40
0.0
 40
0.0
 40
0.0
 40
0.0
 40
1.0
 40
1.0
 40
1.0
 40
2.0
 40
2.0
 40
2.0
 40
3.0
 40
3.0
 40
3.0
 40
4.0
 40
4.0
 40
4.0
 40
4.0
 10
53.38441159591499
 20
-26.32785866810219
 30
0.0
 10
51.12821818681255
 20
-24.13090159844318
 30
0.0
 10
49.84915866724616
 20
-21.75681990025521
 30
0.0
 10
49.54723303721582
 20
-19.20561357353824
 30
0.0
 10
49.34135629361294
 20
-17.46599958067927
 30
0.0
 10
50.46733663480971
 20
-15.52012769345649
 30
0.0
 10
50.29258426804228
 20
-13.73970454747755
 30
0.0
 10
50.11780345868467
 20
-11.95899162089763
 30
0.0
 10
49.63305492413356
 20
-9.845811420119146
 30
0.0
 10
48.49822019383043
 20
-8.52224593169233
 30
0.0
 10
47.65412368038165
 20
-7.537770409160716
 30
0.0
 10
46.51309216652386
 20
-6.783217311287017
 30
0.0
 10
45.07512565225706
 20
-6.258586638071234
 30
0.0
  0
SPLINE
  5
E8
330
1F
100
AcDbEntity
  8
0
  6
K5LT32773
 62
    30
420
 16744448
100
AcDbSpline
210
0.0
220
0.0
230
1.0
 70
     8
 71
     3
 72
    11
 73
     7
 74
     0
 42
0.0
 43
0.0
 12
1.0
 22
0.0
 32
0.0
 13
1.0
 23
0.0
 33
0.0
 40
0.0
 40
0.0
 40
0.0
 40
0.0
 40
1.0
 40
1.0
 40
1.0
 40
2.0
 40
2.0
 40
2.0
 40
2.0
 10
45.07512565225706
 20
-6.258586638071234
 30
0.0
 10
46.79467601170877
 20
-5.632743479961614
 30
0.0
 10
48.32218594155065
 20
-5.531522942441971
 30
0.0
 10
49.65765544178269
 20
-5.954925025512306
 30
0.0
 10
51.28697872181813
 20
-6.471491574311909
 30
0.0
 10
52.63045131071521
 20
-7.768954827972783
 30
0.0
 10
53.68807320847392
 20
-9.847314786494925
 30
0.0
  0
SPLINE
  5
E9
330
1F
100
AcDbEntity
  8
0
  6
K5LT32773
 62
    30
420
 16744448
100
AcDbSpline
210
0.0
220
0.0
230
1.0
 70
     8
 71
     3
 72
    11
 73
     7
 74
     0
 42
0.0
 43
0.0
 12
1.0
 22
0.0
 32
0.0
 13
1.0
 23
0.0
 33
0.0
 40
0.0
 40
0.0
 40
0.0
 40
0.0
 40
1.0
 40
1.0
 40
1.0
 40
2.0
 40
2.0
 40
2.0
 40
2.0
 10
53.68807320847392
 20
-9.847314786494925
 30
0.0
 10
54.09845128941212
 20
-9.330934184675808
 30
0.0
 10
54.57694837586862
 20
-8.999666970975158
 30
0.0
 10
55.12356446784339
 20
-8.853513145392979
 30
0.0
 10
55.38414043525657
 20
-8.783840526801336
 30
0.0
 10
55.66019644667377
 20
-8.756234925659616
 30
0.0
 10
55.95173250209501
 20
-8.770696341967817
 30
0.0
  0
SPLINE
  5
EA
330
1F
100
AcDbEntity
  8
0
  6
K5LT32773
 62
    30
420
 16744448
100
AcDbSpline
210
0.0
220
0.0
230
1.0
 70
     8
 71
     3
 72
    20
 73
    16
 74
     0
 42
0.0
 43
0.0
 12
1.0
 22
0.0
 32
0.0
 13
1.0
 23
0.0
 33
0.0
 40
0.0
 40
0.0
 40
0.0
 40
0.0
 40
1.0
 40
1.0
 40
1.0
 40
2.0
 40
2.0
 40
2.0
 40
3.0
 40
3.0
 40
3.0
 40
4.0
 40
4.0
 40
4.0
 40
5.0
 40
5.0
 40
5.0
 40
5.0
 10
55.95173250209501
 20
-8.770696341967817
 30
0.0
 10
55.1102441997775
 20
-8.2483478332572
 30
0.0
 10
54.5581321769431
 20
-7.613419006997622
 30
0.0
 10
54.29539643359178
 20
-6.865909863189089
 30
0.0
 10
54.07694546885356
 20
-6.244395289143261
 30
0.0
 10
53.98653407987
 20
-5.313870078076384
 30
0.0
 10
54.24018523130833
 20
-4.767884176418316
 30
0.0
 10
54.57041747322481
 20
-4.057056934606371
 30
0.0
 10
55.85348761236509
 20
-3.310353804852034
 30
0.0
 10
56.61426692949631
 20
-3.415209720474001
 30
0.0
 10
57.20310271806537
 20
-3.496367178847363
 30
0.0
 10
58.024192457507
 20
-4.112076255112851
 30
0.0
 10
58.325814200283
 20
-4.657461771851433
 30
0.0
 10
58.69139776037408
 20
-5.318501579513699
 30
0.0
 10
58.66195215615257
 20
-6.172434939784137
 30
0.0
 10
58.23747738761847
 20
-7.219261852662745
 30
0.0
  0
SPLINE
  5
EB
330
1F
100
AcDbEntity
  8
0
  6
K5LT32773
 62
    30
420
 16744448
100
AcDbSpline
210
0.0
220
0.0
230
1.0
 70
     8
 71
     3
 72
    26
 73
    22
 74
     0
 42
0.0
 43
0.0
 12
1.0
 22
0.0
 32
0.0
 13
1.0
 23
0.0
 33
0.0
 40
0.0
 40
0.0
 40
0.0
 40
0.0
 40
1.0
 40
1.0
 40
1.0
 40
2.0
 40
2.0
 40
2.0
 40
3.0
 40
3.0
 40
3.0
 40
4.0
 40
4.0
 40
4.0
 40
5.0
 40
5.0
 40
5.0
 40
6.0
 40
6.0
 40
6.0
 40
7.0
 40
7.0
 40
7.0
 40
7.0
 10
21.27403609855552
 20
-1.069958590391018
 30
0.0
 10
17.11168784720517
 20
-3.759272567033272
 30
0.0
 10
14.21619444637974
 20
-6.995303234278945
 30
0.0
 10
12.58755589607924
 20
-10.77805059212804
 30
0.0
 10
10.96720240563521
 20
-14.54155470642505
 30
0.0
 10
10.50327885485062
 20
-19.7520120153819
 30
0.0
 10
11.48849056678714
 20
-23.6920682113102
 30
0.0
 10
12.57930760726925
 20
-28.05446097106319
 30
0.0
 10
16.21618378997362
 20
-32.55322717440683
 30
0.0
 10
19.73148053647788
 20
-35.43832891811951
 30
0.0
 10
24.41419112738233
 20
-39.2815596509318
 30
0.0
 10
31.68248092924627
 20
-40.1419218057728
 30
0.0
 10
37.86605846979751
 20
-41.48318822922605
 30
0.0
 10
45.2473688651784
 20
-43.08425229440284
 30
0.0
 10
53.18995086625318
 20
-41.80310688101374
 30
0.0
 10
60.60297246952781
 20
-43.40655255548722
 30
0.0
 10
63.1520798906072
 20
-43.95792762045297
 30
0.0
 10
66.27708875497329
 20
-43.87228584862331
 30
0.0
 10
68.19142615441952
 20
-45.40205016165379
 30
0.0
 10
69.61258941706944
 20
-46.53771456586002
 30
0.0
 10
70.69472902482525
 20
-48.14988173659827
 30
0.0
 10
71.43784497768696
 20
-50.23855167386855
 30
0.0
  0
SPLINE
  5
EC
330
1F
100
AcDbEntity
  8
0
  6
K5LT32773
 62
    30
420
 16744448
100
AcDbSpline
210
0.0
220
0.0
230
1.0
 70
     8
 71
     3
 72
    20
 73
    16
 74
     0
 42
0.0
 43
0.0
 12
1.0
 22
0.0
 32
0.0
 13
1.0
 23
0.0
 33
0.0
 40
0.0
 40
0.0
 40
0.0
 40
0.0
 40
1.0
 40
1.0
 40
1.0
 40
2.0
 40
2.0
 40
2.0
 40
3.0
 40
3.0
 40
3.0
 40
4.0
 40
4.0
 40
4.0
 40
5.0
 40
5.0
 40
5.0
 40
5.0
 10
71.43784497768696
 20
-50.23855167386855
 30
0.0
 10
70.74863841598486
 20
-49.15908193275676
 30
0.0
 10
70.02353098156787
 20
-48.54255660145699
 30
0.0
 10
69.26252267443598
 20
-48.38897567996926
 30
0.0
 10
68.19247110104621
 20
-48.17302599171951
 30
0.0
 10
66.39381206171197
 20
-49.50525846256055
 30
0.0
 10
65.83942813286262
 20
-50.48700136674004
 30
0.0
 10
65.1595403679873
 20
-51.6909954835792
 30
0.0
 10
65.63953909084131
 20
-54.15146260454232
 30
0.0
 10
66.44675135798047
 20
-55.3731927688246
 30
0.0
 10
67.28150625974266
 20
-56.63660920187731
 30
0.0
 10
69.30015272491802
 20
-57.37515722861646
 30
0.0
 10
70.8912531417975
 20
-57.85769687157946
 30
0.0
 10
72.29827972610599
 20
-58.28441167752694
 30
0.0
 10
73.79101389914177
 20
-58.44084341733002
 30
0.0
 10
75.36945566090488
 20
-58.32699209098872
 30
0.0
  0
SPLINE
  5
ED
330
1F
100
AcDbEntity
  8
0
  6
K5LT32773
 62
    30
420
 16744448
100
AcDbSpline
210
0.0
220
0.0
230
1.0
 70
     8
 71
     3
 72
    14
 73
    10
 74
     0
 42
0.0
 43
0.0
 12
1.0
 22
0.0
 32
0.0
 13
1.0
 23
0.0
 33
0.0
 40
0.0
 40
0.0
 40
0.0
 40
0.0
 40
1.0
 40
1.0
 40
1.0
 40
2.0
 40
2.0
 40
2.0
 40
3.0
 40
3.0
 40
3.0
 40
3.0
 10
75.36945566090488
 20
-46.64982324243227
 30
0.0
 10
74.76828507894187
 20
-44.62240120250775
 30
0.0
 10
73.9380855483092
 20
-42.7341780093828
 30
0.0
 10
72.87885706900686
 20
-40.98515366305745
 30
0.0
 10
71.7940236611045
 20
-39.19384982332494
 30
0.0
 10
70.29922117084625
 20
-37.63352010955973
 30
0.0
 10
68.90365034663856
 20
-36.04927198278348
 30
0.0
 10
68.04684533372374
 20
-35.07662930985182
 30
0.0
 10
67.16346606208634
 20
-34.12699659284162
 30
0.0
 10
66.25351253172636
 20
-33.20037383175286
 30
0.0
  0
SPLINE
  5
EE
330
1F
100
AcDbEntity
  8
0
  6
K5LT32773
 62
    30
420
 16744448
100
AcDbSpline
210
0.0
220
0.0
230
1.0
 70
     8
 71
     3
 72
    14
 73
    10
 74
     0
 42
0.0
 43
0.0
 12
1.0
 22
0.0
 32
0.0
 13
1.0
 23
0.0
 33
0.0
 40
0.0
 40
0.0
 40
0.0
 40
0.0
 40
1.0
 40
1.0
 40
1.0
 40
2.0
 40
2.0
 40
2.0
 40
3.0
 40
3.0
 40
3.0
 40
3.0
 10
66.25351253172636
 20
-33.20037383175286
 30
0.0
 10
67.54886987369498
 20
-34.17952980024286
 30
0.0
 10
68.92914998562841
 20
-34.93040218113465
 30
0.0
 10
70.39435286752666
 20
-35.45299097442823
 30
0.0
 10
71.60612472112952
 20
-35.88518940820487
 30
0.0
 10
72.93612241564094
 20
-36.43689787485791
 30
0.0
 10
74.20392597646295
 20
-36.2811590415883
 30
0.0
 10
74.59262896240278
 20
-36.23341020147664
 30
0.0
 10
74.98113885721676
 20
-36.14507227431289
 30
0.0
 10
75.36945566090488
 20
-36.01614526009708
 30
0.0
  0
SPLINE
  5
EF
330
1F
100
AcDbEntity
  8
0
  6
K5LT32773
 62
    30
420
 16744448
100
AcDbSpline
210
0.0
220
0.0
230
1.0
 70
     8
 71
     3
 72
    14
 73
    10
 74
     0
 42
0.0
 43
0.0
 12
1.0
 22
0.0
 32
0.0
 13
1.0
 23
0.0
 33
0.0
 40
0.0
 40
0.0
 40
0.0
 40
0.0
 40
1.0
 40
1.0
 40
1.0
 40
2.0
 40
2.0
 40
2.0
 40
3.0
 40
3.0
 40
3.0
 40
3.0
 10
66.47877534697876
 20
-38.4807744989378
 30
0.0
 10
63.82258038266157
 20
-35.78949245360185
 30
0.0
 10
60.89682800248062
 20
-33.57927734031296
 30
0.0
 10
57.70151820643589
 20
-31.85012915907116
 30
0.0
 10
55.12582617407534
 20
-30.45628834942313
 30
0.0
 10
52.23749259764903
 20
-29.58186009612146
 30
0.0
 10
49.44898839494719
 20
-28.60636021582705
 30
0.0
 10
47.48015920964448
 20
-27.9176064987905
 30
0.0
 10
45.49255569049981
 20
-27.2815733726642
 30
0.0
 10
43.48617783751317
 20
-26.69826083744816
 30
0.0
  0
SPLINE
  5
F0
330
1F
100
AcDbEntity
  8
0
  6
K5LT32773
 62
    30
420
 16744448
100
AcDbSpline
210
0.0
220
0.0
230
1.0
 70
     8
 71
     3
 72
    14
 73
    10
 74
     0
 42
0.0
 43
0.0
 12
1.0
 22
0.0
 32
0.0
 13
1.0
 23
0.0
 33
0.0
 40
0.0
 40
0.0
 40
0.0
 40
0.0
 40
1.0
 40
1.0
 40
1.0
 40
2.0
 40
2.0
 40
2.0
 40
3.0
 40
3.0
 40
3.0
 40
3.0
 10
43.48617783751317
 20
-26.69826083744816
 30
0.0
 10
44.95210281664458
 20
-28.22537429704613
 30
0.0
 10
46.54218563196032
 20
-29.52924220560504
 30
0.0
 10
48.25642628346039
 20
-30.60986456312488
 30
0.0
 10
51.4632303192749
 20
-32.63136844838957
 30
0.0
 10
55.7111434998727
 20
-32.70766588362879
 30
0.0
 10
59.18029522467953
 20
-34.33065835096372
 30
0.0
 10
61.70423664473051
 20
-35.5114478458266
 30
0.0
 10
64.13706335216358
 20
-36.89481989515129
 30
0.0
 10
66.47877534697876
 20
-38.4807744989378
 30
0.0
  0
SPLINE
  5
F1
330
1F
100
AcDbEntity
  8
0
  6
K5LT32773
 62
    30
420
 16744448
100
AcDbSpline
210
0.0
220
0.0
230
1.0
 70
     8
 71
     3
 72
    17
 73
    13
 74
     0
 42
0.0
 43
0.0
 12
1.0
 22
0.0
 32
0.0
 13
1.0
 23
0.0
 33
0.0
 40
0.0
 40
0.0
 40
0.0
 40
0.0
 40
1.0
 40
1.0
 40
1.0
 40
2.0
 40
2.0
 40
2.0
 40
3.0
 40
3.0
 40
3.0
 40
4.0
 40
4.0
 40
4.0
 40
4.0
 10
65.66783311116774
 20
-40.1980639394788
 30
0.0
 10
61.50218155606361
 20
-38.86865665075376
 30
0.0
 10
57.36796623624269
 20
-37.45348294512275
 30
0.0
 10
53.26518715170498
 20
-35.95254282258577
 30
0.0
 10
48.92081522686588
 20
-34.36321958707723
 30
0.0
 10
44.84793275706822
 20
-31.76045856769254
 30
0.0
 10
40.337813863188
 20
-30.89607946988172
 30
0.0
 10
38.31128630605571
 20
-30.5076888081855
 30
0.0
 10
36.18658041166142
 20
-30.08918242770306
 30
0.0
 10
34.13649088345662
 20
-30.22824468744911
 30
0.0
 10
32.56825129033492
 20
-30.33462196446183
 30
0.0
 10
31.00997013132549
 20
-30.65263852752498
 30
0.0
 10
29.46164740642834
 20
-31.18229437663855
 30
0.0
  0
SPLINE
  5
F2
330
1F
100
AcDbEntity
  8
0
  6
K5LT32773
 62
    30
420
 16744448
100
AcDbSpline
210
0.0
220
0.0
230
1.0
 70
     8
 71
     3
 72
    11
 73
     7
 74
     0
 42
0.0
 43
0.0
 12
1.0
 22
0.0
 32
0.0
 13
1.0
 23
0.0
 33
0.0
 40
0.0
 40
0.0
 40
0.0
 40
0.0
 40
1.0
 40
1.0
 40
1.0
 40
2.0
 40
2.0
 40
2.0
 40
2.0
 10
29.46164740642834
 20
-31.18229437663855
 30
0.0
 10
30.97140941024749
 20
-29.29892877801634
 30
0.0
 10
32.67633090149117
 20
-28.09929914755804
 30
0.0
 10
34.57641188015936
 20
-27.58340548526363
 30
0.0
 10
36.01325098206507
 20
-27.19328727728626
 30
0.0
 10
37.56168944928942
 20
-27.1941544172395
 30
0.0
 10
39.22172728183246
 20
-27.58600690512335
 30
0.0
  0
SPLINE
  5
F3
330
1F
100
AcDbEntity
  8
0
  6
K5LT32773
 62
    30
420
 16744448
100
AcDbSpline
210
0.0
220
0.0
230
1.0
 70
     8
 71
     3
 72
    14
 73
    10
 74
     0
 42
0.0
 43
0.0
 12
1.0
 22
0.0
 32
0.0
 13
1.0
 23
0.0
 33
0.0
 40
0.0
 40
0.0
 40
0.0
 40
0.0
 40
1.0
 40
1.0
 40
1.0
 40
2.0
 40
2.0
 40
2.0
 40
3.0
 40
3.0
 40
3.0
 40
3.0
 10
39.22172730803461
 20
-27.58600691130837
 30
0.0
 10
36.34654536032436
 20
-26.66332189376127
 30
0.0
 10
34.43923406952358
 20
-25.21776162532965
 30
0.0
 10
33.49979343563226
 20
-23.24932610601348
 30
0.0
 10
32.62637457316574
 20
-21.41922780060135
 30
0.0
 10
32.56165476808139
 20
-18.36160739513877
 30
0.0
 10
33.38937103106537
 20
-16.40313702286675
 30
0.0
 10
34.05810587936318
 20
-14.82083467377973
 30
0.0
 10
35.29115606369337
 20
-13.44975648374094
 30
0.0
 10
37.08852158405595
 20
-12.28990245275037
 30
0.0
  0
SPLINE
  5
F4
330
1F
100
AcDbEntity
  8
0
  6
K5LT32773
 62
    30
420
 16744448
100
AcDbSpline
210
0.0
220
0.0
230
1.0
 70
     8
 71
     3
 72
    20
 73
    16
 74
     0
 42
0.0
 43
0.0
 12
1.0
 22
0.0
 32
0.0
 13
1.0
 23
0.0
 33
0.0
 40
0.0
 40
0.0
 40
0.0
 40
0.0
 40
1.0
 40
1.0
 40
1.0
 40
2.0
 40
2.0
 40
2.0
 40
3.0
 40
3.0
 40
3.0
 40
4.0
 40
4.0
 40
4.0
 40
5.0
 40
5.0
 40
5.0
 40
5.0
 10
37.08852158405595
 20
-12.28990245275037
 30
0.0
 10
35.4155911325502
 20
-12.43982460852526
 30
0.0
 10
34.20605992426277
 20
-12.13906848219237
 30
0.0
 10
33.45992795919366
 20
-11.3876340737517
 30
0.0
 10
32.68843331599349
 20
-10.61065674538515
 30
0.0
 10
32.16846870640716
 20
-8.63506111914891
 30
0.0
 10
32.63175989203361
 20
-7.611187687501818
 30
0.0
 10
32.93803907676425
 20
-6.934310747811695
 30
0.0
 10
33.76378115312092
 20
-6.086808729012072
 30
0.0
 10
34.51998308515854
 20
-5.888598107808891
 30
0.0
 10
35.07102177044192
 20
-5.744163512379202
 30
0.0
 10
35.83716514671129
 20
-5.821667967063849
 30
0.0
 10
36.37507955559708
 20
-6.054231721240903
 30
0.0
 10
36.97057814622615
 20
-6.311691617380708
 30
0.0
 10
37.46747898652219
 20
-6.786507975885809
 30
0.0
 10
37.8657820764852
 20
-7.478680796756208
 30
0.0
  0
SPLINE
  5
F5
330
1F
100
AcDbEntity
  8
0
  6
K5LT32773
 62
    30
420
 16744448
100
AcDbSpline
210
0.0
220
0.0
230
1.0
 70
     8
 71
     3
 72
    32
 73
    28
 74
     0
 42
0.0
 43
0.0
 12
1.0
 22
0.0
 32
0.0
 13
1.0
 23
0.0
 33
0.0
 40
0.0
 40
0.0
 40
0.0
 40
0.0
 40
1.0
 40
1.0
 40
1.0
 40
2.0
 40
2.0
 40
2.0
 40
3.0
 40
3.0
 40
3.0
 40
4.0
 40
4.0
 40
4.0
 40
5.0
 40
5.0
 40
5.0
 40
6.0
 40
6.0
 40
6.0
 40
7.0
 40
7.0
 40
7.0
 40
8.0
 40
8.0
 40
8.0
 40
9.0
 40
9.0
 40
9.0
 40
9.0
 10
37.8657820764852
 20
-7.478680796756208
 30
0.0
 10
37.58521716176348
 20
-6.311965930352829
 30
0.0
 10
37.12144304415385
 20
-5.362333213342624
 30
0.0
 10
36.4744597236563
 20
-4.629782645725596
 30
0.0
 10
35.17816434305998
 20
-3.16204478174962
 30
0.0
 10
32.32303864473231
 20
-2.784543278831227
 30
0.0
 10
30.37914274935824
 20
-2.840939620659864
 30
0.0
 10
27.23394044928313
 20
-2.932188284982557
 30
0.0
 10
23.73295823590343
 20
-5.751419885477675
 30
0.0
 10
21.63368796014799
 20
-8.240595418543462
 30
0.0
 10
19.5454922436216
 20
-10.71663947340428
 30
0.0
 10
17.96243543238757
 20
-14.52248771244336
 30
0.0
 10
17.79098812852531
 20
-17.71483810685456
 30
0.0
 10
17.5970499134232
 20
-21.32596947798413
 30
0.0
 10
19.33537099467483
 20
-25.76811795007804
 30
0.0
 10
21.46805434671598
 20
-28.67978331605378
 30
0.0
 10
24.31399921814509
 20
-32.5652354661283
 30
0.0
 10
30.06076223448618
 20
-34.74509885956833
 30
0.0
 10
34.85125031202257
 20
-36.36518297929914
 30
0.0
 10
39.13699241474875
 20
-37.81456822136808
 30
0.0
 10
43.92493066067399
 20
-37.9983151863448
 30
0.0
 10
48.49946005882038
 20
-38.4521665085425
 30
0.0
 10
52.26987951515687
 20
-38.82623992824587
 30
0.0
 10
56.1155318850796
 20
-38.53842552075646
 30
0.0
 10
59.86192594025641
 20
-39.08157423958414
 30
0.0
 10
61.80832057283114
 20
-39.36376071955552
 30
0.0
 10
63.74362296313492
 20
-39.73592395285374
 30
0.0
 10
65.66783311116774
 20
-40.1980639394788
 30
0.0
  0
LINE
  5
F6
330
1F
100
AcDbEntity
  8
0
  6
K5LT32773
 62
    30
420
 16744448
100
AcDbLine
 10
73.36945566090488
 20
-22.84205613964681
 30
0.0
 11
73.36945566090488
 21
-17.33218420018138
 31
0.0
  0
LINE
  5
F7
330
1F
100
AcDbEntity
  8
0
  6
K5LT32773
 62
    30
420
 16744448
100
AcDbLine
 10
77.36945566090488
 20
-17.33218420018138
 30
0.0
 11
77.36945566090488
 21
-22.84205613964681
 31
0.0
  0
LINE
  5
F8
330
1F
100
AcDbEntity
  8
0
  6
K5LT32773
 62
    30
420
 16744448
100
AcDbLine
 10
73.36945566090488
 20
46.96710579019859
 30
0.0
 11
73.36945566090488
 21
52.47697772966401
 31
0.0
  0
LINE
  5
F9
330
1F
100
AcDbEntity
  8
0
  6
K5LT32773
 62
    30
420
 16744448
100
AcDbLine
 10
77.36945566090486
 20
52.47697772966401
 30
0.0
 11
77.36945566090488
 21
46.96710579019859
 31
0.0
  0
SPLINE
  5
FA
330
1F
100
AcDbEntity
  8
0
  6
K5LT32773
 62
    30
420
 16744448
100
AcDbSpline
210
0.0
220
0.0
230
1.0
 70
     8
 71
     3
 72
    17
 73
    13
 74
     0
 42
0.0
 43
0.0
 12
1.0
 22
0.0
 32
0.0
 13
1.0
 23
0.0
 33
0.0
 40
0.0
 40
0.0
 40
0.0
 40
0.0
 40
1.0
 40
1.0
 40
1.0
 40
2.0
 40
2.0
 40
2.0
 40
3.0
 40
3.0
 40
3.0
 40
4.0
 40
4.0
 40
4.0
 40
4.0
 10
75.36945566090486
 20
124.0892538046008
 30
0.0
 10
85.79231096846793
 20
124.1868428454078
 30
0.0
 10
95.09278955212821
 20
122.1453051040579
 30
0.0
 10
103.2708914118857
 20
117.9646405805511
 30
0.0
 10
112.1102933745415
 20
113.4459179199622
 30
0.0
 10
121.5582703594086
 20
105.8889731891378
 30
0.0
 10
125.8554026755691
 20
96.91128262288015
 30
0.0
 10
127.919108246974
 20
92.59973048140711
 30
0.0
 10
130.4792054594459
 20
87.1678140271963
 30
0.0
 10
129.8108820494346
 20
82.62051843343073
 30
0.0
 10
129.2577736598184
 20
78.85714982281476
 30
0.0
 10
127.3438320273029
 20
75.24192673917429
 30
0.0
 10
124.0690571518879
 20
71.77484918250933
 30
0.0
  0
SPLINE
  5
FB
330
1F
100
AcDbEntity
  8
0
  6
K5LT32773
 62
    30
420
 16744448
100
AcDbSpline
210
0.0
220
0.0
230
1.0
 70
     8
 71
     3
 72
    14
 73
    10
 74
     0
 42
0.0
 43
0.0
 12
1.0
 22
0.0
 32
0.0
 13
1.0
 23
0.0
 33
0.0
 40
0.0
 40
0.0
 40
0.0
 40
0.0
 40
1.0
 40
1.0
 40
1.0
 40
2.0
 40
2.0
 40
2.0
 40
3.0
 40
3.0
 40
3.0
 40
3.0
 10
75.36945566090486
 20
116.9296962678927
 30
0.0
 10
78.74871667727622
 20
117.1551179284821
 30
0.0
 10
82.07758218420565
 20
117.0320507085518
 30
0.0
 10
85.35605218169316
 20
116.5604946081018
 30
0.0
 10
88.6814900316226
 20
116.0821829242971
 30
0.0
 10
92.05524474950805
 20
115.3021143485068
 30
0.0
 10
95.17681633213066
 20
114.0499233215238
 30
0.0
 10
96.84470234018666
 20
113.3808654966305
 30
0.0
 10
98.46918964326652
 20
112.5932352890767
 30
0.0
 10
100.0502782413703
 20
111.6870326988622
 30
0.0
  0
SPLINE
  5
FC
330
1F
100
AcDbEntity
  8
0
  6
K5LT32773
 62
    30
420
 16744448
100
AcDbSpline
210
0.0
220
0.0
230
1.0
 70
     8
 71
     3
 72
    17
 73
    13
 74
     0
 42
0.0
 43
0.0
 12
1.0
 22
0.0
 32
0.0
 13
1.0
 23
0.0
 33
0.0
 40
0.0
 40
0.0
 40
0.0
 40
0.0
 40
1.0
 40
1.0
 40
1.0
 40
2.0
 40
2.0
 40
2.0
 40
3.0
 40
3.0
 40
3.0
 40
4.0
 40
4.0
 40
4.0
 40
4.0
 10
100.0502782413703
 20
111.6870326988622
 30
0.0
 10
96.43008891666621
 20
111.9669546885194
 30
0.0
 10
93.05804709057615
 20
111.5485261407564
 30
0.0
 10
89.93415276310012
 20
110.4317470555732
 30
0.0
 10
86.86390960626775
 20
109.3341480382762
 30
0.0
 10
83.70447385340171
 20
107.470881320069
 30
0.0
 10
81.4425145879098
 20
105.1152431545844
 30
0.0
 10
79.78256790783355
 20
103.3865498876849
 30
0.0
 10
79.49061775483891
 20
100.0402436928346
 30
0.0
 10
77.38129633021008
 20
98.9864956020558
 30
0.0
 10
76.77343212250385
 20
98.6828264974593
 30
0.0
 10
76.10281856606878
 20
98.46130550158476
 30
0.0
 10
75.36945566090486
 20
98.3219326144322
 30
0.0
  0
SPLINE
  5
FD
330
1F
100
AcDbEntity
  8
0
  6
K5LT32773
 62
    30
420
 16744448
100
AcDbSpline
210
0.0
220
0.0
230
1.0
 70
     8
 71
     3
 72
    32
 73
    28
 74
     0
 42
0.0
 43
0.0
 12
1.0
 22
0.0
 32
0.0
 13
1.0
 23
0.0
 33
0.0
 40
0.0
 40
0.0
 40
0.0
 40
0.0
 40
1.0
 40
1.0
 40
1.0
 40
2.0
 40
2.0
 40
2.0
 40
3.0
 40
3.0
 40
3.0
 40
4.0
 40
4.0
 40
4.0
 40
5.0
 40
5.0
 40
5.0
 40
6.0
 40
6.0
 40
6.0
 40
7.0
 40
7.0
 40
7.0
 40
8.0
 40
8.0
 40
8.0
 40
9.0
 40
9.0
 40
9.0
 40
9.0
 10
86.38981682910763
 20
105.1152431545845
 30
0.0
 10
88.93262397028826
 20
106.3687095000617
 30
0.0
 10
91.51703558882446
 20
107.2055665955877
 30
0.0
 10
94.14305168471617
 20
107.6258144411625
 30
0.0
 10
98.74127000250685
 20
108.3616786822679
 30
0.0
 10
104.1165852539477
 20
107.6876607625982
 30
0.0
 10
108.3203954206861
 20
106.0013271380826
 30
0.0
 10
113.924612633134
 20
103.7532284967082
 30
0.0
 10
119.0945890563518
 20
98.45176420936113
 30
0.0
 10
122.3500584927397
 20
93.15310937735985
 30
0.0
 10
123.9910308172096
 20
90.48223621877773
 30
0.0
 10
125.9831652571928
 20
87.41972349276212
 30
0.0
 10
126.1897557545648
 20
84.36610987433681
 30
0.0
 10
126.340152120917
 20
82.1431015641934
 30
0.0
 10
126.3170064858409
 20
79.08986710486587
 30
0.0
 10
124.9344701112758
 20
77.4989590022264
 30
0.0
 10
123.9856203794606
 20
76.40710148997324
 30
0.0
 10
122.129959397715
 20
75.09361358481972
 30
0.0
 10
120.7255711896598
 20
75.20990871152291
 30
0.0
 10
119.6999164213985
 20
75.29484153176773
 30
0.0
 10
118.2445961464556
 20
75.97294936776382
 30
0.0
 10
117.6463316898645
 20
76.87170121570453
 30
0.0
 10
117.2609245865012
 20
77.45068487843268
 30
0.0
 10
116.9208848556151
 20
78.33566621396025
 30
0.0
 10
117.0231615738682
 20
79.03795923797733
 30
0.0
 10
117.087692719521
 20
79.48106862003277
 30
0.0
 10
117.2756329132341
 20
79.91629854231589
 30
0.0
 10
117.5869821550077
 20
80.34364900482669
 30
0.0
  0
SPLINE
  5
FE
330
1F
100
AcDbEntity
  8
0
  6
K5LT32773
 62
    30
420
 16744448
100
AcDbSpline
210
0.0
220
0.0
230
1.0
 70
     8
 71
     3
 72
    29
 73
    25
 74
     0
 42
0.0
 43
0.0
 12
1.0
 22
0.0
 32
0.0
 13
1.0
 23
0.0
 33
0.0
 40
0.0
 40
0.0
 40
0.0
 40
0.0
 40
1.0
 40
1.0
 40
1.0
 40
2.0
 40
2.0
 40
2.0
 40
3.0
 40
3.0
 40
3.0
 40
4.0
 40
4.0
 40
4.0
 40
5.0
 40
5.0
 40
5.0
 40
6.0
 40
6.0
 40
6.0
 40
7.0
 40
7.0
 40
7.0
 40
8.0
 40
8.0
 40
8.0
 40
8.0
 10
117.5869821550077
 20
80.34364900482669
 30
0.0
 10
117.6646461945313
 20
79.18115341821111
 30
0.0
 10
118.0108518145292
 20
78.40960946507285
 30
0.0
 10
118.6255990150015
 20
78.02901714541191
 30
0.0
 10
119.1513031989704
 20
77.70355169444528
 30
0.0
 10
120.2005522923197
 20
77.69558131963849
 30
0.0
 10
120.7918570372743
 20
77.91031807569834
 30
0.0
 10
121.7117860128839
 20
78.24439718754957
 30
0.0
 10
122.4366865586427
 20
79.77035011015445
 30
0.0
 10
122.6020178504064
 20
80.75909574882421
 30
0.0
 10
122.8249798115179
 20
82.09249527825766
 30
0.0
 10
121.9959215791514
 20
84.19755458406073
 30
0.0
 10
120.8808813395595
 20
84.97291272365622
 30
0.0
 10
120.1403661980006
 20
85.48783982862918
 30
0.0
 10
118.8732394062214
 20
85.81429677872981
 30
0.0
 10
117.9430793641484
 20
85.68510714193769
 30
0.0
 10
117.0357889148644
 20
85.55909385572218
 30
0.0
 10
115.9507050964505
 20
84.94996834641113
 30
0.0
 10
115.3613745978781
 20
84.26071830537475
 30
0.0
 10
114.6533855464459
 20
83.43269144449609
 30
0.0
 10
114.6001869786168
 20
82.00847914437014
 30
0.0
 10
114.4117820401695
 20
80.84812005110939
 30
0.0
 10
114.2755960477132
 20
80.0093699842386
 30
0.0
 10
114.2063549237136
 20
79.15869331795795
 30
0.0
 10
114.2040586681707
 20
78.29609005226746
 30
0.0
  0
SPLINE
  5
FF
330
1F
100
AcDbEntity
  8
0
  6
K5LT32773
 62
    30
420
 16744448
100
AcDbSpline
210
0.0
220
0.0
230
1.0
 70
     8
 71
     3
 72
    14
 73
    10
 74
     0
 42
0.0
 43
0.0
 12
1.0
 22
0.0
 32
0.0
 13
1.0
 23
0.0
 33
0.0
 40
0.0
 40
0.0
 40
0.0
 40
0.0
 40
1.0
 40
1.0
 40
1.0
 40
2.0
 40
2.0
 40
2.0
 40
3.0
 40
3.0
 40
3.0
 40
3.0
 10
114.2040586681707
 20
78.29609005226746
 30
0.0
 10
113.3216135317933
 20
79.72691654477872
 30
0.0
 10
112.8468172529389
 20
81.17108855962725
 30
0.0
 10
112.7796698316078
 20
82.62860609681306
 30
0.0
 10
112.7061277915154
 20
84.22492671538797
 30
0.0
 10
113.3321112878401
 20
85.98466505438705
 30
0.0
 10
114.0260100636004
 20
87.46559318764136
 30
0.0
 10
114.7400778131379
 20
88.98956621696576
 30
0.0
 10
115.7490199057033
 20
90.37438869695748
 30
0.0
 10
117.0528363412966
 20
91.6200606276166
 30
0.0
  0
SPLINE
  5
100
330
1F
100
AcDbEntity
  8
0
  6
K5LT32773
 62
    30
420
 16744448
100
AcDbSpline
210
0.0
220
0.0
230
1.0
 70
     8
 71
     3
 72
    11
 73
     7
 74
     0
 42
0.0
 43
0.0
 12
1.0
 22
0.0
 32
0.0
 13
1.0
 23
0.0
 33
0.0
 40
0.0
 40
0.0
 40
0.0
 40
0.0
 40
1.0
 40
1.0
 40
1.0
 40
2.0
 40
2.0
 40
2.0
 40
2.0
 10
117.0528363412966
 20
91.6200606276166
 30
0.0
 10
115.6240513944257
 20
91.4950773839968
 30
0.0
 10
114.4073859298615
 20
91.10930540742768
 30
0.0
 10
113.4028399476041
 20
90.4627446979092
 30
0.0
 10
111.6077094210597
 20
89.30733629707868
 30
0.0
 10
110.4899598479235
 20
87.31912687937623
 30
0.0
 10
110.0495912281955
 20
84.49811644480191
 30
0.0
  0
SPLINE
  5
101
330
1F
100
AcDbEntity
  8
0
  6
K5LT32773
 62
    30
420
 16744448
100
AcDbSpline
210
0.0
220
0.0
230
1.0
 70
     8
 71
     3
 72
    20
 73
    16
 74
     0
 42
0.0
 43
0.0
 12
1.0
 22
0.0
 32
0.0
 13
1.0
 23
0.0
 33
0.0
 40
0.0
 40
0.0
 40
0.0
 40
0.0
 40
1.0
 40
1.0
 40
1.0
 40
2.0
 40
2.0
 40
2.0
 40
3.0
 40
3.0
 40
3.0
 40
4.0
 40
4.0
 40
4.0
 40
5.0
 40
5.0
 40
5.0
 40
5.0
 10
110.0495912281955
 20
84.49811644480191
 30
0.0
 10
109.4362999412783
 20
87.43835092995995
 30
0.0
 10
108.7000082455499
 20
90.34722161908824
 30
0.0
 10
107.4975612293536
 20
93.04444946417952
 30
0.0
 10
106.5282241565683
 20
95.21878472284747
 30
0.0
 10
105.453364299852
 20
97.50966883746399
 30
0.0
 10
103.9037488228409
 20
99.27199812688207
 30
0.0
 10
102.2485751880491
 20
101.1543754126924
 30
0.0
 10
100.0154863609395
 20
102.802732296795
 30
0.0
 10
97.73456274541178
 20
103.8460648081151
 30
0.0
 10
95.61399824431729
 20
104.8160463854382
 30
0.0
 10
93.13985796737876
 20
105.4267454843665
 30
0.0
 10
90.79066716716747
 20
105.5078517841052
 30
0.0
 10
89.33695081261772
 20
105.558041642833
 30
0.0
 10
87.8700006999311
 20
105.4271720996594
 30
0.0
 10
86.38981682910763
 20
105.1152431545845
 30
0.0
  0
SPLINE
  5
102
330
1F
100
AcDbEntity
  8
0
  6
K5LT32773
 62
    30
420
 16744448
100
AcDbSpline
210
0.0
220
0.0
230
1.0
 70
     8
 71
     3
 72
    14
 73
    10
 74
     0
 42
0.0
 43
0.0
 12
1.0
 22
0.0
 32
0.0
 13
1.0
 23
0.0
 33
0.0
 40
0.0
 40
0.0
 40
0.0
 40
0.0
 40
1.0
 40
1.0
 40
1.0
 40
2.0
 40
2.0
 40
2.0
 40
3.0
 40
3.0
 40
3.0
 40
3.0
 10
107.2422318468262
 20
80.29472102374011
 30
0.0
 10
107.0218776928367
 20
84.06352904891268
 30
0.0
 10
106.1909841718249
 20
87.57702165204823
 30
0.0
 10
104.7495512837909
 20
90.83519883314676
 30
0.0
 10
103.6253308567949
 20
93.37635726804199
 30
0.0
 10
102.2454766465709
 20
96.05059541828703
 30
0.0
 10
100.2627262703272
 20
97.99275302129115
 30
0.0
 10
99.2312998181063
 20
99.0030631188817
 30
0.0
 10
98.0680488886898
 20
99.89330617710861
 30
0.0
 10
96.7729734820777
 20
100.6634821959719
 30
0.0
  0
SPLINE
  5
103
330
1F
100
AcDbEntity
  8
0
  6
K5LT32773
 62
    30
420
 16744448
100
AcDbSpline
210
0.0
220
0.0
230
1.0
 70
     8
 71
     3
 72
    14
 73
    10
 74
     0
 42
0.0
 43
0.0
 12
1.0
 22
0.0
 32
0.0
 13
1.0
 23
0.0
 33
0.0
 40
0.0
 40
0.0
 40
0.0
 40
0.0
 40
1.0
 40
1.0
 40
1.0
 40
2.0
 40
2.0
 40
2.0
 40
3.0
 40
3.0
 40
3.0
 40
3.0
 10
96.7729734820777
 20
100.6634821959719
 30
0.0
 10
97.69510196034646
 20
98.99973680476161
 30
0.0
 10
98.5378653888013
 20
97.30234004040896
 30
0.0
 10
99.30126376744215
 20
95.57129190291394
 30
0.0
 10
100.544404764696
 20
92.75240078636311
 30
0.0
 10
100.9402413839794
 20
89.52823157898473
 30
0.0
 10
102.3993096100718
 20
86.84690993229019
 30
0.0
 10
103.6833780298889
 20
84.48718446618683
 30
0.0
 10
105.2976854421404
 20
82.30312149667014
 30
0.0
 10
107.2422318468262
 20
80.29472102374011
 30
0.0
  0
SPLINE
  5
104
330
1F
100
AcDbEntity
  8
0
  6
K5LT32773
 62
    30
420
 16744448
100
AcDbSpline
210
0.0
220
0.0
230
1.0
 70
     8
 71
     3
 72
    23
 73
    19
 74
     0
 42
0.0
 43
0.0
 12
1.0
 22
0.0
 32
0.0
 13
1.0
 23
0.0
 33
0.0
 40
0.0
 40
0.0
 40
0.0
 40
0.0
 40
1.0
 40
1.0
 40
1.0
 40
2.0
 40
2.0
 40
2.0
 40
3.0
 40
3.0
 40
3.0
 40
4.0
 40
4.0
 40
4.0
 40
5.0
 40
5.0
 40
5.0
 40
6.0
 40
6.0
 40
6.0
 40
6.0
 10
85.0093951673689
 20
101.6757102628296
 30
0.0
 10
85.64437432127052
 20
102.2329533586135
 30
0.0
 10
86.320959045523
 20
102.6365302116763
 30
0.0
 10
87.03914934012627
 20
102.8864408220182
 30
0.0
 10
88.2403268102606
 20
103.3044177801389
 30
0.0
 10
89.86157106364175
 20
103.3055552215264
 30
0.0
 10
90.99182851865376
 20
102.8508310996891
 30
0.0
 10
92.22301919105172
 20
102.3554996202657
 30
0.0
 10
93.21971231434895
 20
100.9317808705735
 30
0.0
 10
94.01865491662527
 20
99.7883949793885
 30
0.0
 10
95.56427963260481
 20
97.57641443374897
 30
0.0
 10
95.29651627158701
 20
94.35539940239643
 30
0.0
 10
96.29767714568615
 20
91.77620745534628
 30
0.0
 10
97.12846103505393
 20
89.63594091813822
 30
0.0
 10
98.05461843903544
 20
87.47121648634105
 30
0.0
 10
99.28889382132859
 20
85.54450604775792
 30
0.0
 10
100.4368703580703
 20
83.75250856622387
 30
0.0
 10
101.7900398065752
 20
82.09072152420029
 30
0.0
 10
103.3484021668433
 20
80.55914492168719
 30
0.0
  0
SPLINE
  5
105
330
1F
100
AcDbEntity
  8
0
  6
K5LT32773
 62
    30
420
 16744448
100
AcDbSpline
210
0.0
220
0.0
230
1.0
 70
     8
 71
     3
 72
    11
 73
     7
 74
     0
 42
0.0
 43
0.0
 12
1.0
 22
0.0
 32
0.0
 13
1.0
 23
0.0
 33
0.0
 40
0.0
 40
0.0
 40
0.0
 40
0.0
 40
1.0
 40
1.0
 40
1.0
 40
2.0
 40
2.0
 40
2.0
 40
2.0
 10
103.3484021668433
 20
80.55914492168719
 30
0.0
 10
101.1386038738477
 20
81.37571286340949
 30
0.0
 10
99.01389044154617
 20
81.64872073459908
 30
0.0
 10
96.97426186993862
 20
81.37816853525595
 30
0.0
 10
94.5777770778981
 20
81.06028015096649
 30
0.0
 10
92.29875484883719
 20
79.9919884810942
 30
0.0
 10
90.13719518275593
 20
78.17329352563905
 30
0.0
  0
SPLINE
  5
106
330
1F
100
AcDbEntity
  8
0
  6
K5LT32773
 62
    30
420
 16744448
100
AcDbSpline
210
0.0
220
0.0
230
1.0
 70
     8
 71
     3
 72
    11
 73
     7
 74
     0
 42
0.0
 43
0.0
 12
1.0
 22
0.0
 32
0.0
 13
1.0
 23
0.0
 33
0.0
 40
0.0
 40
0.0
 40
0.0
 40
0.0
 40
1.0
 40
1.0
 40
1.0
 40
2.0
 40
2.0
 40
2.0
 40
2.0
 10
90.13719518275593
 20
78.17329352563905
 30
0.0
 10
93.65521973018537
 20
78.88112497226565
 30
0.0
 10
96.96692390678948
 20
78.8099055276075
 30
0.0
 10
100.0723077125683
 20
77.9596351916646
 30
0.0
 10
102.9701848220182
 20
77.16618127502215
 30
0.0
 10
105.6883936264711
 20
75.69431275208699
 30
0.0
 10
108.2269341259268
 20
73.54402962285911
 30
0.0
  0
SPLINE
  5
107
330
1F
100
AcDbEntity
  8
0
  6
K5LT32773
 62
    30
420
 16744448
100
AcDbSpline
210
0.0
220
0.0
230
1.0
 70
     8
 71
     3
 72
    14
 73
    10
 74
     0
 42
0.0
 43
0.0
 12
1.0
 22
0.0
 32
0.0
 13
1.0
 23
0.0
 33
0.0
 40
0.0
 40
0.0
 40
0.0
 40
0.0
 40
1.0
 40
1.0
 40
1.0
 40
2.0
 40
2.0
 40
2.0
 40
3.0
 40
3.0
 40
3.0
 40
3.0
 10
108.2269341259268
 20
73.54402962285911
 30
0.0
 10
106.4372722348495
 20
74.27302263753114
 30
0.0
 10
104.6636534103543
 20
74.60874788416585
 30
0.0
 10
103.0635243882107
 20
74.1850046247825
 30
0.0
 10
102.0447689911399
 20
73.91521967213484
 30
0.0
 10
100.8030357182222
 20
73.4213646787983
 30
0.0
 10
100.1544093226843
 20
72.60053816035634
 30
0.0
 10
99.72552511483565
 20
72.05779192991474
 30
0.0
 10
99.43701994771708
 20
71.38708676631121
 30
0.0
 10
99.28889382132859
 20
70.58842266954576
 30
0.0
  0
SPLINE
  5
108
330
1F
100
AcDbEntity
  8
0
  6
K5LT32773
 62
    30
420
 16744448
100
AcDbSpline
210
0.0
220
0.0
230
1.0
 70
     8
 71
     3
 72
    23
 73
    19
 74
     0
 42
0.0
 43
0.0
 12
1.0
 22
0.0
 32
0.0
 13
1.0
 23
0.0
 33
0.0
 40
0.0
 40
0.0
 40
0.0
 40
0.0
 40
1.0
 40
1.0
 40
1.0
 40
2.0
 40
2.0
 40
2.0
 40
3.0
 40
3.0
 40
3.0
 40
4.0
 40
4.0
 40
4.0
 40
5.0
 40
5.0
 40
5.0
 40
6.0
 40
6.0
 40
6.0
 40
6.0
 10
99.28889382132859
 20
70.58842266954576
 30
0.0
 10
98.3352070125964
 20
71.15051257644227
 30
0.0
 10
97.37352531796722
 20
71.69757288558722
 30
0.0
 10
96.4038487374411
 20
72.22960359698064
 30
0.0
 10
93.80300034738306
 20
73.65660642140507
 30
0.0
 10
89.65271336051983
 20
73.80573330706845
 30
0.0
 10
88.42875562486356
 20
76.18623893965477
 30
0.0
 10
87.7978770387037
 20
77.41325028496595
 30
0.0
 10
87.85988492490205
 20
79.19696702021257
 30
0.0
 10
87.67939898161092
 20
80.71343204862431
 30
0.0
 10
87.40343347819788
 20
83.03212804977981
 30
0.0
 10
87.95058521243608
 20
85.53199797031932
 30
0.0
 10
87.33754563366776
 20
87.72142568145921
 30
0.0
 10
86.65678922444864
 20
90.15269928678657
 30
0.0
 10
84.15788146667474
 20
92.01987872434083
 30
0.0
 10
83.44896380081425
 20
94.47302930333672
 30
0.0
 10
83.03657307356198
 20
95.90007309142389
 30
0.0
 10
82.8229147310975
 20
97.39568148867525
 30
0.0
 10
82.80798877342082
 20
98.95985449509077
 30
0.0
  0
SPLINE
  5
109
330
1F
100
AcDbEntity
  8
0
  6
K5LT32773
 62
    30
420
 16744448
100
AcDbSpline
210
0.0
220
0.0
230
1.0
 70
     8
 71
     3
 72
    20
 73
    16
 74
     0
 42
0.0
 43
0.0
 12
1.0
 22
0.0
 32
0.0
 13
1.0
 23
0.0
 33
0.0
 40
0.0
 40
0.0
 40
0.0
 40
0.0
 40
1.0
 40
1.0
 40
1.0
 40
2.0
 40
2.0
 40
2.0
 40
3.0
 40
3.0
 40
3.0
 40
4.0
 40
4.0
 40
4.0
 40
5.0
 40
5.0
 40
5.0
 40
5.0
 10
85.0093951673689
 20
101.6757102628296
 30
0.0
 10
86.91032622088386
 20
101.7823251102571
 30
0.0
 10
88.21756033540666
 20
101.3766562249127
 30
0.0
 10
88.93109751093733
 20
100.4587036067964
 30
0.0
 10
89.53642270182277
 20
99.67996374174062
 30
0.0
 10
89.87370345984957
 20
97.87729389627411
 30
0.0
 10
89.46524332464844
 20
97.01643058510263
 30
0.0
 10
89.04312450709506
 20
96.12678047810293
 30
0.0
 10
87.38219960809498
 20
95.21779180740765
 30
0.0
 10
86.31971797723862
 20
95.26561930682736
 30
0.0
 10
85.49719871379806
 20
95.30264492539095
 30
0.0
 10
84.41509895856264
 20
95.8699227580154
 30
0.0
 10
83.82703751325349
 20
96.51195953881992
 30
0.0
 10
83.26753913598677
 20
97.12281158476017
 30
0.0
 10
82.92785622270921
 20
97.93877657018379
 30
0.0
 10
82.80798877342082
 20
98.95985449509077
 30
0.0
  0
SPLINE
  5
10A
330
1F
100
AcDbEntity
  8
0
  6
K5LT32773
 62
    30
420
 16744448
100
AcDbSpline
210
0.0
220
0.0
230
1.0
 70
     8
 71
     3
 72
    17
 73
    13
 74
     0
 42
0.0
 43
0.0
 12
1.0
 22
0.0
 32
0.0
 13
1.0
 23
0.0
 33
0.0
 40
0.0
 40
0.0
 40
0.0
 40
0.0
 40
1.0
 40
1.0
 40
1.0
 40
2.0
 40
2.0
 40
2.0
 40
3.0
 40
3.0
 40
3.0
 40
4.0
 40
4.0
 40
4.0
 40
4.0
 10
124.0690571518879
 20
71.77484918250933
 30
0.0
 10
132.3407597066463
 20
68.20312100764548
 30
0.0
 10
138.6406727243372
 20
63.309037516399
 30
0.0
 10
142.9687962049607
 20
57.09259870876995
 30
0.0
 10
147.7788427703097
 20
50.18397877932402
 30
0.0
 10
150.6506097849543
 20
39.86288809766303
 30
0.0
 10
150.0929119984594
 20
31.46704786946868
 30
0.0
 10
149.5882023675867
 20
23.86891582546178
 30
0.0
 10
146.2285695917009
 20
15.1219265825879
 30
0.0
 10
141.3738449079088
 20
9.031399624271309
 30
0.0
 10
138.2242560735375
 20
5.080062122601285
 30
0.0
 10
134.254599511986
 20
1.712942717713843
 30
0.0
 10
129.4648752232542
 20
-1.069958590391018
 30
0.0
  0
SPLINE
  5
10B
330
1F
100
AcDbEntity
  8
0
  6
K5LT32773
 62
    30
420
 16744448
100
AcDbSpline
210
0.0
220
0.0
230
1.0
 70
     8
 71
     3
 72
    26
 73
    22
 74
     0
 42
0.0
 43
0.0
 12
1.0
 22
0.0
 32
0.0
 13
1.0
 23
0.0
 33
0.0
 40
0.0
 40
0.0
 40
0.0
 40
0.0
 40
1.0
 40
1.0
 40
1.0
 40
2.0
 40
2.0
 40
2.0
 40
3.0
 40
3.0
 40
3.0
 40
4.0
 40
4.0
 40
4.0
 40
5.0
 40
5.0
 40
5.0
 40
6.0
 40
6.0
 40
6.0
 40
7.0
 40
7.0
 40
7.0
 40
7.0
 10
143.2139489175093
 20
28.24170606444525
 30
0.0
 10
143.2996107384694
 20
36.62682205930366
 30
0.0
 10
141.6751234353895
 20
44.18314936302373
 30
0.0
 10
138.3404870082696
 20
50.91068797560544
 30
0.0
 10
135.2404110554293
 20
57.16500718865449
 30
0.0
 10
130.9194935457239
 20
64.87756225694933
 30
0.0
 10
124.6061852640488
 20
67.52476266619516
 30
0.0
 10
121.9608646616517
 20
68.63395826837696
 30
0.0
 10
118.2358742400299
 20
70.33532654390396
 30
0.0
 10
115.7562883579221
 20
69.32975021059615
 30
0.0
 10
114.0721832465146
 20
68.64677477705538
 30
0.0
 10
112.0036123437797
 20
66.79586229546898
 30
0.0
 10
111.3549265031538
 20
65.05658336130658
 30
0.0
 10
110.7345410069911
 20
63.39318429051022
 30
0.0
 10
110.5053230942139
 20
60.36170592628886
 30
0.0
 10
111.7395115195899
 20
59.20234477777987
 30
0.0
 10
112.3778293270706
 20
58.602727368332
 30
0.0
 10
113.6276382065463
 20
57.96486294273155
 30
0.0
 10
114.5419984946479
 20
58.03909530959
 30
0.0
 10
115.3179102100817
 20
58.10208772500803
 30
0.0
 10
116.0795625740771
 20
58.49775129071996
 30
0.0
 10
116.8269555866343
 20
59.22608600672577
 30
0.0
  0
SPLINE
  5
10C
330
1F
100
AcDbEntity
  8
0
  6
K5LT32773
 62
    30
420
 16744448
100
AcDbSpline
210
0.0
220
0.0
230
1.0
 70
     8
 71
     3
 72
    26
 73
    22
 74
     0
 42
0.0
 43
0.0
 12
1.0
 22
0.0
 32
0.0
 13
1.0
 23
0.0
 33
0.0
 40
0.0
 40
0.0
 40
0.0
 40
0.0
 40
1.0
 40
1.0
 40
1.0
 40
2.0
 40
2.0
 40
2.0
 40
3.0
 40
3.0
 40
3.0
 40
4.0
 40
4.0
 40
4.0
 40
5.0
 40
5.0
 40
5.0
 40
6.0
 40
6.0
 40
6.0
 40
7.0
 40
7.0
 40
7.0
 40
7.0
 10
116.8269555866343
 20
59.22608600672577
 30
0.0
 10
116.042720280515
 20
58.76940416661363
 30
0.0
 10
115.3611503061953
 20
58.61153428626064
 30
0.0
 10
114.7822456636753
 20
58.75247636566681
 30
0.0
 10
114.0024846680481
 20
58.94231961115391
 30
0.0
 10
113.2316787738325
 20
60.13345869460106
 30
0.0
 10
113.0017596179717
 20
60.948409155368
 30
0.0
 10
112.7190216780992
 20
61.95057625846417
 30
0.0
 10
113.1589047297297
 20
63.59418668049273
 30
0.0
 10
113.8029783385383
 20
64.33133264220496
 30
0.0
 10
114.6439614148249
 20
65.2938426256519
 30
0.0
 10
117.0652636750935
 20
65.6627259819087
 30
0.0
 10
118.2541934527975
 20
65.22157566505679
 30
0.0
 10
119.5372078478058
 20
64.74551541532827
 30
0.0
 10
120.8099217712266
 20
62.69020506053689
 30
0.0
 10
121.073296358495
 20
61.21548206222355
 30
0.0
 10
121.306416277397
 20
59.9101651395262
 30
0.0
 10
120.945429092731
 20
58.07959125783007
 30
0.0
 10
120.1830533356431
 20
56.97199031996315
 30
0.0
 10
119.4945381648342
 20
55.97169611879853
 30
0.0
 10
118.426246537412
 20
55.22171326545458
 30
0.0
 10
116.9781784533765
 20
54.7220417599313
 30
0.0
  0
SPLINE
  5
10D
330
1F
100
AcDbEntity
  8
0
  6
K5LT32773
 62
    30
420
 16744448
100
AcDbSpline
210
0.0
220
0.0
230
1.0
 70
     8
 71
     3
 72
    17
 73
    13
 74
     0
 42
0.0
 43
0.0
 12
1.0
 22
0.0
 32
0.0
 13
1.0
 23
0.0
 33
0.0
 40
0.0
 40
0.0
 40
0.0
 40
0.0
 40
1.0
 40
1.0
 40
1.0
 40
2.0
 40
2.0
 40
2.0
 40
3.0
 40
3.0
 40
3.0
 40
4.0
 40
4.0
 40
4.0
 40
4.0
 10
112.5566381065457
 20
54.7220417599313
 30
0.0
 10
110.947071029369
 20
55.18796866395463
 30
0.0
 10
109.7205139756621
 20
55.93795151729858
 30
0.0
 10
108.8769669454249
 20
56.97199031996315
 30
0.0
 10
107.8155659136117
 20
58.27307942672507
 30
0.0
 10
107.5891016646472
 20
60.45042638911337
 30
0.0
 10
107.5119276437187
 20
62.22442415478896
 30
0.0
 10
107.4476501580224
 20
63.701969507961
 30
0.0
 10
107.5578502463113
 20
65.33384883040864
 30
0.0
 10
108.1054229922866
 20
66.70531403647651
 30
0.0
 10
108.4062609168955
 20
67.45880067236072
 30
0.0
 10
108.8126658029484
 20
68.17541269735423
 30
0.0
 10
109.3246376504454
 20
68.85515011145706
 30
0.0
  0
SPLINE
  5
10E
330
1F
100
AcDbEntity
  8
0
  6
K5LT32773
 62
    30
420
 16744448
100
AcDbSpline
210
0.0
220
0.0
230
1.0
 70
     8
 71
     3
 72
    14
 73
    10
 74
     0
 42
0.0
 43
0.0
 12
1.0
 22
0.0
 32
0.0
 13
1.0
 23
0.0
 33
0.0
 40
0.0
 40
0.0
 40
0.0
 40
0.0
 40
1.0
 40
1.0
 40
1.0
 40
2.0
 40
2.0
 40
2.0
 40
3.0
 40
3.0
 40
3.0
 40
3.0
 10
109.3246376504209
 20
68.85515011142786
 30
0.0
 10
108.6905740728788
 20
68.09653867680683
 30
0.0
 10
107.9775299234073
 20
67.51840889982222
 30
0.0
 10
107.1855052020064
 20
67.12076078047403
 30
0.0
 10
105.8924844659552
 20
66.47157995306314
 30
0.0
 10
104.0277432490089
 20
66.17142838990634
 30
0.0
 10
102.6749405528904
 20
66.61628973419133
 30
0.0
 10
101.7893485413032
 20
66.90751154642832
 30
0.0
 10
100.968346642451
 20
67.46144053842502
 30
0.0
 10
100.2119348563337
 20
68.27807671018141
 30
0.0
  0
SPLINE
  5
10F
330
1F
100
AcDbEntity
  8
0
  6
K5LT32773
 62
    30
420
 16744448
100
AcDbSpline
210
0.0
220
0.0
230
1.0
 70
     8
 71
     3
 72
    23
 73
    19
 74
     0
 42
0.0
 43
0.0
 12
1.0
 22
0.0
 32
0.0
 13
1.0
 23
0.0
 33
0.0
 40
0.0
 40
0.0
 40
0.0
 40
0.0
 40
1.0
 40
1.0
 40
1.0
 40
2.0
 40
2.0
 40
2.0
 40
3.0
 40
3.0
 40
3.0
 40
4.0
 40
4.0
 40
4.0
 40
5.0
 40
5.0
 40
5.0
 40
6.0
 40
6.0
 40
6.0
 40
6.0
 10
100.2119348563337
 20
68.27807671018141
 30
0.0
 10
101.2579704366655
 20
66.7332927004912
 30
0.0
 10
101.8263457524763
 20
65.20789317638659
 30
0.0
 10
101.9170608037661
 20
63.70187813786755
 30
0.0
 10
102.0653516600867
 20
61.24001258724136
 30
0.0
 10
99.56236013904163
 20
58.92363120124461
 30
0.0
 10
98.5327125246469
 20
56.47167954156735
 30
0.0
 10
97.7392528700565
 20
54.5821741518001
 30
0.0
 10
96.27291150067745
 20
52.50313521240925
 30
0.0
 10
96.32775834279647
 20
50.72854306791045
 30
0.0
 10
96.41751361944165
 20
47.82447416060322
 30
0.0
 10
101.0869970176927
 20
45.90496758024146
 30
0.0
 10
102.9426208883477
 20
43.13939844200669
 30
0.0
 10
104.7137331021911
 20
40.49978307791532
 30
0.0
 10
106.3699536515842
 20
37.58681352812366
 30
0.0
 10
107.3012512478195
 20
34.57597173575042
 30
0.0
 10
108.3264746811876
 20
31.26147208259635
 30
0.0
 10
108.7196060469439
 20
27.75747512694259
 30
0.0
 10
108.4806453450883
 20
24.06398086878913
 30
0.0
  0
SPLINE
  5
110
330
1F
100
AcDbEntity
  8
0
  6
K5LT32773
 62
    30
420
 16744448
100
AcDbSpline
210
0.0
220
0.0
230
1.0
 70
     8
 71
     3
 72
    26
 73
    22
 74
     0
 42
0.0
 43
0.0
 12
1.0
 22
0.0
 32
0.0
 13
1.0
 23
0.0
 33
0.0
 40
0.0
 40
0.0
 40
0.0
 40
0.0
 40
1.0
 40
1.0
 40
1.0
 40
2.0
 40
2.0
 40
2.0
 40
3.0
 40
3.0
 40
3.0
 40
4.0
 40
4.0
 40
4.0
 40
5.0
 40
5.0
 40
5.0
 40
6.0
 40
6.0
 40
6.0
 40
7.0
 40
7.0
 40
7.0
 40
7.0
 10
108.4806453450883
 20
24.06398086878913
 30
0.0
 10
111.0581859628112
 20
26.78743914218888
 30
0.0
 10
113.2631401446616
 20
29.72737805132277
 30
0.0
 10
115.0955078906396
 20
32.8837975961908
 30
0.0
 10
116.9162639095726
 20
36.02021488863181
 30
0.0
 10
119.2961091917879
 20
39.45341671730174
 30
0.0
 10
119.4541382501113
 20
42.93428642509038
 30
0.0
 10
119.5654504499175
 20
45.38613463910472
 30
0.0
 10
119.5294149625425
 20
49.01861615863058
 30
0.0
 10
117.8607648236439
 20
50.48438093798914
 30
0.0
 10
116.6898535726597
 20
51.51292516750646
 30
0.0
 10
114.2836780310994
 20
52.30948172757873
 30
0.0
 10
112.6676807300295
 20
52.0175771941991
 30
0.0
 10
111.2899165484843
 20
51.76870573243683
 30
0.0
 10
109.37095462609
 20
50.76808334167218
 30
0.0
 10
108.7852321457559
 20
49.51995103488932
 30
0.0
 10
108.3797107793578
 20
48.65581428841598
 30
0.0
 10
108.2013943448811
 20
47.18047258929005
 30
0.0
 10
108.5874003707611
 20
46.32991366309762
 30
0.0
 10
108.993616074522
 20
45.43482299189431
 30
0.0
 10
109.9003450432483
 20
44.77538374191154
 30
0.0
 10
111.30758727694
 20
44.35159591314927
 30
0.0
  0
SPLINE
  5
111
330
1F
100
AcDbEntity
  8
0
  6
K5LT32773
 62
    30
420
 16744448
100
AcDbSpline
210
0.0
220
0.0
230
1.0
 70
     8
 71
     3
 72
    29
 73
    25
 74
     0
 42
0.0
 43
0.0
 12
1.0
 22
0.0
 32
0.0
 13
1.0
 23
0.0
 33
0.0
 40
0.0
 40
0.0
 40
0.0
 40
0.0
 40
1.0
 40
1.0
 40
1.0
 40
2.0
 40
2.0
 40
2.0
 40
3.0
 40
3.0
 40
3.0
 40
4.0
 40
4.0
 40
4.0
 40
5.0
 40
5.0
 40
5.0
 40
6.0
 40
6.0
 40
6.0
 40
7.0
 40
7.0
 40
7.0
 40
8.0
 40
8.0
 40
8.0
 40
8.0
 10
111.30758727694
 20
44.35159591314927
 30
0.0
 10
110.5546899255787
 20
45.36696220089702
 30
0.0
 10
110.2496992724617
 20
46.2407192071242
 30
0.0
 10
110.3926153175889
 20
46.97286693183083
 30
0.0
 10
110.5869093959192
 20
47.96822030343305
 30
0.0
 10
112.4436199774284
 20
49.17214611548041
 30
0.0
 10
113.4590078300089
 20
49.17374542864836
 30
0.0
 10
114.5047771852245
 20
49.17539259499586
 30
0.0
 10
116.1542578735828
 20
47.84482291337105
 30
0.0
 10
116.5748582861775
 20
46.84922207245906
 30
0.0
 10
117.0738783334902
 20
45.66799456088447
 30
0.0
 10
116.3246116393955
 20
43.39794258168413
 30
0.0
 10
115.4620545518316
 20
42.37327816320094
 30
0.0
 10
114.3940542052781
 20
41.10455987218122
 30
0.0
 10
111.6505780408081
 20
40.31878982706673
 30
0.0
 10
109.9969517675993
 20
40.7164370476192
 30
0.0
 10
108.6980116842321
 20
41.02879294216658
 30
0.0
 10
107.1727237797251
 20
42.21209858458609
 30
0.0
 10
106.4112508458179
 20
43.41189498192382
 30
0.0
 10
105.8202017973152
 20
44.34316710922675
 30
0.0
 10
105.4687490503669
 20
45.62047562880363
 30
0.0
 10
105.4220919708437
 20
46.75030618496164
 30
0.0
 10
105.3824328475873
 20
47.71067682417749
 30
0.0
 10
105.5472926600829
 20
48.68334971790208
 30
0.0
 10
105.9166714083308
 20
49.66832486613544
 30
0.0
  0
SPLINE
  5
112
330
1F
100
AcDbEntity
  8
0
  6
K5LT32773
 62
    30
420
 16744448
100
AcDbSpline
210
0.0
220
0.0
230
1.0
 70
     8
 71
     3
 72
    14
 73
    10
 74
     0
 42
0.0
 43
0.0
 12
1.0
 22
0.0
 32
0.0
 13
1.0
 23
0.0
 33
0.0
 40
0.0
 40
0.0
 40
0.0
 40
0.0
 40
1.0
 40
1.0
 40
1.0
 40
2.0
 40
2.0
 40
2.0
 40
3.0
 40
3.0
 40
3.0
 40
3.0
 10
105.9166714083308
 20
49.66832486613544
 30
0.0
 10
104.9438275671667
 20
49.38790449188711
 30
0.0
 10
104.0700705609395
 20
49.37966150126232
 30
0.0
 10
103.2954003896493
 20
49.64359589426108
 30
0.0
 10
102.4298247986647
 20
49.93850226431088
 30
0.0
 10
101.5147851024783
 20
50.75331107549488
 30
0.0
 10
101.0697929209574
 20
51.54772672858636
 30
0.0
 10
100.5837990998266
 20
52.41533994707599
 30
0.0
 10
100.45191124983
 20
53.47344495752431
 30
0.0
 10
100.6741293709677
 20
54.7220417599313
 30
0.0
  0
SPLINE
  5
113
330
1F
100
AcDbEntity
  8
0
  6
K5LT32773
 62
    30
420
 16744448
100
AcDbSpline
210
0.0
220
0.0
230
1.0
 70
     8
 71
     3
 72
    17
 73
    13
 74
     0
 42
0.0
 43
0.0
 12
1.0
 22
0.0
 32
0.0
 13
1.0
 23
0.0
 33
0.0
 40
0.0
 40
0.0
 40
0.0
 40
0.0
 40
1.0
 40
1.0
 40
1.0
 40
2.0
 40
2.0
 40
2.0
 40
3.0
 40
3.0
 40
3.0
 40
4.0
 40
4.0
 40
4.0
 40
4.0
 10
100.6741293709677
 20
54.7220417599313
 30
0.0
 10
101.0404589862692
 20
53.59572916009487
 30
0.0
 10
101.584496367505
 20
52.83437181213881
 30
0.0
 10
102.3062415146751
 20
52.43796971606312
 30
0.0
 10
103.17174059456
 20
51.96261404410166
 30
0.0
 10
104.6191148297341
 20
52.28283783417897
 30
0.0
 10
105.6693816895873
 20
52.58634354730924
 30
0.0
 10
106.6360741745205
 20
52.86569796972561
 30
0.0
 10
107.4346859395887
 20
53.71734804516252
 30
0.0
 10
108.3895685957662
 20
54.0700818597705
 30
0.0
 10
109.68936770085
 20
54.55022786891006
 30
0.0
 10
111.0783908711099
 20
54.76754783563032
 30
0.0
 10
112.5566381065457
 20
54.7220417599313
 30
0.0
  0
SPLINE
  5
114
330
1F
100
AcDbEntity
  8
0
  6
K5LT32773
 62
    30
420
 16744448
100
AcDbSpline
210
0.0
220
0.0
230
1.0
 70
     8
 71
     3
 72
    11
 73
     7
 74
     0
 42
0.0
 43
0.0
 12
1.0
 22
0.0
 32
0.0
 13
1.0
 23
0.0
 33
0.0
 40
0.0
 40
0.0
 40
0.0
 40
0.0
 40
1.0
 40
1.0
 40
1.0
 40
2.0
 40
2.0
 40
2.0
 40
2.0
 10
116.9781784533765
 20
54.7220417599313
 30
0.0
 10
118.6889344188016
 20
54.17572202556656
 30
0.0
 10
120.0928738915641
 20
53.36027223408182
 30
0.0
 10
121.1899968716641
 20
52.27569238547707
 30
0.0
 10
122.8762624469625
 20
50.6087054610049
 30
0.0
 10
123.8377249498476
 20
48.30594341705795
 30
0.0
 10
124.0743843803192
 20
45.36740625363624
 30
0.0
  0
SPLINE
  5
115
330
1F
100
AcDbEntity
  8
0
  6
K5LT32773
 62
    30
420
 16744448
100
AcDbSpline
210
0.0
220
0.0
230
1.0
 70
     8
 71
     3
 72
    14
 73
    10
 74
     0
 42
0.0
 43
0.0
 12
1.0
 22
0.0
 32
0.0
 13
1.0
 23
0.0
 33
0.0
 40
0.0
 40
0.0
 40
0.0
 40
0.0
 40
1.0
 40
1.0
 40
1.0
 40
2.0
 40
2.0
 40
2.0
 40
3.0
 40
3.0
 40
3.0
 40
3.0
 10
124.0743843803192
 20
45.36740625363624
 30
0.0
 10
125.1865322632992
 20
47.50307278504143
 30
0.0
 10
125.8275072652226
 20
49.67526584711509
 30
0.0
 10
125.9973093860894
 20
51.88398543985723
 30
0.0
 10
126.1660916370752
 20
54.07943896397462
 30
0.0
 10
125.5109539367708
 20
56.36657857911004
 30
0.0
 10
125.1070663278625
 20
58.5786132377236
 30
0.0
 10
124.7113689329233
 20
60.74579126602306
 30
0.0
 10
124.2128328203163
 20
62.89424451321067
 30
0.0
 10
123.6114579900412
 20
65.02397297928643
 30
0.0
  0
SPLINE
  5
116
330
1F
100
AcDbEntity
  8
0
  6
K5LT32773
 62
    30
420
 16744448
100
AcDbSpline
210
0.0
220
0.0
230
1.0
 70
     8
 71
     3
 72
    14
 73
    10
 74
     0
 42
0.0
 43
0.0
 12
1.0
 22
0.0
 32
0.0
 13
1.0
 23
0.0
 33
0.0
 40
0.0
 40
0.0
 40
0.0
 40
0.0
 40
1.0
 40
1.0
 40
1.0
 40
2.0
 40
2.0
 40
2.0
 40
3.0
 40
3.0
 40
3.0
 40
3.0
 10
123.6114579900412
 20
65.02397297928643
 30
0.0
 10
125.0108609917527
 20
62.94244780642845
 30
0.0
 10
126.1385021988401
 20
60.75838483691176
 30
0.0
 10
126.9943816113035
 20
58.47178407073636
 30
0.0
 10
127.8123675263457
 20
56.2864210478397
 30
0.0
 10
128.5727487811152
 20
53.95049649247868
 30
0.0
 10
128.7036482830992
 20
51.63471738355369
 30
0.0
 10
128.7971907906493
 20
49.97983114260021
 30
0.0
 10
128.666621808776
 20
48.30617419313363
 30
0.0
 10
128.3119413374793
 20
46.61374653515391
 30
0.0
  0
SPLINE
  5
117
330
1F
100
AcDbEntity
  8
0
  6
K5LT32773
 62
    30
420
 16744448
100
AcDbSpline
210
0.0
220
0.0
230
1.0
 70
     8
 71
     3
 72
    11
 73
     7
 74
     0
 42
0.0
 43
0.0
 12
1.0
 22
0.0
 32
0.0
 13
1.0
 23
0.0
 33
0.0
 40
0.0
 40
0.0
 40
0.0
 40
0.0
 40
1.0
 40
1.0
 40
1.0
 40
2.0
 40
2.0
 40
2.0
 40
2.0
 10
128.3119413374793
 20
46.61374653515391
 30
0.0
 10
130.0760964971277
 20
47.10863802089789
 30
0.0
 10
131.6904039093791
 20
47.19172737299907
 30
0.0
 10
133.1548635742337
 20
46.86301459145745
 30
0.0
 10
135.9017304574468
 20
46.24645254104745
 30
0.0
 10
138.1214031492925
 20
44.18108864596101
 30
0.0
 10
139.813881649771
 20
40.66692290619815
 30
0.0
  0
SPLINE
  5
118
330
1F
100
AcDbEntity
  8
0
  6
K5LT32773
 62
    30
420
 16744448
100
AcDbSpline
210
0.0
220
0.0
230
1.0
 70
     8
 71
     3
 72
    11
 73
     7
 74
     0
 42
0.0
 43
0.0
 12
1.0
 22
0.0
 32
0.0
 13
1.0
 23
0.0
 33
0.0
 40
0.0
 40
0.0
 40
0.0
 40
0.0
 40
1.0
 40
1.0
 40
1.0
 40
2.0
 40
2.0
 40
2.0
 40
2.0
 10
139.813881649771
 20
40.66692290619815
 30
0.0
 10
138.1613743216959
 20
42.28310914169406
 30
0.0
 10
136.4046280201282
 20
43.24457164457912
 30
0.0
 10
134.5436427450677
 20
43.55131041485335
 30
0.0
 10
132.6247191548769
 20
43.86759892620989
 30
0.0
 10
130.5949649821195
 20
43.48776188803308
 30
0.0
 10
128.4543802267956
 20
42.4117993003229
 30
0.0
  0
SPLINE
  5
119
330
1F
100
AcDbEntity
  8
0
  6
K5LT32773
 62
    30
420
 16744448
100
AcDbSpline
210
0.0
220
0.0
230
1.0
 70
     8
 71
     3
 72
    11
 73
     7
 74
     0
 42
0.0
 43
0.0
 12
1.0
 22
0.0
 32
0.0
 13
1.0
 23
0.0
 33
0.0
 40
0.0
 40
0.0
 40
0.0
 40
0.0
 40
1.0
 40
1.0
 40
1.0
 40
2.0
 40
2.0
 40
2.0
 40
2.0
 10
128.4543802267956
 20
42.4117993003229
 30
0.0
 10
132.1574855527128
 20
42.42474623231902
 30
0.0
 10
135.1724420432413
 20
41.60572261875026
 30
0.0
 10
137.499249698381
 20
39.95472845961662
 30
0.0
 10
140.734691284588
 20
37.6590100536511
 30
0.0
 10
142.6395910242974
 20
33.75466925526065
 30
0.0
 10
143.2139489175093
 20
28.24170606444525
 30
0.0
  0
SPLINE
  5
11A
330
1F
100
AcDbEntity
  8
0
  6
K5LT32773
 62
    30
420
 16744448
100
AcDbSpline
210
0.0
220
0.0
230
1.0
 70
     8
 71
     3
 72
    32
 73
    28
 74
     0
 42
0.0
 43
0.0
 12
1.0
 22
0.0
 32
0.0
 13
1.0
 23
0.0
 33
0.0
 40
0.0
 40
0.0
 40
0.0
 40
0.0
 40
1.0
 40
1.0
 40
1.0
 40
2.0
 40
2.0
 40
2.0
 40
3.0
 40
3.0
 40
3.0
 40
4.0
 40
4.0
 40
4.0
 40
5.0
 40
5.0
 40
5.0
 40
6.0
 40
6.0
 40
6.0
 40
7.0
 40
7.0
 40
7.0
 40
8.0
 40
8.0
 40
8.0
 40
9.0
 40
9.0
 40
9.0
 40
9.0
 10
130.0847356047574
 20
24.41607009813381
 30
0.0
 10
130.2164207554664
 20
22.83958658219246
 30
0.0
 10
130.6912170531874
 20
21.64072593044688
 30
0.0
 10
131.5091244979205
 20
20.81948814289709
 30
0.0
 10
132.5123085803875
 20
19.81221931108047
 30
0.0
 10
134.75970897157
 20
19.23980080313437
 30
0.0
 10
136.0671689560423
 20
19.50192841672126
 30
0.0
 10
137.8286946910928
 20
19.8550899227593
 30
0.0
 10
139.4878751554562
 20
22.59339641089423
 30
0.0
 10
140.1978967462151
 20
24.38046037580473
 30
0.0
 10
141.4691177172277
 20
27.58001545737168
 30
0.0
 10
140.0024636921095
 20
33.13599828897075
 30
0.0
 10
137.5983870161925
 20
35.52630346480566
 30
0.0
 10
135.8121197944063
 20
37.30233824291079
 30
0.0
 10
132.1448766037456
 20
39.1172991440266
 30
0.0
 10
129.6930286591376
 20
38.65995902976439
 30
0.0
 10
127.749960641723
 20
38.29752099560412
 30
0.0
 10
125.6151422053114
 20
36.350365979027
 30
0.0
 10
124.2091314204598
 20
34.74288957356598
 30
0.0
 10
121.6729835311976
 20
31.84334005611388
 30
0.0
 10
122.5931232375867
 20
26.62718050947606
 30
0.0
 10
120.7193786322103
 20
23.09851037195798
 30
0.0
 10
119.3602115750048
 20
20.53890209188718
 30
0.0
 10
118.0412318652745
 20
17.15177616408601
 30
0.0
 10
115.5203591721652
 20
15.97656590614269
 30
0.0
 10
114.4139246311646
 20
15.46075516096665
 30
0.0
 10
113.1557144422039
 20
15.17587738233403
 30
0.0
 10
111.7457286052831
 20
15.12193257024486
 30
0.0
  0
SPLINE
  5
11B
330
1F
100
AcDbEntity
  8
0
  6
K5LT32773
 62
    30
420
 16744448
100
AcDbSpline
210
0.0
220
0.0
230
1.0
 70
     8
 71
     3
 72
    32
 73
    28
 74
     0
 42
0.0
 43
0.0
 12
1.0
 22
0.0
 32
0.0
 13
1.0
 23
0.0
 33
0.0
 40
0.0
 40
0.0
 40
0.0
 40
0.0
 40
1.0
 40
1.0
 40
1.0
 40
2.0
 40
2.0
 40
2.0
 40
3.0
 40
3.0
 40
3.0
 40
4.0
 40
4.0
 40
4.0
 40
5.0
 40
5.0
 40
5.0
 40
6.0
 40
6.0
 40
6.0
 40
7.0
 40
7.0
 40
7.0
 40
8.0
 40
8.0
 40
8.0
 40
9.0
 40
9.0
 40
9.0
 40
9.0
 10
130.0847356047574
 20
24.41607009813381
 30
0.0
 10
130.5696099710519
 20
22.80066405360498
 30
0.0
 10
131.2756324776988
 20
21.86541035589056
 30
0.0
 10
132.2028031246982
 20
21.61030900499054
 30
0.0
 10
133.0156555835946
 20
21.3866611133991
 30
0.0
 10
134.5218594651939
 20
21.88129333911304
 30
0.0
 10
135.151288250708
 20
22.50767404334135
 30
0.0
 10
135.875413012901
 20
23.22829214809036
 30
0.0
 10
136.0913531837036
 20
24.89233007991374
 30
0.0
 10
135.9204582835801
 20
25.96893919126589
 30
0.0
 10
135.7313697659245
 20
27.16016503131722
 30
0.0
 10
134.7475689303449
 20
28.75252711169836
 30
0.0
 10
133.7838748589353
 20
29.25927766521885
 30
0.0
 10
132.5548687304047
 20
29.90554036869488
 30
0.0
 10
129.9893593793419
 20
29.19892602425594
 30
0.0
 10
128.8697329822523
 20
28.31918095837515
 30
0.0
 10
127.4380100314642
 20
27.19420640888412
 30
0.0
 10
126.8082681883702
 20
24.06786599423038
 30
0.0
 10
127.1177345740436
 20
22.16582069539819
 30
0.0
 10
127.4325185113641
 20
20.23109260909759
 30
0.0
 10
129.0784762253627
 20
17.76254683965935
 30
0.0
 10
130.8353897329255
 20
16.82436213378623
 30
0.0
 10
132.1634056153031
 20
16.11520702476124
 30
0.0
 10
134.1724998492838
 20
15.91655059454066
 30
0.0
 10
135.7067999411156
 20
16.14065543789991
 30
0.0
 10
137.7617988357574
 20
16.44081523573794
 30
0.0
 10
139.6562361389424
 20
17.55183861655323
 30
0.0
 10
141.3901118506707
 20
19.47372558034576
 30
0.0
  0
SPLINE
  5
11C
330
1F
100
AcDbEntity
  8
0
  6
K5LT32773
 62
    30
420
 16744448
100
AcDbSpline
210
0.0
220
0.0
230
1.0
 70
     8
 71
     3
 72
    17
 73
    13
 74
     0
 42
0.0
 43
0.0
 12
1.0
 22
0.0
 32
0.0
 13
1.0
 23
0.0
 33
0.0
 40
0.0
 40
0.0
 40
0.0
 40
0.0
 40
1.0
 40
1.0
 40
1.0
 40
2.0
 40
2.0
 40
2.0
 40
3.0
 40
3.0
 40
3.0
 40
4.0
 40
4.0
 40
4.0
 40
4.0
 10
141.3901118506707
 20
19.47372558034576
 30
0.0
 10
140.4359163305894
 20
15.73674822542503
 30
0.0
 10
138.8690884858499
 20
12.51762919896023
 30
0.0
 10
136.6896283164522
 20
9.816368500951363
 30
0.0
 10
134.0789294643435
 20
6.580623107408742
 30
0.0
 10
130.2443951687742
 20
2.728931640377291
 30
0.0
 10
126.2203695356928
 20
2.338326514694636
 30
0.0
 10
124.4697778838678
 20
2.168399646794324
 30
0.0
 10
122.155483581674
 20
2.091735733533667
 30
0.0
 10
120.6652526316164
 20
3.022033210580965
 30
0.0
 10
119.7231187231916
 20
3.610173456906132
 30
0.0
 10
118.9254609113242
 20
4.479050716261677
 30
0.0
 10
118.2722791960142
 20
5.628664988647596
 30
0.0
  0
SPLINE
  5
11D
330
1F
100
AcDbEntity
  8
0
  6
K5LT32773
 62
    30
420
 16744448
100
AcDbSpline
210
0.0
220
0.0
230
1.0
 70
     8
 71
     3
 72
    26
 73
    22
 74
     0
 42
0.0
 43
0.0
 12
1.0
 22
0.0
 32
0.0
 13
1.0
 23
0.0
 33
0.0
 40
0.0
 40
0.0
 40
0.0
 40
0.0
 40
1.0
 40
1.0
 40
1.0
 40
2.0
 40
2.0
 40
2.0
 40
3.0
 40
3.0
 40
3.0
 40
4.0
 40
4.0
 40
4.0
 40
5.0
 40
5.0
 40
5.0
 40
6.0
 40
6.0
 40
6.0
 40
7.0
 40
7.0
 40
7.0
 40
7.0
 10
118.2722791960142
 20
5.628664988647596
 30
0.0
 10
119.2250976554834
 20
5.148312979665737
 30
0.0
 10
120.1224626938342
 20
4.963142416196523
 30
0.0
 10
120.9643743110666
 20
5.073153298239955
 30
0.0
 10
122.0716015661583
 20
5.217832436123285
 30
0.0
 10
123.6016334859775
 20
6.14401364439664
 30
0.0
 10
123.9983227740622
 20
7.038810048913152
 30
0.0
 10
124.4486914243208
 20
8.05468887665781
 30
0.0
 10
123.8022726069281
 20
10.25345417689802
 30
0.0
 10
122.9727627302327
 20
11.01285521875244
 30
0.0
 10
122.0695553449682
 20
11.83972497479809
 30
0.0
 10
119.7870444683192
 20
11.95658168877181
 30
0.0
 10
118.5286692069716
 20
11.48290357217429
 30
0.0
 10
117.3715316854954
 20
11.04733340590276
 30
0.0
 10
116.0687005514457
 20
9.762285319950553
 30
0.0
 10
115.6229157494547
 20
8.577150114657393
 30
0.0
 10
115.2428005813974
 20
7.566600033724633
 30
0.0
 10
115.2959413098016
 20
6.145399936305109
 30
0.0
 10
115.6229157494547
 20
5.073153298239955
 30
0.0
 10
115.9259914624811
 20
4.079277707485687
 30
0.0
 10
116.509990931884
 20
3.167668779637247
 30
0.0
 10
117.3749141576634
 20
2.338326514694636
 30
0.0
  0
SPLINE
  5
11E
330
1F
100
AcDbEntity
  8
0
  6
K5LT32773
 62
    30
420
 16744448
100
AcDbSpline
210
0.0
220
0.0
230
1.0
 70
     8
 71
     3
 72
    14
 73
    10
 74
     0
 42
0.0
 43
0.0
 12
1.0
 22
0.0
 32
0.0
 13
1.0
 23
0.0
 33
0.0
 40
0.0
 40
0.0
 40
0.0
 40
0.0
 40
1.0
 40
1.0
 40
1.0
 40
2.0
 40
2.0
 40
2.0
 40
3.0
 40
3.0
 40
3.0
 40
3.0
 10
117.3749141576634
 20
2.338326514694636
 30
0.0
 10
116.1935962780017
 20
3.185865151711451
 30
0.0
 10
115.1822801236699
 20
4.154449637550418
 30
0.0
 10
114.3409656946678
 20
5.244079972211537
 30
0.0
 10
113.0696636791511
 20
6.890609727164103
 30
0.0
 10
112.0217198419791
 20
8.972825799638889
 30
0.0
 10
111.6916022481083
 20
11.01285521875244
 30
0.0
 10
111.4778998064589
 20
12.33347331362407
 30
0.0
 10
111.4959419255171
 20
13.70316576412154
 30
0.0
 10
111.7457286052831
 20
15.12193257024486
 30
0.0
  0
SPLINE
  5
11F
330
1F
100
AcDbEntity
  8
0
  6
K5LT32773
 62
    30
420
 16744448
100
AcDbSpline
210
0.0
220
0.0
230
1.0
 70
    11
 71
     3
 72
    26
 73
    22
 74
     0
 42
0.0
 43
0.0
 12
1.0
 22
0.0
 32
0.0
 13
1.0
 23
0.0
 33
0.0
 40
0.0
 40
0.0
 40
0.0
 40
0.0
 40
1.0
 40
1.0
 40
1.0
 40
2.0
 40
2.0
 40
2.0
 40
3.0
 40
3.0
 40
3.0
 40
4.0
 40
4.0
 40
4.0
 40
5.0
 40
5.0
 40
5.0
 40
6.0
 40
6.0
 40
6.0
 40
7.0
 40
7.0
 40
7.0
 40
7.0
 10
121.3777165097405
 20
36.84538915134503
 30
0.0
 10
120.8655590925666
 20
33.30553180574621
 30
0.0
 10
119.9038768912222
 20
29.95338241820286
 30
0.0
 10
118.4926699057073
 20
26.78894098871498
 30
0.0
 10
117.561743314461
 20
24.7014635999345
 30
0.0
 10
116.7320501097856
 20
22.33562292824135
 30
0.0
 10
115.1130438838398
 20
20.77155807173143
 30
0.0
 10
114.2813272751509
 20
19.96806596813187
 30
0.0
 10
113.1985888614514
 20
18.51560772122527
 30
0.0
 10
112.2279972798066
 20
18.710810497422
 30
0.0
 10
111.7084936447072
 20
18.81529167543081
 30
0.0
 10
110.9582671196675
 20
19.343443752645
 30
0.0
 10
110.6618291233314
 20
19.78239923606291
 30
0.0
 10
110.0463135628396
 20
20.69383411872409
 30
0.0
 10
111.206000717107
 20
22.39585194159504
 30
0.0
 10
111.7334178619723
 20
23.57417477279227
 30
0.0
 10
112.5830647828629
 20
25.47240348054008
 30
0.0
 10
114.3464035821142
 20
26.90415078452963
 30
0.0
 10
115.6076233016741
 20
28.60239885410729
 30
0.0
 10
117.606824668232
 20
31.29434840801916
 30
0.0
 10
119.5301890709208
 20
34.04201184043174
 30
0.0
 10
121.3777165097405
 20
36.84538915134503
 30
0.0
  0
SPLINE
  5
120
330
1F
100
AcDbEntity
  8
0
  6
K5LT32773
 62
    30
420
 16744448
100
AcDbSpline
210
0.0
220
0.0
230
1.0
 70
     8
 71
     3
 72
    11
 73
     7
 74
     0
 42
0.0
 43
0.0
 12
1.0
 22
0.0
 32
0.0
 13
1.0
 23
0.0
 33
0.0
 40
0.0
 40
0.0
 40
0.0
 40
0.0
 40
1.0
 40
1.0
 40
1.0
 40
2.0
 40
2.0
 40
2.0
 40
2.0
 10
106.8276631537534
 20
20.27668201369701
 30
0.0
 10
105.4946769838107
 20
18.03477534253435
 30
0.0
 10
103.9491164259088
 20
15.99310892654041
 30
0.0
 10
102.1909814800475
 20
14.15168276571519
 30
0.0
 10
100.6392780950144
 20
12.52646781064742
 30
0.0
 10
98.92198858623448
 20
11.05723123091346
 30
0.0
 10
97.03911295370766
 20
9.743973026513313
 30
0.0
  0
SPLINE
  5
121
330
1F
100
AcDbEntity
  8
0
  6
K5LT32773
 62
    30
420
 16744448
100
AcDbSpline
210
0.0
220
0.0
230
1.0
 70
     8
 71
     3
 72
    11
 73
     7
 74
     0
 42
0.0
 43
0.0
 12
1.0
 22
0.0
 32
0.0
 13
1.0
 23
0.0
 33
0.0
 40
0.0
 40
0.0
 40
0.0
 40
0.0
 40
1.0
 40
1.0
 40
1.0
 40
2.0
 40
2.0
 40
2.0
 40
2.0
 10
106.8276631537534
 20
20.27668201369701
 30
0.0
 10
106.7706962795824
 20
19.33091678715743
 30
0.0
 10
106.9042632413764
 20
18.45319103822545
 30
0.0
 10
107.2283640391354
 20
17.64350476690109
 30
0.0
 10
107.4469736569226
 20
17.09736230898142
 30
0.0
 10
107.7522695695946
 20
16.58217545634744
 30
0.0
 10
108.1442517771513
 20
16.09794420899913
 30
0.0
  0
SPLINE
  5
122
330
1F
100
AcDbEntity
  8
0
  6
K5LT32773
 62
    30
420
 16744448
100
AcDbSpline
210
0.0
220
0.0
230
1.0
 70
     8
 71
     3
 72
    11
 73
     7
 74
     0
 42
0.0
 43
0.0
 12
1.0
 22
0.0
 32
0.0
 13
1.0
 23
0.0
 33
0.0
 40
0.0
 40
0.0
 40
0.0
 40
0.0
 40
1.0
 40
1.0
 40
1.0
 40
2.0
 40
2.0
 40
2.0
 40
2.0
 10
108.1442517771513
 20
16.09794420899913
 30
0.0
 10
107.8474861019483
 20
15.06095221164224
 30
0.0
 10
107.7139191401543
 20
14.03057850637426
 30
0.0
 10
107.7435508917694
 20
13.00682309319522
 30
0.0
 10
107.7774915121606
 20
11.8341994054837
 30
0.0
 10
108.0255444412066
 20
10.67025873842173
 30
0.0
 10
108.4877096789073
 20
9.515001092009317
 30
0.0
  0
SPLINE
  5
123
330
1F
100
AcDbEntity
  8
0
  6
K5LT32773
 62
    30
420
 16744448
100
AcDbSpline
210
0.0
220
0.0
230
1.0
 70
     8
 71
     3
 72
    11
 73
     7
 74
     0
 42
0.0
 43
0.0
 12
1.0
 22
0.0
 32
0.0
 13
1.0
 23
0.0
 33
0.0
 40
0.0
 40
0.0
 40
0.0
 40
0.0
 40
1.0
 40
1.0
 40
1.0
 40
2.0
 40
2.0
 40
2.0
 40
2.0
 10
108.4877096789073
 20
9.515001092009317
 30
0.0
 10
106.5080878036329
 20
10.62730286426171
 30
0.0
 10
104.523664371265
 20
11.1806517059797
 30
0.0
 10
102.5344393818035
 20
11.17504761716327
 30
0.0
 10
100.7067174464216
 20
11.16989851833741
 30
0.0
 10
98.87494197038967
 20
10.69287365478742
 30
0.0
 10
97.03911295370766
 20
9.743973026513313
 30
0.0
  0
SPLINE
  5
124
330
1F
100
AcDbEntity
  8
0
  6
K5LT32773
 62
    30
420
 16744448
100
AcDbSpline
210
0.0
220
0.0
230
1.0
 70
     8
 71
     3
 72
    14
 73
    10
 74
     0
 42
0.0
 43
0.0
 12
1.0
 22
0.0
 32
0.0
 13
1.0
 23
0.0
 33
0.0
 40
0.0
 40
0.0
 40
0.0
 40
0.0
 40
1.0
 40
1.0
 40
1.0
 40
2.0
 40
2.0
 40
2.0
 40
3.0
 40
3.0
 40
3.0
 40
3.0
 10
117.2550468473875
 20
0.0500661869100973
 30
0.0
 10
114.873619852092
 20
2.104607610050133
 30
0.0
 10
112.2976856912805
 20
3.662888769059559
 30
0.0
 10
109.527244364953
 20
4.724909663938377
 30
0.0
 10
106.9875583981857
 20
5.698472806209581
 30
0.0
 10
104.0228585012023
 20
6.650586907173737
 30
0.0
 10
101.4178220068427
 20
6.394496620019904
 30
0.0
 10
98.44370113283843
 20
6.10212318482885
 30
0.0
 10
95.59745289342325
 20
4.75055279181047
 30
0.0
 10
92.87907728859719
 20
2.339785440964764
 30
0.0
  0
SPLINE
  5
125
330
1F
100
AcDbEntity
  8
0
  6
K5LT32773
 62
    30
420
 16744448
100
AcDbSpline
210
0.0
220
0.0
230
1.0
 70
     8
 71
     3
 72
    14
 73
    10
 74
     0
 42
0.0
 43
0.0
 12
1.0
 22
0.0
 32
0.0
 13
1.0
 23
0.0
 33
0.0
 40
0.0
 40
0.0
 40
0.0
 40
0.0
 40
1.0
 40
1.0
 40
1.0
 40
2.0
 40
2.0
 40
2.0
 40
3.0
 40
3.0
 40
3.0
 40
3.0
 10
92.87907728859719
 20
2.339785440964764
 30
0.0
 10
94.90239428653736
 20
3.033174730146829
 30
0.0
 10
96.87409697752886
 20
3.319389636903663
 30
0.0
 10
98.79418536157173
 20
3.198430161235265
 30
0.0
 10
101.8507323406031
 20
3.00587740011653
 30
0.0
 10
104.5262343298647
 20
0.0583642570066187
 30
0.0
 10
107.5714425021146
 20
-0.4746611421440967
 30
0.0
 10
110.6752159110045
 20
-1.017937649550998
 30
0.0
 10
113.9030840260954
 20
-0.8430285398662669
 30
0.0
 10
117.2550468473875
 20
0.0500661869100973
 30
0.0
  0
SPLINE
  5
126
330
1F
100
AcDbEntity
  8
0
  6
K5LT32773
 62
    30
420
 16744448
100
AcDbSpline
210
0.0
220
0.0
230
1.0
 70
     8
 71
     3
 72
    20
 73
    16
 74
     0
 42
0.0
 43
0.0
 12
1.0
 22
0.0
 32
0.0
 13
1.0
 23
0.0
 33
0.0
 40
0.0
 40
0.0
 40
0.0
 40
0.0
 40
1.0
 40
1.0
 40
1.0
 40
2.0
 40
2.0
 40
2.0
 40
3.0
 40
3.0
 40
3.0
 40
4.0
 40
4.0
 40
4.0
 40
5.0
 40
5.0
 40
5.0
 40
5.0
 10
92.4974574129214
 20
6.537604073398321
 30
0.0
 10
89.68648168030786
 20
5.440756687821446
 30
0.0
 10
87.476266567019
 20
3.88247552881202
 30
0.0
 10
85.86681207305476
 20
1.862760596370043
 30
0.0
 10
84.06140636009559
 20
-0.4028547976994279
 30
0.0
 10
82.96162792891755
 20
-3.802284623738482
 30
0.0
 10
82.7184480987296
 20
-6.675984121875485
 30
0.0
 10
82.38769869969455
 20
-10.58450885964471
 30
0.0
 10
85.33619704436747
 20
-14.52718932233278
 30
0.0
 10
86.20072946427106
 20
-18.55390275228407
 30
0.0
 10
86.77805196578075
 20
-21.24288493123044
 30
0.0
 10
87.76024195115477
 20
-24.00805451324599
 30
0.0
 10
87.53639902913629
 20
-26.71102759485382
 30
0.0
 10
87.4188363508645
 20
-28.13063359313578
 30
0.0
 10
87.1167206159545
 20
-29.54580729876679
 30
0.0
 10
86.63005182440631
 20
-30.95654871174685
 30
0.0
  0
SPLINE
  5
127
330
1F
100
AcDbEntity
  8
0
  6
K5LT32773
 62
    30
420
 16744448
100
AcDbSpline
210
0.0
220
0.0
230
1.0
 70
     8
 71
     3
 72
    17
 73
    13
 74
     0
 42
0.0
 43
0.0
 12
1.0
 22
0.0
 32
0.0
 13
1.0
 23
0.0
 33
0.0
 40
0.0
 40
0.0
 40
0.0
 40
0.0
 40
1.0
 40
1.0
 40
1.0
 40
2.0
 40
2.0
 40
2.0
 40
3.0
 40
3.0
 40
3.0
 40
4.0
 40
4.0
 40
4.0
 40
4.0
 10
86.63005182440631
 20
-30.95654871174685
 30
0.0
 10
91.34468152183165
 20
-28.92032895886446
 30
0.0
 10
94.47714466800365
 20
-26.05817989129613
 30
0.0
 10
96.02744126292234
 20
-22.37010150904185
 30
0.0
 10
97.00026991773035
 20
-20.05579059383078
 30
0.0
 10
98.01911859876785
 20
-16.70111951365651
 30
0.0
 10
97.07689592103074
 20
-14.45148908876946
 30
0.0
 10
96.48669434015926
 20
-13.04233659805073
 30
0.0
 10
95.24525499720438
 20
-10.98792747289485
 30
0.0
 10
93.78542449332716
 20
-10.68299281647115
 30
0.0
 10
92.99996945066874
 20
-10.51892413662567
 30
0.0
 10
92.10952307409191
 20
-10.63022993369778
 30
0.0
 10
91.1140853635967
 20
-11.01691020768746
 30
0.0
  0
SPLINE
  5
128
330
1F
100
AcDbEntity
  8
0
  6
K5LT32773
 62
    30
420
 16744448
100
AcDbSpline
210
0.0
220
0.0
230
1.0
 70
     8
 71
     3
 72
    26
 73
    22
 74
     0
 42
0.0
 43
0.0
 12
1.0
 22
0.0
 32
0.0
 13
1.0
 23
0.0
 33
0.0
 40
0.0
 40
0.0
 40
0.0
 40
0.0
 40
1.0
 40
1.0
 40
1.0
 40
2.0
 40
2.0
 40
2.0
 40
3.0
 40
3.0
 40
3.0
 40
4.0
 40
4.0
 40
4.0
 40
5.0
 40
5.0
 40
5.0
 40
6.0
 40
6.0
 40
6.0
 40
7.0
 40
7.0
 40
7.0
 40
7.0
 10
91.1140853635967
 20
-11.01691020768746
 30
0.0
 10
91.82338484954262
 20
-11.45914033747813
 30
0.0
 10
92.25270765038775
 20
-11.97105833664016
 30
0.0
 10
92.40205376613207
 20
-12.55266420517355
 30
0.0
 10
92.55600192794414
 20
-13.15219204634689
 30
0.0
 10
92.29792588936925
 20
-14.03802972977157
 30
0.0
 10
91.97140637120884
 20
-14.5733942890441
 30
0.0
 10
91.46789971907964
 20
-15.39894866455778
 30
0.0
 10
90.0659544071274
 20
-16.06636693328448
 30
0.0
 10
89.15563494286462
 20
-16.06409680993221
 30
0.0
 10
88.06612574352079
 20
-16.06137982938522
 30
0.0
 10
86.53873712500642
 20
-14.91480527070659
 30
0.0
 10
86.00859628765639
 20
-13.91085983531605
 30
0.0
 10
85.51545615221771
 20
-12.97698386670312
 30
0.0
 10
85.44185892807114
 20
-11.36934599549688
 30
0.0
 10
85.87608939691079
 20
-10.36630050787098
 30
0.0
 10
86.21466031644105
 20
-9.58422265418264
 30
0.0
 10
86.98734739776923
 20
-8.731667872035612
 30
0.0
 10
87.76431259003573
 20
-8.345570424000432
 30
0.0
 10
88.4869289935456
 20
-7.986480529008299
 30
0.0
 10
89.3371815424966
 20
-7.876058120053623
 30
0.0
 10
90.31507023688872
 20
-8.014303197136407
 30
0.0
  0
SPLINE
  5
129
330
1F
100
AcDbEntity
  8
0
  6
K5LT32773
 62
    30
420
 16744448
100
AcDbSpline
210
0.0
220
0.0
230
1.0
 70
     8
 71
     3
 72
    14
 73
    10
 74
     0
 42
0.0
 43
0.0
 12
1.0
 22
0.0
 32
0.0
 13
1.0
 23
0.0
 33
0.0
 40
0.0
 40
0.0
 40
0.0
 40
0.0
 40
1.0
 40
1.0
 40
1.0
 40
2.0
 40
2.0
 40
2.0
 40
3.0
 40
3.0
 40
3.0
 40
3.0
 10
90.31507023688872
 20
-8.014303197136407
 30
0.0
 10
88.81700928963798
 20
-6.303203118961117
 30
0.0
 10
87.99988346337341
 20
-4.52540233479085
 30
0.0
 10
87.86369275809493
 20
-2.680900844625604
 30
0.0
 10
87.7451280674313
 20
-1.075117629369611
 30
0.0
 10
88.3329211070002
 20
0.7924303431551019
 30
0.0
 10
89.05625477480542
 20
2.288107558334769
 30
0.0
 10
89.83026111953271
 20
3.888563483089004
 30
0.0
 10
90.97732866557138
 20
5.30506232144352
 30
0.0
 10
92.4974574129214
 20
6.537604073398321
 30
0.0
  0
SPLINE
  5
12A
330
1F
100
AcDbEntity
  8
0
  6
K5LT32773
 62
    30
420
 16744448
100
AcDbSpline
210
0.0
220
0.0
230
1.0
 70
     8
 71
     3
 72
    23
 73
    19
 74
     0
 42
0.0
 43
0.0
 12
1.0
 22
0.0
 32
0.0
 13
1.0
 23
0.0
 33
0.0
 40
0.0
 40
0.0
 40
0.0
 40
0.0
 40
1.0
 40
1.0
 40
1.0
 40
2.0
 40
2.0
 40
2.0
 40
3.0
 40
3.0
 40
3.0
 40
4.0
 40
4.0
 40
4.0
 40
5.0
 40
5.0
 40
5.0
 40
6.0
 40
6.0
 40
6.0
 40
6.0
 10
92.50143393419128
 20
-7.219261852662745
 30
0.0
 10
91.53449900498573
 20
-6.037939489822504
 30
0.0
 10
91.0707248873761
 20
-4.878504195798417
 30
0.0
 10
91.11011158136239
 20
-3.740955970590484
 30
0.0
 10
91.15107584201021
 20
-2.557845196857063
 30
0.0
 10
91.95377540006552
 20
-0.9474074453095563
 30
0.0
 10
92.86582788374172
 20
-0.2626500885182228
 30
0.0
 10
93.92599378304755
 20
0.5333089291502165
 30
0.0
 10
95.92404333661241
 20
0.3659825585488702
 30
0.0
 10
97.37106216909245
 20
0.201124029091412
 30
0.0
 10
99.54888087628669
 20
-0.0469943653856277
 30
0.0
 10
101.384620113246
 20
-2.015973605192465
 30
0.0
 10
103.5326325887633
 20
-2.714027567312007
 30
0.0
 10
105.1053662003483
 20
-3.225129314363589
 30
0.0
 10
106.76277012957
 20
-3.748064433944861
 30
0.0
 10
108.4022608236645
 20
-3.807209415963289
 30
0.0
 10
109.7385973242205
 20
-3.855418044765301
 30
0.0
 10
111.0857507134675
 20
-3.700826672228755
 30
0.0
 10
112.4437209914056
 20
-3.343435298353654
 30
0.0
  0
SPLINE
  5
12B
330
1F
100
AcDbEntity
  8
0
  6
K5LT32773
 62
    30
420
 16744448
100
AcDbSpline
210
0.0
220
0.0
230
1.0
 70
     8
 71
     3
 72
    14
 73
    10
 74
     0
 42
0.0
 43
0.0
 12
1.0
 22
0.0
 32
0.0
 13
1.0
 23
0.0
 33
0.0
 40
0.0
 40
0.0
 40
0.0
 40
0.0
 40
1.0
 40
1.0
 40
1.0
 40
2.0
 40
2.0
 40
2.0
 40
3.0
 40
3.0
 40
3.0
 40
3.0
 10
112.4437209914056
 20
-3.343435298353654
 30
0.0
 10
111.3566785178329
 20
-4.299475200078339
 30
0.0
 10
110.6720595823139
 20
-5.370572566938686
 30
0.0
 10
110.3898641848486
 20
-6.556727398934696
 30
0.0
 10
110.1814910114246
 20
-7.432584513314709
 30
0.0
 10
110.1569268478846
 20
-8.498844599479064
 30
0.0
 10
110.422990907535
 20
-9.372498827278907
 30
0.0
 10
110.6036082098784
 20
-9.965578065464854
 30
0.0
 10
110.9017487140561
 20
-10.5287323511337
 30
0.0
 10
111.3174124200679
 20
-11.06196168428544
 30
0.0
  0
SPLINE
  5
12C
330
1F
100
AcDbEntity
  8
0
  6
K5LT32773
 62
    30
420
 16744448
100
AcDbSpline
210
0.0
220
0.0
230
1.0
 70
     8
 71
     3
 72
    26
 73
    22
 74
     0
 42
0.0
 43
0.0
 12
1.0
 22
0.0
 32
0.0
 13
1.0
 23
0.0
 33
0.0
 40
0.0
 40
0.0
 40
0.0
 40
0.0
 40
1.0
 40
1.0
 40
1.0
 40
2.0
 40
2.0
 40
2.0
 40
3.0
 40
3.0
 40
3.0
 40
4.0
 40
4.0
 40
4.0
 40
5.0
 40
5.0
 40
5.0
 40
6.0
 40
6.0
 40
6.0
 40
7.0
 40
7.0
 40
7.0
 40
7.0
 10
111.3174124200679
 20
-11.06196168428544
 30
0.0
 10
110.2125561062917
 20
-10.8443208271989
 30
0.0
 10
109.2297966665951
 20
-10.89953203167624
 30
0.0
 10
108.3691341009781
 20
-11.22759529771745
 30
0.0
 10
107.2085074015496
 20
-11.66999746655834
 30
0.0
 10
105.902588966889
 20
-12.902560831495
 30
0.0
 10
105.5533626726339
 20
-14.04336672606166
 30
0.0
 10
105.2488726667159
 20
-15.038034078727
 30
0.0
 10
105.3775236122262
 20
-16.69355247563312
 30
0.0
 10
105.9840100675571
 20
-17.48854588544752
 30
0.0
 10
106.5911586864429
 20
-18.28440727122036
 30
0.0
 10
108.1632906697465
 20
-18.93745816009121
 30
0.0
 10
109.1973021681381
 20
-18.81361479290362
 30
0.0
 10
110.0272798460723
 20
-18.7142085189059
 30
0.0
 10
111.3298201960505
 20
-18.13106597203313
 30
0.0
 10
111.6155529242455
 20
-17.42229244007471
 30
0.0
 10
111.8581517480649
 20
-16.82051459581589
 30
0.0
 10
111.690509490516
 20
-15.58299323696881
 30
0.0
 10
111.2180322520087
 20
-15.0871201699141
 30
0.0
 10
110.8448659063916
 20
-14.69547560962297
 30
0.0
 10
110.2596271389318
 20
-14.4800646857511
 30
0.0
 10
109.4623159496294
 20
-14.44088739829849
 30
0.0
  0
SPLINE
  5
12D
330
1F
100
AcDbEntity
  8
0
  6
K5LT32773
 62
    30
420
 16744448
100
AcDbSpline
210
0.0
220
0.0
230
1.0
 70
     8
 71
     3
 72
    20
 73
    16
 74
     0
 42
0.0
 43
0.0
 12
1.0
 22
0.0
 32
0.0
 13
1.0
 23
0.0
 33
0.0
 40
0.0
 40
0.0
 40
0.0
 40
0.0
 40
1.0
 40
1.0
 40
1.0
 40
2.0
 40
2.0
 40
2.0
 40
3.0
 40
3.0
 40
3.0
 40
4.0
 40
4.0
 40
4.0
 40
5.0
 40
5.0
 40
5.0
 40
5.0
 10
109.4623159496294
 20
-14.44088739829849
 30
0.0
 10
110.248547933811
 20
-14.02473322784936
 30
0.0
 10
110.9442091102255
 20
-13.88118409620829
 30
0.0
 10
111.5492994788727
 20
-14.01024000337526
 30
0.0
 10
112.4421677548479
 20
-14.2006742447832
 30
0.0
 10
113.3853103232061
 20
-15.48127222182622
 30
0.0
 10
113.6362830081161
 20
-16.36223731410983
 30
0.0
 10
113.9506948538184
 20
-17.46588674418075
 30
0.0
 10
113.1532706623646
 20
-19.0797229385154
 30
0.0
 10
112.48578201056
 20
-20.12973268627059
 30
0.0
 10
111.5300949480967
 20
-21.63310016476942
 30
0.0
 10
109.502747809929
 20
-22.48775780492316
 30
0.0
 10
107.8722337608904
 20
-23.37405934593807
 30
0.0
 10
104.7139847587142
 20
-25.090794604483
 30
0.0
 10
101.3549789282547
 20
-26.26048066049322
 30
0.0
 10
97.35449972589475
 20
-26.32785866810219
 30
0.0
  0
SPLINE
  5
12E
330
1F
100
AcDbEntity
  8
0
  6
K5LT32773
 62
    30
420
 16744448
100
AcDbSpline
210
0.0
220
0.0
230
1.0
 70
     8
 71
     3
 72
    17
 73
    13
 74
     0
 42
0.0
 43
0.0
 12
1.0
 22
0.0
 32
0.0
 13
1.0
 23
0.0
 33
0.0
 40
0.0
 40
0.0
 40
0.0
 40
0.0
 40
1.0
 40
1.0
 40
1.0
 40
2.0
 40
2.0
 40
2.0
 40
3.0
 40
3.0
 40
3.0
 40
4.0
 40
4.0
 40
4.0
 40
4.0
 10
97.35449972589475
 20
-26.32785866810219
 30
0.0
 10
99.61069313499722
 20
-24.13090159844318
 30
0.0
 10
100.8897526545636
 20
-21.75681990025521
 30
0.0
 10
101.1916782845939
 20
-19.20561357353824
 30
0.0
 10
101.3975550281968
 20
-17.46599958067927
 30
0.0
 10
100.271574687
 20
-15.52012769345649
 30
0.0
 10
100.4463270537675
 20
-13.73970454747755
 30
0.0
 10
100.6211078631251
 20
-11.95899162089763
 30
0.0
 10
101.1058563976762
 20
-9.845811420119146
 30
0.0
 10
102.2406911279793
 20
-8.52224593169233
 30
0.0
 10
103.0847876414281
 20
-7.537770409160716
 30
0.0
 10
104.2258191552859
 20
-6.783217311287017
 30
0.0
 10
105.6637856695527
 20
-6.258586638071234
 30
0.0
  0
SPLINE
  5
12F
330
1F
100
AcDbEntity
  8
0
  6
K5LT32773
 62
    30
420
 16744448
100
AcDbSpline
210
0.0
220
0.0
230
1.0
 70
     8
 71
     3
 72
    11
 73
     7
 74
     0
 42
0.0
 43
0.0
 12
1.0
 22
0.0
 32
0.0
 13
1.0
 23
0.0
 33
0.0
 40
0.0
 40
0.0
 40
0.0
 40
0.0
 40
1.0
 40
1.0
 40
1.0
 40
2.0
 40
2.0
 40
2.0
 40
2.0
 10
105.6637856695527
 20
-6.258586638071234
 30
0.0
 10
103.944235310101
 20
-5.632743479961614
 30
0.0
 10
102.4167253802591
 20
-5.531522942441971
 30
0.0
 10
101.0812558800271
 20
-5.954925025512306
 30
0.0
 10
99.45193259999162
 20
-6.471491574311909
 30
0.0
 10
98.10846001109455
 20
-7.768954827972783
 30
0.0
 10
97.05083811333583
 20
-9.847314786494925
 30
0.0
  0
SPLINE
  5
130
330
1F
100
AcDbEntity
  8
0
  6
K5LT32773
 62
    30
420
 16744448
100
AcDbSpline
210
0.0
220
0.0
230
1.0
 70
     8
 71
     3
 72
    11
 73
     7
 74
     0
 42
0.0
 43
0.0
 12
1.0
 22
0.0
 32
0.0
 13
1.0
 23
0.0
 33
0.0
 40
0.0
 40
0.0
 40
0.0
 40
0.0
 40
1.0
 40
1.0
 40
1.0
 40
2.0
 40
2.0
 40
2.0
 40
2.0
 10
97.05083811333583
 20
-9.847314786494925
 30
0.0
 10
96.64046003239763
 20
-9.330934184675808
 30
0.0
 10
96.16196294594113
 20
-8.999666970975158
 30
0.0
 10
95.61534685396636
 20
-8.853513145392979
 30
0.0
 10
95.35477088655318
 20
-8.783840526801336
 30
0.0
 10
95.07871487513599
 20
-8.756234925659616
 30
0.0
 10
94.78717881971474
 20
-8.770696341967817
 30
0.0
  0
SPLINE
  5
131
330
1F
100
AcDbEntity
  8
0
  6
K5LT32773
 62
    30
420
 16744448
100
AcDbSpline
210
0.0
220
0.0
230
1.0
 70
     8
 71
     3
 72
    20
 73
    16
 74
     0
 42
0.0
 43
0.0
 12
1.0
 22
0.0
 32
0.0
 13
1.0
 23
0.0
 33
0.0
 40
0.0
 40
0.0
 40
0.0
 40
0.0
 40
1.0
 40
1.0
 40
1.0
 40
2.0
 40
2.0
 40
2.0
 40
3.0
 40
3.0
 40
3.0
 40
4.0
 40
4.0
 40
4.0
 40
5.0
 40
5.0
 40
5.0
 40
5.0
 10
94.78717881971474
 20
-8.770696341967817
 30
0.0
 10
95.62866712203224
 20
-8.2483478332572
 30
0.0
 10
96.18077914486665
 20
-7.613419006997622
 30
0.0
 10
96.44351488821798
 20
-6.865909863189089
 30
0.0
 10
96.6619658529562
 20
-6.244395289143261
 30
0.0
 10
96.75237724193974
 20
-5.313870078076384
 30
0.0
 10
96.49872609050142
 20
-4.767884176418316
 30
0.0
 10
96.16849384858494
 20
-4.057056934606371
 30
0.0
 10
94.88542370944467
 20
-3.310353804852034
 30
0.0
 10
94.12464439231344
 20
-3.415209720474001
 30
0.0
 10
93.53580860374439
 20
-3.496367178847363
 30
0.0
 10
92.71471886430275
 20
-4.112076255112851
 30
0.0
 10
92.41309712152676
 20
-4.657461771851433
 30
0.0
 10
92.04751356143566
 20
-5.318501579513699
 30
0.0
 10
92.07695916565716
 20
-6.172434939784137
 30
0.0
 10
92.50143393419128
 20
-7.219261852662745
 30
0.0
  0
SPLINE
  5
132
330
1F
100
AcDbEntity
  8
0
  6
K5LT32773
 62
    30
420
 16744448
100
AcDbSpline
210
0.0
220
0.0
230
1.0
 70
     8
 71
     3
 72
    26
 73
    22
 74
     0
 42
0.0
 43
0.0
 12
1.0
 22
0.0
 32
0.0
 13
1.0
 23
0.0
 33
0.0
 40
0.0
 40
0.0
 40
0.0
 40
0.0
 40
1.0
 40
1.0
 40
1.0
 40
2.0
 40
2.0
 40
2.0
 40
3.0
 40
3.0
 40
3.0
 40
4.0
 40
4.0
 40
4.0
 40
5.0
 40
5.0
 40
5.0
 40
6.0
 40
6.0
 40
6.0
 40
7.0
 40
7.0
 40
7.0
 40
7.0
 10
129.4648752232542
 20
-1.069958590391018
 30
0.0
 10
133.6272234746046
 20
-3.759272567033272
 30
0.0
 10
136.52271687543
 20
-6.995303234278945
 30
0.0
 10
138.1513554257305
 20
-10.77805059212804
 30
0.0
 10
139.7717089161745
 20
-14.54155470642505
 30
0.0
 10
140.2356324669591
 20
-19.7520120153819
 30
0.0
 10
139.2504207550226
 20
-23.6920682113102
 30
0.0
 10
138.1596037145405
 20
-28.05446097106319
 30
0.0
 10
134.5227275318361
 20
-32.55322717440683
 30
0.0
 10
131.0074307853319
 20
-35.43832891811951
 30
0.0
 10
126.3247201944274
 20
-39.2815596509318
 30
0.0
 10
119.0564303925635
 20
-40.1419218057728
 30
0.0
 10
112.8728528520122
 20
-41.48318822922605
 30
0.0
 10
105.4915424566314
 20
-43.08425229440284
 30
0.0
 10
97.54896045555657
 20
-41.80310688101374
 30
0.0
 10
90.13593885228195
 20
-43.40655255548722
 30
0.0
 10
87.58683143120255
 20
-43.95792762045297
 30
0.0
 10
84.46182256683646
 20
-43.87228584862331
 30
0.0
 10
82.54748516739024
 20
-45.40205016165379
 30
0.0
 10
81.12632190474031
 20
-46.53771456586002
 30
0.0
 10
80.04418229698447
 20
-48.14988173659827
 30
0.0
 10
79.30106634412279
 20
-50.23855167386855
 30
0.0
  0
SPLINE
  5
133
330
1F
100
AcDbEntity
  8
0
  6
K5LT32773
 62
    30
420
 16744448
100
AcDbSpline
210
0.0
220
0.0
230
1.0
 70
     8
 71
     3
 72
    20
 73
    16
 74
     0
 42
0.0
 43
0.0
 12
1.0
 22
0.0
 32
0.0
 13
1.0
 23
0.0
 33
0.0
 40
0.0
 40
0.0
 40
0.0
 40
0.0
 40
1.0
 40
1.0
 40
1.0
 40
2.0
 40
2.0
 40
2.0
 40
3.0
 40
3.0
 40
3.0
 40
4.0
 40
4.0
 40
4.0
 40
5.0
 40
5.0
 40
5.0
 40
5.0
 10
79.30106634412279
 20
-50.23855167386855
 30
0.0
 10
79.99027290582487
 20
-49.15908193275676
 30
0.0
 10
80.71538034024188
 20
-48.54255660145699
 30
0.0
 10
81.47638864737377
 20
-48.38897567996926
 30
0.0
 10
82.54644022076354
 20
-48.17302599171951
 30
0.0
 10
84.34509926009778
 20
-49.50525846256055
 30
0.0
 10
84.89948318894713
 20
-50.48700136674004
 30
0.0
 10
85.57937095382245
 20
-51.6909954835792
 30
0.0
 10
85.09937223096844
 20
-54.15146260454232
 30
0.0
 10
84.29215996382928
 20
-55.3731927688246
 30
0.0
 10
83.4574050620671
 20
-56.63660920187731
 30
0.0
 10
81.43875859689173
 20
-57.37515722861646
 30
0.0
 10
79.84765818001225
 20
-57.85769687157946
 30
0.0
 10
78.44063159570376
 20
-58.28441167752694
 30
0.0
 10
76.94789742266798
 20
-58.44084341733002
 30
0.0
 10
75.36945566090488
 20
-58.32699209098872
 30
0.0
  0
SPLINE
  5
134
330
1F
100
AcDbEntity
  8
0
  6
K5LT32773
 62
    30
420
 16744448
100
AcDbSpline
210
0.0
220
0.0
230
1.0
 70
     8
 71
     3
 72
    14
 73
    10
 74
     0
 42
0.0
 43
0.0
 12
1.0
 22
0.0
 32
0.0
 13
1.0
 23
0.0
 33
0.0
 40
0.0
 40
0.0
 40
0.0
 40
0.0
 40
1.0
 40
1.0
 40
1.0
 40
2.0
 40
2.0
 40
2.0
 40
3.0
 40
3.0
 40
3.0
 40
3.0
 10
75.36945566090488
 20
-46.64982324243227
 30
0.0
 10
75.97062624286788
 20
-44.62240120250775
 30
0.0
 10
76.80082577350055
 20
-42.7341780093828
 30
0.0
 10
77.8600542528029
 20
-40.98515366305745
 30
0.0
 10
78.94488766070525
 20
-39.19384982332494
 30
0.0
 10
80.4396901509635
 20
-37.63352010955973
 30
0.0
 10
81.8352609751712
 20
-36.04927198278348
 30
0.0
 10
82.69206598808601
 20
-35.07662930985182
 30
0.0
 10
83.57544525972341
 20
-34.12699659284162
 30
0.0
 10
84.4853987900834
 20
-33.20037383175286
 30
0.0
  0
SPLINE
  5
135
330
1F
100
AcDbEntity
  8
0
  6
K5LT32773
 62
    30
420
 16744448
100
AcDbSpline
210
0.0
220
0.0
230
1.0
 70
     8
 71
     3
 72
    14
 73
    10
 74
     0
 42
0.0
 43
0.0
 12
1.0
 22
0.0
 32
0.0
 13
1.0
 23
0.0
 33
0.0
 40
0.0
 40
0.0
 40
0.0
 40
0.0
 40
1.0
 40
1.0
 40
1.0
 40
2.0
 40
2.0
 40
2.0
 40
3.0
 40
3.0
 40
3.0
 40
3.0
 10
84.4853987900834
 20
-33.20037383175286
 30
0.0
 10
83.19004144811477
 20
-34.17952980024286
 30
0.0
 10
81.80976133618134
 20
-34.93040218113465
 30
0.0
 10
80.34455845428309
 20
-35.45299097442823
 30
0.0
 10
79.13278660068023
 20
-35.88518940820487
 30
0.0
 10
77.80278890616881
 20
-36.43689787485791
 30
0.0
 10
76.5349853453468
 20
-36.2811590415883
 30
0.0
 10
76.14628235940697
 20
-36.23341020147664
 30
0.0
 10
75.75777246459299
 20
-36.14507227431289
 30
0.0
 10
75.36945566090488
 20
-36.01614526009708
 30
0.0
  0
SPLINE
  5
136
330
1F
100
AcDbEntity
  8
0
  6
K5LT32773
 62
    30
420
 16744448
100
AcDbSpline
210
0.0
220
0.0
230
1.0
 70
     8
 71
     3
 72
    14
 73
    10
 74
     0
 42
0.0
 43
0.0
 12
1.0
 22
0.0
 32
0.0
 13
1.0
 23
0.0
 33
0.0
 40
0.0
 40
0.0
 40
0.0
 40
0.0
 40
1.0
 40
1.0
 40
1.0
 40
2.0
 40
2.0
 40
2.0
 40
3.0
 40
3.0
 40
3.0
 40
3.0
 10
84.26013597483099
 20
-38.4807744989378
 30
0.0
 10
86.91633093914817
 20
-35.78949245360185
 30
0.0
 10
89.84208331932913
 20
-33.57927734031296
 30
0.0
 10
93.03739311537387
 20
-31.85012915907116
 30
0.0
 10
95.61308514773441
 20
-30.45628834942313
 30
0.0
 10
98.50141872416071
 20
-29.58186009612146
 30
0.0
 10
101.2899229268626
 20
-28.60636021582705
 30
0.0
 10
103.2587521121653
 20
-27.9176064987905
 30
0.0
 10
105.2463556313099
 20
-27.2815733726642
 30
0.0
 10
107.2527334842966
 20
-26.69826083744816
 30
0.0
  0
SPLINE
  5
137
330
1F
100
AcDbEntity
  8
0
  6
K5LT32773
 62
    30
420
 16744448
100
AcDbSpline
210
0.0
220
0.0
230
1.0
 70
     8
 71
     3
 72
    14
 73
    10
 74
     0
 42
0.0
 43
0.0
 12
1.0
 22
0.0
 32
0.0
 13
1.0
 23
0.0
 33
0.0
 40
0.0
 40
0.0
 40
0.0
 40
0.0
 40
1.0
 40
1.0
 40
1.0
 40
2.0
 40
2.0
 40
2.0
 40
3.0
 40
3.0
 40
3.0
 40
3.0
 10
107.2527334842966
 20
-26.69826083744816
 30
0.0
 10
105.7868085051652
 20
-28.22537429704613
 30
0.0
 10
104.1967256898494
 20
-29.52924220560504
 30
0.0
 10
102.4824850383494
 20
-30.60986456312488
 30
0.0
 10
99.27568100253485
 20
-32.63136844838957
 30
0.0
 10
95.02776782193706
 20
-32.70766588362879
 30
0.0
 10
91.55861609713023
 20
-34.33065835096372
 30
0.0
 10
89.03467467707924
 20
-35.5114478458266
 30
0.0
 10
86.60184796964616
 20
-36.89481989515129
 30
0.0
 10
84.26013597483099
 20
-38.4807744989378
 30
0.0
  0
SPLINE
  5
138
330
1F
100
AcDbEntity
  8
0
  6
K5LT32773
 62
    30
420
 16744448
100
AcDbSpline
210
0.0
220
0.0
230
1.0
 70
     8
 71
     3
 72
    17
 73
    13
 74
     0
 42
0.0
 43
0.0
 12
1.0
 22
0.0
 32
0.0
 13
1.0
 23
0.0
 33
0.0
 40
0.0
 40
0.0
 40
0.0
 40
0.0
 40
1.0
 40
1.0
 40
1.0
 40
2.0
 40
2.0
 40
2.0
 40
3.0
 40
3.0
 40
3.0
 40
4.0
 40
4.0
 40
4.0
 40
4.0
 10
85.07107821064201
 20
-40.1980639394788
 30
0.0
 10
89.23672976574615
 20
-38.86865665075376
 30
0.0
 10
93.37094508556706
 20
-37.45348294512275
 30
0.0
 10
97.47372417010477
 20
-35.95254282258577
 30
0.0
 10
101.8180960949439
 20
-34.36321958707723
 30
0.0
 10
105.8909785647415
 20
-31.76045856769254
 30
0.0
 10
110.4010974586217
 20
-30.89607946988172
 30
0.0
 10
112.427625015754
 20
-30.5076888081855
 30
0.0
 10
114.5523309101483
 20
-30.08918242770306
 30
0.0
 10
116.6024204383531
 20
-30.22824468744911
 30
0.0
 10
118.1706600314748
 20
-30.33462196446183
 30
0.0
 10
119.7289411904842
 20
-30.65263852752498
 30
0.0
 10
121.2772639153814
 20
-31.18229437663855
 30
0.0
  0
SPLINE
  5
139
330
1F
100
AcDbEntity
  8
0
  6
K5LT32773
 62
    30
420
 16744448
100
AcDbSpline
210
0.0
220
0.0
230
1.0
 70
     8
 71
     3
 72
    11
 73
     7
 74
     0
 42
0.0
 43
0.0
 12
1.0
 22
0.0
 32
0.0
 13
1.0
 23
0.0
 33
0.0
 40
0.0
 40
0.0
 40
0.0
 40
0.0
 40
1.0
 40
1.0
 40
1.0
 40
2.0
 40
2.0
 40
2.0
 40
2.0
 10
121.2772639153814
 20
-31.18229437663855
 30
0.0
 10
119.7675019115623
 20
-29.29892877801634
 30
0.0
 10
118.0625804203186
 20
-28.09929914755804
 30
0.0
 10
116.1624994416504
 20
-27.58340548526363
 30
0.0
 10
114.7256603397447
 20
-27.19328727728626
 30
0.0
 10
113.1772218725203
 20
-27.1941544172395
 30
0.0
 10
111.5171840399773
 20
-27.58600690512335
 30
0.0
  0
SPLINE
  5
13A
330
1F
100
AcDbEntity
  8
0
  6
K5LT32773
 62
    30
420
 16744448
100
AcDbSpline
210
0.0
220
0.0
230
1.0
 70
     8
 71
     3
 72
    14
 73
    10
 74
     0
 42
0.0
 43
0.0
 12
1.0
 22
0.0
 32
0.0
 13
1.0
 23
0.0
 33
0.0
 40
0.0
 40
0.0
 40
0.0
 40
0.0
 40
1.0
 40
1.0
 40
1.0
 40
2.0
 40
2.0
 40
2.0
 40
3.0
 40
3.0
 40
3.0
 40
3.0
 10
111.5171840137751
 20
-27.58600691130837
 30
0.0
 10
114.3923659614854
 20
-26.66332189376127
 30
0.0
 10
116.2996772522862
 20
-25.21776162532965
 30
0.0
 10
117.2391178861775
 20
-23.24932610601348
 30
0.0
 10
118.112536748644
 20
-21.41922780060135
 30
0.0
 10
118.1772565537284
 20
-18.36160739513877
 30
0.0
 10
117.3495402907444
 20
-16.40313702286675
 30
0.0
 10
116.6808054424466
 20
-14.82083467377973
 30
0.0
 10
115.4477552581164
 20
-13.44975648374094
 30
0.0
 10
113.6503897377538
 20
-12.28990245275037
 30
0.0
  0
SPLINE
  5
13B
330
1F
100
AcDbEntity
  8
0
  6
K5LT32773
 62
    30
420
 16744448
100
AcDbSpline
210
0.0
220
0.0
230
1.0
 70
     8
 71
     3
 72
    20
 73
    16
 74
     0
 42
0.0
 43
0.0
 12
1.0
 22
0.0
 32
0.0
 13
1.0
 23
0.0
 33
0.0
 40
0.0
 40
0.0
 40
0.0
 40
0.0
 40
1.0
 40
1.0
 40
1.0
 40
2.0
 40
2.0
 40
2.0
 40
3.0
 40
3.0
 40
3.0
 40
4.0
 40
4.0
 40
4.0
 40
5.0
 40
5.0
 40
5.0
 40
5.0
 10
113.6503897377538
 20
-12.28990245275037
 30
0.0
 10
115.3233201892596
 20
-12.43982460852526
 30
0.0
 10
116.532851397547
 20
-12.13906848219237
 30
0.0
 10
117.2789833626161
 20
-11.3876340737517
 30
0.0
 10
118.0504780058163
 20
-10.61065674538515
 30
0.0
 10
118.5704426154026
 20
-8.63506111914891
 30
0.0
 10
118.1071514297761
 20
-7.611187687501818
 30
0.0
 10
117.8008722450455
 20
-6.934310747811695
 30
0.0
 10
116.9751301686888
 20
-6.086808729012072
 30
0.0
 10
116.2189282366512
 20
-5.888598107808891
 30
0.0
 10
115.6678895513678
 20
-5.744163512379202
 30
0.0
 10
114.9017461750985
 20
-5.821667967063849
 30
0.0
 10
114.3638317662127
 20
-6.054231721240903
 30
0.0
 10
113.7683331755836
 20
-6.311691617380708
 30
0.0
 10
113.2714323352876
 20
-6.786507975885809
 30
0.0
 10
112.8731292453245
 20
-7.478680796756208
 30
0.0
  0
SPLINE
  5
13C
330
1F
100
AcDbEntity
  8
0
  6
K5LT32773
 62
    30
420
 16744448
100
AcDbSpline
210
0.0
220
0.0
230
1.0
 70
     8
 71
     3
 72
    32
 73
    28
 74
     0
 42
0.0
 43
0.0
 12
1.0
 22
0.0
 32
0.0
 13
1.0
 23
0.0
 33
0.0
 40
0.0
 40
0.0
 40
0.0
 40
0.0
 40
1.0
 40
1.0
 40
1.0
 40
2.0
 40
2.0
 40
2.0
 40
3.0
 40
3.0
 40
3.0
 40
4.0
 40
4.0
 40
4.0
 40
5.0
 40
5.0
 40
5.0
 40
6.0
 40
6.0
 40
6.0
 40
7.0
 40
7.0
 40
7.0
 40
8.0
 40
8.0
 40
8.0
 40
9.0
 40
9.0
 40
9.0
 40
9.0
 10
112.8731292453245
 20
-7.478680796756208
 30
0.0
 10
113.1536941600463
 20
-6.311965930352829
 30
0.0
 10
113.6174682776559
 20
-5.362333213342624
 30
0.0
 10
114.2644515981535
 20
-4.629782645725596
 30
0.0
 10
115.5607469787498
 20
-3.16204478174962
 30
0.0
 10
118.4158726770774
 20
-2.784543278831227
 30
0.0
 10
120.3597685724515
 20
-2.840939620659864
 30
0.0
 10
123.5049708725266
 20
-2.932188284982557
 30
0.0
 10
127.0059530859063
 20
-5.751419885477675
 30
0.0
 10
129.1052233616618
 20
-8.240595418543462
 30
0.0
 10
131.1934190781882
 20
-10.71663947340428
 30
0.0
 10
132.7764758894222
 20
-14.52248771244336
 30
0.0
 10
132.9479231932845
 20
-17.71483810685456
 30
0.0
 10
133.1418614083865
 20
-21.32596947798413
 30
0.0
 10
131.4035403271349
 20
-25.76811795007804
 30
0.0
 10
129.2708569750938
 20
-28.67978331605378
 30
0.0
 10
126.4249121036647
 20
-32.5652354661283
 30
0.0
 10
120.6781490873236
 20
-34.74509885956833
 30
0.0
 10
115.8876610097872
 20
-36.36518297929914
 30
0.0
 10
111.601918907061
 20
-37.81456822136808
 30
0.0
 10
106.8139806611358
 20
-37.9983151863448
 30
0.0
 10
102.2394512629894
 20
-38.4521665085425
 30
0.0
 10
98.46903180665288
 20
-38.82623992824587
 30
0.0
 10
94.62337943673015
 20
-38.53842552075646
 30
0.0
 10
90.87698538155334
 20
-39.08157423958414
 30
0.0
 10
88.93059074897862
 20
-39.36376071955552
 30
0.0
 10
86.99528835867484
 20
-39.73592395285374
 30
0.0
 10
85.07107821064201
 20
-40.1980639394788
 30
0.0
  0
LINE
  5
13D
330
1F
100
AcDbEntity
  8
0
  6
K5LT32773
 62
    30
420
 16744448
100
AcDbLine
 10
222.490102097048
 20
97.9707967981596
 30
0.0
 11
222.490102097048
 21
56.96710579019833
 31
0.0
  0
LINE
  5
13E
330
1F
100
AcDbEntity
  8
0
  6
K5LT32773
 62
    30
420
 16744448
100
AcDbLine
 10
227.4908850548867
 20
89.61299397700895
 30
0.0
 11
227.4908850548867
 21
59.38599052965407
 31
0.0
  0
LINE
  5
13F
330
1F
100
AcDbEntity
  8
0
  6
K5LT32773
 62
    30
420
 16744448
100
AcDbLine
 10
220.272130423477
 20
44.7220417599313
 30
0.0
 11
214.490102097048
 21
44.7220417599313
 31
0.0
  0
LINE
  5
140
330
1F
100
AcDbEntity
  8
0
  6
K5LT32773
 62
    30
420
 16744448
100
AcDbLine
 10
214.490102097048
 20
44.7220417599313
 30
0.0
 11
214.490102097048
 21
54.7220417599313
 31
0.0
  0
LINE
  5
141
330
1F
100
AcDbEntity
  8
0
  6
K5LT32773
 62
    30
420
 16744448
100
AcDbLine
 10
214.490102097048
 20
54.7220417599313
 30
0.0
 11
220.2450380667806
 21
54.7220417599313
 31
0.0
  0
LINE
  5
142
330
1F
100
AcDbEntity
  8
0
  6
K5LT32773
 62
    30
420
 16744448
100
AcDbLine
 10
220.2450380667807
 20
-25.0871201699141
 30
0.0
 11
214.490102097048
 21
-25.0871201699141
 31
0.0
  0
LINE
  5
143
330
1F
100
AcDbEntity
  8
0
  6
K5LT32773
 62
    30
420
 16744448
100
AcDbLine
 10
214.490102097048
 20
-25.0871201699141
 30
0.0
 11
214.490102097048
 21
-15.0871201699141
 31
0.0
  0
LINE
  5
144
330
1F
100
AcDbEntity
  8
0
  6
K5LT32773
 62
    30
420
 16744448
100
AcDbLine
 10
214.490102097048
 20
-15.0871201699141
 30
0.0
 11
220.2450380667807
 21
-15.0871201699141
 31
0.0
  0
LINE
  5
145
330
1F
100
AcDbEntity
  8
0
  6
K5LT32773
 62
    30
420
 16744448
100
AcDbLine
 10
222.490102097048
 20
42.50407008636036
 30
0.0
 11
222.490102097048
 21
-12.84205613964662
 31
0.0
  0
LINE
  5
146
330
1F
100
AcDbEntity
  8
0
  6
K5LT32773
 62
    30
420
 16744448
100
AcDbLine
 10
222.490102097048
 20
-27.33218420018139
 30
0.0
 11
222.490102097048
 21
-35.0292032018404
 31
0.0
  0
SPLINE
  5
147
330
1F
100
AcDbEntity
  8
0
  6
K5LT32773
 62
    30
420
 16744448
100
AcDbSpline
210
0.0
220
0.0
230
1.0
 70
     8
 71
     3
 72
    17
 73
    13
 74
     0
 42
0.0
 43
0.0
 12
1.0
 22
0.0
 32
0.0
 13
1.0
 23
0.0
 33
0.0
 40
0.0
 40
0.0
 40
0.0
 40
0.0
 40
1.0
 40
1.0
 40
1.0
 40
2.0
 40
2.0
 40
2.0
 40
3.0
 40
3.0
 40
3.0
 40
4.0
 40
4.0
 40
4.0
 40
4.0
 10
222.490102097048
 20
97.9707967981596
 30
0.0
 10
224.3552994082339
 20
100.4052648225223
 30
0.0
 10
226.4548260736373
 20
102.1715956755945
 30
0.0
 10
228.788682093258
 20
103.2697893573759
 30
0.0
 10
232.8623061601919
 20
105.1866292029576
 30
0.0
 10
239.1504900297492
 20
104.8490504252244
 30
0.0
 10
243.1512695286008
 20
102.9136921482352
 30
0.0
 10
246.4001732741662
 20
101.342050232722
 30
0.0
 10
249.5156449732036
 20
97.89360335528363
 30
0.0
 10
251.3415053388376
 20
94.60475726828483
 30
0.0
 10
252.9772647162231
 20
91.65833215887197
 30
0.0
 10
253.8872909173606
 20
88.29519185032062
 30
0.0
 10
254.0715839422499
 20
84.51533634263079
 30
0.0
  0
SPLINE
  5
148
330
1F
100
AcDbEntity
  8
0
  6
K5LT32773
 62
    30
420
 16744448
100
AcDbSpline
210
0.0
220
0.0
230
1.0
 70
     8
 71
     3
 72
    20
 73
    16
 74
     0
 42
0.0
 43
0.0
 12
1.0
 22
0.0
 32
0.0
 13
1.0
 23
0.0
 33
0.0
 40
0.0
 40
0.0
 40
0.0
 40
0.0
 40
1.0
 40
1.0
 40
1.0
 40
2.0
 40
2.0
 40
2.0
 40
3.0
 40
3.0
 40
3.0
 40
4.0
 40
4.0
 40
4.0
 40
5.0
 40
5.0
 40
5.0
 40
5.0
 10
227.4908850548867
 20
95.62295271736627
 30
0.0
 10
228.4885479055599
 20
97.46865046136712
 30
0.0
 10
229.616884340946
 20
98.51810516117709
 30
0.0
 10
230.8758943610452
 20
98.77131681679617
 30
0.0
 10
232.2783819751775
 20
99.05338463602746
 30
0.0
 10
234.4773063467406
 20
97.79534884822046
 30
0.0
 10
235.569819018377
 20
96.65332642263424
 30
0.0
 10
236.7567940992731
 20
95.41256080390231
 30
0.0
 10
237.0728305376543
 20
93.19743262249281
 30
0.0
 10
237.458837478035
 20
91.3869719290424
 30
0.0
 10
237.7763609965109
 20
89.89771412222709
 30
0.0
 10
237.4882095003974
 20
88.24639989425506
 30
0.0
 10
237.9167813470429
 20
86.80753323896255
 30
0.0
 10
238.4252286298059
 20
85.10049660818986
 30
0.0
 10
239.3220353732799
 20
83.5167740612039
 30
0.0
 10
240.6072015774648
 20
82.0563655980047
 30
0.0
  0
SPLINE
  5
149
330
1F
100
AcDbEntity
  8
0
  6
K5LT32773
 62
    30
420
 16744448
100
AcDbSpline
210
0.0
220
0.0
230
1.0
 70
     8
 71
     3
 72
    20
 73
    16
 74
     0
 42
0.0
 43
0.0
 12
1.0
 22
0.0
 32
0.0
 13
1.0
 23
0.0
 33
0.0
 40
0.0
 40
0.0
 40
0.0
 40
0.0
 40
1.0
 40
1.0
 40
1.0
 40
2.0
 40
2.0
 40
2.0
 40
3.0
 40
3.0
 40
3.0
 40
4.0
 40
4.0
 40
4.0
 40
5.0
 40
5.0
 40
5.0
 40
5.0
 10
227.4908850548867
 20
95.62295271736627
 30
0.0
 10
228.4832076358796
 20
95.86524366682049
 30
0.0
 10
229.2871671640517
 20
95.80800068319449
 30
0.0
 10
229.9027636394032
 20
95.45122376648827
 30
0.0
 10
230.6077371507669
 20
95.04264723004806
 30
0.0
 10
231.1972408328937
 20
93.88590796869276
 30
0.0
 10
231.2765952464271
 20
93.04701845419635
 30
0.0
 10
231.3544086508688
 20
92.22441960724142
 30
0.0
 10
230.9876349789536
 20
91.08668529786199
 30
0.0
 10
230.4179504920372
 20
90.47108419102643
 30
0.0
 10
229.9452687328673
 20
89.9603042403541
 30
0.0
 10
229.0914848062722
 20
89.4600959197188
 30
0.0
 10
228.4144460651272
 20
89.44071048575847
 30
0.0
 10
228.1084722095978
 20
89.4319496341122
 30
0.0
 10
227.8006185395176
 20
89.48937746452906
 30
0.0
 10
227.4908850548867
 20
89.612993977009
 30
0.0
  0
SPLINE
  5
14A
330
1F
100
AcDbEntity
  8
0
  6
K5LT32773
 62
    30
420
 16744448
100
AcDbSpline
210
0.0
220
0.0
230
1.0
 70
     8
 71
     3
 72
    14
 73
    10
 74
     0
 42
0.0
 43
0.0
 12
1.0
 22
0.0
 32
0.0
 13
1.0
 23
0.0
 33
0.0
 40
0.0
 40
0.0
 40
0.0
 40
0.0
 40
1.0
 40
1.0
 40
1.0
 40
2.0
 40
2.0
 40
2.0
 40
3.0
 40
3.0
 40
3.0
 40
3.0
 10
254.0715839422499
 20
84.51533634263079
 30
0.0
 10
255.0794768212712
 20
85.71536764670316
 30
0.0
 10
255.6017257425868
 20
86.94992426013603
 30
0.0
 10
255.6383307061967
 20
88.21900618292939
 30
0.0
 10
255.6668937454362
 20
89.20927726050911
 30
0.0
 10
255.2153181185325
 20
90.28417858478561
 30
0.0
 10
254.8369289354328
 20
91.25288431510728
 30
0.0
 10
254.5035226030764
 20
92.10643044989186
 30
0.0
 10
254.0837407231525
 20
92.92691321519784
 30
0.0
 10
253.5775832956608
 20
93.71433261102521
 30
0.0
  0
SPLINE
  5
14B
330
1F
100
AcDbEntity
  8
0
  6
K5LT32773
 62
    30
420
 16744448
100
AcDbSpline
210
0.0
220
0.0
230
1.0
 70
     8
 71
     3
 72
    14
 73
    10
 74
     0
 42
0.0
 43
0.0
 12
1.0
 22
0.0
 32
0.0
 13
1.0
 23
0.0
 33
0.0
 40
0.0
 40
0.0
 40
0.0
 40
0.0
 40
1.0
 40
1.0
 40
1.0
 40
2.0
 40
2.0
 40
2.0
 40
3.0
 40
3.0
 40
3.0
 40
3.0
 10
253.5775832956608
 20
93.71433261102521
 30
0.0
 10
255.4896008879303
 20
93.47307145411226
 30
0.0
 10
256.8634324949542
 20
92.78615565060029
 30
0.0
 10
257.6990781167327
 20
91.65358520048927
 30
0.0
 10
258.3464496684867
 20
90.77618708979395
 30
0.0
 10
258.577334267782
 20
89.39241652853242
 30
0.0
 10
258.6722088383746
 20
88.21900618292939
 30
0.0
 10
258.7254780276068
 20
87.56017192042376
 30
0.0
 10
258.7063970330648
 20
86.89233711145376
 30
0.0
 10
258.6149658547486
 20
86.21550175601945
 30
0.0
  0
SPLINE
  5
14C
330
1F
100
AcDbEntity
  8
0
  6
K5LT32773
 62
    30
420
 16744448
100
AcDbSpline
210
0.0
220
0.0
230
1.0
 70
     8
 71
     3
 72
    29
 73
    25
 74
     0
 42
0.0
 43
0.0
 12
1.0
 22
0.0
 32
0.0
 13
1.0
 23
0.0
 33
0.0
 40
0.0
 40
0.0
 40
0.0
 40
0.0
 40
1.0
 40
1.0
 40
1.0
 40
2.0
 40
2.0
 40
2.0
 40
3.0
 40
3.0
 40
3.0
 40
4.0
 40
4.0
 40
4.0
 40
5.0
 40
5.0
 40
5.0
 40
6.0
 40
6.0
 40
6.0
 40
7.0
 40
7.0
 40
7.0
 40
8.0
 40
8.0
 40
8.0
 40
8.0
 10
258.6149658547486
 20
86.21550175601945
 30
0.0
 10
260.1132837898446
 20
86.49100438696622
 30
0.0
 10
261.4298724132425
 20
86.37651841971423
 30
0.0
 10
262.5647317249425
 20
85.87204385426347
 30
0.0
 10
263.816044630924
 20
85.31580262860676
 30
0.0
 10
265.1594305155679
 20
84.03246634700838
 30
0.0
 10
265.6558528407464
 20
82.78092273845957
 30
0.0
 10
266.1173838604705
 20
81.61734453380319
 30
0.0
 10
266.1739130123244
 20
79.8265392464617
 30
0.0
 10
265.6558528407464
 20
78.7166709010137
 30
0.0
 10
265.1270616457255
 20
77.58381290322987
 30
0.0
 10
263.6340019528624
 20
76.16501921638927
 30
0.0
 10
262.4502457576905
 20
76.08349365421779
 30
0.0
 10
261.5279736752868
 20
76.01997656319881
 30
0.0
 10
260.0234403987227
 20
76.58432170323277
 30
0.0
 10
259.4736106091386
 20
77.34283929398974
 30
0.0
 10
258.9723171399764
 20
78.03439861233579
 30
0.0
 10
258.5531148898613
 20
79.6127846030954
 30
0.0
 10
259.0729097237567
 20
80.26223145891565
 30
0.0
 10
259.3396795667542
 20
80.59554149677054
 30
0.0
 10
259.9377564776116
 20
80.943107441053
 30
0.0
 10
260.3894983471546
 20
81.00639024605363
 30
0.0
 10
260.9959594538502
 20
81.0913470821209
 30
0.0
 10
261.6256322737362
 20
80.84329415307491
 30
0.0
 10
262.2785168068125
 20
80.26223145891565
 30
0.0
  0
SPLINE
  5
14D
330
1F
100
AcDbEntity
  8
0
  6
K5LT32773
 62
    30
420
 16744448
100
AcDbSpline
210
0.0
220
0.0
230
1.0
 70
     8
 71
     3
 72
    29
 73
    25
 74
     0
 42
0.0
 43
0.0
 12
1.0
 22
0.0
 32
0.0
 13
1.0
 23
0.0
 33
0.0
 40
0.0
 40
0.0
 40
0.0
 40
0.0
 40
1.0
 40
1.0
 40
1.0
 40
2.0
 40
2.0
 40
2.0
 40
3.0
 40
3.0
 40
3.0
 40
4.0
 40
4.0
 40
4.0
 40
5.0
 40
5.0
 40
5.0
 40
6.0
 40
6.0
 40
6.0
 40
7.0
 40
7.0
 40
7.0
 40
8.0
 40
8.0
 40
8.0
 40
8.0
 10
262.2785168068125
 20
80.26223145891565
 30
0.0
 10
262.064812288444
 20
81.11426270227045
 30
0.0
 10
261.702273392146
 20
81.74393552215642
 30
0.0
 10
261.1909001179185
 20
82.15124991857358
 30
0.0
 10
260.4729650983116
 20
82.72309300055647
 30
0.0
 10
258.9876604701446
 20
82.79752489116254
 30
0.0
 10
258.1570219857406
 20
82.55195080395558
 30
0.0
 10
256.7899875013437
 20
82.14779393909863
 30
0.0
 10
256.2950306484791
 20
79.73964477907798
 30
0.0
 10
255.5238447389447
 20
78.25872703200571
 30
0.0
 10
253.8219557546059
 20
74.99056877172818
 30
0.0
 10
253.7651251189049
 20
70.89786308087947
 30
0.0
 10
251.9747797541329
 20
67.72601804482207
 30
0.0
 10
250.2723590133916
 20
64.70994367054125
 30
0.0
 10
247.4389158824091
 20
62.33359510631685
 30
0.0
 10
245.2201076862651
 20
59.59751436993033
 30
0.0
 10
243.1499327462082
 20
57.04471788022774
 30
0.0
 10
239.7021945928741
 20
54.95725542940858
 30
0.0
 10
239.0951084382833
 20
51.86971158042058
 30
0.0
 10
238.8589597961811
 20
50.66869705907835
 30
0.0
 10
238.3656216278553
 20
48.95274402729123
 30
0.0
 10
239.0378654546573
 20
48.03443167747871
 30
0.0
 10
239.4135104949193
 20
47.52128530727021
 30
0.0
 10
240.0050213257213
 20
47.12058442188822
 30
0.0
 10
240.8123979470632
 20
46.83232902133274
 30
0.0
  0
SPLINE
  5
14E
330
1F
100
AcDbEntity
  8
0
  6
K5LT32773
 62
    30
420
 16744448
100
AcDbSpline
210
0.0
220
0.0
230
1.0
 70
     8
 71
     3
 72
    26
 73
    22
 74
     0
 42
0.0
 43
0.0
 12
1.0
 22
0.0
 32
0.0
 13
1.0
 23
0.0
 33
0.0
 40
0.0
 40
0.0
 40
0.0
 40
0.0
 40
1.0
 40
1.0
 40
1.0
 40
2.0
 40
2.0
 40
2.0
 40
3.0
 40
3.0
 40
3.0
 40
4.0
 40
4.0
 40
4.0
 40
5.0
 40
5.0
 40
5.0
 40
6.0
 40
6.0
 40
6.0
 40
7.0
 40
7.0
 40
7.0
 40
7.0
 10
240.8123979470632
 20
46.83232902133274
 30
0.0
 10
240.2915352134674
 20
47.78381324529445
 30
0.0
 10
240.1388872571314
 20
48.62337700514242
 30
0.0
 10
240.3544540780552
 20
49.35102030087666
 30
0.0
 10
240.5760269912242
 20
50.0989370910988
 30
0.0
 10
241.50328297864
 20
51.11632096833475
 30
0.0
 10
242.1862295540872
 20
51.2400387605346
 30
0.0
 10
242.9380978501329
 20
51.37624192628142
 30
0.0
 10
244.2565611395977
 20
50.51365489589089
 30
0.0
 10
244.7049208336311
 20
49.80896416988465
 30
0.0
 10
245.2187866975125
 20
49.00131684228737
 30
0.0
 10
245.0440035574734
 20
47.45329041532005
 30
0.0
 10
244.7049208336311
 20
46.48887111957676
 30
0.0
 10
244.2543039644831
 20
45.20722633782778
 30
0.0
 10
242.7343053008321
 20
43.64036858698081
 30
0.0
 10
241.5565567342012
 20
43.39775000377286
 30
0.0
 10
240.2308037499654
 20
43.12464221164104
 30
0.0
 10
237.9609916182042
 20
44.33589564215408
 30
0.0
 10
237.0916040113733
 20
45.57298338156078
 30
0.0
 10
236.4790629753827
 20
46.44459346612327
 30
0.0
 10
236.1737670627107
 20
47.57037214410123
 30
0.0
 10
236.1757162733574
 20
48.95031941549468
 30
0.0
  0
SPLINE
  5
14F
330
1F
100
AcDbEntity
  8
0
  6
K5LT32773
 62
    30
420
 16744448
100
AcDbSpline
210
0.0
220
0.0
230
1.0
 70
     8
 71
     3
 72
    98
 73
    94
 74
     0
 42
0.0
 43
0.0
 12
1.0
 22
0.0
 32
0.0
 13
1.0
 23
0.0
 33
0.0
 40
0.0
 40
0.0
 40
0.0
 40
0.0
 40
1.0
 40
1.0
 40
1.0
 40
2.0
 40
2.0
 40
2.0
 40
3.0
 40
3.0
 40
3.0
 40
4.0
 40
4.0
 40
4.0
 40
5.0
 40
5.0
 40
5.0
 40
6.0
 40
6.0
 40
6.0
 40
7.0
 40
7.0
 40
7.0
 40
8.0
 40
8.0
 40
8.0
 40
9.0
 40
9.0
 40
9.0
 40
10.0
 40
10.0
 40
10.0
 40
11.0
 40
11.0
 40
11.0
 40
12.0
 40
12.0
 40
12.0
 40
13.0
 40
13.0
 40
13.0
 40
14.0
 40
14.0
 40
14.0
 40
15.0
 40
15.0
 40
15.0
 40
16.0
 40
16.0
 40
16.0
 40
17.0
 40
17.0
 40
17.0
 40
18.0
 40
18.0
 40
18.0
 40
19.0
 40
19.0
 40
19.0
 40
20.0
 40
20.0
 40
20.0
 40
21.0
 40
21.0
 40
21.0
 40
22.0
 40
22.0
 40
22.0
 40
23.0
 40
23.0
 40
23.0
 40
24.0
 40
24.0
 40
24.0
 40
25.0
 40
25.0
 40
25.0
 40
26.0
 40
26.0
 40
26.0
 40
27.0
 40
27.0
 40
27.0
 40
28.0
 40
28.0
 40
28.0
 40
29.0
 40
29.0
 40
29.0
 40
30.0
 40
30.0
 40
30.0
 40
31.0
 40
31.0
 40
31.0
 40
31.0
 10
236.1757162733574
 20
48.95031941549468
 30
0.0
 10
234.2550285352558
 20
46.05148816550809
 30
0.0
 10
232.9956828954839
 20
43.05577202241418
 30
0.0
 10
232.3976793540415
 20
39.96317098621296
 30
0.0
 10
231.5430558239231
 20
35.5434486407046
 30
0.0
 10
231.7058735493398
 20
29.69558022766453
 30
0.0
 10
233.8859969283174
 20
26.11036894872141
 30
0.0
 10
236.0996100964423
 20
22.47008373637728
 30
0.0
 10
241.4969820417739
 20
19.63402752320614
 30
0.0
 10
245.735294538899
 20
18.38256615921166
 30
0.0
 10
251.978375277388
 20
16.53914986043318
 30
0.0
 10
260.6525730655213
 20
18.10585650669367
 30
0.0
 10
266.3427686442584
 20
21.47368727501556
 30
0.0
 10
270.1007701862806
 20
23.69791894605282
 30
0.0
 10
274.0145126044252
 20
27.21491329573738
 30
0.0
 10
276.0740758606781
 20
31.20499449143524
 30
0.0
 10
277.0007011459526
 20
33.00018583358374
 30
0.0
 10
276.726906822227
 20
35.60378117316092
 30
0.0
 10
278.134823271214
 20
37.04377882128705
 30
0.0
 10
278.5048129698094
 20
37.42219921419582
 30
0.0
 10
278.9249723715716
 20
37.87450896701696
 30
0.0
 10
279.394168910986
 20
38.07415252655502
 30
0.0
 10
280.0876290060068
 20
38.36922043549648
 30
0.0
 10
281.1883602954256
 20
38.27454328353812
 30
0.0
 10
281.7983742232778
 20
38.01690954292902
 30
0.0
 10
283.1295526016
 20
37.45469866647809
 30
0.0
 10
282.8705601520112
 20
34.63228078663549
 30
0.0
 10
283.0577198630498
 20
32.92228400021519
 30
0.0
 10
283.4061902872973
 20
29.73846146533918
 30
0.0
 10
282.7597122867444
 20
26.19768700429651
 30
0.0
 10
281.6838882560259
 20
23.2482197674215
 30
0.0
 10
279.9166335242364
 20
18.40313378515024
 30
0.0
 10
275.65141356754
 20
13.90694379952087
 30
0.0
 10
271.3801512033462
 20
10.94097828783191
 30
0.0
 10
267.9797506460341
 20
8.579739403640927
 30
0.0
 10
263.6806641909384
 20
7.018586568231951
 30
0.0
 10
259.5880965763906
 20
6.018081695996067
 30
0.0
 10
255.903139894901
 20
5.117224957379687
 30
0.0
 10
251.8997371775163
 20
5.587870932184081
 30
0.0
 10
248.139499851191
 20
4.873222023476103
 30
0.0
 10
246.1973912348743
 20
4.504116117972162
 30
0.0
 10
244.1524061372306
 20
4.252961381891508
 30
0.0
 10
242.3579585049652
 20
3.499390416452151
 30
0.0
 10
240.0369984466967
 20
2.524712704822608
 30
0.0
 10
237.5774070041799
 20
0.970360080044028
 30
0.0
 10
236.0612303061053
 20
-0.9083193227497084
 30
0.0
 10
233.861642633987
 20
-3.63380643747407
 30
0.0
 10
233.6732913588628
 20
-8.023928284056115
 30
0.0
 10
233.1418381411794
 20
-11.67000024443736
 30
0.0
 10
232.502361328223
 20
-16.05717563345474
 30
0.0
 10
232.3413294310527
 20
-20.7636279555379
 30
0.0
 10
233.1418381411794
 20
-25.0871201699141
 30
0.0
 10
233.9492825261548
 20
-29.44807148477205
 30
0.0
 10
235.0781746759365
 20
-34.58654098644028
 30
0.0
 10
238.0074917493893
 20
-37.71555779426651
 30
0.0
 10
240.0222062473779
 20
-39.86762101210957
 30
0.0
 10
243.0223250556245
 20
-42.28361167961656
 30
0.0
 10
245.907023489777
 20
-42.63845438610235
 30
0.0
 10
247.8873925900153
 20
-42.88205681020663
 30
0.0
 10
250.4213541615256
 20
-42.51402420006144
 30
0.0
 10
252.2037516886368
 20
-41.55083769720839
 30
0.0
 10
253.8748980636929
 20
-40.64776999863805
 30
0.0
 10
255.4050895513276
 20
-38.93442827901956
 30
0.0
 10
256.3824894933347
 20
-37.25761392525853
 30
0.0
 10
257.3100804291925
 20
-35.66625124063311
 30
0.0
 10
256.7176366847651
 20
-33.05832802397843
 30
0.0
 10
258.0425360184886
 20
-31.8195304807887
 30
0.0
 10
258.4753751447815
 20
-31.41482045294006
 30
0.0
 10
259.0309715282234
 20
-30.94910995236679
 30
0.0
 10
259.5880965763906
 20
-30.78915677552074
 30
0.0
 10
260.3335047941371
 20
-30.57514663027962
 30
0.0
 10
261.4316348997446
 20
-30.78422626923072
 30
0.0
 10
262.0495448723085
 20
-31.13261467727672
 30
0.0
 10
263.2312808778628
 20
-31.79889802596169
 30
0.0
 10
263.2499397908776
 20
-34.17639773173919
 30
0.0
 10
263.3719912281357
 20
-35.69799584893497
 30
0.0
 10
263.5882221101372
 20
-38.39371586931816
 30
0.0
 10
262.1591724350764
 20
-41.25033763783898
 30
0.0
 10
261.0191711670406
 20
-43.78331405862231
 30
0.0
 10
259.8024831685057
 20
-46.48668123737003
 30
0.0
 10
258.2387848837969
 20
-49.35691671732582
 30
0.0
 10
256.1535175588307
 20
-51.33938789725407
 30
0.0
 10
253.2647605066878
 20
-54.08573966382214
 30
0.0
 10
248.7164923664558
 20
-56.1789398849439
 30
0.0
 10
244.8194068008831
 20
-56.4912564235939
 30
0.0
 10
241.0209046703953
 20
-56.79567238200363
 30
0.0
 10
236.4360565143615
 20
-55.35657260304967
 30
0.0
 10
233.0845951575535
 20
-53.40013530778999
 30
0.0
 10
229.3582571730662
 20
-51.22486135071923
 30
0.0
 10
225.6403933651783
 20
-47.43852512279569
 30
0.0
 10
223.9829607610197
 20
-43.43985615686633
 30
0.0
 10
222.9336368210081
 20
-40.90829073236362
 30
0.0
 10
222.4360172663509
 20
-38.10473974735498
 30
0.0
 10
222.490102097048
 20
-35.0292032018404
 30
0.0
  0
SPLINE
  5
150
330
1F
100
AcDbEntity
  8
0
  6
K5LT32773
 62
    30
420
 16744448
100
AcDbSpline
210
0.0
220
0.0
230
1.0
 70
     8
 71
     3
 72
    11
 73
     7
 74
     0
 42
0.0
 43
0.0
 12
1.0
 22
0.0
 32
0.0
 13
1.0
 23
0.0
 33
0.0
 40
0.0
 40
0.0
 40
0.0
 40
0.0
 40
1.0
 40
1.0
 40
1.0
 40
2.0
 40
2.0
 40
2.0
 40
2.0
 10
227.4908850548867
 20
36.9707967981596
 30
0.0
 10
227.8886027762915
 20
41.02788618755469
 30
0.0
 10
229.04751507935
 20
44.67480061242668
 30
0.0
 10
230.9676219640624
 20
47.91154007277559
 30
0.0
 10
232.1997440203475
 20
49.98853803122073
 30
0.0
 10
233.7453045782494
 20
51.89663748542068
 30
0.0
 10
235.6043036377683
 20
53.6358384353754
 30
0.0
  0
SPLINE
  5
151
330
1F
100
AcDbEntity
  8
0
  6
K5LT32773
 62
    30
420
 16744448
100
AcDbSpline
210
0.0
220
0.0
230
1.0
 70
     8
 71
     3
 72
    14
 73
    10
 74
     0
 42
0.0
 43
0.0
 12
1.0
 22
0.0
 32
0.0
 13
1.0
 23
0.0
 33
0.0
 40
0.0
 40
0.0
 40
0.0
 40
0.0
 40
1.0
 40
1.0
 40
1.0
 40
2.0
 40
2.0
 40
2.0
 40
3.0
 40
3.0
 40
3.0
 40
3.0
 10
235.6043036377683
 20
53.6358384353754
 30
0.0
 10
234.1396698742905
 20
54.11027735156039
 30
0.0
 10
233.176608639745
 20
54.85894185872287
 30
0.0
 10
232.7151199341317
 20
55.88183195686285
 30
0.0
 10
232.3921241142172
 20
56.59775245916882
 30
0.0
 10
232.3269633533008
 20
57.62408629523699
 30
0.0
 10
232.4832328753269
 20
58.43258960371583
 30
0.0
 10
232.6242644047695
 20
59.1622549708059
 30
0.0
 10
232.9555316316335
 20
59.85791614722035
 30
0.0
 10
233.477034555919
 20
60.51957313295918
 30
0.0
  0
SPLINE
  5
152
330
1F
100
AcDbEntity
  8
0
  6
K5LT32773
 62
    30
420
 16744448
100
AcDbSpline
210
0.0
220
0.0
230
1.0
 70
     8
 71
     3
 72
    14
 73
    10
 74
     0
 42
0.0
 43
0.0
 12
1.0
 22
0.0
 32
0.0
 13
1.0
 23
0.0
 33
0.0
 40
0.0
 40
0.0
 40
0.0
 40
0.0
 40
1.0
 40
1.0
 40
1.0
 40
2.0
 40
2.0
 40
2.0
 40
3.0
 40
3.0
 40
3.0
 40
3.0
 10
233.477034555919
 20
60.51957313295918
 30
0.0
 10
232.8726780230436
 20
60.02075671742568
 30
0.0
 10
232.2763970146884
 20
59.51281363623418
 30
0.0
 10
231.6881915308533
 20
58.99574388938468
 30
0.0
 10
230.8548568815256
 20
58.26319013391932
 30
0.0
 10
230.2150534396382
 20
57.1358104147662
 30
0.0
 10
229.2368140520595
 20
56.74312674670932
 30
0.0
 10
228.7028418967143
 20
56.52878029198291
 30
0.0
 10
228.1208655643234
 20
56.42115703452472
 30
0.0
 10
227.4908850548867
 20
56.42025697433473
 30
0.0
  0
SPLINE
  5
153
330
1F
100
AcDbEntity
  8
0
  6
K5LT32773
 62
    30
420
 16744448
100
AcDbSpline
210
0.0
220
0.0
230
1.0
 70
     8
 71
     3
 72
    26
 73
    22
 74
     0
 42
0.0
 43
0.0
 12
1.0
 22
0.0
 32
0.0
 13
1.0
 23
0.0
 33
0.0
 40
0.0
 40
0.0
 40
0.0
 40
0.0
 40
1.0
 40
1.0
 40
1.0
 40
2.0
 40
2.0
 40
2.0
 40
3.0
 40
3.0
 40
3.0
 40
4.0
 40
4.0
 40
4.0
 40
5.0
 40
5.0
 40
5.0
 40
6.0
 40
6.0
 40
6.0
 40
7.0
 40
7.0
 40
7.0
 40
7.0
 10
238.568828275281
 20
56.73036040637783
 30
0.0
 10
240.8082675857362
 20
58.89929850868329
 30
0.0
 10
242.7991114717016
 20
61.24450902529955
 30
0.0
 10
244.5413599331774
 20
63.76599195622663
 30
0.0
 10
245.8808704714214
 20
65.70460922733501
 30
0.0
 10
248.0087639374402
 20
67.67548172638443
 30
0.0
 10
248.1190459833089
 20
69.89443565321106
 30
0.0
 10
248.1795251495303
 20
71.11131989145011
 30
0.0
 10
248.0500008082301
 20
72.83322788931342
 30
0.0
 10
247.3240046388352
 20
73.70400876214732
 30
0.0
 10
246.547871543103
 20
74.63492531932461
 30
0.0
 10
244.7200586633726
 20
75.14674738231055
 30
0.0
 10
243.4150513618397
 20
75.12845783766264
 30
0.0
 10
242.2351851039707
 20
75.1119221320183
 30
0.0
 10
240.9006837151856
 20
74.53777625821434
 30
0.0
 10
239.8704920343947
 20
73.86964237557935
 30
0.0
 10
239.0873885010478
 20
73.361758246833
 30
0.0
 10
238.2930877078257
 20
72.66642983684915
 30
0.0
 10
237.7835085051513
 20
71.91516573708161
 30
0.0
 10
236.8197190613533
 20
70.49426707194715
 30
0.0
 10
236.5215785571757
 20
68.71646628777688
 30
0.0
 10
236.8890869926185
 20
66.58176338457082
 30
0.0
  0
SPLINE
  5
154
330
1F
100
AcDbEntity
  8
0
  6
K5LT32773
 62
    30
420
 16744448
100
AcDbSpline
210
0.0
220
0.0
230
1.0
 70
     8
 71
     3
 72
    23
 73
    19
 74
     0
 42
0.0
 43
0.0
 12
1.0
 22
0.0
 32
0.0
 13
1.0
 23
0.0
 33
0.0
 40
0.0
 40
0.0
 40
0.0
 40
0.0
 40
1.0
 40
1.0
 40
1.0
 40
2.0
 40
2.0
 40
2.0
 40
3.0
 40
3.0
 40
3.0
 40
4.0
 40
4.0
 40
4.0
 40
5.0
 40
5.0
 40
5.0
 40
6.0
 40
6.0
 40
6.0
 40
6.0
 10
236.8890869926185
 20
66.58176338457082
 30
0.0
 10
237.2365718467679
 20
67.59981465306966
 30
0.0
 10
237.7224304461685
 20
68.21818014321583
 30
0.0
 10
238.3466627908202
 20
68.43685985500936
 30
0.0
 10
238.9780539271409
 20
68.65804741906715
 30
0.0
 10
240.1098345962059
 20
68.31312243068362
 30
0.0
 10
240.6655333788683
 20
67.87370556934052
 30
0.0
 10
241.3230631471392
 20
67.35376621365407
 30
0.0
 10
241.8731507520407
 20
66.04076094275189
 30
0.0
 10
241.7255885048332
 20
65.25669447711473
 30
0.0
 10
241.5833947182456
 20
64.50115312561623
 30
0.0
 10
240.6863248136571
 20
63.5497547377924
 30
0.0
 10
239.9036187570811
 20
63.23596439324419
 30
0.0
 10
239.35909464091
 20
63.0176622495562
 30
0.0
 10
238.6436171288752
 20
63.0855473482327
 30
0.0
 10
238.0153955639561
 20
63.10345750249858
 30
0.0
 10
237.5066746629581
 20
63.11796077701818
 30
0.0
 10
236.9987315817665
 20
63.17317198149552
 30
0.0
 10
236.4915663203816
 20
63.26909111593059
 30
0.0
  0
SPLINE
  5
155
330
1F
100
AcDbEntity
  8
0
  6
K5LT32773
 62
    30
420
 16744448
100
AcDbSpline
210
0.0
220
0.0
230
1.0
 70
     8
 71
     3
 72
    14
 73
    10
 74
     0
 42
0.0
 43
0.0
 12
1.0
 22
0.0
 32
0.0
 13
1.0
 23
0.0
 33
0.0
 40
0.0
 40
0.0
 40
0.0
 40
0.0
 40
1.0
 40
1.0
 40
1.0
 40
2.0
 40
2.0
 40
2.0
 40
3.0
 40
3.0
 40
3.0
 40
3.0
 10
236.4915663203816
 20
63.26909111593059
 30
0.0
 10
237.8487076137395
 20
62.60543991500302
 30
0.0
 10
238.687917921795
 20
61.73310288426109
 30
0.0
 10
239.0091972445482
 20
60.6520800237048
 30
0.0
 10
239.2084909847528
 20
59.98150749111637
 30
0.0
 10
239.1170282991871
 20
59.1346670298791
 30
0.0
 10
239.0091972445482
 20
58.39946288102944
 30
0.0
 10
238.9262355730789
 20
57.8338209584499
 30
0.0
 10
238.7794459166565
 20
57.27745346689933
 30
0.0
 10
238.5688282752809
 20
56.7303604063777
 30
0.0
  0
SPLINE
  5
156
330
1F
100
AcDbEntity
  8
0
  6
K5LT32773
 62
    30
420
 16744448
100
AcDbSpline
210
0.0
220
0.0
230
1.0
 70
     8
 71
     3
 72
    20
 73
    16
 74
     0
 42
0.0
 43
0.0
 12
1.0
 22
0.0
 32
0.0
 13
1.0
 23
0.0
 33
0.0
 40
0.0
 40
0.0
 40
0.0
 40
0.0
 40
1.0
 40
1.0
 40
1.0
 40
2.0
 40
2.0
 40
2.0
 40
3.0
 40
3.0
 40
3.0
 40
4.0
 40
4.0
 40
4.0
 40
5.0
 40
5.0
 40
5.0
 40
5.0
 10
227.4908850548613
 20
59.38599052967637
 30
0.0
 10
228.2193593403622
 20
59.63365507243546
 30
0.0
 10
228.8534192472383
 20
59.96421582609005
 30
0.0
 10
229.3930647754894
 20
60.37767279064015
 30
0.0
 10
231.2162595097638
 20
61.77453892063435
 30
0.0
 10
230.7244041213539
 20
65.12892151169416
 30
0.0
 10
231.6296293273124
 20
67.40687566779796
 30
0.0
 10
232.7635689980651
 20
70.26037838597205
 30
0.0
 10
233.4649709128378
 20
73.86528612603503
 30
0.0
 10
235.7832492092693
 20
75.66086389476357
 30
0.0
 10
236.9366572221132
 20
76.5542138386956
 30
0.0
 10
238.475849443431
 20
77.48255007310433
 30
0.0
 10
239.9368690912262
 20
77.63117076184568
 30
0.0
 10
240.9971240841204
 20
77.73902408710602
 30
0.0
 10
242.0976558477158
 20
77.57926947626153
 30
0.0
 10
243.2384643820124
 20
77.1519069293122
 30
0.0
  0
SPLINE
  5
157
330
1F
100
AcDbEntity
  8
0
  6
K5LT32773
 62
    30
420
 16744448
100
AcDbSpline
210
0.0
220
0.0
230
1.0
 70
     8
 71
     3
 72
    14
 73
    10
 74
     0
 42
0.0
 43
0.0
 12
1.0
 22
0.0
 32
0.0
 13
1.0
 23
0.0
 33
0.0
 40
0.0
 40
0.0
 40
0.0
 40
0.0
 40
1.0
 40
1.0
 40
1.0
 40
2.0
 40
2.0
 40
2.0
 40
3.0
 40
3.0
 40
3.0
 40
3.0
 10
243.2384643820124
 20
77.1519069293122
 30
0.0
 10
242.1743632616062
 20
78.06153784704199
 30
0.0
 10
241.035850119055
 20
78.79493881831664
 30
0.0
 10
239.8229249543588
 20
79.35210984313612
 30
0.0
 10
238.0840492244204
 20
80.15088226593944
 30
0.0
 10
236.0200587628932
 20
80.84785780397786
 30
0.0
 10
234.1474871674289
 20
80.66182625550455
 30
0.0
 10
233.0451084463438
 20
80.5523098979008
 30
0.0
 10
231.9493979837087
 20
80.22702085430602
 30
0.0
 10
230.8603557795238
 20
79.68595912472023
 30
0.0
  0
SPLINE
  5
158
330
1F
100
AcDbEntity
  8
0
  6
K5LT32773
 62
    30
420
 16744448
100
AcDbSpline
210
0.0
220
0.0
230
1.0
 70
     8
 71
     3
 72
    11
 73
     7
 74
     0
 42
0.0
 43
0.0
 12
1.0
 22
0.0
 32
0.0
 13
1.0
 23
0.0
 33
0.0
 40
0.0
 40
0.0
 40
0.0
 40
0.0
 40
1.0
 40
1.0
 40
1.0
 40
2.0
 40
2.0
 40
2.0
 40
2.0
 10
230.8603557795238
 20
79.68595912472023
 30
0.0
 10
232.0975050222047
 20
81.57419953444632
 30
0.0
 10
233.5185045284345
 20
82.72127142501736
 30
0.0
 10
235.1233542982132
 20
83.12717479643337
 30
0.0
 10
236.7600777597589
 20
83.54113975666056
 30
0.0
 10
238.5880268528427
 20
83.18420335718433
 30
0.0
 10
240.6072015774648
 20
82.0563655980047
 30
0.0
  0
SPLINE
  5
159
330
1F
100
AcDbEntity
  8
0
  6
K5LT32773
 62
    30
420
 16744448
100
AcDbSpline
210
0.0
220
0.0
230
1.0
 70
     8
 71
     3
 72
    14
 73
    10
 74
     0
 42
0.0
 43
0.0
 12
1.0
 22
0.0
 32
0.0
 13
1.0
 23
0.0
 33
0.0
 40
0.0
 40
0.0
 40
0.0
 40
0.0
 40
1.0
 40
1.0
 40
1.0
 40
2.0
 40
2.0
 40
2.0
 40
3.0
 40
3.0
 40
3.0
 40
3.0
 10
239.2256141953931
 20
98.95405622405174
 30
0.0
 10
239.7311700472088
 20
97.25268235055024
 30
0.0
 10
240.1601407444677
 20
95.53679956151464
 30
0.0
 10
240.5125262871697
 20
93.80640785694493
 30
0.0
 10
241.0831470259889
 20
91.00437067534878
 30
0.0
 10
240.4414364917756
 20
87.72369034235662
 30
0.0
 10
241.6219332628393
 20
85.28616228380262
 30
0.0
 10
242.8722101516873
 20
82.70454997258696
 30
0.0
 10
245.0318557309907
 20
80.57448857930139
 30
0.0
 10
248.1008700007496
 20
78.8959781039459
 30
0.0
  0
SPLINE
  5
15A
330
1F
100
AcDbEntity
  8
0
  6
K5LT32773
 62
    30
420
 16744448
100
AcDbSpline
210
0.0
220
0.0
230
1.0
 70
     8
 71
     3
 72
    20
 73
    16
 74
     0
 42
0.0
 43
0.0
 12
1.0
 22
0.0
 32
0.0
 13
1.0
 23
0.0
 33
0.0
 40
0.0
 40
0.0
 40
0.0
 40
0.0
 40
1.0
 40
1.0
 40
1.0
 40
2.0
 40
2.0
 40
2.0
 40
3.0
 40
3.0
 40
3.0
 40
4.0
 40
4.0
 40
4.0
 40
5.0
 40
5.0
 40
5.0
 40
5.0
 10
248.1008700007496
 20
78.8959781039459
 30
0.0
 10
246.6904668329194
 20
79.95733532467833
 30
0.0
 10
245.8177333453927
 20
81.19987113742825
 30
0.0
 10
245.4826695381694
 20
82.62358554219564
 30
0.0
 10
245.3095468866781
 20
83.35919830432087
 30
0.0
 10
245.0475729928838
 20
84.41867519743727
 30
0.0
 10
245.3939169801159
 20
84.97552833061513
 30
0.0
 10
245.7268903184448
 20
85.51088408543855
 30
0.0
 10
246.8380860012322
 20
86.0014964796505
 30
0.0
 10
247.4352258153479
 20
85.95180646920436
 30
0.0
 10
248.2839209516344
 20
85.88118369512236
 30
0.0
 10
249.0021102233728
 20
84.39144058729178
 30
0.0
 10
249.4765346505799
 20
83.46673484370451
 30
0.0
 10
250.1095106790631
 20
82.23299447216169
 30
0.0
 10
250.3757683532238
 20
80.82774563631357
 30
0.0
 10
250.275307673062
 20
79.25098833616015
 30
0.0
  0
SPLINE
  5
15B
330
1F
100
AcDbEntity
  8
0
  6
K5LT32773
 62
    30
420
 16744448
100
AcDbSpline
210
0.0
220
0.0
230
1.0
 70
     8
 71
     3
 72
    17
 73
    13
 74
     0
 42
0.0
 43
0.0
 12
1.0
 22
0.0
 32
0.0
 13
1.0
 23
0.0
 33
0.0
 40
0.0
 40
0.0
 40
0.0
 40
0.0
 40
1.0
 40
1.0
 40
1.0
 40
2.0
 40
2.0
 40
2.0
 40
3.0
 40
3.0
 40
3.0
 40
4.0
 40
4.0
 40
4.0
 40
4.0
 10
250.275307673062
 20
79.25098833616015
 30
0.0
 10
250.8900829338891
 20
81.07759817581618
 30
0.0
 10
251.111964329023
 20
82.85264933688748
 30
0.0
 10
250.9409518584637
 20
84.57614181937409
 30
0.0
 10
250.7227357031769
 20
86.7753609872157
 30
0.0
 10
249.6060571443584
 20
89.06285967683583
 30
0.0
 10
248.3671276749103
 20
90.92194972020404
 30
0.0
 10
247.0783194171685
 20
92.85588596021125
 30
0.0
 10
245.0765644598705
 20
94.3651151543103
 30
0.0
 10
243.2638555868303
 20
95.89209297120371
 30
0.0
 10
241.9742664212681
 20
96.97840863832837
 30
0.0
 10
240.6281859574557
 20
97.99906305594439
 30
0.0
 10
239.2256141953931
 20
98.95405622405174
 30
0.0
  0
LINE
  5
15C
330
1F
100
AcDbEntity
  8
0
  6
K5LT32773
 62
    30
420
 16744448
100
AcDbLine
 10
227.4908850548867
 20
56.42025697433473
 30
0.0
 11
227.4908850548867
 21
36.9707967981596
 31
0.0
  0
CIRCLE
  5
15D
330
1F
100
AcDbEntity
  8
0
  6
K5LT32773
 62
    30
420
 16744448
100
AcDbCircle
 10
-112.0681938243575
 20
109.2920389874789
 30
0.0
 40
1.5875
  0
ARC
  5
15E
330
1F
100
AcDbEntity
  8
0
  6
K5LT32773
 62
    30
420
 16744448
100
AcDbCircle
 10
221.3675700819143
 20
55.84457377506494
 30
0.0
 40
1.587500000000009
100
AcDbArc
 50
224.9999999999996
 51
44.99999999999176
  0
ARC
  5
15F
330
1F
100
AcDbEntity
  8
0
  6
K5LT32773
 62
    30
420
 16744448
100
AcDbCircle
 10
221.3811162602625
 20
43.61305592314583
 30
0.0
 40
1.568342810861695
100
AcDbArc
 50
315.0000000000002
 51
135.0000000000002
  0
ARC
  5
160
330
1F
100
AcDbEntity
  8
0
  6
K5LT32773
 62
    30
420
 16744448
100
AcDbCircle
 10
221.3675700819144
 20
-13.96458815478045
 30
0.0
 40
1.58750000000001
100
AcDbArc
 50
224.9999999999997
 51
45.00000000000453
  0
ARC
  5
161
330
1F
100
AcDbEntity
  8
0
  6
K5LT32773
 62
    30
420
 16744448
100
AcDbCircle
 10
221.3675700819144
 20
-26.20965218504775
 30
0.0
 40
1.587500000000009
100
AcDbArc
 50
315.0000000000003
 51
135.0000000000002
  0
ARC
  5
162
330
1F
100
AcDbEntity
  8
0
  6
K5LT32773
 62
    30
420
 16744448
100
AcDbCircle
 10
74.49198767603852
 20
53.59950974479766
 30
0.0
 40
1.587499999999999
100
AcDbArc
 50
56.44510074519776
 51
224.9999999999999
  0
ARC
  5
163
330
1F
100
AcDbEntity
  8
0
  6
K5LT32773
 62
    30
420
 16744448
100
AcDbCircle
 10
76.24692364577123
 20
53.59950974479766
 30
0.0
 40
1.587499999999999
100
AcDbArc
 50
315.0
 51
123.5548992548023
  0
ARC
  5
164
330
1F
100
AcDbEntity
  8
0
  6
K5LT32773
 62
    30
420
 16744448
100
AcDbCircle
 10
74.49198767603852
 20
45.84457377506494
 30
0.0
 40
1.587499999999999
100
AcDbArc
 50
134.9999999999999
 51
303.5548992548017
  0
ARC
  5
165
330
1F
100
AcDbEntity
  8
0
  6
K5LT32773
 62
    30
420
 16744448
100
AcDbCircle
 10
76.24692364577122
 20
45.84457377506494
 30
0.0
 40
1.587499999999999
100
AcDbArc
 50
236.4451007451979
 51
45.0
  0
ARC
  5
166
330
1F
100
AcDbEntity
  8
0
  6
K5LT32773
 62
    30
420
 16744448
100
AcDbCircle
 10
74.49198767603852
 20
-16.20965218504774
 30
0.0
 40
1.587499999999999
100
AcDbArc
 50
56.44510074519778
 51
224.9999999999999
  0
ARC
  5
167
330
1F
100
AcDbEntity
  8
0
  6
K5LT32773
 62
    30
420
 16744448
100
AcDbCircle
 10
74.49198767603852
 20
-23.96458815478046
 30
0.0
 40
1.587499999999999
100
AcDbArc
 50
135.0
 51
303.5548992548023
  0
ARC
  5
168
330
1F
100
AcDbEntity
  8
0
  6
K5LT32773
 62
    30
420
 16744448
100
AcDbCircle
 10
76.24692364577123
 20
-23.96458815478045
 30
0.0
 40
1.587499999999999
100
AcDbArc
 50
236.4451007451979
 51
44.99999999999984
  0
ARC
  5
169
330
1F
100
AcDbEntity
  8
0
  6
K5LT32773
 62
    30
420
 16744448
100
AcDbCircle
 10
76.24692364577123
 20
-16.20965218504774
 30
0.0
 40
1.587499999999999
100
AcDbArc
 50
315.0
 51
123.5548992548022
  0
LINE
  5
16A
330
1F
100
AcDbEntity
  8
0
  6
K5LT32773
 62
    30
420
 16744448
100
AcDbLine
 10
-114.0681938243575
 20
46.96710579019859
 30
0.0
 11
-114.0681938243575
 21
52.47697772966401
 31
0.0
  0
LINE
  5
16B
330
1F
100
AcDbEntity
  8
0
  6
K5LT32773
 62
    30
420
 16744448
100
AcDbLine
 10
-110.0681938243575
 20
52.47697772966401
 30
0.0
 11
-110.0681938243575
 21
46.96710579019859
 31
0.0
  0
ARC
  5
16C
330
1F
100
AcDbEntity
  8
0
  6
K5LT32773
 62
    30
420
 16744448
100
AcDbCircle
 10
-112.9456618092239
 20
53.59950974479766
 30
0.0
 40
1.587499999999999
100
AcDbArc
 50
56.44510074519776
 51
224.9999999999999
  0
ARC
  5
16D
330
1F
100
AcDbEntity
  8
0
  6
K5LT32773
 62
    30
420
 16744448
100
AcDbCircle
 10
-111.1907258394912
 20
53.59950974479766
 30
0.0
 40
1.587499999999999
100
AcDbArc
 50
315.0
 51
123.5548992548023
  0
ARC
  5
16E
330
1F
100
AcDbEntity
  8
0
  6
K5LT32773
 62
    30
420
 16744448
100
AcDbCircle
 10
-112.9456618092239
 20
45.84457377506494
 30
0.0
 40
1.587499999999999
100
AcDbArc
 50
134.9999999999999
 51
303.5548992548017
  0
ARC
  5
16F
330
1F
100
AcDbEntity
  8
0
  6
K5LT32773
 62
    30
420
 16744448
100
AcDbCircle
 10
-111.1907258394912
 20
45.84457377506494
 30
0.0
 40
1.587499999999999
100
AcDbArc
 50
236.4451007451979
 51
45.0
  0
LINE
  5
170
330
1F
100
AcDbEntity
  8
0
  6
K5LT32773
 62
    30
420
 16744448
100
AcDbLine
 10
-114.0681938243575
 20
-22.84205613964681
 30
0.0
 11
-114.0681938243575
 21
-17.33218420018138
 31
0.0
  0
LINE
  5
171
330
1F
100
AcDbEntity
  8
0
  6
K5LT32773
 62
    30
420
 16744448
100
AcDbLine
 10
-110.0681938243575
 20
-17.33218420018138
 30
0.0
 11
-110.0681938243575
 21
-22.84205613964681
 31
0.0
  0
ARC
  5
172
330
1F
100
AcDbEntity
  8
0
  6
K5LT32773
 62
    30
420
 16744448
100
AcDbCircle
 10
-112.9456618092239
 20
-16.20965218504774
 30
0.0
 40
1.587499999999999
100
AcDbArc
 50
56.44510074519778
 51
224.9999999999999
  0
ARC
  5
173
330
1F
100
AcDbEntity
  8
0
  6
K5LT32773
 62
    30
420
 16744448
100
AcDbCircle
 10
-112.9456618092239
 20
-23.96458815478046
 30
0.0
 40
1.587499999999999
100
AcDbArc
 50
135.0
 51
303.5548992548023
  0
ARC
  5
174
330
1F
100
AcDbEntity
  8
0
  6
K5LT32773
 62
    30
420
 16744448
100
AcDbCircle
 10
-111.1907258394912
 20
-23.96458815478045
 30
0.0
 40
1.587499999999999
100
AcDbArc
 50
236.4451007451979
 51
44.99999999999984
  0
ARC
  5
175
330
1F
100
AcDbEntity
  8
0
  6
K5LT32773
 62
    30
420
 16744448
100
AcDbCircle
 10
-111.1907258394912
 20
-16.20965218504774
 30
0.0
 40
1.587499999999999
100
AcDbArc
 50
315.0
 51
123.5548992548022
  0
ENDSEC
  0
SECTION
  2
OBJECTS
  0
DICTIONARY
  5
C
330
0
100
AcDbDictionary
281
     1
  3
ACAD_GROUP
350
D
  3
ACAD_LAYOUT
350
1A
  3
ACAD_MATERIAL
350
3B
  3
ACAD_MLEADERSTYLE
350
1BB
  3
ACAD_MLINESTYLE
350
17
  3
ACAD_PLOTSETTINGS
350
19
  3
ACAD_PLOTSTYLENAME
350
E
  3
ACAD_SCALELIST
350
176
  3
ACAD_TABLESTYLE
350
1BA
  3
ACAD_VISUALSTYLE
350
2A
  3
AcDbVariableDictionary
350
198
  0
DICTIONARY
  5
D
102
{ACAD_REACTORS
330
C
102
}
330
C
100
AcDbDictionary
281
     1
  0
DICTIONARY
  5
1A
102
{ACAD_REACTORS
330
C
102
}
330
C
100
AcDbDictionary
281
     1
  3
Layout1
350
1E
  3
Layout2
350
26
  3
Model
350
22
  0
DICTIONARY
  5
3B
102
{ACAD_REACTORS
330
C
102
}
330
C
100
AcDbDictionary
281
     1
  3
ByBlock
350
3D
  3
ByLayer
350
3C
  3
Global
350
3E
  0
DICTIONARY
  5
1BB
102
{ACAD_REACTORS
330
C
102
}
330
C
100
AcDbDictionary
281
     1
  0
DICTIONARY
  5
17
102
{ACAD_REACTORS
330
C
102
}
330
C
100
AcDbDictionary
281
     1
  3
Standard
350
18
  0
DICTIONARY
  5
19
102
{ACAD_REACTORS
330
C
102
}
330
C
100
AcDbDictionary
281
     1
  0
ACDBDICTIONARYWDFLT
  5
E
102
{ACAD_REACTORS
330
C
102
}
330
C
100
AcDbDictionary
281
     1
  3
Normal
350
F
100
AcDbDictionaryWithDefault
340
F
  0
DICTIONARY
  5
176
102
{ACAD_REACTORS
330
C
102
}
330
C
100
AcDbDictionary
281
     1
  3
A0
350
177
  3
A1
350
178
  3
A2
350
179
  3
A3
350
17A
  3
A4
350
17B
  3
A5
350
17C
  3
A6
350
17D
  3
A7
350
17E
  3
A8
350
17F
  3
A9
350
180
  3
B0
350
181
  3
B1
350
182
  3
B2
350
183
  3
B3
350
184
  3
B4
350
185
  3
B5
350
186
  3
B6
350
187
  3
B7
350
188
  3
B8
350
189
  3
B9
350
18A
  3
C0
350
18B
  3
C1
350
18C
  3
C2
350
18D
  3
C3
350
18E
  3
C4
350
18F
  3
C5
350
190
  3
C6
350
191
  3
C7
350
192
  3
C8
350
193
  3
C9
350
194
  3
D0
350
195
  3
D1
350
196
  3
D2
350
197
  0
DICTIONARY
  5
1BA
102
{ACAD_REACTORS
330
C
102
}
330
C
100
AcDbDictionary
281
     1
  0
DICTIONARY
  5
2A
102
{ACAD_REACTORS
330
C
102
}
330
C
100
AcDbDictionary
281
     1
  3
2dWireframe
350
2F
  3
3D Hidden
350
31
  3
3dWireframe
350
30
  3
Basic
350
32
  3
Brighten
350
36
  3
ColorChange
350
3A
  3
Conceptual
350
34
  3
Dim
350
35
  3
Facepattern
350
39
  3
Flat
350
2B
  3
FlatWithEdges
350
2C
  3
Gouraud
350
2D
  3
GouraudWithEdges
350
2E
  3
Linepattern
350
38
  3
Realistic
350
33
  3
Thicken
350
37
  0
DICTIONARY
  5
198
102
{ACAD_REACTORS
330
C
102
}
330
C
100
AcDbDictionary
281
     1
  3
CANNOSCALE
350
199
  0
LAYOUT
  5
1E
102
{ACAD_REACTORS
330
1A
102
}
330
1A
100
AcDbPlotSettings
  1

  2
none_device
  4

  6

 40
0.0
 41
0.0
 42
0.0
 43
0.0
 44
0.0
 45
0.0
 46
0.0
 47
0.0
 48
0.0
 49
0.0
140
0.0
141
0.0
142
1.0
143
1.0
 70
   688
 72
     0
 73
     0
 74
     5
  7

 75
    16
 76
     0
 77
     2
 78
   300
147
1.0
148
0.0
149
0.0
100
AcDbLayout
  1
Layout1
 70
     1
 71
     1
 10
0.0
 20
0.0
 11
420.0
 21
297.0
 12
0.0
 22
0.0
 32
0.0
 14
1.000000000000000E+20
 24
1.000000000000000E+20
 34
1.000000000000000E+20
 15
-1.000000000000000E+20
 25
-1.000000000000000E+20
 35
-1.000000000000000E+20
146
0.0
 13
0.0
 23
0.0
 33
0.0
 16
1.0
 26
0.0
 36
0.0
 17
0.0
 27
1.0
 37
0.0
 76
     0
330
1B
  0
LAYOUT
  5
26
102
{ACAD_REACTORS
330
1A
102
}
330
1A
100
AcDbPlotSettings
  1

  2
none_device
  4

  6

 40
0.0
 41
0.0
 42
0.0
 43
0.0
 44
0.0
 45
0.0
 46
0.0
 47
0.0
 48
0.0
 49
0.0
140
0.0
141
0.0
142
1.0
143
1.0
 70
   688
 72
     0
 73
     0
 74
     5
  7

 75
    16
 76
     0
 77
     2
 78
   300
147
1.0
148
0.0
149
0.0
100
AcDbLayout
  1
Layout2
 70
     1
 71
     2
 10
0.0
 20
0.0
 11
0.0
 21
0.0
 12
0.0
 22
0.0
 32
0.0
 14
0.0
 24
0.0
 34
0.0
 15
0.0
 25
0.0
 35
0.0
146
0.0
 13
0.0
 23
0.0
 33
0.0
 16
1.0
 26
0.0
 36
0.0
 17
0.0
 27
1.0
 37
0.0
 76
     0
330
23
  0
LAYOUT
  5
22
102
{ACAD_REACTORS
330
1A
102
}
330
1A
100
AcDbPlotSettings
  1

  2
none_device
  4

  6

 40
0.0
 41
0.0
 42
0.0
 43
0.0
 44
0.0
 45
0.0
 46
0.0
 47
0.0
 48
0.0
 49
0.0
140
0.0
141
0.0
142
1.0
143
1.0
 70
  1712
 72
     0
 73
     0
 74
     0
  7

 75
     0
 76
     0
 77
     2
 78
   300
147
1.0
148
0.0
149
0.0
100
AcDbLayout
  1
Model
 70
     1
 71
     0
 10
0.0
 20
0.0
 11
420.0
 21
297.0
 12
0.0
 22
0.0
 32
0.0
 14
1.000000000000000E+20
 24
1.000000000000000E+20
 34
1.000000000000000E+20
 15
-1.000000000000000E+20
 25
-1.000000000000000E+20
 35
-1.000000000000000E+20
146
0.0
 13
0.0
 23
0.0
 33
0.0
 16
1.0
 26
0.0
 36
0.0
 17
0.0
 27
1.0
 37
0.0
 76
     0
330
1F
331
29
  0
MATERIAL
  5
3D
102
{ACAD_REACTORS
330
3B
102
}
330
3B
100
AcDbMaterial
  1
ByBlock
 72
     1
 94
      127
  0
MATERIAL
  5
3C
102
{ACAD_REACTORS
330
3B
102
}
330
3B
100
AcDbMaterial
  1
ByLayer
 72
     1
 94
      127
  0
MATERIAL
  5
3E
102
{ACAD_REACTORS
330
3B
102
}
330
3B
100
AcDbMaterial
  1
Global
 72
     1
 94
      127
  0
MLINESTYLE
  5
18
102
{ACAD_REACTORS
330
17
102
}
330
17
100
AcDbMlineStyle
  2
Standard
 70
     0
  3

 62
   256
 51
90.0
 52
90.0
 71
     2
 49
0.5
 62
   256
  6
BYLAYER
 49
-0.5
 62
   256
  6
BYLAYER
  0
ACDBPLACEHOLDER
  5
F
102
{ACAD_REACTORS
330
E
102
}
330
E
  0
SCALE
  5
177
102
{ACAD_REACTORS
330
176
102
}
330
176
100
AcDbScale
 70
     0
300
1:1
140
1.0
141
1.0
290
     1
  0
SCALE
  5
178
102
{ACAD_REACTORS
330
176
102
}
330
176
100
AcDbScale
 70
     0
300
1:2
140
1.0
141
2.0
290
     0
  0
SCALE
  5
179
102
{ACAD_REACTORS
330
176
102
}
330
176
100
AcDbScale
 70
     0
300
1:4
140
1.0
141
4.0
290
     0
  0
SCALE
  5
17A
102
{ACAD_REACTORS
330
176
102
}
330
176
100
AcDbScale
 70
     0
300
1:5
140
1.0
141
5.0
290
     0
  0
SCALE
  5
17B
102
{ACAD_REACTORS
330
176
102
}
330
176
100
AcDbScale
 70
     0
300
1:8
140
1.0
141
8.0
290
     0
  0
SCALE
  5
17C
102
{ACAD_REACTORS
330
176
102
}
330
176
100
AcDbScale
 70
     0
300
1:10
140
1.0
141
10.0
290
     0
  0
SCALE
  5
17D
102
{ACAD_REACTORS
330
176
102
}
330
176
100
AcDbScale
 70
     0
300
1:16
140
1.0
141
16.0
290
     0
  0
SCALE
  5
17E
102
{ACAD_REACTORS
330
176
102
}
330
176
100
AcDbScale
 70
     0
300
1:20
140
1.0
141
20.0
290
     0
  0
SCALE
  5
17F
102
{ACAD_REACTORS
330
176
102
}
330
176
100
AcDbScale
 70
     0
300
1:30
140
1.0
141
30.0
290
     0
  0
SCALE
  5
180
102
{ACAD_REACTORS
330
176
102
}
330
176
100
AcDbScale
 70
     0
300
1:40
140
1.0
141
40.0
290
     0
  0
SCALE
  5
181
102
{ACAD_REACTORS
330
176
102
}
330
176
100
AcDbScale
 70
     0
300
1:50
140
1.0
141
50.0
290
     0
  0
SCALE
  5
182
102
{ACAD_REACTORS
330
176
102
}
330
176
100
AcDbScale
 70
     0
300
1:100
140
1.0
141
100.0
290
     0
  0
SCALE
  5
183
102
{ACAD_REACTORS
330
176
102
}
330
176
100
AcDbScale
 70
     0
300
2:1
140
2.0
141
1.0
290
     0
  0
SCALE
  5
184
102
{ACAD_REACTORS
330
176
102
}
330
176
100
AcDbScale
 70
     0
300
4:1
140
4.0
141
1.0
290
     0
  0
SCALE
  5
185
102
{ACAD_REACTORS
330
176
102
}
330
176
100
AcDbScale
 70
     0
300
8:1
140
8.0
141
1.0
290
     0
  0
SCALE
  5
186
102
{ACAD_REACTORS
330
176
102
}
330
176
100
AcDbScale
 70
     0
300
10:1
140
10.0
141
1.0
290
     0
  0
SCALE
  5
187
102
{ACAD_REACTORS
330
176
102
}
330
176
100
AcDbScale
 70
     0
300
100:1
140
100.0
141
1.0
290
     0
  0
SCALE
  5
188
102
{ACAD_REACTORS
330
176
102
}
330
176
100
AcDbScale
 70
     0
300
1/128" = 1'-0"
140
0.0078125
141
12.0
290
     0
  0
SCALE
  5
189
102
{ACAD_REACTORS
330
176
102
}
330
176
100
AcDbScale
 70
     0
300
1/64" = 1'-0"
140
0.015625
141
12.0
290
     0
  0
SCALE
  5
18A
102
{ACAD_REACTORS
330
176
102
}
330
176
100
AcDbScale
 70
     0
300
1/32" = 1'-0"
140
0.03125
141
12.0
290
     0
  0
SCALE
  5
18B
102
{ACAD_REACTORS
330
176
102
}
330
176
100
AcDbScale
 70
     0
300
1/16" = 1'-0"
140
0.0625
141
12.0
290
     0
  0
SCALE
  5
18C
102
{ACAD_REACTORS
330
176
102
}
330
176
100
AcDbScale
 70
     0
300
3/32" = 1'-0"
140
0.09375
141
12.0
290
     0
  0
SCALE
  5
18D
102
{ACAD_REACTORS
330
176
102
}
330
176
100
AcDbScale
 70
     0
300
1/8" = 1'-0"
140
0.125
141
12.0
290
     0
  0
SCALE
  5
18E
102
{ACAD_REACTORS
330
176
102
}
330
176
100
AcDbScale
 70
     0
300
3/16" = 1'-0"
140
0.1875
141
12.0
290
     0
  0
SCALE
  5
18F
102
{ACAD_REACTORS
330
176
102
}
330
176
100
AcDbScale
 70
     0
300
1/4" = 1'-0"
140
0.25
141
12.0
290
     0
  0
SCALE
  5
190
102
{ACAD_REACTORS
330
176
102
}
330
176
100
AcDbScale
 70
     0
300
3/8" = 1'-0"
140
0.375
141
12.0
290
     0
  0
SCALE
  5
191
102
{ACAD_REACTORS
330
176
102
}
330
176
100
AcDbScale
 70
     0
300
1/2" = 1'-0"
140
0.5
141
12.0
290
     0
  0
SCALE
  5
192
102
{ACAD_REACTORS
330
176
102
}
330
176
100
AcDbScale
 70
     0
300
3/4" = 1'-0"
140
0.75
141
12.0
290
     0
  0
SCALE
  5
193
102
{ACAD_REACTORS
330
176
102
}
330
176
100
AcDbScale
 70
     0
300
1" = 1'-0"
140
1.0
141
12.0
290
     0
  0
SCALE
  5
194
102
{ACAD_REACTORS
330
176
102
}
330
176
100
AcDbScale
 70
     0
300
1-1/2" = 1'-0"
140
1.5
141
12.0
290
     0
  0
SCALE
  5
195
102
{ACAD_REACTORS
330
176
102
}
330
176
100
AcDbScale
 70
     0
300
3" = 1'-0"
140
3.0
141
12.0
290
     0
  0
SCALE
  5
196
102
{ACAD_REACTORS
330
176
102
}
330
176
100
AcDbScale
 70
     0
300
6" = 1'-0"
140
6.0
141
12.0
290
     0
  0
SCALE
  5
197
102
{ACAD_REACTORS
330
176
102
}
330
176
100
AcDbScale
 70
     0
300
1'-0" = 1'-0"
140
12.0
141
12.0
290
     0
  0
VISUALSTYLE
  5
2F
102
{ACAD_REACTORS
330
2A
102
}
102
{ACAD_XDICTIONARY
360
1A2
102
}
330
2A
100
AcDbVisualStyle
  2
2dWireframe
 70
     4
 71
     0
 72
     2
 73
     0
 90
        0
 40
-0.6
 41
-30.0
 62
     5
 63
     7
421
 16777215
 74
     1
 91
        4
 64
     7
 65
   257
 75
     1
175
     1
 42
1.0
 92
        0
 66
   257
 43
1.0
 76
     1
 77
     6
 78
     2
 67
     7
 79
     5
170
     0
171
     0
290
     0
174
     0
 93
        1
 44
0.0
173
     0
291
     0
 45
0.0
  0
VISUALSTYLE
  5
31
102
{ACAD_REACTORS
330
2A
102
}
102
{ACAD_XDICTIONARY
360
1A6
102
}
330
2A
100
AcDbVisualStyle
  2
3D Hidden
 70
     6
 71
     1
 72
     2
 73
     2
 90
        0
 40
-0.6
 41
-30.0
 62
     5
 63
     7
421
 16777215
 74
     2
 91
        2
 64
     7
 65
   257
 75
     2
175
     1
 42
40.0
 92
        0
 66
   257
 43
1.0
 76
     1
 77
     6
 78
     2
 67
     7
 79
     3
170
     0
171
     0
290
     0
174
     0
 93
        1
 44
0.0
173
     0
291
     0
 45
0.0
  0
VISUALSTYLE
  5
30
102
{ACAD_REACTORS
330
2A
102
}
102
{ACAD_XDICTIONARY
360
1A4
102
}
330
2A
100
AcDbVisualStyle
  2
3dWireframe
 70
     5
 71
     0
 72
     2
 73
     0
 90
        0
 40
-0.6
 41
-30.0
 62
     5
 63
     7
421
 16777215
 74
     1
 91
        4
 64
     7
 65
   257
 75
     1
175
     1
 42
1.0
 92
        0
 66
   257
 43
1.0
 76
     1
 77
     6
 78
     2
 67
     7
 79
     5
170
     0
171
     0
290
     0
174
     0
 93
        1
 44
0.0
173
     0
291
     0
 45
0.0
  0
VISUALSTYLE
  5
32
102
{ACAD_REACTORS
330
2A
102
}
102
{ACAD_XDICTIONARY
360
1A8
102
}
330
2A
100
AcDbVisualStyle
  2
Basic
 70
     7
 71
     1
 72
     0
 73
     1
 90
        0
 40
-0.6
 41
-30.0
 62
     5
 63
     7
421
 16777215
 74
     0
 91
        4
 64
     7
 65
   257
 75
     1
175
     1
 42
1.0
 92
        8
 66
     7
 43
1.0
 76
     1
 77
     6
 78
     2
 67
     7
 79
     5
170
     0
171
     0
290
     0
174
     0
 93
        1
 44
0.0
173
     0
291
     1
 45
0.0
  0
VISUALSTYLE
  5
36
102
{ACAD_REACTORS
330
2A
102
}
102
{ACAD_XDICTIONARY
360
1B0
102
}
330
2A
100
AcDbVisualStyle
  2
Brighten
 70
    12
 71
     2
 72
     2
 73
     0
 90
        0
 40
-0.6
 41
-30.0
 62
     5
 63
     7
421
 16777215
 74
     1
 91
        4
 64
     7
 65
   257
 75
     1
175
     1
 42
1.0
 92
        8
 66
     7
 43
1.0
 76
     1
 77
     6
 78
     2
 67
     7
 79
     5
170
     0
171
     0
290
     0
174
     0
 93
        1
 44
50.0
173
     0
291
     1
 45
0.0
  0
VISUALSTYLE
  5
3A
102
{ACAD_REACTORS
330
2A
102
}
102
{ACAD_XDICTIONARY
360
1B8
102
}
330
2A
100
AcDbVisualStyle
  2
ColorChange
 70
    16
 71
     2
 72
     2
 73
     3
 90
        0
 40
-0.6
 41
-30.0
 62
     5
 63
     8
421
  8421504
 74
     1
 91
        4
 64
     7
 65
   257
 75
     1
175
     1
 42
1.0
 92
        8
 66
     8
424
  8421504
 43
1.0
 76
     1
 77
     6
 78
     2
 67
     7
 79
     5
170
     0
171
     0
290
     0
174
     0
 93
        1
 44
0.0
173
     0
291
     1
 45
0.0
  0
VISUALSTYLE
  5
34
102
{ACAD_REACTORS
330
2A
102
}
102
{ACAD_XDICTIONARY
360
1AC
102
}
330
2A
100
AcDbVisualStyle
  2
Conceptual
 70
     9
 71
     3
 72
     2
 73
     0
 90
        0
 40
-0.6
 41
-30.0
 62
     5
 63
     7
421
 16777215
 74
     2
 91
        2
 64
     7
 65
   257
 75
     1
175
     1
 42
40.0
 92
        8
 66
     7
 43
1.0
 76
     1
 77
     6
 78
     2
 67
     7
 79
     3
170
     0
171
     0
290
     0
174
     0
 93
        1
 44
0.0
173
     0
291
     0
 45
0.0
  0
VISUALSTYLE
  5
35
102
{ACAD_REACTORS
330
2A
102
}
102
{ACAD_XDICTIONARY
360
1AE
102
}
330
2A
100
AcDbVisualStyle
  2
Dim
 70
    11
 71
     2
 72
     2
 73
     0
 90
        0
 40
-0.6
 41
-30.0
 62
     5
 63
     7
421
 16777215
 74
     1
 91
        4
 64
     7
 65
   257
 75
     1
175
     1
 42
1.0
 92
        8
 66
     7
 43
1.0
 76
     1
 77
     6
 78
     2
 67
     7
 79
     5
170
     0
171
     0
290
     0
174
     0
 93
        1
 44
-50.0
173
     0
291
     1
 45
0.0
  0
VISUALSTYLE
  5
39
102
{ACAD_REACTORS
330
2A
102
}
102
{ACAD_XDICTIONARY
360
1B6
102
}
330
2A
100
AcDbVisualStyle
  2
Facepattern
 70
    15
 71
     2
 72
     2
 73
     0
 90
        0
 40
-0.6
 41
-30.0
 62
     5
 63
     7
421
 16777215
 74
     1
 91
        4
 64
     7
 65
   257
 75
     1
175
     1
 42
1.0
 92
        8
 66
     7
 43
1.0
 76
     1
 77
     6
 78
     2
 67
     7
 79
     5
170
     0
171
     0
290
     0
174
     0
 93
        1
 44
0.0
173
     0
291
     1
 45
0.0
  0
VISUALSTYLE
  5
2B
102
{ACAD_REACTORS
330
2A
102
}
102
{ACAD_XDICTIONARY
360
19A
102
}
330
2A
100
AcDbVisualStyle
  2
Flat
 70
     0
 71
     2
 72
     1
 73
     1
 90
        2
 40
-0.6
 41
30.0
 62
     5
 63
     7
421
 16777215
 74
     0
 91
        4
 64
     7
 65
   257
 75
     1
175
     1
 42
1.0
 92
        8
 66
     7
 43
1.0
 76
     1
 77
     6
 78
     2
 67
     7
 79
     5
170
     0
171
     0
290
     0
174
     0
 93
       13
 44
0.0
173
     0
291
     1
 45
0.0
  0
VISUALSTYLE
  5
2C
102
{ACAD_REACTORS
330
2A
102
}
102
{ACAD_XDICTIONARY
360
19C
102
}
330
2A
100
AcDbVisualStyle
  2
FlatWithEdges
 70
     1
 71
     2
 72
     1
 73
     1
 90
        2
 40
-0.6
 41
30.0
 62
     5
 63
     7
421
 16777215
 74
     1
 91
        4
 64
     7
 65
   257
 75
     1
175
     1
 42
1.0
 92
        0
 66
   257
 43
1.0
 76
     1
 77
     6
 78
     2
 67
     7
 79
     5
170
     0
171
     0
290
     0
174
     0
 93
       13
 44
0.0
173
     0
291
     1
 45
0.0
  0
VISUALSTYLE
  5
2D
102
{ACAD_REACTORS
330
2A
102
}
102
{ACAD_XDICTIONARY
360
19E
102
}
330
2A
100
AcDbVisualStyle
  2
Gouraud
 70
     2
 71
     2
 72
     2
 73
     1
 90
        2
 40
-0.6
 41
30.0
 62
     5
 63
     7
421
 16777215
 74
     0
 91
        4
 64
     7
 65
   257
 75
     1
175
     1
 42
1.0
 92
        0
 66
     7
 43
1.0
 76
     1
 77
     6
 78
     2
 67
     7
 79
     5
170
     0
171
     0
290
     0
174
     0
 93
       13
 44
0.0
173
     0
291
     1
 45
0.0
  0
VISUALSTYLE
  5
2E
102
{ACAD_REACTORS
330
2A
102
}
102
{ACAD_XDICTIONARY
360
1A0
102
}
330
2A
100
AcDbVisualStyle
  2
GouraudWithEdges
 70
     3
 71
     2
 72
     2
 73
     1
 90
        2
 40
-0.6
 41
30.0
 62
     5
 63
     7
421
 16777215
 74
     1
 91
        4
 64
     7
 65
   257
 75
     1
175
     1
 42
1.0
 92
        0
 66
   257
 43
1.0
 76
     1
 77
     6
 78
     2
 67
     7
 79
     5
170
     0
171
     0
290
     0
174
     0
 93
       13
 44
0.0
173
     0
291
     1
 45
0.0
  0
VISUALSTYLE
  5
38
102
{ACAD_REACTORS
330
2A
102
}
102
{ACAD_XDICTIONARY
360
1B4
102
}
330
2A
100
AcDbVisualStyle
  2
Linepattern
 70
    14
 71
     2
 72
     2
 73
     0
 90
        0
 40
-0.6
 41
-30.0
 62
     5
 63
     7
421
 16777215
 74
     1
 91
        4
 64
     7
 65
   257
 75
     7
175
     7
 42
1.0
 92
        8
 66
     7
 43
1.0
 76
     1
 77
     6
 78
     2
 67
     7
 79
     5
170
     0
171
     0
290
     0
174
     0
 93
        1
 44
0.0
173
     0
291
     1
 45
0.0
  0
VISUALSTYLE
  5
33
102
{ACAD_REACTORS
330
2A
102
}
102
{ACAD_XDICTIONARY
360
1AA
102
}
330
2A
100
AcDbVisualStyle
  2
Realistic
 70
     8
 71
     2
 72
     2
 73
     0
 90
        0
 40
-0.6
 41
-30.0
 62
     5
 63
     7
421
 16777215
 74
     1
 91
        0
 64
     7
 65
   257
 75
     1
175
     1
 42
1.0
 92
        8
 66
     8
424
  7895160
 43
1.0
 76
     1
 77
     6
 78
     2
 67
     7
 79
     5
170
     0
171
     0
290
     0
174
     0
 93
       13
 44
0.0
173
     0
291
     0
 45
0.0
  0
VISUALSTYLE
  5
37
102
{ACAD_REACTORS
330
2A
102
}
102
{ACAD_XDICTIONARY
360
1B2
102
}
330
2A
100
AcDbVisualStyle
  2
Thicken
 70
    13
 71
     2
 72
     2
 73
     0
 90
        0
 40
-0.6
 41
-30.0
 62
     5
 63
     7
421
 16777215
 74
     1
 91
        4
 64
     7
 65
   257
 75
     1
175
     1
 42
1.0
 92
       12
 66
     7
 43
1.0
 76
     1
 77
     6
 78
     2
 67
     7
 79
     5
170
     0
171
     0
290
     0
174
     0
 93
        1
 44
0.0
173
     0
291
     1
 45
0.0
  0
DICTIONARYVAR
  5
199
102
{ACAD_REACTORS
330
198
102
}
330
198
100
DictionaryVariables
280
     0
  1
1:1
  0
DICTIONARY
  5
1A2
330
2F
100
AcDbDictionary
280
     1
281
     1
  3
ACAD_XREC_ROUNDTRIP
360
1A3
  0
DICTIONARY
  5
1A6
330
31
100
AcDbDictionary
280
     1
281
     1
  3
ACAD_XREC_ROUNDTRIP
360
1A7
  0
DICTIONARY
  5
1A4
330
30
100
AcDbDictionary
280
     1
281
     1
  3
ACAD_XREC_ROUNDTRIP
360
1A5
  0
DICTIONARY
  5
1A8
330
32
100
AcDbDictionary
280
     1
281
     1
  3
ACAD_XREC_ROUNDTRIP
360
1A9
  0
DICTIONARY
  5
1B0
330
36
100
AcDbDictionary
280
     1
281
     1
  3
ACAD_XREC_ROUNDTRIP
360
1B1
  0
DICTIONARY
  5
1B8
330
3A
100
AcDbDictionary
280
     1
281
     1
  3
ACAD_XREC_ROUNDTRIP
360
1B9
  0
DICTIONARY
  5
1AC
330
34
100
AcDbDictionary
280
     1
281
     1
  3
ACAD_XREC_ROUNDTRIP
360
1AD
  0
DICTIONARY
  5
1AE
330
35
100
AcDbDictionary
280
     1
281
     1
  3
ACAD_XREC_ROUNDTRIP
360
1AF
  0
DICTIONARY
  5
1B6
330
39
100
AcDbDictionary
280
     1
281
     1
  3
ACAD_XREC_ROUNDTRIP
360
1B7
  0
DICTIONARY
  5
19A
330
2B
100
AcDbDictionary
280
     1
281
     1
  3
ACAD_XREC_ROUNDTRIP
360
19B
  0
DICTIONARY
  5
19C
330
2C
100
AcDbDictionary
280
     1
281
     1
  3
ACAD_XREC_ROUNDTRIP
360
19D
  0
DICTIONARY
  5
19E
330
2D
100
AcDbDictionary
280
     1
281
     1
  3
ACAD_XREC_ROUNDTRIP
360
19F
  0
DICTIONARY
  5
1A0
330
2E
100
AcDbDictionary
280
     1
281
     1
  3
ACAD_XREC_ROUNDTRIP
360
1A1
  0
DICTIONARY
  5
1B4
330
38
100
AcDbDictionary
280
     1
281
     1
  3
ACAD_XREC_ROUNDTRIP
360
1B5
  0
DICTIONARY
  5
1AA
330
33
100
AcDbDictionary
280
     1
281
     1
  3
ACAD_XREC_ROUNDTRIP
360
1AB
  0
DICTIONARY
  5
1B2
330
37
100
AcDbDictionary
280
     1
281
     1
  3
ACAD_XREC_ROUNDTRIP
360
1B3
  0
XRECORD
  5
1A3
102
{ACAD_REACTORS
330
1A2
102
}
330
1A2
100
AcDbXrecord
280
     1
102
RTVSPropertyOp0
 70
     1
102
RTVSPropertyOp1
 70
     1
102
RTVSPropertyOp2
 70
     1
102
RTVSPropertyOp3
 70
     1
102
RTVSPropertyOp4
 70
     1
102
RTVSPropertyOp5
 70
     1
102
RTVSPropertyOp6
 70
     1
102
RTVSPropertyOp7
 70
     1
102
RTVSPropertyOp8
 70
     1
102
RTVSPropertyOp9
 70
     1
102
RTVSPropertyOp10
 70
     1
102
RTVSPropertyOp11
 70
     1
102
RTVSPropertyOp12
 70
     1
102
RTVSPropertyOp13
 70
     1
102
RTVSPropertyOp14
 70
     1
102
RTVSPropertyOp15
 70
     1
102
RTVSPropertyOp16
 70
     1
102
RTVSPropertyOp17
 70
     1
102
RTVSPropertyOp18
 70
     1
102
RTVSPropertyOp19
 70
     1
102
RTVSPropertyOp20
 70
     1
102
RTVSPropertyOp21
 70
     1
102
RTVSPropertyOp22
 70
     1
102
RTVSPropertyOp23
 70
     1
102
RTVSPropertyOp24
 70
     1
102
RTVSPropertyOp25
 70
     1
102
RTVSPropertyOp26
 70
     1
102
RTVSPropertyOp27
 70
     1
102
RTVSPropertyOp28
 70
     1
102
RTVSPropertyOp29
 70
     1
102
RTVSPropertyOp30
 70
     1
102
RTVSPropertyOp31
 70
     1
102
RTVSPropertyOp32
 70
     1
  0
XRECORD
  5
1A7
102
{ACAD_REACTORS
330
1A6
102
}
330
1A6
100
AcDbXrecord
280
     1
102
RTVSPropertyOp0
 70
     1
102
RTVSPropertyOp1
 70
     1
102
RTVSPropertyOp2
 70
     1
102
RTVSPropertyOp3
 70
     1
102
RTVSPropertyOp4
 70
     1
102
RTVSPropertyOp5
 70
     1
102
RTVSPropertyOp6
 70
     1
102
RTVSPropertyOp7
 70
     1
102
RTVSPropertyOp8
 70
     1
102
RTVSPropertyOp9
 70
     1
102
RTVSPropertyOp10
 70
     1
102
RTVSPropertyOp11
 70
     1
102
RTVSPropertyOp12
 70
     1
102
RTVSPropertyOp13
 70
     1
102
RTVSPropertyOp14
 70
     1
102
RTVSPropertyOp15
 70
     1
102
RTVSPropertyOp16
 70
     1
102
RTVSPropertyOp17
 70
     1
102
RTVSPropertyOp18
 70
     1
102
RTVSPropertyOp19
 70
     1
102
RTVSPropertyOp20
 70
     1
102
RTVSPropertyOp21
 70
     1
102
RTVSPropertyOp22
 70
     1
102
RTVSPropertyOp23
 70
     1
102
RTVSPropertyOp24
 70
     1
102
RTVSPropertyOp25
 70
     1
102
RTVSPropertyOp26
 70
     1
102
RTVSPropertyOp27
 70
     1
102
RTVSPropertyOp28
 70
     1
102
RTVSPropertyOp29
 70
     1
102
RTVSPropertyOp30
 70
     1
102
RTVSPropertyOp31
 70
     1
102
RTVSPropertyOp32
 70
     1
  0
XRECORD
  5
1A5
102
{ACAD_REACTORS
330
1A4
102
}
330
1A4
100
AcDbXrecord
280
     1
102
RTVSPropertyOp0
 70
     1
102
RTVSPropertyOp1
 70
     1
102
RTVSPropertyOp2
 70
     1
102
RTVSPropertyOp3
 70
     1
102
RTVSPropertyOp4
 70
     1
102
RTVSPropertyOp5
 70
     1
102
RTVSPropertyOp6
 70
     1
102
RTVSPropertyOp7
 70
     1
102
RTVSPropertyOp8
 70
     1
102
RTVSPropertyOp9
 70
     1
102
RTVSPropertyOp10
 70
     1
102
RTVSPropertyOp11
 70
     1
102
RTVSPropertyOp12
 70
     1
102
RTVSPropertyOp13
 70
     1
102
RTVSPropertyOp14
 70
     1
102
RTVSPropertyOp15
 70
     1
102
RTVSPropertyOp16
 70
     1
102
RTVSPropertyOp17
 70
     1
102
RTVSPropertyOp18
 70
     1
102
RTVSPropertyOp19
 70
     1
102
RTVSPropertyOp20
 70
     1
102
RTVSPropertyOp21
 70
     1
102
RTVSPropertyOp22
 70
     1
102
RTVSPropertyOp23
 70
     1
102
RTVSPropertyOp24
 70
     1
102
RTVSPropertyOp25
 70
     1
102
RTVSPropertyOp26
 70
     1
102
RTVSPropertyOp27
 70
     1
102
RTVSPropertyOp28
 70
     1
102
RTVSPropertyOp29
 70
     1
102
RTVSPropertyOp30
 70
     1
102
RTVSPropertyOp31
 70
     1
102
RTVSPropertyOp32
 70
     1
  0
XRECORD
  5
1A9
102
{ACAD_REACTORS
330
1A8
102
}
330
1A8
100
AcDbXrecord
280
     1
102
RTVSPropertyOp0
 70
     1
102
RTVSPropertyOp1
 70
     1
102
RTVSPropertyOp2
 70
     1
102
RTVSPropertyOp3
 70
     1
102
RTVSPropertyOp4
 70
     1
102
RTVSPropertyOp5
 70
     1
102
RTVSPropertyOp6
 70
     1
102
RTVSPropertyOp7
 70
     1
102
RTVSPropertyOp8
 70
     1
102
RTVSPropertyOp9
 70
     1
102
RTVSPropertyOp10
 70
     1
102
RTVSPropertyOp11
 70
     1
102
RTVSPropertyOp12
 70
     1
102
RTVSPropertyOp13
 70
     1
102
RTVSPropertyOp14
 70
     1
102
RTVSPropertyOp15
 70
     1
102
RTVSPropertyOp16
 70
     1
102
RTVSPropertyOp17
 70
     1
102
RTVSPropertyOp18
 70
     1
102
RTVSPropertyOp19
 70
     1
102
RTVSPropertyOp20
 70
     1
102
RTVSPropertyOp21
 70
     1
102
RTVSPropertyOp22
 70
     1
102
RTVSPropertyOp23
 70
     1
102
RTVSPropertyOp24
 70
     1
102
RTVSPropertyOp25
 70
     1
102
RTVSPropertyOp26
 70
     1
102
RTVSPropertyOp27
 70
     1
102
RTVSPropertyOp28
 70
     1
102
RTVSPropertyOp29
 70
     1
102
RTVSPropertyOp30
 70
     1
102
RTVSPropertyOp31
 70
     1
102
RTVSPropertyOp32
 70
     1
  0
XRECORD
  5
1B1
102
{ACAD_REACTORS
330
1B0
102
}
330
1B0
100
AcDbXrecord
280
     1
102
RTVSPropertyOp0
 70
     1
102
RTVSPropertyOp1
 70
     1
102
RTVSPropertyOp2
 70
     1
102
RTVSPropertyOp3
 70
     1
102
RTVSPropertyOp4
 70
     1
102
RTVSPropertyOp5
 70
     1
102
RTVSPropertyOp6
 70
     1
102
RTVSPropertyOp7
 70
     1
102
RTVSPropertyOp8
 70
     1
102
RTVSPropertyOp9
 70
     1
102
RTVSPropertyOp10
 70
     1
102
RTVSPropertyOp11
 70
     1
102
RTVSPropertyOp12
 70
     1
102
RTVSPropertyOp13
 70
     1
102
RTVSPropertyOp14
 70
     1
102
RTVSPropertyOp15
 70
     1
102
RTVSPropertyOp16
 70
     1
102
RTVSPropertyOp17
 70
     1
102
RTVSPropertyOp18
 70
     1
102
RTVSPropertyOp19
 70
     1
102
RTVSPropertyOp20
 70
     1
102
RTVSPropertyOp21
 70
     1
102
RTVSPropertyOp22
 70
     1
102
RTVSPropertyOp23
 70
     1
102
RTVSPropertyOp24
 70
     1
102
RTVSPropertyOp25
 70
     1
102
RTVSPropertyOp26
 70
     1
102
RTVSPropertyOp27
 70
     1
102
RTVSPropertyOp28
 70
     1
102
RTVSPropertyOp29
 70
     1
102
RTVSPropertyOp30
 70
     1
102
RTVSPropertyOp31
 70
     1
102
RTVSPropertyOp32
 70
     1
  0
XRECORD
  5
1B9
102
{ACAD_REACTORS
330
1B8
102
}
330
1B8
100
AcDbXrecord
280
     1
102
RTVSPropertyOp0
 70
     1
102
RTVSPropertyOp1
 70
     1
102
RTVSPropertyOp2
 70
     1
102
RTVSPropertyOp3
 70
     1
102
RTVSPropertyOp4
 70
     1
102
RTVSPropertyOp5
 70
     1
102
RTVSPropertyOp6
 70
     1
102
RTVSPropertyOp7
 70
     1
102
RTVSPropertyOp8
 70
     1
102
RTVSPropertyOp9
 70
     1
102
RTVSPropertyOp10
 70
     1
102
RTVSPropertyOp11
 70
     1
102
RTVSPropertyOp12
 70
     1
102
RTVSPropertyOp13
 70
     1
102
RTVSPropertyOp14
 70
     1
102
RTVSPropertyOp15
 70
     1
102
RTVSPropertyOp16
 70
     1
102
RTVSPropertyOp17
 70
     1
102
RTVSPropertyOp18
 70
     1
102
RTVSPropertyOp19
 70
     1
102
RTVSPropertyOp20
 70
     1
102
RTVSPropertyOp21
 70
     1
102
RTVSPropertyOp22
 70
     1
102
RTVSPropertyOp23
 70
     1
102
RTVSPropertyOp24
 70
     1
102
RTVSPropertyOp25
 70
     1
102
RTVSPropertyOp26
 70
     1
102
RTVSPropertyOp27
 70
     1
102
RTVSPropertyOp28
 70
     1
102
RTVSPropertyOp29
 70
     1
102
RTVSPropertyOp30
 70
     1
102
RTVSPropertyOp31
 70
     1
102
RTVSPropertyOp32
 70
     1
  0
XRECORD
  5
1AD
102
{ACAD_REACTORS
330
1AC
102
}
330
1AC
100
AcDbXrecord
280
     1
102
RTVSPropertyOp0
 70
     1
102
RTVSPropertyOp1
 70
     1
102
RTVSPropertyOp2
 70
     1
102
RTVSPropertyOp3
 70
     1
102
RTVSPropertyOp4
 70
     1
102
RTVSPropertyOp5
 70
     1
102
RTVSPropertyOp6
 70
     1
102
RTVSPropertyOp7
 70
     1
102
RTVSPropertyOp8
 70
     1
102
RTVSPropertyOp9
 70
     1
102
RTVSPropertyOp10
 70
     1
102
RTVSPropertyOp11
 70
     1
102
RTVSPropertyOp12
 70
     1
102
RTVSPropertyOp13
 70
     1
102
RTVSPropertyOp14
 70
     1
102
RTVSPropertyOp15
 70
     1
102
RTVSPropertyOp16
 70
     1
102
RTVSPropertyOp17
 70
     1
102
RTVSPropertyOp18
 70
     1
102
RTVSPropertyOp19
 70
     1
102
RTVSPropertyOp20
 70
     1
102
RTVSPropertyOp21
 70
     1
102
RTVSPropertyOp22
 70
     1
102
RTVSPropertyOp23
 70
     1
102
RTVSPropertyOp24
 70
     1
102
RTVSPropertyOp25
 70
     1
102
RTVSPropertyOp26
 70
     1
102
RTVSPropertyOp27
 70
     1
102
RTVSPropertyOp28
 70
     1
102
RTVSPropertyOp29
 70
     1
102
RTVSPropertyOp30
 70
     1
102
RTVSPropertyOp31
 70
     1
102
RTVSPropertyOp32
 70
     1
  0
XRECORD
  5
1AF
102
{ACAD_REACTORS
330
1AE
102
}
330
1AE
100
AcDbXrecord
280
     1
102
RTVSPropertyOp0
 70
     1
102
RTVSPropertyOp1
 70
     1
102
RTVSPropertyOp2
 70
     1
102
RTVSPropertyOp3
 70
     1
102
RTVSPropertyOp4
 70
     1
102
RTVSPropertyOp5
 70
     1
102
RTVSPropertyOp6
 70
     1
102
RTVSPropertyOp7
 70
     1
102
RTVSPropertyOp8
 70
     1
102
RTVSPropertyOp9
 70
     1
102
RTVSPropertyOp10
 70
     1
102
RTVSPropertyOp11
 70
     1
102
RTVSPropertyOp12
 70
     1
102
RTVSPropertyOp13
 70
     1
102
RTVSPropertyOp14
 70
     1
102
RTVSPropertyOp15
 70
     1
102
RTVSPropertyOp16
 70
     1
102
RTVSPropertyOp17
 70
     1
102
RTVSPropertyOp18
 70
     1
102
RTVSPropertyOp19
 70
     1
102
RTVSPropertyOp20
 70
     1
102
RTVSPropertyOp21
 70
     1
102
RTVSPropertyOp22
 70
     1
102
RTVSPropertyOp23
 70
     1
102
RTVSPropertyOp24
 70
     1
102
RTVSPropertyOp25
 70
     1
102
RTVSPropertyOp26
 70
     1
102
RTVSPropertyOp27
 70
     1
102
RTVSPropertyOp28
 70
     1
102
RTVSPropertyOp29
 70
     1
102
RTVSPropertyOp30
 70
     1
102
RTVSPropertyOp31
 70
     1
102
RTVSPropertyOp32
 70
     1
  0
XRECORD
  5
1B7
102
{ACAD_REACTORS
330
1B6
102
}
330
1B6
100
AcDbXrecord
280
     1
102
RTVSPropertyOp0
 70
     1
102
RTVSPropertyOp1
 70
     1
102
RTVSPropertyOp2
 70
     1
102
RTVSPropertyOp3
 70
     1
102
RTVSPropertyOp4
 70
     1
102
RTVSPropertyOp5
 70
     1
102
RTVSPropertyOp6
 70
     1
102
RTVSPropertyOp7
 70
     1
102
RTVSPropertyOp8
 70
     1
102
RTVSPropertyOp9
 70
     1
102
RTVSPropertyOp10
 70
     1
102
RTVSPropertyOp11
 70
     1
102
RTVSPropertyOp12
 70
     1
102
RTVSPropertyOp13
 70
     1
102
RTVSPropertyOp14
 70
     1
102
RTVSPropertyOp15
 70
     1
102
RTVSPropertyOp16
 70
     1
102
RTVSPropertyOp17
 70
     1
102
RTVSPropertyOp18
 70
     1
102
RTVSPropertyOp19
 70
     1
102
RTVSPropertyOp20
 70
     1
102
RTVSPropertyOp21
 70
     1
102
RTVSPropertyOp22
 70
     1
102
RTVSPropertyOp23
 70
     1
102
RTVSPropertyOp24
 70
     1
102
RTVSPropertyOp25
 70
     1
102
RTVSPropertyOp26
 70
     1
102
RTVSPropertyOp27
 70
     1
102
RTVSPropertyOp28
 70
     1
102
RTVSPropertyOp29
 70
     1
102
RTVSPropertyOp30
 70
     1
102
RTVSPropertyOp31
 70
     1
102
RTVSPropertyOp32
 70
     1
  0
XRECORD
  5
19B
102
{ACAD_REACTORS
330
19A
102
}
330
19A
100
AcDbXrecord
280
     1
102
RTVSPropertyOp0
 70
     1
102
RTVSPropertyOp1
 70
     1
102
RTVSPropertyOp2
 70
     1
102
RTVSPropertyOp3
 70
     1
102
RTVSPropertyOp4
 70
     1
102
RTVSPropertyOp5
 70
     1
102
RTVSPropertyOp6
 70
     1
102
RTVSPropertyOp7
 70
     1
102
RTVSPropertyOp8
 70
     1
102
RTVSPropertyOp9
 70
     1
102
RTVSPropertyOp10
 70
     1
102
RTVSPropertyOp11
 70
     1
102
RTVSPropertyOp12
 70
     1
102
RTVSPropertyOp13
 70
     1
102
RTVSPropertyOp14
 70
     1
102
RTVSPropertyOp15
 70
     1
102
RTVSPropertyOp16
 70
     1
102
RTVSPropertyOp17
 70
     1
102
RTVSPropertyOp18
 70
     1
102
RTVSPropertyOp19
 70
     1
102
RTVSPropertyOp20
 70
     1
102
RTVSPropertyOp21
 70
     1
102
RTVSPropertyOp22
 70
     1
102
RTVSPropertyOp23
 70
     1
102
RTVSPropertyOp24
 70
     1
102
RTVSPropertyOp25
 70
     1
102
RTVSPropertyOp26
 70
     1
102
RTVSPropertyOp27
 70
     1
102
RTVSPropertyOp28
 70
     1
102
RTVSPropertyOp29
 70
     1
102
RTVSPropertyOp30
 70
     1
102
RTVSPropertyOp31
 70
     1
102
RTVSPropertyOp32
 70
     1
  0
XRECORD
  5
19D
102
{ACAD_REACTORS
330
19C
102
}
330
19C
100
AcDbXrecord
280
     1
102
RTVSPropertyOp0
 70
     1
102
RTVSPropertyOp1
 70
     1
102
RTVSPropertyOp2
 70
     1
102
RTVSPropertyOp3
 70
     1
102
RTVSPropertyOp4
 70
     1
102
RTVSPropertyOp5
 70
     1
102
RTVSPropertyOp6
 70
     1
102
RTVSPropertyOp7
 70
     1
102
RTVSPropertyOp8
 70
     1
102
RTVSPropertyOp9
 70
     1
102
RTVSPropertyOp10
 70
     1
102
RTVSPropertyOp11
 70
     1
102
RTVSPropertyOp12
 70
     1
102
RTVSPropertyOp13
 70
     1
102
RTVSPropertyOp14
 70
     1
102
RTVSPropertyOp15
 70
     1
102
RTVSPropertyOp16
 70
     1
102
RTVSPropertyOp17
 70
     1
102
RTVSPropertyOp18
 70
     1
102
RTVSPropertyOp19
 70
     1
102
RTVSPropertyOp20
 70
     1
102
RTVSPropertyOp21
 70
     1
102
RTVSPropertyOp22
 70
     1
102
RTVSPropertyOp23
 70
     1
102
RTVSPropertyOp24
 70
     1
102
RTVSPropertyOp25
 70
     1
102
RTVSPropertyOp26
 70
     1
102
RTVSPropertyOp27
 70
     1
102
RTVSPropertyOp28
 70
     1
102
RTVSPropertyOp29
 70
     1
102
RTVSPropertyOp30
 70
     1
102
RTVSPropertyOp31
 70
     1
102
RTVSPropertyOp32
 70
     1
  0
XRECORD
  5
19F
102
{ACAD_REACTORS
330
19E
102
}
330
19E
100
AcDbXrecord
280
     1
102
RTVSPropertyOp0
 70
     1
102
RTVSPropertyOp1
 70
     1
102
RTVSPropertyOp2
 70
     1
102
RTVSPropertyOp3
 70
     1
102
RTVSPropertyOp4
 70
     1
102
RTVSPropertyOp5
 70
     1
102
RTVSPropertyOp6
 70
     1
102
RTVSPropertyOp7
 70
     1
102
RTVSPropertyOp8
 70
     1
102
RTVSPropertyOp9
 70
     1
102
RTVSPropertyOp10
 70
     1
102
RTVSPropertyOp11
 70
     1
102
RTVSPropertyOp12
 70
     1
102
RTVSPropertyOp13
 70
     1
102
RTVSPropertyOp14
 70
     1
102
RTVSPropertyOp15
 70
     1
102
RTVSPropertyOp16
 70
     1
102
RTVSPropertyOp17
 70
     1
102
RTVSPropertyOp18
 70
     1
102
RTVSPropertyOp19
 70
     1
102
RTVSPropertyOp20
 70
     1
102
RTVSPropertyOp21
 70
     1
102
RTVSPropertyOp22
 70
     1
102
RTVSPropertyOp23
 70
     1
102
RTVSPropertyOp24
 70
     1
102
RTVSPropertyOp25
 70
     1
102
RTVSPropertyOp26
 70
     1
102
RTVSPropertyOp27
 70
     1
102
RTVSPropertyOp28
 70
     1
102
RTVSPropertyOp29
 70
     1
102
RTVSPropertyOp30
 70
     1
102
RTVSPropertyOp31
 70
     1
102
RTVSPropertyOp32
 70
     1
  0
XRECORD
  5
1A1
102
{ACAD_REACTORS
330
1A0
102
}
330
1A0
100
AcDbXrecord
280
     1
102
RTVSPropertyOp0
 70
     1
102
RTVSPropertyOp1
 70
     1
102
RTVSPropertyOp2
 70
     1
102
RTVSPropertyOp3
 70
     1
102
RTVSPropertyOp4
 70
     1
102
RTVSPropertyOp5
 70
     1
102
RTVSPropertyOp6
 70
     1
102
RTVSPropertyOp7
 70
     1
102
RTVSPropertyOp8
 70
     1
102
RTVSPropertyOp9
 70
     1
102
RTVSPropertyOp10
 70
     1
102
RTVSPropertyOp11
 70
     1
102
RTVSPropertyOp12
 70
     1
102
RTVSPropertyOp13
 70
     1
102
RTVSPropertyOp14
 70
     1
102
RTVSPropertyOp15
 70
     1
102
RTVSPropertyOp16
 70
     1
102
RTVSPropertyOp17
 70
     1
102
RTVSPropertyOp18
 70
     1
102
RTVSPropertyOp19
 70
     1
102
RTVSPropertyOp20
 70
     1
102
RTVSPropertyOp21
 70
     1
102
RTVSPropertyOp22
 70
     1
102
RTVSPropertyOp23
 70
     1
102
RTVSPropertyOp24
 70
     1
102
RTVSPropertyOp25
 70
     1
102
RTVSPropertyOp26
 70
     1
102
RTVSPropertyOp27
 70
     1
102
RTVSPropertyOp28
 70
     1
102
RTVSPropertyOp29
 70
     1
102
RTVSPropertyOp30
 70
     1
102
RTVSPropertyOp31
 70
     1
102
RTVSPropertyOp32
 70
     1
  0
XRECORD
  5
1B5
102
{ACAD_REACTORS
330
1B4
102
}
330
1B4
100
AcDbXrecord
280
     1
102
RTVSPropertyOp0
 70
     1
102
RTVSPropertyOp1
 70
     1
102
RTVSPropertyOp2
 70
     1
102
RTVSPropertyOp3
 70
     1
102
RTVSPropertyOp4
 70
     1
102
RTVSPropertyOp5
 70
     1
102
RTVSPropertyOp6
 70
     1
102
RTVSPropertyOp7
 70
     1
102
RTVSPropertyOp8
 70
     1
102
RTVSPropertyOp9
 70
     1
102
RTVSPropertyOp10
 70
     1
102
RTVSPropertyOp11
 70
     1
102
RTVSPropertyOp12
 70
     1
102
RTVSPropertyOp13
 70
     1
102
RTVSPropertyOp14
 70
     1
102
RTVSPropertyOp15
 70
     1
102
RTVSPropertyOp16
 70
     1
102
RTVSPropertyOp17
 70
     1
102
RTVSPropertyOp18
 70
     1
102
RTVSPropertyOp19
 70
     1
102
RTVSPropertyOp20
 70
     1
102
RTVSPropertyOp21
 70
     1
102
RTVSPropertyOp22
 70
     1
102
RTVSPropertyOp23
 70
     1
102
RTVSPropertyOp24
 70
     1
102
RTVSPropertyOp25
 70
     1
102
RTVSPropertyOp26
 70
     1
102
RTVSPropertyOp27
 70
     1
102
RTVSPropertyOp28
 70
     1
102
RTVSPropertyOp29
 70
     1
102
RTVSPropertyOp30
 70
     1
102
RTVSPropertyOp31
 70
     1
102
RTVSPropertyOp32
 70
     1
  0
XRECORD
  5
1AB
102
{ACAD_REACTORS
330
1AA
102
}
330
1AA
100
AcDbXrecord
280
     1
102
RTVSPropertyOp0
 70
     1
102
RTVSPropertyOp1
 70
     1
102
RTVSPropertyOp2
 70
     1
102
RTVSPropertyOp3
 70
     1
102
RTVSPropertyOp4
 70
     1
102
RTVSPropertyOp5
 70
     1
102
RTVSPropertyOp6
 70
     1
102
RTVSPropertyOp7
 70
     1
102
RTVSPropertyOp8
 70
     1
102
RTVSPropertyOp9
 70
     1
102
RTVSPropertyOp10
 70
     1
102
RTVSPropertyOp11
 70
     1
102
RTVSPropertyOp12
 70
     1
102
RTVSPropertyOp13
 70
     1
102
RTVSPropertyOp14
 70
     1
102
RTVSPropertyOp15
 70
     1
102
RTVSPropertyOp16
 70
     1
102
RTVSPropertyOp17
 70
     1
102
RTVSPropertyOp18
 70
     1
102
RTVSPropertyOp19
 70
     1
102
RTVSPropertyOp20
 70
     1
102
RTVSPropertyOp21
 70
     1
102
RTVSPropertyOp22
 70
     1
102
RTVSPropertyOp23
 70
     1
102
RTVSPropertyOp24
 70
     1
102
RTVSPropertyOp25
 70
     1
102
RTVSPropertyOp26
 70
     1
102
RTVSPropertyOp27
 70
     1
102
RTVSPropertyOp28
 70
     1
102
RTVSPropertyOp29
 70
     1
102
RTVSPropertyOp30
 70
     1
102
RTVSPropertyOp31
 70
     1
102
RTVSPropertyOp32
 70
     1
  0
XRECORD
  5
1B3
102
{ACAD_REACTORS
330
1B2
102
}
330
1B2
100
AcDbXrecord
280
     1
102
RTVSPropertyOp0
 70
     1
102
RTVSPropertyOp1
 70
     1
102
RTVSPropertyOp2
 70
     1
102
RTVSPropertyOp3
 70
     1
102
RTVSPropertyOp4
 70
     1
102
RTVSPropertyOp5
 70
     1
102
RTVSPropertyOp6
 70
     1
102
RTVSPropertyOp7
 70
     1
102
RTVSPropertyOp8
 70
     1
102
RTVSPropertyOp9
 70
     1
102
RTVSPropertyOp10
 70
     1
102
RTVSPropertyOp11
 70
     1
102
RTVSPropertyOp12
 70
     1
102
RTVSPropertyOp13
 70
     1
102
RTVSPropertyOp14
 70
     1
102
RTVSPropertyOp15
 70
     1
102
RTVSPropertyOp16
 70
     1
102
RTVSPropertyOp17
 70
     1
102
RTVSPropertyOp18
 70
     1
102
RTVSPropertyOp19
 70
     1
102
RTVSPropertyOp20
 70
     1
102
RTVSPropertyOp21
 70
     1
102
RTVSPropertyOp22
 70
     1
102
RTVSPropertyOp23
 70
     1
102
RTVSPropertyOp24
 70
     1
102
RTVSPropertyOp25
 70
     1
102
RTVSPropertyOp26
 70
     1
102
RTVSPropertyOp27
 70
     1
102
RTVSPropertyOp28
 70
     1
102
RTVSPropertyOp29
 70
     1
102
RTVSPropertyOp30
 70
     1
102
RTVSPropertyOp31
 70
     1
102
RTVSPropertyOp32
 70
     1
  0
ENDSEC
  0
SECTION
  2
THUMBNAILIMAGE
 90
    16364
310
28000000B40000005500000001000800000000000000000000000000000000000000000000000000FFFFFF00FF000000FFFF000000FF000000FFFF000000FF00FF00FF000000000080808000C0C0C000FF000000FF7F7F00A5000000A55252007F0000007F3F3F004C0000004C2626002600000026131300FF3F0000FF9F7F
310
00A5290000A56752007F1F00007F4F3F004C1300004C2F26002609000026171300FF7F0000FFBF7F00A5520000A57C52007F3F00007F5F3F004C2600004C39260026130000261C1300FFBF0000FFDF7F00A57C0000A59152007F5F00007F6F3F004C3900004C422600261C000026211300FFFF0000FFFF7F00A5A50000A5A5
310
52007F7F00007F7F3F004C4C00004C4C26002626000026261300BFFF0000DFFF7F007CA5000091A552005F7F00006F7F3F00394C0000424C26001C260000212613007FFF0000BFFF7F0052A500007CA552003F7F00005F7F3F00264C0000394C2600132600001C2613003FFF00009FFF7F0029A5000067A552001F7F00004F
310
7F3F00134C00002F4C2600092600001726130000FF00007FFF7F0000A5000052A55200007F00003F7F3F00004C0000264C2600002600001326130000FF3F007FFF9F0000A5290052A56700007F1F003F7F4F00004C1300264C2F00002609001326170000FF7F007FFFBF0000A5520052A57C00007F3F003F7F5F00004C2600
310
264C39000026130013261C0000FFBF007FFFDF0000A57C0052A59100007F5F003F7F6F00004C3900264C420000261C001326210000FFFF007FFFFF0000A5A50052A5A500007F7F003F7F7F00004C4C00264C4C00002626001326260000BFFF007FDFFF00007CA5005291A500005F7F003F6F7F0000394C0026424C00001C26
310
0013212600007FFF007FBFFF000052A500527CA500003F7F003F5F7F0000264C0026394C0000132600131C2600003FFF007F9FFF000029A5005267A500001F7F003F4F7F0000134C00262F4C0000092600131726000000FF007F7FFF000000A5005252A50000007F003F3F7F0000004C0026264C0000002600131326003F00
310
FF009F7FFF002900A5006752A5001F007F004F3F7F0013004C002F264C0009002600171326007F00FF00BF7FFF005200A5007C52A5003F007F005F3F7F0026004C0039264C00130026001C132600BF00FF00DF7FFF007C00A5009152A5005F007F006F3F7F0039004C0042264C001C00260021132600FF00FF00FF7FFF00A5
310
00A500A552A5007F007F007F3F7F004C004C004C264C002600260026132600FF00BF00FF7FDF00A5007C00A55291007F005F007F3F6F004C0039004C26420026001C0026132100FF007F00FF7FBF00A5005200A5527C007F003F007F3F5F004C0026004C2639002600130026131C00FF003F00FF7F9F00A5002900A5526700
310
7F001F007F3F4F004C0013004C262F002600090026131700000000002D2D2D005B5B5B0089898900B7B7B700B3B3B30000000000000000000000000000000000000000000000000000000000000000000000000000000000000000000000000000000000000000000000000000000000000000000000000000000000000000
310
00000000000000000000000000000000000000000000000000000000000000000000000000000000000000000000000000000000000000000000000000000000000000000000000000000000000000000000000000000000000000000000000000000000000000000000000000000000000000000000000000000000000000
310
00000000000000000000000000000000000000000000000000000000000000000000000000000000000000000000000000000000000000000000000000000000000000000000000000000000000000000000000000000000000000000000000000000000000000000000000000000000000000000000000000000000000000
310
00000000000000000000000000000000000000000000000000000000000000000000000000000000000000000000000000000000000000000000000000000000000000000000000000000000000000000000000000000000000000000000000000000000000000000000000000000000000000000000000000000000000000
310
00000000000000000000000000000000000000000000000000000000000000000000000000000000000000000000000000000000000000000000000000000000000000000000000000000000000000000000000000000000000000000000000000000000000000000000000000000000000000000000000000000000000000
310
00000000000000000000000000000000000000000000000000000000000000000000000000000000000000000000000000000000000000000000000000000000000000000000000000000000000000000000000000000000000000000000000000000000000000000000000000000000000000000000000000000000000000
310
00000000000000000000000000000000000000000000000000000000000000000000000000000000000000000000000000000000000000000000000000000000000000000000000000000000000000000000000000000000000000000000000000000000000000000000000000000000000000000000000000000000000000
310
00000000000000000000000000000000000000000000000000000000000000000000000000000000000000000000000000000000000000000000000000000000000000000000000000000000000000000000000000000000009696969696969696000000000000000000000000000000000000000000000000000000000000
310
00000000000000000000000000000000000000000000000000000000000000000000000000000000000000000000000000000000000000000000000000000000000000000000000000000000000000000000000000000000000000000000000000000000000000000000000000000000000000000000000000000000000000
310
00000000000000000000000000969600000000000000969600000000000000000000000000000000000000000000000000000000000000000000000000000000000000000000000000000000000000000000000000000000000000000000000000000000000000000000000000000000000000000000000000000000000000
310
00000000000000000000000000000000000000000000000000000000000000000000000000000000000000000000000000000000000000000000000000000000009696000000000000000000969600000000000000000000000000000000000000000000000000000000000000000000000000000000000000000000000000
310
00000000000000000000000000000000000000000000000000000000000000000000000000000000000000000000000000000000000000000000000000000000000000000000000000000000000000000000000000000000000000000000000000000000000000000000000000000000000000000000960000000000000000
310
00000096000000000000000000000000000000000000000000000000000000000000000000000000000000000000000000000000000000000000000000000096969696969696000000000000000000000000000000000000000000000000000000000000000000000000000000000000000000000000000000000000000000
310
96960000000000000000000000000000000000000000000000000000000000000000000000000000000000009600000000000000000000009600000000000000000000000000000000000000000000000000000000000000000000000000000000000000000000000000000000000000000000969600000000009600000000
310
00000000000000000000000000000000000000000000000000000000000000000000000000000000000000000000000000009696969600969696000000000000000000000000000000000000000000000000000000000000000000000000000000960000000000000000000000960000000000000000000000000000000000
310
00000000000000000000000000000000000000000000000000000000000000000000000000000000009600000000000096960000000000000000000000000000000000000000000000000000000000000000000000000000000000000000000000000000000096960000000000009696000000000000000000000000000000
310
00000000000000000000000096969696969696969696009600000000000000000000009600969696969696969696969600000000000000000000000000000000000000000000000000000000000000000000000000000000000000000000969696000096969600000000000000000000000000000000000000000000000000
310
00000000000000000000000000000000000000000000000000000096000000000000000000009600000000000000000000000000000000000000000000009696960000000000000000000096960000000000000000000000969600000000000000000000969696000000000000000000000000000000000000000000000000
310
00000000000000000000000000000000000000000096960096009600000000000000000000000000000000000000000000000000000000000000000000000000000000000000000000000000000000960000000000000000000000969600000000000000000000000000000000000000009696960000000000000000000000
310
00000000000000000000000000000000000000000000000000000000009696000000000000000000000000000000000000000000000000000000000000000000000000000000969696969600969600009696969696000000000000000000000000000000000000000000000000000000000000000000000000000000000000
310
00000000009600000000000000000000000096000000000000000000000000000000000000009696000000000000000000000000000000000000000000000000000000000000000000000000000000000000009696000000000000000000000000000000000000000000000000000000000096969696969696969600000096
310
00009600960096960000969696969696969696000000000000000000000000000000000000000000000000000000000000000000000000000096000000000000969696969696009696000000000000000000000000000000000096960000000000000000000000000000000000000000000000000000000000000000000000
310
00000000000000000000969600000000000000000000000000000000000000000000000000969696000000969696969696969696969696960096969696969696969696969696000096969696000000000000000000000000000000000000000000000000000000000000000000009600000000009600000000009600009600
310
00000000000000000000000000000096960000000000000000000000000000000000000000000000000000000000000000000000000000000000000000000000969600000000000000000000000000000000000000000000969600009696969600000096969696969696969696969696969696969696960000000096969696
310
00009696000000000000000000000000000000000000000000000000000000000000000096000000009600000000000096960096000000000000000000000000000000009600000000000000000000000000000000000000000000000000000000000000000000000000000000000000000000000000960000000000000000
310
00000000000000000000000000969600969696000000000096009696969696009600000000009600969696969696960000000000969600009696000000000000000000000000000000000000000000000000000000000000009600000096960000000000000096009600000000000000000000000000000096960000000000
310
00000000000000000000000000000000000000000000000000000000000000000000000000000000000000009696000000000000000000000000000000000000009696009696009696969696969696969696009696000000000000009696009696969696969696969696009696009600000000000000000000000000000000
310
00000000000000000000000000000096000000960000000000000000969696000000000000000000000000000000960000000000000000000000000000000000000000000000000000000000000000000000000000000000000000000000000000009600000000000000000000000000000000000000960000960000009696
310
96969696960000969696960000000000000096009600009696969696969696000000960000960000000000000000000000000000000000000000000000000000000000009600000096000000000000000000000000000000000000000000000000000096000000000000000000000000000000000000000000000000969696
310
00000000000000000000000000000000000000000000000096000000000000000000000000000000000000969600969600000000969600969696969696009600000096969600009600009696969696000096960000000096960096000000000000000000000000000000000000000000000000000000969696960000009600
310
00000000000000000000000000000000000000000000000000960000000000000000000000000000000000000000000000009600960000000000000000000000000000000000000000000000009600000000000000000000000000000000000096000096000000009696009696000096960000009600009600960000960000
310
96969600009696009696000000009600969600000000000000000000000000000000000000000000000000009600000000000096000000000000000000000000000000000000000000000000000096000000000000000000000000000000000000000000000000960096000000000000000000000000000000000000000000
310
00000096000000000000000000000000000000000000960000960000000096009696960096969600000096000096009600009600000096960000969696009600000000960000960000000000000000000000000000000000000000000000000000960000000000009600000000000000000000000000000000000000000000
310
00000000960000000000000000000000000000000000000000000000009600960000000000000000000000000000000000000000000000009600000000000000000000000000000000000096000096000000009696969696969696960096969600009600960000969696009696009600969696960000000096000096000000
310
00000000000000000000000000000000000000000000009600960000000096000000000000000000000000000000000000000000000000000096960000000000000000000000000000000000000000000000969696000000000000000000000000000000000000000000000000960000000000000000000000000000000000
310
00969600960000000000969696009600969600960096960096969600969600960096960096969696960000000000960096000000000000000000000000000000000000000000000000000000969696960000009600000000000000000000000000000000000000000000000000000096000000000000000000000000000000
310
00000000000000000000000000000000000000000000000000000000000000000000960000000000000000000000000000000000000000960096960000009696969696969696969696009696000000000096960096969696009696969696960000009696009600000000000000000000000000000000000000000000000000
310
00000000009600000096000000000000000000000000000000000000000000000000000096960000000000000000000000000000000000000000000000000000000000000000000000000000000000000000000000000096960000000000000000000000000000000000000096960096000000960096960000969696969696
310
96960000000000969696009696009600009696009600000096009696000000000000000000000000000000000000000000000000000000000000960000009600000000000000000000000000000000000000000000000000009600000000000000000000000000000000000000000000000000000000000000000000000000
310
00000000000000000000000000009696000000000000000000000000000000000000009600969696009696969600969696960096960096000000000096009696009696969600969696960096960000960000000000000000000000000000000000000000000000000000000000000096000000960000000000000000000000
310
00000000000000000000000000009696000000000000000000000000000000000000000000000000000000000000000000000000000000000000000000000000000000009600000000000000000000000000000000000000009696009696969696969696960096969696009600000000009600969696960096969696969696
310
96960096960000000000000000000000000000000000000000000000000000000000000000960000009696000000000000000000000000000000000000000000000000969600000000000000000000000000000000000000000000000000000000000000000000000000000000000000000000000000000000960000000000
310
00000000000000000000000000000096960000000096969696960096969696969696000000000096009696969696009696969696000000009696000000000000000000000000000000000000000000000000000000000000000096000000009600000000000000000000000000000000000000000000000000960000000000
310
00000000000000000000000000000000000000000000000000000000000000000000000000000000000000000000969600000000000000000000000000000000000000969696969696969696000096969696960096960000000000000096969696969696960000969696969696969696000000000000000000000000000000
310
00000000000000000000000000000000960000000000969600000000000000000000000000000000000000000000969696000000000000000000000000000000000000000000000000000000000000000000000000000000000000000000000000000096960000000000000000000000000000000000009600969600969696
310
96969696960096969696960000000000000000009696969696009696969696969600009696969600000000000000000000000000000000000000000000000000000000000096000000000000009696969696969600000000000000000000000000009696000000000000000000000000000000000000000000000000000000
310
00000000000000000000000000000000000000000000000000009696000000000000000000000000000000009600960000009600009696000096969600009600000000000000000000009600009696000000969600009600009696969600000000000000000000000000000000000000000000000000000000009600000000
310
00000000000000000096969696000000000000000000009696000000000000000000000000000000000000000000000000000000000000000000000000000000000000000000000000000000000000009696000000000000000000000000000096969600000000969696969696969696969600000000000000000000000000
310
00009696969696960096969696000000969696960000000000000000000000000000000000000000000000000000000096000000000000000000000000000000009696000000000000000000960000000000000000000000000000000000000000000000000000000000000000000000000000000000000000000000000000
310
00000000000000960000000000000000000000000096969696000000000096960000969600969600000000000000000000000000000000009696009696000096960000000000960096000000000000000000000000000000000000000000000000000000009600000000000000000000000000000000000096000000000000
310
00969600000000000000000000000000000000000000000000000000000000000000000000000000000000000000000000000000000000000000000000960000000000000000000000009600969696969600000000969696969696000000000000000000000000000000000000009696969696960000000096969696960096
310
00000000000000000000000000000000000000000000000000000096000000000000000000000000000000000000009600000000000096000000000000000000000000000000000000000000000000000000000000000000000000000000000000000000000000000000000000000000000096000000000000000000000096
310
96009696969696960000969696969696000000000000000000000000000000000000000000969696969696000096969696969600960000000000000000000000000000000000000000000000000000009600000000000096969696969696969600000000969600000000969600000000000000000000000000000000000000
310
00000000000000000000000000000000000000000000000000000000000000000000000000000000009600000000000000000000960000009696969696000096969696960000000000000000000000000000000000000000000096009696969600009696969696000000960000000000000000000000000000000000000000
310
00000000000096000000009696960000000000000096969600000096960000009600000000000000000000000000000000000000000000000000000000000000000000000000000000000000000000000000000000000000000000000000960000000000000000000096000096009600969600969696969696000000000000
310
00000000000000000000000000000000009696969696960096960096969600009600000000000000000000000000000000000000000000000000009600000000960000000000000000000000969600000096000000960000000000000000000000000000000000000000000000000000000000000000000000000000000000
310
00000000000000000000000000000000000000009600000000000000000000960000960096009696009696969696960000000000000000000000000000000000000000000000969696969696009600009600960000960000000000000000000000000000000000000000000000000000960000009600000000000000000000
310
00000096960000960000009600000000000000000000000000000000000000000000000000000000000000000000000000000000000000000000000000000000000000000000000000960000000000000000000096009696009696960000969696960096000000000000000000000000000000000000000000000096969696
310
96960096969696009696009600000000000000000000000000000000000000000000000000009600000096000000000000000000000000000096000096000000960000000000000000000000000000000000000000000000000000000000000000000000000000000000000000000000000000000000000000000000000096
310
00000000000000000096000096960000000000969696969600960000000000000000000000000000000000000000000000960096969696000000000096969600960000000000000000000000000000000000000000000000000000960000969600000000000000000000000000000096009600000096000000000000000000
310
00000000000000000000000000000000000000000000000000000000000000000000000000000000000000000000000000000000960000000000000000009600009696960000000096969696000096000000000000000000000000000000000000000000000096000096969696000000009696960096000000000000000000
310
00000000000000000000000000000000009600009600000000000000000000000000000000960096000000960000000000000000000000000000000000000000000000000000000000000000000000000000000000000000000000000000000000000000000000000096000000000000000000969600969600969696960096
310
96960000969600000000000000000000000000000000000000000096000000969696009696969696969600960000000000000000000000000000000000000000000000000000960096960000000000000000000000000000000096969600000096000000000000000000000000000000000000000000000000000000000000
310
00000000000000000000000000000000000000000000000000000000000000960000000000000000000096009696969600000000009600969696960000000000000000000000000000000000000000009696969600960000000096969696000096000000000000000000000000000000000000000000000000000096009600
310
96000000000000000000000000000000000000000000960000000000000000000000000000000000000000000000000000000000009600000000000000000000000000000000000000000000000000000000000096000000000000000000009600009696969696000000969600969696960000000000000000009600000000
310
00000000009696969696969600009696969696960000960000000000000000000000000000000000000000000000000000960096009600969600000000000000000000000000000000000000960000000000000000000000000000000000000000000000000000000096969600000000000000000000000000000000000000
310
00000000000000000096960000000000000000000096000096969696960096009696009696969696000000000000009696960000000000000096969696960096960096969696969696000096000000000000000000000000000000000000000000000096969696009696969696969600000000000000000000000000000000
310
00009600000000000000000000000000000000000000000000000000000000960096000000000000000000000000000000000000000000000000000000009600000000000000000000009696009696000096969600969696969696969696000000000000960096000000000000960096969696969696969696960000960000
310
96000000000000000000000000000000000000000000000000960000000096960096969696000000000000000000000000000000000000969600000000000000000000000000000000000000000000000000000096009600000000000000000000000000000000000000000000000000000096960000000000000000000000
310
00960000960000969600969696969696969696960000000000009600960000000000009696969696969696969696969600009600009600000000000000000000000000000000000000000000000096000000009600960096969600000000000000000000000000000000000000960000000000000000000000000000000000
310
00000000000000000000969696000000000000000000000000000000000000000000000000000000960000000000000000000000000096960096000096960096969696969696969696000000000000969696000000000000969696969696969696969696000096960096960000000000000000000000000000000000000000
310
00000000969696960096009696969600000000000000000000000000000000000000000096000000000000000000000000000000000000000000000000000000000000000000000000000000000000000000000000000000000000009696000000000000000000000000000096000096000096009696000096960000969600
310
00000000000000000000000000009696000096960000969696960000960000960000000000000000000000000000000000000000000000000000000096009696960096969600000000000000000000000000000000000000000096000000000000000000000000000000000000000000000000000000000000000000000000
310
00000000000000000000000000000000009696000000000000000000000000000000969600969600969696009696969600009600000000000000000000000000000000009600009696969600969696009696009600000000000000000000000000000000000000000000000000000000009600969696009696969600000000
310
00000000000000000000000000000000969600000000000000000000000000000000000000000000000000000000000000000000000000000000000000000000000000000096960000000000000000000000000000000000969600969696969600009696960096000000000000000000000000000000000000969600969696
310
00969696009696009600000000000000000000000000000000000000000000000000000000000096009696009696969696000000000000000000000000000000000000000000009696000000000000000000000000000000000000000000000000000000000000000000000000000000000000000000000000960000000000
310
00000000000000000000000000000096960096969600969696969600960000000000000000000000000000000000009696009696969696009696960096960000000000000000000000000000000000000000000000000000000000009600969600000096969696000000000000000000000000000000000000000000009696
310
00000000000000000000000000000000000000000000000000000000000000000000000000000000000000000000960000000000000000000000000000000000000000000096969696969600009696969696960000000000000000000000000000000000969696969696000096969696960000000000000000000000000000
310
00000000000000000000000000000000000096009696009696960096009600000000000000000000000000000000000000000096000000000000000000000000000000000000000000000000000000000000000000000000000000000000000000000096000000000000000000000000000000000000000000000000969600
310
96969600000000009696000000000000000000000000000000969600000000009696969696000000000000000000000000000000000000000000000000000000000000000000009600960096960000009600960000000000000000000000000000000000000000009600000000000000000000000000000000000000000000
310
00000000000000000000000000000000000000000000000000969600000000000000000000000000000000000000000000000096960000000000969696969696960000000000000000000000969696969696960000000000960000000000000000000000000000000000000000000000000000000000000000000000960096
310
00960096960096009696000000000000000000000000000000000000000096000000000000000000000000000000000000000000000000000000000000000000000000000000000000000000000096000000000000000000000000000000000000000000000000009696969600000000969600000096960000000000000000
310
00960000000096960000009696969696000000000000000000000000000000000000000000000000000000000000000000009600960096969696969600009600969600000000000000000000000000000000009696000000000000000000000000000000000000000000000000000000000000000000000000000000000000
310
00000000960000000000000000000000000000000000000000000000009696969696969600000096969696969600000000000000000096969696969600000096969696969696000000000000000000000000000000000000000000000000000000000000000000960096960000969696969600969696969600000000000000
310
00000000000000000000969696000000000000000000000000000000000000000000000000000000000000000000000000000000000096969600000000000000000000000000000000000000000000000000969600969600960096969696969696960000000000000000960096969696969696009696009600969600000000
310
00000000000000000000000000000000000000000000000000000000009600969696969696969696009696969696000000000000000000000000000000000000009600000000000000000000000000000000000000000000000000000000000000000000000000000000009696000000000000000000000000000000000000
310
00000000000000009696009600969696969696960000009600000000000000009600000000969696969696960096009696000000000000000000000000000000000000000000000000000000000000000000960096009696969696009600969696969600000000000000000000000000000000000096960000000000000000
310
00000000000000000000000000000000000000000000000000000000000000000000960000000000000000000000000000000000000000000000000000969696969696969600969696960000969600000000000000960000009696969696969696960096969600000000000000000000000000000000000000000000000000
310
00000000000000009600960000009696009696969696969600000000000000000000000000000000000000960000000000000000000000000000000000000000000000000000000000000000000000000000000000000096000000000000000000000000000000000000000000000000000096009600009696969696960096
310
00000096000000000000009600000096969696969696960000960096000000000000000000000000000000000000000000000000000000000000000000960096960000969600009696969600000000000000000000000000000000000000000096000000000000000000000000000000000000000000000000000000000000
310
00000000000000000000000000960000000000000000000000000000000000000000000000000000969696960096960096960096960000009696000000000096960000969696969696009696009696960000000000000000000000000000000000000000000000000000000000000000000096000096009600960096009696
310
96000000000000000000000000000000000000000000960000000000000000000000000000000000000000000000000000000000000000000000000000000000000096000000000000000000000000000000000000000000000000000000960096000000009696969696960096969600000000009696960096009696960000
310
00009696009600000000000000000000000000000000000000000000000000000000000000000000960096960096969696969696960000000000000000000000000000000000000000000096000000000000000000000000000000000000000000000000000000000000000000000000000000000000009600000000000000
310
00000000000000000000000000000000000000009696009600000000969696969600960096009696000096009600969696969600000000960096000000000000000000000000000000000000000000000000000000000000000000000096009696969696960096960000000000000000000000000000000000000000000000
310
00960000000000000000000000000000000000000000000000000000000000000000000000000000000000000096000000000000000000000000000000000000000000000000000000009600969600000096969696969696009600960096009696969696960096000000009696009600000000000000000000000000000000
310
00000000000000000000000000000000000000969600000000960096960000000000000000000000000000000000000000000000000096000000000000000000000000000000000000000000000000000000000000000000000000000000000000009600000000000000000000000000000000000000000000000000000000
310
96960000960000009696960096969600960000969696969696009696000000009600009600000000000000000000000000000000000000000000000000000000000000000000000000969696960096969600000000000000000000000000000000000000000000000000009696000000000000000000000000000000000000
310
00000000000000000000000000000000000000000000009696000000000000000000000000000000000000000000000000000000000096960000969696000096969696969696000000969696969696960000969696000096000000000000000000000000000000000000000000000000000000000000000000000000000000
310
00009696960000000000000000000000000000000000000000000000000000000000960000000000000000000000000000000000000096969600000000000000000000000000000000000000960000000000000000000000000000000000000000000000000000000000000096960000009696969696969696960000000000
310
96960096969696969600000096960000000000000000000000000000000000000000000000000000000000000000000000000000000000000000000000000000000000000000000000000000000000000000000000000096960000000000000000000000000000000000000096000000000000000000000000000000000000
310
00969600000000000000000000000000000000000000000000000000000000000000009696000000009696969696000000000000000000969696969600000000960000000000000000000000000000000000000000000000000000000000000000000000000000000000000000000000000000000000000000000000000000
310
00000000000000000000000000009696000000000000000000000000000000000000000000000000000000000000000000000000009696000000000000000000000000000000000000000000000000000000000000000000000096960000009696960000000000000000000000969696000000969600000000000000000000
310
00000000000000000000000000000000000000000000000000000000000000000000000000000000000000000000000000000000000000000000000000000000000000009696000000000000000000000000000000000000000000000000000000000000000000000000960000000000000000000000000000000000000000
310
00000000000000000000000000000000009696000000009696969696969696969696969600000000960000000000000000000000000000000000000000000000000000000000000000000000000000000000000000000000000000000000000000000000000000000000000000000000000000000000000000009696000000
310
00000000000000000000000000000000000000000000000000000000000096960000000000000000000000000000000000000000000000000000000000000000000000000000000096960000000000000000000000000000000096969600000000000000000000000000000000000000000000000000000000000000000000
310
00000000000000000000000000000000000000000000000000000000000000000000000000000000000000000000000000009696960000000000000000000000000000000000000000000000000000000096960000000000000000000000000000000000000000000000000000000000000000000000000000000000000000
310
96969696960000000000000096969696960000000000000000000000000000000000000000000000000000000000000000000000000000000000000000000000000000000000000000000000000000000000000000000000000000000000000000000000000000000096969696969600000000000000000000000000000000
310
00969696969696000000000000000000000000000000000000000000000000000000000000000000000000000000000000000000000000000096969696969696960000000000000000000000000000000000000000000000000000000000000000000000000000000000000000000000000000000000000000000000000000
310
00000000000000000000000000000000000000000000000000000000000000000000009600000000000000000000000000000000000000960000000000000000000000000000000000000000000000000000000000000000000000000000000000000000000000000000000000000000000000000000000000000000000000
310
00000000000000000000000000000000000000000000000000000000000000000000000000000000000000000000000000000000000000000000000000000000000000000000000000000000000000000000000000000000960000000000000000000000000000000000000096000000000000000000000000000000000000
310
00000000000000000000000000000000000000000000000000000000000000000000000000000000000000000000000000000000000000000000000000000000000000000000000000000000000000000000000000000000000000000000000000000000000000000000000000000000000000000000000000000000000000
310
00000000000000000000000000009696000000000000000000000000000000000096960000000000000000000000000000000000000000000000000000000000000000000000000000000000000000000000000000000000000000000000000000000000000000000000000000000000000000000000000000000000000000
310
00000000000000000000000000000000000000000000000000000000000000000000000000000000000000000000000000000000000000000000000000000000000000009696000000000000000000000000000000969600000000000000000000000000000000000000000000000000000000000000000000000000000000
310
00000000000000000000000000000000000000000000000000000000000000000000000000000000000000000000000000000000000000000000000000000000000000000000000000000000000000000000000000000000000000000000000000000000000000000000000000000000000000000000000000009696969696
310
96969696969696969696969600000000000000000000000000000000000000000000000000000000000000000000000000000000000000000000000000000000000000000000000000000000000000000000000000000000000000000000000000000000000000000000000000000000000000000000000000000000000000
310
00000000000000000000000000000000000000000000000000000000000000000000000000000000000000000000000000000000000000000000000000000000000000000000000000000000000000000000000000000000000000000000000000000000000000000000000000000000000000000000000000000000000000
310
00000000000000000000000000000000000000000000000000000000000000000000000000000000000000000000000000000000000000000000000000000000000000000000000000000000000000000000000000000000000000000000000000000000000000000000000000000000000000000000000000000000000000
310
00000000000000000000000000000000000000000000000000000000000000000000000000000000000000000000000000000000000000000000000000000000000000000000000000000000000000000000000000000000000000000000000000000000000000000000000000000000000000000000000000000000000000
310
00000000000000000000000000000000000000000000000000000000000000000000000000000000000000000000000000000000000000000000000000000000000000000000000000000000000000000000000000000000000000000000000000000000000000000000000000000000000000000000000000000000000000
310
00000000000000000000000000000000000000000000000000000000000000000000000000000000000000000000000000000000000000000000000000000000000000000000000000000000000000000000000000000000000000000000000000000000000000000000000000000000000000000000000000000000000000
310
000000000000000000000000000000000000000000000000000000000000000000000000000000000000000000000000000000000000000000000000000000000000000000000000000000000000000000000000000000000000000000000000000000000000000000000000
  0
ENDSEC
  0
EOF
