  0
SECTION
  2
HEADER
  9
$ACADVER
  1
AC1021
  9
$ACADMAINTVER
 70
    25
  9
$DWGCODEPAGE
  3
ANSI_1251
  9
$INSBASE
 10
0.0
 20
0.0
 30
0.0
  9
$EXTMIN
 10
1.000000000000000E+20
 20
1.000000000000000E+20
 30
1.000000000000000E+20
  9
$EXTMAX
 10
-1.000000000000000E+20
 20
-1.000000000000000E+20
 30
-1.000000000000000E+20
  9
$LIMMIN
 10
0.0
 20
0.0
  9
$LIMMAX
 10
420.0
 20
297.0
  9
$ORTHOMODE
 70
     0
  9
$REGENMODE
 70
     1
  9
$FILLMODE
 70
     1
  9
$QTEXTMODE
 70
     0
  9
$MIRRTEXT
 70
     1
  9
$LTSCALE
 40
1.0
  9
$ATTMODE
 70
     1
  9
$TEXTSIZE
 40
2.5
  9
$TRACEWID
 40
1.0
  9
$TEXTSTYLE
  7
Standard
  9
$CLAYER
  8
0
  9
$CELTYPE
  6
ByLayer
  9
$CECOLOR
 62
   256
  9
$CELTSCALE
 40
1.0
  9
$DISPSILH
 70
     0
  9
$DIMSCALE
 40
1.0
  9
$DIMASZ
 40
2.5
  9
$DIMEXO
 40
0.625
  9
$DIMDLI
 40
3.75
  9
$DIMRND
 40
0.0
  9
$DIMDLE
 40
0.0
  9
$DIMEXE
 40
1.25
  9
$DIMTP
 40
0.0
  9
$DIMTM
 40
0.0
  9
$DIMTXT
 40
2.5
  9
$DIMCEN
 40
2.5
  9
$DIMTSZ
 40
0.0
  9
$DIMTOL
 70
     0
  9
$DIMLIM
 70
     0
  9
$DIMTIH
 70
     0
  9
$DIMTOH
 70
     0
  9
$DIMSE1
 70
     0
  9
$DIMSE2
 70
     0
  9
$DIMTAD
 70
     1
  9
$DIMZIN
 70
     8
  9
$DIMBLK
  1

  9
$DIMASO
 70
     1
  9
$DIMSHO
 70
     1
  9
$DIMPOST
  1

  9
$DIMAPOST
  1

  9
$DIMALT
 70
     0
  9
$DIMALTD
 70
     3
  9
$DIMALTF
 40
0.03937007874016
  9
$DIMLFAC
 40
1.0
  9
$DIMTOFL
 70
     1
  9
$DIMTVP
 40
0.0
  9
$DIMTIX
 70
     0
  9
$DIMSOXD
 70
     0
  9
$DIMSAH
 70
     0
  9
$DIMBLK1
  1

  9
$DIMBLK2
  1

  9
$DIMSTYLE
  2
ISO-25
  9
$DIMCLRD
 70
     0
  9
$DIMCLRE
 70
     0
  9
$DIMCLRT
 70
     0
  9
$DIMTFAC
 40
1.0
  9
$DIMGAP
 40
0.625
  9
$DIMJUST
 70
     0
  9
$DIMSD1
 70
     0
  9
$DIMSD2
 70
     0
  9
$DIMTOLJ
 70
     0
  9
$DIMTZIN
 70
     8
  9
$DIMALTZ
 70
     0
  9
$DIMALTTZ
 70
     0
  9
$DIMUPT
 70
     0
  9
$DIMDEC
 70
     2
  9
$DIMTDEC
 70
     2
  9
$DIMALTU
 70
     2
  9
$DIMALTTD
 70
     3
  9
$DIMTXSTY
  7
Standard
  9
$DIMAUNIT
 70
     0
  9
$DIMADEC
 70
     0
  9
$DIMALTRND
 40
0.0
  9
$DIMAZIN
 70
     0
  9
$DIMDSEP
 70
    44
  9
$DIMATFIT
 70
     3
  9
$DIMFRAC
 70
     0
  9
$DIMLDRBLK
  1

  9
$DIMLUNIT
 70
     2
  9
$DIMLWD
 70
    -2
  9
$DIMLWE
 70
    -2
  9
$DIMTMOVE
 70
     0
  9
$DIMFXL
 40
1.0
  9
$DIMFXLON
 70
     0
  9
$DIMJOGANG
 40
0.7853981633974483
  9
$DIMTFILL
 70
     0
  9
$DIMTFILLCLR
 70
     0
  9
$DIMARCSYM
 70
     0
  9
$DIMLTYPE
  6

  9
$DIMLTEX1
  6

  9
$DIMLTEX2
  6

  9
$LUNITS
 70
     2
  9
$LUPREC
 70
     4
  9
$SKETCHINC
 40
1.0
  9
$FILLETRAD
 40
10.0
  9
$AUNITS
 70
     0
  9
$AUPREC
 70
     0
  9
$MENU
  1
.
  9
$ELEVATION
 40
0.0
  9
$PELEVATION
 40
0.0
  9
$THICKNESS
 40
0.0
  9
$LIMCHECK
 70
     0
  9
$CHAMFERA
 40
10.0
  9
$CHAMFERB
 40
10.0
  9
$CHAMFERC
 40
20.0
  9
$CHAMFERD
 40
0.0
  9
$SKPOLY
 70
     0
  9
$TDCREATE
 40
2457652.495443357
  9
$TDUCREATE
 40
2457652.32877669
  9
$TDUPDATE
 40
2457652.495444479
  9
$TDUUPDATE
 40
2457652.328777812
  9
$TDINDWG
 40
0.0000000116
  9
$TDUSRTIMER
 40
0.0000000116
  9
$USRTIMER
 70
     1
  9
$ANGBASE
 50
0.0
  9
$ANGDIR
 70
     0
  9
$PDMODE
 70
     0
  9
$PDSIZE
 40
0.0
  9
$PLINEWID
 40
0.0
  9
$SPLFRAME
 70
     0
  9
$SPLINETYPE
 70
     6
  9
$SPLINESEGS
 70
     8
  9
$HANDSEED
  5
2B9
  9
$SURFTAB1
 70
     6
  9
$SURFTAB2
 70
     6
  9
$SURFTYPE
 70
     6
  9
$SURFU
 70
     6
  9
$SURFV
 70
     6
  9
$UCSBASE
  2

  9
$UCSNAME
  2

  9
$UCSORG
 10
0.0
 20
0.0
 30
0.0
  9
$UCSXDIR
 10
1.0
 20
0.0
 30
0.0
  9
$UCSYDIR
 10
0.0
 20
1.0
 30
0.0
  9
$UCSORTHOREF
  2

  9
$UCSORTHOVIEW
 70
     0
  9
$UCSORGTOP
 10
0.0
 20
0.0
 30
0.0
  9
$UCSORGBOTTOM
 10
0.0
 20
0.0
 30
0.0
  9
$UCSORGLEFT
 10
0.0
 20
0.0
 30
0.0
  9
$UCSORGRIGHT
 10
0.0
 20
0.0
 30
0.0
  9
$UCSORGFRONT
 10
0.0
 20
0.0
 30
0.0
  9
$UCSORGBACK
 10
0.0
 20
0.0
 30
0.0
  9
$PUCSBASE
  2

  9
$PUCSNAME
  2

  9
$PUCSORG
 10
0.0
 20
0.0
 30
0.0
  9
$PUCSXDIR
 10
1.0
 20
0.0
 30
0.0
  9
$PUCSYDIR
 10
0.0
 20
1.0
 30
0.0
  9
$PUCSORTHOREF
  2

  9
$PUCSORTHOVIEW
 70
     0
  9
$PUCSORGTOP
 10
0.0
 20
0.0
 30
0.0
  9
$PUCSORGBOTTOM
 10
0.0
 20
0.0
 30
0.0
  9
$PUCSORGLEFT
 10
0.0
 20
0.0
 30
0.0
  9
$PUCSORGRIGHT
 10
0.0
 20
0.0
 30
0.0
  9
$PUCSORGFRONT
 10
0.0
 20
0.0
 30
0.0
  9
$PUCSORGBACK
 10
0.0
 20
0.0
 30
0.0
  9
$USERI1
 70
     0
  9
$USERI2
 70
     0
  9
$USERI3
 70
     0
  9
$USERI4
 70
     0
  9
$USERI5
 70
     0
  9
$USERR1
 40
0.0
  9
$USERR2
 40
0.0
  9
$USERR3
 40
0.0
  9
$USERR4
 40
0.0
  9
$USERR5
 40
0.0
  9
$WORLDVIEW
 70
     1
  9
$SHADEDGE
 70
     3
  9
$SHADEDIF
 70
    70
  9
$TILEMODE
 70
     1
  9
$MAXACTVP
 70
    64
  9
$PINSBASE
 10
0.0
 20
0.0
 30
0.0
  9
$PLIMCHECK
 70
     0
  9
$PEXTMIN
 10
1.000000000000000E+20
 20
1.000000000000000E+20
 30
1.000000000000000E+20
  9
$PEXTMAX
 10
-1.000000000000000E+20
 20
-1.000000000000000E+20
 30
-1.000000000000000E+20
  9
$PLIMMIN
 10
0.0
 20
0.0
  9
$PLIMMAX
 10
420.0
 20
297.0
  9
$UNITMODE
 70
     0
  9
$VISRETAIN
 70
     1
  9
$PLINEGEN
 70
     0
  9
$PSLTSCALE
 70
     1
  9
$TREEDEPTH
 70
  3020
  9
$CMLSTYLE
  2
Standard
  9
$CMLJUST
 70
     0
  9
$CMLSCALE
 40
20.0
  9
$PROXYGRAPHICS
 70
     1
  9
$MEASUREMENT
 70
     1
  9
$CELWEIGHT
370
    -1
  9
$ENDCAPS
280
     0
  9
$JOINSTYLE
280
     0
  9
$LWDISPLAY
290
     0
  9
$INSUNITS
 70
     4
  9
$HYPERLINKBASE
  1

  9
$STYLESHEET
  1

  9
$XEDIT
290
     1
  9
$CEPSNTYPE
380
     0
  9
$PSTYLEMODE
290
     1
  9
$FINGERPRINTGUID
  2
{FA82D2F7-E120-4CCC-A53C-BB2A54FC0565}
  9
$VERSIONGUID
  2
{FAEB1C32-E019-11D5-929B-00C0DF256EC4}
  9
$EXTNAMES
290
     1
  9
$PSVPSCALE
 40
0.0
  9
$OLESTARTUP
290
     0
  9
$SORTENTS
280
   127
  9
$INDEXCTL
280
     0
  9
$HIDETEXT
280
     1
  9
$XCLIPFRAME
290
     0
  9
$HALOGAP
280
     0
  9
$OBSCOLOR
 70
   257
  9
$OBSLTYPE
280
     0
  9
$INTERSECTIONDISPLAY
280
     0
  9
$INTERSECTIONCOLOR
 70
   257
  9
$DIMASSOC
280
     2
  9
$PROJECTNAME
  1

  9
$CAMERADISPLAY
290
     0
  9
$LENSLENGTH
 40
50.0
  9
$CAMERAHEIGHT
 40
0.0
  9
$STEPSPERSEC
 40
2.0
  9
$STEPSIZE
 40
6.0
  9
$3DDWFPREC
 40
2.0
  9
$PSOLWIDTH
 40
5.0
  9
$PSOLHEIGHT
 40
80.0
  9
$LOFTANG1
 40
1.570796326794897
  9
$LOFTANG2
 40
1.570796326794897
  9
$LOFTMAG1
 40
0.0
  9
$LOFTMAG2
 40
0.0
  9
$LOFTPARAM
 70
     7
  9
$LOFTNORMALS
280
     1
  9
$LATITUDE
 40
37.795
  9
$LONGITUDE
 40
-122.394
  9
$NORTHDIRECTION
 40
0.0
  9
$TIMEZONE
 70
 -8000
  9
$LIGHTGLYPHDISPLAY
280
     1
  9
$TILEMODELIGHTSYNCH
280
     1
  9
$SOLIDHIST
280
     1
  9
$SHOWHIST
280
     1
  9
$DWFFRAME
280
     2
  9
$DGNFRAME
280
     2
  9
$REALWORLDSCALE
290
     1
  9
$INTERFERECOLOR
 62
   256
  9
$CSHADOW
280
     0
  9
$SHADOWPLANELOCATION
 40
0.0
  0
ENDSEC
  0
SECTION
  2
CLASSES
  0
CLASS
  1
ACDBDICTIONARYWDFLT
  2
AcDbDictionaryWithDefault
  3
ObjectDBX Classes
 90
        0
 91
        4
280
     0
281
     0
  0
CLASS
  1
VISUALSTYLE
  2
AcDbVisualStyle
  3
ObjectDBX Classes
 90
     4095
 91
        4
280
     0
281
     0
  0
CLASS
  1
MATERIAL
  2
AcDbMaterial
  3
ObjectDBX Classes
 90
     1153
 91
        4
280
     0
281
     0
  0
CLASS
  1
SCALE
  2
AcDbScale
  3
ObjectDBX Classes
 90
     1153
 91
        4
280
     0
281
     0
  0
CLASS
  1
DICTIONARYVAR
  2
AcDbDictionaryVar
  3
ObjectDBX Classes
 90
        0
 91
        4
280
     0
281
     0
  0
ENDSEC
  0
SECTION
  2
TABLES
  0
TABLE
  2
VPORT
  5
8
330
0
100
AcDbSymbolTable
 70
     1
  0
VPORT
  5
29
330
8
100
AcDbSymbolTableRecord
100
AcDbViewportTableRecord
  2
*Active
 70
     0
 10
0.0
 20
0.0
 11
1.0
 21
1.0
 12
78.1584510552758
 22
18.31641465822554
 13
0.0
 23
0.0
 14
10.0
 24
10.0
 15
10.0
 25
10.0
 16
0.0
 26
0.0
 36
1.0
 17
0.0
 27
0.0
 37
0.0
 40
247.1644938273581
 41
1.56485959462221
 42
50.0
 43
0.0
 44
0.0
 50
0.0
 51
0.0
 71
     0
 72
   100
 73
     1
 74
     3
 75
     0
 76
     0
 77
     0
 78
     0
281
     0
 65
     1
110
0.0
120
0.0
130
0.0
111
1.0
121
0.0
131
0.0
112
0.0
122
1.0
132
0.0
 79
     0
146
0.0
 60
     3
 61
     5
292
     1
282
     1
141
0.0
142
0.0
 63
   250
  0
ENDTAB
  0
TABLE
  2
LTYPE
  5
5
330
0
100
AcDbSymbolTable
 70
     3
  0
LTYPE
  5
14
330
5
100
AcDbSymbolTableRecord
100
AcDbLinetypeTableRecord
  2
ByBlock
 70
     0
  3

 72
    65
 73
     0
 40
0.0
  0
LTYPE
  5
15
330
5
100
AcDbSymbolTableRecord
100
AcDbLinetypeTableRecord
  2
ByLayer
 70
     0
  3

 72
    65
 73
     0
 40
0.0
  0
LTYPE
  5
16
330
5
100
AcDbSymbolTableRecord
100
AcDbLinetypeTableRecord
  2
Continuous
 70
     0
  3
Solid line
 72
    65
 73
     0
 40
0.0
  0
LTYPE
  5
42
330
5
100
AcDbSymbolTableRecord
100
AcDbLinetypeTableRecord
  2
K5LT_THIN
 70
     0
  3

 72
    65
 73
     0
 40
0.0
  0
LTYPE
  5
A4
330
5
100
AcDbSymbolTableRecord
100
AcDbLinetypeTableRecord
  2
K5LT32769
 70
     0
  3

 72
    65
 73
     0
 40
0.0
  0
ENDTAB
  0
TABLE
  2
LAYER
  5
2
330
0
100
AcDbSymbolTable
 70
     2
  0
LAYER
  5
10
330
2
100
AcDbSymbolTableRecord
100
AcDbLayerTableRecord
  2
0
 70
     0
 62
     7
  6
Continuous
370
    -3
390
F
347
3E
  0
LAYER
  5
40
330
2
100
AcDbSymbolTableRecord
100
AcDbLayerTableRecord
  2
Системный слой
 70
     0
 62
     7
  6
Continuous
370
    -3
390
F
347
3E
  0
ENDTAB
  0
TABLE
  2
STYLE
  5
3
330
0
100
AcDbSymbolTable
 70
     1
  0
STYLE
  5
11
330
3
100
AcDbSymbolTableRecord
100
AcDbTextStyleTableRecord
  2
Standard
 70
     0
 40
0.0
 41
1.0
 50
0.0
 71
     0
 42
2.5
  3
txt
  4

  0
ENDTAB
  0
TABLE
  2
VIEW
  5
6
330
0
100
AcDbSymbolTable
 70
     0
  0
ENDTAB
  0
TABLE
  2
UCS
  5
7
330
0
100
AcDbSymbolTable
 70
     0
  0
ENDTAB
  0
TABLE
  2
APPID
  5
9
330
0
100
AcDbSymbolTable
 70
     2
  0
APPID
  5
12
330
9
100
AcDbSymbolTableRecord
100
AcDbRegAppTableRecord
  2
ACAD
 70
     0
  0
APPID
  5
3F
330
9
100
AcDbSymbolTableRecord
100
AcDbRegAppTableRecord
  2
KOMPAS
 70
     0
  0
ENDTAB
  0
TABLE
  2
DIMSTYLE
  5
A
330
0
100
AcDbSymbolTable
 70
     1
100
AcDbDimStyleTable
  0
DIMSTYLE
105
27
330
A
100
AcDbSymbolTableRecord
100
AcDbDimStyleTableRecord
  2
ISO-25
 70
     0
 41
2.5
 42
0.625
 43
3.75
 44
1.25
 73
     0
 74
     0
 77
     1
 78
     8
140
2.5
141
2.5
143
0.03937007874016
147
0.625
171
     3
172
     1
178
     0
271
     2
272
     2
274
     3
278
    44
283
     0
284
     8
340
11
  0
ENDTAB
  0
TABLE
  2
BLOCK_RECORD
  5
1
330
0
100
AcDbSymbolTable
 70
    15
  0
BLOCK_RECORD
  5
1F
330
1
100
AcDbSymbolTableRecord
100
AcDbBlockTableRecord
  2
*Model_Space
340
22
 70
     0
280
     1
281
     0
  0
BLOCK_RECORD
  5
1B
330
1
100
AcDbSymbolTableRecord
100
AcDbBlockTableRecord
  2
*Paper_Space
340
1E
 70
     0
280
     1
281
     0
  0
BLOCK_RECORD
  5
23
330
1
100
AcDbSymbolTableRecord
100
AcDbBlockTableRecord
  2
*Paper_Space0
340
26
 70
     0
280
     1
281
     0
  0
BLOCK_RECORD
  5
41
330
1
100
AcDbSymbolTableRecord
100
AcDbBlockTableRecord
  2
KDIMARROW_00
340
0
 70
     0
280
     1
281
     0
  0
BLOCK_RECORD
  5
46
330
1
100
AcDbSymbolTableRecord
100
AcDbBlockTableRecord
  2
KDIMARROW_01
340
0
 70
     0
280
     1
281
     0
  0
BLOCK_RECORD
  5
4F
330
1
100
AcDbSymbolTableRecord
100
AcDbBlockTableRecord
  2
KDIMARROW_02
340
0
 70
     0
280
     1
281
     0
  0
BLOCK_RECORD
  5
59
330
1
100
AcDbSymbolTableRecord
100
AcDbBlockTableRecord
  2
KDIMARROW_03
340
0
 70
     0
280
     1
281
     0
  0
BLOCK_RECORD
  5
5F
330
1
100
AcDbSymbolTableRecord
100
AcDbBlockTableRecord
  2
KDIMARROW_04
340
0
 70
     0
280
     1
281
     0
  0
BLOCK_RECORD
  5
65
330
1
100
AcDbSymbolTableRecord
100
AcDbBlockTableRecord
  2
KDIMARROW_05
340
0
 70
     0
280
     1
281
     0
  0
BLOCK_RECORD
  5
6E
330
1
100
AcDbSymbolTableRecord
100
AcDbBlockTableRecord
  2
KDIMARROW_06
340
0
 70
     0
280
     1
281
     0
  0
BLOCK_RECORD
  5
78
330
1
100
AcDbSymbolTableRecord
100
AcDbBlockTableRecord
  2
KDIMARROW_07
340
0
 70
     0
280
     1
281
     0
  0
BLOCK_RECORD
  5
7E
330
1
100
AcDbSymbolTableRecord
100
AcDbBlockTableRecord
  2
KDIMARROW_08
340
0
 70
     0
280
     1
281
     0
  0
BLOCK_RECORD
  5
85
330
1
100
AcDbSymbolTableRecord
100
AcDbBlockTableRecord
  2
KDIMARROW_09
340
0
 70
     0
280
     1
281
     0
  0
BLOCK_RECORD
  5
8B
330
1
100
AcDbSymbolTableRecord
100
AcDbBlockTableRecord
  2
KDIMARROW_10
340
0
 70
     0
280
     1
281
     0
  0
BLOCK_RECORD
  5
92
330
1
100
AcDbSymbolTableRecord
100
AcDbBlockTableRecord
  2
KDIMARROW_11
340
0
 70
     0
280
     1
281
     0
  0
BLOCK_RECORD
  5
98
330
1
100
AcDbSymbolTableRecord
100
AcDbBlockTableRecord
  2
KDIMARROW_12
340
0
 70
     0
280
     1
281
     0
  0
BLOCK_RECORD
  5
9E
330
1
100
AcDbSymbolTableRecord
100
AcDbBlockTableRecord
  2
KDIMARROW_13
340
0
 70
     0
280
     1
281
     0
  0
ENDTAB
  0
ENDSEC
  0
SECTION
  2
BLOCKS
  0
BLOCK
  5
20
330
1F
100
AcDbEntity
  8
0
100
AcDbBlockBegin
  2
*Model_Space
 70
     0
 10
0.0
 20
0.0
 30
0.0
  3
*Model_Space
  1

  0
ENDBLK
  5
21
330
1F
100
AcDbEntity
  8
0
100
AcDbBlockEnd
  0
BLOCK
  5
1C
330
1B
100
AcDbEntity
 67
     1
  8
0
100
AcDbBlockBegin
  2
*Paper_Space
 70
     0
 10
0.0
 20
0.0
 30
0.0
  3
*Paper_Space
  1

  0
ENDBLK
  5
1D
330
1B
100
AcDbEntity
 67
     1
  8
0
100
AcDbBlockEnd
  0
BLOCK
  5
24
330
23
100
AcDbEntity
  8
0
100
AcDbBlockBegin
  2
*Paper_Space0
 70
     0
 10
0.0
 20
0.0
 30
0.0
  3
*Paper_Space0
  1

  0
ENDBLK
  5
25
330
23
100
AcDbEntity
  8
0
100
AcDbBlockEnd
  0
BLOCK
  5
44
330
41
100
AcDbEntity
  8
0
100
AcDbBlockBegin
  2
KDIMARROW_00
 70
     0
 10
0.0
 20
0.0
 30
0.0
  3
KDIMARROW_00
  1

  0
LINE
  5
43
330
41
100
AcDbEntity
  8
0
  6
K5LT_THIN
 62
     0
100
AcDbLine
 10
0.0
 20
0.0
 30
0.0
 11
-1.0
 21
0.0
 31
0.0
  0
ENDBLK
  5
45
330
41
100
AcDbEntity
  8
0
100
AcDbBlockEnd
  0
BLOCK
  5
4D
330
46
100
AcDbEntity
  8
0
100
AcDbBlockBegin
  2
KDIMARROW_01
 70
     0
 10
0.0
 20
0.0
 30
0.0
  3
KDIMARROW_01
  1

  0
LINE
  5
47
330
46
100
AcDbEntity
  8
0
  6
K5LT_THIN
 62
     0
100
AcDbLine
 10
0.0
 20
0.0
 30
0.0
 11
-5.0
 21
-0.6582624912261956
 31
0.0
  0
LINE
  5
48
330
46
100
AcDbEntity
  8
0
  6
K5LT_THIN
 62
     0
100
AcDbLine
 10
-5.0
 20
-0.6582624912261956
 30
0.0
 11
-4.5
 21
0.0000000000000006
 31
0.0
  0
LINE
  5
49
330
46
100
AcDbEntity
  8
0
  6
K5LT_THIN
 62
     0
100
AcDbLine
 10
-4.5
 20
0.0000000000000006
 30
0.0
 11
-5.0
 21
0.658262491226197
 31
0.0
  0
LINE
  5
4A
330
46
100
AcDbEntity
  8
0
  6
K5LT_THIN
 62
     0
100
AcDbLine
 10
-5.0
 20
0.658262491226197
 30
0.0
 11
0.0
 21
0.0
 31
0.0
  0
HATCH
  5
4B
330
46
100
AcDbEntity
  8
0
 62
     0
100
AcDbHatch
 10
0.0
 20
0.0
 30
0.0
210
0.0
220
0.0
230
1.0
  2
SOLID
 70
     1
 71
     0
 91
        1
 92
        1
 93
        4
 72
     1
 10
0.0
 20
0.0
 11
-5.0
 21
0.658262491226197
 72
     1
 10
-5.0
 20
0.658262491226197
 11
-4.5
 21
0.0000000000000006
 72
     1
 10
-4.5
 20
0.0000000000000006
 11
-5.0
 21
-0.6582624912261956
 72
     1
 10
-5.0
 20
-0.6582624912261956
 11
0.0
 21
0.0
 97
        0
 75
     0
 76
     1
 98
        0
  0
LINE
  5
4C
330
46
100
AcDbEntity
  8
0
  6
K5LT_THIN
 62
     0
100
AcDbLine
 10
0.0
 20
0.0
 30
0.0
 11
-1.0
 21
0.0
 31
0.0
  0
ENDBLK
  5
4E
330
46
100
AcDbEntity
  8
0
100
AcDbBlockEnd
  0
BLOCK
  5
57
330
4F
100
AcDbEntity
  8
0
100
AcDbBlockBegin
  2
KDIMARROW_02
 70
     0
 10
0.0
 20
0.0
 30
0.0
  3
KDIMARROW_02
  1

  0
LINE
  5
50
330
4F
100
AcDbEntity
  8
0
  6
K5LT_THIN
 62
     0
100
AcDbLine
 10
0.0
 20
0.0
 30
0.0
 11
5.0
 21
-0.658262491226197
 31
0.0
  0
LINE
  5
51
330
4F
100
AcDbEntity
  8
0
  6
K5LT_THIN
 62
     0
100
AcDbLine
 10
5.0
 20
-0.658262491226197
 30
0.0
 11
4.5
 21
-0.0000000000000006
 31
0.0
  0
LINE
  5
52
330
4F
100
AcDbEntity
  8
0
  6
K5LT_THIN
 62
     0
100
AcDbLine
 10
4.5
 20
-0.0000000000000006
 30
0.0
 11
5.0
 21
0.6582624912261956
 31
0.0
  0
LINE
  5
53
330
4F
100
AcDbEntity
  8
0
  6
K5LT_THIN
 62
     0
100
AcDbLine
 10
5.0
 20
0.6582624912261956
 30
0.0
 11
0.0
 21
0.0
 31
0.0
  0
LINE
  5
54
330
4F
100
AcDbEntity
  8
0
  6
K5LT_THIN
 62
     0
100
AcDbLine
 10
0.0
 20
0.0
 30
0.0
 11
7.0
 21
-0.0000000000000009
 31
0.0
  0
HATCH
  5
55
330
4F
100
AcDbEntity
  8
0
 62
     0
100
AcDbHatch
 10
0.0
 20
0.0
 30
0.0
210
0.0
220
0.0
230
1.0
  2
SOLID
 70
     1
 71
     0
 91
        1
 92
        1
 93
        4
 72
     1
 10
4.5
 20
-0.0000000000000006
 11
5.0
 21
0.6582624912261956
 72
     1
 10
5.0
 20
0.6582624912261956
 11
0.0
 21
0.0
 72
     1
 10
0.0
 20
0.0
 11
5.0
 21
-0.658262491226197
 72
     1
 10
5.0
 20
-0.658262491226197
 11
4.5
 21
-0.0000000000000006
 97
        0
 75
     0
 76
     1
 98
        0
  0
LINE
  5
56
330
4F
100
AcDbEntity
  8
0
  6
K5LT_THIN
 62
     0
100
AcDbLine
 10
0.0
 20
0.0
 30
0.0
 11
-1.0
 21
0.0
 31
0.0
  0
ENDBLK
  5
58
330
4F
100
AcDbEntity
  8
0
100
AcDbBlockEnd
  0
BLOCK
  5
5D
330
59
100
AcDbEntity
  8
0
100
AcDbBlockBegin
  2
KDIMARROW_03
 70
     0
 10
0.0
 20
0.0
 30
0.0
  3
KDIMARROW_03
  1

  0
LINE
  5
5A
330
59
100
AcDbEntity
  8
0
  6
K5LT_THIN
 62
     0
100
AcDbLine
 10
-1.060500025749207
 20
-1.060500025749206
 30
0.0
 11
1.060500025749207
 21
1.060500025749206
 31
0.0
  0
LINE
  5
5B
330
59
100
AcDbEntity
  8
0
  6
K5LT_THIN
 62
     0
100
AcDbLine
 10
0.0
 20
0.0
 30
0.0
 11
2.0
 21
-0.0000000000000002
 31
0.0
  0
LINE
  5
5C
330
59
100
AcDbEntity
  8
0
  6
K5LT_THIN
 62
     0
100
AcDbLine
 10
0.0
 20
0.0
 30
0.0
 11
-1.0
 21
0.0
 31
0.0
  0
ENDBLK
  5
5E
330
59
100
AcDbEntity
  8
0
100
AcDbBlockEnd
  0
BLOCK
  5
63
330
5F
100
AcDbEntity
  8
0
100
AcDbBlockBegin
  2
KDIMARROW_04
 70
     0
 10
0.0
 20
0.0
 30
0.0
  3
KDIMARROW_04
  1

  0
LWPOLYLINE
  5
60
330
5F
100
AcDbEntity
  8
0
  6
K5LT_THIN
 62
     7
100
AcDbPolyline
 90
       15
 70
     0
 43
0.0
 10
-0.25
 20
0.0
 10
0.0
 20
-0.25
 10
0.25
 20
0.0
 10
0.0
 20
0.25
 10
-0.25
 20
0.0
 10
-0.5
 20
0.0000000000000001
 10
-0.0000000000000001
 20
-0.5
 10
0.5
 20
-0.0000000000000001
 10
0.0000000000000001
 20
0.5
 10
-0.5
 20
0.0000000000000001
 10
-0.75
 20
0.0000000000000001
 10
-0.0000000000000001
 20
-0.75
 10
0.75
 20
-0.0000000000000001
 10
0.0000000000000001
 20
0.75
 10
-0.75
 20
0.0000000000000001
  0
LWPOLYLINE
  5
61
330
5F
100
AcDbEntity
  8
0
  6
K5LT_THIN
 62
     7
100
AcDbPolyline
 90
       15
 70
     0
 43
0.0
 10
-0.25
 20
0.0
 10
0.0
 20
-0.25
 10
0.25
 20
0.0
 10
0.0
 20
0.25
 10
-0.25
 20
0.0
 10
-0.5
 20
0.0000000000000001
 10
-0.0000000000000001
 20
-0.5
 10
0.5
 20
-0.0000000000000001
 10
0.0000000000000001
 20
0.5
 10
-0.5
 20
0.0000000000000001
 10
-0.75
 20
0.0000000000000001
 10
-0.0000000000000001
 20
-0.75
 10
0.75
 20
-0.0000000000000001
 10
0.0000000000000001
 20
0.75
 10
-0.75
 20
0.0000000000000001
  0
LINE
  5
62
330
5F
100
AcDbEntity
  8
0
  6
K5LT_THIN
 62
     0
100
AcDbLine
 10
0.0
 20
0.0
 30
0.0
 11
-1.0
 21
0.0
 31
0.0
  0
ENDBLK
  5
64
330
5F
100
AcDbEntity
  8
0
100
AcDbBlockEnd
  0
BLOCK
  5
6C
330
65
100
AcDbEntity
  8
0
100
AcDbBlockBegin
  2
KDIMARROW_05
 70
     0
 10
0.0
 20
0.0
 30
0.0
  3
KDIMARROW_05
  1

  0
LINE
  5
66
330
65
100
AcDbEntity
  8
0
  6
K5LT_THIN
 62
     0
100
AcDbLine
 10
0.0
 20
0.0
 30
0.0
 11
-5.0
 21
-0.6582624912261956
 31
0.0
  0
LINE
  5
67
330
65
100
AcDbEntity
  8
0
  6
K5LT_THIN
 62
     0
100
AcDbLine
 10
-5.0
 20
-0.6582624912261956
 30
0.0
 11
-5.0
 21
0.0000000000000006
 31
0.0
  0
LINE
  5
68
330
65
100
AcDbEntity
  8
0
  6
K5LT_THIN
 62
     0
100
AcDbLine
 10
-5.0
 20
0.0000000000000006
 30
0.0
 11
-5.0
 21
0.658262491226197
 31
0.0
  0
LINE
  5
69
330
65
100
AcDbEntity
  8
0
  6
K5LT_THIN
 62
     0
100
AcDbLine
 10
-5.0
 20
0.658262491226197
 30
0.0
 11
0.0
 21
0.0
 31
0.0
  0
HATCH
  5
6A
330
65
100
AcDbEntity
  8
0
 62
     0
100
AcDbHatch
 10
0.0
 20
0.0
 30
0.0
210
0.0
220
0.0
230
1.0
  2
SOLID
 70
     1
 71
     0
 91
        1
 92
        1
 93
        4
 72
     1
 10
0.0
 20
0.0
 11
-5.0
 21
0.658262491226197
 72
     1
 10
-5.0
 20
0.658262491226197
 11
-5.0
 21
0.0000000000000007
 72
     1
 10
-5.0
 20
0.0000000000000006
 11
-5.0
 21
-0.6582624912261956
 72
     1
 10
-5.0
 20
-0.6582624912261956
 11
0.0
 21
0.0
 97
        0
 75
     0
 76
     1
 98
        0
  0
LINE
  5
6B
330
65
100
AcDbEntity
  8
0
  6
K5LT_THIN
 62
     0
100
AcDbLine
 10
0.0
 20
0.0
 30
0.0
 11
-1.0
 21
0.0
 31
0.0
  0
ENDBLK
  5
6D
330
65
100
AcDbEntity
  8
0
100
AcDbBlockEnd
  0
BLOCK
  5
76
330
6E
100
AcDbEntity
  8
0
100
AcDbBlockBegin
  2
KDIMARROW_06
 70
     0
 10
0.0
 20
0.0
 30
0.0
  3
KDIMARROW_06
  1

  0
LINE
  5
6F
330
6E
100
AcDbEntity
  8
0
  6
K5LT_THIN
 62
     0
100
AcDbLine
 10
0.0
 20
0.0
 30
0.0
 11
5.0
 21
-0.658262491226197
 31
0.0
  0
LINE
  5
70
330
6E
100
AcDbEntity
  8
0
  6
K5LT_THIN
 62
     0
100
AcDbLine
 10
5.0
 20
-0.658262491226197
 30
0.0
 11
5.0
 21
-0.0000000000000006
 31
0.0
  0
LINE
  5
71
330
6E
100
AcDbEntity
  8
0
  6
K5LT_THIN
 62
     0
100
AcDbLine
 10
5.0
 20
-0.0000000000000006
 30
0.0
 11
5.0
 21
0.6582624912261956
 31
0.0
  0
LINE
  5
72
330
6E
100
AcDbEntity
  8
0
  6
K5LT_THIN
 62
     0
100
AcDbLine
 10
5.0
 20
0.6582624912261956
 30
0.0
 11
0.0
 21
0.0
 31
0.0
  0
LINE
  5
73
330
6E
100
AcDbEntity
  8
0
  6
K5LT_THIN
 62
     0
100
AcDbLine
 10
0.0
 20
0.0
 30
0.0
 11
7.0
 21
-0.0000000000000009
 31
0.0
  0
HATCH
  5
74
330
6E
100
AcDbEntity
  8
0
 62
     0
100
AcDbHatch
 10
0.0
 20
0.0
 30
0.0
210
0.0
220
0.0
230
1.0
  2
SOLID
 70
     1
 71
     0
 91
        1
 92
        1
 93
        4
 72
     1
 10
5.0
 20
-0.0000000000000006
 11
5.0
 21
0.6582624912261956
 72
     1
 10
5.0
 20
0.6582624912261956
 11
0.0
 21
0.0
 72
     1
 10
0.0
 20
0.0
 11
5.0
 21
-0.658262491226197
 72
     1
 10
5.0
 20
-0.658262491226197
 11
5.0
 21
-0.0000000000000007
 97
        0
 75
     0
 76
     1
 98
        0
  0
LINE
  5
75
330
6E
100
AcDbEntity
  8
0
  6
K5LT_THIN
 62
     0
100
AcDbLine
 10
0.0
 20
0.0
 30
0.0
 11
-1.0
 21
0.0
 31
0.0
  0
ENDBLK
  5
77
330
6E
100
AcDbEntity
  8
0
100
AcDbBlockEnd
  0
BLOCK
  5
7C
330
78
100
AcDbEntity
  8
0
100
AcDbBlockBegin
  2
KDIMARROW_07
 70
     0
 10
0.0
 20
0.0
 30
0.0
  3
KDIMARROW_07
  1

  0
LINE
  5
79
330
78
100
AcDbEntity
  8
0
  6
K5LT_THIN
 62
     0
100
AcDbLine
 10
0.0
 20
0.0
 30
0.0
 11
-5.0
 21
-0.6582624912261956
 31
0.0
  0
LINE
  5
7A
330
78
100
AcDbEntity
  8
0
  6
K5LT_THIN
 62
     0
100
AcDbLine
 10
0.0
 20
0.0
 30
0.0
 11
-5.0
 21
0.658262491226197
 31
0.0
  0
LINE
  5
7B
330
78
100
AcDbEntity
  8
0
  6
K5LT_THIN
 62
     0
100
AcDbLine
 10
0.0
 20
0.0
 30
0.0
 11
-1.0
 21
0.0
 31
0.0
  0
ENDBLK
  5
7D
330
78
100
AcDbEntity
  8
0
100
AcDbBlockEnd
  0
BLOCK
  5
83
330
7E
100
AcDbEntity
  8
0
100
AcDbBlockBegin
  2
KDIMARROW_08
 70
     0
 10
0.0
 20
0.0
 30
0.0
  3
KDIMARROW_08
  1

  0
LINE
  5
7F
330
7E
100
AcDbEntity
  8
0
  6
K5LT_THIN
 62
     0
100
AcDbLine
 10
0.0
 20
0.0
 30
0.0
 11
5.0
 21
-0.658262491226197
 31
0.0
  0
LINE
  5
80
330
7E
100
AcDbEntity
  8
0
  6
K5LT_THIN
 62
     0
100
AcDbLine
 10
0.0
 20
0.0
 30
0.0
 11
5.0
 21
0.6582624912261956
 31
0.0
  0
LINE
  5
81
330
7E
100
AcDbEntity
  8
0
  6
K5LT_THIN
 62
     0
100
AcDbLine
 10
0.0
 20
0.0
 30
0.0
 11
7.0
 21
-0.0000000000000009
 31
0.0
  0
LINE
  5
82
330
7E
100
AcDbEntity
  8
0
  6
K5LT_THIN
 62
     0
100
AcDbLine
 10
0.0
 20
0.0
 30
0.0
 11
-1.0
 21
0.0
 31
0.0
  0
ENDBLK
  5
84
330
7E
100
AcDbEntity
  8
0
100
AcDbBlockEnd
  0
BLOCK
  5
89
330
85
100
AcDbEntity
  8
0
100
AcDbBlockBegin
  2
KDIMARROW_09
 70
     0
 10
0.0
 20
0.0
 30
0.0
  3
KDIMARROW_09
  1

  0
LINE
  5
86
330
85
100
AcDbEntity
  8
0
  6
K5LT_THIN
 62
     0
100
AcDbLine
 10
0.0
 20
0.0
 30
0.0
 11
-2.0
 21
-2.0
 31
0.0
  0
LINE
  5
87
330
85
100
AcDbEntity
  8
0
  6
K5LT_THIN
 62
     0
100
AcDbLine
 10
0.0
 20
0.0
 30
0.0
 11
-2.0
 21
2.0
 31
0.0
  0
LINE
  5
88
330
85
100
AcDbEntity
  8
0
  6
K5LT_THIN
 62
     0
100
AcDbLine
 10
0.0
 20
0.0
 30
0.0
 11
-1.0
 21
0.0
 31
0.0
  0
ENDBLK
  5
8A
330
85
100
AcDbEntity
  8
0
100
AcDbBlockEnd
  0
BLOCK
  5
90
330
8B
100
AcDbEntity
  8
0
100
AcDbBlockBegin
  2
KDIMARROW_10
 70
     0
 10
0.0
 20
0.0
 30
0.0
  3
KDIMARROW_10
  1

  0
LINE
  5
8C
330
8B
100
AcDbEntity
  8
0
  6
K5LT_THIN
 62
     0
100
AcDbLine
 10
0.0
 20
0.0
 30
0.0
 11
2.0
 21
-2.0
 31
0.0
  0
LINE
  5
8D
330
8B
100
AcDbEntity
  8
0
  6
K5LT_THIN
 62
     0
100
AcDbLine
 10
0.0
 20
0.0
 30
0.0
 11
2.0
 21
2.0
 31
0.0
  0
LINE
  5
8E
330
8B
100
AcDbEntity
  8
0
  6
K5LT_THIN
 62
     0
100
AcDbLine
 10
0.0
 20
0.0
 30
0.0
 11
4.0
 21
-0.0000000000000005
 31
0.0
  0
LINE
  5
8F
330
8B
100
AcDbEntity
  8
0
  6
K5LT_THIN
 62
     0
100
AcDbLine
 10
0.0
 20
0.0
 30
0.0
 11
-1.0
 21
0.0
 31
0.0
  0
ENDBLK
  5
91
330
8B
100
AcDbEntity
  8
0
100
AcDbBlockEnd
  0
BLOCK
  5
96
330
92
100
AcDbEntity
  8
0
100
AcDbBlockBegin
  2
KDIMARROW_11
 70
     0
 10
0.0
 20
0.0
 30
0.0
  3
KDIMARROW_11
  1

  0
CIRCLE
  5
93
330
92
100
AcDbEntity
  8
0
  6
K5LT_THIN
 62
     0
100
AcDbCircle
 10
0.0
 20
0.0
 30
0.0
 40
2.5
  0
CIRCLE
  5
94
330
92
100
AcDbEntity
  8
0
  6
K5LT_THIN
 62
     0
100
AcDbCircle
 10
0.0
 20
0.0
 30
0.0
 40
2.5
  0
LINE
  5
95
330
92
100
AcDbEntity
  8
0
  6
K5LT_THIN
 62
     0
100
AcDbLine
 10
0.0
 20
0.0
 30
0.0
 11
-1.0
 21
0.0
 31
0.0
  0
ENDBLK
  5
97
330
92
100
AcDbEntity
  8
0
100
AcDbBlockEnd
  0
BLOCK
  5
9C
330
98
100
AcDbEntity
  8
0
100
AcDbBlockBegin
  2
KDIMARROW_12
 70
     0
 10
0.0
 20
0.0
 30
0.0
  3
KDIMARROW_12
  1

  0
CIRCLE
  5
99
330
98
100
AcDbEntity
  8
0
  6
K5LT_THIN
 62
     0
100
AcDbCircle
 10
0.0
 20
0.0
 30
0.0
 40
1.5
  0
CIRCLE
  5
9A
330
98
100
AcDbEntity
  8
0
  6
K5LT_THIN
 62
     0
100
AcDbCircle
 10
0.0
 20
0.0
 30
0.0
 40
1.5
  0
LINE
  5
9B
330
98
100
AcDbEntity
  8
0
  6
K5LT_THIN
 62
     0
100
AcDbLine
 10
0.0
 20
0.0
 30
0.0
 11
-1.0
 21
0.0
 31
0.0
  0
ENDBLK
  5
9D
330
98
100
AcDbEntity
  8
0
100
AcDbBlockEnd
  0
BLOCK
  5
A2
330
9E
100
AcDbEntity
  8
0
100
AcDbBlockBegin
  2
KDIMARROW_13
 70
     0
 10
0.0
 20
0.0
 30
0.0
  3
KDIMARROW_13
  1

  0
LINE
  5
9F
330
9E
100
AcDbEntity
  8
0
  6
K5LT_THIN
 62
     0
100
AcDbLine
 10
-1.060500025749206
 20
1.060500025749207
 30
0.0
 11
1.060500025749206
 21
-1.060500025749207
 31
0.0
  0
LINE
  5
A0
330
9E
100
AcDbEntity
  8
0
  6
K5LT_THIN
 62
     0
100
AcDbLine
 10
0.0
 20
0.0
 30
0.0
 11
2.0
 21
-0.0000000000000002
 31
0.0
  0
LINE
  5
A1
330
9E
100
AcDbEntity
  8
0
  6
K5LT_THIN
 62
     0
100
AcDbLine
 10
0.0
 20
0.0
 30
0.0
 11
-1.0
 21
0.0
 31
0.0
  0
ENDBLK
  5
A3
330
9E
100
AcDbEntity
  8
0
100
AcDbBlockEnd
  0
ENDSEC
  0
SECTION
  2
ENTITIES
  0
SPLINE
  5
A5
330
1F
100
AcDbEntity
  8
0
  6
K5LT32769
 62
    30
420
 16744448
100
AcDbSpline
210
0.0
220
0.0
230
1.0
 70
     8
 71
     3
 72
    14
 73
    10
 74
     0
 42
0.0
 43
0.0
 12
1.0
 22
0.0
 32
0.0
 13
1.0
 23
0.0
 33
0.0
 40
0.0
 40
0.0
 40
0.0
 40
0.0
 40
1.0
 40
1.0
 40
1.0
 40
2.0
 40
2.0
 40
2.0
 40
3.0
 40
3.0
 40
3.0
 40
3.0
 10
-21.58090651062106
 20
133.2366566599089
 30
0.0
 10
-18.56507201111075
 20
133.1780337716614
 30
0.0
 10
-16.15551175446739
 20
132.3661320702964
 30
0.0
 10
-14.35222574069099
 20
130.8009515558139
 30
0.0
 10
-12.87963226960069
 20
129.5227990114607
 30
0.0
 10
-11.62074343323495
 20
127.4047566327103
 30
0.0
 10
-11.1473506037238
 20
125.4594929942019
 30
0.0
 10
-10.77064663350695
 20
123.9115427717591
 30
0.0
 10
-10.77064663350695
 20
122.2592515900338
 30
0.0
 10
-11.1473506037238
 20
120.502619449026
 30
0.0
  0
SPLINE
  5
A6
330
1F
100
AcDbEntity
  8
0
  6
K5LT32769
 62
    30
420
 16744448
100
AcDbSpline
210
0.0
220
0.0
230
1.0
 70
     8
 71
     3
 72
    26
 73
    22
 74
     0
 42
0.0
 43
0.0
 12
1.0
 22
0.0
 32
0.0
 13
1.0
 23
0.0
 33
0.0
 40
0.0
 40
0.0
 40
0.0
 40
0.0
 40
1.0
 40
1.0
 40
1.0
 40
2.0
 40
2.0
 40
2.0
 40
3.0
 40
3.0
 40
3.0
 40
4.0
 40
4.0
 40
4.0
 40
5.0
 40
5.0
 40
5.0
 40
6.0
 40
6.0
 40
6.0
 40
7.0
 40
7.0
 40
7.0
 40
7.0
 10
-11.1473506037238
 20
120.502619449026
 30
0.0
 10
-9.547229447519468
 20
122.7775425291926
 30
0.0
 10
-7.780987149813107
 20
124.8713942853445
 30
0.0
 10
-5.84862371060472
 20
126.7841747174816
 30
0.0
 10
-2.294202679022541
 20
130.3025744443842
 30
0.0
 10
2.019402593916059
 20
133.4136484450586
 30
0.0
 10
6.500828483842174
 20
135.5014350900324
 30
0.0
 10
11.78977957739097
 20
137.9654279642318
 30
0.0
 10
18.07276888616982
 20
139.4815777653927
 30
0.0
 10
23.89261756045077
 20
139.4754802598717
 30
0.0
 10
28.79547757844853
 20
139.4703434912542
 30
0.0
 10
34.72312175155934
 20
139.2091543915393
 30
0.0
 10
38.64928480750228
 20
136.6267026942861
 30
0.0
 10
41.88912414886322
 20
134.4956835576099
 30
0.0
 10
45.2478823966575
 20
130.6521124795707
 30
0.0
 10
46.34083553179682
 20
126.8979968528005
 30
0.0
 10
47.15295661796992
 20
124.1084934766623
 30
0.0
 10
47.38319143469672
 20
120.4320138494666
 30
0.0
 10
46.34083553179682
 20
117.682723058238
 30
0.0
 10
45.64861913817477
 20
115.8569511206225
 30
0.0
 10
44.49670991385445
 20
114.1733914850774
 30
0.0
 10
42.88510785883586
 20
112.6320441516028
 30
0.0
  0
SPLINE
  5
A7
330
1F
100
AcDbEntity
  8
0
  6
K5LT32769
 62
    30
420
 16744448
100
AcDbSpline
210
0.0
220
0.0
230
1.0
 70
     8
 71
     3
 72
    11
 73
     7
 74
     0
 42
0.0
 43
0.0
 12
1.0
 22
0.0
 32
0.0
 13
1.0
 23
0.0
 33
0.0
 40
0.0
 40
0.0
 40
0.0
 40
0.0
 40
1.0
 40
1.0
 40
1.0
 40
2.0
 40
2.0
 40
2.0
 40
2.0
 10
42.88510785883586
 20
112.6320441516028
 30
0.0
 10
54.50290257588129
 20
104.1159258183521
 30
0.0
 10
61.85849024899515
 20
94.40094520332116
 30
0.0
 10
64.95187087817743
 20
83.48710230651008
 30
0.0
 10
68.07694769223356
 20
72.46143121148825
 30
0.0
 10
66.8520249500755
 20
60.21220378990768
 30
0.0
 10
61.27710265170326
 20
46.73942004176835
 30
0.0
  0
SPLINE
  5
A8
330
1F
100
AcDbEntity
  8
0
  6
K5LT32769
 62
    30
420
 16744448
100
AcDbSpline
210
0.0
220
0.0
230
1.0
 70
     8
 71
     3
 72
    29
 73
    25
 74
     0
 42
0.0
 43
0.0
 12
1.0
 22
0.0
 32
0.0
 13
1.0
 23
0.0
 33
0.0
 40
0.0
 40
0.0
 40
0.0
 40
0.0
 40
1.0
 40
1.0
 40
1.0
 40
2.0
 40
2.0
 40
2.0
 40
3.0
 40
3.0
 40
3.0
 40
4.0
 40
4.0
 40
4.0
 40
5.0
 40
5.0
 40
5.0
 40
6.0
 40
6.0
 40
6.0
 40
7.0
 40
7.0
 40
7.0
 40
8.0
 40
8.0
 40
8.0
 40
8.0
 10
61.27710265170326
 20
46.73942004176835
 30
0.0
 10
63.52519010071293
 20
44.1327505173194
 30
0.0
 10
64.71509154839971
 20
41.56896912210127
 30
0.0
 10
64.84680699476363
 20
39.04807585611394
 30
0.0
 10
65.03665209836763
 20
35.4146429029756
 30
0.0
 10
61.27565995395266
 20
31.59487694728789
 30
0.0
 10
58.82143566754966
 20
28.41506763161871
 30
0.0
 10
55.40335428683061
 20
23.98643937773748
 30
0.0
 10
48.26930272650876
 20
22.09578078168605
 30
0.0
 10
45.9732173962846
 20
17.25040899589872
 30
0.0
 10
44.45615568701188
 20
14.04899138887508
 30
0.0
 10
43.3377190637376
 20
9.511184548672947
 30
0.0
 10
44.02383255512714
 20
6.174358762049529
 30
0.0
 10
44.90285629949511
 20
1.899338471571038
 30
0.0
 10
50.40348877771024
 20
-1.038450776366127
 30
0.0
 10
53.23910634968967
 20
-4.901691471799673
 30
0.0
 10
56.61627932854782
 20
-9.50274635887878
 30
0.0
 10
61.4325584289948
 20
-14.19038798925551
 30
0.0
 10
62.36577174238141
 20
-19.43346937860982
 30
0.0
 10
63.24848862698862
 20
-24.3928461934962
 30
0.0
 10
61.35139878134045
 20
-30.4762396101069
 30
0.0
 10
59.35308607877444
 20
-35.38298171535266
 30
0.0
 10
57.27144146675094
 20
-40.49434053965372
 30
0.0
 10
54.1110751333593
 20
-45.16104970484886
 30
0.0
 10
49.87198707859952
 20
-49.38310921093804
 30
0.0
  0
SPLINE
  5
A9
330
1F
100
AcDbEntity
  8
0
  6
K5LT32769
 62
    30
420
 16744448
100
AcDbSpline
210
0.0
220
0.0
230
1.0
 70
     8
 71
     3
 72
    23
 73
    19
 74
     0
 42
0.0
 43
0.0
 12
1.0
 22
0.0
 32
0.0
 13
1.0
 23
0.0
 33
0.0
 40
0.0
 40
0.0
 40
0.0
 40
0.0
 40
1.0
 40
1.0
 40
1.0
 40
2.0
 40
2.0
 40
2.0
 40
3.0
 40
3.0
 40
3.0
 40
4.0
 40
4.0
 40
4.0
 40
5.0
 40
5.0
 40
5.0
 40
6.0
 40
6.0
 40
6.0
 40
6.0
 10
49.87198707859952
 20
-49.38310921093804
 30
0.0
 10
57.89378302505382
 20
-52.02867551410355
 30
0.0
 10
63.33267267518262
 20
-55.84013136982519
 30
0.0
 10
66.18865602898589
 20
-60.81747677810297
 30
0.0
 10
70.16396046188169
 20
-67.74555051467811
 30
0.0
 10
68.09946648642256
 20
-82.26986777290915
 30
0.0
 10
63.10185059608895
 20
-88.37823957182555
 30
0.0
 10
58.51192973431665
 20
-93.98830320347379
 30
0.0
 10
47.33031765977007
 20
-96.88165359417758
 30
0.0
 10
39.28935154231266
 20
-97.41816976816655
 30
0.0
 10
29.94808424474938
 20
-98.04144574240753
 30
0.0
 10
20.62385054150366
 20
-90.11724829991127
 30
0.0
 10
10.84664433919096
 20
-89.26018398122466
 30
0.0
 10
8.223666411905732
 20
-89.0302552322895
 30
0.0
 10
5.394796484175272
 20
-88.37772330510708
 30
0.0
 10
2.913734392716194
 20
-88.97248682485798
 30
0.0
 10
0.4895118153379041
 20
-89.55362470034467
 30
0.0
 10
-1.778863362691539
 20
-90.79414237582951
 30
0.0
 10
-3.891391141372136
 20
-92.69403985131254
 30
0.0
  0
SPLINE
  5
AA
330
1F
100
AcDbEntity
  8
0
  6
K5LT32769
 62
    30
420
 16744448
100
AcDbSpline
210
0.0
220
0.0
230
1.0
 70
     8
 71
     3
 72
    17
 73
    13
 74
     0
 42
0.0
 43
0.0
 12
1.0
 22
0.0
 32
0.0
 13
1.0
 23
0.0
 33
0.0
 40
0.0
 40
0.0
 40
0.0
 40
0.0
 40
1.0
 40
1.0
 40
1.0
 40
2.0
 40
2.0
 40
2.0
 40
3.0
 40
3.0
 40
3.0
 40
4.0
 40
4.0
 40
4.0
 40
4.0
 10
-3.891391141372136
 20
-92.69403985131254
 30
0.0
 10
-2.247876479249919
 20
-92.30054208004184
 30
0.0
 10
-1.061838060142932
 20
-92.42213124551671
 30
0.0
 10
-0.3332758840511758
 20
-93.05880734773717
 30
0.0
 10
0.4117314554398748
 20
-93.70985455358753
 30
0.0
 10
0.6083001215584134
 20
-95.54553704386038
 30
0.0
 10
0.4666610137091034
 20
-96.62775658389842
 30
0.0
 10
0.2321511164609114
 20
-98.41957239655034
 30
0.0
 10
-1.950979919657744
 20
-100.024910816607
 30
0.0
 10
-3.594557082612312
 20
-101.11970993286
 30
0.0
 10
-4.761232901906881
 20
-101.896841475392
 30
0.0
 10
-6.073949862334007
 20
-102.4711551455789
 30
0.0
 10
-7.532707963893685
 20
-102.8426509434206
 30
0.0
  0
LINE
  5
AB
330
1F
100
AcDbEntity
  8
0
  6
K5LT32769
 62
    30
420
 16744448
100
AcDbLine
 10
-7.532707963893685
 20
-102.8426509434206
 30
0.0
 11
-21.58090651062108
 21
-102.8426509434206
 31
0.0
  0
SPLINE
  5
AC
330
1F
100
AcDbEntity
  8
0
  6
K5LT32769
 62
    30
420
 16744448
100
AcDbSpline
210
0.0
220
0.0
230
1.0
 70
     8
 71
     3
 72
    14
 73
    10
 74
     0
 42
0.0
 43
0.0
 12
1.0
 22
0.0
 32
0.0
 13
1.0
 23
0.0
 33
0.0
 40
0.0
 40
0.0
 40
0.0
 40
0.0
 40
1.0
 40
1.0
 40
1.0
 40
2.0
 40
2.0
 40
2.0
 40
3.0
 40
3.0
 40
3.0
 40
3.0
 10
-21.58090651062106
 20
133.2366566599089
 30
0.0
 10
-24.59674101013137
 20
133.1780337716614
 30
0.0
 10
-27.00630126677473
 20
132.3661320702964
 30
0.0
 10
-28.80958728055113
 20
130.8009515558139
 30
0.0
 10
-30.28218075164143
 20
129.5227990114607
 30
0.0
 10
-31.54106958800718
 20
127.4047566327103
 30
0.0
 10
-32.01446241751832
 20
125.4594929942019
 30
0.0
 10
-32.39116638773518
 20
123.9115427717591
 30
0.0
 10
-32.39116638773518
 20
122.2592515900338
 30
0.0
 10
-32.01446241751832
 20
120.502619449026
 30
0.0
  0
SPLINE
  5
AD
330
1F
100
AcDbEntity
  8
0
  6
K5LT32769
 62
    30
420
 16744448
100
AcDbSpline
210
0.0
220
0.0
230
1.0
 70
     8
 71
     3
 72
    26
 73
    22
 74
     0
 42
0.0
 43
0.0
 12
1.0
 22
0.0
 32
0.0
 13
1.0
 23
0.0
 33
0.0
 40
0.0
 40
0.0
 40
0.0
 40
0.0
 40
1.0
 40
1.0
 40
1.0
 40
2.0
 40
2.0
 40
2.0
 40
3.0
 40
3.0
 40
3.0
 40
4.0
 40
4.0
 40
4.0
 40
5.0
 40
5.0
 40
5.0
 40
6.0
 40
6.0
 40
6.0
 40
7.0
 40
7.0
 40
7.0
 40
7.0
 10
-32.01446241751832
 20
120.502619449026
 30
0.0
 10
-33.61458357372265
 20
122.7775425291926
 30
0.0
 10
-35.38082587142902
 20
124.8713942853445
 30
0.0
 10
-37.31318931063741
 20
126.7841747174816
 30
0.0
 10
-40.86761034221959
 20
130.3025744443842
 30
0.0
 10
-45.18121561515818
 20
133.4136484450586
 30
0.0
 10
-49.6626415050843
 20
135.5014350900324
 30
0.0
 10
-54.9515925986331
 20
137.9654279642318
 30
0.0
 10
-61.23458190741194
 20
139.4815777653927
 30
0.0
 10
-67.0544305816929
 20
139.4754802598717
 30
0.0
 10
-71.95729059969065
 20
139.4703434912542
 30
0.0
 10
-77.88493477280147
 20
139.2091543915393
 30
0.0
 10
-81.81109782874441
 20
136.6267026942861
 30
0.0
 10
-85.05093717010534
 20
134.4956835576099
 30
0.0
 10
-88.40969541789963
 20
130.6521124795707
 30
0.0
 10
-89.50264855303894
 20
126.8979968528005
 30
0.0
 10
-90.31476963921205
 20
124.1084934766623
 30
0.0
 10
-90.54500445593885
 20
120.4320138494666
 30
0.0
 10
-89.50264855303894
 20
117.682723058238
 30
0.0
 10
-88.8104321594169
 20
115.8569511206225
 30
0.0
 10
-87.6585229350966
 20
114.1733914850774
 30
0.0
 10
-86.04692088007798
 20
112.6320441516028
 30
0.0
  0
SPLINE
  5
AE
330
1F
100
AcDbEntity
  8
0
  6
K5LT32769
 62
    30
420
 16744448
100
AcDbSpline
210
0.0
220
0.0
230
1.0
 70
     8
 71
     3
 72
    11
 73
     7
 74
     0
 42
0.0
 43
0.0
 12
1.0
 22
0.0
 32
0.0
 13
1.0
 23
0.0
 33
0.0
 40
0.0
 40
0.0
 40
0.0
 40
0.0
 40
1.0
 40
1.0
 40
1.0
 40
2.0
 40
2.0
 40
2.0
 40
2.0
 10
-86.04692088007798
 20
112.6320441516028
 30
0.0
 10
-97.66471559712343
 20
104.1159258183521
 30
0.0
 10
-105.0203032702373
 20
94.40094520332116
 30
0.0
 10
-108.1136838994196
 20
83.48710230651008
 30
0.0
 10
-111.2387607134757
 20
72.46143121148825
 30
0.0
 10
-110.0138379713176
 20
60.21220378990768
 30
0.0
 10
-104.4389156729454
 20
46.73942004176835
 30
0.0
  0
SPLINE
  5
AF
330
1F
100
AcDbEntity
  8
0
  6
K5LT32769
 62
    30
420
 16744448
100
AcDbSpline
210
0.0
220
0.0
230
1.0
 70
     8
 71
     3
 72
    29
 73
    25
 74
     0
 42
0.0
 43
0.0
 12
1.0
 22
0.0
 32
0.0
 13
1.0
 23
0.0
 33
0.0
 40
0.0
 40
0.0
 40
0.0
 40
0.0
 40
1.0
 40
1.0
 40
1.0
 40
2.0
 40
2.0
 40
2.0
 40
3.0
 40
3.0
 40
3.0
 40
4.0
 40
4.0
 40
4.0
 40
5.0
 40
5.0
 40
5.0
 40
6.0
 40
6.0
 40
6.0
 40
7.0
 40
7.0
 40
7.0
 40
8.0
 40
8.0
 40
8.0
 40
8.0
 10
-104.4389156729454
 20
46.73942004176835
 30
0.0
 10
-106.6870031219551
 20
44.1327505173194
 30
0.0
 10
-107.8769045696418
 20
41.56896912210127
 30
0.0
 10
-108.0086200160058
 20
39.04807585611394
 30
0.0
 10
-108.1984651196098
 20
35.4146429029756
 30
0.0
 10
-104.4374729751948
 20
31.59487694728789
 30
0.0
 10
-101.9832486887918
 20
28.41506763161871
 30
0.0
 10
-98.56516730807274
 20
23.98643937773748
 30
0.0
 10
-91.43111574775088
 20
22.09578078168605
 30
0.0
 10
-89.13503041752672
 20
17.25040899589872
 30
0.0
 10
-87.61796870825401
 20
14.04899138887508
 30
0.0
 10
-86.49953208497973
 20
9.511184548672947
 30
0.0
 10
-87.18564557636927
 20
6.174358762049529
 30
0.0
 10
-88.06466932073724
 20
1.899338471571038
 30
0.0
 10
-93.56530179895236
 20
-1.038450776366127
 30
0.0
 10
-96.4009193709318
 20
-4.901691471799673
 30
0.0
 10
-99.77809234978994
 20
-9.50274635887878
 30
0.0
 10
-104.5943714502369
 20
-14.19038798925551
 30
0.0
 10
-105.5275847636235
 20
-19.43346937860982
 30
0.0
 10
-106.4103016482308
 20
-24.3928461934962
 30
0.0
 10
-104.5132118025826
 20
-30.4762396101069
 30
0.0
 10
-102.5148991000166
 20
-35.38298171535266
 30
0.0
 10
-100.4332544879931
 20
-40.49434053965372
 30
0.0
 10
-97.2728881546014
 20
-45.16104970484886
 30
0.0
 10
-93.03380009984164
 20
-49.38310921093804
 30
0.0
  0
SPLINE
  5
B0
330
1F
100
AcDbEntity
  8
0
  6
K5LT32769
 62
    30
420
 16744448
100
AcDbSpline
210
0.0
220
0.0
230
1.0
 70
     8
 71
     3
 72
    23
 73
    19
 74
     0
 42
0.0
 43
0.0
 12
1.0
 22
0.0
 32
0.0
 13
1.0
 23
0.0
 33
0.0
 40
0.0
 40
0.0
 40
0.0
 40
0.0
 40
1.0
 40
1.0
 40
1.0
 40
2.0
 40
2.0
 40
2.0
 40
3.0
 40
3.0
 40
3.0
 40
4.0
 40
4.0
 40
4.0
 40
5.0
 40
5.0
 40
5.0
 40
6.0
 40
6.0
 40
6.0
 40
6.0
 10
-93.03380009984164
 20
-49.38310921093804
 30
0.0
 10
-101.055596046296
 20
-52.02867551410355
 30
0.0
 10
-106.4944856964247
 20
-55.84013136982519
 30
0.0
 10
-109.350469050228
 20
-60.81747677810297
 30
0.0
 10
-113.3257734831238
 20
-67.74555051467811
 30
0.0
 10
-111.2612795076647
 20
-82.26986777290915
 30
0.0
 10
-106.2636636173311
 20
-88.37823957182555
 30
0.0
 10
-101.6737427555588
 20
-93.98830320347379
 30
0.0
 10
-90.4921306810122
 20
-96.88165359417758
 30
0.0
 10
-82.45116456355478
 20
-97.41816976816655
 30
0.0
 10
-73.1098972659915
 20
-98.04144574240753
 30
0.0
 10
-63.78566356274578
 20
-90.11724829991127
 30
0.0
 10
-54.00845736043308
 20
-89.26018398122466
 30
0.0
 10
-51.38547943314786
 20
-89.0302552322895
 30
0.0
 10
-48.5566095054174
 20
-88.37772330510708
 30
0.0
 10
-46.07554741395832
 20
-88.97248682485798
 30
0.0
 10
-43.65132483658003
 20
-89.55362470034467
 30
0.0
 10
-41.38294965855059
 20
-90.79414237582951
 30
0.0
 10
-39.27042187986999
 20
-92.69403985131254
 30
0.0
  0
SPLINE
  5
B1
330
1F
100
AcDbEntity
  8
0
  6
K5LT32769
 62
    30
420
 16744448
100
AcDbSpline
210
0.0
220
0.0
230
1.0
 70
     8
 71
     3
 72
    17
 73
    13
 74
     0
 42
0.0
 43
0.0
 12
1.0
 22
0.0
 32
0.0
 13
1.0
 23
0.0
 33
0.0
 40
0.0
 40
0.0
 40
0.0
 40
0.0
 40
1.0
 40
1.0
 40
1.0
 40
2.0
 40
2.0
 40
2.0
 40
3.0
 40
3.0
 40
3.0
 40
4.0
 40
4.0
 40
4.0
 40
4.0
 10
-39.27042187986999
 20
-92.69403985131254
 30
0.0
 10
-40.91393654199221
 20
-92.30054208004184
 30
0.0
 10
-42.09997496109919
 20
-92.42213124551671
 30
0.0
 10
-42.82853713719095
 20
-93.05880734773717
 30
0.0
 10
-43.573544476682
 20
-93.70985455358753
 30
0.0
 10
-43.77011314280054
 20
-95.54553704386038
 30
0.0
 10
-43.62847403495122
 20
-96.62775658389842
 30
0.0
 10
-43.39396413770304
 20
-98.41957239655034
 30
0.0
 10
-41.21083310158438
 20
-100.024910816607
 30
0.0
 10
-39.56725593862981
 20
-101.11970993286
 30
0.0
 10
-38.40058011933525
 20
-101.896841475392
 30
0.0
 10
-37.08786315890812
 20
-102.4711551455789
 30
0.0
 10
-35.62910505734844
 20
-102.8426509434206
 30
0.0
  0
LINE
  5
B2
330
1F
100
AcDbEntity
  8
0
  6
K5LT32769
 62
    30
420
 16744448
100
AcDbLine
 10
-35.62910505734844
 20
-102.8426509434206
 30
0.0
 11
-21.58090651062105
 21
-102.8426509434206
 31
0.0
  0
LINE
  5
B3
330
1F
100
AcDbEntity
  8
0
  6
K5LT32769
 62
    30
420
 16744448
100
AcDbLine
 10
185.5535177012296
 20
69.30882369517195
 30
0.0
 11
214.5535177012296
 21
69.30882369517195
 31
0.0
  0
LINE
  5
B4
330
1F
100
AcDbEntity
  8
0
  6
K5LT32769
 62
    30
420
 16744448
100
AcDbLine
 10
222.5535177012296
 20
61.30882369517195
 30
0.0
 11
222.5535177012296
 21
-34.69117630482804
 31
0.0
  0
LINE
  5
B5
330
1F
100
AcDbEntity
  8
0
  6
K5LT32769
 62
    30
420
 16744448
100
AcDbLine
 10
214.5535177012296
 20
-42.69117630482805
 30
0.0
 11
185.5535177012296
 21
-42.69117630482805
 31
0.0
  0
LINE
  5
B6
330
1F
100
AcDbEntity
  8
0
  6
K5LT32769
 62
    30
420
 16744448
100
AcDbLine
 10
185.5535177012296
 20
-46.69117630482804
 30
0.0
 11
195.194108759051
 21
-46.69117630482803
 31
0.0
  0
LINE
  5
B7
330
1F
100
AcDbEntity
  8
0
  6
K5LT32769
 62
    30
420
 16744448
100
AcDbLine
 10
226.5535177012296
 20
-36.69117630482805
 30
0.0
 11
226.5535177012296
 21
-24.29187455638386
 31
0.0
  0
LINE
  5
B8
330
1F
100
AcDbEntity
  8
0
  6
K5LT32769
 62
    30
420
 16744448
100
AcDbLine
 10
210.7696454651233
 20
73.30882369517195
 30
0.0
 11
194.2467343044318
 21
73.30882369517195
 31
0.0
  0
ARC
  5
B9
330
1F
100
AcDbEntity
  8
0
  6
K5LT32769
 62
    30
420
 16744448
100
AcDbCircle
 10
214.5535177012296
 20
-34.69117630482805
 30
0.0
 40
8.0
100
AcDbArc
 50
270.0
 51
0.0
  0
ARC
  5
BA
330
1F
100
AcDbEntity
  8
0
  6
K5LT32769
 62
    30
420
 16744448
100
AcDbCircle
 10
214.5535177012296
 20
61.30882369517195
 30
0.0
 40
8.0
100
AcDbArc
 50
0.0
 51
90.0
  0
ARC
  5
BB
330
1F
100
AcDbEntity
  8
0
  6
K5LT32769
 62
    30
420
 16744448
100
AcDbCircle
 10
216.5535177012296
 20
63.30882369517195
 30
0.0
 40
10.0
100
AcDbArc
 50
25.57175179209201
 51
58.53904159505635
  0
ARC
  5
BC
330
1F
100
AcDbEntity
  8
0
  6
K5LT32769
 62
    30
420
 16744448
100
AcDbCircle
 10
216.5535177012296
 20
-36.69117630482805
 30
0.0
 40
10.0
100
AcDbArc
 50
270.0
 51
0.0
  0
SPLINE
  5
BD
330
1F
100
AcDbEntity
  8
0
  6
K5LT32769
 62
    30
420
 16744448
100
AcDbSpline
210
0.0
220
0.0
230
1.0
 70
     8
 71
     3
 72
    11
 73
     7
 74
     0
 42
0.0
 43
0.0
 12
1.0
 22
0.0
 32
0.0
 13
1.0
 23
0.0
 33
0.0
 40
0.0
 40
0.0
 40
0.0
 40
0.0
 40
1.0
 40
1.0
 40
1.0
 40
2.0
 40
2.0
 40
2.0
 40
2.0
 10
185.5535177012296
 20
126.4575745621997
 30
0.0
 10
187.2625780063139
 20
124.1289056091516
 30
0.0
 10
188.5116927214886
 20
121.6675612105457
 30
0.0
 10
189.3008618467538
 20
119.073541366382
 30
0.0
 10
190.2196034642081
 20
116.0536133040231
 30
0.0
 10
190.5149647920408
 20
112.8538655858355
 30
0.0
 10
190.1869458302519
 20
109.4742982118191
 30
0.0
  0
SPLINE
  5
BE
330
1F
100
AcDbEntity
  8
0
  6
K5LT32769
 62
    30
420
 16744448
100
AcDbSpline
210
0.0
220
0.0
230
1.0
 70
     8
 71
     3
 72
    11
 73
     7
 74
     0
 42
0.0
 43
0.0
 12
1.0
 22
0.0
 32
0.0
 13
1.0
 23
0.0
 33
0.0
 40
0.0
 40
0.0
 40
0.0
 40
0.0
 40
1.0
 40
1.0
 40
1.0
 40
2.0
 40
2.0
 40
2.0
 40
2.0
 10
190.1869458302519
 20
109.4742982118191
 30
0.0
 10
191.4558433766469
 20
111.1901369117651
 30
0.0
 10
192.9326500158105
 20
112.4700359990402
 30
0.0
 10
194.6173657477425
 20
113.3139954736443
 30
0.0
 10
196.556990620959
 20
114.2856518533538
 30
0.0
 10
198.7722005797043
 20
114.6794669571307
 30
0.0
 10
201.2629956239784
 20
114.4954407849751
 30
0.0
  0
SPLINE
  5
BF
330
1F
100
AcDbEntity
  8
0
  6
K5LT32769
 62
    30
420
 16744448
100
AcDbSpline
210
0.0
220
0.0
230
1.0
 70
     8
 71
     3
 72
    14
 73
    10
 74
     0
 42
0.0
 43
0.0
 12
1.0
 22
0.0
 32
0.0
 13
1.0
 23
0.0
 33
0.0
 40
0.0
 40
0.0
 40
0.0
 40
0.0
 40
1.0
 40
1.0
 40
1.0
 40
2.0
 40
2.0
 40
2.0
 40
3.0
 40
3.0
 40
3.0
 40
3.0
 10
201.2629956239784
 20
114.4954407849751
 30
0.0
 10
198.683673251061
 20
113.2578941077602
 30
0.0
 10
196.4684632923156
 20
111.6826336926525
 30
0.0
 10
194.6173657477425
 20
109.7696595396518
 30
0.0
 10
192.3464050332195
 20
107.4227874571412
 30
0.0
 10
190.5357018125178
 20
104.3068539816182
 30
0.0
 10
189.4485425106701
 20
101.2041810325033
 30
0.0
 10
188.7199251891749
 20
99.12476061102724
 30
0.0
 10
188.2768831974259
 20
96.934164096268
 30
0.0
 10
188.1194165354229
 20
94.63239148822557
 30
0.0
  0
SPLINE
  5
C0
330
1F
100
AcDbEntity
  8
0
  6
K5LT32769
 62
    30
420
 16744448
100
AcDbSpline
210
0.0
220
0.0
230
1.0
 70
     8
 71
     3
 72
    11
 73
     7
 74
     0
 42
0.0
 43
0.0
 12
1.0
 22
0.0
 32
0.0
 13
1.0
 23
0.0
 33
0.0
 40
0.0
 40
0.0
 40
0.0
 40
0.0
 40
1.0
 40
1.0
 40
1.0
 40
2.0
 40
2.0
 40
2.0
 40
2.0
 10
188.1194165354229
 20
94.63239148822557
 30
0.0
 10
189.2863129295467
 20
95.82356097046625
 30
0.0
 10
190.5928755778234
 20
96.589996727333
 30
0.0
 10
192.0391044802529
 20
96.93169875882582
 30
0.0
 10
192.6626619406185
 20
97.07902733910899
 30
0.0
 10
193.3121833275202
 20
97.14739801141441
 30
0.0
 10
193.9876686409579
 20
97.13681077574213
 30
0.0
  0
SPLINE
  5
C1
330
1F
100
AcDbEntity
  8
0
  6
K5LT32769
 62
    30
420
 16744448
100
AcDbSpline
210
0.0
220
0.0
230
1.0
 70
     8
 71
     3
 72
    11
 73
     7
 74
     0
 42
0.0
 43
0.0
 12
1.0
 22
0.0
 32
0.0
 13
1.0
 23
0.0
 33
0.0
 40
0.0
 40
0.0
 40
0.0
 40
0.0
 40
1.0
 40
1.0
 40
1.0
 40
2.0
 40
2.0
 40
2.0
 40
2.0
 10
193.9876686409579
 20
97.13681077574213
 30
0.0
 10
192.4042293676799
 20
96.01077021289458
 30
0.0
 10
191.2419279384874
 20
94.67754210293853
 30
0.0
 10
190.5007643533805
 20
93.13712644587392
 30
0.0
 10
189.8068591133676
 20
91.69493133845917
 30
0.0
 10
189.4820984199168
 20
90.07112787120498
 30
0.0
 10
189.526482273028
 20
88.26571604411136
 30
0.0
  0
SPLINE
  5
C2
330
1F
100
AcDbEntity
  8
0
  6
K5LT32769
 62
    30
420
 16744448
100
AcDbSpline
210
0.0
220
0.0
230
1.0
 70
     8
 71
     3
 72
    20
 73
    16
 74
     0
 42
0.0
 43
0.0
 12
1.0
 22
0.0
 32
0.0
 13
1.0
 23
0.0
 33
0.0
 40
0.0
 40
0.0
 40
0.0
 40
0.0
 40
1.0
 40
1.0
 40
1.0
 40
2.0
 40
2.0
 40
2.0
 40
3.0
 40
3.0
 40
3.0
 40
4.0
 40
4.0
 40
4.0
 40
5.0
 40
5.0
 40
5.0
 40
5.0
 10
189.526482273028
 20
88.26571604411136
 30
0.0
 10
190.3550951387246
 20
89.89530677710987
 30
0.0
 10
191.2439138175671
 20
90.74994022983037
 30
0.0
 10
192.1929383095557
 20
90.82961640227289
 30
0.0
 10
193.1564415173038
 20
90.91050814782584
 30
0.0
 10
194.9101899186676
 20
89.58879846625456
 30
0.0
 10
195.2696185633005
 20
88.67594022465154
 30
0.0
 10
195.7207433140295
 20
87.53019696561161
 30
0.0
 10
194.6616846327547
 20
84.87530759387926
 30
0.0
 10
193.4748884152827
 20
84.31730986517978
 30
0.0
 10
192.7001423849156
 20
83.95304638093593
 30
0.0
 10
191.2274708010083
 20
83.95164194839228
 30
0.0
 10
190.3982081615379
 20
84.36858786940886
 30
0.0
 10
189.6018380049256
 20
84.76899574094989
 30
0.0
 10
188.9865019541766
 20
85.53816580438608
 30
0.0
 10
188.5522000092911
 20
86.67609805971743
 30
0.0
  0
SPLINE
  5
C3
330
1F
100
AcDbEntity
  8
0
  6
K5LT32769
 62
    30
420
 16744448
100
AcDbSpline
210
0.0
220
0.0
230
1.0
 70
     8
 71
     3
 72
    23
 73
    19
 74
     0
 42
0.0
 43
0.0
 12
1.0
 22
0.0
 32
0.0
 13
1.0
 23
0.0
 33
0.0
 40
0.0
 40
0.0
 40
0.0
 40
0.0
 40
1.0
 40
1.0
 40
1.0
 40
2.0
 40
2.0
 40
2.0
 40
3.0
 40
3.0
 40
3.0
 40
4.0
 40
4.0
 40
4.0
 40
5.0
 40
5.0
 40
5.0
 40
6.0
 40
6.0
 40
6.0
 40
6.0
 10
188.5522000092911
 20
86.67609805971743
 30
0.0
 10
188.1916546403414
 20
84.12631517000517
 30
0.0
 10
188.6360640103267
 20
82.2803070177583
 30
0.0
 10
189.8854281192471
 20
81.13807360297685
 30
0.0
 10
190.6937170078673
 20
80.39909401265042
 30
0.0
 10
192.2088043605445
 20
79.72564151370301
 30
0.0
 10
193.3210544025955
 20
79.80484549302076
 30
0.0
 10
194.3944005606171
 20
79.8812791038876
 30
0.0
 10
195.6315846523354
 20
80.75709567480892
 30
0.0
 10
196.4490126605693
 20
81.49701963258039
 30
0.0
 10
198.3471536812085
 20
83.21518930899538
 30
0.0
 10
197.6786078415082
 20
86.87364271354075
 30
0.0
 10
198.5001328297325
 20
89.49638829231682
 30
0.0
 10
199.4333252066478
 20
92.47563568683903
 30
0.0
 10
200.1537872561462
 20
95.74245769929728
 30
0.0
 10
201.8332031046227
 20
98.26492701548946
 30
0.0
 10
203.897380375515
 20
101.3653049437618
 30
0.0
 10
206.8202266165725
 20
103.8608344829104
 30
0.0
 10
210.6017418277953
 20
105.7515156329351
 30
0.0
  0
SPLINE
  5
C4
330
1F
100
AcDbEntity
  8
0
  6
K5LT32769
 62
    30
420
 16744448
100
AcDbSpline
210
0.0
220
0.0
230
1.0
 70
     8
 71
     3
 72
    11
 73
     7
 74
     0
 42
0.0
 43
0.0
 12
1.0
 22
0.0
 32
0.0
 13
1.0
 23
0.0
 33
0.0
 40
0.0
 40
0.0
 40
0.0
 40
0.0
 40
1.0
 40
1.0
 40
1.0
 40
2.0
 40
2.0
 40
2.0
 40
2.0
 10
194.2467343044318
 20
73.30882369517195
 30
0.0
 10
196.1881432788001
 20
73.74582306668454
 30
0.0
 10
197.8618002282667
 20
74.50253801486954
 30
0.0
 10
199.2677051528316
 20
75.57896853972699
 30
0.0
 10
201.1955585816056
 20
77.05502872126867
 30
0.0
 10
202.6199474747687
 20
79.13226252379813
 30
0.0
 10
203.5408718323207
 20
81.81066994731538
 30
0.0
  0
SPLINE
  5
C5
330
1F
100
AcDbEntity
  8
0
  6
K5LT32769
 62
    30
420
 16744448
100
AcDbSpline
210
0.0
220
0.0
230
1.0
 70
     8
 71
     3
 72
    11
 73
     7
 74
     0
 42
0.0
 43
0.0
 12
1.0
 22
0.0
 32
0.0
 13
1.0
 23
0.0
 33
0.0
 40
0.0
 40
0.0
 40
0.0
 40
0.0
 40
1.0
 40
1.0
 40
1.0
 40
2.0
 40
2.0
 40
2.0
 40
2.0
 10
203.5408718323207
 20
81.81066994731538
 30
0.0
 10
204.2328321405417
 20
80.21874050107965
 30
0.0
 10
205.0993353838825
 20
78.77061179303054
 30
0.0
 10
206.1403815623433
 20
77.46628382316804
 30
0.0
 10
207.4198311459635
 20
75.86325994922981
 30
0.0
 10
208.9629191135569
 20
74.47743990656446
 30
0.0
 10
210.7696454651233
 20
73.30882369517195
 30
0.0
  0
SPLINE
  5
C6
330
1F
100
AcDbEntity
  8
0
  6
K5LT32769
 62
    30
420
 16744448
100
AcDbSpline
210
0.0
220
0.0
230
1.0
 70
     8
 71
     3
 72
    11
 73
     7
 74
     0
 42
0.0
 43
0.0
 12
1.0
 22
0.0
 32
0.0
 13
1.0
 23
0.0
 33
0.0
 40
0.0
 40
0.0
 40
0.0
 40
0.0
 40
1.0
 40
1.0
 40
1.0
 40
2.0
 40
2.0
 40
2.0
 40
2.0
 10
210.6017418277953
 20
105.7515156329351
 30
0.0
 10
208.7258392157101
 20
106.1090176518251
 30
0.0
 10
206.9265881994488
 20
106.097812870863
 30
0.0
 10
205.2039887790115
 20
105.7179012900487
 30
0.0
 10
203.6766054445408
 20
105.3810437419596
 30
0.0
 10
202.2094848262847
 20
104.7543126040637
 30
0.0
 10
200.8026269242432
 20
103.8377078763613
 30
0.0
  0
SPLINE
  5
C7
330
1F
100
AcDbEntity
  8
0
  6
K5LT32769
 62
    30
420
 16744448
100
AcDbSpline
210
0.0
220
0.0
230
1.0
 70
     8
 71
     3
 72
    11
 73
     7
 74
     0
 42
0.0
 43
0.0
 12
1.0
 22
0.0
 32
0.0
 13
1.0
 23
0.0
 33
0.0
 40
0.0
 40
0.0
 40
0.0
 40
0.0
 40
1.0
 40
1.0
 40
1.0
 40
2.0
 40
2.0
 40
2.0
 40
2.0
 10
200.8026269242432
 20
103.8377078763613
 30
0.0
 10
201.6129633087357
 20
105.7404216911974
 30
0.0
 10
202.7382305790487
 20
107.2217861989511
 30
0.0
 10
204.178428735182
 20
108.2818013996224
 30
0.0
 10
205.5465306576854
 20
109.2887523026945
 30
0.0
 10
207.1988218394107
 20
109.9154834405903
 30
0.0
 10
209.1353022803579
 20
110.1619948133098
 30
0.0
  0
SPLINE
  5
C8
330
1F
100
AcDbEntity
  8
0
  6
K5LT32769
 62
    30
420
 16744448
100
AcDbSpline
210
0.0
220
0.0
230
1.0
 70
     8
 71
     3
 72
    29
 73
    25
 74
     0
 42
0.0
 43
0.0
 12
1.0
 22
0.0
 32
0.0
 13
1.0
 23
0.0
 33
0.0
 40
0.0
 40
0.0
 40
0.0
 40
0.0
 40
1.0
 40
1.0
 40
1.0
 40
2.0
 40
2.0
 40
2.0
 40
3.0
 40
3.0
 40
3.0
 40
4.0
 40
4.0
 40
4.0
 40
5.0
 40
5.0
 40
5.0
 40
6.0
 40
6.0
 40
6.0
 40
7.0
 40
7.0
 40
7.0
 40
8.0
 40
8.0
 40
8.0
 40
8.0
 10
209.1353022803579
 20
110.1619948133098
 30
0.0
 10
207.2510737936951
 20
111.0263334183055
 30
0.0
 10
205.9754538976873
 20
112.1765278895534
 30
0.0
 10
205.3084425923343
 20
113.6125782270538
 30
0.0
 10
204.6548701305769
 20
115.0196952380483
 30
0.0
 10
204.3375978193047
 20
117.3278926000931
 30
0.0
 10
205.1007192203356
 20
118.6572886898809
 30
0.0
 10
205.5517833841739
 20
119.4430652843258
 30
0.0
 10
206.4687953995693
 20
120.3679817995726
 30
0.0
 10
207.3263267774651
 20
120.6454981075833
 30
0.0
 10
208.2657130762369
 20
120.9495044963298
 30
0.0
 10
209.832003545426
 20
120.7856186832923
 30
0.0
 10
210.5608764271601
 20
120.170701828729
 30
0.0
 10
211.1742058382422
 20
119.6532637380479
 30
0.0
 10
211.7613342014926
 20
118.4499502057867
 30
0.0
 10
211.6588428220107
 20
117.6483465973154
 30
0.0
 10
211.5717543728632
 20
116.9672120917036
 30
0.0
 10
211.0087247488308
 20
115.9574365612988
 30
0.0
 10
210.3828278225898
 20
115.6898119470414
 30
0.0
 10
209.9058213006995
 20
115.4858507498107
 30
0.0
 10
209.0709883808715
 20
115.4823215358116
 30
0.0
 10
208.6023417768861
 20
115.7491614818982
 30
0.0
 10
208.2243939202211
 20
115.9643589992564
 30
0.0
 10
207.9276462459372
 20
116.3402393866828
 30
0.0
 10
207.7120987540343
 20
116.8768026441772
 30
0.0
  0
SPLINE
  5
C9
330
1F
100
AcDbEntity
  8
0
  6
K5LT32769
 62
    30
420
 16744448
100
AcDbSpline
210
0.0
220
0.0
230
1.0
 70
     8
 71
     3
 72
    20
 73
    16
 74
     0
 42
0.0
 43
0.0
 12
1.0
 22
0.0
 32
0.0
 13
1.0
 23
0.0
 33
0.0
 40
0.0
 40
0.0
 40
0.0
 40
0.0
 40
1.0
 40
1.0
 40
1.0
 40
2.0
 40
2.0
 40
2.0
 40
3.0
 40
3.0
 40
3.0
 40
4.0
 40
4.0
 40
4.0
 40
5.0
 40
5.0
 40
5.0
 40
5.0
 10
207.7120987540343
 20
116.8768026441772
 30
0.0
 10
207.6235806567113
 20
115.8355356235831
 30
0.0
 10
207.7422797264249
 20
114.9255094224457
 30
0.0
 10
208.068195963175
 20
114.1467240407649
 30
0.0
 10
208.7697740220235
 20
112.4702848986486
 30
0.0
 10
211.2548889447085
 20
111.6022151201635
 30
0.0
 10
213.0535568911453
 20
110.9418491584983
 30
0.0
 10
215.3025591009642
 20
110.116146721305
 30
0.0
 10
218.0130286173585
 20
110.7858373875067
 30
0.0
 10
220.4425739808155
 20
110.3780285773588
 30
0.0
 10
222.0497622831811
 20
110.1082556564125
 30
0.0
 10
223.6826328491948
 20
109.8152530381367
 30
0.0
 10
225.220211536787
 20
109.2800621825082
 30
0.0
 10
226.1710409721888
 20
108.9491033683702
 30
0.0
 10
227.1008503516119
 20
108.5534398026582
 30
0.0
 10
228.0096396750561
 20
108.0930714853724
 30
0.0
  0
SPLINE
  5
CA
330
1F
100
AcDbEntity
  8
0
  6
K5LT32769
 62
    30
420
 16744448
100
AcDbSpline
210
0.0
220
0.0
230
1.0
 70
     8
 71
     3
 72
    17
 73
    13
 74
     0
 42
0.0
 43
0.0
 12
1.0
 22
0.0
 32
0.0
 13
1.0
 23
0.0
 33
0.0
 40
0.0
 40
0.0
 40
0.0
 40
0.0
 40
1.0
 40
1.0
 40
1.0
 40
2.0
 40
2.0
 40
2.0
 40
3.0
 40
3.0
 40
3.0
 40
4.0
 40
4.0
 40
4.0
 40
4.0
 10
228.0096396750561
 20
108.0930714853724
 30
0.0
 10
226.1795535676644
 20
109.2490961073699
 30
0.0
 10
224.7729699023875
 20
110.6378750824617
 30
0.0
 10
223.7898886792255
 20
112.259408410648
 30
0.0
 10
222.4791400387668
 20
114.4214094287759
 30
0.0
 10
222.3761903821881
 20
117.3782304474473
 30
0.0
 10
222.1162317297589
 20
119.9867181560577
 30
0.0
 10
221.9019687203099
 20
122.1366847808836
 30
0.0
 10
222.8882708250057
 20
124.6551106097117
 30
0.0
 10
222.0806220074298
 20
126.5032973422787
 30
0.0
 10
221.3689962455175
 20
128.1317492920588
 30
0.0
 10
220.0395666118987
 20
129.5086585554498
 30
0.0
 10
218.0923331065732
 20
130.6340251324515
 30
0.0
  0
SPLINE
  5
CB
330
1F
100
AcDbEntity
  8
0
  6
K5LT32769
 62
    30
420
 16744448
100
AcDbSpline
210
0.0
220
0.0
230
1.0
 70
     8
 71
     3
 72
    11
 73
     7
 74
     0
 42
0.0
 43
0.0
 12
1.0
 22
0.0
 32
0.0
 13
1.0
 23
0.0
 33
0.0
 40
0.0
 40
0.0
 40
0.0
 40
0.0
 40
1.0
 40
1.0
 40
1.0
 40
2.0
 40
2.0
 40
2.0
 40
2.0
 10
218.0923331065732
 20
130.6340251324515
 30
0.0
 10
220.1752762625855
 20
131.2413511090502
 30
0.0
 10
221.8936430002731
 20
131.1543053514658
 30
0.0
 10
223.2474333196361
 20
130.3728878596982
 30
0.0
 10
224.3853710556866
 20
129.7160620287152
 30
0.0
 10
225.2657224893956
 20
128.5686376881507
 30
0.0
 10
225.8884876207632
 20
126.9306148380045
 30
0.0
  0
SPLINE
  5
CC
330
1F
100
AcDbEntity
  8
0
  6
K5LT32769
 62
    30
420
 16744448
100
AcDbSpline
210
0.0
220
0.0
230
1.0
 70
     8
 71
     3
 72
    23
 73
    19
 74
     0
 42
0.0
 43
0.0
 12
1.0
 22
0.0
 32
0.0
 13
1.0
 23
0.0
 33
0.0
 40
0.0
 40
0.0
 40
0.0
 40
0.0
 40
1.0
 40
1.0
 40
1.0
 40
2.0
 40
2.0
 40
2.0
 40
3.0
 40
3.0
 40
3.0
 40
4.0
 40
4.0
 40
4.0
 40
5.0
 40
5.0
 40
5.0
 40
6.0
 40
6.0
 40
6.0
 40
6.0
 10
225.8884876207632
 20
126.9306148380045
 30
0.0
 10
227.6208061272816
 20
129.3210275400783
 30
0.0
 10
229.6090155449841
 20
130.8740070354976
 30
0.0
 10
231.8531158738705
 20
131.5895533242624
 30
0.0
 10
234.2434173766541
 20
132.3517168279746
 30
0.0
 10
237.637841216631
 20
132.1077285074242
 30
0.0
 10
239.8949778469654
 20
131.0257327431229
 30
0.0
 10
242.0990551175887
 20
129.9691718602072
 30
0.0
 10
244.5415952800885
 20
127.6032511410981
 30
0.0
 10
245.2957855189331
 20
125.2985026294428
 30
0.0
 10
245.9016728582262
 20
123.4469565982906
 30
0.0
 10
246.0664305542511
 20
120.6675588700044
 30
0.0
 10
245.0880621469344
 20
118.9777771671947
 30
0.0
 10
244.4707402957711
 20
117.9115743329259
 30
0.0
 10
243.3379245516199
 20
116.6992108681112
 30
0.0
 10
242.1502601715233
 20
116.2773733312109
 30
0.0
 10
241.36176387154
 20
115.9973132884798
 30
0.0
 10
240.481412437831
 20
115.9280721644802
 30
0.0
 10
239.5092058703962
 20
116.0696499592121
 30
0.0
  0
SPLINE
  5
CD
330
1F
100
AcDbEntity
  8
0
  6
K5LT32769
 62
    30
420
 16744448
100
AcDbSpline
210
0.0
220
0.0
230
1.0
 70
     8
 71
     3
 72
    23
 73
    19
 74
     0
 42
0.0
 43
0.0
 12
1.0
 22
0.0
 32
0.0
 13
1.0
 23
0.0
 33
0.0
 40
0.0
 40
0.0
 40
0.0
 40
0.0
 40
1.0
 40
1.0
 40
1.0
 40
2.0
 40
2.0
 40
2.0
 40
3.0
 40
3.0
 40
3.0
 40
4.0
 40
4.0
 40
4.0
 40
5.0
 40
5.0
 40
5.0
 40
6.0
 40
6.0
 40
6.0
 40
6.0
 10
240.9335947069592
 20
124.3785848391625
 30
0.0
 10
240.241663386003
 20
126.003192503345
 30
0.0
 10
239.3316371848655
 20
127.1011588981956
 30
0.0
 10
238.2035161035469
 20
127.6724840237143
 30
0.0
 10
236.6945408704572
 20
128.4366887520241
 30
0.0
 10
234.0337582886933
 20
127.9554944495368
 30
0.0
 10
232.5059607572951
 20
127.1383382100032
 30
0.0
 10
230.7256444017859
 20
126.1861200080817
 30
0.0
 10
229.2274044573568
 20
123.679516433407
 30
0.0
 10
228.6779157590322
 20
121.6781810031786
 30
0.0
 10
228.0570639239743
 20
119.4169283546483
 30
0.0
 10
228.6899470702166
 20
116.4495202155703
 30
0.0
 10
229.5978335493125
 20
114.2001396112232
 30
0.0
 10
230.5118047925582
 20
111.9356833880892
 30
0.0
 10
232.4415067753099
 20
109.980745485467
 30
0.0
 10
234.1677477332852
 20
108.1464870558308
 30
0.0
 10
235.2717368538366
 20
106.9734171311239
 30
0.0
 10
236.4587275509724
 20
105.8754507362733
 30
0.0
 10
237.7287198246926
 20
104.852587871279
 30
0.0
  0
SPLINE
  5
CE
330
1F
100
AcDbEntity
  8
0
  6
K5LT32769
 62
    30
420
 16744448
100
AcDbSpline
210
0.0
220
0.0
230
1.0
 70
     8
 71
     3
 72
    14
 73
    10
 74
     0
 42
0.0
 43
0.0
 12
1.0
 22
0.0
 32
0.0
 13
1.0
 23
0.0
 33
0.0
 40
0.0
 40
0.0
 40
0.0
 40
0.0
 40
1.0
 40
1.0
 40
1.0
 40
2.0
 40
2.0
 40
2.0
 40
3.0
 40
3.0
 40
3.0
 40
3.0
 10
237.7287198246926
 20
104.852587871279
 30
0.0
 10
236.1645171184715
 20
106.3658140744713
 30
0.0
 10
234.9577432430502
 20
108.047384228747
 30
0.0
 10
234.1083981984285
 20
109.897298334106
 30
0.0
 10
233.3443869410987
 20
111.5613513718405
 30
0.0
 10
232.138281529126
 20
113.7401027420189
 30
0.0
 10
232.6840093618655
 20
115.2981060060738
 30
0.0
 10
233.0516803072801
 20
116.3477730721248
 30
0.0
 10
233.8825737952751
 20
117.2874740406906
 30
0.0
 10
235.1766898258506
 20
118.1172089117713
 30
0.0
  0
SPLINE
  5
CF
330
1F
100
AcDbEntity
  8
0
  6
K5LT32769
 62
    30
420
 16744448
100
AcDbSpline
210
0.0
220
0.0
230
1.0
 70
     8
 71
     3
 72
    17
 73
    13
 74
     0
 42
0.0
 43
0.0
 12
1.0
 22
0.0
 32
0.0
 13
1.0
 23
0.0
 33
0.0
 40
0.0
 40
0.0
 40
0.0
 40
0.0
 40
1.0
 40
1.0
 40
1.0
 40
2.0
 40
2.0
 40
2.0
 40
3.0
 40
3.0
 40
3.0
 40
4.0
 40
4.0
 40
4.0
 40
4.0
 10
240.9335947069592
 20
124.3785848391625
 30
0.0
 10
239.9576606377337
 20
125.0792360788599
 30
0.0
 10
238.9981764908823
 20
125.415550109715
 30
0.0
 10
238.0551422664049
 20
125.3875269317279
 30
0.0
 10
237.036913940561
 20
125.3572692879798
 30
0.0
 10
235.762288843513
 20
124.7543453323309
 30
0.0
 10
235.0579907561371
 20
124.0224876300218
 30
0.0
 10
234.3107710563815
 20
123.2460287663882
 30
0.0
 10
233.71370557226
 20
121.8174794919942
 30
0.0
 10
233.8116505241445
 20
120.7582632128984
 30
0.0
 10
233.8949878852752
 20
119.8570193216299
 30
0.0
 10
234.350000985844
 20
118.9766678879209
 30
0.0
 10
235.1766898258506
 20
118.1172089117713
 30
0.0
  0
SPLINE
  5
D0
330
1F
100
AcDbEntity
  8
0
  6
K5LT32769
 62
    30
420
 16744448
100
AcDbSpline
210
0.0
220
0.0
230
1.0
 70
     8
 71
     3
 72
    14
 73
    10
 74
     0
 42
0.0
 43
0.0
 12
1.0
 22
0.0
 32
0.0
 13
1.0
 23
0.0
 33
0.0
 40
0.0
 40
0.0
 40
0.0
 40
0.0
 40
1.0
 40
1.0
 40
1.0
 40
2.0
 40
2.0
 40
2.0
 40
3.0
 40
3.0
 40
3.0
 40
3.0
 10
239.5092058703962
 20
116.0696499592121
 30
0.0
 10
239.932202639606
 20
114.9855766694195
 30
0.0
 10
239.9618774070344
 20
114.1546831814245
 30
0.0
 10
239.5982301726814
 20
113.5769694952269
 30
0.0
 10
239.2238299303362
 20
112.982172880031
 30
0.0
 10
237.9227321479782
 20
112.4194531044865
 30
0.0
 10
237.2242487784099
 20
112.5977021700899
 30
0.0
 10
236.6589687253304
 20
112.7419584912217
 30
0.0
 10
236.1544976790477
 20
113.2167547700761
 30
0.0
 10
235.7108356395618
 20
114.0220910066529
 30
0.0
  0
SPLINE
  5
D1
330
1F
100
AcDbEntity
  8
0
  6
K5LT32769
 62
    30
420
 16744448
100
AcDbSpline
210
0.0
220
0.0
230
1.0
 70
     8
 71
     3
 72
    14
 73
    10
 74
     0
 42
0.0
 43
0.0
 12
1.0
 22
0.0
 32
0.0
 13
1.0
 23
0.0
 33
0.0
 40
0.0
 40
0.0
 40
0.0
 40
0.0
 40
1.0
 40
1.0
 40
1.0
 40
2.0
 40
2.0
 40
2.0
 40
3.0
 40
3.0
 40
3.0
 40
3.0
 10
235.7108356395618
 20
114.0220910066529
 30
0.0
 10
236.0046840272575
 20
112.1864663729716
 30
0.0
 10
236.5685046083969
 20
110.5345709861243
 30
0.0
 10
237.4022973829802
 20
109.066404846111
 30
0.0
 10
238.9342055175182
 20
106.3689772342398
 30
0.0
 10
242.1970629365555
 20
104.7927797211674
 30
0.0
 10
244.7319649377937
 20
102.8347036861481
 30
0.0
 10
247.4735068618029
 20
100.7170093777367
 30
0.0
 10
250.3222845349287
 20
98.73869154917706
 30
0.0
 10
253.2782979571712
 20
96.89975020046927
 30
0.0
  0
SPLINE
  5
D2
330
1F
100
AcDbEntity
  8
0
  6
K5LT32769
 62
    30
420
 16744448
100
AcDbSpline
210
0.0
220
0.0
230
1.0
 70
     8
 71
     3
 72
    11
 73
     7
 74
     0
 42
0.0
 43
0.0
 12
1.0
 22
0.0
 32
0.0
 13
1.0
 23
0.0
 33
0.0
 40
0.0
 40
0.0
 40
0.0
 40
0.0
 40
1.0
 40
1.0
 40
1.0
 40
2.0
 40
2.0
 40
2.0
 40
2.0
 10
253.2782979571712
 20
96.89975020046927
 30
0.0
 10
253.1669342353243
 20
98.3642614476505
 30
0.0
 10
253.4340071421799
 20
99.59081850135748
 30
0.0
 10
254.0795166777379
 20
100.5794213615902
 30
0.0
 10
254.6666098263625
 20
101.478559072161
 30
0.0
 10
255.5667444383572
 20
102.1808619012996
 30
0.0
 10
256.7799205137218
 20
102.6863298490062
 30
0.0
  0
SPLINE
  5
D3
330
1F
100
AcDbEntity
  8
0
  6
K5LT32769
 62
    30
420
 16744448
100
AcDbSpline
210
0.0
220
0.0
230
1.0
 70
     8
 71
     3
 72
    23
 73
    19
 74
     0
 42
0.0
 43
0.0
 12
1.0
 22
0.0
 32
0.0
 13
1.0
 23
0.0
 33
0.0
 40
0.0
 40
0.0
 40
0.0
 40
0.0
 40
1.0
 40
1.0
 40
1.0
 40
2.0
 40
2.0
 40
2.0
 40
3.0
 40
3.0
 40
3.0
 40
4.0
 40
4.0
 40
4.0
 40
5.0
 40
5.0
 40
5.0
 40
6.0
 40
6.0
 40
6.0
 40
6.0
 10
256.7799205137218
 20
102.6863298490062
 30
0.0
 10
256.5242775481094
 20
101.1781726575385
 30
0.0
 10
256.4791725286533
 20
99.71579963586812
 30
0.0
 10
256.6446054553537
 20
98.29921078399502
 30
0.0
 10
257.0240525126402
 20
95.05003613690779
 30
0.0
 10
259.7786318186996
 20
92.3492080494563
 30
0.0
 10
261.1057918232835
 20
89.27428203967702
 30
0.0
 10
263.0853417228133
 20
84.68781962919451
 30
0.0
 10
265.0339639238513
 20
79.92991614829975
 30
0.0
 10
265.9772022250461
 20
75.07027486822197
 30
0.0
 10
267.0568274948473
 20
69.50795671225374
 30
0.0
 10
267.8671893781835
 20
63.30241613510314
 30
0.0
 10
266.541260271566
 20
57.89214345148029
 30
0.0
 10
265.5468262273935
 20
53.83449110943607
 30
0.0
 10
263.7676810618831
 20
49.48366080026425
 30
0.0
 10
261.0032358148254
 20
46.25203649147922
 30
0.0
 10
260.1789755326727
 20
45.28847985478857
 30
0.0
 10
259.2730641246256
 20
44.3825684467415
 30
0.0
 10
258.2855015906841
 20
43.53430226733802
 30
0.0
  0
SPLINE
  5
D4
330
1F
100
AcDbEntity
  8
0
  6
K5LT32769
 62
    30
420
 16744448
100
AcDbSpline
210
0.0
220
0.0
230
1.0
 70
     8
 71
     3
 72
    11
 73
     7
 74
     0
 42
0.0
 43
0.0
 12
1.0
 22
0.0
 32
0.0
 13
1.0
 23
0.0
 33
0.0
 40
0.0
 40
0.0
 40
0.0
 40
0.0
 40
1.0
 40
1.0
 40
1.0
 40
2.0
 40
2.0
 40
2.0
 40
2.0
 10
232.5308003658158
 20
41.80385963852712
 30
0.0
 10
235.2213852582512
 20
39.63926590685075
 30
0.0
 10
237.8441940578476
 20
38.43419159352262
 30
0.0
 10
240.3992267646054
 20
38.18863669854271
 30
0.0
 10
241.8068877463771
 20
38.05335152445001
 30
0.0
 10
243.3018244011501
 20
38.41643324075892
 30
0.0
 10
244.7894030869863
 20
39.09613693679838
 30
0.0
  0
SPLINE
  5
D5
330
1F
100
AcDbEntity
  8
0
  6
K5LT32769
 62
    30
420
 16744448
100
AcDbSpline
210
0.0
220
0.0
230
1.0
 70
     8
 71
     3
 72
    26
 73
    22
 74
     0
 42
0.0
 43
0.0
 12
1.0
 22
0.0
 32
0.0
 13
1.0
 23
0.0
 33
0.0
 40
0.0
 40
0.0
 40
0.0
 40
0.0
 40
1.0
 40
1.0
 40
1.0
 40
2.0
 40
2.0
 40
2.0
 40
3.0
 40
3.0
 40
3.0
 40
4.0
 40
4.0
 40
4.0
 40
5.0
 40
5.0
 40
5.0
 40
6.0
 40
6.0
 40
6.0
 40
7.0
 40
7.0
 40
7.0
 40
7.0
 10
219.4638453255862
 20
85.577078982548
 30
0.0
 10
220.4222367827371
 20
85.70807698158848
 30
0.0
 10
221.1527758316808
 20
85.57804896686662
 30
0.0
 10
221.655462472417
 20
85.18699493838241
 30
0.0
 10
222.2625216201033
 20
84.7147466111079
 30
0.0
 10
222.597299088055
 20
83.41716434682634
 30
0.0
 10
222.4797614693861
 20
82.62823346862425
 30
0.0
 10
222.3557176380608
 20
81.79563187356679
 30
0.0
 10
221.4978633835958
 20
80.66481668976319
 30
0.0
 10
220.7968176839075
 20
80.34423833118909
 30
0.0
 10
219.8132028474953
 20
79.8944450725379
 30
0.0
 10
217.8188673998363
 20
80.74392409121423
 30
0.0
 10
217.0187806144659
 20
81.5978597224129
 30
0.0
 10
216.2383305303865
 20
82.43083702856711
 30
0.0
 10
215.7556506847456
 20
84.20651524224294
 30
0.0
 10
215.9884068682546
 20
85.34155100031413
 30
0.0
 10
216.2130402988687
 20
86.43697614589507
 30
0.0
 10
217.3258967639327
 20
87.67396876180467
 30
0.0
 10
218.2724020056897
 20
88.31246196855685
 30
0.0
 10
218.828069921519
 20
88.68730425554565
 30
0.0
 10
219.5473957302652
 20
88.91670800088295
 30
0.0
 10
220.3221457708388
 20
89.02689261020723
 30
0.0
  0
SPLINE
  5
D6
330
1F
100
AcDbEntity
  8
0
  6
K5LT32769
 62
    30
420
 16744448
100
AcDbSpline
210
0.0
220
0.0
230
1.0
 70
     8
 71
     3
 72
    11
 73
     7
 74
     0
 42
0.0
 43
0.0
 12
1.0
 22
0.0
 32
0.0
 13
1.0
 23
0.0
 33
0.0
 40
0.0
 40
0.0
 40
0.0
 40
0.0
 40
1.0
 40
1.0
 40
1.0
 40
2.0
 40
2.0
 40
2.0
 40
2.0
 10
232.5308003658158
 20
41.80385963852712
 30
0.0
 10
232.5511901579592
 20
40.56738787009983
 30
0.0
 10
232.8147551336229
 20
39.44594541165353
 30
0.0
 10
233.321495292807
 20
38.43953226318821
 30
0.0
 10
233.7237638984812
 20
37.64060522607086
 30
0.0
 10
234.2792755888889
 20
36.91416686169164
 30
0.0
 10
234.9880303640299
 20
36.26021717005053
 30
0.0
  0
SPLINE
  5
D7
330
1F
100
AcDbEntity
  8
0
  6
K5LT32769
 62
    30
420
 16744448
100
AcDbSpline
210
0.0
220
0.0
230
1.0
 70
     8
 71
     3
 72
    23
 73
    19
 74
     0
 42
0.0
 43
0.0
 12
1.0
 22
0.0
 32
0.0
 13
1.0
 23
0.0
 33
0.0
 40
0.0
 40
0.0
 40
0.0
 40
0.0
 40
1.0
 40
1.0
 40
1.0
 40
2.0
 40
2.0
 40
2.0
 40
3.0
 40
3.0
 40
3.0
 40
4.0
 40
4.0
 40
4.0
 40
5.0
 40
5.0
 40
5.0
 40
6.0
 40
6.0
 40
6.0
 40
6.0
 10
234.9880303640299
 20
36.26021717005053
 30
0.0
 10
233.0714963231767
 20
36.77787965282624
 30
0.0
 10
231.5758879259254
 20
37.63251302268415
 30
0.0
 10
230.5012051722759
 20
38.82411727962428
 30
0.0
 10
229.050766227121
 20
40.43235861001588
 30
0.0
 10
228.3712261090217
 20
43.27911455073921
 30
0.0
 10
228.4500850846169
 20
45.490257564516
 30
0.0
 10
228.5191751374899
 20
47.42748774761803
 30
0.0
 10
229.1171666485369
 20
49.97160614742782
 30
0.0
 10
230.4133664903516
 20
51.27683932046433
 30
0.0
 10
231.6516618532354
 20
52.52376447314023
 30
0.0
 10
234.2057810255911
 20
53.72334926007625
 30
0.0
 10
235.8853954023807
 20
53.31015289871591
 30
0.0
 10
236.9873524840355
 20
53.03906409237612
 30
0.0
 10
238.3625251316099
 20
52.11090547027399
 30
0.0
 10
239.0048072023621
 20
51.08810613708533
 30
0.0
 10
239.4674552891582
 20
50.35136417241883
 30
0.0
 10
239.7238453001156
 20
49.46824302356566
 30
0.0
 10
239.7739772352342
 20
48.4387426905258
 30
0.0
  0
SPLINE
  5
D8
330
1F
100
AcDbEntity
  8
0
  6
K5LT32769
 62
    30
420
 16744448
100
AcDbSpline
210
0.0
220
0.0
230
1.0
 70
     8
 71
     3
 72
    20
 73
    16
 74
     0
 42
0.0
 43
0.0
 12
1.0
 22
0.0
 32
0.0
 13
1.0
 23
0.0
 33
0.0
 40
0.0
 40
0.0
 40
0.0
 40
0.0
 40
1.0
 40
1.0
 40
1.0
 40
2.0
 40
2.0
 40
2.0
 40
3.0
 40
3.0
 40
3.0
 40
4.0
 40
4.0
 40
4.0
 40
5.0
 40
5.0
 40
5.0
 40
5.0
 10
239.7739772352342
 20
48.4387426905258
 30
0.0
 10
239.0169206409452
 20
49.8285281388406
 30
0.0
 10
238.1195556025944
 20
50.65467372970326
 30
0.0
 10
237.0818821201818
 20
50.91717946311375
 30
0.0
 10
236.029664551191
 20
51.18336449080969
 30
0.0
 10
234.2480981186492
 20
50.66565526572725
 30
0.0
 10
233.4924219667786
 20
49.97708275627004
 30
0.0
 10
232.3995931954386
 20
48.98129660154502
 30
0.0
 10
232.3483654862364
 20
46.07131011520079
 30
0.0
 10
232.9796419448638
 20
44.63562419465809
 30
0.0
 10
233.5920615709632
 20
43.24282358782621
 30
0.0
 10
235.611387399898
 20
41.72373586184748
 30
0.0
 10
237.0818821201818
 20
41.4307490576909
 30
0.0
 10
238.2857028390833
 20
41.19089536740336
 30
0.0
 10
240.0068394444525
 20
41.71610682306093
 30
0.0
 10
241.3625642678841
 20
42.52297575363781
 30
0.0
  0
SPLINE
  5
D9
330
1F
100
AcDbEntity
  8
0
  6
K5LT32769
 62
    30
420
 16744448
100
AcDbSpline
210
0.0
220
0.0
230
1.0
 70
     8
 71
     3
 72
    11
 73
     7
 74
     0
 42
0.0
 43
0.0
 12
1.0
 22
0.0
 32
0.0
 13
1.0
 23
0.0
 33
0.0
 40
0.0
 40
0.0
 40
0.0
 40
0.0
 40
1.0
 40
1.0
 40
1.0
 40
2.0
 40
2.0
 40
2.0
 40
2.0
 10
234.4325186736223
 20
55.27580964938911
 30
0.0
 10
234.8805662428563
 20
56.43847937117189
 30
0.0
 10
234.9998581890196
 20
57.51244252396746
 30
0.0
 10
234.7903945121123
 20
58.49769910777579
 30
0.0
 10
234.5139584204315
 20
59.79797457009941
 30
0.0
 10
233.6649303860787
 20
60.94375026694449
 30
0.0
 10
232.2433104090538
 20
61.93502619831104
 30
0.0
  0
SPLINE
  5
DA
330
1F
100
AcDbEntity
  8
0
  6
K5LT32769
 62
    30
420
 16744448
100
AcDbSpline
210
0.0
220
0.0
230
1.0
 70
     8
 71
     3
 72
    17
 73
    13
 74
     0
 42
0.0
 43
0.0
 12
1.0
 22
0.0
 32
0.0
 13
1.0
 23
0.0
 33
0.0
 40
0.0
 40
0.0
 40
0.0
 40
0.0
 40
1.0
 40
1.0
 40
1.0
 40
2.0
 40
2.0
 40
2.0
 40
3.0
 40
3.0
 40
3.0
 40
4.0
 40
4.0
 40
4.0
 40
4.0
 10
232.2433104090538
 20
61.93502619831104
 30
0.0
 10
232.8143559585697
 20
60.9461947164945
 30
0.0
 10
233.0616456773133
 20
59.99825079464426
 30
0.0
 10
232.9851795652844
 20
59.0911944327603
 30
0.0
 10
232.8910046591937
 20
57.97407280289207
 30
0.0
 10
232.0274698311939
 20
56.78942560078308
 30
0.0
 10
231.2294225622053
 20
55.92588603284295
 30
0.0
 10
230.5170029954048
 20
55.15500126346507
 30
0.0
 10
229.2995502770476
 20
54.83287161935594
 30
0.0
 10
228.5834225716494
 20
54.07121314226637
 30
0.0
 10
227.5832120247291
 20
53.0074100856418
 30
0.0
 10
226.9065770679225
 20
51.66380261380188
 30
0.0
 10
226.5535177012296
 20
50.04039072674662
 30
0.0
  0
SPLINE
  5
DB
330
1F
100
AcDbEntity
  8
0
  6
K5LT32769
 62
    30
420
 16744448
100
AcDbSpline
210
0.0
220
0.0
230
1.0
 70
     8
 71
     3
 72
    11
 73
     7
 74
     0
 42
0.0
 43
0.0
 12
1.0
 22
0.0
 32
0.0
 13
1.0
 23
0.0
 33
0.0
 40
0.0
 40
0.0
 40
0.0
 40
0.0
 40
1.0
 40
1.0
 40
1.0
 40
2.0
 40
2.0
 40
2.0
 40
2.0
 10
226.5535177012296
 20
36.79911057525334
 30
0.0
 10
227.2398227835564
 20
35.32949057250845
 30
0.0
 10
228.1471958714417
 20
34.11875996520974
 30
0.0
 10
229.2756369648854
 20
33.16691875335721
 30
0.0
 10
230.3448662924932
 20
32.26502272630577
 30
0.0
 10
231.6125724577824
 20
31.59555991991707
 30
0.0
 10
233.0787554607531
 20
31.15853033419112
 30
0.0
  0
SPLINE
  5
DC
330
1F
100
AcDbEntity
  8
0
  6
K5LT32769
 62
    30
420
 16744448
100
AcDbSpline
210
0.0
220
0.0
230
1.0
 70
     8
 71
     3
 72
    29
 73
    25
 74
     0
 42
0.0
 43
0.0
 12
1.0
 22
0.0
 32
0.0
 13
1.0
 23
0.0
 33
0.0
 40
0.0
 40
0.0
 40
0.0
 40
0.0
 40
1.0
 40
1.0
 40
1.0
 40
2.0
 40
2.0
 40
2.0
 40
3.0
 40
3.0
 40
3.0
 40
4.0
 40
4.0
 40
4.0
 40
5.0
 40
5.0
 40
5.0
 40
6.0
 40
6.0
 40
6.0
 40
7.0
 40
7.0
 40
7.0
 40
8.0
 40
8.0
 40
8.0
 40
8.0
 10
258.2855015906841
 20
43.53430226733802
 30
0.0
 10
259.6198100323871
 20
43.60060385624772
 30
0.0
 10
260.7182356173305
 20
43.36392837805225
 30
0.0
 10
261.5807783455145
 20
42.82427583275163
 30
0.0
 10
262.9108378212413
 20
41.99211997771555
 30
0.0
 10
263.8334271226227
 20
39.73953564801381
 30
0.0
 10
263.8882884441309
 20
38.166523967026
 30
0.0
 10
263.9446656227377
 20
36.55004886122166
 30
0.0
 10
262.7305203353759
 20
34.7142931328673
 30
0.0
 10
261.794436687979
 20
33.252382090343
 30
0.0
 10
260.1203581063605
 20
30.63792132999587
 30
0.0
 10
256.9222545750739
 20
29.15105786237028
 30
0.0
 10
254.4873213756939
 20
27.09902182736602
 30
0.0
 10
252.1221073852786
 20
25.1057415435109
 30
0.0
 10
249.4251110951037
 20
23.40723112679841
 30
0.0
 10
247.3938644058732
 20
21.11658823836063
 30
0.0
 10
245.409199047235
 20
18.87847525395714
 30
0.0
 10
243.0130113569584
 20
16.38486398799076
 30
0.0
 10
242.3942591922044
 20
13.5530829151181
 30
0.0
 10
242.0151364527484
 20
11.81798983740124
 30
0.0
 10
241.81394857685
 20
9.644788254006398
 30
0.0
 10
242.4369908606973
 20
7.997966011041662
 30
0.0
 10
242.933493870591
 20
6.685611742976646
 30
0.0
 10
243.8166150194441
 20
5.503368914673199
 30
0.0
 10
245.0863543072568
 20
4.451237526131322
 30
0.0
  0
SPLINE
  5
DD
330
1F
100
AcDbEntity
  8
0
  6
K5LT32769
 62
    30
420
 16744448
100
AcDbSpline
210
0.0
220
0.0
230
1.0
 70
     8
 71
     3
 72
    11
 73
     7
 74
     0
 42
0.0
 43
0.0
 12
1.0
 22
0.0
 32
0.0
 13
1.0
 23
0.0
 33
0.0
 40
0.0
 40
0.0
 40
0.0
 40
0.0
 40
1.0
 40
1.0
 40
1.0
 40
2.0
 40
2.0
 40
2.0
 40
2.0
 10
241.1977724744033
 20
31.11579866569822
 30
0.0
 10
243.9655666124558
 20
31.73444782366939
 30
0.0
 10
246.5009789430343
 20
32.74576397800125
 30
0.0
 10
248.8040094661387
 20
34.14974712869381
 30
0.0
 10
250.7504944099737
 20
35.33637146423985
 30
0.0
 10
252.5309805971777
 20
36.80349208249593
 30
0.0
 10
254.1454680277507
 20
38.55110898346206
 30
0.0
  0
SPLINE
  5
DE
330
1F
100
AcDbEntity
  8
0
  6
K5LT32769
 62
    30
420
 16744448
100
AcDbSpline
210
0.0
220
0.0
230
1.0
 70
     8
 71
     3
 72
    14
 73
    10
 74
     0
 42
0.0
 43
0.0
 12
1.0
 22
0.0
 32
0.0
 13
1.0
 23
0.0
 33
0.0
 40
0.0
 40
0.0
 40
0.0
 40
0.0
 40
1.0
 40
1.0
 40
1.0
 40
2.0
 40
2.0
 40
2.0
 40
3.0
 40
3.0
 40
3.0
 40
3.0
 10
254.1454680277507
 20
38.55110898346206
 30
0.0
 10
253.748483817338
 20
37.52466702876592
 30
0.0
 10
253.7199960383427
 20
36.65578976941038
 30
0.0
 10
254.0600046907649
 20
35.94447720539543
 30
0.0
 10
254.3440669288063
 20
35.35020692009056
 30
0.0
 10
255.0535884451479
 20
34.70558948241972
 30
0.0
 10
255.6838080934949
 20
34.49160047663698
 30
0.0
 10
256.341776723163
 20
34.26818939564609
 30
0.0
 10
257.0967028665375
 20
34.33940884313425
 30
0.0
 10
257.9485865236184
 20
34.70525881910146
 30
0.0
  0
SPLINE
  5
DF
330
1F
100
AcDbEntity
  8
0
  6
K5LT32769
 62
    30
420
 16744448
100
AcDbSpline
210
0.0
220
0.0
230
1.0
 70
     8
 71
     3
 72
    17
 73
    13
 74
     0
 42
0.0
 43
0.0
 12
1.0
 22
0.0
 32
0.0
 13
1.0
 23
0.0
 33
0.0
 40
0.0
 40
0.0
 40
0.0
 40
0.0
 40
1.0
 40
1.0
 40
1.0
 40
2.0
 40
2.0
 40
2.0
 40
3.0
 40
3.0
 40
3.0
 40
4.0
 40
4.0
 40
4.0
 40
4.0
 10
257.9485865236184
 20
34.70525881910146
 30
0.0
 10
257.5048965952961
 20
33.99542841290374
 30
0.0
 10
256.9925114126605
 20
33.36671925433005
 30
0.0
 10
256.4114309757117
 20
32.81913134338038
 30
0.0
 10
255.3671658948952
 20
31.83505599387369
 30
0.0
 10
253.8346386790545
 20
31.44359199925662
 30
0.0
 10
252.6130607448771
 20
30.65287332110759
 30
0.0
 10
251.3379699865638
 20
29.82751617382699
 30
0.0
 10
250.0573211043116
 20
28.96628305911895
 30
0.0
 10
248.9333895837563
 20
27.9524694851237
 30
0.0
 10
247.8003729639389
 20
26.93046093057628
 30
0.0
 10
246.7716476930879
 20
25.7929281791545
 30
0.0
 10
245.8472137712032
 20
24.53987123085834
 30
0.0
  0
SPLINE
  5
E0
330
1F
100
AcDbEntity
  8
0
  6
K5LT32769
 62
    30
420
 16744448
100
AcDbSpline
210
0.0
220
0.0
230
1.0
 70
     8
 71
     3
 72
    11
 73
     7
 74
     0
 42
0.0
 43
0.0
 12
1.0
 22
0.0
 32
0.0
 13
1.0
 23
0.0
 33
0.0
 40
0.0
 40
0.0
 40
0.0
 40
0.0
 40
1.0
 40
1.0
 40
1.0
 40
2.0
 40
2.0
 40
2.0
 40
2.0
 10
241.1977724744033
 20
31.11579866569822
 30
0.0
 10
242.8319342231879
 20
30.4679830768181
 30
0.0
 10
244.0355423687899
 20
29.53223908634017
 30
0.0
 10
244.8085969112094
 20
28.30856669426443
 30
0.0
 10
245.469337373504
 20
27.26267689261253
 30
0.0
 10
245.8155429935019
 20
26.00644507147716
 30
0.0
 10
245.8472137712032
 20
24.53987123085834
 30
0.0
  0
SPLINE
  5
E1
330
1F
100
AcDbEntity
  8
0
  6
K5LT32769
 62
    30
420
 16744448
100
AcDbSpline
210
0.0
220
0.0
230
1.0
 70
     8
 71
     3
 72
    26
 73
    22
 74
     0
 42
0.0
 43
0.0
 12
1.0
 22
0.0
 32
0.0
 13
1.0
 23
0.0
 33
0.0
 40
0.0
 40
0.0
 40
0.0
 40
0.0
 40
1.0
 40
1.0
 40
1.0
 40
2.0
 40
2.0
 40
2.0
 40
3.0
 40
3.0
 40
3.0
 40
4.0
 40
4.0
 40
4.0
 40
5.0
 40
5.0
 40
5.0
 40
6.0
 40
6.0
 40
6.0
 40
7.0
 40
7.0
 40
7.0
 40
7.0
 10
233.0787554607531
 20
31.15853033419112
 30
0.0
 10
231.7257991503507
 20
30.30270925818539
 30
0.0
 10
230.7762062101196
 20
29.27873206370052
 30
0.0
 10
230.2299766400596
 20
28.08659875073651
 30
0.0
 10
229.570115721033
 20
26.64646766554415
 30
0.0
 10
229.4186706528385
 20
24.41931906103576
 30
0.0
 10
230.0163183060851
 20
23.03001818000764
 30
0.0
 10
230.6403232811761
 20
21.57944666525257
 30
0.0
 10
232.5580871737462
 20
19.78279024090879
 30
0.0
 10
234.0758266515999
 20
19.64709455874538
 30
0.0
 10
235.2477820268125
 20
19.54231420188898
 30
0.0
 10
237.0895495928503
 20
20.1900530446147
 30
0.0
 10
237.886066940811
 20
21.10709317423751
 30
0.0
 10
238.6146228862794
 20
21.9458885129458
 30
0.0
 10
239.1252767940312
 20
23.61127242028667
 30
0.0
 10
238.8831391660252
 20
24.70367512947424
 30
0.0
 10
238.6733623047669
 20
25.65008239979651
 30
0.0
 10
237.7916104866316
 20
26.68227483465642
 30
0.0
 10
236.960214160255
 20
27.30318485949682
 30
0.0
 10
236.2290970876656
 20
27.84920353350426
 30
0.0
 10
235.3507239368817
 20
28.20530075679502
 30
0.0
 10
234.3250947079034
 20
28.37147652936912
 30
0.0
  0
SPLINE
  5
E2
330
1F
100
AcDbEntity
  8
0
  6
K5LT32769
 62
    30
420
 16744448
100
AcDbSpline
210
0.0
220
0.0
230
1.0
 70
     8
 71
     3
 72
    23
 73
    19
 74
     0
 42
0.0
 43
0.0
 12
1.0
 22
0.0
 32
0.0
 13
1.0
 23
0.0
 33
0.0
 40
0.0
 40
0.0
 40
0.0
 40
0.0
 40
1.0
 40
1.0
 40
1.0
 40
2.0
 40
2.0
 40
2.0
 40
3.0
 40
3.0
 40
3.0
 40
4.0
 40
4.0
 40
4.0
 40
5.0
 40
5.0
 40
5.0
 40
6.0
 40
6.0
 40
6.0
 40
6.0
 10
234.3250947079034
 20
28.37147652936912
 30
0.0
 10
235.9794640048458
 20
28.83268798688511
 30
0.0
 10
237.4256724036026
 20
28.83281415387465
 30
0.0
 10
238.5626516650635
 20
28.26464736238189
 30
0.0
 10
239.7673154757367
 20
27.66265751495215
 30
0.0
 10
240.9906536072346
 20
25.97401370731216
 30
0.0
 10
241.2486769875685
 20
24.66512550056737
 30
0.0
 10
241.5335008655807
 20
23.22028505840655
 30
0.0
 10
240.5101886867952
 20
21.35493366630017
 30
0.0
 10
239.7733822242521
 20
19.93197233737799
 30
0.0
 10
238.3407045224712
 20
17.16510604333552
 30
0.0
 10
234.856597274331
 20
15.75559376911936
 30
0.0
 10
232.6959486861913
 20
13.38670841094384
 30
0.0
 10
231.3721265236993
 20
11.93530027601168
 30
0.0
 10
229.93953492549
 20
10.4924809477344
 30
0.0
 10
228.9480266362129
 20
8.821738970706122
 30
0.0
 10
227.810587192956
 20
6.905095565170519
 30
0.0
 10
227.1195252734117
 20
4.714132806236794
 30
0.0
 10
226.5535177012296
 20
2.483208396130504
 30
0.0
  0
LINE
  5
E3
330
1F
100
AcDbEntity
  8
0
  6
K5LT32769
 62
    30
420
 16744448
100
AcDbLine
 10
226.5535177012296
 20
50.0403907377714
 30
0.0
 11
226.5535177012296
 21
63.30882369517195
 31
0.0
  0
SPLINE
  5
E4
330
1F
100
AcDbEntity
  8
0
  6
K5LT32769
 62
    30
420
 16744448
100
AcDbSpline
210
0.0
220
0.0
230
1.0
 70
     8
 71
     3
 72
    11
 73
     7
 74
     0
 42
0.0
 43
0.0
 12
1.0
 22
0.0
 32
0.0
 13
1.0
 23
0.0
 33
0.0
 40
0.0
 40
0.0
 40
0.0
 40
0.0
 40
1.0
 40
1.0
 40
1.0
 40
2.0
 40
2.0
 40
2.0
 40
2.0
 10
245.0863543072568
 20
4.451237526131322
 30
0.0
 10
243.3611102669739
 20
4.364008693388588
 30
0.0
 10
241.9876280912739
 20
4.734092595273118
 30
0.0
 10
240.9659077801568
 20
5.561489231784915
 30
0.0
 10
240.0606826761832
 20
6.294547191154392
 30
0.0
 10
239.4315775817029
 20
7.386578675912737
 30
0.0
 10
239.0785924967158
 20
8.83758368605995
 30
0.0
  0
SPLINE
  5
E5
330
1F
100
AcDbEntity
  8
0
  6
K5LT32769
 62
    30
420
 16744448
100
AcDbSpline
210
0.0
220
0.0
230
1.0
 70
     8
 71
     3
 72
    17
 73
    13
 74
     0
 42
0.0
 43
0.0
 12
1.0
 22
0.0
 32
0.0
 13
1.0
 23
0.0
 33
0.0
 40
0.0
 40
0.0
 40
0.0
 40
0.0
 40
1.0
 40
1.0
 40
1.0
 40
2.0
 40
2.0
 40
2.0
 40
3.0
 40
3.0
 40
3.0
 40
4.0
 40
4.0
 40
4.0
 40
4.0
 10
239.0785924967158
 20
8.83758368605995
 30
0.0
 10
237.1651786137023
 20
5.101770553058312
 30
0.0
 10
236.2274559257033
 20
1.362749708505283
 30
0.0
 10
236.2654244327188
 20
-2.379478847599138
 30
0.0
 10
236.2994803989227
 20
-5.736081970862921
 30
0.0
 10
236.5482850130259
 20
-10.10924988785593
 30
0.0
 10
238.7224952734251
 20
-12.45703026672778
 30
0.0
 10
240.0270000760204
 20
-13.86567543571662
 30
0.0
 10
242.2545682001392
 20
-15.70178873900635
 30
0.0
 10
244.0995633451156
 20
-15.59068583168651
 30
0.0
 10
245.3227661953151
 20
-15.5170263463111
 30
0.0
 10
246.5691064768328
 20
-14.93540088160285
 30
0.0
 10
247.8385841896686
 20
-13.84580943756176
 30
0.0
  0
SPLINE
  5
E6
330
1F
100
AcDbEntity
  8
0
  6
K5LT32769
 62
    30
420
 16744448
100
AcDbSpline
210
0.0
220
0.0
230
1.0
 70
     8
 71
     3
 72
    32
 73
    28
 74
     0
 42
0.0
 43
0.0
 12
1.0
 22
0.0
 32
0.0
 13
1.0
 23
0.0
 33
0.0
 40
0.0
 40
0.0
 40
0.0
 40
0.0
 40
1.0
 40
1.0
 40
1.0
 40
2.0
 40
2.0
 40
2.0
 40
3.0
 40
3.0
 40
3.0
 40
4.0
 40
4.0
 40
4.0
 40
5.0
 40
5.0
 40
5.0
 40
6.0
 40
6.0
 40
6.0
 40
7.0
 40
7.0
 40
7.0
 40
8.0
 40
8.0
 40
8.0
 40
9.0
 40
9.0
 40
9.0
 40
9.0
 10
247.8385841896686
 20
-13.84580943756176
 30
0.0
 10
246.8068190446291
 20
-14.03770519116534
 30
0.0
 10
246.0234051533894
 20
-13.94274593162114
 30
0.0
 10
245.4883425159495
 20
-13.56093165892915
 30
0.0
 10
244.7796523773472
 20
-13.05521888644119
 30
0.0
 10
244.5639300877279
 20
-11.42420343461037
 30
0.0
 10
244.6693189023808
 20
-10.53410526095765
 30
0.0
 10
244.8630128063339
 20
-8.898195504081295
 30
0.0
 10
247.4765073124114
 20
-7.303707244983624
 30
0.0
 10
249.0849244711863
 20
-6.830694138733698
 30
0.0
 10
251.4488320118943
 20
-6.135501823346029
 30
0.0
 10
255.047358843663
 20
-8.016551832606005
 30
0.0
 10
257.0615022728994
 20
-9.679471925059815
 30
0.0
 10
259.5651585640912
 20
-11.74654435435528
 30
0.0
 10
260.9415712127442
 20
-15.85635351255013
 30
0.0
 10
261.5839370086921
 20
-19.18726778692323
 30
0.0
 10
262.2549643691211
 20
-22.66680332173446
 30
0.0
 10
261.914944281639
 20
-26.78223890077229
 30
0.0
 10
260.7649133951234
 20
-30.15506226427878
 30
0.0
 10
259.7603895275228
 20
-33.10114102578805
 30
0.0
 10
257.7290402446339
 20
-35.87150136710621
 30
0.0
 10
255.7439425467236
 20
-38.34529839996637
 30
0.0
 10
253.3744922872137
 20
-41.29806945383224
 30
0.0
 10
250.3277540710898
 20
-43.79014563793532
 30
0.0
 10
247.3044383547325
 20
-46.10821786770505
 30
0.0
 10
244.8227815487725
 20
-48.01098299891208
 30
0.0
 10
242.1995320038638
 20
-49.73211957815077
 30
0.0
 10
239.4346897200066
 20
-51.27162760542114
 30
0.0
  0
SPLINE
  5
E7
330
1F
100
AcDbEntity
  8
0
  6
K5LT32769
 62
    30
420
 16744448
100
AcDbSpline
210
0.0
220
0.0
230
1.0
 70
     8
 71
     3
 72
    11
 73
     7
 74
     0
 42
0.0
 43
0.0
 12
1.0
 22
0.0
 32
0.0
 13
1.0
 23
0.0
 33
0.0
 40
0.0
 40
0.0
 40
0.0
 40
0.0
 40
1.0
 40
1.0
 40
1.0
 40
2.0
 40
2.0
 40
2.0
 40
2.0
 10
226.5535177012296
 20
-6.806359999880964
 30
0.0
 10
226.8353935009569
 20
-8.732786979229392
 30
0.0
 10
227.4637268244261
 20
-10.43018374358204
 30
0.0
 10
228.4385176716374
 20
-11.89855029293891
 30
0.0
 10
229.3972211531452
 20
-13.34268379811623
 30
0.0
 10
230.6910410644349
 20
-14.56528426474786
 30
0.0
 10
232.3199774055067
 20
-15.56635169283378
 30
0.0
  0
SPLINE
  5
E8
330
1F
100
AcDbEntity
  8
0
  6
K5LT32769
 62
    30
420
 16744448
100
AcDbSpline
210
0.0
220
0.0
230
1.0
 70
     8
 71
     3
 72
    11
 73
     7
 74
     0
 42
0.0
 43
0.0
 12
1.0
 22
0.0
 32
0.0
 13
1.0
 23
0.0
 33
0.0
 40
0.0
 40
0.0
 40
0.0
 40
0.0
 40
1.0
 40
1.0
 40
1.0
 40
2.0
 40
2.0
 40
2.0
 40
2.0
 10
232.3199774055067
 20
-15.56635169283378
 30
0.0
 10
230.955454644253
 20
-15.17752971598842
 30
0.0
 10
229.7803338073935
 20
-15.2131394383175
 30
0.0
 10
228.7946148949281
 20
-15.67318085982101
 30
0.0
 10
227.8870095955941
 20
-16.09676615050544
 30
0.0
 10
227.1399771976945
 20
-16.88018004174512
 30
0.0
 10
226.5535177012296
 20
-18.02342253354006
 30
0.0
  0
LINE
  5
E9
330
1F
100
AcDbEntity
  8
0
  6
K5LT32769
 62
    30
420
 16744448
100
AcDbLine
 10
226.5535177012296
 20
2.483208396132049
 30
0.0
 11
226.5535177012296
 21
36.79911057525334
 31
0.0
  0
SPLINE
  5
EA
330
1F
100
AcDbEntity
  8
0
  6
K5LT32769
 62
    30
420
 16744448
100
AcDbSpline
210
0.0
220
0.0
230
1.0
 70
     8
 71
     3
 72
    14
 73
    10
 74
     0
 42
0.0
 43
0.0
 12
1.0
 22
0.0
 32
0.0
 13
1.0
 23
0.0
 33
0.0
 40
0.0
 40
0.0
 40
0.0
 40
0.0
 40
1.0
 40
1.0
 40
1.0
 40
2.0
 40
2.0
 40
2.0
 40
3.0
 40
3.0
 40
3.0
 40
3.0
 10
238.1340495855396
 20
-18.80085593068478
 30
0.0
 10
240.7221717243961
 20
-20.05494728578477
 30
0.0
 10
243.1293890494959
 20
-20.4252884127232
 30
0.0
 10
245.355701560839
 20
-19.91187931150007
 30
0.0
 10
247.3030905724853
 20
-19.46279265492912
 30
0.0
 10
249.7483601794081
 20
-18.21148174312704
 30
0.0
 10
250.7826234594367
 20
-16.53607750056131
 30
0.0
 10
251.5409227618368
 20
-15.30770761360124
 30
0.0
 10
251.88277610978
 20
-13.78361143735463
 30
0.0
 10
251.8081835032662
 20
-11.96378897182148
 30
0.0
  0
SPLINE
  5
EB
330
1F
100
AcDbEntity
  8
0
  6
K5LT32769
 62
    30
420
 16744448
100
AcDbSpline
210
0.0
220
0.0
230
1.0
 70
     8
 71
     3
 72
    14
 73
    10
 74
     0
 42
0.0
 43
0.0
 12
1.0
 22
0.0
 32
0.0
 13
1.0
 23
0.0
 33
0.0
 40
0.0
 40
0.0
 40
0.0
 40
0.0
 40
1.0
 40
1.0
 40
1.0
 40
2.0
 40
2.0
 40
2.0
 40
3.0
 40
3.0
 40
3.0
 40
3.0
 10
251.8081835032662
 20
-11.96378897182148
 30
0.0
 10
253.407289032498
 20
-13.45740790062378
 30
0.0
 10
254.480328440079
 20
-15.07408919870964
 30
0.0
 10
255.0273017260092
 20
-16.81383286607904
 30
0.0
 10
255.8502901483387
 20
-19.43149068026512
 30
0.0
 10
255.0832576133676
 20
-22.88267491789973
 30
0.0
 10
253.9234003338078
 20
-25.5026051143737
 30
0.0
 10
253.4050051470293
 20
-26.67357608423578
 30
0.0
 10
252.7284204227769
 20
-27.78934738388017
 30
0.0
 10
251.8936461610504
 20
-28.84991901330689
 30
0.0
  0
SPLINE
  5
EC
330
1F
100
AcDbEntity
  8
0
  6
K5LT32769
 62
    30
420
 16744448
100
AcDbSpline
210
0.0
220
0.0
230
1.0
 70
     8
 71
     3
 72
    11
 73
     7
 74
     0
 42
0.0
 43
0.0
 12
1.0
 22
0.0
 32
0.0
 13
1.0
 23
0.0
 33
0.0
 40
0.0
 40
0.0
 40
0.0
 40
0.0
 40
1.0
 40
1.0
 40
1.0
 40
2.0
 40
2.0
 40
2.0
 40
2.0
 10
251.8936461610504
 20
-28.84991901330689
 30
0.0
 10
252.3687602526014
 20
-27.166878109581
 30
0.0
 10
252.3450204377153
 20
-25.65939986431676
 30
0.0
 10
251.8224267163923
 20
-24.32748427751417
 30
0.0
 10
251.4002242108289
 20
-23.25143212647928
 30
0.0
 10
250.6524200419184
 20
-22.28996962359421
 30
0.0
 10
249.5790142096605
 20
-21.44309676885898
 30
0.0
  0
SPLINE
  5
ED
330
1F
100
AcDbEntity
  8
0
  6
K5LT32769
 62
    30
420
 16744448
100
AcDbSpline
210
0.0
220
0.0
230
1.0
 70
     8
 71
     3
 72
    14
 73
    10
 74
     0
 42
0.0
 43
0.0
 12
1.0
 22
0.0
 32
0.0
 13
1.0
 23
0.0
 33
0.0
 40
0.0
 40
0.0
 40
0.0
 40
0.0
 40
1.0
 40
1.0
 40
1.0
 40
2.0
 40
2.0
 40
2.0
 40
3.0
 40
3.0
 40
3.0
 40
3.0
 10
249.5790142096605
 20
-21.44309676885898
 30
0.0
 10
249.8191581488184
 20
-23.85261596361302
 30
0.0
 10
249.5580201850719
 20
-26.04854884057273
 30
0.0
 10
248.7956003184208
 20
-28.03089539973813
 30
0.0
 10
247.821508398153
 20
-30.56360454192683
 30
0.0
 10
245.7424430945862
 20
-33.097567620615
 30
0.0
 10
243.4185322467302
 20
-34.5830843082882
 30
0.0
 10
242.2864627748588
 20
-35.30673861439975
 30
0.0
 10
241.0282525858981
 20
-35.86462426422194
 30
0.0
 10
239.6439016798481
 20
-36.25674125775479
 30
0.0
  0
SPLINE
  5
EE
330
1F
100
AcDbEntity
  8
0
  6
K5LT32769
 62
    30
420
 16744448
100
AcDbSpline
210
0.0
220
0.0
230
1.0
 70
     8
 71
     3
 72
    14
 73
    10
 74
     0
 42
0.0
 43
0.0
 12
1.0
 22
0.0
 32
0.0
 13
1.0
 23
0.0
 33
0.0
 40
0.0
 40
0.0
 40
0.0
 40
0.0
 40
1.0
 40
1.0
 40
1.0
 40
2.0
 40
2.0
 40
2.0
 40
3.0
 40
3.0
 40
3.0
 40
3.0
 10
238.1340495855396
 20
-18.80085593068478
 30
0.0
 10
240.1323131162225
 20
-21.03905052852397
 30
0.0
 10
241.3477915942402
 20
-23.42727571984627
 30
0.0
 10
241.7804850195927
 20
-25.96553150465169
 30
0.0
 10
242.1558138803528
 20
-28.16727665770652
 30
0.0
 10
241.8346292460115
 20
-30.72087707897796
 30
0.0
 10
241.1395100176694
 20
-32.9094273588216
 30
0.0
 10
240.7740539196728
 20
-34.06004873847828
 30
0.0
 10
240.2755178070657
 20
-35.17582003812267
 30
0.0
 10
239.6439016798481
 20
-36.25674125775479
 30
0.0
  0
SPLINE
  5
EF
330
1F
100
AcDbEntity
  8
0
  6
K5LT32769
 62
    30
420
 16744448
100
AcDbSpline
210
0.0
220
0.0
230
1.0
 70
     8
 71
     3
 72
    20
 73
    16
 74
     0
 42
0.0
 43
0.0
 12
1.0
 22
0.0
 32
0.0
 13
1.0
 23
0.0
 33
0.0
 40
0.0
 40
0.0
 40
0.0
 40
0.0
 40
1.0
 40
1.0
 40
1.0
 40
2.0
 40
2.0
 40
2.0
 40
3.0
 40
3.0
 40
3.0
 40
4.0
 40
4.0
 40
4.0
 40
5.0
 40
5.0
 40
5.0
 40
5.0
 10
229.1034238704415
 20
-20.87334121159375
 30
0.0
 10
229.6328574861374
 20
-19.71049109403575
 30
0.0
 10
230.2857023955038
 20
-18.98642674001119
 30
0.0
 10
231.0619585985407
 20
-18.70114814952009
 30
0.0
 10
232.0577376061956
 20
-18.33519367388039
 30
0.0
 10
233.6905207697976
 20
-19.13238594459307
 30
0.0
 10
234.6585405537774
 20
-19.76943981939239
 30
0.0
 10
236.2777532769427
 20
-20.83504380444315
 30
0.0
 10
237.1129157066211
 20
-23.34916379822606
 30
0.0
 10
237.5785377847617
 20
-25.32455650272831
 30
0.0
 10
238.0171177686288
 20
-27.18522364276488
 30
0.0
 10
237.8917678320315
 20
-29.32400361322311
 30
0.0
 10
237.5429280624326
 20
-31.23577040935501
 30
0.0
 10
237.2265704395247
 20
-32.9695234154244
 30
0.0
 10
236.6330750673734
 20
-34.65505027233402
 30
0.0
 10
235.7624419459788
 20
-36.29235098008387
 30
0.0
  0
SPLINE
  5
F0
330
1F
100
AcDbEntity
  8
0
  6
K5LT32769
 62
    30
420
 16744448
100
AcDbSpline
210
0.0
220
0.0
230
1.0
 70
     8
 71
     3
 72
    20
 73
    16
 74
     0
 42
0.0
 43
0.0
 12
1.0
 22
0.0
 32
0.0
 13
1.0
 23
0.0
 33
0.0
 40
0.0
 40
0.0
 40
0.0
 40
0.0
 40
1.0
 40
1.0
 40
1.0
 40
2.0
 40
2.0
 40
2.0
 40
3.0
 40
3.0
 40
3.0
 40
4.0
 40
4.0
 40
4.0
 40
5.0
 40
5.0
 40
5.0
 40
5.0
 10
229.1034238704415
 20
-20.87334121159375
 30
0.0
 10
230.5212229432314
 20
-20.2889384885858
 30
0.0
 10
231.6369942428757
 20
-20.18210932159857
 30
0.0
 10
232.4507377693747
 20
-20.55285371063207
 30
0.0
 10
233.6147300420936
 20
-21.08317265012101
 30
0.0
 10
234.362901981469
 20
-23.72970965002973
 30
0.0
 10
234.0887849965122
 20
-25.07528844642478
 30
0.0
 10
233.820131173056
 20
-26.39404980836704
 30
0.0
 10
232.217784822772
 20
-28.4273596397383
 30
0.0
 10
230.9195197092244
 20
-28.56504123467428
 30
0.0
 10
230.0253099943246
 20
-28.6598725741826
 30
0.0
 10
228.6174927279537
 20
-28.07668472333232
 30
0.0
 10
227.8926933112529
 20
-27.38992039781475
 30
0.0
 10
227.139284857243
 20
-26.67604834323651
 30
0.0
 10
226.6928929872352
 20
-25.64336639569329
 30
0.0
 10
226.5535177012296
 20
-24.2918745551851
 30
0.0
  0
LINE
  5
F1
330
1F
100
AcDbEntity
  8
0
  6
K5LT32769
 62
    30
420
 16744448
100
AcDbLine
 10
226.5535177012296
 20
-18.02342250885165
 30
0.0
 11
226.5535177012296
 21
-6.806359999880961
 31
0.0
  0
SPLINE
  5
F2
330
1F
100
AcDbEntity
  8
0
  6
K5LT32769
 62
    30
420
 16744448
100
AcDbSpline
210
0.0
220
0.0
230
1.0
 70
     8
 71
     3
 72
    11
 73
     7
 74
     0
 42
0.0
 43
0.0
 12
1.0
 22
0.0
 32
0.0
 13
1.0
 23
0.0
 33
0.0
 40
0.0
 40
0.0
 40
0.0
 40
0.0
 40
1.0
 40
1.0
 40
1.0
 40
2.0
 40
2.0
 40
2.0
 40
2.0
 10
235.7624419459788
 20
-36.29235098008387
 30
0.0
 10
235.82971914958
 20
-34.87375137518229
 30
0.0
 10
235.5547327501981
 20
-33.66895560816901
 30
0.0
 10
234.9374827478329
 20
-32.67796367904402
 30
0.0
 10
234.3155658001874
 20
-31.67947899157352
 30
0.0
 10
233.3461900641932
 20
-30.89804344929247
 30
0.0
 10
232.0293555398503
 20
-30.33365705220086
 30
0.0
  0
SPLINE
  5
F3
330
1F
100
AcDbEntity
  8
0
  6
K5LT32769
 62
    30
420
 16744448
100
AcDbSpline
210
0.0
220
0.0
230
1.0
 70
     8
 71
     3
 72
    17
 73
    13
 74
     0
 42
0.0
 43
0.0
 12
1.0
 22
0.0
 32
0.0
 13
1.0
 23
0.0
 33
0.0
 40
0.0
 40
0.0
 40
0.0
 40
0.0
 40
1.0
 40
1.0
 40
1.0
 40
2.0
 40
2.0
 40
2.0
 40
3.0
 40
3.0
 40
3.0
 40
4.0
 40
4.0
 40
4.0
 40
4.0
 10
232.0293555398503
 20
-30.33365705220086
 30
0.0
 10
232.9757133094523
 20
-32.33758368721308
 30
0.0
 10
233.4513013921998
 20
-34.32341925539953
 30
0.0
 10
233.4561197880927
 20
-36.29116375676022
 30
0.0
 10
233.4625823094879
 20
-38.93033895591594
 30
0.0
 10
231.7157518668455
 20
-41.48664154693311
 30
0.0
 10
230.9349513470119
 20
-44.11105909096013
 30
0.0
 10
230.2147968227827
 20
-46.53163402628445
 30
0.0
 10
228.9802217252932
 20
-48.92462193108421
 30
0.0
 10
228.9265629278458
 20
-51.41817440324528
 30
0.0
 10
228.9040990248543
 20
-52.46208376207068
 30
0.0
 10
228.9895623618401
 20
-53.51613158489543
 30
0.0
 10
229.1829529388032
 20
-54.58031787171956
 30
0.0
  0
SPLINE
  5
F4
330
1F
100
AcDbEntity
  8
0
  6
K5LT32769
 62
    30
420
 16744448
100
AcDbSpline
210
0.0
220
0.0
230
1.0
 70
     8
 71
     3
 72
    11
 73
     7
 74
     0
 42
0.0
 43
0.0
 12
1.0
 22
0.0
 32
0.0
 13
1.0
 23
0.0
 33
0.0
 40
0.0
 40
0.0
 40
0.0
 40
0.0
 40
1.0
 40
1.0
 40
1.0
 40
2.0
 40
2.0
 40
2.0
 40
2.0
 10
239.4346897200066
 20
-51.27162760542114
 30
0.0
 10
241.0518376339758
 20
-50.70090344841446
 30
0.0
 10
242.6484411434077
 20
-50.47911848056751
 30
0.0
 10
244.2245002483024
 20
-50.60627270188026
 30
0.0
 10
245.4912340006039
 20
-50.70847099088112
 30
0.0
 10
246.7446962763955
 20
-51.03608044932666
 30
0.0
 10
247.9848870756772
 20
-51.58910107721686
 30
0.0
  0
SPLINE
  5
F5
330
1F
100
AcDbEntity
  8
0
  6
K5LT32769
 62
    30
420
 16744448
100
AcDbSpline
210
0.0
220
0.0
230
1.0
 70
     8
 71
     3
 72
    29
 73
    25
 74
     0
 42
0.0
 43
0.0
 12
1.0
 22
0.0
 32
0.0
 13
1.0
 23
0.0
 33
0.0
 40
0.0
 40
0.0
 40
0.0
 40
0.0
 40
1.0
 40
1.0
 40
1.0
 40
2.0
 40
2.0
 40
2.0
 40
3.0
 40
3.0
 40
3.0
 40
4.0
 40
4.0
 40
4.0
 40
5.0
 40
5.0
 40
5.0
 40
6.0
 40
6.0
 40
6.0
 40
7.0
 40
7.0
 40
7.0
 40
8.0
 40
8.0
 40
8.0
 40
8.0
 10
247.9848870756772
 20
-51.58910107721686
 30
0.0
 10
245.7969313682736
 20
-52.14600868777963
 30
0.0
 10
243.9851089019683
 20
-53.05761772090432
 30
0.0
 10
242.5494196767613
 20
-54.32392817659092
 30
0.0
 10
240.1377845435686
 20
-56.45104505595783
 30
0.0
 10
238.6466359043545
 20
-60.54237371419144
 30
0.0
 10
238.498457342664
 20
-63.70780295051247
 30
0.0
 10
238.3380848239392
 20
-67.13372269006585
 30
0.0
 10
239.7818684715717
 20
-72.02351645619059
 30
0.0
 10
242.2417516513868
 20
-74.1172378090156
 30
0.0
 10
244.5545766291758
 20
-76.08579106434046
 30
0.0
 10
249.2542394754132
 20
-77.0263789350247
 30
0.0
 10
252.3947964887446
 20
-76.3734699950951
 30
0.0
 10
255.0667991415335
 20
-75.81797158761009
 30
0.0
 10
258.7563866018229
 20
-73.9406726418942
 30
0.0
 10
259.8813851061902
 20
-71.65589360601979
 30
0.0
 10
260.9257488145217
 20
-69.53487718034367
 30
0.0
 10
261.0523717387644
 20
-65.0797361079979
 30
0.0
 10
259.4711610723575
 20
-63.45141292936707
 30
0.0
 10
258.3505957617811
 20
-62.29746013411579
 30
0.0
 10
255.6184502945686
 20
-61.31853690400635
 30
0.0
 10
253.9331366156169
 20
-61.65668278134929
 30
0.0
 10
252.4189054649948
 20
-61.9605021992547
 30
0.0
 10
251.0343993508097
 20
-63.02024761998901
 30
0.0
 10
249.7796182730615
 20
-64.83591904355222
 30
0.0
  0
SPLINE
  5
F6
330
1F
100
AcDbEntity
  8
0
  6
K5LT32769
 62
    30
420
 16744448
100
AcDbSpline
210
0.0
220
0.0
230
1.0
 70
     8
 71
     3
 72
    47
 73
    43
 74
     0
 42
0.0
 43
0.0
 12
1.0
 22
0.0
 32
0.0
 13
1.0
 23
0.0
 33
0.0
 40
0.0
 40
0.0
 40
0.0
 40
0.0
 40
1.0
 40
1.0
 40
1.0
 40
2.0
 40
2.0
 40
2.0
 40
3.0
 40
3.0
 40
3.0
 40
4.0
 40
4.0
 40
4.0
 40
5.0
 40
5.0
 40
5.0
 40
6.0
 40
6.0
 40
6.0
 40
7.0
 40
7.0
 40
7.0
 40
8.0
 40
8.0
 40
8.0
 40
9.0
 40
9.0
 40
9.0
 40
10.0
 40
10.0
 40
10.0
 40
11.0
 40
11.0
 40
11.0
 40
12.0
 40
12.0
 40
12.0
 40
13.0
 40
13.0
 40
13.0
 40
14.0
 40
14.0
 40
14.0
 40
14.0
 10
249.7796182730615
 20
-64.83591904355222
 30
0.0
 10
251.413023079366
 20
-64.03123359506472
 30
0.0
 10
252.8043667555121
 20
-63.82270330453149
 30
0.0
 10
253.9536493014999
 20
-64.21032817195257
 30
0.0
 10
255.364505704525
 20
-64.68617549781857
 30
0.0
 10
257.0370902251551
 20
-66.89196355856059
 30
0.0
 10
257.091863285021
 20
-68.33307987579398
 30
0.0
 10
257.1419682842515
 20
-69.65137635481089
 30
0.0
 10
255.8487680831556
 20
-71.68785073828636
 30
0.0
 10
254.7535861992602
 20
-72.4558315796354
 30
0.0
 10
253.096859061965
 20
-73.61758810564744
 30
0.0
 10
249.1519514729378
 20
-73.00639804696748
 30
0.0
 10
247.6156877269377
 20
-71.77896189691518
 30
0.0
 10
245.9620962157358
 20
-70.4577838091334
 30
0.0
 10
245.2279657471203
 20
-66.5256525978711
 30
0.0
 10
245.585078678777
 20
-64.3333953869926
 30
0.0
 10
246.1067350805967
 20
-61.13103303292027
 30
0.0
 10
250.7571881071389
 20
-57.21098855061016
 30
0.0
 10
253.7690484789399
 20
-56.58016083946993
 30
0.0
 10
257.3642524795078
 20
-55.82715305332068
 30
0.0
 10
263.5443891619453
 20
-59.42369563890313
 30
0.0
 10
265.768101945344
 20
-62.67198798395204
 30
0.0
 10
267.9859251984903
 20
-65.91167718736449
 30
0.0
 10
268.3856668694581
 20
-72.17027490311759
 30
0.0
 10
267.1218413107845
 20
-76.02478081579663
 30
0.0
 10
265.7573051458809
 20
-80.18644116487576
 30
0.0
 10
261.0029374601753
 20
-84.14859218719874
 30
0.0
 10
257.030329677501
 20
-86.42396048668022
 30
0.0
 10
251.7627250164477
 20
-89.44105689177579
 30
0.0
 10
244.1945014182913
 20
-89.85819886732914
 30
0.0
 10
238.0164449538144
 20
-89.19297282508117
 30
0.0
 10
232.1711891310152
 20
-88.56358129729479
 30
0.0
 10
226.8145511493489
 20
-84.1252491504753
 30
0.0
 10
220.9101020632485
 20
-83.03961207307906
 30
0.0
 10
216.7836204402597
 20
-82.28088566460568
 30
0.0
 10
212.2680563480989
 20
-81.47707362261455
 30
0.0
 10
208.2341789141242
 20
-82.17814156779875
 30
0.0
 10
203.5681394233602
 20
-82.98907615157836
 30
0.0
 10
199.1054217277128
 20
-85.95050084035087
 30
0.0
 10
195.0044532973196
 20
-88.57763674988095
 30
0.0
 10
191.6470791877386
 20
-90.72841606816047
 30
0.0
 10
188.4967673223752
 20
-93.210271571468
 30
0.0
 10
185.5535177012296
 20
-96.02320325980354
 30
0.0
  0
SPLINE
  5
F7
330
1F
100
AcDbEntity
  8
0
  6
K5LT32769
 62
    30
420
 16744448
100
AcDbSpline
210
0.0
220
0.0
230
1.0
 70
     8
 71
     3
 72
    17
 73
    13
 74
     0
 42
0.0
 43
0.0
 12
1.0
 22
0.0
 32
0.0
 13
1.0
 23
0.0
 33
0.0
 40
0.0
 40
0.0
 40
0.0
 40
0.0
 40
1.0
 40
1.0
 40
1.0
 40
2.0
 40
2.0
 40
2.0
 40
3.0
 40
3.0
 40
3.0
 40
4.0
 40
4.0
 40
4.0
 40
4.0
 10
229.5714777867342
 20
-59.30988728747759
 30
0.0
 10
229.8507375576886
 20
-63.35840435558047
 30
0.0
 10
230.8557864805156
 20
-67.0093984017684
 30
0.0
 10
232.5866245552153
 20
-70.26286942604136
 30
0.0
 10
234.5050363220603
 20
-73.86892431198889
 30
0.0
 10
237.4862298522872
 20
-77.97645355321195
 30
0.0
 10
241.0167287854582
 20
-79.6159777690846
 30
0.0
 10
244.2336480603999
 20
-81.10987909906952
 30
0.0
 10
248.8648002312396
 20
-81.27001156988712
 30
0.0
 10
252.4619797841821
 20
-80.41591466684486
 30
0.0
 10
255.1022494985715
 20
-79.78902180451564
 30
0.0
 10
257.6251274068924
 20
-78.55834965411523
 30
0.0
 10
260.0306135091447
 20
-76.72389821564359
 30
0.0
  0
SPLINE
  5
F8
330
1F
100
AcDbEntity
  8
0
  6
K5LT32769
 62
    30
420
 16744448
100
AcDbSpline
210
0.0
220
0.0
230
1.0
 70
     8
 71
     3
 72
    20
 73
    16
 74
     0
 42
0.0
 43
0.0
 12
1.0
 22
0.0
 32
0.0
 13
1.0
 23
0.0
 33
0.0
 40
0.0
 40
0.0
 40
0.0
 40
0.0
 40
1.0
 40
1.0
 40
1.0
 40
2.0
 40
2.0
 40
2.0
 40
3.0
 40
3.0
 40
3.0
 40
4.0
 40
4.0
 40
4.0
 40
5.0
 40
5.0
 40
5.0
 40
5.0
 10
260.0306135091447
 20
-76.72389821564359
 30
0.0
 10
258.8332049559598
 20
-78.25566163877218
 30
0.0
 10
257.4931390232293
 20
-79.51026312673905
 30
0.0
 10
256.0104157109533
 20
-80.4877026795442
 30
0.0
 10
252.7152909706647
 20
-82.65991190153366
 30
0.0
 10
247.8806646265928
 20
-83.44347829551083
 30
0.0
 10
244.0113627213487
 20
-82.89776887831094
 30
0.0
 10
241.1181759761213
 20
-82.48972647395664
 30
0.0
 10
237.8997156284832
 20
-81.2498300314333
 30
0.0
 10
235.5504920235506
 20
-79.41086459073352
 30
0.0
 10
234.1531591552923
 20
-78.31703646450268
 30
0.0
 10
232.4966734645082
 20
-77.04365571762497
 30
0.0
 10
231.8584757190569
 20
-75.41118026086534
 30
0.0
 10
231.5401139926459
 20
-74.59682811305271
 30
0.0
 10
231.3691873118823
 20
-73.70800937308199
 30
0.0
 10
231.345695676766
 20
-72.7447240409532
 30
0.0
  0
SPLINE
  5
F9
330
1F
100
AcDbEntity
  8
0
  6
K5LT32769
 62
    30
420
 16744448
100
AcDbSpline
210
0.0
220
0.0
230
1.0
 70
     8
 71
     3
 72
    11
 73
     7
 74
     0
 42
0.0
 43
0.0
 12
1.0
 22
0.0
 32
0.0
 13
1.0
 23
0.0
 33
0.0
 40
0.0
 40
0.0
 40
0.0
 40
0.0
 40
1.0
 40
1.0
 40
1.0
 40
2.0
 40
2.0
 40
2.0
 40
2.0
 10
231.345695676766
 20
-72.7447240409532
 30
0.0
 10
230.814571334591
 20
-73.49386337448273
 30
0.0
 10
230.4898106411402
 20
-74.26303343791892
 30
0.0
 10
230.3714135964135
 20
-75.05223423126176
 30
0.0
 10
230.2055082276583
 20
-76.15811190704144
 30
0.0
 10
230.4448055807273
 20
-77.30332066815755
 30
0.0
 10
231.0893056556206
 20
-78.4878605146101
 30
0.0
  0
SPLINE
  5
FA
330
1F
100
AcDbEntity
  8
0
  6
K5LT32769
 62
    30
420
 16744448
100
AcDbSpline
210
0.0
220
0.0
230
1.0
 70
     8
 71
     3
 72
    17
 73
    13
 74
     0
 42
0.0
 43
0.0
 12
1.0
 22
0.0
 32
0.0
 13
1.0
 23
0.0
 33
0.0
 40
0.0
 40
0.0
 40
0.0
 40
0.0
 40
1.0
 40
1.0
 40
1.0
 40
2.0
 40
2.0
 40
2.0
 40
3.0
 40
3.0
 40
3.0
 40
4.0
 40
4.0
 40
4.0
 40
4.0
 10
231.0893056556206
 20
-78.4878605146101
 30
0.0
 10
227.2738682373786
 20
-76.56604343603907
 30
0.0
 10
224.5219486770847
 20
-74.03632856073781
 30
0.0
 10
222.8335469747389
 20
-70.89871588870633
 30
0.0
 10
221.3965079079759
 20
-68.22821870796135
 30
0.0
 10
220.0383494058497
 20
-64.44279301269628
 30
0.0
 10
220.8337048098047
 20
-61.56611911901386
 30
0.0
 10
221.274163743132
 20
-59.97304926817613
 30
0.0
 10
222.0927826290851
 20
-57.82199116729716
 30
0.0
 10
223.5001610297169
 20
-57.00237674262578
 30
0.0
 10
224.3353342579423
 20
-56.51599722689242
 30
0.0
 10
225.3531198151132
 20
-56.27669987382338
 30
0.0
 10
226.5535177012296
 20
-56.28448468341867
 30
0.0
  0
SPLINE
  5
FB
330
1F
100
AcDbEntity
  8
0
  6
K5LT32769
 62
    30
420
 16744448
100
AcDbSpline
210
0.0
220
0.0
230
1.0
 70
     8
 71
     3
 72
    17
 73
    13
 74
     0
 42
0.0
 43
0.0
 12
1.0
 22
0.0
 32
0.0
 13
1.0
 23
0.0
 33
0.0
 40
0.0
 40
0.0
 40
0.0
 40
0.0
 40
1.0
 40
1.0
 40
1.0
 40
2.0
 40
2.0
 40
2.0
 40
3.0
 40
3.0
 40
3.0
 40
4.0
 40
4.0
 40
4.0
 40
4.0
 10
226.5535177012296
 20
-56.28448468341867
 30
0.0
 10
225.4590663389327
 20
-56.74556728801804
 30
0.0
 10
224.7745875392682
 20
-57.34950807163173
 30
0.0
 10
224.5000813022361
 20
-58.09630703425973
 30
0.0
 10
224.2085247428906
 20
-58.88949169345228
 30
0.0
 10
224.4544305751054
 20
-60.44894468334889
 30
0.0
 10
225.0128613241508
 20
-60.95932882328374
 30
0.0
 10
225.6040788983368
 20
-61.49967885528169
 30
0.0
 10
227.2742465318302
 20
-61.51930925146895
 30
0.0
 10
228.0895414556393
 20
-61.08752382876243
 30
0.0
 10
228.7022884053914
 20
-60.7630091126953
 30
0.0
 10
229.1962671824231
 20
-60.17046359893369
 30
0.0
 10
229.5714777867342
 20
-59.30988728747759
 30
0.0
  0
SPLINE
  5
FC
330
1F
100
AcDbEntity
  8
0
  6
K5LT32769
 62
    30
420
 16744448
100
AcDbSpline
210
0.0
220
0.0
230
1.0
 70
     8
 71
     3
 72
    17
 73
    13
 74
     0
 42
0.0
 43
0.0
 12
1.0
 22
0.0
 32
0.0
 13
1.0
 23
0.0
 33
0.0
 40
0.0
 40
0.0
 40
0.0
 40
0.0
 40
1.0
 40
1.0
 40
1.0
 40
2.0
 40
2.0
 40
2.0
 40
3.0
 40
3.0
 40
3.0
 40
4.0
 40
4.0
 40
4.0
 40
4.0
 10
229.1829529388032
 20
-54.58031787171956
 30
0.0
 10
227.9245819682214
 20
-53.42372963281722
 30
0.0
 10
226.6342586564874
 20
-52.74402038563848
 30
0.0
 10
225.3119830036011
 20
-52.5411901301833
 30
0.0
 10
223.3590507375281
 20
-52.2416204076753
 30
0.0
 10
220.637897666137
 20
-53.42048764499803
 30
0.0
 10
219.2440860776099
 20
-54.76323689181388
 30
0.0
 10
217.6000446072763
 20
-56.3470488389919
 30
0.0
 10
217.2600862165758
 20
-59.55294611673497
 30
0.0
 10
216.9365759789935
 20
-62.02762053560613
 30
0.0
 10
216.5729485306695
 20
-64.80916943214699
 30
0.0
 10
216.7723629836364
 20
-67.65794733167334
 30
0.0
 10
217.534819337894
 20
-70.57395423418525
 30
0.0
  0
SPLINE
  5
FD
330
1F
100
AcDbEntity
  8
0
  6
K5LT32769
 62
    30
420
 16744448
100
AcDbSpline
210
0.0
220
0.0
230
1.0
 70
     8
 71
     3
 72
    11
 73
     7
 74
     0
 42
0.0
 43
0.0
 12
1.0
 22
0.0
 32
0.0
 13
1.0
 23
0.0
 33
0.0
 40
0.0
 40
0.0
 40
0.0
 40
0.0
 40
1.0
 40
1.0
 40
1.0
 40
2.0
 40
2.0
 40
2.0
 40
2.0
 10
217.534819337894
 20
-70.57395423418525
 30
0.0
 10
216.1429719284107
 20
-67.91323679304028
 30
0.0
 10
215.3310702270456
 20
-65.20689778849024
 30
0.0
 10
215.099114233799
 20
-62.45493722053509
 30
0.0
 10
214.8548576462683
 20
-59.5570405637635
 30
0.0
 10
215.2536865522021
 20
-56.6085554377537
 30
0.0
 10
216.2956009516001
 20
-53.60948184250569
 30
0.0
  0
SPLINE
  5
FE
330
1F
100
AcDbEntity
  8
0
  6
K5LT32769
 62
    30
420
 16744448
100
AcDbSpline
210
0.0
220
0.0
230
1.0
 70
     8
 71
     3
 72
    11
 73
     7
 74
     0
 42
0.0
 43
0.0
 12
1.0
 22
0.0
 32
0.0
 13
1.0
 23
0.0
 33
0.0
 40
0.0
 40
0.0
 40
0.0
 40
0.0
 40
1.0
 40
1.0
 40
1.0
 40
2.0
 40
2.0
 40
2.0
 40
2.0
 10
216.2956009516001
 20
-53.60948184250569
 30
0.0
 10
214.4727514553035
 20
-54.05307310902337
 30
0.0
 10
213.2050452900142
 20
-54.90770647888128
 30
0.0
 10
212.4924824557324
 20
-56.17338195207942
 30
0.0
 10
212.1522894038481
 20
-56.77764305188302
 30
0.0
 10
211.9386310613836
 20
-57.47559363726699
 30
0.0
 10
211.8515074283389
 20
-58.26723370823131
 30
0.0
  0
SPLINE
  5
FF
330
1F
100
AcDbEntity
  8
0
  6
K5LT32769
 62
    30
420
 16744448
100
AcDbSpline
210
0.0
220
0.0
230
1.0
 70
     8
 71
     3
 72
    14
 73
    10
 74
     0
 42
0.0
 43
0.0
 12
1.0
 22
0.0
 32
0.0
 13
1.0
 23
0.0
 33
0.0
 40
0.0
 40
0.0
 40
0.0
 40
0.0
 40
1.0
 40
1.0
 40
1.0
 40
2.0
 40
2.0
 40
2.0
 40
3.0
 40
3.0
 40
3.0
 40
3.0
 10
211.8515074283389
 20
-58.26723370823131
 30
0.0
 10
211.2128007573455
 20
-55.76861126379887
 30
0.0
 10
210.149256853482
 20
-53.59404388572984
 30
0.0
 10
208.6608757167483
 20
-51.7435315740242
 30
0.0
 10
207.5129404806156
 20
-50.31629749057837
 30
0.0
 10
206.0691705603816
 20
-48.91443063633123
 30
0.0
 10
204.4589284819173
 20
-48.04012045180025
 30
0.0
 10
203.2679048098492
 20
-47.39343251559894
 30
0.0
 10
201.9622149911164
 20
-46.9437844666082
 30
0.0
 10
200.5418590257188
 20
-46.69117630482804
 30
0.0
  0
SPLINE
  5
100
330
1F
100
AcDbEntity
  8
0
  6
K5LT32769
 62
    30
420
 16744448
100
AcDbSpline
210
0.0
220
0.0
230
1.0
 70
     8
 71
     3
 72
    20
 73
    16
 74
     0
 42
0.0
 43
0.0
 12
1.0
 22
0.0
 32
0.0
 13
1.0
 23
0.0
 33
0.0
 40
0.0
 40
0.0
 40
0.0
 40
0.0
 40
1.0
 40
1.0
 40
1.0
 40
2.0
 40
2.0
 40
2.0
 40
3.0
 40
3.0
 40
3.0
 40
4.0
 40
4.0
 40
4.0
 40
5.0
 40
5.0
 40
5.0
 40
5.0
 10
211.5603377918301
 20
-69.53045835569682
 30
0.0
 10
210.9348081213837
 20
-65.87952632958188
 30
0.0
 10
209.6528580665968
 20
-62.70313897160997
 30
0.0
 10
207.7144876274695
 20
-60.00129628178109
 30
0.0
 10
205.7184507943888
 20
-57.21907394840912
 30
0.0
 10
202.8764136526397
 20
-53.93513950983289
 30
0.0
 10
199.6382022823122
 20
-53.16422932291778
 30
0.0
 10
197.9250951314208
 20
-52.75639561385211
 30
0.0
 10
195.6053445484644
 20
-52.45052716840875
 30
0.0
 10
194.0403537097428
 20
-53.20696099141067
 30
0.0
 10
192.9165901417626
 20
-53.75012888150005
 30
0.0
 10
191.545924667233
 20
-54.81543603715203
 30
0.0
 10
191.1346002522259
 20
-55.9845194434489
 30
0.0
 10
190.8459770963011
 20
-56.804856214022
 30
0.0
 10
190.8317332068034
 20
-57.7449529208657
 30
0.0
 10
191.091868583733
 20
-58.80480956398001
 30
0.0
  0
SPLINE
  5
101
330
1F
100
AcDbEntity
  8
0
  6
K5LT32769
 62
    30
420
 16744448
100
AcDbSpline
210
0.0
220
0.0
230
1.0
 70
     8
 71
     3
 72
    14
 73
    10
 74
     0
 42
0.0
 43
0.0
 12
1.0
 22
0.0
 32
0.0
 13
1.0
 23
0.0
 33
0.0
 40
0.0
 40
0.0
 40
0.0
 40
0.0
 40
1.0
 40
1.0
 40
1.0
 40
2.0
 40
2.0
 40
2.0
 40
3.0
 40
3.0
 40
3.0
 40
3.0
 10
195.194108759051
 20
-46.69117630482803
 30
0.0
 10
193.0887078232022
 20
-47.06825788669822
 30
0.0
 10
191.303737109985
 20
-47.84705435500211
 30
0.0
 10
189.8391966193992
 20
-49.02756570973975
 30
0.0
 10
188.4295209857071
 20
-50.16385255381665
 30
0.0
 10
187.2249145443668
 20
-51.86153136786451
 30
0.0
 10
186.5007854163614
 20
-53.55296756274659
 30
0.0
 10
185.9966244433697
 20
-54.73059746987938
 30
0.0
 10
185.602854493872
 20
-55.93051951193338
 30
0.0
 10
185.5535177012296
 20
-57.35193283522155
 30
0.0
  0
LINE
  5
102
330
1F
100
AcDbEntity
  8
0
  6
K5LT32769
 62
    30
420
 16744448
100
AcDbLine
 10
200.5418590257188
 20
-46.69117630482804
 30
0.0
 11
216.5535177012296
 21
-46.69117630482804
 31
0.0
  0
SPLINE
  5
103
330
1F
100
AcDbEntity
  8
0
  6
K5LT32769
 62
    30
420
 16744448
100
AcDbSpline
210
0.0
220
0.0
230
1.0
 70
     8
 71
     3
 72
    17
 73
    13
 74
     0
 42
0.0
 43
0.0
 12
1.0
 22
0.0
 32
0.0
 13
1.0
 23
0.0
 33
0.0
 40
0.0
 40
0.0
 40
0.0
 40
0.0
 40
1.0
 40
1.0
 40
1.0
 40
2.0
 40
2.0
 40
2.0
 40
3.0
 40
3.0
 40
3.0
 40
4.0
 40
4.0
 40
4.0
 40
4.0
 10
191.091868583733
 20
-58.80480956398001
 30
0.0
 10
191.8664677448319
 20
-57.57903127512152
 30
0.0
 10
192.7776806716836
 20
-56.77471272775124
 30
0.0
 10
193.8255073642879
 20
-56.39185392186916
 30
0.0
 10
195.0677696870981
 20
-55.93795150378772
 30
0.0
 10
196.9993179270837
 20
-56.11785533309627
 30
0.0
 10
198.1283486414051
 20
-56.80730066586668
 30
0.0
 10
199.0569072164374
 20
-57.37432720255811
 30
0.0
 10
200.0988376355168
 20
-58.56572897859321
 30
0.0
 10
200.2946066636779
 20
-59.62640357156415
 30
0.0
 10
200.4564407056507
 20
-60.50321875632906
 30
0.0
 10
200.2586089227947
 20
-61.46270290318048
 30
0.0
 10
199.70111131511
 20
-62.50485601211841
 30
0.0
  0
SPLINE
  5
104
330
1F
100
AcDbEntity
  8
0
  6
K5LT32769
 62
    30
420
 16744448
100
AcDbSpline
210
0.0
220
0.0
230
1.0
 70
     8
 71
     3
 72
    17
 73
    13
 74
     0
 42
0.0
 43
0.0
 12
1.0
 22
0.0
 32
0.0
 13
1.0
 23
0.0
 33
0.0
 40
0.0
 40
0.0
 40
0.0
 40
0.0
 40
1.0
 40
1.0
 40
1.0
 40
2.0
 40
2.0
 40
2.0
 40
3.0
 40
3.0
 40
3.0
 40
4.0
 40
4.0
 40
4.0
 40
4.0
 10
199.70111131511
 20
-62.50485601211841
 30
0.0
 10
200.8184261179806
 20
-61.52036153174092
 30
0.0
 10
201.926284101974
 20
-61.01589048545821
 30
0.0
 10
203.0246852670902
 20
-60.99144287327029
 30
0.0
 10
204.3339190586482
 20
-60.96230266383148
 30
0.0
 10
205.8334138121881
 20
-62.04122899558016
 30
0.0
 10
206.9120798002099
 20
-62.94997752354433
 30
0.0
 10
208.0225608795834
 20
-63.88552945288944
 30
0.0
 10
208.6961543588654
 20
-65.34708377251124
 30
0.0
 10
209.553134101337
 20
-66.57029914980845
 30
0.0
 10
210.2370888822751
 20
-67.54654626973051
 30
0.0
 10
210.9061567791061
 20
-68.53326600502663
 30
0.0
 10
211.5603377918301
 20
-69.53045835569682
 30
0.0
  0
SPLINE
  5
105
330
1F
100
AcDbEntity
  8
0
  6
K5LT32769
 62
    30
420
 16744448
100
AcDbSpline
210
0.0
220
0.0
230
1.0
 70
     8
 71
     3
 72
    20
 73
    16
 74
     0
 42
0.0
 43
0.0
 12
1.0
 22
0.0
 32
0.0
 13
1.0
 23
0.0
 33
0.0
 40
0.0
 40
0.0
 40
0.0
 40
0.0
 40
1.0
 40
1.0
 40
1.0
 40
2.0
 40
2.0
 40
2.0
 40
3.0
 40
3.0
 40
3.0
 40
4.0
 40
4.0
 40
4.0
 40
5.0
 40
5.0
 40
5.0
 40
5.0
 10
201.9472341428964
 20
-65.14169672718805
 30
0.0
 10
202.4574193913018
 20
-64.90373794630527
 30
0.0
 10
202.9519988484417
 20
-64.7751472874489
 30
0.0
 10
203.4309725143161
 20
-64.75592475061893
 30
0.0
 10
204.6616387954028
 20
-64.70653471187765
 30
0.0
 10
205.8530335907535
 20
-65.9380592593662
 30
0.0
 10
206.8138960011531
 20
-66.77380893574974
 30
0.0
 10
208.6194740868542
 20
-68.34428487952457
 30
0.0
 10
208.8119554652933
 20
-71.42927950122248
 30
0.0
 10
210.4638923948456
 20
-73.21323346771133
 30
0.0
 10
211.3712030391725
 20
-74.19305321374927
 30
0.0
 10
212.402219305351
 20
-75.20604158684563
 30
0.0
 10
213.579742974827
 20
-75.82461300141003
 30
0.0
 10
214.5365399218535
 20
-76.32723325127431
 30
0.0
 10
215.5850483709902
 20
-76.66354728212944
 30
0.0
 10
216.7252683222368
 20
-76.83355509397543
 30
0.0
  0
SPLINE
  5
106
330
1F
100
AcDbEntity
  8
0
  6
K5LT32769
 62
    30
420
 16744448
100
AcDbSpline
210
0.0
220
0.0
230
1.0
 70
     8
 71
     3
 72
    14
 73
    10
 74
     0
 42
0.0
 43
0.0
 12
1.0
 22
0.0
 32
0.0
 13
1.0
 23
0.0
 33
0.0
 40
0.0
 40
0.0
 40
0.0
 40
0.0
 40
1.0
 40
1.0
 40
1.0
 40
2.0
 40
2.0
 40
2.0
 40
3.0
 40
3.0
 40
3.0
 40
3.0
 10
216.7252683222368
 20
-76.83355509397543
 30
0.0
 10
215.1626587142561
 20
-77.2636095334357
 30
0.0
 10
213.599787629694
 20
-77.50100767286285
 30
0.0
 10
212.0366550685505
 20
-77.5457495122569
 30
0.0
 10
209.7819167872789
 20
-77.61028731318562
 30
0.0
 10
207.1103524894349
 20
-77.69273972435698
 30
0.0
 10
205.2708080948766
 20
-76.5368074196915
 30
0.0
 10
204.2268992592626
 20
-75.88083632718539
 30
0.0
 10
203.3168730581252
 20
-74.96091853690515
 30
0.0
 10
202.5407294914643
 20
-73.77705404885081
 30
0.0
  0
SPLINE
  5
107
330
1F
100
AcDbEntity
  8
0
  6
K5LT32769
 62
    30
420
 16744448
100
AcDbSpline
210
0.0
220
0.0
230
1.0
 70
     8
 71
     3
 72
    11
 73
     7
 74
     0
 42
0.0
 43
0.0
 12
1.0
 22
0.0
 32
0.0
 13
1.0
 23
0.0
 33
0.0
 40
0.0
 40
0.0
 40
0.0
 40
0.0
 40
1.0
 40
1.0
 40
1.0
 40
2.0
 40
2.0
 40
2.0
 40
2.0
 10
202.5407294914643
 20
-73.77705404885081
 30
0.0
 10
202.1530280335021
 20
-74.71289041247715
 30
0.0
 10
202.0145457855029
 20
-75.6130250244718
 30
0.0
 10
202.1252827474667
 20
-76.47745788483472
 30
0.0
 10
202.2474244647821
 20
-77.43091833919591
 30
0.0
 10
202.6727627979224
 20
-78.34094454033334
 30
0.0
 10
203.4012977468877
 20
-79.207536488247
 30
0.0
  0
SPLINE
  5
108
330
1F
100
AcDbEntity
  8
0
  6
K5LT32769
 62
    30
420
 16744448
100
AcDbSpline
210
0.0
220
0.0
230
1.0
 70
     8
 71
     3
 72
     8
 73
     4
 74
     0
 42
0.0
 43
0.0
 12
1.0
 22
0.0
 32
0.0
 13
1.0
 23
0.0
 33
0.0
 40
0.0
 40
0.0
 40
0.0
 40
0.0
 40
1.0
 40
1.0
 40
1.0
 40
1.0
 10
203.4012977468877
 20
-79.207536488247
 30
0.0
 10
203.1895140085027
 20
-79.24128170936658
 30
0.0
 10
202.9792747854697
 20
-79.27771695561874
 30
0.0
 10
202.7705800777888
 20
-79.31684222700352
 30
0.0
  0
SPLINE
  5
109
330
1F
100
AcDbEntity
  8
0
  6
K5LT32769
 62
    30
420
 16744448
100
AcDbSpline
210
0.0
220
0.0
230
1.0
 70
     8
 71
     3
 72
    14
 73
    10
 74
     0
 42
0.0
 43
0.0
 12
1.0
 22
0.0
 32
0.0
 13
1.0
 23
0.0
 33
0.0
 40
0.0
 40
0.0
 40
0.0
 40
0.0
 40
1.0
 40
1.0
 40
1.0
 40
2.0
 40
2.0
 40
2.0
 40
3.0
 40
3.0
 40
3.0
 40
3.0
 10
201.9472341428964
 20
-65.14169672718805
 30
0.0
 10
203.0628249622351
 20
-65.24494242688682
 30
0.0
 10
203.8005794961663
 20
-65.57302625848752
 30
0.0
 10
204.1604977446898
 20
-66.12594822199011
 30
0.0
 10
204.5638798226911
 20
-66.74564119817325
 30
0.0
 10
204.3594549301128
 20
-68.13706048088062
 30
0.0
 10
203.9468394107154
 20
-68.83228711899993
 30
0.0
 10
203.5249787977178
 20
-69.54309105617999
 30
0.0
 10
202.3860880096909
 20
-70.3277023405472
 30
0.0
 10
201.5952013251362
 20
-70.32836466326482
 30
0.0
  0
SPLINE
  5
10A
330
1F
100
AcDbEntity
  8
0
  6
K5LT32769
 62
    30
420
 16744448
100
AcDbSpline
210
0.0
220
0.0
230
1.0
 70
     8
 71
     3
 72
     8
 73
     4
 74
     0
 42
0.0
 43
0.0
 12
1.0
 22
0.0
 32
0.0
 13
1.0
 23
0.0
 33
0.0
 40
0.0
 40
0.0
 40
0.0
 40
0.0
 40
1.0
 40
1.0
 40
1.0
 40
1.0
 10
199.4244046749227
 20
-66.66009405692627
 30
0.0
 10
198.1657291154187
 20
-67.53722559105343
 30
0.0
 10
196.8989141967392
 20
-68.02295977869349
 30
0.0
 10
195.6239599188843
 20
-68.11729661984644
 30
0.0
  0
LINE
  5
10B
330
1F
100
AcDbEntity
  8
0
  6
K5LT32769
 62
    30
420
 16744448
100
AcDbLine
 10
208.7638828764953
 20
88.85817367730544
 30
0.0
 11
214.7549884971585
 21
94.84927929796868
 31
0.0
  0
LINE
  5
10C
330
1F
100
AcDbEntity
  8
0
  6
K5LT32769
 62
    30
420
 16744448
100
AcDbLine
 10
209.144708582369
 20
83.81771223420078
 30
0.0
 11
217.3148480273488
 21
92.27553264555314
 31
0.0
  0
LINE
  5
10D
330
1F
100
AcDbEntity
  8
0
  6
K5LT32769
 62
    30
420
 16744448
100
AcDbLine
 10
220.3221457708391
 20
89.02689261020771
 30
0.0
 11
220.4348504771496
 21
89.13860432351107
 31
0.0
  0
LINE
  5
10E
330
1F
100
AcDbEntity
  8
0
  6
K5LT32769
 62
    30
420
 16744448
100
AcDbLine
 10
224.66498423534
 20
88.51440200535133
 30
0.0
 11
229.466171716522
 21
93.31558948653328
 31
0.0
  0
LINE
  5
10F
330
1F
100
AcDbEntity
  8
0
  6
K5LT32769
 62
    30
420
 16744448
100
AcDbLine
 10
228.8028380401548
 20
84.54542513838365
 30
0.0
 11
233.4945868721341
 21
89.30451964737698
 31
0.0
  0
LINE
  5
110
330
1F
100
AcDbEntity
  8
0
  6
K5LT32769
 62
    30
420
 16744448
100
AcDbLine
 10
228.7797700062138
 20
79.94673257795102
 30
0.0
 11
229.1660541461166
 21
80.36003426935991
 31
0.0
  0
LINE
  5
111
330
1F
100
AcDbEntity
  8
0
  6
K5LT32769
 62
    30
420
 16744448
100
AcDbLine
 10
225.5739721566002
 20
67.62523440530889
 30
0.0
 11
227.0493214767477
 21
69.1871652583289
 31
0.0
  0
LINE
  5
112
330
1F
100
AcDbEntity
  8
0
  6
K5LT32769
 62
    30
420
 16744448
100
AcDbLine
 10
226.4879236117815
 20
64.45231799091265
 30
0.0
 11
229.0961028618674
 21
67.1626733353318
 31
0.0
  0
LINE
  5
113
330
1F
100
AcDbEntity
  8
0
  6
K5LT32769
 62
    30
420
 16744448
100
AcDbLine
 10
235.784881061603
 20
65.29095529109023
 30
0.0
 11
239.9525886753235
 21
69.51498327796915
 31
0.0
  0
LINE
  5
114
330
1F
100
AcDbEntity
  8
0
  6
K5LT32769
 62
    30
420
 16744448
100
AcDbLine
 10
237.914880483075
 20
63.18616296336342
 30
0.0
 11
242.0400440412003
 21
67.41620356110207
 31
0.0
  0
LINE
  5
115
330
1F
100
AcDbEntity
  8
0
  6
K5LT32769
 62
    30
420
 16744448
100
AcDbLine
 10
241.918558804061
 20
59.22986545090983
 30
0.0
 11
246.0482337101418
 21
63.38626964440863
 31
0.0
  0
LINE
  5
116
330
1F
100
AcDbEntity
  8
0
  6
K5LT32769
 62
    30
420
 16744448
100
AcDbLine
 10
243.8103330323439
 20
57.36047908331668
 30
0.0
 11
247.9504173527892
 21
61.47376674149375
 31
0.0
  0
LINE
  5
117
330
1F
100
AcDbEntity
  8
0
  6
K5LT32769
 62
    30
420
 16744448
100
AcDbLine
 10
244.0814914587006
 20
47.45542941945958
 30
0.0
 11
246.5451037877502
 21
49.90369213898234
 31
0.0
  0
LINE
  5
118
330
1F
100
AcDbEntity
  8
0
  6
K5LT32769
 62
    30
420
 16744448
100
AcDbLine
 10
244.0302844322199
 20
43.67033925556373
 30
0.0
 11
248.3798404128118
 21
48.08893580727614
 31
0.0
  0
LINE
  5
119
330
1F
100
AcDbEntity
  8
0
  6
K5LT32769
 62
    30
420
 16744448
100
AcDbLine
 10
253.9741020338033
 20
83.80726854587212
 30
0.0
 11
239.756773687637
 21
98.46374216914
 31
0.0
  0
LINE
  5
11A
330
1F
100
AcDbEntity
  8
0
  6
K5LT32769
 62
    30
420
 16744448
100
AcDbLine
 10
255.985268813169
 20
78.8725540717516
 30
0.0
 11
254.5790015118459
 21
80.27394808608611
 31
0.0
  0
LINE
  5
11B
330
1F
100
AcDbEntity
  8
0
  6
K5LT32769
 62
    30
420
 16744448
100
AcDbLine
 10
258.2237082443605
 20
68.0297327509232
 30
0.0
 11
256.4065482451655
 21
69.87516539508448
 31
0.0
  0
LINE
  5
11C
330
1F
100
AcDbEntity
  8
0
  6
K5LT32769
 62
    30
420
 16744448
100
AcDbLine
 10
258.404107859613
 20
64.50225263139802
 30
0.0
 11
254.7054035144122
 21
68.18503130983765
 31
0.0
  0
LINE
  5
11D
330
1F
100
AcDbEntity
  8
0
  6
K5LT32769
 62
    30
420
 16744448
100
AcDbLine
 10
257.6736602149994
 20
55.50680350315503
 30
0.0
 11
256.6698901165771
 21
56.51057360157733
 31
0.0
  0
LINE
  5
11E
330
1F
100
AcDbEntity
  8
0
  6
K5LT32769
 62
    30
420
 16744448
100
AcDbLine
 10
256.893348645775
 20
52.48232045053514
 30
0.0
 11
254.7881376858981
 21
54.5989520846971
 31
0.0
  0
LINE
  5
11F
330
1F
100
AcDbEntity
  8
0
  6
K5LT32769
 62
    30
420
 16744448
100
AcDbLine
 10
254.187333004287
 20
47.10628384476933
 30
0.0
 11
250.7531044194716
 21
50.49987067118451
 31
0.0
  0
LINE
  5
120
330
1F
100
AcDbEntity
  8
0
  6
K5LT32769
 62
    30
420
 16744448
100
AcDbLine
 10
251.9677403067689
 20
44.54010816566972
 30
0.0
 11
248.3798404128118
 21
48.08893580727614
 31
0.0
  0
LINE
  5
121
330
1F
100
AcDbEntity
  8
0
  6
K5LT32769
 62
    30
420
 16744448
100
AcDbLine
 10
247.2241153210284
 20
40.47650836675526
 30
0.0
 11
244.0302844322199
 21
43.67033925556373
 31
0.0
  0
LINE
  5
122
330
1F
100
AcDbEntity
  8
0
  6
K5LT32769
 62
    30
420
 16744448
100
AcDbLine
 10
244.7894030870397
 20
39.09613693450265
 30
0.0
 11
241.3625642678969
 21
42.52297575364543
 31
0.0
  0
SPLINE
  5
123
330
1F
100
AcDbEntity
  8
0
  6
K5LT32769
 62
    30
420
 16744448
100
AcDbSpline
210
0.0
220
0.0
230
1.0
 70
     8
 71
     3
 72
    20
 73
    16
 74
     0
 42
0.0
 43
0.0
 12
1.0
 22
0.0
 32
0.0
 13
1.0
 23
0.0
 33
0.0
 40
0.0
 40
0.0
 40
0.0
 40
0.0
 40
1.0
 40
1.0
 40
1.0
 40
2.0
 40
2.0
 40
2.0
 40
3.0
 40
3.0
 40
3.0
 40
4.0
 40
4.0
 40
4.0
 40
5.0
 40
5.0
 40
5.0
 40
5.0
 10
209.1447085951719
 20
83.81771218939096
 30
0.0
 10
209.9265474478819
 20
81.08131136392306
 30
0.0
 10
211.4880683090967
 20
78.21867131984797
 30
0.0
 10
213.3913848011924
 20
76.99911826014008
 30
0.0
 10
215.867375090844
 20
75.41262355676741
 30
0.0
 10
221.4875497837163
 20
74.44812658282312
 30
0.0
 10
223.5990731023249
 20
76.36113774131931
 30
0.0
 10
224.7954438375713
 20
77.44503321434343
 30
0.0
 10
226.0680906664652
 20
79.90865763472732
 30
0.0
 10
225.9448147894781
 20
81.66000952634958
 30
0.0
 10
225.8472367295151
 20
83.04627847104311
 30
0.0
 10
225.0511550422046
 20
85.14622793919595
 30
0.0
 10
223.9506703390499
 20
85.79073731652247
 30
0.0
 10
222.8729724660024
 20
86.42190136915563
 30
0.0
 10
221.3773641281811
 20
86.35068192449748
 30
0.0
 10
219.4638453255862
 20
85.577078982548
 30
0.0
  0
SPLINE
  5
124
330
1F
100
AcDbEntity
  8
0
  6
K5LT32769
 62
    30
420
 16744448
100
AcDbSpline
210
0.0
220
0.0
230
1.0
 70
     8
 71
     3
 72
     8
 73
     4
 74
     0
 42
0.0
 43
0.0
 12
1.0
 22
0.0
 32
0.0
 13
1.0
 23
0.0
 33
0.0
 40
0.0
 40
0.0
 40
0.0
 40
0.0
 40
1.0
 40
1.0
 40
1.0
 40
1.0
 10
212.7985888718021
 20
96.81629230282802
 30
0.0
 10
210.8785522746941
 20
94.55347073973003
 30
0.0
 10
209.2644856136428
 20
91.55904921479637
 30
0.0
 10
208.7638828831081
 20
88.85817367904897
 30
0.0
  0
LINE
  5
125
330
1F
100
AcDbEntity
  8
0
  6
K5LT32769
 62
    30
420
 16744448
100
AcDbLine
 10
216.5430864586721
 20
96.63737725948229
 30
0.0
 11
221.3688462745665
 21
101.4631370753766
 31
0.0
  0
LINE
  5
126
330
1F
100
AcDbEntity
  8
0
  6
K5LT32769
 62
    30
420
 16744448
100
AcDbLine
 10
216.5430864586721
 20
96.63737725948228
 30
0.0
 11
214.5687778217927
 21
98.61168589636172
 31
0.0
  0
LINE
  5
127
330
1F
100
AcDbEntity
  8
0
  6
K5LT32769
 62
    30
420
 16744448
100
AcDbLine
 10
214.7549884971585
 20
94.84927929796869
 30
0.0
 11
212.7985888718112
 21
96.81629230283873
 31
0.0
  0
LINE
  5
128
330
1F
100
AcDbEntity
  8
0
  6
K5LT32769
 62
    30
420
 16744448
100
AcDbLine
 10
219.0788334682687
 20
94.10163024988574
 30
0.0
 11
223.7844055225416
 21
98.9728914609992
 31
0.0
  0
LINE
  5
129
330
1F
100
AcDbEntity
  8
0
  6
K5LT32769
 62
    30
420
 16744448
100
AcDbLine
 10
225.7504840263976
 20
101.0081980811882
 30
0.0
 11
226.5921731235553
 21
101.8795241183867
 31
0.0
  0
SPLINE
  5
12A
330
1F
100
AcDbEntity
  8
0
  6
K5LT32769
 62
    30
420
 16744448
100
AcDbSpline
210
0.0
220
0.0
230
1.0
 70
     8
 71
     3
 72
    11
 73
     7
 74
     0
 42
0.0
 43
0.0
 12
1.0
 22
0.0
 32
0.0
 13
1.0
 23
0.0
 33
0.0
 40
0.0
 40
0.0
 40
0.0
 40
0.0
 40
1.0
 40
1.0
 40
1.0
 40
2.0
 40
2.0
 40
2.0
 40
2.0
 10
221.3688462745665
 20
101.4631370753767
 30
0.0
 10
219.0223668879921
 20
101.0575616027065
 30
0.0
 10
216.8222686335529
 20
100.32236361517
 30
0.0
 10
215.1989962711846
 20
99.1157762459271
 30
0.0
 10
214.9888103451315
 20
98.95954387885944
 30
0.0
 10
214.7784412181697
 20
98.79113758249561
 30
0.0
 10
214.5687778221126
 20
98.61168589135782
 30
0.0
  0
SPLINE
  5
12B
330
1F
100
AcDbEntity
  8
0
  6
K5LT32769
 62
    30
420
 16744448
100
AcDbSpline
210
0.0
220
0.0
230
1.0
 70
     8
 71
     3
 72
    11
 73
     7
 74
     0
 42
0.0
 43
0.0
 12
1.0
 22
0.0
 32
0.0
 13
1.0
 23
0.0
 33
0.0
 40
0.0
 40
0.0
 40
0.0
 40
0.0
 40
1.0
 40
1.0
 40
1.0
 40
2.0
 40
2.0
 40
2.0
 40
2.0
 10
232.6429866626917
 20
101.2391798378149
 30
0.0
 10
231.5303933452703
 20
101.5078265540674
 30
0.0
 10
230.4244220456043
 20
101.6909638662625
 30
0.0
 10
229.3408977717119
 20
101.7740284076803
 30
0.0
 10
228.4727346882881
 20
101.8405830480683
 30
0.0
 10
227.5466297301144
 20
101.8789967960339
 30
0.0
 10
226.5921731236529
 20
101.8795241183866
 30
0.0
  0
LINE
  5
12C
330
1F
100
AcDbEntity
  8
0
  6
K5LT32769
 62
    30
420
 16744448
100
AcDbLine
 10
229.0397827174196
 20
97.66772218280947
 30
0.0
 11
232.6429866626917
 21
101.2391798378149
 31
0.0
  0
LINE
  5
12D
330
1F
100
AcDbEntity
  8
0
  6
K5LT32769
 62
    30
420
 16744448
100
AcDbLine
 10
229.0397827174196
 20
97.66772218280946
 30
0.0
 11
225.7504840263976
 21
101.0081980811882
 31
0.0
  0
LINE
  5
12E
330
1F
100
AcDbEntity
  8
0
  6
K5LT32769
 62
    30
420
 16744448
100
AcDbLine
 10
231.410600148039
 20
95.26001791805027
 30
0.0
 11
235.4686533574356
 21
99.31807112744693
 31
0.0
  0
LINE
  5
12F
330
1F
100
AcDbEntity
  8
0
  6
K5LT32769
 62
    30
420
 16744448
100
AcDbLine
 10
227.0630290466817
 20
95.70838484397238
 30
0.0
 11
223.7844055225416
 21
98.9728914609992
 31
0.0
  0
LINE
  5
130
330
1F
100
AcDbEntity
  8
0
  6
K5LT32769
 62
    30
420
 16744448
100
AcDbLine
 10
235.385844215717
 20
91.22292422555684
 30
0.0
 11
239.452538326899
 21
95.34799193642084
 31
0.0
  0
LINE
  5
131
330
1F
100
AcDbEntity
  8
0
  6
K5LT32769
 62
    30
420
 16744448
100
AcDbLine
 10
235.385844215717
 20
91.22292422555684
 30
0.0
 11
231.410600148039
 21
95.2600179180503
 31
0.0
  0
LINE
  5
132
330
1F
100
AcDbEntity
  8
0
  6
K5LT32769
 62
    30
420
 16744448
100
AcDbLine
 10
237.4036205322351
 20
89.17375393523159
 30
0.0
 11
241.3794965746628
 21
93.42771138111812
 31
0.0
  0
LINE
  5
133
330
1F
100
AcDbEntity
  8
0
  6
K5LT32769
 62
    30
420
 16744448
100
AcDbLine
 10
233.4945868721341
 20
89.30451964737696
 30
0.0
 11
229.466171716522
 21
93.3155894865333
 31
0.0
  0
LINE
  5
134
330
1F
100
AcDbEntity
  8
0
  6
K5LT32769
 62
    30
420
 16744448
100
AcDbLine
 10
239.452538326899
 20
95.34799193642083
 30
0.0
 11
235.4686533574356
 21
99.31807112744694
 31
0.0
  0
LINE
  5
135
330
1F
100
AcDbEntity
  8
0
  6
K5LT32769
 62
    30
420
 16744448
100
AcDbLine
 10
245.7923565754501
 20
89.03014373136824
 30
0.0
 11
241.3794965746628
 21
93.4277113811181
 31
0.0
  0
LINE
  5
136
330
1F
100
AcDbEntity
  8
0
  6
K5LT32769
 62
    30
420
 16744448
100
AcDbLine
 10
241.7544309159261
 20
84.75525060356236
 30
0.0
 11
237.4036205322351
 21
89.17375393523159
 31
0.0
  0
LINE
  5
137
330
1F
100
AcDbEntity
  8
0
  6
K5LT32769
 62
    30
420
 16744448
100
AcDbLine
 10
241.7544309159261
 20
84.75525060356236
 30
0.0
 11
245.7923565754501
 21
89.03014373136824
 31
0.0
  0
LINE
  5
138
330
1F
100
AcDbEntity
  8
0
  6
K5LT32769
 62
    30
420
 16744448
100
AcDbLine
 10
243.9144944785332
 20
82.56157926275351
 30
0.0
 11
248.0113057228338
 21
86.81888414342887
 31
0.0
  0
LINE
  5
139
330
1F
100
AcDbEntity
  8
0
  6
K5LT32769
 62
    30
420
 16744448
100
AcDbLine
 10
239.965564799702
 20
82.86140408145658
 30
0.0
 11
235.5826627857411
 21
87.22543444999613
 31
0.0
  0
LINE
  5
13A
330
1F
100
AcDbEntity
  8
0
  6
K5LT32769
 62
    30
420
 16744448
100
AcDbLine
 10
252.5566109827299
 20
82.28933021115122
 30
0.0
 11
248.0113057228338
 21
86.81888414342887
 31
0.0
  0
SPLINE
  5
13B
330
1F
100
AcDbEntity
  8
0
  6
K5LT32769
 62
    30
420
 16744448
100
AcDbSpline
210
0.0
220
0.0
230
1.0
 70
     8
 71
     3
 72
    11
 73
     7
 74
     0
 42
0.0
 43
0.0
 12
1.0
 22
0.0
 32
0.0
 13
1.0
 23
0.0
 33
0.0
 40
0.0
 40
0.0
 40
0.0
 40
0.0
 40
1.0
 40
1.0
 40
1.0
 40
2.0
 40
2.0
 40
2.0
 40
2.0
 10
253.9741020336011
 20
83.80726854573247
 30
0.0
 10
252.412674677197
 20
87.04884363826986
 30
0.0
 10
250.4562652210148
 20
90.0177394965121
 30
0.0
 10
248.1613230769248
 20
92.3106507118388
 30
0.0
 10
245.8838327366818
 20
94.58612556744234
 30
0.0
 10
242.9422891450885
 20
96.76601958464173
 30
0.0
 10
239.7567736852464
 20
98.46374217041411
 30
0.0
  0
LINE
  5
13C
330
1F
100
AcDbEntity
  8
0
  6
K5LT32769
 62
    30
420
 16744448
100
AcDbLine
 10
248.3653715145907
 20
78.04145237182098
 30
0.0
 11
243.9144944785331
 21
82.56157926275353
 31
0.0
  0
LINE
  5
13D
330
1F
100
AcDbEntity
  8
0
  6
K5LT32769
 62
    30
420
 16744448
100
AcDbLine
 10
246.6016476953211
 20
76.25389444688561
 30
0.0
 11
242.1295634254085
 21
80.70672307558891
 31
0.0
  0
LINE
  5
13E
330
1F
100
AcDbEntity
  8
0
  6
K5LT32769
 62
    30
420
 16744448
100
AcDbLine
 10
248.3653715145907
 20
78.04145237182098
 30
0.0
 11
252.5566109827299
 21
82.28933021115122
 31
0.0
  0
LINE
  5
13F
330
1F
100
AcDbEntity
  8
0
  6
K5LT32769
 62
    30
420
 16744448
100
AcDbLine
 10
250.3933693410962
 20
75.98190153811389
 30
0.0
 11
254.5790015118459
 21
80.2739480860861
 31
0.0
  0
LINE
  5
140
330
1F
100
AcDbEntity
  8
0
  6
K5LT32769
 62
    30
420
 16744448
100
AcDbLine
 10
254.4597618110098
 20
71.85224129285504
 30
0.0
 11
257.2056083450954
 21
74.61586029641688
 31
0.0
  0
LINE
  5
141
330
1F
100
AcDbEntity
  8
0
  6
K5LT32769
 62
    30
420
 16744448
100
AcDbLine
 10
254.4597618110098
 20
71.85224129285506
 30
0.0
 11
250.3933693410962
 21
75.98190153811387
 31
0.0
  0
LINE
  5
142
330
1F
100
AcDbEntity
  8
0
  6
K5LT32769
 62
    30
420
 16744448
100
AcDbLine
 10
256.4065482451655
 20
69.87516539508447
 30
0.0
 11
257.8461253985568
 21
71.30542489699755
 31
0.0
  0
LINE
  5
143
330
1F
100
AcDbEntity
  8
0
  6
K5LT32769
 62
    30
420
 16744448
100
AcDbLine
 10
252.7503008234918
 20
70.13171583292592
 30
0.0
 11
248.6599710018338
 21
74.2044337495482
 31
0.0
  0
SPLINE
  5
144
330
1F
100
AcDbEntity
  8
0
  6
K5LT32769
 62
    30
420
 16744448
100
AcDbSpline
210
0.0
220
0.0
230
1.0
 70
     8
 71
     3
 72
     8
 73
     4
 74
     0
 42
0.0
 43
0.0
 12
1.0
 22
0.0
 32
0.0
 13
1.0
 23
0.0
 33
0.0
 40
0.0
 40
0.0
 40
0.0
 40
0.0
 40
1.0
 40
1.0
 40
1.0
 40
1.0
 10
257.2056083450837
 20
74.61586029641938
 30
0.0
 10
256.8742869759193
 20
76.02833669923005
 30
0.0
 10
256.4661633180291
 20
77.4568355683814
 30
0.0
 10
255.9852688159895
 20
78.87255406344836
 30
0.0
  0
LINE
  5
145
330
1F
100
AcDbEntity
  8
0
  6
K5LT32769
 62
    30
420
 16744448
100
AcDbLine
 10
235.2798051652211
 20
77.90065855293334
 30
0.0
 11
230.9315021635749
 21
82.2489615545795
 31
0.0
  0
LINE
  5
146
330
1F
100
AcDbEntity
  8
0
  6
K5LT32769
 62
    30
420
 16744448
100
AcDbLine
 10
235.2798051652211
 20
77.90065855293334
 30
0.0
 11
239.965564799702
 21
82.86140408145658
 31
0.0
  0
LINE
  5
147
330
1F
100
AcDbEntity
  8
0
  6
K5LT32769
 62
    30
420
 16744448
100
AcDbLine
 10
233.493300856084
 20
76.00931244161684
 30
0.0
 11
229.1660541461166
 21
80.3600342693599
 31
0.0
  0
LINE
  5
148
330
1F
100
AcDbEntity
  8
0
  6
K5LT32769
 62
    30
420
 16744448
100
AcDbLine
 10
237.3944026067241
 20
75.78606111143031
 30
0.0
 11
242.1295634254085
 21
80.70672307558893
 31
0.0
  0
LINE
  5
149
330
1F
100
AcDbEntity
  8
0
  6
K5LT32769
 62
    30
420
 16744448
100
AcDbLine
 10
241.7965751894159
 20
71.38388852873847
 30
0.0
 11
246.6016476953211
 21
76.2538944468856
 31
0.0
  0
LINE
  5
14A
330
1F
100
AcDbEntity
  8
0
  6
K5LT32769
 62
    30
420
 16744448
100
AcDbLine
 10
241.7965751894159
 20
71.38388852873847
 30
0.0
 11
237.3944026067241
 21
75.78606111143031
 31
0.0
  0
LINE
  5
14B
330
1F
100
AcDbEntity
  8
0
  6
K5LT32769
 62
    30
420
 16744448
100
AcDbLine
 10
239.9525886753235
 20
69.51498327796915
 30
0.0
 11
235.5852402587834
 21
73.9060243622301
 31
0.0
  0
LINE
  5
14C
330
1F
100
AcDbEntity
  8
0
  6
K5LT32769
 62
    30
420
 16744448
100
AcDbLine
 10
243.8787783578135
 20
69.30168536034094
 30
0.0
 11
248.6599710018338
 21
74.2044337495482
 31
0.0
  0
LINE
  5
14D
330
1F
100
AcDbEntity
  8
0
  6
K5LT32769
 62
    30
420
 16744448
100
AcDbLine
 10
247.9151720203896
 20
65.26529169776481
 30
0.0
 11
252.7503008234918
 21
70.13171583292592
 31
0.0
  0
LINE
  5
14E
330
1F
100
AcDbEntity
  8
0
  6
K5LT32769
 62
    30
420
 16744448
100
AcDbLine
 10
247.9151720203896
 20
65.26529169776481
 30
0.0
 11
243.8787783578135
 21
69.30168536034094
 31
0.0
  0
LINE
  5
14F
330
1F
100
AcDbEntity
  8
0
  6
K5LT32769
 62
    30
420
 16744448
100
AcDbLine
 10
249.8346550212572
 20
63.34580869689722
 30
0.0
 11
254.7054035144122
 21
68.18503130983767
 31
0.0
  0
LINE
  5
150
330
1F
100
AcDbEntity
  8
0
  6
K5LT32769
 62
    30
420
 16744448
100
AcDbLine
 10
246.0482337101418
 20
63.38626964440863
 30
0.0
 11
242.0400440412003
 21
67.41620356110207
 31
0.0
  0
SPLINE
  5
151
330
1F
100
AcDbEntity
  8
0
  6
K5LT32769
 62
    30
420
 16744448
100
AcDbSpline
210
0.0
220
0.0
230
1.0
 70
     8
 71
     3
 72
    11
 73
     7
 74
     0
 42
0.0
 43
0.0
 12
1.0
 22
0.0
 32
0.0
 13
1.0
 23
0.0
 33
0.0
 40
0.0
 40
0.0
 40
0.0
 40
0.0
 40
1.0
 40
1.0
 40
1.0
 40
2.0
 40
2.0
 40
2.0
 40
2.0
 10
258.2237082442977
 20
68.02973275098705
 30
0.0
 10
258.1491218469567
 20
68.9194362541954
 30
0.0
 10
258.0545204472053
 20
69.78585758131136
 30
0.0
 10
257.9436910321768
 20
70.61931307193231
 30
0.0
 10
257.9134365442041
 20
70.84683181422895
 30
0.0
 10
257.8809083074906
 20
71.07558118694192
 30
0.0
 10
257.8461253985568
 20
71.30542489699754
 30
0.0
  0
SPLINE
  5
152
330
1F
100
AcDbEntity
  8
0
  6
K5LT32769
 62
    30
420
 16744448
100
AcDbSpline
210
0.0
220
0.0
230
1.0
 70
     8
 71
     3
 72
     8
 73
     4
 74
     0
 42
0.0
 43
0.0
 12
1.0
 22
0.0
 32
0.0
 13
1.0
 23
0.0
 33
0.0
 40
0.0
 40
0.0
 40
0.0
 40
0.0
 40
1.0
 40
1.0
 40
1.0
 40
1.0
 10
258.375478114333
 20
61.66035696820333
 30
0.0
 10
258.412804124012
 20
62.61204291308889
 30
0.0
 10
258.4210603433498
 20
63.56263250466217
 30
0.0
 10
258.4041078497671
 20
64.50225262711467
 30
0.0
  0
LINE
  5
153
330
1F
100
AcDbEntity
  8
0
  6
K5LT32769
 62
    30
420
 16744448
100
AcDbLine
 10
254.9370809143852
 20
58.2433828037692
 30
0.0
 11
249.8346550212572
 21
63.34580869689722
 31
0.0
  0
LINE
  5
154
330
1F
100
AcDbEntity
  8
0
  6
K5LT32769
 62
    30
420
 16744448
100
AcDbLine
 10
254.9370809143852
 20
58.24338280376921
 30
0.0
 11
258.375478114333
 21
61.66035696820327
 31
0.0
  0
LINE
  5
155
330
1F
100
AcDbEntity
  8
0
  6
K5LT32769
 62
    30
420
 16744448
100
AcDbLine
 10
256.6698901165771
 20
56.51057360157733
 30
0.0
 11
258.0699427616577
 21
57.93284930451637
 31
0.0
  0
LINE
  5
156
330
1F
100
AcDbEntity
  8
0
  6
K5LT32769
 62
    30
420
 16744448
100
AcDbLine
 10
253.0392255032156
 20
56.3573520369059
 30
0.0
 11
247.9504173527892
 21
61.47376674149373
 31
0.0
  0
SPLINE
  5
157
330
1F
100
AcDbEntity
  8
0
  6
K5LT32769
 62
    30
420
 16744448
100
AcDbSpline
210
0.0
220
0.0
230
1.0
 70
     8
 71
     3
 72
     8
 73
     4
 74
     0
 42
0.0
 43
0.0
 12
1.0
 22
0.0
 32
0.0
 13
1.0
 23
0.0
 33
0.0
 40
0.0
 40
0.0
 40
0.0
 40
0.0
 40
1.0
 40
1.0
 40
1.0
 40
1.0
 10
257.6736602149955
 20
55.50680350315712
 30
0.0
 10
257.8335814422086
 20
56.30201907176969
 30
0.0
 10
257.9648147953463
 20
57.11290222151205
 30
0.0
 10
258.0699427616572
 20
57.93284930451651
 30
0.0
  0
LINE
  5
158
330
1F
100
AcDbEntity
  8
0
  6
K5LT32769
 62
    30
420
 16744448
100
AcDbLine
 10
248.9439614586344
 20
52.28760365615386
 30
0.0
 11
253.0392255032156
 21
56.35735203690591
 31
0.0
  0
LINE
  5
159
330
1F
100
AcDbEntity
  8
0
  6
K5LT32769
 62
    30
420
 16744448
100
AcDbLine
 10
248.9439614586344
 20
52.28760365615386
 30
0.0
 11
243.8103330323439
 21
57.36047908331668
 31
0.0
  0
LINE
  5
15A
330
1F
100
AcDbEntity
  8
0
  6
K5LT32769
 62
    30
420
 16744448
100
AcDbLine
 10
246.5451037877502
 20
49.90369213898234
 30
0.0
 11
229.0961028618674
 21
67.1626733353318
 31
0.0
  0
LINE
  5
15B
330
1F
100
AcDbEntity
  8
0
  6
K5LT32769
 62
    30
420
 16744448
100
AcDbLine
 10
250.7531044194716
 20
50.4998706711845
 30
0.0
 11
254.7881376858981
 21
54.59895208469709
 31
0.0
  0
SPLINE
  5
15C
330
1F
100
AcDbEntity
  8
0
  6
K5LT32769
 62
    30
420
 16744448
100
AcDbSpline
210
0.0
220
0.0
230
1.0
 70
     8
 71
     3
 72
     8
 73
     4
 74
     0
 42
0.0
 43
0.0
 12
1.0
 22
0.0
 32
0.0
 13
1.0
 23
0.0
 33
0.0
 40
0.0
 40
0.0
 40
0.0
 40
0.0
 40
1.0
 40
1.0
 40
1.0
 40
1.0
 10
254.1873330042864
 20
47.10628384476993
 30
0.0
 10
255.3594365887535
 20
48.63182047704822
 30
0.0
 10
256.2442782093924
 20
50.46772150190557
 30
0.0
 10
256.8933486457749
 20
52.48232045053516
 30
0.0
  0
SPLINE
  5
15D
330
1F
100
AcDbEntity
  8
0
  6
K5LT32769
 62
    30
420
 16744448
100
AcDbSpline
210
0.0
220
0.0
230
1.0
 70
     8
 71
     3
 72
     8
 73
     4
 74
     0
 42
0.0
 43
0.0
 12
1.0
 22
0.0
 32
0.0
 13
1.0
 23
0.0
 33
0.0
 40
0.0
 40
0.0
 40
0.0
 40
0.0
 40
1.0
 40
1.0
 40
1.0
 40
1.0
 10
247.2241153210256
 20
40.47650836676532
 30
0.0
 10
248.9408536024698
 20
41.6281960600134
 30
0.0
 10
250.5743287560083
 20
43.08310831669387
 30
0.0
 10
251.9677403067576
 20
44.54010816566982
 30
0.0
  0
SPLINE
  5
15E
330
1F
100
AcDbEntity
  8
0
  6
K5LT32769
 62
    30
420
 16744448
100
AcDbSpline
210
0.0
220
0.0
230
1.0
 70
     8
 71
     3
 72
    14
 73
    10
 74
     0
 42
0.0
 43
0.0
 12
1.0
 22
0.0
 32
0.0
 13
1.0
 23
0.0
 33
0.0
 40
0.0
 40
0.0
 40
0.0
 40
0.0
 40
1.0
 40
1.0
 40
1.0
 40
2.0
 40
2.0
 40
2.0
 40
3.0
 40
3.0
 40
3.0
 40
3.0
 10
244.0814914587006
 20
47.45542941945962
 30
0.0
 10
244.1362466115978
 20
48.67319594490505
 30
0.0
 10
243.9747185486828
 20
49.9213009183712
 30
0.0
 10
243.6198273995948
 20
50.87444779462085
 30
0.0
 10
243.0398470946328
 20
52.43212658537569
 30
0.0
 10
241.6539317702602
 20
54.2653726301181
 30
0.0
 10
240.2012939201632
 20
55.01941963843174
 30
0.0
 10
238.6400619552781
 20
55.82983655846905
 30
0.0
 10
236.7171368730978
 20
55.91529989545484
 30
0.0
 10
234.4325186736223
 20
55.27580964938911
 30
0.0
  0
LINE
  5
15F
330
1F
100
AcDbEntity
  8
0
  6
K5LT32769
 62
    30
420
 16744448
100
AcDbLine
 10
241.918558804061
 20
59.22986545090981
 30
0.0
 11
237.914880483075
 21
63.18616296336343
 31
0.0
  0
LINE
  5
160
330
1F
100
AcDbEntity
  8
0
  6
K5LT32769
 62
    30
420
 16744448
100
AcDbLine
 10
235.784881061603
 20
65.29095529109023
 30
0.0
 11
231.4331064352425
 21
69.59122962601442
 31
0.0
  0
ARC
  5
161
330
1F
100
AcDbEntity
  8
0
  6
K5LT32769
 62
    30
420
 16744448
100
AcDbCircle
 10
216.5535177012296
 20
63.30882369517195
 30
0.0
 40
10.0
100
AcDbArc
 50
0.0
 51
6.566102576184635
  0
LINE
  5
162
330
1F
100
AcDbEntity
  8
0
  6
K5LT32769
 62
    30
420
 16744448
100
AcDbLine
 10
227.0493214767477
 20
69.1871652583289
 30
0.0
 11
223.7215777172661
 21
72.47866986739619
 31
0.0
  0
LINE
  5
163
330
1F
100
AcDbEntity
  8
0
  6
K5LT32769
 62
    30
420
 16744448
100
AcDbLine
 10
229.3631049038715
 20
71.6367340978426
 30
0.0
 11
233.493300856084
 21
76.00931244161684
 31
0.0
  0
LINE
  5
164
330
1F
100
AcDbEntity
  8
0
  6
K5LT32769
 62
    30
420
 16744448
100
AcDbLine
 10
229.3631049038715
 20
71.63673409784259
 30
0.0
 11
226.4255939891353
 21
74.5394815698009
 31
0.0
  0
LINE
  5
165
330
1F
100
AcDbEntity
  8
0
  6
K5LT32769
 62
    30
420
 16744448
100
AcDbLine
 10
231.4331064352425
 20
69.59122962601441
 30
0.0
 11
235.5852402587834
 21
73.90602436223008
 31
0.0
  0
SPLINE
  5
166
330
1F
100
AcDbEntity
  8
0
  6
K5LT32769
 62
    30
420
 16744448
100
AcDbSpline
210
0.0
220
0.0
230
1.0
 70
     8
 71
     3
 72
     8
 73
     4
 74
     0
 42
0.0
 43
0.0
 12
1.0
 22
0.0
 32
0.0
 13
1.0
 23
0.0
 33
0.0
 40
0.0
 40
0.0
 40
0.0
 40
0.0
 40
1.0
 40
1.0
 40
1.0
 40
1.0
 10
223.7215777172661
 20
72.47866986739619
 30
0.0
 10
223.1197609624368
 20
72.20024955538568
 30
0.0
 10
222.4701324594479
 20
71.98695416197043
 30
0.0
 10
221.7726922082992
 20
71.83878368715052
 30
0.0
  0
LINE
  5
167
330
1F
100
AcDbEntity
  8
0
  6
K5LT32769
 62
    30
420
 16744448
100
AcDbLine
 10
220.4348504771496
 20
89.13860432351109
 30
0.0
 11
217.3148480273488
 21
92.27553264555314
 31
0.0
  0
SPLINE
  5
168
330
1F
100
AcDbEntity
  8
0
  6
K5LT32769
 62
    30
420
 16744448
100
AcDbSpline
210
0.0
220
0.0
230
1.0
 70
     8
 71
     3
 72
    14
 73
    10
 74
     0
 42
0.0
 43
0.0
 12
1.0
 22
0.0
 32
0.0
 13
1.0
 23
0.0
 33
0.0
 40
0.0
 40
0.0
 40
0.0
 40
0.0
 40
1.0
 40
1.0
 40
1.0
 40
2.0
 40
2.0
 40
2.0
 40
3.0
 40
3.0
 40
3.0
 40
3.0
 10
228.7797700062193
 20
79.94673257797787
 30
0.0
 10
228.7466493387941
 20
79.78463808810429
 30
0.0
 10
228.712836991119
 20
79.62493021026552
 30
0.0
 10
228.6791768424243
 20
79.46842064690945
 30
0.0
 10
228.4215410542349
 20
78.27049175241278
 30
0.0
 10
228.061200303327
 20
77.01245457979937
 30
0.0
 10
227.4427283469707
 20
75.96514990979085
 30
0.0
 10
227.1533886839555
 20
75.4751894884973
 30
0.0
 10
226.8099219303272
 20
74.9886647372712
 30
0.0
 10
226.4255939891353
 20
74.53948156980087
 30
0.0
  0
LINE
  5
169
330
1F
100
AcDbEntity
  8
0
  6
K5LT32769
 62
    30
420
 16744448
100
AcDbLine
 10
230.9315021635749
 20
82.2489615545795
 30
0.0
 11
235.5826627857411
 21
87.22543444999611
 31
0.0
  0
SPLINE
  5
16A
330
1F
100
AcDbEntity
  8
0
  6
K5LT32769
 62
    30
420
 16744448
100
AcDbSpline
210
0.0
220
0.0
230
1.0
 70
     8
 71
     3
 72
     8
 73
     4
 74
     0
 42
0.0
 43
0.0
 12
1.0
 22
0.0
 32
0.0
 13
1.0
 23
0.0
 33
0.0
 40
0.0
 40
0.0
 40
0.0
 40
0.0
 40
1.0
 40
1.0
 40
1.0
 40
1.0
 10
224.664984235342
 20
88.51440200534068
 30
0.0
 10
226.312675687958
 20
87.80557080123715
 30
0.0
 10
228.1343690181364
 20
86.17473231610397
 30
0.0
 10
228.8028380401548
 20
84.54542513838365
 30
0.0
  0
LINE
  5
16B
330
1F
100
AcDbEntity
  8
0
  6
K5LT32769
 62
    30
420
 16744448
100
AcDbLine
 10
222.2463350441211
 20
90.9341286740334
 30
0.0
 11
219.0788334682687
 21
94.10163024988572
 31
0.0
  0
LINE
  5
16C
330
1F
100
AcDbEntity
  8
0
  6
K5LT32769
 62
    30
420
 16744448
100
AcDbLine
 10
222.2463350441211
 20
90.93412867403342
 30
0.0
 11
227.0630290466817
 21
95.70838484397237
 31
0.0
  0
LINE
  5
16D
330
1F
100
AcDbEntity
  8
0
  6
K5LT32769
 62
    30
420
 16744448
100
AcDbLine
 10
186.8753590439869
 20
-85.29868440687451
 30
0.0
 11
188.8077625414781
 21
-83.333398524702
 31
0.0
  0
LINE
  5
16E
330
1F
100
AcDbEntity
  8
0
  6
K5LT32769
 62
    30
420
 16744448
100
AcDbLine
 10
185.5535177012296
 20
-84.13039640974885
 30
0.0
 11
187.5185483551593
 21
-82.16618229808424
 31
0.0
  0
LINE
  5
16F
330
1F
100
AcDbEntity
  8
0
  6
K5LT32769
 62
    30
420
 16744448
100
AcDbLine
 10
185.7199433486255
 20
-78.01581466813985
 30
0.0
 11
188.1254116577846
 21
-75.61168182932094
 31
0.0
  0
LINE
  5
170
330
1F
100
AcDbEntity
  8
0
  6
K5LT32769
 62
    30
420
 16744448
100
AcDbLine
 10
185.5535177012296
 20
-75.72080371617987
 30
0.0
 11
186.7980686584085
 21
-74.47710333689474
 31
0.0
  0
LINE
  5
171
330
1F
100
AcDbEntity
  8
0
  6
K5LT32769
 62
    30
420
 16744448
100
AcDbLine
 10
202.7705800777888
 20
-79.31684222700349
 30
0.0
 11
197.3568387666858
 21
-74.63884853406589
 31
0.0
  0
LINE
  5
172
330
1F
100
AcDbEntity
  8
0
  6
K5LT32769
 62
    30
420
 16744448
100
AcDbLine
 10
200.632535551691
 20
-79.82754463182017
 30
0.0
 11
196.0618180261249
 21
-75.95590575418015
 31
0.0
  0
LINE
  5
173
330
1F
100
AcDbEntity
  8
0
  6
K5LT32769
 62
    30
420
 16744448
100
AcDbLine
 10
185.5535177012296
 20
-71.20833916063644
 30
0.0
 11
187.9954223159301
 21
-73.28056800066909
 31
0.0
  0
LINE
  5
174
330
1F
100
AcDbEntity
  8
0
  6
K5LT32769
 62
    30
420
 16744448
100
AcDbLine
 10
185.5535177012296
 20
-73.41329334248688
 30
0.0
 11
186.7980686584085
 21
-74.47710333689474
 31
0.0
  0
LINE
  5
175
330
1F
100
AcDbEntity
  8
0
  6
K5LT32769
 62
    30
420
 16744448
100
AcDbLine
 10
185.7199433486255
 20
-78.01581466813987
 30
0.0
 11
188.753757877942
 21
-80.93148605013498
 31
0.0
  0
LINE
  5
176
330
1F
100
AcDbEntity
  8
0
  6
K5LT32769
 62
    30
420
 16744448
100
AcDbLine
 10
185.5535177012296
 20
-80.38710191764163
 30
0.0
 11
187.5185483551593
 21
-82.16618229808424
 31
0.0
  0
LINE
  5
177
330
1F
100
AcDbEntity
  8
0
  6
K5LT32769
 62
    30
420
 16744448
100
AcDbLine
 10
186.8753590439869
 20
-85.2986844068745
 30
0.0
 11
189.4997595313706
 21
-87.61821814355243
 31
0.0
  0
LINE
  5
178
330
1F
100
AcDbEntity
  8
0
  6
K5LT32769
 62
    30
420
 16744448
100
AcDbLine
 10
185.5535177012296
 20
-86.64301861697372
 30
0.0
 11
188.1774536194493
 21
-89.02963799780223
 31
0.0
  0
LINE
  5
179
330
1F
100
AcDbEntity
  8
0
  6
K5LT32769
 62
    30
420
 16744448
100
AcDbLine
 10
191.6075497100778
 20
-69.67090928463627
 30
0.0
 11
193.4655852036138
 21
-67.81414364984528
 31
0.0
  0
LINE
  5
17A
330
1F
100
AcDbEntity
  8
0
  6
K5LT32769
 62
    30
420
 16744448
100
AcDbLine
 10
191.6075497100778
 20
-69.67090928463627
 30
0.0
 11
185.5535177012296
 21
-64.43964278578242
 31
0.0
  0
LINE
  5
17B
330
1F
100
AcDbEntity
  8
0
  6
K5LT32769
 62
    30
420
 16744448
100
AcDbLine
 10
192.92792183344
 20
-70.81183791614498
 30
0.0
 11
195.6239599189039
 21
-68.11729661984498
 31
0.0
  0
LINE
  5
17C
330
1F
100
AcDbEntity
  8
0
  6
K5LT32769
 62
    30
420
 16744448
100
AcDbLine
 10
190.2470438806255
 20
-71.03048528781179
 30
0.0
 11
185.5535177012296
 21
-67.05482100146547
 31
0.0
  0
LINE
  5
17D
330
1F
100
AcDbEntity
  8
0
  6
K5LT32769
 62
    30
420
 16744448
100
AcDbLine
 10
189.3271083169436
 20
-74.41065232933423
 30
0.0
 11
192.5452307380427
 21
-77.14158868598433
 31
0.0
  0
LINE
  5
17E
330
1F
100
AcDbEntity
  8
0
  6
K5LT32769
 62
    30
420
 16744448
100
AcDbLine
 10
188.1254116577846
 20
-75.61168182932093
 30
0.0
 11
191.3329300293876
 21
-78.35338563925797
 31
0.0
  0
LINE
  5
17F
330
1F
100
AcDbEntity
  8
0
  6
K5LT32769
 62
    30
420
 16744448
100
AcDbLine
 10
187.9954223159301
 20
-73.28056800066909
 30
0.0
 11
190.2470438806255
 21
-71.03048528781177
 31
0.0
  0
LINE
  5
180
330
1F
100
AcDbEntity
  8
0
  6
K5LT32769
 62
    30
420
 16744448
100
AcDbLine
 10
189.3271083169437
 20
-74.41065232933424
 30
0.0
 11
191.5796977880728
 21
-72.15931345311671
 31
0.0
  0
SPLINE
  5
181
330
1F
100
AcDbEntity
  8
0
  6
K5LT32769
 62
    30
420
 16744448
100
AcDbSpline
210
0.0
220
0.0
230
1.0
 70
     8
 71
     3
 72
    14
 73
    10
 74
     0
 42
0.0
 43
0.0
 12
1.0
 22
0.0
 32
0.0
 13
1.0
 23
0.0
 33
0.0
 40
0.0
 40
0.0
 40
0.0
 40
0.0
 40
1.0
 40
1.0
 40
1.0
 40
2.0
 40
2.0
 40
2.0
 40
3.0
 40
3.0
 40
3.0
 40
3.0
 10
193.4655851839822
 20
-67.81414364364244
 30
0.0
 10
192.429104461765
 20
-67.48665567965676
 30
0.0
 10
191.4031511296787
 20
-66.95018206546939
 30
0.0
 10
190.5101035885509
 20
-66.42863021442332
 30
0.0
 10
189.0926845202052
 20
-65.60083829433124
 30
0.0
 10
187.6698978216178
 20
-64.46651091330543
 30
0.0
 10
186.7414081251448
 20
-63.10505626244314
 30
0.0
 10
186.2557916228738
 20
-62.39299144571576
 30
0.0
 10
185.8598281482354
 20
-61.61155590343471
 30
0.0
 10
185.5535177012296
 20
-60.76074963559999
 30
0.0
  0
SPLINE
  5
182
330
1F
100
AcDbEntity
  8
0
  6
K5LT32769
 62
    30
420
 16744448
100
AcDbSpline
210
0.0
220
0.0
230
1.0
 70
     8
 71
     3
 72
    11
 73
     7
 74
     0
 42
0.0
 43
0.0
 12
1.0
 22
0.0
 32
0.0
 13
1.0
 23
0.0
 33
0.0
 40
0.0
 40
0.0
 40
0.0
 40
0.0
 40
1.0
 40
1.0
 40
1.0
 40
2.0
 40
2.0
 40
2.0
 40
2.0
 10
200.0208389359051
 20
-69.66908687734792
 30
0.0
 10
199.72348440064
 20
-69.43767481067728
 30
0.0
 10
199.4777241007722
 20
-69.16899073697267
 30
0.0
 10
199.3531852302645
 20
-68.90350656365808
 30
0.0
 10
199.076344192529
 20
-68.31335415788189
 30
0.0
 10
199.1000840074151
 20
-67.56554998897128
 30
0.0
 10
199.4244046749227
 20
-66.66009405692627
 30
0.0
  0
LINE
  5
183
330
1F
100
AcDbEntity
  8
0
  6
K5LT32769
 62
    30
420
 16744448
100
AcDbLine
 10
196.1190363729931
 20
-73.56926809827337
 30
0.0
 11
200.0208389359046
 21
-69.66908687734755
 31
0.0
  0
LINE
  5
184
330
1F
100
AcDbEntity
  8
0
  6
K5LT32769
 62
    30
420
 16744448
100
AcDbLine
 10
196.1190363729931
 20
-73.56926809827337
 30
0.0
 11
192.92792183344
 21
-70.81183791614498
 31
0.0
  0
LINE
  5
185
330
1F
100
AcDbEntity
  8
0
  6
K5LT32769
 62
    30
420
 16744448
100
AcDbLine
 10
197.3568387666858
 20
-74.63884853406589
 30
0.0
 11
201.5952013292938
 21
-70.32836466326134
 31
0.0
  0
LINE
  5
186
330
1F
100
AcDbEntity
  8
0
  6
K5LT32769
 62
    30
420
 16744448
100
AcDbLine
 10
194.8003666372111
 20
-74.88738987844421
 30
0.0
 11
191.5796977880728
 21
-72.15931345311671
 31
0.0
  0
SPLINE
  5
187
330
1F
100
AcDbEntity
  8
0
  6
K5LT32769
 62
    30
420
 16744448
100
AcDbSpline
210
0.0
220
0.0
230
1.0
 70
     8
 71
     3
 72
     8
 73
     4
 74
     0
 42
0.0
 43
0.0
 12
1.0
 22
0.0
 32
0.0
 13
1.0
 23
0.0
 33
0.0
 40
0.0
 40
0.0
 40
0.0
 40
0.0
 40
1.0
 40
1.0
 40
1.0
 40
1.0
 10
200.632535551743
 20
-79.82754463191073
 30
0.0
 10
199.4557143340104
 20
-80.17242981218848
 30
0.0
 10
198.3335287515985
 20
-80.61247185313196
 30
0.0
 10
197.2659788045076
 20
-81.14767075474114
 30
0.0
  0
LINE
  5
188
330
1F
100
AcDbEntity
  8
0
  6
K5LT32769
 62
    30
420
 16744448
100
AcDbLine
 10
192.5452307380427
 20
-77.14158868598433
 30
0.0
 11
194.8003666372111
 21
-74.8873898784442
 31
0.0
  0
LINE
  5
189
330
1F
100
AcDbEntity
  8
0
  6
K5LT32769
 62
    30
420
 16744448
100
AcDbLine
 10
193.8266993291205
 20
-78.22905793275228
 30
0.0
 11
197.2659788041824
 21
-81.14767075417475
 31
0.0
  0
LINE
  5
18A
330
1F
100
AcDbEntity
  8
0
  6
K5LT32769
 62
    30
420
 16744448
100
AcDbLine
 10
192.6214697419928
 20
-79.45479608497249
 30
0.0
 11
195.6634786699315
 21
-82.05502669983996
 31
0.0
  0
LINE
  5
18B
330
1F
100
AcDbEntity
  8
0
  6
K5LT32769
 62
    30
420
 16744448
100
AcDbLine
 10
193.8266993291205
 20
-78.22905793275227
 30
0.0
 11
196.0618180261249
 21
-75.95590575418015
 31
0.0
  0
SPLINE
  5
18C
330
1F
100
AcDbEntity
  8
0
  6
K5LT32769
 62
    30
420
 16744448
100
AcDbSpline
210
0.0
220
0.0
230
1.0
 70
     8
 71
     3
 72
     8
 73
     4
 74
     0
 42
0.0
 43
0.0
 12
1.0
 22
0.0
 32
0.0
 13
1.0
 23
0.0
 33
0.0
 40
0.0
 40
0.0
 40
0.0
 40
0.0
 40
1.0
 40
1.0
 40
1.0
 40
1.0
 10
195.6634786699315
 20
-82.05502669983997
 30
0.0
 10
194.6409918910005
 20
-82.72092334370156
 30
0.0
 10
193.6961949965567
 20
-83.5370208997596
 30
0.0
 10
192.7847406228799
 20
-84.39451818333019
 30
0.0
  0
LINE
  5
18D
330
1F
100
AcDbEntity
  8
0
  6
K5LT32769
 62
    30
420
 16744448
100
AcDbLine
 10
188.753757877942
 20
-80.93148605013496
 30
0.0
 11
191.3329300293876
 21
-78.35338563925797
 31
0.0
  0
LINE
  5
18E
330
1F
100
AcDbEntity
  8
0
  6
K5LT32769
 62
    30
420
 16744448
100
AcDbLine
 10
188.8077625414781
 20
-83.33339852470202
 30
0.0
 11
191.4287291521412
 21
-85.70634383499575
 31
0.0
  0
LINE
  5
18F
330
1F
100
AcDbEntity
  8
0
  6
K5LT32769
 62
    30
420
 16744448
100
AcDbLine
 10
190.0632882378359
 20
-82.05650840886429
 30
0.0
 11
192.6214697419928
 21
-79.45479608497249
 31
0.0
  0
LINE
  5
190
330
1F
100
AcDbEntity
  8
0
  6
K5LT32769
 62
    30
420
 16744448
100
AcDbLine
 10
190.0632882378359
 20
-82.05650840886429
 30
0.0
 11
192.7847406228799
 21
-84.39451818333018
 31
0.0
  0
SPLINE
  5
191
330
1F
100
AcDbEntity
  8
0
  6
K5LT32769
 62
    30
420
 16744448
100
AcDbSpline
210
0.0
220
0.0
230
1.0
 70
     8
 71
     3
 72
    11
 73
     7
 74
     0
 42
0.0
 43
0.0
 12
1.0
 22
0.0
 32
0.0
 13
1.0
 23
0.0
 33
0.0
 40
0.0
 40
0.0
 40
0.0
 40
0.0
 40
1.0
 40
1.0
 40
1.0
 40
2.0
 40
2.0
 40
2.0
 40
2.0
 10
191.4287291521413
 20
-85.70634383499561
 30
0.0
 10
191.2053063975321
 20
-85.92536541350928
 30
0.0
 10
190.9825801698732
 20
-86.1435447203004
 30
0.0
 10
190.7598468223917
 20
-86.35915543849006
 30
0.0
 10
190.3332566058289
 20
-86.77210403377595
 30
0.0
 10
189.9132275099132
 20
-87.19179160325103
 30
0.0
 10
189.4997595346449
 20
-87.61821814691542
 30
0.0
  0
SPLINE
  5
192
330
1F
100
AcDbEntity
  8
0
  6
K5LT32769
 62
    30
420
 16744448
100
AcDbSpline
210
0.0
220
0.0
230
1.0
 70
     8
 71
     3
 72
     8
 73
     4
 74
     0
 42
0.0
 43
0.0
 12
1.0
 22
0.0
 32
0.0
 13
1.0
 23
0.0
 33
0.0
 40
0.0
 40
0.0
 40
0.0
 40
0.0
 40
1.0
 40
1.0
 40
1.0
 40
1.0
 10
188.1774536430898
 20
-89.02963801930466
 30
0.0
 10
187.2688225245874
 20
-90.03342997767882
 30
0.0
 10
186.394177210634
 20
-91.07212900025291
 30
0.0
 10
185.5535177012296
 20
-92.14573508702698
 30
0.0
  0
LINE
  5
193
330
1F
100
AcDbEntity
  8
0
  6
K5LT32769
 62
    30
420
 16744448
100
AcDbLine
 10
185.5535177012296
 20
69.30882369517195
 30
0.0
 11
156.5535177012296
 21
69.30882369517195
 31
0.0
  0
LINE
  5
194
330
1F
100
AcDbEntity
  8
0
  6
K5LT32769
 62
    30
420
 16744448
100
AcDbLine
 10
148.5535177012296
 20
61.30882369517195
 30
0.0
 11
148.5535177012296
 21
-34.69117630482804
 31
0.0
  0
LINE
  5
195
330
1F
100
AcDbEntity
  8
0
  6
K5LT32769
 62
    30
420
 16744448
100
AcDbLine
 10
156.5535177012296
 20
-42.69117630482805
 30
0.0
 11
185.5535177012296
 21
-42.69117630482805
 31
0.0
  0
LINE
  5
196
330
1F
100
AcDbEntity
  8
0
  6
K5LT32769
 62
    30
420
 16744448
100
AcDbLine
 10
185.5535177012296
 20
-46.69117630482804
 30
0.0
 11
175.9129266434082
 21
-46.69117630482803
 31
0.0
  0
LINE
  5
197
330
1F
100
AcDbEntity
  8
0
  6
K5LT32769
 62
    30
420
 16744448
100
AcDbLine
 10
144.5535177012296
 20
-36.69117630482805
 30
0.0
 11
144.5535177012296
 21
-24.29187455638386
 31
0.0
  0
LINE
  5
198
330
1F
100
AcDbEntity
  8
0
  6
K5LT32769
 62
    30
420
 16744448
100
AcDbLine
 10
160.337389937336
 20
73.30882369517195
 30
0.0
 11
176.8603010980275
 21
73.30882369517195
 31
0.0
  0
ARC
  5
199
330
1F
100
AcDbEntity
  8
0
  6
K5LT32769
 62
    30
420
 16744448
100
AcDbCircle
 10
156.5535177012296
 20
-34.69117630482805
 30
0.0
 40
8.0
100
AcDbArc
 50
180.0
 51
270.0
  0
ARC
  5
19A
330
1F
100
AcDbEntity
  8
0
  6
K5LT32769
 62
    30
420
 16744448
100
AcDbCircle
 10
156.5535177012296
 20
61.30882369517195
 30
0.0
 40
8.0
100
AcDbArc
 50
90.0
 51
180.0
  0
ARC
  5
19B
330
1F
100
AcDbEntity
  8
0
  6
K5LT32769
 62
    30
420
 16744448
100
AcDbCircle
 10
154.5535177012296
 20
63.30882369517195
 30
0.0
 40
10.0
100
AcDbArc
 50
121.4609584049436
 51
154.428248207908
  0
ARC
  5
19C
330
1F
100
AcDbEntity
  8
0
  6
K5LT32769
 62
    30
420
 16744448
100
AcDbCircle
 10
154.5535177012296
 20
-36.69117630482805
 30
0.0
 40
10.0
100
AcDbArc
 50
180.0
 51
270.0
  0
SPLINE
  5
19D
330
1F
100
AcDbEntity
  8
0
  6
K5LT32769
 62
    30
420
 16744448
100
AcDbSpline
210
0.0
220
0.0
230
1.0
 70
     8
 71
     3
 72
    11
 73
     7
 74
     0
 42
0.0
 43
0.0
 12
1.0
 22
0.0
 32
0.0
 13
1.0
 23
0.0
 33
0.0
 40
0.0
 40
0.0
 40
0.0
 40
0.0
 40
1.0
 40
1.0
 40
1.0
 40
2.0
 40
2.0
 40
2.0
 40
2.0
 10
185.5535177012296
 20
126.4575745621997
 30
0.0
 10
183.8444573961453
 20
124.1289056091516
 30
0.0
 10
182.5953426809706
 20
121.6675612105457
 30
0.0
 10
181.8061735557055
 20
119.073541366382
 30
0.0
 10
180.8874319382512
 20
116.0536133040231
 30
0.0
 10
180.5920706104185
 20
112.8538655858355
 30
0.0
 10
180.9200895722074
 20
109.4742982118191
 30
0.0
  0
SPLINE
  5
19E
330
1F
100
AcDbEntity
  8
0
  6
K5LT32769
 62
    30
420
 16744448
100
AcDbSpline
210
0.0
220
0.0
230
1.0
 70
     8
 71
     3
 72
    11
 73
     7
 74
     0
 42
0.0
 43
0.0
 12
1.0
 22
0.0
 32
0.0
 13
1.0
 23
0.0
 33
0.0
 40
0.0
 40
0.0
 40
0.0
 40
0.0
 40
1.0
 40
1.0
 40
1.0
 40
2.0
 40
2.0
 40
2.0
 40
2.0
 10
180.9200895722074
 20
109.4742982118191
 30
0.0
 10
179.6511920258123
 20
111.1901369117651
 30
0.0
 10
178.1743853866488
 20
112.4700359990402
 30
0.0
 10
176.4896696547167
 20
113.3139954736443
 30
0.0
 10
174.5500447815003
 20
114.2856518533538
 30
0.0
 10
172.334834822755
 20
114.6794669571307
 30
0.0
 10
169.8440397784809
 20
114.4954407849751
 30
0.0
  0
SPLINE
  5
19F
330
1F
100
AcDbEntity
  8
0
  6
K5LT32769
 62
    30
420
 16744448
100
AcDbSpline
210
0.0
220
0.0
230
1.0
 70
     8
 71
     3
 72
    14
 73
    10
 74
     0
 42
0.0
 43
0.0
 12
1.0
 22
0.0
 32
0.0
 13
1.0
 23
0.0
 33
0.0
 40
0.0
 40
0.0
 40
0.0
 40
0.0
 40
1.0
 40
1.0
 40
1.0
 40
2.0
 40
2.0
 40
2.0
 40
3.0
 40
3.0
 40
3.0
 40
3.0
 10
169.8440397784809
 20
114.4954407849751
 30
0.0
 10
172.4233621513983
 20
113.2578941077602
 30
0.0
 10
174.6385721101436
 20
111.6826336926525
 30
0.0
 10
176.4896696547167
 20
109.7696595396518
 30
0.0
 10
178.7606303692397
 20
107.4227874571412
 30
0.0
 10
180.5713335899415
 20
104.3068539816182
 30
0.0
 10
181.6584928917891
 20
101.2041810325033
 30
0.0
 10
182.3871102132843
 20
99.12476061102724
 30
0.0
 10
182.8301522050334
 20
96.934164096268
 30
0.0
 10
182.9876188670363
 20
94.63239148822557
 30
0.0
  0
SPLINE
  5
1A0
330
1F
100
AcDbEntity
  8
0
  6
K5LT32769
 62
    30
420
 16744448
100
AcDbSpline
210
0.0
220
0.0
230
1.0
 70
     8
 71
     3
 72
    11
 73
     7
 74
     0
 42
0.0
 43
0.0
 12
1.0
 22
0.0
 32
0.0
 13
1.0
 23
0.0
 33
0.0
 40
0.0
 40
0.0
 40
0.0
 40
0.0
 40
1.0
 40
1.0
 40
1.0
 40
2.0
 40
2.0
 40
2.0
 40
2.0
 10
182.9876188670363
 20
94.63239148822557
 30
0.0
 10
181.8207224729125
 20
95.82356097046625
 30
0.0
 10
180.5141598246359
 20
96.589996727333
 30
0.0
 10
179.0679309222063
 20
96.93169875882582
 30
0.0
 10
178.4443734618407
 20
97.07902733910899
 30
0.0
 10
177.794852074939
 20
97.14739801141441
 30
0.0
 10
177.1193667615013
 20
97.13681077574213
 30
0.0
  0
SPLINE
  5
1A1
330
1F
100
AcDbEntity
  8
0
  6
K5LT32769
 62
    30
420
 16744448
100
AcDbSpline
210
0.0
220
0.0
230
1.0
 70
     8
 71
     3
 72
    11
 73
     7
 74
     0
 42
0.0
 43
0.0
 12
1.0
 22
0.0
 32
0.0
 13
1.0
 23
0.0
 33
0.0
 40
0.0
 40
0.0
 40
0.0
 40
0.0
 40
1.0
 40
1.0
 40
1.0
 40
2.0
 40
2.0
 40
2.0
 40
2.0
 10
177.1193667615013
 20
97.13681077574213
 30
0.0
 10
178.7028060347793
 20
96.01077021289458
 30
0.0
 10
179.8651074639718
 20
94.67754210293853
 30
0.0
 10
180.6062710490787
 20
93.13712644587392
 30
0.0
 10
181.3001762890917
 20
91.69493133845917
 30
0.0
 10
181.6249369825425
 20
90.07112787120498
 30
0.0
 10
181.5805531294312
 20
88.26571604411136
 30
0.0
  0
SPLINE
  5
1A2
330
1F
100
AcDbEntity
  8
0
  6
K5LT32769
 62
    30
420
 16744448
100
AcDbSpline
210
0.0
220
0.0
230
1.0
 70
     8
 71
     3
 72
    20
 73
    16
 74
     0
 42
0.0
 43
0.0
 12
1.0
 22
0.0
 32
0.0
 13
1.0
 23
0.0
 33
0.0
 40
0.0
 40
0.0
 40
0.0
 40
0.0
 40
1.0
 40
1.0
 40
1.0
 40
2.0
 40
2.0
 40
2.0
 40
3.0
 40
3.0
 40
3.0
 40
4.0
 40
4.0
 40
4.0
 40
5.0
 40
5.0
 40
5.0
 40
5.0
 10
181.5805531294312
 20
88.26571604411136
 30
0.0
 10
180.7519402637347
 20
89.89530677710987
 30
0.0
 10
179.8631215848921
 20
90.74994022983037
 30
0.0
 10
178.9140970929035
 20
90.82961640227289
 30
0.0
 10
177.9505938851554
 20
90.91050814782584
 30
0.0
 10
176.1968454837917
 20
89.58879846625456
 30
0.0
 10
175.8374168391587
 20
88.67594022465154
 30
0.0
 10
175.3862920884298
 20
87.53019696561161
 30
0.0
 10
176.4453507697046
 20
84.87530759387926
 30
0.0
 10
177.6321469871766
 20
84.31730986517978
 30
0.0
 10
178.4068930175436
 20
83.95304638093593
 30
0.0
 10
179.8795646014509
 20
83.95164194839228
 30
0.0
 10
180.7088272409213
 20
84.36858786940886
 30
0.0
 10
181.5051973975337
 20
84.76899574094989
 30
0.0
 10
182.1205334482827
 20
85.53816580438608
 30
0.0
 10
182.5548353931682
 20
86.67609805971743
 30
0.0
  0
SPLINE
  5
1A3
330
1F
100
AcDbEntity
  8
0
  6
K5LT32769
 62
    30
420
 16744448
100
AcDbSpline
210
0.0
220
0.0
230
1.0
 70
     8
 71
     3
 72
    23
 73
    19
 74
     0
 42
0.0
 43
0.0
 12
1.0
 22
0.0
 32
0.0
 13
1.0
 23
0.0
 33
0.0
 40
0.0
 40
0.0
 40
0.0
 40
0.0
 40
1.0
 40
1.0
 40
1.0
 40
2.0
 40
2.0
 40
2.0
 40
3.0
 40
3.0
 40
3.0
 40
4.0
 40
4.0
 40
4.0
 40
5.0
 40
5.0
 40
5.0
 40
6.0
 40
6.0
 40
6.0
 40
6.0
 10
182.5548353931682
 20
86.67609805971743
 30
0.0
 10
182.9153807621179
 20
84.12631517000517
 30
0.0
 10
182.4709713921325
 20
82.2803070177583
 30
0.0
 10
181.2216072832121
 20
81.13807360297685
 30
0.0
 10
180.4133183945919
 20
80.39909401265042
 30
0.0
 10
178.8982310419148
 20
79.72564151370301
 30
0.0
 10
177.7859809998638
 20
79.80484549302076
 30
0.0
 10
176.7126348418422
 20
79.8812791038876
 30
0.0
 10
175.4754507501238
 20
80.75709567480892
 30
0.0
 10
174.6580227418899
 20
81.49701963258039
 30
0.0
 10
172.7598817212507
 20
83.21518930899538
 30
0.0
 10
173.428427560951
 20
86.87364271354075
 30
0.0
 10
172.6069025727267
 20
89.49638829231682
 30
0.0
 10
171.6737101958115
 20
92.47563568683903
 30
0.0
 10
170.953248146313
 20
95.74245769929728
 30
0.0
 10
169.2738322978365
 20
98.26492701548946
 30
0.0
 10
167.2096550269442
 20
101.3653049437618
 30
0.0
 10
164.2868087858867
 20
103.8608344829104
 30
0.0
 10
160.5052935746639
 20
105.7515156329351
 30
0.0
  0
SPLINE
  5
1A4
330
1F
100
AcDbEntity
  8
0
  6
K5LT32769
 62
    30
420
 16744448
100
AcDbSpline
210
0.0
220
0.0
230
1.0
 70
     8
 71
     3
 72
    11
 73
     7
 74
     0
 42
0.0
 43
0.0
 12
1.0
 22
0.0
 32
0.0
 13
1.0
 23
0.0
 33
0.0
 40
0.0
 40
0.0
 40
0.0
 40
0.0
 40
1.0
 40
1.0
 40
1.0
 40
2.0
 40
2.0
 40
2.0
 40
2.0
 10
176.8603010980275
 20
73.30882369517195
 30
0.0
 10
174.9188921236592
 20
73.74582306668454
 30
0.0
 10
173.2452351741925
 20
74.50253801486954
 30
0.0
 10
171.8393302496277
 20
75.57896853972699
 30
0.0
 10
169.9114768208536
 20
77.05502872126867
 30
0.0
 10
168.4870879276905
 20
79.13226252379813
 30
0.0
 10
167.5661635701385
 20
81.81066994731538
 30
0.0
  0
SPLINE
  5
1A5
330
1F
100
AcDbEntity
  8
0
  6
K5LT32769
 62
    30
420
 16744448
100
AcDbSpline
210
0.0
220
0.0
230
1.0
 70
     8
 71
     3
 72
    11
 73
     7
 74
     0
 42
0.0
 43
0.0
 12
1.0
 22
0.0
 32
0.0
 13
1.0
 23
0.0
 33
0.0
 40
0.0
 40
0.0
 40
0.0
 40
0.0
 40
1.0
 40
1.0
 40
1.0
 40
2.0
 40
2.0
 40
2.0
 40
2.0
 10
167.5661635701385
 20
81.81066994731538
 30
0.0
 10
166.8742032619176
 20
80.21874050107965
 30
0.0
 10
166.0077000185767
 20
78.77061179303054
 30
0.0
 10
164.9666538401159
 20
77.46628382316804
 30
0.0
 10
163.6872042564957
 20
75.86325994922981
 30
0.0
 10
162.1441162889024
 20
74.47743990656446
 30
0.0
 10
160.337389937336
 20
73.30882369517195
 30
0.0
  0
SPLINE
  5
1A6
330
1F
100
AcDbEntity
  8
0
  6
K5LT32769
 62
    30
420
 16744448
100
AcDbSpline
210
0.0
220
0.0
230
1.0
 70
     8
 71
     3
 72
    11
 73
     7
 74
     0
 42
0.0
 43
0.0
 12
1.0
 22
0.0
 32
0.0
 13
1.0
 23
0.0
 33
0.0
 40
0.0
 40
0.0
 40
0.0
 40
0.0
 40
1.0
 40
1.0
 40
1.0
 40
2.0
 40
2.0
 40
2.0
 40
2.0
 10
160.5052935746639
 20
105.7515156329351
 30
0.0
 10
162.3811961867491
 20
106.1090176518251
 30
0.0
 10
164.1804472030104
 20
106.097812870863
 30
0.0
 10
165.9030466234478
 20
105.7179012900487
 30
0.0
 10
167.4304299579184
 20
105.3810437419596
 30
0.0
 10
168.8975505761745
 20
104.7543126040637
 30
0.0
 10
170.304408478216
 20
103.8377078763613
 30
0.0
  0
SPLINE
  5
1A7
330
1F
100
AcDbEntity
  8
0
  6
K5LT32769
 62
    30
420
 16744448
100
AcDbSpline
210
0.0
220
0.0
230
1.0
 70
     8
 71
     3
 72
    11
 73
     7
 74
     0
 42
0.0
 43
0.0
 12
1.0
 22
0.0
 32
0.0
 13
1.0
 23
0.0
 33
0.0
 40
0.0
 40
0.0
 40
0.0
 40
0.0
 40
1.0
 40
1.0
 40
1.0
 40
2.0
 40
2.0
 40
2.0
 40
2.0
 10
170.304408478216
 20
103.8377078763613
 30
0.0
 10
169.4940720937235
 20
105.7404216911974
 30
0.0
 10
168.3688048234106
 20
107.2217861989511
 30
0.0
 10
166.9286066672773
 20
108.2818013996224
 30
0.0
 10
165.5605047447739
 20
109.2887523026945
 30
0.0
 10
163.9082135630485
 20
109.9154834405903
 30
0.0
 10
161.9717331221013
 20
110.1619948133098
 30
0.0
  0
SPLINE
  5
1A8
330
1F
100
AcDbEntity
  8
0
  6
K5LT32769
 62
    30
420
 16744448
100
AcDbSpline
210
0.0
220
0.0
230
1.0
 70
     8
 71
     3
 72
    29
 73
    25
 74
     0
 42
0.0
 43
0.0
 12
1.0
 22
0.0
 32
0.0
 13
1.0
 23
0.0
 33
0.0
 40
0.0
 40
0.0
 40
0.0
 40
0.0
 40
1.0
 40
1.0
 40
1.0
 40
2.0
 40
2.0
 40
2.0
 40
3.0
 40
3.0
 40
3.0
 40
4.0
 40
4.0
 40
4.0
 40
5.0
 40
5.0
 40
5.0
 40
6.0
 40
6.0
 40
6.0
 40
7.0
 40
7.0
 40
7.0
 40
8.0
 40
8.0
 40
8.0
 40
8.0
 10
161.9717331221013
 20
110.1619948133098
 30
0.0
 10
163.8559616087641
 20
111.0263334183055
 30
0.0
 10
165.131581504772
 20
112.1765278895534
 30
0.0
 10
165.7985928101249
 20
113.6125782270538
 30
0.0
 10
166.4521652718824
 20
115.0196952380483
 30
0.0
 10
166.7694375831545
 20
117.3278926000931
 30
0.0
 10
166.0063161821237
 20
118.6572886898809
 30
0.0
 10
165.5552520182853
 20
119.4430652843258
 30
0.0
 10
164.6382400028899
 20
120.3679817995726
 30
0.0
 10
163.7807086249941
 20
120.6454981075833
 30
0.0
 10
162.8413223262224
 20
120.9495044963298
 30
0.0
 10
161.2750318570333
 20
120.7856186832923
 30
0.0
 10
160.5461589752991
 20
120.170701828729
 30
0.0
 10
159.932829564217
 20
119.6532637380479
 30
0.0
 10
159.3457012009667
 20
118.4499502057867
 30
0.0
 10
159.4481925804485
 20
117.6483465973154
 30
0.0
 10
159.535281029596
 20
116.9672120917036
 30
0.0
 10
160.0983106536285
 20
115.9574365612988
 30
0.0
 10
160.7242075798695
 20
115.6898119470414
 30
0.0
 10
161.2012141017597
 20
115.4858507498107
 30
0.0
 10
162.0360470215877
 20
115.4823215358116
 30
0.0
 10
162.5046936255731
 20
115.7491614818982
 30
0.0
 10
162.8826414822381
 20
115.9643589992564
 30
0.0
 10
163.1793891565221
 20
116.3402393866828
 30
0.0
 10
163.394936648425
 20
116.8768026441772
 30
0.0
  0
SPLINE
  5
1A9
330
1F
100
AcDbEntity
  8
0
  6
K5LT32769
 62
    30
420
 16744448
100
AcDbSpline
210
0.0
220
0.0
230
1.0
 70
     8
 71
     3
 72
    20
 73
    16
 74
     0
 42
0.0
 43
0.0
 12
1.0
 22
0.0
 32
0.0
 13
1.0
 23
0.0
 33
0.0
 40
0.0
 40
0.0
 40
0.0
 40
0.0
 40
1.0
 40
1.0
 40
1.0
 40
2.0
 40
2.0
 40
2.0
 40
3.0
 40
3.0
 40
3.0
 40
4.0
 40
4.0
 40
4.0
 40
5.0
 40
5.0
 40
5.0
 40
5.0
 10
163.394936648425
 20
116.8768026441772
 30
0.0
 10
163.483454745748
 20
115.8355356235831
 30
0.0
 10
163.3647556760344
 20
114.9255094224457
 30
0.0
 10
163.0388394392842
 20
114.1467240407649
 30
0.0
 10
162.3372613804357
 20
112.4702848986486
 30
0.0
 10
159.8521464577508
 20
111.6022151201635
 30
0.0
 10
158.053478511314
 20
110.9418491584983
 30
0.0
 10
155.8044763014951
 20
110.116146721305
 30
0.0
 10
153.0940067851008
 20
110.7858373875067
 30
0.0
 10
150.6644614216438
 20
110.3780285773588
 30
0.0
 10
149.0572731192782
 20
110.1082556564125
 30
0.0
 10
147.4244025532644
 20
109.8152530381367
 30
0.0
 10
145.8868238656722
 20
109.2800621825082
 30
0.0
 10
144.9359944302704
 20
108.9491033683702
 30
0.0
 10
144.0061850508474
 20
108.5534398026582
 30
0.0
 10
143.0973957274032
 20
108.0930714853724
 30
0.0
  0
SPLINE
  5
1AA
330
1F
100
AcDbEntity
  8
0
  6
K5LT32769
 62
    30
420
 16744448
100
AcDbSpline
210
0.0
220
0.0
230
1.0
 70
     8
 71
     3
 72
    17
 73
    13
 74
     0
 42
0.0
 43
0.0
 12
1.0
 22
0.0
 32
0.0
 13
1.0
 23
0.0
 33
0.0
 40
0.0
 40
0.0
 40
0.0
 40
0.0
 40
1.0
 40
1.0
 40
1.0
 40
2.0
 40
2.0
 40
2.0
 40
3.0
 40
3.0
 40
3.0
 40
4.0
 40
4.0
 40
4.0
 40
4.0
 10
143.0973957274032
 20
108.0930714853724
 30
0.0
 10
144.9274818347948
 20
109.2490961073699
 30
0.0
 10
146.3340655000717
 20
110.6378750824617
 30
0.0
 10
147.3171467232338
 20
112.259408410648
 30
0.0
 10
148.6278953636925
 20
114.4214094287759
 30
0.0
 10
148.7308450202711
 20
117.3782304474473
 30
0.0
 10
148.9908036727004
 20
119.9867181560577
 30
0.0
 10
149.2050666821494
 20
122.1366847808836
 30
0.0
 10
148.2187645774536
 20
124.6551106097117
 30
0.0
 10
149.0264133950295
 20
126.5032973422787
 30
0.0
 10
149.7380391569417
 20
128.1317492920588
 30
0.0
 10
151.0674687905606
 20
129.5086585554498
 30
0.0
 10
153.014702295886
 20
130.6340251324515
 30
0.0
  0
SPLINE
  5
1AB
330
1F
100
AcDbEntity
  8
0
  6
K5LT32769
 62
    30
420
 16744448
100
AcDbSpline
210
0.0
220
0.0
230
1.0
 70
     8
 71
     3
 72
    11
 73
     7
 74
     0
 42
0.0
 43
0.0
 12
1.0
 22
0.0
 32
0.0
 13
1.0
 23
0.0
 33
0.0
 40
0.0
 40
0.0
 40
0.0
 40
0.0
 40
1.0
 40
1.0
 40
1.0
 40
2.0
 40
2.0
 40
2.0
 40
2.0
 10
153.014702295886
 20
130.6340251324515
 30
0.0
 10
150.9317591398738
 20
131.2413511090502
 30
0.0
 10
149.2133924021862
 20
131.1543053514658
 30
0.0
 10
147.8596020828232
 20
130.3728878596982
 30
0.0
 10
146.7216643467727
 20
129.7160620287152
 30
0.0
 10
145.8413129130637
 20
128.5686376881507
 30
0.0
 10
145.2185477816961
 20
126.9306148380045
 30
0.0
  0
SPLINE
  5
1AC
330
1F
100
AcDbEntity
  8
0
  6
K5LT32769
 62
    30
420
 16744448
100
AcDbSpline
210
0.0
220
0.0
230
1.0
 70
     8
 71
     3
 72
    23
 73
    19
 74
     0
 42
0.0
 43
0.0
 12
1.0
 22
0.0
 32
0.0
 13
1.0
 23
0.0
 33
0.0
 40
0.0
 40
0.0
 40
0.0
 40
0.0
 40
1.0
 40
1.0
 40
1.0
 40
2.0
 40
2.0
 40
2.0
 40
3.0
 40
3.0
 40
3.0
 40
4.0
 40
4.0
 40
4.0
 40
5.0
 40
5.0
 40
5.0
 40
6.0
 40
6.0
 40
6.0
 40
6.0
 10
145.2185477816961
 20
126.9306148380045
 30
0.0
 10
143.4862292751776
 20
129.3210275400783
 30
0.0
 10
141.4980198574752
 20
130.8740070354976
 30
0.0
 10
139.2539195285888
 20
131.5895533242624
 30
0.0
 10
136.8636180258052
 20
132.3517168279746
 30
0.0
 10
133.4691941858282
 20
132.1077285074242
 30
0.0
 10
131.2120575554939
 20
131.0257327431229
 30
0.0
 10
129.0079802848706
 20
129.9691718602072
 30
0.0
 10
126.5654401223708
 20
127.6032511410981
 30
0.0
 10
125.8112498835261
 20
125.2985026294428
 30
0.0
 10
125.205362544233
 20
123.4469565982906
 30
0.0
 10
125.0406048482081
 20
120.6675588700044
 30
0.0
 10
126.0189732555249
 20
118.9777771671947
 30
0.0
 10
126.6362951066881
 20
117.9115743329259
 30
0.0
 10
127.7691108508393
 20
116.6992108681112
 30
0.0
 10
128.9567752309359
 20
116.2773733312109
 30
0.0
 10
129.7452715309193
 20
115.9973132884798
 30
0.0
 10
130.6256229646283
 20
115.9280721644802
 30
0.0
 10
131.597829532063
 20
116.0696499592121
 30
0.0
  0
SPLINE
  5
1AD
330
1F
100
AcDbEntity
  8
0
  6
K5LT32769
 62
    30
420
 16744448
100
AcDbSpline
210
0.0
220
0.0
230
1.0
 70
     8
 71
     3
 72
    23
 73
    19
 74
     0
 42
0.0
 43
0.0
 12
1.0
 22
0.0
 32
0.0
 13
1.0
 23
0.0
 33
0.0
 40
0.0
 40
0.0
 40
0.0
 40
0.0
 40
1.0
 40
1.0
 40
1.0
 40
2.0
 40
2.0
 40
2.0
 40
3.0
 40
3.0
 40
3.0
 40
4.0
 40
4.0
 40
4.0
 40
5.0
 40
5.0
 40
5.0
 40
6.0
 40
6.0
 40
6.0
 40
6.0
 10
130.1734406955001
 20
124.3785848391625
 30
0.0
 10
130.8653720164563
 20
126.003192503345
 30
0.0
 10
131.7753982175937
 20
127.1011588981956
 30
0.0
 10
132.9035192989124
 20
127.6724840237143
 30
0.0
 10
134.412494532002
 20
128.4366887520241
 30
0.0
 10
137.073277113766
 20
127.9554944495368
 30
0.0
 10
138.6010746451641
 20
127.1383382100032
 30
0.0
 10
140.3813910006734
 20
126.1861200080817
 30
0.0
 10
141.8796309451025
 20
123.679516433407
 30
0.0
 10
142.429119643427
 20
121.6781810031786
 30
0.0
 10
143.049971478485
 20
119.4169283546483
 30
0.0
 10
142.4170883322427
 20
116.4495202155703
 30
0.0
 10
141.5092018531468
 20
114.2001396112232
 30
0.0
 10
140.595230609901
 20
111.9356833880892
 30
0.0
 10
138.6655286271493
 20
109.980745485467
 30
0.0
 10
136.939287669174
 20
108.1464870558308
 30
0.0
 10
135.8352985486226
 20
106.9734171311239
 30
0.0
 10
134.6483078514869
 20
105.8754507362733
 30
0.0
 10
133.3783155777667
 20
104.852587871279
 30
0.0
  0
SPLINE
  5
1AE
330
1F
100
AcDbEntity
  8
0
  6
K5LT32769
 62
    30
420
 16744448
100
AcDbSpline
210
0.0
220
0.0
230
1.0
 70
     8
 71
     3
 72
    14
 73
    10
 74
     0
 42
0.0
 43
0.0
 12
1.0
 22
0.0
 32
0.0
 13
1.0
 23
0.0
 33
0.0
 40
0.0
 40
0.0
 40
0.0
 40
0.0
 40
1.0
 40
1.0
 40
1.0
 40
2.0
 40
2.0
 40
2.0
 40
3.0
 40
3.0
 40
3.0
 40
3.0
 10
133.3783155777667
 20
104.852587871279
 30
0.0
 10
134.9425182839877
 20
106.3658140744713
 30
0.0
 10
136.1492921594091
 20
108.047384228747
 30
0.0
 10
136.9986372040308
 20
109.897298334106
 30
0.0
 10
137.7626484613606
 20
111.5613513718405
 30
0.0
 10
138.9687538733333
 20
113.7401027420189
 30
0.0
 10
138.4230260405937
 20
115.2981060060738
 30
0.0
 10
138.0553550951792
 20
116.3477730721248
 30
0.0
 10
137.2244616071841
 20
117.2874740406906
 30
0.0
 10
135.9303455766086
 20
118.1172089117713
 30
0.0
  0
SPLINE
  5
1AF
330
1F
100
AcDbEntity
  8
0
  6
K5LT32769
 62
    30
420
 16744448
100
AcDbSpline
210
0.0
220
0.0
230
1.0
 70
     8
 71
     3
 72
    17
 73
    13
 74
     0
 42
0.0
 43
0.0
 12
1.0
 22
0.0
 32
0.0
 13
1.0
 23
0.0
 33
0.0
 40
0.0
 40
0.0
 40
0.0
 40
0.0
 40
1.0
 40
1.0
 40
1.0
 40
2.0
 40
2.0
 40
2.0
 40
3.0
 40
3.0
 40
3.0
 40
4.0
 40
4.0
 40
4.0
 40
4.0
 10
130.1734406955001
 20
124.3785848391625
 30
0.0
 10
131.1493747647255
 20
125.0792360788599
 30
0.0
 10
132.1088589115769
 20
125.415550109715
 30
0.0
 10
133.0518931360543
 20
125.3875269317279
 30
0.0
 10
134.0701214618982
 20
125.3572692879798
 30
0.0
 10
135.3447465589463
 20
124.7543453323309
 30
0.0
 10
136.0490446463222
 20
124.0224876300218
 30
0.0
 10
136.7962643460777
 20
123.2460287663882
 30
0.0
 10
137.3933298301993
 20
121.8174794919942
 30
0.0
 10
137.2953848783147
 20
120.7582632128984
 30
0.0
 10
137.212047517184
 20
119.8570193216299
 30
0.0
 10
136.7570344166153
 20
118.9766678879209
 30
0.0
 10
135.9303455766086
 20
118.1172089117713
 30
0.0
  0
SPLINE
  5
1B0
330
1F
100
AcDbEntity
  8
0
  6
K5LT32769
 62
    30
420
 16744448
100
AcDbSpline
210
0.0
220
0.0
230
1.0
 70
     8
 71
     3
 72
    14
 73
    10
 74
     0
 42
0.0
 43
0.0
 12
1.0
 22
0.0
 32
0.0
 13
1.0
 23
0.0
 33
0.0
 40
0.0
 40
0.0
 40
0.0
 40
0.0
 40
1.0
 40
1.0
 40
1.0
 40
2.0
 40
2.0
 40
2.0
 40
3.0
 40
3.0
 40
3.0
 40
3.0
 10
131.597829532063
 20
116.0696499592121
 30
0.0
 10
131.1748327628533
 20
114.9855766694195
 30
0.0
 10
131.1451579954249
 20
114.1546831814245
 30
0.0
 10
131.5088052297778
 20
113.5769694952269
 30
0.0
 10
131.883205472123
 20
112.982172880031
 30
0.0
 10
133.184303254481
 20
112.4194531044865
 30
0.0
 10
133.8827866240494
 20
112.5977021700899
 30
0.0
 10
134.4480666771289
 20
112.7419584912217
 30
0.0
 10
134.9525377234116
 20
113.2167547700761
 30
0.0
 10
135.3961997628975
 20
114.0220910066529
 30
0.0
  0
SPLINE
  5
1B1
330
1F
100
AcDbEntity
  8
0
  6
K5LT32769
 62
    30
420
 16744448
100
AcDbSpline
210
0.0
220
0.0
230
1.0
 70
     8
 71
     3
 72
    14
 73
    10
 74
     0
 42
0.0
 43
0.0
 12
1.0
 22
0.0
 32
0.0
 13
1.0
 23
0.0
 33
0.0
 40
0.0
 40
0.0
 40
0.0
 40
0.0
 40
1.0
 40
1.0
 40
1.0
 40
2.0
 40
2.0
 40
2.0
 40
3.0
 40
3.0
 40
3.0
 40
3.0
 10
135.3961997628975
 20
114.0220910066529
 30
0.0
 10
135.1023513752018
 20
112.1864663729716
 30
0.0
 10
134.5385307940623
 20
110.5345709861243
 30
0.0
 10
133.704738019479
 20
109.066404846111
 30
0.0
 10
132.1728298849411
 20
106.3689772342398
 30
0.0
 10
128.9099724659038
 20
104.7927797211674
 30
0.0
 10
126.3750704646656
 20
102.8347036861481
 30
0.0
 10
123.6335285406564
 20
100.7170093777367
 30
0.0
 10
120.7847508675305
 20
98.73869154917706
 30
0.0
 10
117.828737445288
 20
96.89975020046927
 30
0.0
  0
SPLINE
  5
1B2
330
1F
100
AcDbEntity
  8
0
  6
K5LT32769
 62
    30
420
 16744448
100
AcDbSpline
210
0.0
220
0.0
230
1.0
 70
     8
 71
     3
 72
    11
 73
     7
 74
     0
 42
0.0
 43
0.0
 12
1.0
 22
0.0
 32
0.0
 13
1.0
 23
0.0
 33
0.0
 40
0.0
 40
0.0
 40
0.0
 40
0.0
 40
1.0
 40
1.0
 40
1.0
 40
2.0
 40
2.0
 40
2.0
 40
2.0
 10
117.828737445288
 20
96.89975020046927
 30
0.0
 10
117.9401011671349
 20
98.3642614476505
 30
0.0
 10
117.6730282602794
 20
99.59081850135748
 30
0.0
 10
117.0275187247213
 20
100.5794213615902
 30
0.0
 10
116.4404255760967
 20
101.478559072161
 30
0.0
 10
115.5402909641021
 20
102.1808619012996
 30
0.0
 10
114.3271148887374
 20
102.6863298490062
 30
0.0
  0
SPLINE
  5
1B3
330
1F
100
AcDbEntity
  8
0
  6
K5LT32769
 62
    30
420
 16744448
100
AcDbSpline
210
0.0
220
0.0
230
1.0
 70
     8
 71
     3
 72
    23
 73
    19
 74
     0
 42
0.0
 43
0.0
 12
1.0
 22
0.0
 32
0.0
 13
1.0
 23
0.0
 33
0.0
 40
0.0
 40
0.0
 40
0.0
 40
0.0
 40
1.0
 40
1.0
 40
1.0
 40
2.0
 40
2.0
 40
2.0
 40
3.0
 40
3.0
 40
3.0
 40
4.0
 40
4.0
 40
4.0
 40
5.0
 40
5.0
 40
5.0
 40
6.0
 40
6.0
 40
6.0
 40
6.0
 10
114.3271148887374
 20
102.6863298490062
 30
0.0
 10
114.5827578543499
 20
101.1781726575385
 30
0.0
 10
114.627862873806
 20
99.71579963586812
 30
0.0
 10
114.4624299471056
 20
98.29921078399502
 30
0.0
 10
114.082982889819
 20
95.05003613690779
 30
0.0
 10
111.3284035837597
 20
92.3492080494563
 30
0.0
 10
110.0012435791757
 20
89.27428203967702
 30
0.0
 10
108.0216936796459
 20
84.68781962919451
 30
0.0
 10
106.0730714786079
 20
79.92991614829975
 30
0.0
 10
105.1298331774131
 20
75.07027486822197
 30
0.0
 10
104.050207907612
 20
69.50795671225374
 30
0.0
 10
103.2398460242758
 20
63.30241613510314
 30
0.0
 10
104.5657751308933
 20
57.89214345148029
 30
0.0
 10
105.5602091750658
 20
53.83449110943607
 30
0.0
 10
107.3393543405761
 20
49.48366080026425
 30
0.0
 10
110.1037995876339
 20
46.25203649147922
 30
0.0
 10
110.9280598697865
 20
45.28847985478857
 30
0.0
 10
111.8339712778336
 20
44.3825684467415
 30
0.0
 10
112.8215338117751
 20
43.53430226733802
 30
0.0
  0
SPLINE
  5
1B4
330
1F
100
AcDbEntity
  8
0
  6
K5LT32769
 62
    30
420
 16744448
100
AcDbSpline
210
0.0
220
0.0
230
1.0
 70
     8
 71
     3
 72
    11
 73
     7
 74
     0
 42
0.0
 43
0.0
 12
1.0
 22
0.0
 32
0.0
 13
1.0
 23
0.0
 33
0.0
 40
0.0
 40
0.0
 40
0.0
 40
0.0
 40
1.0
 40
1.0
 40
1.0
 40
2.0
 40
2.0
 40
2.0
 40
2.0
 10
138.5762350366435
 20
41.80385963852712
 30
0.0
 10
135.8856501442081
 20
39.63926590685075
 30
0.0
 10
133.2628413446116
 20
38.43419159352262
 30
0.0
 10
130.7078086378539
 20
38.18863669854271
 30
0.0
 10
129.3001476560821
 20
38.05335152445001
 30
0.0
 10
127.8052110013091
 20
38.41643324075892
 30
0.0
 10
126.3176323154729
 20
39.09613693679838
 30
0.0
  0
SPLINE
  5
1B5
330
1F
100
AcDbEntity
  8
0
  6
K5LT32769
 62
    30
420
 16744448
100
AcDbSpline
210
0.0
220
0.0
230
1.0
 70
     8
 71
     3
 72
    26
 73
    22
 74
     0
 42
0.0
 43
0.0
 12
1.0
 22
0.0
 32
0.0
 13
1.0
 23
0.0
 33
0.0
 40
0.0
 40
0.0
 40
0.0
 40
0.0
 40
1.0
 40
1.0
 40
1.0
 40
2.0
 40
2.0
 40
2.0
 40
3.0
 40
3.0
 40
3.0
 40
4.0
 40
4.0
 40
4.0
 40
5.0
 40
5.0
 40
5.0
 40
6.0
 40
6.0
 40
6.0
 40
7.0
 40
7.0
 40
7.0
 40
7.0
 10
151.6431900768731
 20
85.577078982548
 30
0.0
 10
150.6847986197222
 20
85.70807698158848
 30
0.0
 10
149.9542595707785
 20
85.57804896686662
 30
0.0
 10
149.4515729300423
 20
85.18699493838241
 30
0.0
 10
148.8445137823559
 20
84.7147466111079
 30
0.0
 10
148.5097363144043
 20
83.41716434682634
 30
0.0
 10
148.6272739330732
 20
82.62823346862425
 30
0.0
 10
148.7513177643985
 20
81.79563187356679
 30
0.0
 10
149.6091720188635
 20
80.66481668976319
 30
0.0
 10
150.3102177185517
 20
80.34423833118909
 30
0.0
 10
151.293832554964
 20
79.8944450725379
 30
0.0
 10
153.288168002623
 20
80.74392409121423
 30
0.0
 10
154.0882547879933
 20
81.5978597224129
 30
0.0
 10
154.8687048720727
 20
82.43083702856711
 30
0.0
 10
155.3513847177137
 20
84.20651524224294
 30
0.0
 10
155.1186285342047
 20
85.34155100031413
 30
0.0
 10
154.8939951035906
 20
86.43697614589507
 30
0.0
 10
153.7811386385266
 20
87.67396876180467
 30
0.0
 10
152.8346333967695
 20
88.31246196855685
 30
0.0
 10
152.2789654809403
 20
88.68730425554565
 30
0.0
 10
151.559639672194
 20
88.91670800088295
 30
0.0
 10
150.7848896316204
 20
89.02689261020723
 30
0.0
  0
SPLINE
  5
1B6
330
1F
100
AcDbEntity
  8
0
  6
K5LT32769
 62
    30
420
 16744448
100
AcDbSpline
210
0.0
220
0.0
230
1.0
 70
     8
 71
     3
 72
    11
 73
     7
 74
     0
 42
0.0
 43
0.0
 12
1.0
 22
0.0
 32
0.0
 13
1.0
 23
0.0
 33
0.0
 40
0.0
 40
0.0
 40
0.0
 40
0.0
 40
1.0
 40
1.0
 40
1.0
 40
2.0
 40
2.0
 40
2.0
 40
2.0
 10
138.5762350366435
 20
41.80385963852712
 30
0.0
 10
138.5558452445001
 20
40.56738787009983
 30
0.0
 10
138.2922802688364
 20
39.44594541165353
 30
0.0
 10
137.7855401096523
 20
38.43953226318821
 30
0.0
 10
137.383271503978
 20
37.64060522607086
 30
0.0
 10
136.8277598135704
 20
36.91416686169164
 30
0.0
 10
136.1190050384293
 20
36.26021717005053
 30
0.0
  0
SPLINE
  5
1B7
330
1F
100
AcDbEntity
  8
0
  6
K5LT32769
 62
    30
420
 16744448
100
AcDbSpline
210
0.0
220
0.0
230
1.0
 70
     8
 71
     3
 72
    23
 73
    19
 74
     0
 42
0.0
 43
0.0
 12
1.0
 22
0.0
 32
0.0
 13
1.0
 23
0.0
 33
0.0
 40
0.0
 40
0.0
 40
0.0
 40
0.0
 40
1.0
 40
1.0
 40
1.0
 40
2.0
 40
2.0
 40
2.0
 40
3.0
 40
3.0
 40
3.0
 40
4.0
 40
4.0
 40
4.0
 40
5.0
 40
5.0
 40
5.0
 40
6.0
 40
6.0
 40
6.0
 40
6.0
 10
136.1190050384293
 20
36.26021717005053
 30
0.0
 10
138.0355390792825
 20
36.77787965282624
 30
0.0
 10
139.5311474765338
 20
37.63251302268415
 30
0.0
 10
140.6058302301834
 20
38.82411727962428
 30
0.0
 10
142.0562691753382
 20
40.43235861001588
 30
0.0
 10
142.7358092934376
 20
43.27911455073921
 30
0.0
 10
142.6569503178424
 20
45.490257564516
 30
0.0
 10
142.5878602649694
 20
47.42748774761803
 30
0.0
 10
141.9898687539224
 20
49.97160614742782
 30
0.0
 10
140.6936689121077
 20
51.27683932046433
 30
0.0
 10
139.4553735492239
 20
52.52376447314023
 30
0.0
 10
136.9012543768681
 20
53.72334926007625
 30
0.0
 10
135.2216400000785
 20
53.31015289871591
 30
0.0
 10
134.1196829184237
 20
53.03906409237612
 30
0.0
 10
132.7445102708493
 20
52.11090547027399
 30
0.0
 10
132.1022282000971
 20
51.08810613708533
 30
0.0
 10
131.639580113301
 20
50.35136417241883
 30
0.0
 10
131.3831901023437
 20
49.46824302356566
 30
0.0
 10
131.333058167225
 20
48.4387426905258
 30
0.0
  0
SPLINE
  5
1B8
330
1F
100
AcDbEntity
  8
0
  6
K5LT32769
 62
    30
420
 16744448
100
AcDbSpline
210
0.0
220
0.0
230
1.0
 70
     8
 71
     3
 72
    20
 73
    16
 74
     0
 42
0.0
 43
0.0
 12
1.0
 22
0.0
 32
0.0
 13
1.0
 23
0.0
 33
0.0
 40
0.0
 40
0.0
 40
0.0
 40
0.0
 40
1.0
 40
1.0
 40
1.0
 40
2.0
 40
2.0
 40
2.0
 40
3.0
 40
3.0
 40
3.0
 40
4.0
 40
4.0
 40
4.0
 40
5.0
 40
5.0
 40
5.0
 40
5.0
 10
131.333058167225
 20
48.4387426905258
 30
0.0
 10
132.090114761514
 20
49.8285281388406
 30
0.0
 10
132.9874797998649
 20
50.65467372970326
 30
0.0
 10
134.0251532822774
 20
50.91717946311375
 30
0.0
 10
135.0773708512683
 20
51.18336449080969
 30
0.0
 10
136.8589372838101
 20
50.66565526572725
 30
0.0
 10
137.6146134356807
 20
49.97708275627004
 30
0.0
 10
138.7074422070206
 20
48.98129660154502
 30
0.0
 10
138.7586699162228
 20
46.07131011520079
 30
0.0
 10
138.1273934575954
 20
44.63562419465809
 30
0.0
 10
137.514973831496
 20
43.24282358782621
 30
0.0
 10
135.4956480025613
 20
41.72373586184748
 30
0.0
 10
134.0251532822774
 20
41.4307490576909
 30
0.0
 10
132.821332563376
 20
41.19089536740336
 30
0.0
 10
131.1001959580068
 20
41.71610682306093
 30
0.0
 10
129.7444711345752
 20
42.52297575363781
 30
0.0
  0
SPLINE
  5
1B9
330
1F
100
AcDbEntity
  8
0
  6
K5LT32769
 62
    30
420
 16744448
100
AcDbSpline
210
0.0
220
0.0
230
1.0
 70
     8
 71
     3
 72
    11
 73
     7
 74
     0
 42
0.0
 43
0.0
 12
1.0
 22
0.0
 32
0.0
 13
1.0
 23
0.0
 33
0.0
 40
0.0
 40
0.0
 40
0.0
 40
0.0
 40
1.0
 40
1.0
 40
1.0
 40
2.0
 40
2.0
 40
2.0
 40
2.0
 10
136.674516728837
 20
55.27580964938911
 30
0.0
 10
136.226469159603
 20
56.43847937117189
 30
0.0
 10
136.1071772134396
 20
57.51244252396746
 30
0.0
 10
136.316640890347
 20
58.49769910777579
 30
0.0
 10
136.5930769820278
 20
59.79797457009941
 30
0.0
 10
137.4421050163806
 20
60.94375026694449
 30
0.0
 10
138.8637249934055
 20
61.93502619831104
 30
0.0
  0
SPLINE
  5
1BA
330
1F
100
AcDbEntity
  8
0
  6
K5LT32769
 62
    30
420
 16744448
100
AcDbSpline
210
0.0
220
0.0
230
1.0
 70
     8
 71
     3
 72
    17
 73
    13
 74
     0
 42
0.0
 43
0.0
 12
1.0
 22
0.0
 32
0.0
 13
1.0
 23
0.0
 33
0.0
 40
0.0
 40
0.0
 40
0.0
 40
0.0
 40
1.0
 40
1.0
 40
1.0
 40
2.0
 40
2.0
 40
2.0
 40
3.0
 40
3.0
 40
3.0
 40
4.0
 40
4.0
 40
4.0
 40
4.0
 10
138.8637249934055
 20
61.93502619831104
 30
0.0
 10
138.2926794438895
 20
60.9461947164945
 30
0.0
 10
138.045389725146
 20
59.99825079464426
 30
0.0
 10
138.1218558371748
 20
59.0911944327603
 30
0.0
 10
138.2160307432656
 20
57.97407280289207
 30
0.0
 10
139.0795655712654
 20
56.78942560078308
 30
0.0
 10
139.877612840254
 20
55.92588603284295
 30
0.0
 10
140.5900324070544
 20
55.15500126346507
 30
0.0
 10
141.8074851254116
 20
54.83287161935594
 30
0.0
 10
142.5236128308099
 20
54.07121314226637
 30
0.0
 10
143.5238233777302
 20
53.0074100856418
 30
0.0
 10
144.2004583345368
 20
51.66380261380188
 30
0.0
 10
144.5535177012296
 20
50.04039072674662
 30
0.0
  0
SPLINE
  5
1BB
330
1F
100
AcDbEntity
  8
0
  6
K5LT32769
 62
    30
420
 16744448
100
AcDbSpline
210
0.0
220
0.0
230
1.0
 70
     8
 71
     3
 72
    11
 73
     7
 74
     0
 42
0.0
 43
0.0
 12
1.0
 22
0.0
 32
0.0
 13
1.0
 23
0.0
 33
0.0
 40
0.0
 40
0.0
 40
0.0
 40
0.0
 40
1.0
 40
1.0
 40
1.0
 40
2.0
 40
2.0
 40
2.0
 40
2.0
 10
144.5535177012296
 20
36.79911057525334
 30
0.0
 10
143.8672126189028
 20
35.32949057250845
 30
0.0
 10
142.9598395310175
 20
34.11875996520974
 30
0.0
 10
141.8313984375739
 20
33.16691875335721
 30
0.0
 10
140.7621691099661
 20
32.26502272630577
 30
0.0
 10
139.4944629446769
 20
31.59555991991707
 30
0.0
 10
138.0282799417061
 20
31.15853033419112
 30
0.0
  0
SPLINE
  5
1BC
330
1F
100
AcDbEntity
  8
0
  6
K5LT32769
 62
    30
420
 16744448
100
AcDbSpline
210
0.0
220
0.0
230
1.0
 70
     8
 71
     3
 72
    29
 73
    25
 74
     0
 42
0.0
 43
0.0
 12
1.0
 22
0.0
 32
0.0
 13
1.0
 23
0.0
 33
0.0
 40
0.0
 40
0.0
 40
0.0
 40
0.0
 40
1.0
 40
1.0
 40
1.0
 40
2.0
 40
2.0
 40
2.0
 40
3.0
 40
3.0
 40
3.0
 40
4.0
 40
4.0
 40
4.0
 40
5.0
 40
5.0
 40
5.0
 40
6.0
 40
6.0
 40
6.0
 40
7.0
 40
7.0
 40
7.0
 40
8.0
 40
8.0
 40
8.0
 40
8.0
 10
112.8215338117751
 20
43.53430226733802
 30
0.0
 10
111.4872253700722
 20
43.60060385624772
 30
0.0
 10
110.3887997851287
 20
43.36392837805225
 30
0.0
 10
109.5262570569447
 20
42.82427583275163
 30
0.0
 10
108.196197581218
 20
41.99211997771555
 30
0.0
 10
107.2736082798366
 20
39.73953564801381
 30
0.0
 10
107.2187469583283
 20
38.166523967026
 30
0.0
 10
107.1623697797215
 20
36.55004886122166
 30
0.0
 10
108.3765150670833
 20
34.7142931328673
 30
0.0
 10
109.3125987144802
 20
33.252382090343
 30
0.0
 10
110.9866772960988
 20
30.63792132999587
 30
0.0
 10
114.1847808273854
 20
29.15105786237028
 30
0.0
 10
116.6197140267654
 20
27.09902182736602
 30
0.0
 10
118.9849280171807
 20
25.1057415435109
 30
0.0
 10
121.6819243073556
 20
23.40723112679841
 30
0.0
 10
123.7131709965861
 20
21.11658823836063
 30
0.0
 10
125.6978363552242
 20
18.87847525395714
 30
0.0
 10
128.0940240455009
 20
16.38486398799076
 30
0.0
 10
128.7127762102549
 20
13.5530829151181
 30
0.0
 10
129.0918989497108
 20
11.81798983740124
 30
0.0
 10
129.2930868256092
 20
9.644788254006398
 30
0.0
 10
128.670044541762
 20
7.997966011041662
 30
0.0
 10
128.1735415318683
 20
6.685611742976646
 30
0.0
 10
127.2904203830151
 20
5.503368914673199
 30
0.0
 10
126.0206810952025
 20
4.451237526131322
 30
0.0
  0
SPLINE
  5
1BD
330
1F
100
AcDbEntity
  8
0
  6
K5LT32769
 62
    30
420
 16744448
100
AcDbSpline
210
0.0
220
0.0
230
1.0
 70
     8
 71
     3
 72
    11
 73
     7
 74
     0
 42
0.0
 43
0.0
 12
1.0
 22
0.0
 32
0.0
 13
1.0
 23
0.0
 33
0.0
 40
0.0
 40
0.0
 40
0.0
 40
0.0
 40
1.0
 40
1.0
 40
1.0
 40
2.0
 40
2.0
 40
2.0
 40
2.0
 10
129.9092629280559
 20
31.11579866569822
 30
0.0
 10
127.1414687900035
 20
31.73444782366939
 30
0.0
 10
124.606056459425
 20
32.74576397800125
 30
0.0
 10
122.3030259363205
 20
34.14974712869381
 30
0.0
 10
120.3565409924855
 20
35.33637146423985
 30
0.0
 10
118.5760548052816
 20
36.80349208249593
 30
0.0
 10
116.9615673747086
 20
38.55110898346206
 30
0.0
  0
SPLINE
  5
1BE
330
1F
100
AcDbEntity
  8
0
  6
K5LT32769
 62
    30
420
 16744448
100
AcDbSpline
210
0.0
220
0.0
230
1.0
 70
     8
 71
     3
 72
    14
 73
    10
 74
     0
 42
0.0
 43
0.0
 12
1.0
 22
0.0
 32
0.0
 13
1.0
 23
0.0
 33
0.0
 40
0.0
 40
0.0
 40
0.0
 40
0.0
 40
1.0
 40
1.0
 40
1.0
 40
2.0
 40
2.0
 40
2.0
 40
3.0
 40
3.0
 40
3.0
 40
3.0
 10
116.9615673747086
 20
38.55110898346206
 30
0.0
 10
117.3585515851213
 20
37.52466702876592
 30
0.0
 10
117.3870393641166
 20
36.65578976941038
 30
0.0
 10
117.0470307116943
 20
35.94447720539543
 30
0.0
 10
116.7629684736529
 20
35.35020692009056
 30
0.0
 10
116.0534469573114
 20
34.70558948241972
 30
0.0
 10
115.4232273089643
 20
34.49160047663698
 30
0.0
 10
114.7652586792962
 20
34.26818939564609
 30
0.0
 10
114.0103325359217
 20
34.33940884313425
 30
0.0
 10
113.1584488788408
 20
34.70525881910146
 30
0.0
  0
SPLINE
  5
1BF
330
1F
100
AcDbEntity
  8
0
  6
K5LT32769
 62
    30
420
 16744448
100
AcDbSpline
210
0.0
220
0.0
230
1.0
 70
     8
 71
     3
 72
    17
 73
    13
 74
     0
 42
0.0
 43
0.0
 12
1.0
 22
0.0
 32
0.0
 13
1.0
 23
0.0
 33
0.0
 40
0.0
 40
0.0
 40
0.0
 40
0.0
 40
1.0
 40
1.0
 40
1.0
 40
2.0
 40
2.0
 40
2.0
 40
3.0
 40
3.0
 40
3.0
 40
4.0
 40
4.0
 40
4.0
 40
4.0
 10
113.1584488788408
 20
34.70525881910146
 30
0.0
 10
113.6021388071632
 20
33.99542841290374
 30
0.0
 10
114.1145239897987
 20
33.36671925433005
 30
0.0
 10
114.6956044267476
 20
32.81913134338038
 30
0.0
 10
115.739869507564
 20
31.83505599387369
 30
0.0
 10
117.2723967234048
 20
31.44359199925662
 30
0.0
 10
118.4939746575821
 20
30.65287332110759
 30
0.0
 10
119.7690654158954
 20
29.82751617382699
 30
0.0
 10
121.0497142981476
 20
28.96628305911895
 30
0.0
 10
122.173645818703
 20
27.9524694851237
 30
0.0
 10
123.3066624385204
 20
26.93046093057628
 30
0.0
 10
124.3353877093714
 20
25.7929281791545
 30
0.0
 10
125.259821631256
 20
24.53987123085834
 30
0.0
  0
SPLINE
  5
1C0
330
1F
100
AcDbEntity
  8
0
  6
K5LT32769
 62
    30
420
 16744448
100
AcDbSpline
210
0.0
220
0.0
230
1.0
 70
     8
 71
     3
 72
    11
 73
     7
 74
     0
 42
0.0
 43
0.0
 12
1.0
 22
0.0
 32
0.0
 13
1.0
 23
0.0
 33
0.0
 40
0.0
 40
0.0
 40
0.0
 40
0.0
 40
1.0
 40
1.0
 40
1.0
 40
2.0
 40
2.0
 40
2.0
 40
2.0
 10
129.9092629280559
 20
31.11579866569822
 30
0.0
 10
128.2751011792714
 20
30.4679830768181
 30
0.0
 10
127.0714930336694
 20
29.53223908634017
 30
0.0
 10
126.2984384912498
 20
28.30856669426443
 30
0.0
 10
125.6376980289552
 20
27.26267689261253
 30
0.0
 10
125.2914924089573
 20
26.00644507147716
 30
0.0
 10
125.259821631256
 20
24.53987123085834
 30
0.0
  0
SPLINE
  5
1C1
330
1F
100
AcDbEntity
  8
0
  6
K5LT32769
 62
    30
420
 16744448
100
AcDbSpline
210
0.0
220
0.0
230
1.0
 70
     8
 71
     3
 72
    26
 73
    22
 74
     0
 42
0.0
 43
0.0
 12
1.0
 22
0.0
 32
0.0
 13
1.0
 23
0.0
 33
0.0
 40
0.0
 40
0.0
 40
0.0
 40
0.0
 40
1.0
 40
1.0
 40
1.0
 40
2.0
 40
2.0
 40
2.0
 40
3.0
 40
3.0
 40
3.0
 40
4.0
 40
4.0
 40
4.0
 40
5.0
 40
5.0
 40
5.0
 40
6.0
 40
6.0
 40
6.0
 40
7.0
 40
7.0
 40
7.0
 40
7.0
 10
138.0282799417061
 20
31.15853033419112
 30
0.0
 10
139.3812362521085
 20
30.30270925818539
 30
0.0
 10
140.3308291923397
 20
29.27873206370052
 30
0.0
 10
140.8770587623997
 20
28.08659875073651
 30
0.0
 10
141.5369196814262
 20
26.64646766554415
 30
0.0
 10
141.6883647496207
 20
24.41931906103576
 30
0.0
 10
141.0907170963741
 20
23.03001818000764
 30
0.0
 10
140.4667121212831
 20
21.57944666525257
 30
0.0
 10
138.5489482287131
 20
19.78279024090879
 30
0.0
 10
137.0312087508594
 20
19.64709455874538
 30
0.0
 10
135.8592533756468
 20
19.54231420188898
 30
0.0
 10
134.017485809609
 20
20.1900530446147
 30
0.0
 10
133.2209684616482
 20
21.10709317423751
 30
0.0
 10
132.4924125161798
 20
21.9458885129458
 30
0.0
 10
131.9817586084281
 20
23.61127242028667
 30
0.0
 10
132.2238962364341
 20
24.70367512947424
 30
0.0
 10
132.4336730976923
 20
25.65008239979651
 30
0.0
 10
133.3154249158277
 20
26.68227483465642
 30
0.0
 10
134.1468212422042
 20
27.30318485949682
 30
0.0
 10
134.8779383147937
 20
27.84920353350426
 30
0.0
 10
135.7563114655775
 20
28.20530075679502
 30
0.0
 10
136.7819406945559
 20
28.37147652936912
 30
0.0
  0
SPLINE
  5
1C2
330
1F
100
AcDbEntity
  8
0
  6
K5LT32769
 62
    30
420
 16744448
100
AcDbSpline
210
0.0
220
0.0
230
1.0
 70
     8
 71
     3
 72
    23
 73
    19
 74
     0
 42
0.0
 43
0.0
 12
1.0
 22
0.0
 32
0.0
 13
1.0
 23
0.0
 33
0.0
 40
0.0
 40
0.0
 40
0.0
 40
0.0
 40
1.0
 40
1.0
 40
1.0
 40
2.0
 40
2.0
 40
2.0
 40
3.0
 40
3.0
 40
3.0
 40
4.0
 40
4.0
 40
4.0
 40
5.0
 40
5.0
 40
5.0
 40
6.0
 40
6.0
 40
6.0
 40
6.0
 10
136.7819406945559
 20
28.37147652936912
 30
0.0
 10
135.1275713976135
 20
28.83268798688511
 30
0.0
 10
133.6813629988567
 20
28.83281415387465
 30
0.0
 10
132.5443837373957
 20
28.26464736238189
 30
0.0
 10
131.3397199267226
 20
27.66265751495215
 30
0.0
 10
130.1163817952246
 20
25.97401370731216
 30
0.0
 10
129.8583584148907
 20
24.66512550056737
 30
0.0
 10
129.5735345368785
 20
23.22028505840655
 30
0.0
 10
130.596846715664
 20
21.35493366630017
 30
0.0
 10
131.3336531782072
 20
19.93197233737799
 30
0.0
 10
132.766330879988
 20
17.16510604333552
 30
0.0
 10
136.2504381281283
 20
15.75559376911936
 30
0.0
 10
138.411086716268
 20
13.38670841094384
 30
0.0
 10
139.73490887876
 20
11.93530027601168
 30
0.0
 10
141.1675004769693
 20
10.4924809477344
 30
0.0
 10
142.1590087662464
 20
8.821738970706122
 30
0.0
 10
143.2964482095032
 20
6.905095565170519
 30
0.0
 10
143.9875101290475
 20
4.714132806236794
 30
0.0
 10
144.5535177012296
 20
2.483208396130504
 30
0.0
  0
LINE
  5
1C3
330
1F
100
AcDbEntity
  8
0
  6
K5LT32769
 62
    30
420
 16744448
100
AcDbLine
 10
144.5535177012296
 20
50.0403907377714
 30
0.0
 11
144.5535177012296
 21
63.30882369517195
 31
0.0
  0
SPLINE
  5
1C4
330
1F
100
AcDbEntity
  8
0
  6
K5LT32769
 62
    30
420
 16744448
100
AcDbSpline
210
0.0
220
0.0
230
1.0
 70
     8
 71
     3
 72
    11
 73
     7
 74
     0
 42
0.0
 43
0.0
 12
1.0
 22
0.0
 32
0.0
 13
1.0
 23
0.0
 33
0.0
 40
0.0
 40
0.0
 40
0.0
 40
0.0
 40
1.0
 40
1.0
 40
1.0
 40
2.0
 40
2.0
 40
2.0
 40
2.0
 10
126.0206810952025
 20
4.451237526131322
 30
0.0
 10
127.7459251354853
 20
4.364008693388588
 30
0.0
 10
129.1194073111853
 20
4.734092595273118
 30
0.0
 10
130.1411276223024
 20
5.561489231784915
 30
0.0
 10
131.046352726276
 20
6.294547191154392
 30
0.0
 10
131.6754578207564
 20
7.386578675912737
 30
0.0
 10
132.0284429057434
 20
8.83758368605995
 30
0.0
  0
SPLINE
  5
1C5
330
1F
100
AcDbEntity
  8
0
  6
K5LT32769
 62
    30
420
 16744448
100
AcDbSpline
210
0.0
220
0.0
230
1.0
 70
     8
 71
     3
 72
    17
 73
    13
 74
     0
 42
0.0
 43
0.0
 12
1.0
 22
0.0
 32
0.0
 13
1.0
 23
0.0
 33
0.0
 40
0.0
 40
0.0
 40
0.0
 40
0.0
 40
1.0
 40
1.0
 40
1.0
 40
2.0
 40
2.0
 40
2.0
 40
3.0
 40
3.0
 40
3.0
 40
4.0
 40
4.0
 40
4.0
 40
4.0
 10
132.0284429057434
 20
8.83758368605995
 30
0.0
 10
133.941856788757
 20
5.101770553058312
 30
0.0
 10
134.879579476756
 20
1.362749708505283
 30
0.0
 10
134.8416109697405
 20
-2.379478847599138
 30
0.0
 10
134.8075550035365
 20
-5.736081970862921
 30
0.0
 10
134.5587503894334
 20
-10.10924988785593
 30
0.0
 10
132.3845401290342
 20
-12.45703026672778
 30
0.0
 10
131.0800353264389
 20
-13.86567543571662
 30
0.0
 10
128.85246720232
 20
-15.70178873900635
 30
0.0
 10
127.0074720573437
 20
-15.59068583168651
 30
0.0
 10
125.7842692071442
 20
-15.5170263463111
 30
0.0
 10
124.5379289256265
 20
-14.93540088160285
 30
0.0
 10
123.2684512127906
 20
-13.84580943756176
 30
0.0
  0
SPLINE
  5
1C6
330
1F
100
AcDbEntity
  8
0
  6
K5LT32769
 62
    30
420
 16744448
100
AcDbSpline
210
0.0
220
0.0
230
1.0
 70
     8
 71
     3
 72
    32
 73
    28
 74
     0
 42
0.0
 43
0.0
 12
1.0
 22
0.0
 32
0.0
 13
1.0
 23
0.0
 33
0.0
 40
0.0
 40
0.0
 40
0.0
 40
0.0
 40
1.0
 40
1.0
 40
1.0
 40
2.0
 40
2.0
 40
2.0
 40
3.0
 40
3.0
 40
3.0
 40
4.0
 40
4.0
 40
4.0
 40
5.0
 40
5.0
 40
5.0
 40
6.0
 40
6.0
 40
6.0
 40
7.0
 40
7.0
 40
7.0
 40
8.0
 40
8.0
 40
8.0
 40
9.0
 40
9.0
 40
9.0
 40
9.0
 10
123.2684512127906
 20
-13.84580943756176
 30
0.0
 10
124.3002163578302
 20
-14.03770519116534
 30
0.0
 10
125.0836302490699
 20
-13.94274593162114
 30
0.0
 10
125.6186928865097
 20
-13.56093165892915
 30
0.0
 10
126.327383025112
 20
-13.05521888644119
 30
0.0
 10
126.5431053147314
 20
-11.42420343461037
 30
0.0
 10
126.4377165000785
 20
-10.53410526095765
 30
0.0
 10
126.2440225961253
 20
-8.898195504081295
 30
0.0
 10
123.6305280900478
 20
-7.303707244983624
 30
0.0
 10
122.022110931273
 20
-6.830694138733698
 30
0.0
 10
119.6582033905649
 20
-6.135501823346029
 30
0.0
 10
116.0596765587962
 20
-8.016551832606005
 30
0.0
 10
114.0455331295598
 20
-9.679471925059815
 30
0.0
 10
111.541876838368
 20
-11.74654435435528
 30
0.0
 10
110.165464189715
 20
-15.85635351255013
 30
0.0
 10
109.5230983937672
 20
-19.18726778692323
 30
0.0
 10
108.8520710333381
 20
-22.66680332173446
 30
0.0
 10
109.1920911208203
 20
-26.78223890077229
 30
0.0
 10
110.3421220073359
 20
-30.15506226427878
 30
0.0
 10
111.3466458749365
 20
-33.10114102578805
 30
0.0
 10
113.3779951578254
 20
-35.87150136710621
 30
0.0
 10
115.3630928557357
 20
-38.34529839996637
 30
0.0
 10
117.7325431152456
 20
-41.29806945383224
 30
0.0
 10
120.7792813313695
 20
-43.79014563793532
 30
0.0
 10
123.8025970477268
 20
-46.10821786770505
 30
0.0
 10
126.2842538536868
 20
-48.01098299891208
 30
0.0
 10
128.9075033985955
 20
-49.73211957815077
 30
0.0
 10
131.6723456824527
 20
-51.27162760542114
 30
0.0
  0
SPLINE
  5
1C7
330
1F
100
AcDbEntity
  8
0
  6
K5LT32769
 62
    30
420
 16744448
100
AcDbSpline
210
0.0
220
0.0
230
1.0
 70
     8
 71
     3
 72
    11
 73
     7
 74
     0
 42
0.0
 43
0.0
 12
1.0
 22
0.0
 32
0.0
 13
1.0
 23
0.0
 33
0.0
 40
0.0
 40
0.0
 40
0.0
 40
0.0
 40
1.0
 40
1.0
 40
1.0
 40
2.0
 40
2.0
 40
2.0
 40
2.0
 10
144.5535177012296
 20
-6.806359999880964
 30
0.0
 10
144.2716419015024
 20
-8.732786979229392
 30
0.0
 10
143.6433085780331
 20
-10.43018374358204
 30
0.0
 10
142.6685177308219
 20
-11.89855029293891
 30
0.0
 10
141.7098142493141
 20
-13.34268379811623
 30
0.0
 10
140.4159943380243
 20
-14.56528426474786
 30
0.0
 10
138.7870579969525
 20
-15.56635169283378
 30
0.0
  0
SPLINE
  5
1C8
330
1F
100
AcDbEntity
  8
0
  6
K5LT32769
 62
    30
420
 16744448
100
AcDbSpline
210
0.0
220
0.0
230
1.0
 70
     8
 71
     3
 72
    11
 73
     7
 74
     0
 42
0.0
 43
0.0
 12
1.0
 22
0.0
 32
0.0
 13
1.0
 23
0.0
 33
0.0
 40
0.0
 40
0.0
 40
0.0
 40
0.0
 40
1.0
 40
1.0
 40
1.0
 40
2.0
 40
2.0
 40
2.0
 40
2.0
 10
138.7870579969525
 20
-15.56635169283378
 30
0.0
 10
140.1515807582063
 20
-15.17752971598842
 30
0.0
 10
141.3267015950658
 20
-15.2131394383175
 30
0.0
 10
142.3124205075311
 20
-15.67318085982101
 30
0.0
 10
143.2200258068652
 20
-16.09676615050544
 30
0.0
 10
143.9670582047647
 20
-16.88018004174512
 30
0.0
 10
144.5535177012297
 20
-18.02342253354006
 30
0.0
  0
LINE
  5
1C9
330
1F
100
AcDbEntity
  8
0
  6
K5LT32769
 62
    30
420
 16744448
100
AcDbLine
 10
144.5535177012296
 20
2.483208396132049
 30
0.0
 11
144.5535177012296
 21
36.79911057525334
 31
0.0
  0
SPLINE
  5
1CA
330
1F
100
AcDbEntity
  8
0
  6
K5LT32769
 62
    30
420
 16744448
100
AcDbSpline
210
0.0
220
0.0
230
1.0
 70
     8
 71
     3
 72
    14
 73
    10
 74
     0
 42
0.0
 43
0.0
 12
1.0
 22
0.0
 32
0.0
 13
1.0
 23
0.0
 33
0.0
 40
0.0
 40
0.0
 40
0.0
 40
0.0
 40
1.0
 40
1.0
 40
1.0
 40
2.0
 40
2.0
 40
2.0
 40
3.0
 40
3.0
 40
3.0
 40
3.0
 10
132.9729858169196
 20
-18.80085593068478
 30
0.0
 10
130.3848636780631
 20
-20.05494728578477
 30
0.0
 10
127.9776463529634
 20
-20.4252884127232
 30
0.0
 10
125.7513338416203
 20
-19.91187931150007
 30
0.0
 10
123.8039448299739
 20
-19.46279265492912
 30
0.0
 10
121.3586752230512
 20
-18.21148174312704
 30
0.0
 10
120.3244119430225
 20
-16.53607750056131
 30
0.0
 10
119.5661126406224
 20
-15.30770761360124
 30
0.0
 10
119.2242592926793
 20
-13.78361143735463
 30
0.0
 10
119.298851899193
 20
-11.96378897182148
 30
0.0
  0
SPLINE
  5
1CB
330
1F
100
AcDbEntity
  8
0
  6
K5LT32769
 62
    30
420
 16744448
100
AcDbSpline
210
0.0
220
0.0
230
1.0
 70
     8
 71
     3
 72
    14
 73
    10
 74
     0
 42
0.0
 43
0.0
 12
1.0
 22
0.0
 32
0.0
 13
1.0
 23
0.0
 33
0.0
 40
0.0
 40
0.0
 40
0.0
 40
0.0
 40
1.0
 40
1.0
 40
1.0
 40
2.0
 40
2.0
 40
2.0
 40
3.0
 40
3.0
 40
3.0
 40
3.0
 10
119.298851899193
 20
-11.96378897182148
 30
0.0
 10
117.6997463699612
 20
-13.45740790062378
 30
0.0
 10
116.6267069623803
 20
-15.07408919870964
 30
0.0
 10
116.0797336764501
 20
-16.81383286607904
 30
0.0
 10
115.2567452541205
 20
-19.43149068026512
 30
0.0
 10
116.0237777890917
 20
-22.88267491789973
 30
0.0
 10
117.1836350686515
 20
-25.5026051143737
 30
0.0
 10
117.7020302554299
 20
-26.67357608423578
 30
0.0
 10
118.3786149796824
 20
-27.78934738388017
 30
0.0
 10
119.2133892414088
 20
-28.84991901330689
 30
0.0
  0
SPLINE
  5
1CC
330
1F
100
AcDbEntity
  8
0
  6
K5LT32769
 62
    30
420
 16744448
100
AcDbSpline
210
0.0
220
0.0
230
1.0
 70
     8
 71
     3
 72
    11
 73
     7
 74
     0
 42
0.0
 43
0.0
 12
1.0
 22
0.0
 32
0.0
 13
1.0
 23
0.0
 33
0.0
 40
0.0
 40
0.0
 40
0.0
 40
0.0
 40
1.0
 40
1.0
 40
1.0
 40
2.0
 40
2.0
 40
2.0
 40
2.0
 10
119.2133892414088
 20
-28.84991901330689
 30
0.0
 10
118.7382751498579
 20
-27.166878109581
 30
0.0
 10
118.762014964744
 20
-25.65939986431676
 30
0.0
 10
119.284608686067
 20
-24.32748427751417
 30
0.0
 10
119.7068111916303
 20
-23.25143212647928
 30
0.0
 10
120.4546153605409
 20
-22.28996962359421
 30
0.0
 10
121.5280211927988
 20
-21.44309676885898
 30
0.0
  0
SPLINE
  5
1CD
330
1F
100
AcDbEntity
  8
0
  6
K5LT32769
 62
    30
420
 16744448
100
AcDbSpline
210
0.0
220
0.0
230
1.0
 70
     8
 71
     3
 72
    14
 73
    10
 74
     0
 42
0.0
 43
0.0
 12
1.0
 22
0.0
 32
0.0
 13
1.0
 23
0.0
 33
0.0
 40
0.0
 40
0.0
 40
0.0
 40
0.0
 40
1.0
 40
1.0
 40
1.0
 40
2.0
 40
2.0
 40
2.0
 40
3.0
 40
3.0
 40
3.0
 40
3.0
 10
121.5280211927988
 20
-21.44309676885898
 30
0.0
 10
121.2878772536408
 20
-23.85261596361302
 30
0.0
 10
121.5490152173874
 20
-26.04854884057273
 30
0.0
 10
122.3114350840385
 20
-28.03089539973813
 30
0.0
 10
123.2855270043062
 20
-30.56360454192683
 30
0.0
 10
125.3645923078731
 20
-33.097567620615
 30
0.0
 10
127.688503155729
 20
-34.5830843082882
 30
0.0
 10
128.8205726276004
 20
-35.30673861439975
 30
0.0
 10
130.0787828165611
 20
-35.86462426422194
 30
0.0
 10
131.4631337226111
 20
-36.25674125775479
 30
0.0
  0
SPLINE
  5
1CE
330
1F
100
AcDbEntity
  8
0
  6
K5LT32769
 62
    30
420
 16744448
100
AcDbSpline
210
0.0
220
0.0
230
1.0
 70
     8
 71
     3
 72
    14
 73
    10
 74
     0
 42
0.0
 43
0.0
 12
1.0
 22
0.0
 32
0.0
 13
1.0
 23
0.0
 33
0.0
 40
0.0
 40
0.0
 40
0.0
 40
0.0
 40
1.0
 40
1.0
 40
1.0
 40
2.0
 40
2.0
 40
2.0
 40
3.0
 40
3.0
 40
3.0
 40
3.0
 10
132.9729858169196
 20
-18.80085593068478
 30
0.0
 10
130.9747222862368
 20
-21.03905052852397
 30
0.0
 10
129.7592438082191
 20
-23.42727571984627
 30
0.0
 10
129.3265503828665
 20
-25.96553150465169
 30
0.0
 10
128.9512215221065
 20
-28.16727665770652
 30
0.0
 10
129.2724061564477
 20
-30.72087707897796
 30
0.0
 10
129.9675253847899
 20
-32.9094273588216
 30
0.0
 10
130.3329814827865
 20
-34.06004873847828
 30
0.0
 10
130.8315175953935
 20
-35.17582003812267
 30
0.0
 10
131.4631337226111
 20
-36.25674125775479
 30
0.0
  0
SPLINE
  5
1CF
330
1F
100
AcDbEntity
  8
0
  6
K5LT32769
 62
    30
420
 16744448
100
AcDbSpline
210
0.0
220
0.0
230
1.0
 70
     8
 71
     3
 72
    20
 73
    16
 74
     0
 42
0.0
 43
0.0
 12
1.0
 22
0.0
 32
0.0
 13
1.0
 23
0.0
 33
0.0
 40
0.0
 40
0.0
 40
0.0
 40
0.0
 40
1.0
 40
1.0
 40
1.0
 40
2.0
 40
2.0
 40
2.0
 40
3.0
 40
3.0
 40
3.0
 40
4.0
 40
4.0
 40
4.0
 40
5.0
 40
5.0
 40
5.0
 40
5.0
 10
142.0036115320177
 20
-20.87334121159375
 30
0.0
 10
141.4741779163218
 20
-19.71049109403575
 30
0.0
 10
140.8213330069554
 20
-18.98642674001119
 30
0.0
 10
140.0450768039186
 20
-18.70114814952009
 30
0.0
 10
139.0492977962637
 20
-18.33519367388039
 30
0.0
 10
137.4165146326616
 20
-19.13238594459307
 30
0.0
 10
136.4484948486818
 20
-19.76943981939239
 30
0.0
 10
134.8292821255165
 20
-20.83504380444315
 30
0.0
 10
133.9941196958381
 20
-23.34916379822606
 30
0.0
 10
133.5284976176976
 20
-25.32455650272831
 30
0.0
 10
133.0899176338305
 20
-27.18522364276488
 30
0.0
 10
133.2152675704278
 20
-29.32400361322311
 30
0.0
 10
133.5641073400266
 20
-31.23577040935501
 30
0.0
 10
133.8804649629345
 20
-32.9695234154244
 30
0.0
 10
134.4739603350858
 20
-34.65505027233402
 30
0.0
 10
135.3445934564805
 20
-36.29235098008387
 30
0.0
  0
SPLINE
  5
1D0
330
1F
100
AcDbEntity
  8
0
  6
K5LT32769
 62
    30
420
 16744448
100
AcDbSpline
210
0.0
220
0.0
230
1.0
 70
     8
 71
     3
 72
    20
 73
    16
 74
     0
 42
0.0
 43
0.0
 12
1.0
 22
0.0
 32
0.0
 13
1.0
 23
0.0
 33
0.0
 40
0.0
 40
0.0
 40
0.0
 40
0.0
 40
1.0
 40
1.0
 40
1.0
 40
2.0
 40
2.0
 40
2.0
 40
3.0
 40
3.0
 40
3.0
 40
4.0
 40
4.0
 40
4.0
 40
5.0
 40
5.0
 40
5.0
 40
5.0
 10
142.0036115320177
 20
-20.87334121159375
 30
0.0
 10
140.5858124592279
 20
-20.2889384885858
 30
0.0
 10
139.4700411595835
 20
-20.18210932159857
 30
0.0
 10
138.6562976330846
 20
-20.55285371063207
 30
0.0
 10
137.4923053603657
 20
-21.08317265012101
 30
0.0
 10
136.7441334209903
 20
-23.72970965002973
 30
0.0
 10
137.0182504059471
 20
-25.07528844642478
 30
0.0
 10
137.2869042294033
 20
-26.39404980836704
 30
0.0
 10
138.8892505796873
 20
-28.4273596397383
 30
0.0
 10
140.1875156932349
 20
-28.56504123467428
 30
0.0
 10
141.0817254081347
 20
-28.6598725741826
 30
0.0
 10
142.4895426745056
 20
-28.07668472333232
 30
0.0
 10
143.2143420912064
 20
-27.38992039781475
 30
0.0
 10
143.9677505452163
 20
-26.67604834323651
 30
0.0
 10
144.414142415224
 20
-25.64336639569329
 30
0.0
 10
144.5535177012296
 20
-24.2918745551851
 30
0.0
  0
LINE
  5
1D1
330
1F
100
AcDbEntity
  8
0
  6
K5LT32769
 62
    30
420
 16744448
100
AcDbLine
 10
144.5535177012296
 20
-18.02342250885165
 30
0.0
 11
144.5535177012296
 21
-6.806359999880961
 31
0.0
  0
SPLINE
  5
1D2
330
1F
100
AcDbEntity
  8
0
  6
K5LT32769
 62
    30
420
 16744448
100
AcDbSpline
210
0.0
220
0.0
230
1.0
 70
     8
 71
     3
 72
    11
 73
     7
 74
     0
 42
0.0
 43
0.0
 12
1.0
 22
0.0
 32
0.0
 13
1.0
 23
0.0
 33
0.0
 40
0.0
 40
0.0
 40
0.0
 40
0.0
 40
1.0
 40
1.0
 40
1.0
 40
2.0
 40
2.0
 40
2.0
 40
2.0
 10
135.3445934564805
 20
-36.29235098008387
 30
0.0
 10
135.2773162528792
 20
-34.87375137518229
 30
0.0
 10
135.5523026522611
 20
-33.66895560816901
 30
0.0
 10
136.1695526546263
 20
-32.67796367904402
 30
0.0
 10
136.7914696022718
 20
-31.67947899157352
 30
0.0
 10
137.7608453382661
 20
-30.89804344929247
 30
0.0
 10
139.077679862609
 20
-30.33365705220086
 30
0.0
  0
SPLINE
  5
1D3
330
1F
100
AcDbEntity
  8
0
  6
K5LT32769
 62
    30
420
 16744448
100
AcDbSpline
210
0.0
220
0.0
230
1.0
 70
     8
 71
     3
 72
    17
 73
    13
 74
     0
 42
0.0
 43
0.0
 12
1.0
 22
0.0
 32
0.0
 13
1.0
 23
0.0
 33
0.0
 40
0.0
 40
0.0
 40
0.0
 40
0.0
 40
1.0
 40
1.0
 40
1.0
 40
2.0
 40
2.0
 40
2.0
 40
3.0
 40
3.0
 40
3.0
 40
4.0
 40
4.0
 40
4.0
 40
4.0
 10
139.077679862609
 20
-30.33365705220086
 30
0.0
 10
138.1313220930069
 20
-32.33758368721308
 30
0.0
 10
137.6557340102594
 20
-34.32341925539953
 30
0.0
 10
137.6509156143665
 20
-36.29116375676022
 30
0.0
 10
137.6444530929713
 20
-38.93033895591594
 30
0.0
 10
139.3912835356137
 20
-41.48664154693311
 30
0.0
 10
140.1720840554474
 20
-44.11105909096013
 30
0.0
 10
140.8922385796766
 20
-46.53163402628445
 30
0.0
 10
142.126813677166
 20
-48.92462193108421
 30
0.0
 10
142.1804724746135
 20
-51.41817440324528
 30
0.0
 10
142.2029363776049
 20
-52.46208376207068
 30
0.0
 10
142.1174730406191
 20
-53.51613158489543
 30
0.0
 10
141.9240824636561
 20
-54.58031787171956
 30
0.0
  0
SPLINE
  5
1D4
330
1F
100
AcDbEntity
  8
0
  6
K5LT32769
 62
    30
420
 16744448
100
AcDbSpline
210
0.0
220
0.0
230
1.0
 70
     8
 71
     3
 72
    11
 73
     7
 74
     0
 42
0.0
 43
0.0
 12
1.0
 22
0.0
 32
0.0
 13
1.0
 23
0.0
 33
0.0
 40
0.0
 40
0.0
 40
0.0
 40
0.0
 40
1.0
 40
1.0
 40
1.0
 40
2.0
 40
2.0
 40
2.0
 40
2.0
 10
131.6723456824527
 20
-51.27162760542114
 30
0.0
 10
130.0551977684835
 20
-50.70090344841446
 30
0.0
 10
128.4585942590515
 20
-50.47911848056751
 30
0.0
 10
126.8825351541568
 20
-50.60627270188026
 30
0.0
 10
125.6158014018554
 20
-50.70847099088112
 30
0.0
 10
124.3623391260638
 20
-51.03608044932666
 30
0.0
 10
123.122148326782
 20
-51.58910107721686
 30
0.0
  0
SPLINE
  5
1D5
330
1F
100
AcDbEntity
  8
0
  6
K5LT32769
 62
    30
420
 16744448
100
AcDbSpline
210
0.0
220
0.0
230
1.0
 70
     8
 71
     3
 72
    29
 73
    25
 74
     0
 42
0.0
 43
0.0
 12
1.0
 22
0.0
 32
0.0
 13
1.0
 23
0.0
 33
0.0
 40
0.0
 40
0.0
 40
0.0
 40
0.0
 40
1.0
 40
1.0
 40
1.0
 40
2.0
 40
2.0
 40
2.0
 40
3.0
 40
3.0
 40
3.0
 40
4.0
 40
4.0
 40
4.0
 40
5.0
 40
5.0
 40
5.0
 40
6.0
 40
6.0
 40
6.0
 40
7.0
 40
7.0
 40
7.0
 40
8.0
 40
8.0
 40
8.0
 40
8.0
 10
123.122148326782
 20
-51.58910107721686
 30
0.0
 10
125.3101040341856
 20
-52.14600868777963
 30
0.0
 10
127.121926500491
 20
-53.05761772090432
 30
0.0
 10
128.557615725698
 20
-54.32392817659092
 30
0.0
 10
130.9692508588906
 20
-56.45104505595783
 30
0.0
 10
132.4603994981048
 20
-60.54237371419144
 30
0.0
 10
132.6085780597952
 20
-63.70780295051247
 30
0.0
 10
132.76895057852
 20
-67.13372269006585
 30
0.0
 10
131.3251669308875
 20
-72.02351645619059
 30
0.0
 10
128.8652837510724
 20
-74.1172378090156
 30
0.0
 10
126.5524587732835
 20
-76.08579106434046
 30
0.0
 10
121.852795927046
 20
-77.0263789350247
 30
0.0
 10
118.7122389137147
 20
-76.3734699950951
 30
0.0
 10
116.0402362609258
 20
-75.81797158761009
 30
0.0
 10
112.3506488006363
 20
-73.9406726418942
 30
0.0
 10
111.2256502962691
 20
-71.65589360601979
 30
0.0
 10
110.1812865879375
 20
-69.53487718034367
 30
0.0
 10
110.0546636636948
 20
-65.0797361079979
 30
0.0
 10
111.6358743301017
 20
-63.45141292936707
 30
0.0
 10
112.7564396406782
 20
-62.29746013411579
 30
0.0
 10
115.4885851078906
 20
-61.31853690400635
 30
0.0
 10
117.1738987868423
 20
-61.65668278134929
 30
0.0
 10
118.6881299374645
 20
-61.9605021992547
 30
0.0
 10
120.0726360516496
 20
-63.02024761998901
 30
0.0
 10
121.3274171293978
 20
-64.83591904355222
 30
0.0
  0
SPLINE
  5
1D6
330
1F
100
AcDbEntity
  8
0
  6
K5LT32769
 62
    30
420
 16744448
100
AcDbSpline
210
0.0
220
0.0
230
1.0
 70
     8
 71
     3
 72
    47
 73
    43
 74
     0
 42
0.0
 43
0.0
 12
1.0
 22
0.0
 32
0.0
 13
1.0
 23
0.0
 33
0.0
 40
0.0
 40
0.0
 40
0.0
 40
0.0
 40
1.0
 40
1.0
 40
1.0
 40
2.0
 40
2.0
 40
2.0
 40
3.0
 40
3.0
 40
3.0
 40
4.0
 40
4.0
 40
4.0
 40
5.0
 40
5.0
 40
5.0
 40
6.0
 40
6.0
 40
6.0
 40
7.0
 40
7.0
 40
7.0
 40
8.0
 40
8.0
 40
8.0
 40
9.0
 40
9.0
 40
9.0
 40
10.0
 40
10.0
 40
10.0
 40
11.0
 40
11.0
 40
11.0
 40
12.0
 40
12.0
 40
12.0
 40
13.0
 40
13.0
 40
13.0
 40
14.0
 40
14.0
 40
14.0
 40
14.0
 10
121.3274171293978
 20
-64.83591904355222
 30
0.0
 10
119.6940123230932
 20
-64.03123359506472
 30
0.0
 10
118.3026686469471
 20
-63.82270330453149
 30
0.0
 10
117.1533861009593
 20
-64.21032817195257
 30
0.0
 10
115.7425296979343
 20
-64.68617549781857
 30
0.0
 10
114.0699451773041
 20
-66.89196355856059
 30
0.0
 10
114.0151721174383
 20
-68.33307987579398
 30
0.0
 10
113.9650671182077
 20
-69.65137635481089
 30
0.0
 10
115.2582673193036
 20
-71.68785073828636
 30
0.0
 10
116.3534492031991
 20
-72.4558315796354
 30
0.0
 10
118.0101763404942
 20
-73.61758810564744
 30
0.0
 10
121.9550839295214
 20
-73.00639804696748
 30
0.0
 10
123.4913476755215
 20
-71.77896189691518
 30
0.0
 10
125.1449391867235
 20
-70.4577838091334
 30
0.0
 10
125.879069655339
 20
-66.5256525978711
 30
0.0
 10
125.5219567236822
 20
-64.3333953869926
 30
0.0
 10
125.0003003218626
 20
-61.13103303292027
 30
0.0
 10
120.3498472953203
 20
-57.21098855061016
 30
0.0
 10
117.3379869235194
 20
-56.58016083946993
 30
0.0
 10
113.7427829229514
 20
-55.82715305332068
 30
0.0
 10
107.5626462405139
 20
-59.42369563890313
 30
0.0
 10
105.3389334571153
 20
-62.67198798395204
 30
0.0
 10
103.1211102039689
 20
-65.91167718736449
 30
0.0
 10
102.7213685330011
 20
-72.17027490311759
 30
0.0
 10
103.9851940916748
 20
-76.02478081579663
 30
0.0
 10
105.3497302565783
 20
-80.18644116487576
 30
0.0
 10
110.1040979422839
 20
-84.14859218719874
 30
0.0
 10
114.0767057249583
 20
-86.42396048668022
 30
0.0
 10
119.3443103860116
 20
-89.44105689177579
 30
0.0
 10
126.912533984168
 20
-89.85819886732914
 30
0.0
 10
133.0905904486449
 20
-89.19297282508117
 30
0.0
 10
138.935846271444
 20
-88.56358129729479
 30
0.0
 10
144.2924842531103
 20
-84.1252491504753
 30
0.0
 10
150.1969333392107
 20
-83.03961207307906
 30
0.0
 10
154.3234149621996
 20
-82.28088566460568
 30
0.0
 10
158.8389790543604
 20
-81.47707362261455
 30
0.0
 10
162.8728564883351
 20
-82.17814156779875
 30
0.0
 10
167.5388959790991
 20
-82.98907615157836
 30
0.0
 10
172.0016136747464
 20
-85.95050084035087
 30
0.0
 10
176.1025821051396
 20
-88.57763674988095
 30
0.0
 10
179.4599562147206
 20
-90.72841606816047
 30
0.0
 10
182.610268080084
 20
-93.210271571468
 30
0.0
 10
185.5535177012296
 20
-96.02320325980354
 30
0.0
  0
SPLINE
  5
1D7
330
1F
100
AcDbEntity
  8
0
  6
K5LT32769
 62
    30
420
 16744448
100
AcDbSpline
210
0.0
220
0.0
230
1.0
 70
     8
 71
     3
 72
    17
 73
    13
 74
     0
 42
0.0
 43
0.0
 12
1.0
 22
0.0
 32
0.0
 13
1.0
 23
0.0
 33
0.0
 40
0.0
 40
0.0
 40
0.0
 40
0.0
 40
1.0
 40
1.0
 40
1.0
 40
2.0
 40
2.0
 40
2.0
 40
3.0
 40
3.0
 40
3.0
 40
4.0
 40
4.0
 40
4.0
 40
4.0
 10
141.535557615725
 20
-59.30988728747759
 30
0.0
 10
141.2562978447706
 20
-63.35840435558047
 30
0.0
 10
140.2512489219436
 20
-67.0093984017684
 30
0.0
 10
138.520410847244
 20
-70.26286942604136
 30
0.0
 10
136.6019990803989
 20
-73.86892431198889
 30
0.0
 10
133.620805550172
 20
-77.97645355321195
 30
0.0
 10
130.0903066170011
 20
-79.6159777690846
 30
0.0
 10
126.8733873420594
 20
-81.10987909906952
 30
0.0
 10
122.2422351712196
 20
-81.27001156988712
 30
0.0
 10
118.6450556182771
 20
-80.41591466684486
 30
0.0
 10
116.0047859038877
 20
-79.78902180451564
 30
0.0
 10
113.4819079955669
 20
-78.55834965411523
 30
0.0
 10
111.0764218933145
 20
-76.72389821564359
 30
0.0
  0
SPLINE
  5
1D8
330
1F
100
AcDbEntity
  8
0
  6
K5LT32769
 62
    30
420
 16744448
100
AcDbSpline
210
0.0
220
0.0
230
1.0
 70
     8
 71
     3
 72
    20
 73
    16
 74
     0
 42
0.0
 43
0.0
 12
1.0
 22
0.0
 32
0.0
 13
1.0
 23
0.0
 33
0.0
 40
0.0
 40
0.0
 40
0.0
 40
0.0
 40
1.0
 40
1.0
 40
1.0
 40
2.0
 40
2.0
 40
2.0
 40
3.0
 40
3.0
 40
3.0
 40
4.0
 40
4.0
 40
4.0
 40
5.0
 40
5.0
 40
5.0
 40
5.0
 10
111.0764218933145
 20
-76.72389821564359
 30
0.0
 10
112.2738304464995
 20
-78.25566163877218
 30
0.0
 10
113.6138963792299
 20
-79.51026312673905
 30
0.0
 10
115.096619691506
 20
-80.4877026795442
 30
0.0
 10
118.3917444317945
 20
-82.65991190153366
 30
0.0
 10
123.2263707758665
 20
-83.44347829551083
 30
0.0
 10
127.0956726811106
 20
-82.89776887831094
 30
0.0
 10
129.9888594263379
 20
-82.48972647395664
 30
0.0
 10
133.2073197739761
 20
-81.2498300314333
 30
0.0
 10
135.5565433789087
 20
-79.41086459073352
 30
0.0
 10
136.9538762471669
 20
-78.31703646450268
 30
0.0
 10
138.610361937951
 20
-77.04365571762497
 30
0.0
 10
139.2485596834024
 20
-75.41118026086534
 30
0.0
 10
139.5669214098133
 20
-74.59682811305271
 30
0.0
 10
139.737848090577
 20
-73.70800937308199
 30
0.0
 10
139.7613397256932
 20
-72.7447240409532
 30
0.0
  0
SPLINE
  5
1D9
330
1F
100
AcDbEntity
  8
0
  6
K5LT32769
 62
    30
420
 16744448
100
AcDbSpline
210
0.0
220
0.0
230
1.0
 70
     8
 71
     3
 72
    11
 73
     7
 74
     0
 42
0.0
 43
0.0
 12
1.0
 22
0.0
 32
0.0
 13
1.0
 23
0.0
 33
0.0
 40
0.0
 40
0.0
 40
0.0
 40
0.0
 40
1.0
 40
1.0
 40
1.0
 40
2.0
 40
2.0
 40
2.0
 40
2.0
 10
139.7613397256932
 20
-72.7447240409532
 30
0.0
 10
140.2924640678683
 20
-73.49386337448273
 30
0.0
 10
140.6172247613191
 20
-74.26303343791892
 30
0.0
 10
140.7356218060457
 20
-75.05223423126176
 30
0.0
 10
140.901527174801
 20
-76.15811190704144
 30
0.0
 10
140.6622298217319
 20
-77.30332066815755
 30
0.0
 10
140.0177297468386
 20
-78.4878605146101
 30
0.0
  0
SPLINE
  5
1DA
330
1F
100
AcDbEntity
  8
0
  6
K5LT32769
 62
    30
420
 16744448
100
AcDbSpline
210
0.0
220
0.0
230
1.0
 70
     8
 71
     3
 72
    17
 73
    13
 74
     0
 42
0.0
 43
0.0
 12
1.0
 22
0.0
 32
0.0
 13
1.0
 23
0.0
 33
0.0
 40
0.0
 40
0.0
 40
0.0
 40
0.0
 40
1.0
 40
1.0
 40
1.0
 40
2.0
 40
2.0
 40
2.0
 40
3.0
 40
3.0
 40
3.0
 40
4.0
 40
4.0
 40
4.0
 40
4.0
 10
140.0177297468386
 20
-78.4878605146101
 30
0.0
 10
143.8331671650806
 20
-76.56604343603907
 30
0.0
 10
146.5850867253746
 20
-74.03632856073781
 30
0.0
 10
148.2734884277204
 20
-70.89871588870633
 30
0.0
 10
149.7105274944833
 20
-68.22821870796135
 30
0.0
 10
151.0686859966095
 20
-64.44279301269628
 30
0.0
 10
150.2733305926545
 20
-61.56611911901386
 30
0.0
 10
149.8328716593273
 20
-59.97304926817613
 30
0.0
 10
149.0142527733742
 20
-57.82199116729716
 30
0.0
 10
147.6068743727424
 20
-57.00237674262578
 30
0.0
 10
146.771701144517
 20
-56.51599722689242
 30
0.0
 10
145.7539155873461
 20
-56.27669987382338
 30
0.0
 10
144.5535177012296
 20
-56.28448468341867
 30
0.0
  0
SPLINE
  5
1DB
330
1F
100
AcDbEntity
  8
0
  6
K5LT32769
 62
    30
420
 16744448
100
AcDbSpline
210
0.0
220
0.0
230
1.0
 70
     8
 71
     3
 72
    17
 73
    13
 74
     0
 42
0.0
 43
0.0
 12
1.0
 22
0.0
 32
0.0
 13
1.0
 23
0.0
 33
0.0
 40
0.0
 40
0.0
 40
0.0
 40
0.0
 40
1.0
 40
1.0
 40
1.0
 40
2.0
 40
2.0
 40
2.0
 40
3.0
 40
3.0
 40
3.0
 40
4.0
 40
4.0
 40
4.0
 40
4.0
 10
144.5535177012296
 20
-56.28448468341867
 30
0.0
 10
145.6479690635265
 20
-56.74556728801804
 30
0.0
 10
146.3324478631911
 20
-57.34950807163173
 30
0.0
 10
146.6069541002232
 20
-58.09630703425973
 30
0.0
 10
146.8985106595686
 20
-58.88949169345228
 30
0.0
 10
146.6526048273538
 20
-60.44894468334889
 30
0.0
 10
146.0941740783085
 20
-60.95932882328374
 30
0.0
 10
145.5029565041224
 20
-61.49967885528169
 30
0.0
 10
143.832788870629
 20
-61.51930925146895
 30
0.0
 10
143.01749394682
 20
-61.08752382876243
 30
0.0
 10
142.4047469970678
 20
-60.7630091126953
 30
0.0
 10
141.9107682200361
 20
-60.17046359893369
 30
0.0
 10
141.535557615725
 20
-59.30988728747759
 30
0.0
  0
SPLINE
  5
1DC
330
1F
100
AcDbEntity
  8
0
  6
K5LT32769
 62
    30
420
 16744448
100
AcDbSpline
210
0.0
220
0.0
230
1.0
 70
     8
 71
     3
 72
    17
 73
    13
 74
     0
 42
0.0
 43
0.0
 12
1.0
 22
0.0
 32
0.0
 13
1.0
 23
0.0
 33
0.0
 40
0.0
 40
0.0
 40
0.0
 40
0.0
 40
1.0
 40
1.0
 40
1.0
 40
2.0
 40
2.0
 40
2.0
 40
3.0
 40
3.0
 40
3.0
 40
4.0
 40
4.0
 40
4.0
 40
4.0
 10
141.9240824636561
 20
-54.58031787171956
 30
0.0
 10
143.1824534342379
 20
-53.42372963281722
 30
0.0
 10
144.4727767459719
 20
-52.74402038563848
 30
0.0
 10
145.7950523988582
 20
-52.5411901301833
 30
0.0
 10
147.7479846649312
 20
-52.2416204076753
 30
0.0
 10
150.4691377363223
 20
-53.42048764499803
 30
0.0
 10
151.8629493248494
 20
-54.76323689181388
 30
0.0
 10
153.5069907951829
 20
-56.3470488389919
 30
0.0
 10
153.8469491858834
 20
-59.55294611673497
 30
0.0
 10
154.1704594234657
 20
-62.02762053560613
 30
0.0
 10
154.5340868717897
 20
-64.80916943214699
 30
0.0
 10
154.3346724188229
 20
-67.65794733167334
 30
0.0
 10
153.5722160645652
 20
-70.57395423418525
 30
0.0
  0
SPLINE
  5
1DD
330
1F
100
AcDbEntity
  8
0
  6
K5LT32769
 62
    30
420
 16744448
100
AcDbSpline
210
0.0
220
0.0
230
1.0
 70
     8
 71
     3
 72
    11
 73
     7
 74
     0
 42
0.0
 43
0.0
 12
1.0
 22
0.0
 32
0.0
 13
1.0
 23
0.0
 33
0.0
 40
0.0
 40
0.0
 40
0.0
 40
0.0
 40
1.0
 40
1.0
 40
1.0
 40
2.0
 40
2.0
 40
2.0
 40
2.0
 10
153.5722160645652
 20
-70.57395423418525
 30
0.0
 10
154.9640634740486
 20
-67.91323679304028
 30
0.0
 10
155.7759651754136
 20
-65.20689778849024
 30
0.0
 10
156.0079211686603
 20
-62.45493722053509
 30
0.0
 10
156.2521777561909
 20
-59.5570405637635
 30
0.0
 10
155.8533488502572
 20
-56.6085554377537
 30
0.0
 10
154.8114344508592
 20
-53.60948184250569
 30
0.0
  0
SPLINE
  5
1DE
330
1F
100
AcDbEntity
  8
0
  6
K5LT32769
 62
    30
420
 16744448
100
AcDbSpline
210
0.0
220
0.0
230
1.0
 70
     8
 71
     3
 72
    11
 73
     7
 74
     0
 42
0.0
 43
0.0
 12
1.0
 22
0.0
 32
0.0
 13
1.0
 23
0.0
 33
0.0
 40
0.0
 40
0.0
 40
0.0
 40
0.0
 40
1.0
 40
1.0
 40
1.0
 40
2.0
 40
2.0
 40
2.0
 40
2.0
 10
154.8114344508592
 20
-53.60948184250569
 30
0.0
 10
156.6342839471558
 20
-54.05307310902337
 30
0.0
 10
157.901990112445
 20
-54.90770647888128
 30
0.0
 10
158.6145529467269
 20
-56.17338195207942
 30
0.0
 10
158.9547459986111
 20
-56.77764305188302
 30
0.0
 10
159.1684043410756
 20
-57.47559363726699
 30
0.0
 10
159.2555279741203
 20
-58.26723370823131
 30
0.0
  0
SPLINE
  5
1DF
330
1F
100
AcDbEntity
  8
0
  6
K5LT32769
 62
    30
420
 16744448
100
AcDbSpline
210
0.0
220
0.0
230
1.0
 70
     8
 71
     3
 72
    14
 73
    10
 74
     0
 42
0.0
 43
0.0
 12
1.0
 22
0.0
 32
0.0
 13
1.0
 23
0.0
 33
0.0
 40
0.0
 40
0.0
 40
0.0
 40
0.0
 40
1.0
 40
1.0
 40
1.0
 40
2.0
 40
2.0
 40
2.0
 40
3.0
 40
3.0
 40
3.0
 40
3.0
 10
159.2555279741203
 20
-58.26723370823131
 30
0.0
 10
159.8942346451137
 20
-55.76861126379887
 30
0.0
 10
160.9577785489772
 20
-53.59404388572984
 30
0.0
 10
162.4461596857109
 20
-51.7435315740242
 30
0.0
 10
163.5940949218436
 20
-50.31629749057837
 30
0.0
 10
165.0378648420777
 20
-48.91443063633123
 30
0.0
 10
166.648106920542
 20
-48.04012045180025
 30
0.0
 10
167.83913059261
 20
-47.39343251559894
 30
0.0
 10
169.1448204113428
 20
-46.9437844666082
 30
0.0
 10
170.5651763767404
 20
-46.69117630482804
 30
0.0
  0
SPLINE
  5
1E0
330
1F
100
AcDbEntity
  8
0
  6
K5LT32769
 62
    30
420
 16744448
100
AcDbSpline
210
0.0
220
0.0
230
1.0
 70
     8
 71
     3
 72
    20
 73
    16
 74
     0
 42
0.0
 43
0.0
 12
1.0
 22
0.0
 32
0.0
 13
1.0
 23
0.0
 33
0.0
 40
0.0
 40
0.0
 40
0.0
 40
0.0
 40
1.0
 40
1.0
 40
1.0
 40
2.0
 40
2.0
 40
2.0
 40
3.0
 40
3.0
 40
3.0
 40
4.0
 40
4.0
 40
4.0
 40
5.0
 40
5.0
 40
5.0
 40
5.0
 10
159.5466976106292
 20
-69.53045835569682
 30
0.0
 10
160.1722272810755
 20
-65.87952632958188
 30
0.0
 10
161.4541773358624
 20
-62.70313897160997
 30
0.0
 10
163.3925477749898
 20
-60.00129628178109
 30
0.0
 10
165.3885846080705
 20
-57.21907394840912
 30
0.0
 10
168.2306217498196
 20
-53.93513950983289
 30
0.0
 10
171.4688331201471
 20
-53.16422932291778
 30
0.0
 10
173.1819402710385
 20
-52.75639561385211
 30
0.0
 10
175.5016908539949
 20
-52.45052716840875
 30
0.0
 10
177.0666816927164
 20
-53.20696099141067
 30
0.0
 10
178.1904452606966
 20
-53.75012888150005
 30
0.0
 10
179.5611107352262
 20
-54.81543603715203
 30
0.0
 10
179.9724351502333
 20
-55.9845194434489
 30
0.0
 10
180.2610583061582
 20
-56.804856214022
 30
0.0
 10
180.2753021956558
 20
-57.7449529208657
 30
0.0
 10
180.0151668187262
 20
-58.80480956398001
 30
0.0
  0
SPLINE
  5
1E1
330
1F
100
AcDbEntity
  8
0
  6
K5LT32769
 62
    30
420
 16744448
100
AcDbSpline
210
0.0
220
0.0
230
1.0
 70
     8
 71
     3
 72
    14
 73
    10
 74
     0
 42
0.0
 43
0.0
 12
1.0
 22
0.0
 32
0.0
 13
1.0
 23
0.0
 33
0.0
 40
0.0
 40
0.0
 40
0.0
 40
0.0
 40
1.0
 40
1.0
 40
1.0
 40
2.0
 40
2.0
 40
2.0
 40
3.0
 40
3.0
 40
3.0
 40
3.0
 10
175.9129266434082
 20
-46.69117630482803
 30
0.0
 10
178.018327579257
 20
-47.06825788669822
 30
0.0
 10
179.8032982924743
 20
-47.84705435500211
 30
0.0
 10
181.26783878306
 20
-49.02756570973975
 30
0.0
 10
182.6775144167521
 20
-50.16385255381665
 30
0.0
 10
183.8821208580924
 20
-51.86153136786451
 30
0.0
 10
184.6062499860978
 20
-53.55296756274659
 30
0.0
 10
185.1104109590895
 20
-54.73059746987938
 30
0.0
 10
185.5041809085872
 20
-55.93051951193338
 30
0.0
 10
185.5535177012296
 20
-57.35193283522155
 30
0.0
  0
LINE
  5
1E2
330
1F
100
AcDbEntity
  8
0
  6
K5LT32769
 62
    30
420
 16744448
100
AcDbLine
 10
170.5651763767404
 20
-46.69117630482804
 30
0.0
 11
154.5535177012296
 21
-46.69117630482804
 31
0.0
  0
SPLINE
  5
1E3
330
1F
100
AcDbEntity
  8
0
  6
K5LT32769
 62
    30
420
 16744448
100
AcDbSpline
210
0.0
220
0.0
230
1.0
 70
     8
 71
     3
 72
    17
 73
    13
 74
     0
 42
0.0
 43
0.0
 12
1.0
 22
0.0
 32
0.0
 13
1.0
 23
0.0
 33
0.0
 40
0.0
 40
0.0
 40
0.0
 40
0.0
 40
1.0
 40
1.0
 40
1.0
 40
2.0
 40
2.0
 40
2.0
 40
3.0
 40
3.0
 40
3.0
 40
4.0
 40
4.0
 40
4.0
 40
4.0
 10
180.0151668187262
 20
-58.80480956398001
 30
0.0
 10
179.2405676576273
 20
-57.57903127512152
 30
0.0
 10
178.3293547307756
 20
-56.77471272775124
 30
0.0
 10
177.2815280381713
 20
-56.39185392186916
 30
0.0
 10
176.0392657153612
 20
-55.93795150378772
 30
0.0
 10
174.1077174753756
 20
-56.11785533309627
 30
0.0
 10
172.9786867610541
 20
-56.80730066586668
 30
0.0
 10
172.0501281860219
 20
-57.37432720255811
 30
0.0
 10
171.0081977669425
 20
-58.56572897859321
 30
0.0
 10
170.8124287387813
 20
-59.62640357156415
 30
0.0
 10
170.6505946968085
 20
-60.50321875632906
 30
0.0
 10
170.8484264796645
 20
-61.46270290318048
 30
0.0
 10
171.4059240873492
 20
-62.50485601211841
 30
0.0
  0
SPLINE
  5
1E4
330
1F
100
AcDbEntity
  8
0
  6
K5LT32769
 62
    30
420
 16744448
100
AcDbSpline
210
0.0
220
0.0
230
1.0
 70
     8
 71
     3
 72
    17
 73
    13
 74
     0
 42
0.0
 43
0.0
 12
1.0
 22
0.0
 32
0.0
 13
1.0
 23
0.0
 33
0.0
 40
0.0
 40
0.0
 40
0.0
 40
0.0
 40
1.0
 40
1.0
 40
1.0
 40
2.0
 40
2.0
 40
2.0
 40
3.0
 40
3.0
 40
3.0
 40
4.0
 40
4.0
 40
4.0
 40
4.0
 10
171.4059240873492
 20
-62.50485601211841
 30
0.0
 10
170.2886092844787
 20
-61.52036153174092
 30
0.0
 10
169.1807513004853
 20
-61.01589048545821
 30
0.0
 10
168.082350135369
 20
-60.99144287327029
 30
0.0
 10
166.773116343811
 20
-60.96230266383148
 30
0.0
 10
165.2736215902711
 20
-62.04122899558016
 30
0.0
 10
164.1949556022494
 20
-62.94997752354433
 30
0.0
 10
163.0844745228759
 20
-63.88552945288944
 30
0.0
 10
162.4108810435938
 20
-65.34708377251124
 30
0.0
 10
161.5539013011223
 20
-66.57029914980845
 30
0.0
 10
160.8699465201842
 20
-67.54654626973051
 30
0.0
 10
160.2008786233532
 20
-68.53326600502663
 30
0.0
 10
159.5466976106292
 20
-69.53045835569682
 30
0.0
  0
SPLINE
  5
1E5
330
1F
100
AcDbEntity
  8
0
  6
K5LT32769
 62
    30
420
 16744448
100
AcDbSpline
210
0.0
220
0.0
230
1.0
 70
     8
 71
     3
 72
    20
 73
    16
 74
     0
 42
0.0
 43
0.0
 12
1.0
 22
0.0
 32
0.0
 13
1.0
 23
0.0
 33
0.0
 40
0.0
 40
0.0
 40
0.0
 40
0.0
 40
1.0
 40
1.0
 40
1.0
 40
2.0
 40
2.0
 40
2.0
 40
3.0
 40
3.0
 40
3.0
 40
4.0
 40
4.0
 40
4.0
 40
5.0
 40
5.0
 40
5.0
 40
5.0
 10
169.1598012595629
 20
-65.14169672718805
 30
0.0
 10
168.6496160111575
 20
-64.90373794630527
 30
0.0
 10
168.1550365540176
 20
-64.7751472874489
 30
0.0
 10
167.6760628881431
 20
-64.75592475061893
 30
0.0
 10
166.4453966070564
 20
-64.70653471187765
 30
0.0
 10
165.2540018117057
 20
-65.9380592593662
 30
0.0
 10
164.2931394013062
 20
-66.77380893574974
 30
0.0
 10
162.487561315605
 20
-68.34428487952457
 30
0.0
 10
162.2950799371659
 20
-71.42927950122248
 30
0.0
 10
160.6431430076137
 20
-73.21323346771133
 30
0.0
 10
159.7358323632867
 20
-74.19305321374927
 30
0.0
 10
158.7048160971082
 20
-75.20604158684563
 30
0.0
 10
157.5272924276323
 20
-75.82461300141003
 30
0.0
 10
156.5704954806057
 20
-76.32723325127431
 30
0.0
 10
155.5219870314691
 20
-76.66354728212944
 30
0.0
 10
154.3817670802225
 20
-76.83355509397543
 30
0.0
  0
SPLINE
  5
1E6
330
1F
100
AcDbEntity
  8
0
  6
K5LT32769
 62
    30
420
 16744448
100
AcDbSpline
210
0.0
220
0.0
230
1.0
 70
     8
 71
     3
 72
    14
 73
    10
 74
     0
 42
0.0
 43
0.0
 12
1.0
 22
0.0
 32
0.0
 13
1.0
 23
0.0
 33
0.0
 40
0.0
 40
0.0
 40
0.0
 40
0.0
 40
1.0
 40
1.0
 40
1.0
 40
2.0
 40
2.0
 40
2.0
 40
3.0
 40
3.0
 40
3.0
 40
3.0
 10
154.3817670802225
 20
-76.83355509397543
 30
0.0
 10
155.9443766882032
 20
-77.2636095334357
 30
0.0
 10
157.5072477727653
 20
-77.50100767286285
 30
0.0
 10
159.0703803339088
 20
-77.5457495122569
 30
0.0
 10
161.3251186151804
 20
-77.61028731318562
 30
0.0
 10
163.9966829130244
 20
-77.69273972435698
 30
0.0
 10
165.8362273075827
 20
-76.5368074196915
 30
0.0
 10
166.8801361431966
 20
-75.88083632718539
 30
0.0
 10
167.7901623443341
 20
-74.96091853690515
 30
0.0
 10
168.5663059109949
 20
-73.77705404885081
 30
0.0
  0
SPLINE
  5
1E7
330
1F
100
AcDbEntity
  8
0
  6
K5LT32769
 62
    30
420
 16744448
100
AcDbSpline
210
0.0
220
0.0
230
1.0
 70
     8
 71
     3
 72
    11
 73
     7
 74
     0
 42
0.0
 43
0.0
 12
1.0
 22
0.0
 32
0.0
 13
1.0
 23
0.0
 33
0.0
 40
0.0
 40
0.0
 40
0.0
 40
0.0
 40
1.0
 40
1.0
 40
1.0
 40
2.0
 40
2.0
 40
2.0
 40
2.0
 10
168.5663059109949
 20
-73.77705404885081
 30
0.0
 10
168.9540073689571
 20
-74.71289041247715
 30
0.0
 10
169.0924896169563
 20
-75.6130250244718
 30
0.0
 10
168.9817526549925
 20
-76.47745788483472
 30
0.0
 10
168.8596109376771
 20
-77.43091833919591
 30
0.0
 10
168.4342726045368
 20
-78.34094454033334
 30
0.0
 10
167.7057376555715
 20
-79.207536488247
 30
0.0
  0
SPLINE
  5
1E8
330
1F
100
AcDbEntity
  8
0
  6
K5LT32769
 62
    30
420
 16744448
100
AcDbSpline
210
0.0
220
0.0
230
1.0
 70
     8
 71
     3
 72
     8
 73
     4
 74
     0
 42
0.0
 43
0.0
 12
1.0
 22
0.0
 32
0.0
 13
1.0
 23
0.0
 33
0.0
 40
0.0
 40
0.0
 40
0.0
 40
0.0
 40
1.0
 40
1.0
 40
1.0
 40
1.0
 10
167.7057376555715
 20
-79.207536488247
 30
0.0
 10
167.9175213939565
 20
-79.24128170936658
 30
0.0
 10
168.1277606169895
 20
-79.27771695561874
 30
0.0
 10
168.3364553246705
 20
-79.31684222700352
 30
0.0
  0
SPLINE
  5
1E9
330
1F
100
AcDbEntity
  8
0
  6
K5LT32769
 62
    30
420
 16744448
100
AcDbSpline
210
0.0
220
0.0
230
1.0
 70
     8
 71
     3
 72
    14
 73
    10
 74
     0
 42
0.0
 43
0.0
 12
1.0
 22
0.0
 32
0.0
 13
1.0
 23
0.0
 33
0.0
 40
0.0
 40
0.0
 40
0.0
 40
0.0
 40
1.0
 40
1.0
 40
1.0
 40
2.0
 40
2.0
 40
2.0
 40
3.0
 40
3.0
 40
3.0
 40
3.0
 10
169.1598012595629
 20
-65.14169672718805
 30
0.0
 10
168.0442104402241
 20
-65.24494242688682
 30
0.0
 10
167.306455906293
 20
-65.57302625848752
 30
0.0
 10
166.9465376577694
 20
-66.12594822199011
 30
0.0
 10
166.5431555797682
 20
-66.74564119817325
 30
0.0
 10
166.7475804723465
 20
-68.13706048088062
 30
0.0
 10
167.1601959917439
 20
-68.83228711899993
 30
0.0
 10
167.5820566047415
 20
-69.54309105617999
 30
0.0
 10
168.7209473927683
 20
-70.3277023405472
 30
0.0
 10
169.5118340773231
 20
-70.32836466326482
 30
0.0
  0
SPLINE
  5
1EA
330
1F
100
AcDbEntity
  8
0
  6
K5LT32769
 62
    30
420
 16744448
100
AcDbSpline
210
0.0
220
0.0
230
1.0
 70
     8
 71
     3
 72
     8
 73
     4
 74
     0
 42
0.0
 43
0.0
 12
1.0
 22
0.0
 32
0.0
 13
1.0
 23
0.0
 33
0.0
 40
0.0
 40
0.0
 40
0.0
 40
0.0
 40
1.0
 40
1.0
 40
1.0
 40
1.0
 10
171.6826307275366
 20
-66.66009405692627
 30
0.0
 10
172.9413062870405
 20
-67.53722559105343
 30
0.0
 10
174.20812120572
 20
-68.02295977869349
 30
0.0
 10
175.483075483575
 20
-68.11729661984644
 30
0.0
  0
LINE
  5
1EB
330
1F
100
AcDbEntity
  8
0
  6
K5LT32769
 62
    30
420
 16744448
100
AcDbLine
 10
162.3431525259639
 20
88.85817367730544
 30
0.0
 11
156.3520469053007
 21
94.84927929796868
 31
0.0
  0
LINE
  5
1EC
330
1F
100
AcDbEntity
  8
0
  6
K5LT32769
 62
    30
420
 16744448
100
AcDbLine
 10
161.9623268200903
 20
83.81771223420078
 30
0.0
 11
153.7921873751104
 21
92.27553264555314
 31
0.0
  0
LINE
  5
1ED
330
1F
100
AcDbEntity
  8
0
  6
K5LT32769
 62
    30
420
 16744448
100
AcDbLine
 10
150.7848896316201
 20
89.02689261020771
 30
0.0
 11
150.6721849253096
 21
89.13860432351107
 31
0.0
  0
LINE
  5
1EE
330
1F
100
AcDbEntity
  8
0
  6
K5LT32769
 62
    30
420
 16744448
100
AcDbLine
 10
146.4420511671192
 20
88.51440200535133
 30
0.0
 11
141.6408636859373
 21
93.31558948653328
 31
0.0
  0
LINE
  5
1EF
330
1F
100
AcDbEntity
  8
0
  6
K5LT32769
 62
    30
420
 16744448
100
AcDbLine
 10
142.3041973623045
 20
84.54542513838365
 30
0.0
 11
137.6124485303251
 21
89.30451964737698
 31
0.0
  0
LINE
  5
1F0
330
1F
100
AcDbEntity
  8
0
  6
K5LT32769
 62
    30
420
 16744448
100
AcDbLine
 10
142.3272653962455
 20
79.94673257795102
 30
0.0
 11
141.9409812563427
 21
80.36003426935991
 31
0.0
  0
LINE
  5
1F1
330
1F
100
AcDbEntity
  8
0
  6
K5LT32769
 62
    30
420
 16744448
100
AcDbLine
 10
145.533063245859
 20
67.62523440530889
 30
0.0
 11
144.0577139257115
 21
69.1871652583289
 31
0.0
  0
LINE
  5
1F2
330
1F
100
AcDbEntity
  8
0
  6
K5LT32769
 62
    30
420
 16744448
100
AcDbLine
 10
144.6191117906777
 20
64.45231799091265
 30
0.0
 11
142.0109325405919
 21
67.1626733353318
 31
0.0
  0
LINE
  5
1F3
330
1F
100
AcDbEntity
  8
0
  6
K5LT32769
 62
    30
420
 16744448
100
AcDbLine
 10
135.3221543408563
 20
65.29095529109023
 30
0.0
 11
131.1544467271357
 21
69.51498327796915
 31
0.0
  0
LINE
  5
1F4
330
1F
100
AcDbEntity
  8
0
  6
K5LT32769
 62
    30
420
 16744448
100
AcDbLine
 10
133.1921549193842
 20
63.18616296336342
 30
0.0
 11
129.0669913612589
 21
67.41620356110207
 31
0.0
  0
LINE
  5
1F5
330
1F
100
AcDbEntity
  8
0
  6
K5LT32769
 62
    30
420
 16744448
100
AcDbLine
 10
129.1884765983982
 20
59.22986545090983
 30
0.0
 11
125.0588016923174
 21
63.38626964440863
 31
0.0
  0
LINE
  5
1F6
330
1F
100
AcDbEntity
  8
0
  6
K5LT32769
 62
    30
420
 16744448
100
AcDbLine
 10
127.2967023701154
 20
57.36047908331668
 30
0.0
 11
123.15661804967
 21
61.47376674149375
 31
0.0
  0
LINE
  5
1F7
330
1F
100
AcDbEntity
  8
0
  6
K5LT32769
 62
    30
420
 16744448
100
AcDbLine
 10
127.0255439437586
 20
47.45542941945958
 30
0.0
 11
124.5619316147091
 21
49.90369213898234
 31
0.0
  0
LINE
  5
1F8
330
1F
100
AcDbEntity
  8
0
  6
K5LT32769
 62
    30
420
 16744448
100
AcDbLine
 10
127.0767509702393
 20
43.67033925556373
 30
0.0
 11
122.7271949896474
 21
48.08893580727614
 31
0.0
  0
LINE
  5
1F9
330
1F
100
AcDbEntity
  8
0
  6
K5LT32769
 62
    30
420
 16744448
100
AcDbLine
 10
117.132933368656
 20
83.80726854587212
 30
0.0
 11
131.3502617148222
 21
98.46374216914
 31
0.0
  0
LINE
  5
1FA
330
1F
100
AcDbEntity
  8
0
  6
K5LT32769
 62
    30
420
 16744448
100
AcDbLine
 10
115.1217665892902
 20
78.8725540717516
 30
0.0
 11
116.5280338906134
 21
80.27394808608611
 31
0.0
  0
LINE
  5
1FB
330
1F
100
AcDbEntity
  8
0
  6
K5LT32769
 62
    30
420
 16744448
100
AcDbLine
 10
112.8833271580987
 20
68.0297327509232
 30
0.0
 11
114.7004871572938
 21
69.87516539508448
 31
0.0
  0
LINE
  5
1FC
330
1F
100
AcDbEntity
  8
0
  6
K5LT32769
 62
    30
420
 16744448
100
AcDbLine
 10
112.7029275428462
 20
64.50225263139802
 30
0.0
 11
116.401631888047
 21
68.18503130983765
 31
0.0
  0
LINE
  5
1FD
330
1F
100
AcDbEntity
  8
0
  6
K5LT32769
 62
    30
420
 16744448
100
AcDbLine
 10
113.4333751874599
 20
55.50680350315503
 30
0.0
 11
114.4371452858822
 21
56.51057360157733
 31
0.0
  0
LINE
  5
1FE
330
1F
100
AcDbEntity
  8
0
  6
K5LT32769
 62
    30
420
 16744448
100
AcDbLine
 10
114.2136867566842
 20
52.48232045053514
 30
0.0
 11
116.3188977165612
 21
54.5989520846971
 31
0.0
  0
LINE
  5
1FF
330
1F
100
AcDbEntity
  8
0
  6
K5LT32769
 62
    30
420
 16744448
100
AcDbLine
 10
116.9197023981723
 20
47.10628384476933
 30
0.0
 11
120.3539309829877
 21
50.49987067118451
 31
0.0
  0
LINE
  5
200
330
1F
100
AcDbEntity
  8
0
  6
K5LT32769
 62
    30
420
 16744448
100
AcDbLine
 10
119.1392950956904
 20
44.54010816566972
 30
0.0
 11
122.7271949896474
 21
48.08893580727614
 31
0.0
  0
LINE
  5
201
330
1F
100
AcDbEntity
  8
0
  6
K5LT32769
 62
    30
420
 16744448
100
AcDbLine
 10
123.8829200814309
 20
40.47650836675526
 30
0.0
 11
127.0767509702393
 21
43.67033925556373
 31
0.0
  0
LINE
  5
202
330
1F
100
AcDbEntity
  8
0
  6
K5LT32769
 62
    30
420
 16744448
100
AcDbLine
 10
126.3176323154196
 20
39.09613693450265
 30
0.0
 11
129.7444711345623
 21
42.52297575364543
 31
0.0
  0
SPLINE
  5
203
330
1F
100
AcDbEntity
  8
0
  6
K5LT32769
 62
    30
420
 16744448
100
AcDbSpline
210
0.0
220
0.0
230
1.0
 70
     8
 71
     3
 72
    20
 73
    16
 74
     0
 42
0.0
 43
0.0
 12
1.0
 22
0.0
 32
0.0
 13
1.0
 23
0.0
 33
0.0
 40
0.0
 40
0.0
 40
0.0
 40
0.0
 40
1.0
 40
1.0
 40
1.0
 40
2.0
 40
2.0
 40
2.0
 40
3.0
 40
3.0
 40
3.0
 40
4.0
 40
4.0
 40
4.0
 40
5.0
 40
5.0
 40
5.0
 40
5.0
 10
161.9623268072873
 20
83.81771218939096
 30
0.0
 10
161.1804879545774
 20
81.08131136392306
 30
0.0
 10
159.6189670933625
 20
78.21867131984797
 30
0.0
 10
157.7156506012668
 20
76.99911826014008
 30
0.0
 10
155.2396603116153
 20
75.41262355676741
 30
0.0
 10
149.619485618743
 20
74.44812658282312
 30
0.0
 10
147.5079623001344
 20
76.36113774131931
 30
0.0
 10
146.3115915648879
 20
77.44503321434343
 30
0.0
 10
145.0389447359941
 20
79.90865763472732
 30
0.0
 10
145.1622206129811
 20
81.66000952634958
 30
0.0
 10
145.2597986729441
 20
83.04627847104311
 30
0.0
 10
146.0558803602547
 20
85.14622793919595
 30
0.0
 10
147.1563650634094
 20
85.79073731652247
 30
0.0
 10
148.2340629364569
 20
86.42190136915563
 30
0.0
 10
149.7296712742781
 20
86.35068192449748
 30
0.0
 10
151.6431900768731
 20
85.577078982548
 30
0.0
  0
SPLINE
  5
204
330
1F
100
AcDbEntity
  8
0
  6
K5LT32769
 62
    30
420
 16744448
100
AcDbSpline
210
0.0
220
0.0
230
1.0
 70
     8
 71
     3
 72
     8
 73
     4
 74
     0
 42
0.0
 43
0.0
 12
1.0
 22
0.0
 32
0.0
 13
1.0
 23
0.0
 33
0.0
 40
0.0
 40
0.0
 40
0.0
 40
0.0
 40
1.0
 40
1.0
 40
1.0
 40
1.0
 10
158.3084465306571
 20
96.81629230282802
 30
0.0
 10
160.2284831277652
 20
94.55347073973003
 30
0.0
 10
161.8425497888164
 20
91.55904921479637
 30
0.0
 10
162.3431525193512
 20
88.85817367904897
 30
0.0
  0
LINE
  5
205
330
1F
100
AcDbEntity
  8
0
  6
K5LT32769
 62
    30
420
 16744448
100
AcDbLine
 10
154.5639489437871
 20
96.63737725948229
 30
0.0
 11
149.7381891278928
 21
101.4631370753766
 31
0.0
  0
LINE
  5
206
330
1F
100
AcDbEntity
  8
0
  6
K5LT32769
 62
    30
420
 16744448
100
AcDbLine
 10
154.5639489437871
 20
96.63737725948228
 30
0.0
 11
156.5382575806665
 21
98.61168589636172
 31
0.0
  0
LINE
  5
207
330
1F
100
AcDbEntity
  8
0
  6
K5LT32769
 62
    30
420
 16744448
100
AcDbLine
 10
156.3520469053007
 20
94.84927929796869
 30
0.0
 11
158.3084465306481
 21
96.81629230283873
 31
0.0
  0
LINE
  5
208
330
1F
100
AcDbEntity
  8
0
  6
K5LT32769
 62
    30
420
 16744448
100
AcDbLine
 10
152.0282019341905
 20
94.10163024988574
 30
0.0
 11
147.3226298799177
 21
98.9728914609992
 31
0.0
  0
LINE
  5
209
330
1F
100
AcDbEntity
  8
0
  6
K5LT32769
 62
    30
420
 16744448
100
AcDbLine
 10
145.3565513760616
 20
101.0081980811882
 30
0.0
 11
144.5148622789039
 21
101.8795241183867
 31
0.0
  0
SPLINE
  5
20A
330
1F
100
AcDbEntity
  8
0
  6
K5LT32769
 62
    30
420
 16744448
100
AcDbSpline
210
0.0
220
0.0
230
1.0
 70
     8
 71
     3
 72
    11
 73
     7
 74
     0
 42
0.0
 43
0.0
 12
1.0
 22
0.0
 32
0.0
 13
1.0
 23
0.0
 33
0.0
 40
0.0
 40
0.0
 40
0.0
 40
0.0
 40
1.0
 40
1.0
 40
1.0
 40
2.0
 40
2.0
 40
2.0
 40
2.0
 10
149.7381891278928
 20
101.4631370753767
 30
0.0
 10
152.0846685144672
 20
101.0575616027065
 30
0.0
 10
154.2847667689063
 20
100.32236361517
 30
0.0
 10
155.9080391312746
 20
99.1157762459271
 30
0.0
 10
156.1182250573278
 20
98.95954387885944
 30
0.0
 10
156.3285941842896
 20
98.79113758249561
 30
0.0
 10
156.5382575803467
 20
98.61168589135782
 30
0.0
  0
SPLINE
  5
20B
330
1F
100
AcDbEntity
  8
0
  6
K5LT32769
 62
    30
420
 16744448
100
AcDbSpline
210
0.0
220
0.0
230
1.0
 70
     8
 71
     3
 72
    11
 73
     7
 74
     0
 42
0.0
 43
0.0
 12
1.0
 22
0.0
 32
0.0
 13
1.0
 23
0.0
 33
0.0
 40
0.0
 40
0.0
 40
0.0
 40
0.0
 40
1.0
 40
1.0
 40
1.0
 40
2.0
 40
2.0
 40
2.0
 40
2.0
 10
138.4640487397675
 20
101.2391798378149
 30
0.0
 10
139.576642057189
 20
101.5078265540674
 30
0.0
 10
140.682613356855
 20
101.6909638662625
 30
0.0
 10
141.7661376307474
 20
101.7740284076803
 30
0.0
 10
142.6343007141711
 20
101.8405830480683
 30
0.0
 10
143.5604056723449
 20
101.8789967960339
 30
0.0
 10
144.5148622788064
 20
101.8795241183866
 30
0.0
  0
LINE
  5
20C
330
1F
100
AcDbEntity
  8
0
  6
K5LT32769
 62
    30
420
 16744448
100
AcDbLine
 10
142.0672526850397
 20
97.66772218280947
 30
0.0
 11
138.4640487397675
 21
101.2391798378149
 31
0.0
  0
LINE
  5
20D
330
1F
100
AcDbEntity
  8
0
  6
K5LT32769
 62
    30
420
 16744448
100
AcDbLine
 10
142.0672526850397
 20
97.66772218280946
 30
0.0
 11
145.3565513760616
 21
101.0081980811882
 31
0.0
  0
LINE
  5
20E
330
1F
100
AcDbEntity
  8
0
  6
K5LT32769
 62
    30
420
 16744448
100
AcDbLine
 10
139.6964352544203
 20
95.26001791805027
 30
0.0
 11
135.6383820450236
 21
99.31807112744693
 31
0.0
  0
LINE
  5
20F
330
1F
100
AcDbEntity
  8
0
  6
K5LT32769
 62
    30
420
 16744448
100
AcDbLine
 10
144.0440063557776
 20
95.70838484397238
 30
0.0
 11
147.3226298799177
 21
98.9728914609992
 31
0.0
  0
LINE
  5
210
330
1F
100
AcDbEntity
  8
0
  6
K5LT32769
 62
    30
420
 16744448
100
AcDbLine
 10
135.7211911867422
 20
91.22292422555684
 30
0.0
 11
131.6544970755602
 21
95.34799193642084
 31
0.0
  0
LINE
  5
211
330
1F
100
AcDbEntity
  8
0
  6
K5LT32769
 62
    30
420
 16744448
100
AcDbLine
 10
135.7211911867422
 20
91.22292422555684
 30
0.0
 11
139.6964352544203
 21
95.2600179180503
 31
0.0
  0
LINE
  5
212
330
1F
100
AcDbEntity
  8
0
  6
K5LT32769
 62
    30
420
 16744448
100
AcDbLine
 10
133.7034148702242
 20
89.17375393523159
 30
0.0
 11
129.7275388277964
 21
93.42771138111812
 31
0.0
  0
LINE
  5
213
330
1F
100
AcDbEntity
  8
0
  6
K5LT32769
 62
    30
420
 16744448
100
AcDbLine
 10
137.6124485303251
 20
89.30451964737696
 30
0.0
 11
141.6408636859373
 21
93.3155894865333
 31
0.0
  0
LINE
  5
214
330
1F
100
AcDbEntity
  8
0
  6
K5LT32769
 62
    30
420
 16744448
100
AcDbLine
 10
131.6544970755602
 20
95.34799193642083
 30
0.0
 11
135.6383820450236
 21
99.31807112744694
 31
0.0
  0
LINE
  5
215
330
1F
100
AcDbEntity
  8
0
  6
K5LT32769
 62
    30
420
 16744448
100
AcDbLine
 10
125.3146788270092
 20
89.03014373136824
 30
0.0
 11
129.7275388277964
 21
93.4277113811181
 31
0.0
  0
LINE
  5
216
330
1F
100
AcDbEntity
  8
0
  6
K5LT32769
 62
    30
420
 16744448
100
AcDbLine
 10
129.3526044865331
 20
84.75525060356236
 30
0.0
 11
133.7034148702242
 21
89.17375393523159
 31
0.0
  0
LINE
  5
217
330
1F
100
AcDbEntity
  8
0
  6
K5LT32769
 62
    30
420
 16744448
100
AcDbLine
 10
129.3526044865331
 20
84.75525060356236
 30
0.0
 11
125.3146788270092
 21
89.03014373136824
 31
0.0
  0
LINE
  5
218
330
1F
100
AcDbEntity
  8
0
  6
K5LT32769
 62
    30
420
 16744448
100
AcDbLine
 10
127.1925409239261
 20
82.56157926275351
 30
0.0
 11
123.0957296796254
 21
86.81888414342887
 31
0.0
  0
LINE
  5
219
330
1F
100
AcDbEntity
  8
0
  6
K5LT32769
 62
    30
420
 16744448
100
AcDbLine
 10
131.1414706027572
 20
82.86140408145658
 30
0.0
 11
135.5243726167182
 21
87.22543444999613
 31
0.0
  0
LINE
  5
21A
330
1F
100
AcDbEntity
  8
0
  6
K5LT32769
 62
    30
420
 16744448
100
AcDbLine
 10
118.5504244197294
 20
82.28933021115122
 30
0.0
 11
123.0957296796254
 21
86.81888414342887
 31
0.0
  0
SPLINE
  5
21B
330
1F
100
AcDbEntity
  8
0
  6
K5LT32769
 62
    30
420
 16744448
100
AcDbSpline
210
0.0
220
0.0
230
1.0
 70
     8
 71
     3
 72
    11
 73
     7
 74
     0
 42
0.0
 43
0.0
 12
1.0
 22
0.0
 32
0.0
 13
1.0
 23
0.0
 33
0.0
 40
0.0
 40
0.0
 40
0.0
 40
0.0
 40
1.0
 40
1.0
 40
1.0
 40
2.0
 40
2.0
 40
2.0
 40
2.0
 10
117.1329333688581
 20
83.80726854573247
 30
0.0
 10
118.6943607252623
 20
87.04884363826986
 30
0.0
 10
120.6507701814444
 20
90.0177394965121
 30
0.0
 10
122.9457123255344
 20
92.3106507118388
 30
0.0
 10
125.2232026657775
 20
94.58612556744234
 30
0.0
 10
128.1647462573708
 20
96.76601958464173
 30
0.0
 10
131.3502617172128
 20
98.46374217041411
 30
0.0
  0
LINE
  5
21C
330
1F
100
AcDbEntity
  8
0
  6
K5LT32769
 62
    30
420
 16744448
100
AcDbLine
 10
122.7416638878686
 20
78.04145237182098
 30
0.0
 11
127.1925409239261
 21
82.56157926275353
 31
0.0
  0
LINE
  5
21D
330
1F
100
AcDbEntity
  8
0
  6
K5LT32769
 62
    30
420
 16744448
100
AcDbLine
 10
124.5053877071381
 20
76.25389444688561
 30
0.0
 11
128.9774719770508
 21
80.70672307558891
 31
0.0
  0
LINE
  5
21E
330
1F
100
AcDbEntity
  8
0
  6
K5LT32769
 62
    30
420
 16744448
100
AcDbLine
 10
122.7416638878686
 20
78.04145237182098
 30
0.0
 11
118.5504244197294
 21
82.28933021115122
 31
0.0
  0
LINE
  5
21F
330
1F
100
AcDbEntity
  8
0
  6
K5LT32769
 62
    30
420
 16744448
100
AcDbLine
 10
120.7136660613631
 20
75.98190153811389
 30
0.0
 11
116.5280338906133
 21
80.2739480860861
 31
0.0
  0
LINE
  5
220
330
1F
100
AcDbEntity
  8
0
  6
K5LT32769
 62
    30
420
 16744448
100
AcDbLine
 10
116.6472735914494
 20
71.85224129285504
 30
0.0
 11
113.9014270573639
 21
74.61586029641688
 31
0.0
  0
LINE
  5
221
330
1F
100
AcDbEntity
  8
0
  6
K5LT32769
 62
    30
420
 16744448
100
AcDbLine
 10
116.6472735914494
 20
71.85224129285506
 30
0.0
 11
120.7136660613631
 21
75.98190153811387
 31
0.0
  0
LINE
  5
222
330
1F
100
AcDbEntity
  8
0
  6
K5LT32769
 62
    30
420
 16744448
100
AcDbLine
 10
114.7004871572938
 20
69.87516539508447
 30
0.0
 11
113.2609100039024
 21
71.30542489699755
 31
0.0
  0
LINE
  5
223
330
1F
100
AcDbEntity
  8
0
  6
K5LT32769
 62
    30
420
 16744448
100
AcDbLine
 10
118.3567345789675
 20
70.13171583292592
 30
0.0
 11
122.4470644006255
 21
74.2044337495482
 31
0.0
  0
SPLINE
  5
224
330
1F
100
AcDbEntity
  8
0
  6
K5LT32769
 62
    30
420
 16744448
100
AcDbSpline
210
0.0
220
0.0
230
1.0
 70
     8
 71
     3
 72
     8
 73
     4
 74
     0
 42
0.0
 43
0.0
 12
1.0
 22
0.0
 32
0.0
 13
1.0
 23
0.0
 33
0.0
 40
0.0
 40
0.0
 40
0.0
 40
0.0
 40
1.0
 40
1.0
 40
1.0
 40
1.0
 10
113.9014270573755
 20
74.61586029641938
 30
0.0
 10
114.2327484265399
 20
76.02833669923005
 30
0.0
 10
114.6408720844301
 20
77.4568355683814
 30
0.0
 10
115.1217665864698
 20
78.87255406344836
 30
0.0
  0
LINE
  5
225
330
1F
100
AcDbEntity
  8
0
  6
K5LT32769
 62
    30
420
 16744448
100
AcDbLine
 10
135.8272302372382
 20
77.90065855293334
 30
0.0
 11
140.1755332388843
 21
82.2489615545795
 31
0.0
  0
LINE
  5
226
330
1F
100
AcDbEntity
  8
0
  6
K5LT32769
 62
    30
420
 16744448
100
AcDbLine
 10
135.8272302372382
 20
77.90065855293334
 30
0.0
 11
131.1414706027572
 21
82.86140408145658
 31
0.0
  0
LINE
  5
227
330
1F
100
AcDbEntity
  8
0
  6
K5LT32769
 62
    30
420
 16744448
100
AcDbLine
 10
137.6137345463752
 20
76.00931244161684
 30
0.0
 11
141.9409812563427
 21
80.3600342693599
 31
0.0
  0
LINE
  5
228
330
1F
100
AcDbEntity
  8
0
  6
K5LT32769
 62
    30
420
 16744448
100
AcDbLine
 10
133.7126327957351
 20
75.78606111143031
 30
0.0
 11
128.9774719770508
 21
80.70672307558893
 31
0.0
  0
LINE
  5
229
330
1F
100
AcDbEntity
  8
0
  6
K5LT32769
 62
    30
420
 16744448
100
AcDbLine
 10
129.3104602130433
 20
71.38388852873847
 30
0.0
 11
124.5053877071381
 21
76.2538944468856
 31
0.0
  0
LINE
  5
22A
330
1F
100
AcDbEntity
  8
0
  6
K5LT32769
 62
    30
420
 16744448
100
AcDbLine
 10
129.3104602130433
 20
71.38388852873847
 30
0.0
 11
133.7126327957351
 21
75.78606111143031
 31
0.0
  0
LINE
  5
22B
330
1F
100
AcDbEntity
  8
0
  6
K5LT32769
 62
    30
420
 16744448
100
AcDbLine
 10
131.1544467271357
 20
69.51498327796915
 30
0.0
 11
135.5217951436758
 21
73.9060243622301
 31
0.0
  0
LINE
  5
22C
330
1F
100
AcDbEntity
  8
0
  6
K5LT32769
 62
    30
420
 16744448
100
AcDbLine
 10
127.2282570446458
 20
69.30168536034094
 30
0.0
 11
122.4470644006255
 21
74.2044337495482
 31
0.0
  0
LINE
  5
22D
330
1F
100
AcDbEntity
  8
0
  6
K5LT32769
 62
    30
420
 16744448
100
AcDbLine
 10
123.1918633820696
 20
65.26529169776481
 30
0.0
 11
118.3567345789674
 21
70.13171583292592
 31
0.0
  0
LINE
  5
22E
330
1F
100
AcDbEntity
  8
0
  6
K5LT32769
 62
    30
420
 16744448
100
AcDbLine
 10
123.1918633820696
 20
65.26529169776481
 30
0.0
 11
127.2282570446458
 21
69.30168536034094
 31
0.0
  0
LINE
  5
22F
330
1F
100
AcDbEntity
  8
0
  6
K5LT32769
 62
    30
420
 16744448
100
AcDbLine
 10
121.2723803812021
 20
63.34580869689722
 30
0.0
 11
116.401631888047
 21
68.18503130983767
 31
0.0
  0
LINE
  5
230
330
1F
100
AcDbEntity
  8
0
  6
K5LT32769
 62
    30
420
 16744448
100
AcDbLine
 10
125.0588016923174
 20
63.38626964440863
 30
0.0
 11
129.0669913612589
 21
67.41620356110207
 31
0.0
  0
SPLINE
  5
231
330
1F
100
AcDbEntity
  8
0
  6
K5LT32769
 62
    30
420
 16744448
100
AcDbSpline
210
0.0
220
0.0
230
1.0
 70
     8
 71
     3
 72
    11
 73
     7
 74
     0
 42
0.0
 43
0.0
 12
1.0
 22
0.0
 32
0.0
 13
1.0
 23
0.0
 33
0.0
 40
0.0
 40
0.0
 40
0.0
 40
0.0
 40
1.0
 40
1.0
 40
1.0
 40
2.0
 40
2.0
 40
2.0
 40
2.0
 10
112.8833271581616
 20
68.02973275098705
 30
0.0
 10
112.9579135555026
 20
68.9194362541954
 30
0.0
 10
113.0525149552539
 20
69.78585758131136
 30
0.0
 10
113.1633443702825
 20
70.61931307193231
 30
0.0
 10
113.1935988582551
 20
70.84683181422895
 30
0.0
 10
113.2261270949686
 20
71.07558118694192
 30
0.0
 10
113.2609100039024
 20
71.30542489699754
 30
0.0
  0
SPLINE
  5
232
330
1F
100
AcDbEntity
  8
0
  6
K5LT32769
 62
    30
420
 16744448
100
AcDbSpline
210
0.0
220
0.0
230
1.0
 70
     8
 71
     3
 72
     8
 73
     4
 74
     0
 42
0.0
 43
0.0
 12
1.0
 22
0.0
 32
0.0
 13
1.0
 23
0.0
 33
0.0
 40
0.0
 40
0.0
 40
0.0
 40
0.0
 40
1.0
 40
1.0
 40
1.0
 40
1.0
 10
112.7315572881263
 20
61.66035696820333
 30
0.0
 10
112.6942312784473
 20
62.61204291308889
 30
0.0
 10
112.6859750591094
 20
63.56263250466217
 30
0.0
 10
112.7029275526921
 20
64.50225262711467
 30
0.0
  0
LINE
  5
233
330
1F
100
AcDbEntity
  8
0
  6
K5LT32769
 62
    30
420
 16744448
100
AcDbLine
 10
116.169954488074
 20
58.2433828037692
 30
0.0
 11
121.2723803812021
 21
63.34580869689722
 31
0.0
  0
LINE
  5
234
330
1F
100
AcDbEntity
  8
0
  6
K5LT32769
 62
    30
420
 16744448
100
AcDbLine
 10
116.169954488074
 20
58.24338280376921
 30
0.0
 11
112.7315572881263
 21
61.66035696820327
 31
0.0
  0
LINE
  5
235
330
1F
100
AcDbEntity
  8
0
  6
K5LT32769
 62
    30
420
 16744448
100
AcDbLine
 10
114.4371452858822
 20
56.51057360157733
 30
0.0
 11
113.0370926408016
 21
57.93284930451637
 31
0.0
  0
LINE
  5
236
330
1F
100
AcDbEntity
  8
0
  6
K5LT32769
 62
    30
420
 16744448
100
AcDbLine
 10
118.0678098992437
 20
56.3573520369059
 30
0.0
 11
123.1566180496701
 21
61.47376674149373
 31
0.0
  0
SPLINE
  5
237
330
1F
100
AcDbEntity
  8
0
  6
K5LT32769
 62
    30
420
 16744448
100
AcDbSpline
210
0.0
220
0.0
230
1.0
 70
     8
 71
     3
 72
     8
 73
     4
 74
     0
 42
0.0
 43
0.0
 12
1.0
 22
0.0
 32
0.0
 13
1.0
 23
0.0
 33
0.0
 40
0.0
 40
0.0
 40
0.0
 40
0.0
 40
1.0
 40
1.0
 40
1.0
 40
1.0
 10
113.4333751874638
 20
55.50680350315712
 30
0.0
 10
113.2734539602506
 20
56.30201907176969
 30
0.0
 10
113.1422206071128
 20
57.11290222151205
 30
0.0
 10
113.0370926408021
 20
57.93284930451651
 30
0.0
  0
LINE
  5
238
330
1F
100
AcDbEntity
  8
0
  6
K5LT32769
 62
    30
420
 16744448
100
AcDbLine
 10
122.1630739438249
 20
52.28760365615386
 30
0.0
 11
118.0678098992437
 21
56.35735203690591
 31
0.0
  0
LINE
  5
239
330
1F
100
AcDbEntity
  8
0
  6
K5LT32769
 62
    30
420
 16744448
100
AcDbLine
 10
122.1630739438249
 20
52.28760365615386
 30
0.0
 11
127.2967023701154
 21
57.36047908331668
 31
0.0
  0
LINE
  5
23A
330
1F
100
AcDbEntity
  8
0
  6
K5LT32769
 62
    30
420
 16744448
100
AcDbLine
 10
124.5619316147091
 20
49.90369213898234
 30
0.0
 11
142.0109325405919
 21
67.1626733353318
 31
0.0
  0
LINE
  5
23B
330
1F
100
AcDbEntity
  8
0
  6
K5LT32769
 62
    30
420
 16744448
100
AcDbLine
 10
120.3539309829877
 20
50.4998706711845
 30
0.0
 11
116.3188977165612
 21
54.59895208469709
 31
0.0
  0
SPLINE
  5
23C
330
1F
100
AcDbEntity
  8
0
  6
K5LT32769
 62
    30
420
 16744448
100
AcDbSpline
210
0.0
220
0.0
230
1.0
 70
     8
 71
     3
 72
     8
 73
     4
 74
     0
 42
0.0
 43
0.0
 12
1.0
 22
0.0
 32
0.0
 13
1.0
 23
0.0
 33
0.0
 40
0.0
 40
0.0
 40
0.0
 40
0.0
 40
1.0
 40
1.0
 40
1.0
 40
1.0
 10
116.9197023981728
 20
47.10628384476993
 30
0.0
 10
115.7475988137058
 20
48.63182047704822
 30
0.0
 10
114.8627571930668
 20
50.46772150190557
 30
0.0
 10
114.2136867566843
 20
52.48232045053516
 30
0.0
  0
SPLINE
  5
23D
330
1F
100
AcDbEntity
  8
0
  6
K5LT32769
 62
    30
420
 16744448
100
AcDbSpline
210
0.0
220
0.0
230
1.0
 70
     8
 71
     3
 72
     8
 73
     4
 74
     0
 42
0.0
 43
0.0
 12
1.0
 22
0.0
 32
0.0
 13
1.0
 23
0.0
 33
0.0
 40
0.0
 40
0.0
 40
0.0
 40
0.0
 40
1.0
 40
1.0
 40
1.0
 40
1.0
 10
123.8829200814336
 20
40.47650836676532
 30
0.0
 10
122.1661817999895
 20
41.6281960600134
 30
0.0
 10
120.532706646451
 20
43.08310831669387
 30
0.0
 10
119.1392950957017
 20
44.54010816566982
 30
0.0
  0
SPLINE
  5
23E
330
1F
100
AcDbEntity
  8
0
  6
K5LT32769
 62
    30
420
 16744448
100
AcDbSpline
210
0.0
220
0.0
230
1.0
 70
     8
 71
     3
 72
    14
 73
    10
 74
     0
 42
0.0
 43
0.0
 12
1.0
 22
0.0
 32
0.0
 13
1.0
 23
0.0
 33
0.0
 40
0.0
 40
0.0
 40
0.0
 40
0.0
 40
1.0
 40
1.0
 40
1.0
 40
2.0
 40
2.0
 40
2.0
 40
3.0
 40
3.0
 40
3.0
 40
3.0
 10
127.0255439437587
 20
47.45542941945962
 30
0.0
 10
126.9707887908615
 20
48.67319594490505
 30
0.0
 10
127.1323168537764
 20
49.9213009183712
 30
0.0
 10
127.4872080028644
 20
50.87444779462085
 30
0.0
 10
128.0671883078265
 20
52.43212658537569
 30
0.0
 10
129.4531036321991
 20
54.2653726301181
 30
0.0
 10
130.9057414822961
 20
55.01941963843174
 30
0.0
 10
132.4669734471811
 20
55.82983655846905
 30
0.0
 10
134.3898985293615
 20
55.91529989545484
 30
0.0
 10
136.674516728837
 20
55.27580964938911
 30
0.0
  0
LINE
  5
23F
330
1F
100
AcDbEntity
  8
0
  6
K5LT32769
 62
    30
420
 16744448
100
AcDbLine
 10
129.1884765983982
 20
59.22986545090981
 30
0.0
 11
133.1921549193842
 21
63.18616296336343
 31
0.0
  0
LINE
  5
240
330
1F
100
AcDbEntity
  8
0
  6
K5LT32769
 62
    30
420
 16744448
100
AcDbLine
 10
135.3221543408563
 20
65.29095529109023
 30
0.0
 11
139.6739289672167
 21
69.59122962601442
 31
0.0
  0
ARC
  5
241
330
1F
100
AcDbEntity
  8
0
  6
K5LT32769
 62
    30
420
 16744448
100
AcDbCircle
 10
154.5535177012296
 20
63.30882369517195
 30
0.0
 40
10.0
100
AcDbArc
 50
173.4338974238154
 51
180.0
  0
LINE
  5
242
330
1F
100
AcDbEntity
  8
0
  6
K5LT32769
 62
    30
420
 16744448
100
AcDbLine
 10
144.0577139257115
 20
69.1871652583289
 30
0.0
 11
147.3854576851932
 21
72.47866986739619
 31
0.0
  0
LINE
  5
243
330
1F
100
AcDbEntity
  8
0
  6
K5LT32769
 62
    30
420
 16744448
100
AcDbLine
 10
141.7439304985877
 20
71.6367340978426
 30
0.0
 11
137.6137345463752
 21
76.00931244161684
 31
0.0
  0
LINE
  5
244
330
1F
100
AcDbEntity
  8
0
  6
K5LT32769
 62
    30
420
 16744448
100
AcDbLine
 10
141.7439304985877
 20
71.63673409784259
 30
0.0
 11
144.681441413324
 21
74.5394815698009
 31
0.0
  0
LINE
  5
245
330
1F
100
AcDbEntity
  8
0
  6
K5LT32769
 62
    30
420
 16744448
100
AcDbLine
 10
139.6739289672167
 20
69.59122962601441
 30
0.0
 11
135.5217951436758
 21
73.90602436223008
 31
0.0
  0
SPLINE
  5
246
330
1F
100
AcDbEntity
  8
0
  6
K5LT32769
 62
    30
420
 16744448
100
AcDbSpline
210
0.0
220
0.0
230
1.0
 70
     8
 71
     3
 72
     8
 73
     4
 74
     0
 42
0.0
 43
0.0
 12
1.0
 22
0.0
 32
0.0
 13
1.0
 23
0.0
 33
0.0
 40
0.0
 40
0.0
 40
0.0
 40
0.0
 40
1.0
 40
1.0
 40
1.0
 40
1.0
 10
147.3854576851932
 20
72.47866986739619
 30
0.0
 10
147.9872744400224
 20
72.20024955538568
 30
0.0
 10
148.6369029430114
 20
71.98695416197043
 30
0.0
 10
149.3343431941601
 20
71.83878368715052
 30
0.0
  0
LINE
  5
247
330
1F
100
AcDbEntity
  8
0
  6
K5LT32769
 62
    30
420
 16744448
100
AcDbLine
 10
150.6721849253096
 20
89.13860432351109
 30
0.0
 11
153.7921873751104
 21
92.27553264555314
 31
0.0
  0
SPLINE
  5
248
330
1F
100
AcDbEntity
  8
0
  6
K5LT32769
 62
    30
420
 16744448
100
AcDbSpline
210
0.0
220
0.0
230
1.0
 70
     8
 71
     3
 72
    14
 73
    10
 74
     0
 42
0.0
 43
0.0
 12
1.0
 22
0.0
 32
0.0
 13
1.0
 23
0.0
 33
0.0
 40
0.0
 40
0.0
 40
0.0
 40
0.0
 40
1.0
 40
1.0
 40
1.0
 40
2.0
 40
2.0
 40
2.0
 40
3.0
 40
3.0
 40
3.0
 40
3.0
 10
142.32726539624
 20
79.94673257797787
 30
0.0
 10
142.3603860636651
 20
79.78463808810429
 30
0.0
 10
142.3941984113402
 20
79.62493021026552
 30
0.0
 10
142.4278585600349
 20
79.46842064690945
 30
0.0
 10
142.6854943482244
 20
78.27049175241278
 30
0.0
 10
143.0458350991323
 20
77.01245457979937
 30
0.0
 10
143.6643070554885
 20
75.96514990979085
 30
0.0
 10
143.9536467185038
 20
75.4751894884973
 30
0.0
 10
144.297113472132
 20
74.9886647372712
 30
0.0
 10
144.6814414133239
 20
74.53948156980087
 30
0.0
  0
LINE
  5
249
330
1F
100
AcDbEntity
  8
0
  6
K5LT32769
 62
    30
420
 16744448
100
AcDbLine
 10
140.1755332388843
 20
82.2489615545795
 30
0.0
 11
135.5243726167182
 21
87.22543444999611
 31
0.0
  0
SPLINE
  5
24A
330
1F
100
AcDbEntity
  8
0
  6
K5LT32769
 62
    30
420
 16744448
100
AcDbSpline
210
0.0
220
0.0
230
1.0
 70
     8
 71
     3
 72
     8
 73
     4
 74
     0
 42
0.0
 43
0.0
 12
1.0
 22
0.0
 32
0.0
 13
1.0
 23
0.0
 33
0.0
 40
0.0
 40
0.0
 40
0.0
 40
0.0
 40
1.0
 40
1.0
 40
1.0
 40
1.0
 10
146.4420511671173
 20
88.51440200534068
 30
0.0
 10
144.7943597145013
 20
87.80557080123715
 30
0.0
 10
142.9726663843228
 20
86.17473231610397
 30
0.0
 10
142.3041973623045
 20
84.54542513838365
 30
0.0
  0
LINE
  5
24B
330
1F
100
AcDbEntity
  8
0
  6
K5LT32769
 62
    30
420
 16744448
100
AcDbLine
 10
148.8607003583382
 20
90.9341286740334
 30
0.0
 11
152.0282019341905
 21
94.10163024988572
 31
0.0
  0
LINE
  5
24C
330
1F
100
AcDbEntity
  8
0
  6
K5LT32769
 62
    30
420
 16744448
100
AcDbLine
 10
148.8607003583382
 20
90.93412867403342
 30
0.0
 11
144.0440063557776
 21
95.70838484397237
 31
0.0
  0
LINE
  5
24D
330
1F
100
AcDbEntity
  8
0
  6
K5LT32769
 62
    30
420
 16744448
100
AcDbLine
 10
184.2316763584724
 20
-85.29868440687451
 30
0.0
 11
182.2992728609811
 21
-83.333398524702
 31
0.0
  0
LINE
  5
24E
330
1F
100
AcDbEntity
  8
0
  6
K5LT32769
 62
    30
420
 16744448
100
AcDbLine
 10
185.5535177012296
 20
-84.13039640974885
 30
0.0
 11
183.5884870473
 21
-82.16618229808424
 31
0.0
  0
LINE
  5
24F
330
1F
100
AcDbEntity
  8
0
  6
K5LT32769
 62
    30
420
 16744448
100
AcDbLine
 10
185.3987762663168
 20
-78.0274923937699
 30
0.0
 11
182.9816237446747
 21
-75.61168182932094
 31
0.0
  0
LINE
  5
250
330
1F
100
AcDbEntity
  8
0
  6
K5LT32769
 62
    30
420
 16744448
100
AcDbLine
 10
185.5535177012296
 20
-75.72080371617987
 30
0.0
 11
184.3089667440508
 21
-74.47710333689474
 31
0.0
  0
LINE
  5
251
330
1F
100
AcDbEntity
  8
0
  6
K5LT32769
 62
    30
420
 16744448
100
AcDbLine
 10
168.3364553246705
 20
-79.31684222700349
 30
0.0
 11
173.7501966357735
 21
-74.63884853406589
 31
0.0
  0
LINE
  5
252
330
1F
100
AcDbEntity
  8
0
  6
K5LT32769
 62
    30
420
 16744448
100
AcDbLine
 10
170.4744998507682
 20
-79.82754463182017
 30
0.0
 11
175.0452173763343
 21
-75.95590575418015
 31
0.0
  0
LINE
  5
253
330
1F
100
AcDbEntity
  8
0
  6
K5LT32769
 62
    30
420
 16744448
100
AcDbLine
 10
185.5535177012296
 20
-71.20833916063644
 30
0.0
 11
183.1116130865292
 21
-73.28056800066909
 31
0.0
  0
LINE
  5
254
330
1F
100
AcDbEntity
  8
0
  6
K5LT32769
 62
    30
420
 16744448
100
AcDbLine
 10
185.5535177012296
 20
-73.41329334248688
 30
0.0
 11
184.3089667440507
 21
-74.47710333689474
 31
0.0
  0
LINE
  5
255
330
1F
100
AcDbEntity
  8
0
  6
K5LT32769
 62
    30
420
 16744448
100
AcDbLine
 10
185.3987762663168
 20
-78.0274923937699
 30
0.0
 11
182.3532775245173
 21
-80.93148605013498
 31
0.0
  0
LINE
  5
256
330
1F
100
AcDbEntity
  8
0
  6
K5LT32769
 62
    30
420
 16744448
100
AcDbLine
 10
185.5535177012296
 20
-80.38710191764163
 30
0.0
 11
183.5884870473
 21
-82.16618229808424
 31
0.0
  0
LINE
  5
257
330
1F
100
AcDbEntity
  8
0
  6
K5LT32769
 62
    30
420
 16744448
100
AcDbLine
 10
184.2316763584724
 20
-85.2986844068745
 30
0.0
 11
181.6072758710886
 21
-87.61821814355243
 31
0.0
  0
LINE
  5
258
330
1F
100
AcDbEntity
  8
0
  6
K5LT32769
 62
    30
420
 16744448
100
AcDbLine
 10
185.5535177012296
 20
-86.64301861697372
 30
0.0
 11
182.92958178301
 21
-89.02963799780223
 31
0.0
  0
LINE
  5
259
330
1F
100
AcDbEntity
  8
0
  6
K5LT32769
 62
    30
420
 16744448
100
AcDbLine
 10
179.4994856923814
 20
-69.67090928463627
 30
0.0
 11
177.6414501988454
 21
-67.81414364984528
 31
0.0
  0
LINE
  5
25A
330
1F
100
AcDbEntity
  8
0
  6
K5LT32769
 62
    30
420
 16744448
100
AcDbLine
 10
179.4994856923814
 20
-69.67090928463627
 30
0.0
 11
185.5535177012296
 21
-64.43964278578242
 31
0.0
  0
LINE
  5
25B
330
1F
100
AcDbEntity
  8
0
  6
K5LT32769
 62
    30
420
 16744448
100
AcDbLine
 10
178.1791135690193
 20
-70.81183791614498
 30
0.0
 11
175.4830754835554
 21
-68.11729661984498
 31
0.0
  0
LINE
  5
25C
330
1F
100
AcDbEntity
  8
0
  6
K5LT32769
 62
    30
420
 16744448
100
AcDbLine
 10
180.8599915218338
 20
-71.03048528781179
 30
0.0
 11
185.5535177012296
 21
-67.05482100146547
 31
0.0
  0
LINE
  5
25D
330
1F
100
AcDbEntity
  8
0
  6
K5LT32769
 62
    30
420
 16744448
100
AcDbLine
 10
181.7799270855156
 20
-74.41065232933423
 30
0.0
 11
178.5618046644166
 21
-77.14158868598433
 31
0.0
  0
LINE
  5
25E
330
1F
100
AcDbEntity
  8
0
  6
K5LT32769
 62
    30
420
 16744448
100
AcDbLine
 10
182.9816237446747
 20
-75.61168182932093
 30
0.0
 11
179.7741053730716
 21
-78.35338563925797
 31
0.0
  0
LINE
  5
25F
330
1F
100
AcDbEntity
  8
0
  6
K5LT32769
 62
    30
420
 16744448
100
AcDbLine
 10
183.1116130865292
 20
-73.28056800066909
 30
0.0
 11
180.8599915218338
 21
-71.03048528781177
 31
0.0
  0
LINE
  5
260
330
1F
100
AcDbEntity
  8
0
  6
K5LT32769
 62
    30
420
 16744448
100
AcDbLine
 10
181.7799270855156
 20
-74.41065232933424
 30
0.0
 11
179.5273376143865
 21
-72.15931345311671
 31
0.0
  0
SPLINE
  5
261
330
1F
100
AcDbEntity
  8
0
  6
K5LT32769
 62
    30
420
 16744448
100
AcDbSpline
210
0.0
220
0.0
230
1.0
 70
     8
 71
     3
 72
    14
 73
    10
 74
     0
 42
0.0
 43
0.0
 12
1.0
 22
0.0
 32
0.0
 13
1.0
 23
0.0
 33
0.0
 40
0.0
 40
0.0
 40
0.0
 40
0.0
 40
1.0
 40
1.0
 40
1.0
 40
2.0
 40
2.0
 40
2.0
 40
3.0
 40
3.0
 40
3.0
 40
3.0
 10
177.6414502184771
 20
-67.81414364364244
 30
0.0
 10
178.6779309406942
 20
-67.48665567965676
 30
0.0
 10
179.7038842727806
 20
-66.95018206546939
 30
0.0
 10
180.5969318139084
 20
-66.42863021442332
 30
0.0
 10
182.0143508822541
 20
-65.60083829433124
 30
0.0
 10
183.4371375808415
 20
-64.46651091330543
 30
0.0
 10
184.3656272773145
 20
-63.10505626244314
 30
0.0
 10
184.8512437795854
 20
-62.39299144571576
 30
0.0
 10
185.2472072542238
 20
-61.61155590343471
 30
0.0
 10
185.5535177012296
 20
-60.76074963559999
 30
0.0
  0
SPLINE
  5
262
330
1F
100
AcDbEntity
  8
0
  6
K5LT32769
 62
    30
420
 16744448
100
AcDbSpline
210
0.0
220
0.0
230
1.0
 70
     8
 71
     3
 72
    11
 73
     7
 74
     0
 42
0.0
 43
0.0
 12
1.0
 22
0.0
 32
0.0
 13
1.0
 23
0.0
 33
0.0
 40
0.0
 40
0.0
 40
0.0
 40
0.0
 40
1.0
 40
1.0
 40
1.0
 40
2.0
 40
2.0
 40
2.0
 40
2.0
 10
171.0861964665542
 20
-69.66908687734792
 30
0.0
 10
171.3835510018193
 20
-69.43767481067728
 30
0.0
 10
171.6293113016871
 20
-69.16899073697267
 30
0.0
 10
171.7538501721947
 20
-68.90350656365808
 30
0.0
 10
172.0306912099302
 20
-68.31335415788189
 30
0.0
 10
172.0069513950442
 20
-67.56554998897128
 30
0.0
 10
171.6826307275366
 20
-66.66009405692627
 30
0.0
  0
LINE
  5
263
330
1F
100
AcDbEntity
  8
0
  6
K5LT32769
 62
    30
420
 16744448
100
AcDbLine
 10
174.9879990294662
 20
-73.56926809827337
 30
0.0
 11
171.0861964665546
 21
-69.66908687734755
 31
0.0
  0
LINE
  5
264
330
1F
100
AcDbEntity
  8
0
  6
K5LT32769
 62
    30
420
 16744448
100
AcDbLine
 10
174.9879990294662
 20
-73.56926809827337
 30
0.0
 11
178.1791135690193
 21
-70.81183791614498
 31
0.0
  0
LINE
  5
265
330
1F
100
AcDbEntity
  8
0
  6
K5LT32769
 62
    30
420
 16744448
100
AcDbLine
 10
173.7501966357734
 20
-74.63884853406589
 30
0.0
 11
169.5118340731654
 21
-70.32836466326134
 31
0.0
  0
LINE
  5
266
330
1F
100
AcDbEntity
  8
0
  6
K5LT32769
 62
    30
420
 16744448
100
AcDbLine
 10
176.3066687652482
 20
-74.88738987844421
 30
0.0
 11
179.5273376143865
 21
-72.15931345311671
 31
0.0
  0
SPLINE
  5
267
330
1F
100
AcDbEntity
  8
0
  6
K5LT32769
 62
    30
420
 16744448
100
AcDbSpline
210
0.0
220
0.0
230
1.0
 70
     8
 71
     3
 72
     8
 73
     4
 74
     0
 42
0.0
 43
0.0
 12
1.0
 22
0.0
 32
0.0
 13
1.0
 23
0.0
 33
0.0
 40
0.0
 40
0.0
 40
0.0
 40
0.0
 40
1.0
 40
1.0
 40
1.0
 40
1.0
 10
170.4744998507163
 20
-79.82754463191073
 30
0.0
 10
171.6513210684489
 20
-80.17242981218848
 30
0.0
 10
172.7735066508606
 20
-80.61247185313196
 30
0.0
 10
173.8410565979516
 20
-81.14767075474114
 30
0.0
  0
LINE
  5
268
330
1F
100
AcDbEntity
  8
0
  6
K5LT32769
 62
    30
420
 16744448
100
AcDbLine
 10
178.5618046644166
 20
-77.14158868598433
 30
0.0
 11
176.3066687652482
 21
-74.8873898784442
 31
0.0
  0
LINE
  5
269
330
1F
100
AcDbEntity
  8
0
  6
K5LT32769
 62
    30
420
 16744448
100
AcDbLine
 10
177.2803360733387
 20
-78.22905793275228
 30
0.0
 11
173.8410565982769
 21
-81.14767075417475
 31
0.0
  0
LINE
  5
26A
330
1F
100
AcDbEntity
  8
0
  6
K5LT32769
 62
    30
420
 16744448
100
AcDbLine
 10
178.4855656604664
 20
-79.45479608497249
 30
0.0
 11
175.4435567325277
 21
-82.05502669983996
 31
0.0
  0
LINE
  5
26B
330
1F
100
AcDbEntity
  8
0
  6
K5LT32769
 62
    30
420
 16744448
100
AcDbLine
 10
177.2803360733387
 20
-78.22905793275227
 30
0.0
 11
175.0452173763343
 21
-75.95590575418015
 31
0.0
  0
SPLINE
  5
26C
330
1F
100
AcDbEntity
  8
0
  6
K5LT32769
 62
    30
420
 16744448
100
AcDbSpline
210
0.0
220
0.0
230
1.0
 70
     8
 71
     3
 72
     8
 73
     4
 74
     0
 42
0.0
 43
0.0
 12
1.0
 22
0.0
 32
0.0
 13
1.0
 23
0.0
 33
0.0
 40
0.0
 40
0.0
 40
0.0
 40
0.0
 40
1.0
 40
1.0
 40
1.0
 40
1.0
 10
175.4435567325278
 20
-82.05502669983997
 30
0.0
 10
176.4660435114588
 20
-82.72092334370156
 30
0.0
 10
177.4108404059026
 20
-83.5370208997596
 30
0.0
 10
178.3222947795793
 20
-84.39451818333019
 30
0.0
  0
LINE
  5
26D
330
1F
100
AcDbEntity
  8
0
  6
K5LT32769
 62
    30
420
 16744448
100
AcDbLine
 10
182.3532775245173
 20
-80.93148605013496
 30
0.0
 11
179.7741053730716
 21
-78.35338563925797
 31
0.0
  0
LINE
  5
26E
330
1F
100
AcDbEntity
  8
0
  6
K5LT32769
 62
    30
420
 16744448
100
AcDbLine
 10
182.2992728609811
 20
-83.33339852470202
 30
0.0
 11
179.6783062503181
 21
-85.70634383499575
 31
0.0
  0
LINE
  5
26F
330
1F
100
AcDbEntity
  8
0
  6
K5LT32769
 62
    30
420
 16744448
100
AcDbLine
 10
181.0437471646234
 20
-82.05650840886429
 30
0.0
 11
178.4855656604664
 21
-79.45479608497249
 31
0.0
  0
LINE
  5
270
330
1F
100
AcDbEntity
  8
0
  6
K5LT32769
 62
    30
420
 16744448
100
AcDbLine
 10
181.0437471646234
 20
-82.05650840886429
 30
0.0
 11
178.3222947795793
 21
-84.39451818333018
 31
0.0
  0
SPLINE
  5
271
330
1F
100
AcDbEntity
  8
0
  6
K5LT32769
 62
    30
420
 16744448
100
AcDbSpline
210
0.0
220
0.0
230
1.0
 70
     8
 71
     3
 72
    11
 73
     7
 74
     0
 42
0.0
 43
0.0
 12
1.0
 22
0.0
 32
0.0
 13
1.0
 23
0.0
 33
0.0
 40
0.0
 40
0.0
 40
0.0
 40
0.0
 40
1.0
 40
1.0
 40
1.0
 40
2.0
 40
2.0
 40
2.0
 40
2.0
 10
179.6783062503179
 20
-85.70634383499561
 30
0.0
 10
179.9017290049272
 20
-85.92536541350928
 30
0.0
 10
180.1244552325861
 20
-86.1435447203004
 30
0.0
 10
180.3471885800676
 20
-86.35915543849006
 30
0.0
 10
180.7737787966304
 20
-86.77210403377595
 30
0.0
 10
181.193807892546
 20
-87.19179160325103
 30
0.0
 10
181.6072758678143
 20
-87.61821814691542
 30
0.0
  0
SPLINE
  5
272
330
1F
100
AcDbEntity
  8
0
  6
K5LT32769
 62
    30
420
 16744448
100
AcDbSpline
210
0.0
220
0.0
230
1.0
 70
     8
 71
     3
 72
     8
 73
     4
 74
     0
 42
0.0
 43
0.0
 12
1.0
 22
0.0
 32
0.0
 13
1.0
 23
0.0
 33
0.0
 40
0.0
 40
0.0
 40
0.0
 40
0.0
 40
1.0
 40
1.0
 40
1.0
 40
1.0
 10
182.9295817593694
 20
-89.02963801930466
 30
0.0
 10
183.8382128778718
 20
-90.03342997767882
 30
0.0
 10
184.7128581918252
 20
-91.07212900025291
 30
0.0
 10
185.5535177012296
 20
-92.14573508702698
 30
0.0
  0
ENDSEC
  0
SECTION
  2
OBJECTS
  0
DICTIONARY
  5
C
330
0
100
AcDbDictionary
281
     1
  3
ACAD_GROUP
350
D
  3
ACAD_LAYOUT
350
1A
  3
ACAD_MATERIAL
350
3B
  3
ACAD_MLEADERSTYLE
350
2B8
  3
ACAD_MLINESTYLE
350
17
  3
ACAD_PLOTSETTINGS
350
19
  3
ACAD_PLOTSTYLENAME
350
E
  3
ACAD_SCALELIST
350
273
  3
ACAD_TABLESTYLE
350
2B7
  3
ACAD_VISUALSTYLE
350
2A
  3
AcDbVariableDictionary
350
295
  0
DICTIONARY
  5
D
102
{ACAD_REACTORS
330
C
102
}
330
C
100
AcDbDictionary
281
     1
  0
DICTIONARY
  5
1A
102
{ACAD_REACTORS
330
C
102
}
330
C
100
AcDbDictionary
281
     1
  3
Layout1
350
1E
  3
Layout2
350
26
  3
Model
350
22
  0
DICTIONARY
  5
3B
102
{ACAD_REACTORS
330
C
102
}
330
C
100
AcDbDictionary
281
     1
  3
ByBlock
350
3D
  3
ByLayer
350
3C
  3
Global
350
3E
  0
DICTIONARY
  5
2B8
102
{ACAD_REACTORS
330
C
102
}
330
C
100
AcDbDictionary
281
     1
  0
DICTIONARY
  5
17
102
{ACAD_REACTORS
330
C
102
}
330
C
100
AcDbDictionary
281
     1
  3
Standard
350
18
  0
DICTIONARY
  5
19
102
{ACAD_REACTORS
330
C
102
}
330
C
100
AcDbDictionary
281
     1
  0
ACDBDICTIONARYWDFLT
  5
E
102
{ACAD_REACTORS
330
C
102
}
330
C
100
AcDbDictionary
281
     1
  3
Normal
350
F
100
AcDbDictionaryWithDefault
340
F
  0
DICTIONARY
  5
273
102
{ACAD_REACTORS
330
C
102
}
330
C
100
AcDbDictionary
281
     1
  3
A0
350
274
  3
A1
350
275
  3
A2
350
276
  3
A3
350
277
  3
A4
350
278
  3
A5
350
279
  3
A6
350
27A
  3
A7
350
27B
  3
A8
350
27C
  3
A9
350
27D
  3
B0
350
27E
  3
B1
350
27F
  3
B2
350
280
  3
B3
350
281
  3
B4
350
282
  3
B5
350
283
  3
B6
350
284
  3
B7
350
285
  3
B8
350
286
  3
B9
350
287
  3
C0
350
288
  3
C1
350
289
  3
C2
350
28A
  3
C3
350
28B
  3
C4
350
28C
  3
C5
350
28D
  3
C6
350
28E
  3
C7
350
28F
  3
C8
350
290
  3
C9
350
291
  3
D0
350
292
  3
D1
350
293
  3
D2
350
294
  0
DICTIONARY
  5
2B7
102
{ACAD_REACTORS
330
C
102
}
330
C
100
AcDbDictionary
281
     1
  0
DICTIONARY
  5
2A
102
{ACAD_REACTORS
330
C
102
}
330
C
100
AcDbDictionary
281
     1
  3
2dWireframe
350
2F
  3
3D Hidden
350
31
  3
3dWireframe
350
30
  3
Basic
350
32
  3
Brighten
350
36
  3
ColorChange
350
3A
  3
Conceptual
350
34
  3
Dim
350
35
  3
Facepattern
350
39
  3
Flat
350
2B
  3
FlatWithEdges
350
2C
  3
Gouraud
350
2D
  3
GouraudWithEdges
350
2E
  3
Linepattern
350
38
  3
Realistic
350
33
  3
Thicken
350
37
  0
DICTIONARY
  5
295
102
{ACAD_REACTORS
330
C
102
}
330
C
100
AcDbDictionary
281
     1
  3
CANNOSCALE
350
296
  0
LAYOUT
  5
1E
102
{ACAD_REACTORS
330
1A
102
}
330
1A
100
AcDbPlotSettings
  1

  2
none_device
  4

  6

 40
0.0
 41
0.0
 42
0.0
 43
0.0
 44
0.0
 45
0.0
 46
0.0
 47
0.0
 48
0.0
 49
0.0
140
0.0
141
0.0
142
1.0
143
1.0
 70
   688
 72
     0
 73
     0
 74
     5
  7

 75
    16
 76
     0
 77
     2
 78
   300
147
1.0
148
0.0
149
0.0
100
AcDbLayout
  1
Layout1
 70
     1
 71
     1
 10
0.0
 20
0.0
 11
420.0
 21
297.0
 12
0.0
 22
0.0
 32
0.0
 14
1.000000000000000E+20
 24
1.000000000000000E+20
 34
1.000000000000000E+20
 15
-1.000000000000000E+20
 25
-1.000000000000000E+20
 35
-1.000000000000000E+20
146
0.0
 13
0.0
 23
0.0
 33
0.0
 16
1.0
 26
0.0
 36
0.0
 17
0.0
 27
1.0
 37
0.0
 76
     0
330
1B
  0
LAYOUT
  5
26
102
{ACAD_REACTORS
330
1A
102
}
330
1A
100
AcDbPlotSettings
  1

  2
none_device
  4

  6

 40
0.0
 41
0.0
 42
0.0
 43
0.0
 44
0.0
 45
0.0
 46
0.0
 47
0.0
 48
0.0
 49
0.0
140
0.0
141
0.0
142
1.0
143
1.0
 70
   688
 72
     0
 73
     0
 74
     5
  7

 75
    16
 76
     0
 77
     2
 78
   300
147
1.0
148
0.0
149
0.0
100
AcDbLayout
  1
Layout2
 70
     1
 71
     2
 10
0.0
 20
0.0
 11
0.0
 21
0.0
 12
0.0
 22
0.0
 32
0.0
 14
0.0
 24
0.0
 34
0.0
 15
0.0
 25
0.0
 35
0.0
146
0.0
 13
0.0
 23
0.0
 33
0.0
 16
1.0
 26
0.0
 36
0.0
 17
0.0
 27
1.0
 37
0.0
 76
     0
330
23
  0
LAYOUT
  5
22
102
{ACAD_REACTORS
330
1A
102
}
330
1A
100
AcDbPlotSettings
  1

  2
none_device
  4

  6

 40
0.0
 41
0.0
 42
0.0
 43
0.0
 44
0.0
 45
0.0
 46
0.0
 47
0.0
 48
0.0
 49
0.0
140
0.0
141
0.0
142
1.0
143
1.0
 70
  1712
 72
     0
 73
     0
 74
     0
  7

 75
     0
 76
     0
 77
     2
 78
   300
147
1.0
148
0.0
149
0.0
100
AcDbLayout
  1
Model
 70
     1
 71
     0
 10
0.0
 20
0.0
 11
420.0
 21
297.0
 12
0.0
 22
0.0
 32
0.0
 14
1.000000000000000E+20
 24
1.000000000000000E+20
 34
1.000000000000000E+20
 15
-1.000000000000000E+20
 25
-1.000000000000000E+20
 35
-1.000000000000000E+20
146
0.0
 13
0.0
 23
0.0
 33
0.0
 16
1.0
 26
0.0
 36
0.0
 17
0.0
 27
1.0
 37
0.0
 76
     0
330
1F
331
29
  0
MATERIAL
  5
3D
102
{ACAD_REACTORS
330
3B
102
}
330
3B
100
AcDbMaterial
  1
ByBlock
 72
     1
 94
      127
  0
MATERIAL
  5
3C
102
{ACAD_REACTORS
330
3B
102
}
330
3B
100
AcDbMaterial
  1
ByLayer
 72
     1
 94
      127
  0
MATERIAL
  5
3E
102
{ACAD_REACTORS
330
3B
102
}
330
3B
100
AcDbMaterial
  1
Global
 72
     1
 94
      127
  0
MLINESTYLE
  5
18
102
{ACAD_REACTORS
330
17
102
}
330
17
100
AcDbMlineStyle
  2
Standard
 70
     0
  3

 62
   256
 51
90.0
 52
90.0
 71
     2
 49
0.5
 62
   256
  6
BYLAYER
 49
-0.5
 62
   256
  6
BYLAYER
  0
ACDBPLACEHOLDER
  5
F
102
{ACAD_REACTORS
330
E
102
}
330
E
  0
SCALE
  5
274
102
{ACAD_REACTORS
330
273
102
}
330
273
100
AcDbScale
 70
     0
300
1:1
140
1.0
141
1.0
290
     1
  0
SCALE
  5
275
102
{ACAD_REACTORS
330
273
102
}
330
273
100
AcDbScale
 70
     0
300
1:2
140
1.0
141
2.0
290
     0
  0
SCALE
  5
276
102
{ACAD_REACTORS
330
273
102
}
330
273
100
AcDbScale
 70
     0
300
1:4
140
1.0
141
4.0
290
     0
  0
SCALE
  5
277
102
{ACAD_REACTORS
330
273
102
}
330
273
100
AcDbScale
 70
     0
300
1:5
140
1.0
141
5.0
290
     0
  0
SCALE
  5
278
102
{ACAD_REACTORS
330
273
102
}
330
273
100
AcDbScale
 70
     0
300
1:8
140
1.0
141
8.0
290
     0
  0
SCALE
  5
279
102
{ACAD_REACTORS
330
273
102
}
330
273
100
AcDbScale
 70
     0
300
1:10
140
1.0
141
10.0
290
     0
  0
SCALE
  5
27A
102
{ACAD_REACTORS
330
273
102
}
330
273
100
AcDbScale
 70
     0
300
1:16
140
1.0
141
16.0
290
     0
  0
SCALE
  5
27B
102
{ACAD_REACTORS
330
273
102
}
330
273
100
AcDbScale
 70
     0
300
1:20
140
1.0
141
20.0
290
     0
  0
SCALE
  5
27C
102
{ACAD_REACTORS
330
273
102
}
330
273
100
AcDbScale
 70
     0
300
1:30
140
1.0
141
30.0
290
     0
  0
SCALE
  5
27D
102
{ACAD_REACTORS
330
273
102
}
330
273
100
AcDbScale
 70
     0
300
1:40
140
1.0
141
40.0
290
     0
  0
SCALE
  5
27E
102
{ACAD_REACTORS
330
273
102
}
330
273
100
AcDbScale
 70
     0
300
1:50
140
1.0
141
50.0
290
     0
  0
SCALE
  5
27F
102
{ACAD_REACTORS
330
273
102
}
330
273
100
AcDbScale
 70
     0
300
1:100
140
1.0
141
100.0
290
     0
  0
SCALE
  5
280
102
{ACAD_REACTORS
330
273
102
}
330
273
100
AcDbScale
 70
     0
300
2:1
140
2.0
141
1.0
290
     0
  0
SCALE
  5
281
102
{ACAD_REACTORS
330
273
102
}
330
273
100
AcDbScale
 70
     0
300
4:1
140
4.0
141
1.0
290
     0
  0
SCALE
  5
282
102
{ACAD_REACTORS
330
273
102
}
330
273
100
AcDbScale
 70
     0
300
8:1
140
8.0
141
1.0
290
     0
  0
SCALE
  5
283
102
{ACAD_REACTORS
330
273
102
}
330
273
100
AcDbScale
 70
     0
300
10:1
140
10.0
141
1.0
290
     0
  0
SCALE
  5
284
102
{ACAD_REACTORS
330
273
102
}
330
273
100
AcDbScale
 70
     0
300
100:1
140
100.0
141
1.0
290
     0
  0
SCALE
  5
285
102
{ACAD_REACTORS
330
273
102
}
330
273
100
AcDbScale
 70
     0
300
1/128" = 1'-0"
140
0.0078125
141
12.0
290
     0
  0
SCALE
  5
286
102
{ACAD_REACTORS
330
273
102
}
330
273
100
AcDbScale
 70
     0
300
1/64" = 1'-0"
140
0.015625
141
12.0
290
     0
  0
SCALE
  5
287
102
{ACAD_REACTORS
330
273
102
}
330
273
100
AcDbScale
 70
     0
300
1/32" = 1'-0"
140
0.03125
141
12.0
290
     0
  0
SCALE
  5
288
102
{ACAD_REACTORS
330
273
102
}
330
273
100
AcDbScale
 70
     0
300
1/16" = 1'-0"
140
0.0625
141
12.0
290
     0
  0
SCALE
  5
289
102
{ACAD_REACTORS
330
273
102
}
330
273
100
AcDbScale
 70
     0
300
3/32" = 1'-0"
140
0.09375
141
12.0
290
     0
  0
SCALE
  5
28A
102
{ACAD_REACTORS
330
273
102
}
330
273
100
AcDbScale
 70
     0
300
1/8" = 1'-0"
140
0.125
141
12.0
290
     0
  0
SCALE
  5
28B
102
{ACAD_REACTORS
330
273
102
}
330
273
100
AcDbScale
 70
     0
300
3/16" = 1'-0"
140
0.1875
141
12.0
290
     0
  0
SCALE
  5
28C
102
{ACAD_REACTORS
330
273
102
}
330
273
100
AcDbScale
 70
     0
300
1/4" = 1'-0"
140
0.25
141
12.0
290
     0
  0
SCALE
  5
28D
102
{ACAD_REACTORS
330
273
102
}
330
273
100
AcDbScale
 70
     0
300
3/8" = 1'-0"
140
0.375
141
12.0
290
     0
  0
SCALE
  5
28E
102
{ACAD_REACTORS
330
273
102
}
330
273
100
AcDbScale
 70
     0
300
1/2" = 1'-0"
140
0.5
141
12.0
290
     0
  0
SCALE
  5
28F
102
{ACAD_REACTORS
330
273
102
}
330
273
100
AcDbScale
 70
     0
300
3/4" = 1'-0"
140
0.75
141
12.0
290
     0
  0
SCALE
  5
290
102
{ACAD_REACTORS
330
273
102
}
330
273
100
AcDbScale
 70
     0
300
1" = 1'-0"
140
1.0
141
12.0
290
     0
  0
SCALE
  5
291
102
{ACAD_REACTORS
330
273
102
}
330
273
100
AcDbScale
 70
     0
300
1-1/2" = 1'-0"
140
1.5
141
12.0
290
     0
  0
SCALE
  5
292
102
{ACAD_REACTORS
330
273
102
}
330
273
100
AcDbScale
 70
     0
300
3" = 1'-0"
140
3.0
141
12.0
290
     0
  0
SCALE
  5
293
102
{ACAD_REACTORS
330
273
102
}
330
273
100
AcDbScale
 70
     0
300
6" = 1'-0"
140
6.0
141
12.0
290
     0
  0
SCALE
  5
294
102
{ACAD_REACTORS
330
273
102
}
330
273
100
AcDbScale
 70
     0
300
1'-0" = 1'-0"
140
12.0
141
12.0
290
     0
  0
VISUALSTYLE
  5
2F
102
{ACAD_REACTORS
330
2A
102
}
102
{ACAD_XDICTIONARY
360
29F
102
}
330
2A
100
AcDbVisualStyle
  2
2dWireframe
 70
     4
 71
     0
 72
     2
 73
     0
 90
        0
 40
-0.6
 41
-30.0
 62
     5
 63
     7
421
 16777215
 74
     1
 91
        4
 64
     7
 65
   257
 75
     1
175
     1
 42
1.0
 92
        0
 66
   257
 43
1.0
 76
     1
 77
     6
 78
     2
 67
     7
 79
     5
170
     0
171
     0
290
     0
174
     0
 93
        1
 44
0.0
173
     0
291
     0
 45
0.0
  0
VISUALSTYLE
  5
31
102
{ACAD_REACTORS
330
2A
102
}
102
{ACAD_XDICTIONARY
360
2A3
102
}
330
2A
100
AcDbVisualStyle
  2
3D Hidden
 70
     6
 71
     1
 72
     2
 73
     2
 90
        0
 40
-0.6
 41
-30.0
 62
     5
 63
     7
421
 16777215
 74
     2
 91
        2
 64
     7
 65
   257
 75
     2
175
     1
 42
40.0
 92
        0
 66
   257
 43
1.0
 76
     1
 77
     6
 78
     2
 67
     7
 79
     3
170
     0
171
     0
290
     0
174
     0
 93
        1
 44
0.0
173
     0
291
     0
 45
0.0
  0
VISUALSTYLE
  5
30
102
{ACAD_REACTORS
330
2A
102
}
102
{ACAD_XDICTIONARY
360
2A1
102
}
330
2A
100
AcDbVisualStyle
  2
3dWireframe
 70
     5
 71
     0
 72
     2
 73
     0
 90
        0
 40
-0.6
 41
-30.0
 62
     5
 63
     7
421
 16777215
 74
     1
 91
        4
 64
     7
 65
   257
 75
     1
175
     1
 42
1.0
 92
        0
 66
   257
 43
1.0
 76
     1
 77
     6
 78
     2
 67
     7
 79
     5
170
     0
171
     0
290
     0
174
     0
 93
        1
 44
0.0
173
     0
291
     0
 45
0.0
  0
VISUALSTYLE
  5
32
102
{ACAD_REACTORS
330
2A
102
}
102
{ACAD_XDICTIONARY
360
2A5
102
}
330
2A
100
AcDbVisualStyle
  2
Basic
 70
     7
 71
     1
 72
     0
 73
     1
 90
        0
 40
-0.6
 41
-30.0
 62
     5
 63
     7
421
 16777215
 74
     0
 91
        4
 64
     7
 65
   257
 75
     1
175
     1
 42
1.0
 92
        8
 66
     7
 43
1.0
 76
     1
 77
     6
 78
     2
 67
     7
 79
     5
170
     0
171
     0
290
     0
174
     0
 93
        1
 44
0.0
173
     0
291
     1
 45
0.0
  0
VISUALSTYLE
  5
36
102
{ACAD_REACTORS
330
2A
102
}
102
{ACAD_XDICTIONARY
360
2AD
102
}
330
2A
100
AcDbVisualStyle
  2
Brighten
 70
    12
 71
     2
 72
     2
 73
     0
 90
        0
 40
-0.6
 41
-30.0
 62
     5
 63
     7
421
 16777215
 74
     1
 91
        4
 64
     7
 65
   257
 75
     1
175
     1
 42
1.0
 92
        8
 66
     7
 43
1.0
 76
     1
 77
     6
 78
     2
 67
     7
 79
     5
170
     0
171
     0
290
     0
174
     0
 93
        1
 44
50.0
173
     0
291
     1
 45
0.0
  0
VISUALSTYLE
  5
3A
102
{ACAD_REACTORS
330
2A
102
}
102
{ACAD_XDICTIONARY
360
2B5
102
}
330
2A
100
AcDbVisualStyle
  2
ColorChange
 70
    16
 71
     2
 72
     2
 73
     3
 90
        0
 40
-0.6
 41
-30.0
 62
     5
 63
     8
421
  8421504
 74
     1
 91
        4
 64
     7
 65
   257
 75
     1
175
     1
 42
1.0
 92
        8
 66
     8
424
  8421504
 43
1.0
 76
     1
 77
     6
 78
     2
 67
     7
 79
     5
170
     0
171
     0
290
     0
174
     0
 93
        1
 44
0.0
173
     0
291
     1
 45
0.0
  0
VISUALSTYLE
  5
34
102
{ACAD_REACTORS
330
2A
102
}
102
{ACAD_XDICTIONARY
360
2A9
102
}
330
2A
100
AcDbVisualStyle
  2
Conceptual
 70
     9
 71
     3
 72
     2
 73
     0
 90
        0
 40
-0.6
 41
-30.0
 62
     5
 63
     7
421
 16777215
 74
     2
 91
        2
 64
     7
 65
   257
 75
     1
175
     1
 42
40.0
 92
        8
 66
     7
 43
1.0
 76
     1
 77
     6
 78
     2
 67
     7
 79
     3
170
     0
171
     0
290
     0
174
     0
 93
        1
 44
0.0
173
     0
291
     0
 45
0.0
  0
VISUALSTYLE
  5
35
102
{ACAD_REACTORS
330
2A
102
}
102
{ACAD_XDICTIONARY
360
2AB
102
}
330
2A
100
AcDbVisualStyle
  2
Dim
 70
    11
 71
     2
 72
     2
 73
     0
 90
        0
 40
-0.6
 41
-30.0
 62
     5
 63
     7
421
 16777215
 74
     1
 91
        4
 64
     7
 65
   257
 75
     1
175
     1
 42
1.0
 92
        8
 66
     7
 43
1.0
 76
     1
 77
     6
 78
     2
 67
     7
 79
     5
170
     0
171
     0
290
     0
174
     0
 93
        1
 44
-50.0
173
     0
291
     1
 45
0.0
  0
VISUALSTYLE
  5
39
102
{ACAD_REACTORS
330
2A
102
}
102
{ACAD_XDICTIONARY
360
2B3
102
}
330
2A
100
AcDbVisualStyle
  2
Facepattern
 70
    15
 71
     2
 72
     2
 73
     0
 90
        0
 40
-0.6
 41
-30.0
 62
     5
 63
     7
421
 16777215
 74
     1
 91
        4
 64
     7
 65
   257
 75
     1
175
     1
 42
1.0
 92
        8
 66
     7
 43
1.0
 76
     1
 77
     6
 78
     2
 67
     7
 79
     5
170
     0
171
     0
290
     0
174
     0
 93
        1
 44
0.0
173
     0
291
     1
 45
0.0
  0
VISUALSTYLE
  5
2B
102
{ACAD_REACTORS
330
2A
102
}
102
{ACAD_XDICTIONARY
360
297
102
}
330
2A
100
AcDbVisualStyle
  2
Flat
 70
     0
 71
     2
 72
     1
 73
     1
 90
        2
 40
-0.6
 41
30.0
 62
     5
 63
     7
421
 16777215
 74
     0
 91
        4
 64
     7
 65
   257
 75
     1
175
     1
 42
1.0
 92
        8
 66
     7
 43
1.0
 76
     1
 77
     6
 78
     2
 67
     7
 79
     5
170
     0
171
     0
290
     0
174
     0
 93
       13
 44
0.0
173
     0
291
     1
 45
0.0
  0
VISUALSTYLE
  5
2C
102
{ACAD_REACTORS
330
2A
102
}
102
{ACAD_XDICTIONARY
360
299
102
}
330
2A
100
AcDbVisualStyle
  2
FlatWithEdges
 70
     1
 71
     2
 72
     1
 73
     1
 90
        2
 40
-0.6
 41
30.0
 62
     5
 63
     7
421
 16777215
 74
     1
 91
        4
 64
     7
 65
   257
 75
     1
175
     1
 42
1.0
 92
        0
 66
   257
 43
1.0
 76
     1
 77
     6
 78
     2
 67
     7
 79
     5
170
     0
171
     0
290
     0
174
     0
 93
       13
 44
0.0
173
     0
291
     1
 45
0.0
  0
VISUALSTYLE
  5
2D
102
{ACAD_REACTORS
330
2A
102
}
102
{ACAD_XDICTIONARY
360
29B
102
}
330
2A
100
AcDbVisualStyle
  2
Gouraud
 70
     2
 71
     2
 72
     2
 73
     1
 90
        2
 40
-0.6
 41
30.0
 62
     5
 63
     7
421
 16777215
 74
     0
 91
        4
 64
     7
 65
   257
 75
     1
175
     1
 42
1.0
 92
        0
 66
     7
 43
1.0
 76
     1
 77
     6
 78
     2
 67
     7
 79
     5
170
     0
171
     0
290
     0
174
     0
 93
       13
 44
0.0
173
     0
291
     1
 45
0.0
  0
VISUALSTYLE
  5
2E
102
{ACAD_REACTORS
330
2A
102
}
102
{ACAD_XDICTIONARY
360
29D
102
}
330
2A
100
AcDbVisualStyle
  2
GouraudWithEdges
 70
     3
 71
     2
 72
     2
 73
     1
 90
        2
 40
-0.6
 41
30.0
 62
     5
 63
     7
421
 16777215
 74
     1
 91
        4
 64
     7
 65
   257
 75
     1
175
     1
 42
1.0
 92
        0
 66
   257
 43
1.0
 76
     1
 77
     6
 78
     2
 67
     7
 79
     5
170
     0
171
     0
290
     0
174
     0
 93
       13
 44
0.0
173
     0
291
     1
 45
0.0
  0
VISUALSTYLE
  5
38
102
{ACAD_REACTORS
330
2A
102
}
102
{ACAD_XDICTIONARY
360
2B1
102
}
330
2A
100
AcDbVisualStyle
  2
Linepattern
 70
    14
 71
     2
 72
     2
 73
     0
 90
        0
 40
-0.6
 41
-30.0
 62
     5
 63
     7
421
 16777215
 74
     1
 91
        4
 64
     7
 65
   257
 75
     7
175
     7
 42
1.0
 92
        8
 66
     7
 43
1.0
 76
     1
 77
     6
 78
     2
 67
     7
 79
     5
170
     0
171
     0
290
     0
174
     0
 93
        1
 44
0.0
173
     0
291
     1
 45
0.0
  0
VISUALSTYLE
  5
33
102
{ACAD_REACTORS
330
2A
102
}
102
{ACAD_XDICTIONARY
360
2A7
102
}
330
2A
100
AcDbVisualStyle
  2
Realistic
 70
     8
 71
     2
 72
     2
 73
     0
 90
        0
 40
-0.6
 41
-30.0
 62
     5
 63
     7
421
 16777215
 74
     1
 91
        0
 64
     7
 65
   257
 75
     1
175
     1
 42
1.0
 92
        8
 66
     8
424
  7895160
 43
1.0
 76
     1
 77
     6
 78
     2
 67
     7
 79
     5
170
     0
171
     0
290
     0
174
     0
 93
       13
 44
0.0
173
     0
291
     0
 45
0.0
  0
VISUALSTYLE
  5
37
102
{ACAD_REACTORS
330
2A
102
}
102
{ACAD_XDICTIONARY
360
2AF
102
}
330
2A
100
AcDbVisualStyle
  2
Thicken
 70
    13
 71
     2
 72
     2
 73
     0
 90
        0
 40
-0.6
 41
-30.0
 62
     5
 63
     7
421
 16777215
 74
     1
 91
        4
 64
     7
 65
   257
 75
     1
175
     1
 42
1.0
 92
       12
 66
     7
 43
1.0
 76
     1
 77
     6
 78
     2
 67
     7
 79
     5
170
     0
171
     0
290
     0
174
     0
 93
        1
 44
0.0
173
     0
291
     1
 45
0.0
  0
DICTIONARYVAR
  5
296
102
{ACAD_REACTORS
330
295
102
}
330
295
100
DictionaryVariables
280
     0
  1
1:1
  0
DICTIONARY
  5
29F
330
2F
100
AcDbDictionary
280
     1
281
     1
  3
ACAD_XREC_ROUNDTRIP
360
2A0
  0
DICTIONARY
  5
2A3
330
31
100
AcDbDictionary
280
     1
281
     1
  3
ACAD_XREC_ROUNDTRIP
360
2A4
  0
DICTIONARY
  5
2A1
330
30
100
AcDbDictionary
280
     1
281
     1
  3
ACAD_XREC_ROUNDTRIP
360
2A2
  0
DICTIONARY
  5
2A5
330
32
100
AcDbDictionary
280
     1
281
     1
  3
ACAD_XREC_ROUNDTRIP
360
2A6
  0
DICTIONARY
  5
2AD
330
36
100
AcDbDictionary
280
     1
281
     1
  3
ACAD_XREC_ROUNDTRIP
360
2AE
  0
DICTIONARY
  5
2B5
330
3A
100
AcDbDictionary
280
     1
281
     1
  3
ACAD_XREC_ROUNDTRIP
360
2B6
  0
DICTIONARY
  5
2A9
330
34
100
AcDbDictionary
280
     1
281
     1
  3
ACAD_XREC_ROUNDTRIP
360
2AA
  0
DICTIONARY
  5
2AB
330
35
100
AcDbDictionary
280
     1
281
     1
  3
ACAD_XREC_ROUNDTRIP
360
2AC
  0
DICTIONARY
  5
2B3
330
39
100
AcDbDictionary
280
     1
281
     1
  3
ACAD_XREC_ROUNDTRIP
360
2B4
  0
DICTIONARY
  5
297
330
2B
100
AcDbDictionary
280
     1
281
     1
  3
ACAD_XREC_ROUNDTRIP
360
298
  0
DICTIONARY
  5
299
330
2C
100
AcDbDictionary
280
     1
281
     1
  3
ACAD_XREC_ROUNDTRIP
360
29A
  0
DICTIONARY
  5
29B
330
2D
100
AcDbDictionary
280
     1
281
     1
  3
ACAD_XREC_ROUNDTRIP
360
29C
  0
DICTIONARY
  5
29D
330
2E
100
AcDbDictionary
280
     1
281
     1
  3
ACAD_XREC_ROUNDTRIP
360
29E
  0
DICTIONARY
  5
2B1
330
38
100
AcDbDictionary
280
     1
281
     1
  3
ACAD_XREC_ROUNDTRIP
360
2B2
  0
DICTIONARY
  5
2A7
330
33
100
AcDbDictionary
280
     1
281
     1
  3
ACAD_XREC_ROUNDTRIP
360
2A8
  0
DICTIONARY
  5
2AF
330
37
100
AcDbDictionary
280
     1
281
     1
  3
ACAD_XREC_ROUNDTRIP
360
2B0
  0
XRECORD
  5
2A0
102
{ACAD_REACTORS
330
29F
102
}
330
29F
100
AcDbXrecord
280
     1
102
RTVSPropertyOp0
 70
     1
102
RTVSPropertyOp1
 70
     1
102
RTVSPropertyOp2
 70
     1
102
RTVSPropertyOp3
 70
     1
102
RTVSPropertyOp4
 70
     1
102
RTVSPropertyOp5
 70
     1
102
RTVSPropertyOp6
 70
     1
102
RTVSPropertyOp7
 70
     1
102
RTVSPropertyOp8
 70
     1
102
RTVSPropertyOp9
 70
     1
102
RTVSPropertyOp10
 70
     1
102
RTVSPropertyOp11
 70
     1
102
RTVSPropertyOp12
 70
     1
102
RTVSPropertyOp13
 70
     1
102
RTVSPropertyOp14
 70
     1
102
RTVSPropertyOp15
 70
     1
102
RTVSPropertyOp16
 70
     1
102
RTVSPropertyOp17
 70
     1
102
RTVSPropertyOp18
 70
     1
102
RTVSPropertyOp19
 70
     1
102
RTVSPropertyOp20
 70
     1
102
RTVSPropertyOp21
 70
     1
102
RTVSPropertyOp22
 70
     1
102
RTVSPropertyOp23
 70
     1
102
RTVSPropertyOp24
 70
     1
102
RTVSPropertyOp25
 70
     1
102
RTVSPropertyOp26
 70
     1
102
RTVSPropertyOp27
 70
     1
102
RTVSPropertyOp28
 70
     1
102
RTVSPropertyOp29
 70
     1
102
RTVSPropertyOp30
 70
     1
102
RTVSPropertyOp31
 70
     1
102
RTVSPropertyOp32
 70
     1
  0
XRECORD
  5
2A4
102
{ACAD_REACTORS
330
2A3
102
}
330
2A3
100
AcDbXrecord
280
     1
102
RTVSPropertyOp0
 70
     1
102
RTVSPropertyOp1
 70
     1
102
RTVSPropertyOp2
 70
     1
102
RTVSPropertyOp3
 70
     1
102
RTVSPropertyOp4
 70
     1
102
RTVSPropertyOp5
 70
     1
102
RTVSPropertyOp6
 70
     1
102
RTVSPropertyOp7
 70
     1
102
RTVSPropertyOp8
 70
     1
102
RTVSPropertyOp9
 70
     1
102
RTVSPropertyOp10
 70
     1
102
RTVSPropertyOp11
 70
     1
102
RTVSPropertyOp12
 70
     1
102
RTVSPropertyOp13
 70
     1
102
RTVSPropertyOp14
 70
     1
102
RTVSPropertyOp15
 70
     1
102
RTVSPropertyOp16
 70
     1
102
RTVSPropertyOp17
 70
     1
102
RTVSPropertyOp18
 70
     1
102
RTVSPropertyOp19
 70
     1
102
RTVSPropertyOp20
 70
     1
102
RTVSPropertyOp21
 70
     1
102
RTVSPropertyOp22
 70
     1
102
RTVSPropertyOp23
 70
     1
102
RTVSPropertyOp24
 70
     1
102
RTVSPropertyOp25
 70
     1
102
RTVSPropertyOp26
 70
     1
102
RTVSPropertyOp27
 70
     1
102
RTVSPropertyOp28
 70
     1
102
RTVSPropertyOp29
 70
     1
102
RTVSPropertyOp30
 70
     1
102
RTVSPropertyOp31
 70
     1
102
RTVSPropertyOp32
 70
     1
  0
XRECORD
  5
2A2
102
{ACAD_REACTORS
330
2A1
102
}
330
2A1
100
AcDbXrecord
280
     1
102
RTVSPropertyOp0
 70
     1
102
RTVSPropertyOp1
 70
     1
102
RTVSPropertyOp2
 70
     1
102
RTVSPropertyOp3
 70
     1
102
RTVSPropertyOp4
 70
     1
102
RTVSPropertyOp5
 70
     1
102
RTVSPropertyOp6
 70
     1
102
RTVSPropertyOp7
 70
     1
102
RTVSPropertyOp8
 70
     1
102
RTVSPropertyOp9
 70
     1
102
RTVSPropertyOp10
 70
     1
102
RTVSPropertyOp11
 70
     1
102
RTVSPropertyOp12
 70
     1
102
RTVSPropertyOp13
 70
     1
102
RTVSPropertyOp14
 70
     1
102
RTVSPropertyOp15
 70
     1
102
RTVSPropertyOp16
 70
     1
102
RTVSPropertyOp17
 70
     1
102
RTVSPropertyOp18
 70
     1
102
RTVSPropertyOp19
 70
     1
102
RTVSPropertyOp20
 70
     1
102
RTVSPropertyOp21
 70
     1
102
RTVSPropertyOp22
 70
     1
102
RTVSPropertyOp23
 70
     1
102
RTVSPropertyOp24
 70
     1
102
RTVSPropertyOp25
 70
     1
102
RTVSPropertyOp26
 70
     1
102
RTVSPropertyOp27
 70
     1
102
RTVSPropertyOp28
 70
     1
102
RTVSPropertyOp29
 70
     1
102
RTVSPropertyOp30
 70
     1
102
RTVSPropertyOp31
 70
     1
102
RTVSPropertyOp32
 70
     1
  0
XRECORD
  5
2A6
102
{ACAD_REACTORS
330
2A5
102
}
330
2A5
100
AcDbXrecord
280
     1
102
RTVSPropertyOp0
 70
     1
102
RTVSPropertyOp1
 70
     1
102
RTVSPropertyOp2
 70
     1
102
RTVSPropertyOp3
 70
     1
102
RTVSPropertyOp4
 70
     1
102
RTVSPropertyOp5
 70
     1
102
RTVSPropertyOp6
 70
     1
102
RTVSPropertyOp7
 70
     1
102
RTVSPropertyOp8
 70
     1
102
RTVSPropertyOp9
 70
     1
102
RTVSPropertyOp10
 70
     1
102
RTVSPropertyOp11
 70
     1
102
RTVSPropertyOp12
 70
     1
102
RTVSPropertyOp13
 70
     1
102
RTVSPropertyOp14
 70
     1
102
RTVSPropertyOp15
 70
     1
102
RTVSPropertyOp16
 70
     1
102
RTVSPropertyOp17
 70
     1
102
RTVSPropertyOp18
 70
     1
102
RTVSPropertyOp19
 70
     1
102
RTVSPropertyOp20
 70
     1
102
RTVSPropertyOp21
 70
     1
102
RTVSPropertyOp22
 70
     1
102
RTVSPropertyOp23
 70
     1
102
RTVSPropertyOp24
 70
     1
102
RTVSPropertyOp25
 70
     1
102
RTVSPropertyOp26
 70
     1
102
RTVSPropertyOp27
 70
     1
102
RTVSPropertyOp28
 70
     1
102
RTVSPropertyOp29
 70
     1
102
RTVSPropertyOp30
 70
     1
102
RTVSPropertyOp31
 70
     1
102
RTVSPropertyOp32
 70
     1
  0
XRECORD
  5
2AE
102
{ACAD_REACTORS
330
2AD
102
}
330
2AD
100
AcDbXrecord
280
     1
102
RTVSPropertyOp0
 70
     1
102
RTVSPropertyOp1
 70
     1
102
RTVSPropertyOp2
 70
     1
102
RTVSPropertyOp3
 70
     1
102
RTVSPropertyOp4
 70
     1
102
RTVSPropertyOp5
 70
     1
102
RTVSPropertyOp6
 70
     1
102
RTVSPropertyOp7
 70
     1
102
RTVSPropertyOp8
 70
     1
102
RTVSPropertyOp9
 70
     1
102
RTVSPropertyOp10
 70
     1
102
RTVSPropertyOp11
 70
     1
102
RTVSPropertyOp12
 70
     1
102
RTVSPropertyOp13
 70
     1
102
RTVSPropertyOp14
 70
     1
102
RTVSPropertyOp15
 70
     1
102
RTVSPropertyOp16
 70
     1
102
RTVSPropertyOp17
 70
     1
102
RTVSPropertyOp18
 70
     1
102
RTVSPropertyOp19
 70
     1
102
RTVSPropertyOp20
 70
     1
102
RTVSPropertyOp21
 70
     1
102
RTVSPropertyOp22
 70
     1
102
RTVSPropertyOp23
 70
     1
102
RTVSPropertyOp24
 70
     1
102
RTVSPropertyOp25
 70
     1
102
RTVSPropertyOp26
 70
     1
102
RTVSPropertyOp27
 70
     1
102
RTVSPropertyOp28
 70
     1
102
RTVSPropertyOp29
 70
     1
102
RTVSPropertyOp30
 70
     1
102
RTVSPropertyOp31
 70
     1
102
RTVSPropertyOp32
 70
     1
  0
XRECORD
  5
2B6
102
{ACAD_REACTORS
330
2B5
102
}
330
2B5
100
AcDbXrecord
280
     1
102
RTVSPropertyOp0
 70
     1
102
RTVSPropertyOp1
 70
     1
102
RTVSPropertyOp2
 70
     1
102
RTVSPropertyOp3
 70
     1
102
RTVSPropertyOp4
 70
     1
102
RTVSPropertyOp5
 70
     1
102
RTVSPropertyOp6
 70
     1
102
RTVSPropertyOp7
 70
     1
102
RTVSPropertyOp8
 70
     1
102
RTVSPropertyOp9
 70
     1
102
RTVSPropertyOp10
 70
     1
102
RTVSPropertyOp11
 70
     1
102
RTVSPropertyOp12
 70
     1
102
RTVSPropertyOp13
 70
     1
102
RTVSPropertyOp14
 70
     1
102
RTVSPropertyOp15
 70
     1
102
RTVSPropertyOp16
 70
     1
102
RTVSPropertyOp17
 70
     1
102
RTVSPropertyOp18
 70
     1
102
RTVSPropertyOp19
 70
     1
102
RTVSPropertyOp20
 70
     1
102
RTVSPropertyOp21
 70
     1
102
RTVSPropertyOp22
 70
     1
102
RTVSPropertyOp23
 70
     1
102
RTVSPropertyOp24
 70
     1
102
RTVSPropertyOp25
 70
     1
102
RTVSPropertyOp26
 70
     1
102
RTVSPropertyOp27
 70
     1
102
RTVSPropertyOp28
 70
     1
102
RTVSPropertyOp29
 70
     1
102
RTVSPropertyOp30
 70
     1
102
RTVSPropertyOp31
 70
     1
102
RTVSPropertyOp32
 70
     1
  0
XRECORD
  5
2AA
102
{ACAD_REACTORS
330
2A9
102
}
330
2A9
100
AcDbXrecord
280
     1
102
RTVSPropertyOp0
 70
     1
102
RTVSPropertyOp1
 70
     1
102
RTVSPropertyOp2
 70
     1
102
RTVSPropertyOp3
 70
     1
102
RTVSPropertyOp4
 70
     1
102
RTVSPropertyOp5
 70
     1
102
RTVSPropertyOp6
 70
     1
102
RTVSPropertyOp7
 70
     1
102
RTVSPropertyOp8
 70
     1
102
RTVSPropertyOp9
 70
     1
102
RTVSPropertyOp10
 70
     1
102
RTVSPropertyOp11
 70
     1
102
RTVSPropertyOp12
 70
     1
102
RTVSPropertyOp13
 70
     1
102
RTVSPropertyOp14
 70
     1
102
RTVSPropertyOp15
 70
     1
102
RTVSPropertyOp16
 70
     1
102
RTVSPropertyOp17
 70
     1
102
RTVSPropertyOp18
 70
     1
102
RTVSPropertyOp19
 70
     1
102
RTVSPropertyOp20
 70
     1
102
RTVSPropertyOp21
 70
     1
102
RTVSPropertyOp22
 70
     1
102
RTVSPropertyOp23
 70
     1
102
RTVSPropertyOp24
 70
     1
102
RTVSPropertyOp25
 70
     1
102
RTVSPropertyOp26
 70
     1
102
RTVSPropertyOp27
 70
     1
102
RTVSPropertyOp28
 70
     1
102
RTVSPropertyOp29
 70
     1
102
RTVSPropertyOp30
 70
     1
102
RTVSPropertyOp31
 70
     1
102
RTVSPropertyOp32
 70
     1
  0
XRECORD
  5
2AC
102
{ACAD_REACTORS
330
2AB
102
}
330
2AB
100
AcDbXrecord
280
     1
102
RTVSPropertyOp0
 70
     1
102
RTVSPropertyOp1
 70
     1
102
RTVSPropertyOp2
 70
     1
102
RTVSPropertyOp3
 70
     1
102
RTVSPropertyOp4
 70
     1
102
RTVSPropertyOp5
 70
     1
102
RTVSPropertyOp6
 70
     1
102
RTVSPropertyOp7
 70
     1
102
RTVSPropertyOp8
 70
     1
102
RTVSPropertyOp9
 70
     1
102
RTVSPropertyOp10
 70
     1
102
RTVSPropertyOp11
 70
     1
102
RTVSPropertyOp12
 70
     1
102
RTVSPropertyOp13
 70
     1
102
RTVSPropertyOp14
 70
     1
102
RTVSPropertyOp15
 70
     1
102
RTVSPropertyOp16
 70
     1
102
RTVSPropertyOp17
 70
     1
102
RTVSPropertyOp18
 70
     1
102
RTVSPropertyOp19
 70
     1
102
RTVSPropertyOp20
 70
     1
102
RTVSPropertyOp21
 70
     1
102
RTVSPropertyOp22
 70
     1
102
RTVSPropertyOp23
 70
     1
102
RTVSPropertyOp24
 70
     1
102
RTVSPropertyOp25
 70
     1
102
RTVSPropertyOp26
 70
     1
102
RTVSPropertyOp27
 70
     1
102
RTVSPropertyOp28
 70
     1
102
RTVSPropertyOp29
 70
     1
102
RTVSPropertyOp30
 70
     1
102
RTVSPropertyOp31
 70
     1
102
RTVSPropertyOp32
 70
     1
  0
XRECORD
  5
2B4
102
{ACAD_REACTORS
330
2B3
102
}
330
2B3
100
AcDbXrecord
280
     1
102
RTVSPropertyOp0
 70
     1
102
RTVSPropertyOp1
 70
     1
102
RTVSPropertyOp2
 70
     1
102
RTVSPropertyOp3
 70
     1
102
RTVSPropertyOp4
 70
     1
102
RTVSPropertyOp5
 70
     1
102
RTVSPropertyOp6
 70
     1
102
RTVSPropertyOp7
 70
     1
102
RTVSPropertyOp8
 70
     1
102
RTVSPropertyOp9
 70
     1
102
RTVSPropertyOp10
 70
     1
102
RTVSPropertyOp11
 70
     1
102
RTVSPropertyOp12
 70
     1
102
RTVSPropertyOp13
 70
     1
102
RTVSPropertyOp14
 70
     1
102
RTVSPropertyOp15
 70
     1
102
RTVSPropertyOp16
 70
     1
102
RTVSPropertyOp17
 70
     1
102
RTVSPropertyOp18
 70
     1
102
RTVSPropertyOp19
 70
     1
102
RTVSPropertyOp20
 70
     1
102
RTVSPropertyOp21
 70
     1
102
RTVSPropertyOp22
 70
     1
102
RTVSPropertyOp23
 70
     1
102
RTVSPropertyOp24
 70
     1
102
RTVSPropertyOp25
 70
     1
102
RTVSPropertyOp26
 70
     1
102
RTVSPropertyOp27
 70
     1
102
RTVSPropertyOp28
 70
     1
102
RTVSPropertyOp29
 70
     1
102
RTVSPropertyOp30
 70
     1
102
RTVSPropertyOp31
 70
     1
102
RTVSPropertyOp32
 70
     1
  0
XRECORD
  5
298
102
{ACAD_REACTORS
330
297
102
}
330
297
100
AcDbXrecord
280
     1
102
RTVSPropertyOp0
 70
     1
102
RTVSPropertyOp1
 70
     1
102
RTVSPropertyOp2
 70
     1
102
RTVSPropertyOp3
 70
     1
102
RTVSPropertyOp4
 70
     1
102
RTVSPropertyOp5
 70
     1
102
RTVSPropertyOp6
 70
     1
102
RTVSPropertyOp7
 70
     1
102
RTVSPropertyOp8
 70
     1
102
RTVSPropertyOp9
 70
     1
102
RTVSPropertyOp10
 70
     1
102
RTVSPropertyOp11
 70
     1
102
RTVSPropertyOp12
 70
     1
102
RTVSPropertyOp13
 70
     1
102
RTVSPropertyOp14
 70
     1
102
RTVSPropertyOp15
 70
     1
102
RTVSPropertyOp16
 70
     1
102
RTVSPropertyOp17
 70
     1
102
RTVSPropertyOp18
 70
     1
102
RTVSPropertyOp19
 70
     1
102
RTVSPropertyOp20
 70
     1
102
RTVSPropertyOp21
 70
     1
102
RTVSPropertyOp22
 70
     1
102
RTVSPropertyOp23
 70
     1
102
RTVSPropertyOp24
 70
     1
102
RTVSPropertyOp25
 70
     1
102
RTVSPropertyOp26
 70
     1
102
RTVSPropertyOp27
 70
     1
102
RTVSPropertyOp28
 70
     1
102
RTVSPropertyOp29
 70
     1
102
RTVSPropertyOp30
 70
     1
102
RTVSPropertyOp31
 70
     1
102
RTVSPropertyOp32
 70
     1
  0
XRECORD
  5
29A
102
{ACAD_REACTORS
330
299
102
}
330
299
100
AcDbXrecord
280
     1
102
RTVSPropertyOp0
 70
     1
102
RTVSPropertyOp1
 70
     1
102
RTVSPropertyOp2
 70
     1
102
RTVSPropertyOp3
 70
     1
102
RTVSPropertyOp4
 70
     1
102
RTVSPropertyOp5
 70
     1
102
RTVSPropertyOp6
 70
     1
102
RTVSPropertyOp7
 70
     1
102
RTVSPropertyOp8
 70
     1
102
RTVSPropertyOp9
 70
     1
102
RTVSPropertyOp10
 70
     1
102
RTVSPropertyOp11
 70
     1
102
RTVSPropertyOp12
 70
     1
102
RTVSPropertyOp13
 70
     1
102
RTVSPropertyOp14
 70
     1
102
RTVSPropertyOp15
 70
     1
102
RTVSPropertyOp16
 70
     1
102
RTVSPropertyOp17
 70
     1
102
RTVSPropertyOp18
 70
     1
102
RTVSPropertyOp19
 70
     1
102
RTVSPropertyOp20
 70
     1
102
RTVSPropertyOp21
 70
     1
102
RTVSPropertyOp22
 70
     1
102
RTVSPropertyOp23
 70
     1
102
RTVSPropertyOp24
 70
     1
102
RTVSPropertyOp25
 70
     1
102
RTVSPropertyOp26
 70
     1
102
RTVSPropertyOp27
 70
     1
102
RTVSPropertyOp28
 70
     1
102
RTVSPropertyOp29
 70
     1
102
RTVSPropertyOp30
 70
     1
102
RTVSPropertyOp31
 70
     1
102
RTVSPropertyOp32
 70
     1
  0
XRECORD
  5
29C
102
{ACAD_REACTORS
330
29B
102
}
330
29B
100
AcDbXrecord
280
     1
102
RTVSPropertyOp0
 70
     1
102
RTVSPropertyOp1
 70
     1
102
RTVSPropertyOp2
 70
     1
102
RTVSPropertyOp3
 70
     1
102
RTVSPropertyOp4
 70
     1
102
RTVSPropertyOp5
 70
     1
102
RTVSPropertyOp6
 70
     1
102
RTVSPropertyOp7
 70
     1
102
RTVSPropertyOp8
 70
     1
102
RTVSPropertyOp9
 70
     1
102
RTVSPropertyOp10
 70
     1
102
RTVSPropertyOp11
 70
     1
102
RTVSPropertyOp12
 70
     1
102
RTVSPropertyOp13
 70
     1
102
RTVSPropertyOp14
 70
     1
102
RTVSPropertyOp15
 70
     1
102
RTVSPropertyOp16
 70
     1
102
RTVSPropertyOp17
 70
     1
102
RTVSPropertyOp18
 70
     1
102
RTVSPropertyOp19
 70
     1
102
RTVSPropertyOp20
 70
     1
102
RTVSPropertyOp21
 70
     1
102
RTVSPropertyOp22
 70
     1
102
RTVSPropertyOp23
 70
     1
102
RTVSPropertyOp24
 70
     1
102
RTVSPropertyOp25
 70
     1
102
RTVSPropertyOp26
 70
     1
102
RTVSPropertyOp27
 70
     1
102
RTVSPropertyOp28
 70
     1
102
RTVSPropertyOp29
 70
     1
102
RTVSPropertyOp30
 70
     1
102
RTVSPropertyOp31
 70
     1
102
RTVSPropertyOp32
 70
     1
  0
XRECORD
  5
29E
102
{ACAD_REACTORS
330
29D
102
}
330
29D
100
AcDbXrecord
280
     1
102
RTVSPropertyOp0
 70
     1
102
RTVSPropertyOp1
 70
     1
102
RTVSPropertyOp2
 70
     1
102
RTVSPropertyOp3
 70
     1
102
RTVSPropertyOp4
 70
     1
102
RTVSPropertyOp5
 70
     1
102
RTVSPropertyOp6
 70
     1
102
RTVSPropertyOp7
 70
     1
102
RTVSPropertyOp8
 70
     1
102
RTVSPropertyOp9
 70
     1
102
RTVSPropertyOp10
 70
     1
102
RTVSPropertyOp11
 70
     1
102
RTVSPropertyOp12
 70
     1
102
RTVSPropertyOp13
 70
     1
102
RTVSPropertyOp14
 70
     1
102
RTVSPropertyOp15
 70
     1
102
RTVSPropertyOp16
 70
     1
102
RTVSPropertyOp17
 70
     1
102
RTVSPropertyOp18
 70
     1
102
RTVSPropertyOp19
 70
     1
102
RTVSPropertyOp20
 70
     1
102
RTVSPropertyOp21
 70
     1
102
RTVSPropertyOp22
 70
     1
102
RTVSPropertyOp23
 70
     1
102
RTVSPropertyOp24
 70
     1
102
RTVSPropertyOp25
 70
     1
102
RTVSPropertyOp26
 70
     1
102
RTVSPropertyOp27
 70
     1
102
RTVSPropertyOp28
 70
     1
102
RTVSPropertyOp29
 70
     1
102
RTVSPropertyOp30
 70
     1
102
RTVSPropertyOp31
 70
     1
102
RTVSPropertyOp32
 70
     1
  0
XRECORD
  5
2B2
102
{ACAD_REACTORS
330
2B1
102
}
330
2B1
100
AcDbXrecord
280
     1
102
RTVSPropertyOp0
 70
     1
102
RTVSPropertyOp1
 70
     1
102
RTVSPropertyOp2
 70
     1
102
RTVSPropertyOp3
 70
     1
102
RTVSPropertyOp4
 70
     1
102
RTVSPropertyOp5
 70
     1
102
RTVSPropertyOp6
 70
     1
102
RTVSPropertyOp7
 70
     1
102
RTVSPropertyOp8
 70
     1
102
RTVSPropertyOp9
 70
     1
102
RTVSPropertyOp10
 70
     1
102
RTVSPropertyOp11
 70
     1
102
RTVSPropertyOp12
 70
     1
102
RTVSPropertyOp13
 70
     1
102
RTVSPropertyOp14
 70
     1
102
RTVSPropertyOp15
 70
     1
102
RTVSPropertyOp16
 70
     1
102
RTVSPropertyOp17
 70
     1
102
RTVSPropertyOp18
 70
     1
102
RTVSPropertyOp19
 70
     1
102
RTVSPropertyOp20
 70
     1
102
RTVSPropertyOp21
 70
     1
102
RTVSPropertyOp22
 70
     1
102
RTVSPropertyOp23
 70
     1
102
RTVSPropertyOp24
 70
     1
102
RTVSPropertyOp25
 70
     1
102
RTVSPropertyOp26
 70
     1
102
RTVSPropertyOp27
 70
     1
102
RTVSPropertyOp28
 70
     1
102
RTVSPropertyOp29
 70
     1
102
RTVSPropertyOp30
 70
     1
102
RTVSPropertyOp31
 70
     1
102
RTVSPropertyOp32
 70
     1
  0
XRECORD
  5
2A8
102
{ACAD_REACTORS
330
2A7
102
}
330
2A7
100
AcDbXrecord
280
     1
102
RTVSPropertyOp0
 70
     1
102
RTVSPropertyOp1
 70
     1
102
RTVSPropertyOp2
 70
     1
102
RTVSPropertyOp3
 70
     1
102
RTVSPropertyOp4
 70
     1
102
RTVSPropertyOp5
 70
     1
102
RTVSPropertyOp6
 70
     1
102
RTVSPropertyOp7
 70
     1
102
RTVSPropertyOp8
 70
     1
102
RTVSPropertyOp9
 70
     1
102
RTVSPropertyOp10
 70
     1
102
RTVSPropertyOp11
 70
     1
102
RTVSPropertyOp12
 70
     1
102
RTVSPropertyOp13
 70
     1
102
RTVSPropertyOp14
 70
     1
102
RTVSPropertyOp15
 70
     1
102
RTVSPropertyOp16
 70
     1
102
RTVSPropertyOp17
 70
     1
102
RTVSPropertyOp18
 70
     1
102
RTVSPropertyOp19
 70
     1
102
RTVSPropertyOp20
 70
     1
102
RTVSPropertyOp21
 70
     1
102
RTVSPropertyOp22
 70
     1
102
RTVSPropertyOp23
 70
     1
102
RTVSPropertyOp24
 70
     1
102
RTVSPropertyOp25
 70
     1
102
RTVSPropertyOp26
 70
     1
102
RTVSPropertyOp27
 70
     1
102
RTVSPropertyOp28
 70
     1
102
RTVSPropertyOp29
 70
     1
102
RTVSPropertyOp30
 70
     1
102
RTVSPropertyOp31
 70
     1
102
RTVSPropertyOp32
 70
     1
  0
XRECORD
  5
2B0
102
{ACAD_REACTORS
330
2AF
102
}
330
2AF
100
AcDbXrecord
280
     1
102
RTVSPropertyOp0
 70
     1
102
RTVSPropertyOp1
 70
     1
102
RTVSPropertyOp2
 70
     1
102
RTVSPropertyOp3
 70
     1
102
RTVSPropertyOp4
 70
     1
102
RTVSPropertyOp5
 70
     1
102
RTVSPropertyOp6
 70
     1
102
RTVSPropertyOp7
 70
     1
102
RTVSPropertyOp8
 70
     1
102
RTVSPropertyOp9
 70
     1
102
RTVSPropertyOp10
 70
     1
102
RTVSPropertyOp11
 70
     1
102
RTVSPropertyOp12
 70
     1
102
RTVSPropertyOp13
 70
     1
102
RTVSPropertyOp14
 70
     1
102
RTVSPropertyOp15
 70
     1
102
RTVSPropertyOp16
 70
     1
102
RTVSPropertyOp17
 70
     1
102
RTVSPropertyOp18
 70
     1
102
RTVSPropertyOp19
 70
     1
102
RTVSPropertyOp20
 70
     1
102
RTVSPropertyOp21
 70
     1
102
RTVSPropertyOp22
 70
     1
102
RTVSPropertyOp23
 70
     1
102
RTVSPropertyOp24
 70
     1
102
RTVSPropertyOp25
 70
     1
102
RTVSPropertyOp26
 70
     1
102
RTVSPropertyOp27
 70
     1
102
RTVSPropertyOp28
 70
     1
102
RTVSPropertyOp29
 70
     1
102
RTVSPropertyOp30
 70
     1
102
RTVSPropertyOp31
 70
     1
102
RTVSPropertyOp32
 70
     1
  0
ENDSEC
  0
SECTION
  2
THUMBNAILIMAGE
 90
    16364
310
28000000B40000005500000001000800000000000000000000000000000000000000000000000000FFFFFF00FF000000FFFF000000FF000000FFFF000000FF00FF00FF000000000080808000C0C0C000FF000000FF7F7F00A5000000A55252007F0000007F3F3F004C0000004C2626002600000026131300FF3F0000FF9F7F
310
00A5290000A56752007F1F00007F4F3F004C1300004C2F26002609000026171300FF7F0000FFBF7F00A5520000A57C52007F3F00007F5F3F004C2600004C39260026130000261C1300FFBF0000FFDF7F00A57C0000A59152007F5F00007F6F3F004C3900004C422600261C000026211300FFFF0000FFFF7F00A5A50000A5A5
310
52007F7F00007F7F3F004C4C00004C4C26002626000026261300BFFF0000DFFF7F007CA5000091A552005F7F00006F7F3F00394C0000424C26001C260000212613007FFF0000BFFF7F0052A500007CA552003F7F00005F7F3F00264C0000394C2600132600001C2613003FFF00009FFF7F0029A5000067A552001F7F00004F
310
7F3F00134C00002F4C2600092600001726130000FF00007FFF7F0000A5000052A55200007F00003F7F3F00004C0000264C2600002600001326130000FF3F007FFF9F0000A5290052A56700007F1F003F7F4F00004C1300264C2F00002609001326170000FF7F007FFFBF0000A5520052A57C00007F3F003F7F5F00004C2600
310
264C39000026130013261C0000FFBF007FFFDF0000A57C0052A59100007F5F003F7F6F00004C3900264C420000261C001326210000FFFF007FFFFF0000A5A50052A5A500007F7F003F7F7F00004C4C00264C4C00002626001326260000BFFF007FDFFF00007CA5005291A500005F7F003F6F7F0000394C0026424C00001C26
310
0013212600007FFF007FBFFF000052A500527CA500003F7F003F5F7F0000264C0026394C0000132600131C2600003FFF007F9FFF000029A5005267A500001F7F003F4F7F0000134C00262F4C0000092600131726000000FF007F7FFF000000A5005252A50000007F003F3F7F0000004C0026264C0000002600131326003F00
310
FF009F7FFF002900A5006752A5001F007F004F3F7F0013004C002F264C0009002600171326007F00FF00BF7FFF005200A5007C52A5003F007F005F3F7F0026004C0039264C00130026001C132600BF00FF00DF7FFF007C00A5009152A5005F007F006F3F7F0039004C0042264C001C00260021132600FF00FF00FF7FFF00A5
310
00A500A552A5007F007F007F3F7F004C004C004C264C002600260026132600FF00BF00FF7FDF00A5007C00A55291007F005F007F3F6F004C0039004C26420026001C0026132100FF007F00FF7FBF00A5005200A5527C007F003F007F3F5F004C0026004C2639002600130026131C00FF003F00FF7F9F00A5002900A5526700
310
7F001F007F3F4F004C0013004C262F002600090026131700000000002D2D2D005B5B5B0089898900B7B7B700B3B3B30000000000000000000000000000000000000000000000000000000000000000000000000000000000000000000000000000000000000000000000000000000000000000000000000000000000000000
310
00000000000000000000000000000000000000000000000000000000000000000000000000000000000000000000000000000000000000000000000000000000000000000000000000000000000000000000000000000000000000000000000000000000000000000000000000000000000000000000000000000000000000
310
00000000000000000000000000000000000000000000000096969696969696969696969696000000000000000000000000000000000000000000000000000000000000000000000000000000000000000000000000000000000000000000000000000000000000000000000000000000000000000000000000000000000000
310
00000000000000000000000000000000000000000000000000000000000000000000000000000000000000000000000000000000000000000000000000000000000000000000000000000096960000000000000000000000009696000000000000000000000000000000000000000000000000000000000000000000000000
310
00000000000000000000000000000000000000000000000000000000000000000000000000000000000000000000000000000000000000000000000000000000000000000000000000000000000000000000000000000000000000000000000000000000000000000000000000000096969696969696960000000000000000
310
00960000000000000000000000000000960000000000000000009696969696969696960000000000000000000000000000000000000000000000000000000000000000000000000000000000000000009600000000000000000000000000000000000000000000000000000000000000000000000000000000000000000000
310
00000000000000000000000000000000000000000000000000000000000000000000969696000000000000000096969600000000000096969600000000000000000000009696000000000000009696000000000000000096969600000000000000000000000000000000000000000000000000000000000000000000000000
310
00000000009696960000000000000000000000000000000000000000000000000000000000000000000000000000000000000000000000000000000000000000000000000000000000000000000000000000000000009696000000000000000000000000969696960000009696000000000000000000000000969696000096
310
96969600000000000000000000000096969600000000000000000000000000000000000000009696960000000000000000000000000000009696969600969600000000000000000000000000009696969600000000000000000000000000000000000000000000000000000000000000000000000000000000000000000000
310
00000000000000000000009696000000000000000000000000000000000096969696000000000000000000000000000000969696960000000000000000000000000000000000960000000000000000000000000000000096969696960000969696000000000000000000000096960096969600969600000000000000000000
310
00969696000096969696960000000000000000000000000000000000000000000000000000000000000000000000000000000000000000000000000000000000960000000000000000000000000000000000000000000000000000000000000000000000000000000000000000000000000000000000000000000096960000
310
00000000000000000000000096960000000000000000009696960000000000009696009696969600969600969600000000000096969600000000000000000096960000000000000000000000000000000000000000000000000000000000000000000000000000000000000000000000000000009696000000000000000000
310
00000000000000000000000000000000000000000000000000000000000000000000000000000000000000000000000000009600000000000000000000000000969600969696969696960000000096969696969696000096969696009600969600009696969696960000000000969696969696960096960000000000000000
310
00000000000000000000000000000000000000000000000000000000000000000000000000000000000096000000000000000000000000000000000000000000000000000000000000000000000000000000000000000000000000000000000000000000000000960000000000000000000000009696009696960000969696
310
96969600000000000000009696009696009600969600969600000000000000009696969696960000969696009696000000000000000000000000000000000000000000000000000000000000000000000000000000000000000000000000009600000000000000000000000000000000000000000000000000000000000000
310
00000000000000000000000000000000000000000000000000000000009696000000000000000000000096009696969696969600969696969600009696969696969696969696969696969696969696969696000096969696960096969696969696009600000000000000000000000000000000000000000000000000000000
310
00000000000000000000000000000000000000000096000000000000000000000000000000000000000000000000000000000000000000000000000000000000000000000000000000000000000000000000009600000000000000000000009600969696969600969600969600969600000096960096969600969696969696
310
96009600969600000096969696960096969696969696000096000000000000000000000000000000000000000000000000000000000000000000000000000000000000000000000000009600000000000000000000000000000000000000000000000000000000000000000000000000000000000000000000000000000000
310
00000000000000000096000000000000000000000096009696960000960096009696000096009600969600969600969696969696000096960096960096009600009600969600960000969696009600000000000000000000000000000000000000000000000000000000000000000000000000000000000000000000000000
310
96000000000000000000000000000000000000000000000000000000000000000000000000000000000000000000000000000000000000000000000000969600000000000000000000009600969696000096009696009600009696969696969696969696969696969696969696969696969696000000960096000096000096
310
96960096000000000000000000000000000000000000000000000000000000000000000000000000000000000000000000000000009600000000000000000000000000000000000000000000000000000000000000000000000000000000000000000000000000000000000000000000000096000000000000000000000000
310
96009696969696960000960096960000969696969696960000000096969600000000969696969696960000960000960000969696969696009600000000000000000000000000000000000000000000000000000000000000000000000000000000000000000000000000969600000000000000000000000000000000000000
310
00000000000000000000000000000000000000000000000000000000000000000000000000000000960000000000000000000000009696009696960096000096000096960096969600969696960000000096000000009696969600969696969696000096000096009696960096960000000000000000000000000000000000
310
00000000000000000000000000000000000000000000000000000000000000000096000000000000000000000000000000000000000000000000000000000000000000000000000000000000000000000000000000000000000000009696000000000000000000000000009696960096960000960000009696969696969696
310
96009600009600960096009696009696969696969600960000969600969696009696000000000000000000000000000000000000000000000000000000000000000000000000000000000000000000000000000000000096000000000000000000000000000000000000000000000000000000000000000000000000000000
310
00000000000000000000000000000000009696000000000000000000000000000000009696960000969600000096969696969696009696969696960096009696960096960096969696969696000000960000009696960000000000000000000000000000000000000000000000000000000000000000000000000000000000
310
00000000000000000000000000009696000000000000000000000000000000000000000000000000000000000000000000000000000000000000000000000000000000009696960000000000000000000000000000000000000000969696000000009696969696969696009696969696969696969696969600960096969696
310
96960000000096960000000000000000000000000000000000000000000000000000000000000000000000000000000000000000000000000000000000000000000000000096960000000000000000000000000000000000000000000000000000000000000000000000000000000000000000000000009696960000000000
310
00000000000000000000000000000000000096969600000096000000000000969600000000969600969600000000969600000000000096000096969696000000000000000000000000000000000000000000000000000000000000000000000000000000000000000000000000000000000000000000000000009696000000
310
00000000000000000000000000000000000000000000000000000000000000000000000000000000000000000000960000000000000000000000000000000000000000000000009696000000009600000096969696969696009696969696969600969696969696969600009600000000969600000000000000000000000000
310
00000000000000000000000000000000000000000000000000000000000000000000000000000000000000000000009696000000000000000000000000000000000000000000000000000000000000000000000000000000000000000000000000000000960000000000000000000000000000000000000000000096000000
310
00009600009696000000000000000000000000000000000000000000000000960096960000000000960000000000000000000000000000000000000000000000000000000000000000000000000000000000000000000000000000000000000000000000960000000000000000000000000000000000000000000000000000
310
00000000000000000000000000000000000000000000000000009696000000000000000000000000000000000000009696000000000000960000969696969696969696969696969696969696969696969696969696000096000000000000960000000000000000000000000000000000000000000000000000000000000000
310
00000000000000000000000000000000000000000000000000960000000000000000000000000000000000000000000000000000000000000000000000000000000000000000000000000000000000009600000000000000000000000000000000000000960000000000009696009696000000000000000000000000000000
310
00000000000000000096009600960000000000000096000000000000000000000000000000000000000000000000000000000000000000000000000000000000000000000000000000000000000096000000000000000000000000000000000000000000000000000000000000000000000000000000000000000000000000
310
00000000000096960000000000000000000000000000000000960000000096969696960096960000000000000000000000000000000000000000000000000096960096960096960000000096000000000000000000000000000000000000000000000000000000000000000000000000000000000000000000000000000000
310
00000096960000000000000000000000000000000000000000000000000000000000000000000000000000000000000000000000000000000000000096000000000000000000000000000000009696000000969696969696009696000000000000000000000000000000000000000000000000009696009696969696960000
310
00969600000000000000000000000000000000000000000000000000000000000000000000000000000000000000000000000000000000009600000000000000000000000000000000000000000000000000000000000000000000000000000000000000000000000000000000000000009600000000000000000000000000
310
00000096000096969600969696969696960000000000000000000000000000000000000000000000000096969696009696009696960000960000000000000000000000000000000000000000000000000000000000000000000000000000000000000000000000000000000000960000000000000000000000000000000000
310
00000000000000000000000000000000000000000000000000000000000000000000000000000096960000000000000000000000000000009600969696000096969696969696000000000000000000000000000000000000000000000000009696969696969600009696000096000000000000000000000000000000000000
310
00000000000000000000000000000000000000000000000000000000000000000000009600000000000000000000000000000000000000000000000000000000000000000000000000000000000000000000000000000000000000000096000000000000000000000000000000960096969600009696960000969600000000
310
00000000000000000000000000000000000000000096960000969696000096969600960000000000000000000000000000000000000000000000000000000000000000000000000000000000000000000000000000000000960000000000000000000000000000000000000000000000000000000000000000000000000000
310
00000000000000000000000000000000000000960000000000000000000000000000009600960096969696969696960096000000000000000000000000000000000000000000000000009600969696969696969600960096000000000000000000000000000000000000000000000000000000000000000000000000000000
310
00000000000000000000000000009600000000000000000000000000000000000000000000000000000000000000000000000000000000000000000000000000000000000000009696000000000000000000000000000000960096009696000096969696969600000000000000000000000000000000000000000000000000
310
96969696969600009696009600960000000000000000000000000000000000000000000000000000000000000000000000000000000000000000000000000000000000969600000000000000000000000000000000000000000000000000000000000000000000000000000000000000000000000000000000000000960000
310
00000000000000000000000000009600969696969696000096969696000000000000000000000000000000000000000000000000009696969600009696969696960096000000000000000000000000000000000000000000000000000000000000000000000000000000000000000000000000000000000000960000000000
310
00000000000000000000000000000000000000000000000000000000000000000000000000000000000000000000000000969600000000000000000000000000000000969600960096969696000096969600000000000000000000000000000000000000000000000000969696000096969696009600960000000000000000
310
00000000000000000000000000000000000000000000000000000000000000000000000000000000000000000000000096000000000000000000000000000000000000000000000000000000000000000000000000000000000000000000000000000000009696000000000000000000000000000000000000969600009696
310
00960000969696000000000000000000000000000000000000000000000000009696000000960096960000969600000000000000000000000000000000000000000000000000000000000000000000000000000000000000000000000000000000000000000096000000000000000000000000000000000000000000000000
310
00000000000000000000000000000000000000000000000000000096000000000000000000000000000000000000000096969696000096000000969600000000000000000000000000000000000000000000000000969600009696000096969600000000000000000000000000000000000000000000000000000000000000
310
00000000000000000000000000000000000000000000000000000000969600000000000000000000000000000000000000000000000000000000000000000000000000000000000000000000000000960000000000000000000000000000000000000000000000000000009600000000960000000000000000000000000000
310
00000000000000000000009600000096000000000000000000000000000000000000000000000000000000000000000000000000000000000000000000000000000000000000000000000000000000000000009600000000000000000000000000000000000000000000000000000000000000000000000000000000000000
310
00000000960000000000000000000000000000000000000000000000000000000096000000009600000000000000000000000000000000000000000000000000960000009600000000000000000000000000000000000000000000000000000000000000000000000000000000000000000000000000000000000000000000
310
00000000000000000096960000000000000000000000000000000000000000000000000000000000000000000000000000000000000000009600000000000000000000000000000000000000000000000000000000009600000096960000000000000000000000000000000000000000000000000096960000969600000000
310
00000000000000000000000000000000000000000000000000000000000000000000000000000000000000000000000000000000000000000000000000000096000000000000000000000000000000000000000000000000000000000000000000000000000000000000000096960000000000000000000000000000000000
310
00000000000000000096969696000096969600000000000000000000000000000000000000000000000000969600000096969600000000000000000000000000000000000000000000000000000000000000000000000000000000000000000000000000000000000000000000000000000000009600000000000000000000
310
00000000000000000000000000000000000000000000000000000000000000000000960000000000000000000000000000000000000000000000000000000096969600009696960000000000000000000000000000000000000000000000000096969600009696960000000000000000000000000000000000000000000000
310
00000000000000000000000000000000000000000000000000000000000000000000000000000000000096000000000000000000000000000000000000000000000000000000000000000000000000000000000000000096000000000000000000000000000000000000000000000000000000009696000096969696000000
310
00000000000000000000000000000000000000000000969696960000960000000000000000000000000000000000000000000000000000000000000000000000000000000000000000000000000000000000000000000000000000000000009600000000000000000000000000000000000000000000000000000000000000
310
00000000000000000000000000969600000000000000000000000000000000000000000000000000000096000096960096960000000000000000000000000000000000000000000000000096960096960096960000000000000000000000000000000000000000000000000000000000000000000000000000000000000000
310
00000000000000000000000000000000000000009696000000000000000000000000000000000000000000000000000000000000000000000000000000000000000000960000000000000000000000000000000000000000000000000000009600960000009696000000000000000000000000000000000000000000000000
310
00969600009696009600000000000000000000000000000000000000000000000000000000000000000000000000000000000000000000000000000000000000000000000000000096960000000000000000000000000000000000000000000000000000000000000000000000000000000000000000000096960000000000
310
00000000000000000000000000000000000000009600969696960096960000000000000000000000000000000000000000000000000096960096969696969600000000000000000000000000000000000000000000000000000000000000000000000000000000000000000000000000000000000000000000000000969600
310
00000000000000000000000000000000000000000000000000000000000000000000000000000000000000000000009696000000000000000000000000000000000000000000000096000096960096969696000000000000000000000000000000000000000000000000009696969600969600969600000000000000000000
310
00000000000000000000000000000000000000000000000000000000000000000000000000000000000000000000000000969600000000000000000000000000000000000000000000000000000000000000000000000000000000000000000000000000000096960000000000000000000000000000000000000000960096
310
00969600009696960000000000000000000000000000000000000000000000000096969600009696009696960000000000000000000000000000000000000000000000000000000000000000000000000000000000000000000000000000000000000000009600000000000000000000000000000000000000000000000000
310
00000000000000000000000000000000000000000000000000000000009600000000000000000000000000000000000000960096969696969696969696000000000000000000000000000000000000000000000000009696969696969696969600960000000000000000000000000000000000000000000000000000000000
310
00000000000000000000000000000000000000000000000000009600000000000000000000000000000000000000000000000000000000000000000000000000000000000000000000000000000000000000009600000000000000000000000000000000969696960096969600009696969600000000000000000000000000
310
00000000000000000000000096969696000096969600969696960000000000000000000000000000000000000000000000000000000000000000000000000000000000000000000000000000000096960000000000000000000000000000000000000000000000000000000000000000000000000000000000000000000000
310
00000000000000000000960000000000000000000000000000969696969696960000000000969696000000000000000000000000000000000000000000000000009696960000000000969600969696960000000000000000000000000000000000000000000000000000000000000000000000000000000000000000000000
310
00000000960000000000000000000000000000000000000000000000000000000000000000000000000000000000000000000000000000000000000000000096000000000000000000000000000096000096960000969696969600969600000000000000000000000000000000000000000000000000969600969696969600
310
00969600009600000000000000000000000000000000000000000000000000000000000000000000000000000000000000000000000000000096000000000000000000000000000000000000000000000000000000000000000000000000000000000000000000000000000000000000000000009600000000000000000000
310
00000000960000000096969600969696960096000000000000000000000000000000000000000000000000009600969696960096969600000000960000000000000000000000000000000000000000000000000000000000000000000000000000000000000000000000000000009696000000000000000000000000000000
310
00000000000000000000000000000000000000000000000000000000000000000000000000000000000096000000000000000000000000000096969600969600969696969696009600000000000000000000000000000000000000000000000000960096969696969600960000969600000000000000000000000000000000
310
00000000000000000000000000000000000000000000000000000000000000000000000000960000000000000000000000000000000000000000000000000000000000000000000000000000000000000000000000000000000000000000969600000000000000000000000000000096009696009600000000969600960000
310
00000000000000000000000000000000000000000000009600969600000000960096969696000000000000000000000000000000000000000000000000000000000000000000000000000000000000000000000000000000000096000000000000000000000000000000000000000000000000000000000000000000000000
310
00000000000000000000000000000000000000009696000000000000000000000000000096960096969696969696969696969600000000000000000000000000000000000000000000000000969696969696969696969696009696000000000000000000000000000000000000000000000000000000000000000000000000
310
00000000000000000000000000000096960000000000000000000000000000000000000000000000000000000000000000000000000000000000000000000000000000000000000000009600000000000000000000000000009600969696960096969696969696960000000000000000000000000000000000000000000000
310
00009696969696960096009696960000960000000000000000000000000000000000000000000000000000000000000000000000000000000000000000000000000000009600000000000000000000000000000000000000000000000000000000000000000000000000000000000000000000000000000000000000000000
310
96000000000000000000000000009696009696009696969696969696969600000000000000000000000000000000000000000000000000969696969696960096960096960096000000000000000000000000000000000000000000000000000000000000000000000000000000000000000000000000000000960000000000
310
00000000000000000000000000000000000000000000000000000000000000000000000000000000000000000000000000000000009696000000000000000000000000960000969696009696009696960096960000000000000000000000000000000000000000000000000096960096969600960096969696000096000000
310
00000000000000000000000000000000000000000000000000000000000000000000000000000000000000000000009600000000000000000000000000000000000000000000000000000000000000000000000000000000000000000000000000000000000000000000009600000000000000000000000096000096009696
310
00969600969600969600000000000000000000000000000000000000000000000000969600969600969696009600960000960000000000000000000000000000000000000000000000000000000000000000000000000000000000000000000000000000960000000000000000000000000000000000000000000000000000
310
00000000000000000000000000000000000000000000000000000000000000000096000000000000000000000000960000960000969696009600960096009600000000000000000000000000000000000000000000000096960096009600969696000096000096000000000000000000000000000000000000000000000000
310
00000000000000000000000000000000000000000000000000960000000000000000000000000000000000000000000000000000000000000000000000000000000000000000000000000000000000000000000000009600000000000000000000000096000096009696960096969600969600960000000000000000000000
310
00000000000000000000009696009696009696960096969600960000960000000000000000000000000000000000000000000000000000000000000000000000000000000000000000000000000096000000000000000000000000000000000000000000000000000000000000000000000000000000000000000000000000
310
00000000000000000000000096000000000000000000000000960000969696000096960000960096960096969696969696969696969696969696969696969696000096960096000096960000969696000096000000000000000000000000000000000000000000000000000000000000000000000000000000000000000000
310
00000000960000000000000000000000000000000000000000000000000000000000000000000000000000000000000000000000000000000000000000000000009600000000000000000000000096000096969600969696960096960096000000969696969696960000000000969696969696960000969600969600969696
310
96009696960000960000000000000000000000000000000000000000000000000000000000000000000000000000000000000000000000000096000000000000000000000000000000000000000000000000000000000000000000000000000000000000000000000000000000000000000000000000960000000000000000
310
00000000960000960000969600009696009696969696969696960096960000000000009696960096960096969696960096969600009696009696000096000000000000000000000000000000000000000000000000000000000000000000000000000000000000000000000000009696000000000000000000000000000000
310
00000000000000000000000000000000000000000000000000000000000000000000000000000000000000009600000000000000000000000096960096969696960096009696969696000096960096969600000000000000000096969600969600009696969696960096009696960000960000000000000000000000000000
310
00000000000000000000000000000000000000000000000000000000000000000000000000960000000000000000000000000000000000000000000000000000000000000000000000000000000000000000000000000000000000000000000000960000000000000000000000000096000096009696960096009696969696
310
96009696969600969696960096969696009696969600969696969696009696009696009600009600000000000000000000000000000000000000000000000000000000000000000000000000000000000000000000000000000096000000000000000000000000000000000000000000000000000000000000000000000000
310
00000000000000000000000000000000000000000000969600000000000000000000000000960000969600969696960096969696969600009600000096969696009696969600000096009696969696969600969696009696000000960000000000000000000000000000000000000000000000000000000000000000000000
310
00000000000000000000000000000000960000000000000000000000000000000000000000000000000000000000000000000000000000000000000000000000000000000000000000000096000000000000000000000000000096000000969600969600969696969696960096000000009696009600960096960000000096
310
96969696969600960096969696960000960000000000000000000000000000000000000000000000000000000000000000000000000000000000000000000000000000000000960000000000000000000000000000000000000000000000000000000000000000000000000000000000000000000000000000000000000000
310
00960000000000000000000000000000009600009696969600969696009696969696009600009696969696009696969600000096009696969696009600960096969696000096000000000000000000000000000000000000000000000000000000000000000000000000000000000000000000000000000000000096000000
310
00000000000000000000000000000000000000000000000000000000000000000000000000000000000000000000000000000000009600000000000000000000000000000000969600009696009696960096009600960096960000960000960000969600009600009696009696960096009600960096960000969600000000
310
00000000000000000000000000000000000000000000000000000000000000000000000000000000000000000000000000009600000000000000000000000000000000000000000000000000000000000000000000000000000000000000000000000000000000000096960000000000000000000000000000000000960000
310
00969696960096009600969696960000009600969696009696960096000000969696960096009600960096960000009600000000000000000000000000000000000000000000000000000000000000000000000000000000000000000000000000000000000000969600000000000000000000000000000000000000000000
310
00000000000000000000000000000000000000000000000000000000000000960000000000000000000000000000000000009696960000969600960096009600969600000096960096969600969696009696000000969600960096009600960000969696000000000000000000000000000000000000000000000000000000
310
00000000000000000000000000000000000000000000000000000000000096960000000000000000000000000000000000000000000000000000000000000000000000000000000000000000000000000000009696000000000000000000000000000000000000969696969600000000969696009696000000969600000096
310
96009600000000969600000096960096969600000000969696960000000000000000000000000000000000000000000000000000000000000000000000000000000000000000000000000000000000000000000096960000000000000000000000000000000000000000000000000000000000000000000000000000000000
310
00000000000000009600000000000000000000000000000000000000009600000000969696000000000000000000969696960000960000009600009696969600000000000000000096969600000096000000000000000000000000000000000000000000000000000000000000000000000000000000000000000000000000
310
00000000000000000000009600000000000000000000000000000000000000000000000000000000000000000000000000000000000000000000000096960000000000000000000000000000000000000000000000000000969696009696000000009696969600009696000000960000009696969600000000969600969696
310
00000000000000000000000000000000000000000000000000000000000000000000000000000000000000000000000000000000000000000000000000000000009696000000000000000000000000000000000000000000000000000000000000000000000000000000000000000000969600000000000000000000000000
310
00000000000000000000000000000096969600969696969600969600009696960000009696960000969696969696969600969696000000000000000000000000000000000000000000000000000000000000000000000000000000000000000000000000000000000000000000000000000000000000009696000000000000
310
00000000000000000000000000000000000000000000000000000000000000000000000000960000000000000000000000000000000000000000000000000000000000969696969600960000009696960096969696000000969696960096969600000096009696969696000000000000000000000000000000000000000000
310
00000000000000000000000000000000000000000000000000000000000000000000000000000000000000009696000000000000000000000000000000000000000000000000000000000000000000000000000000000000000096960000000000000000000000000000000000000000000000000000009696009696960096
310
00000096969600969600960000969600969600969696000000960096969696969600000000000000000000000000000000000000000000000000000000000000000000000000000000000000000000000000000000000000000000000000000000960000000000000000000000000000000000000000000000000000000000
310
00000000000000000000000000000000009600000000000000000000000000000000000000000000000000009696000096009600960000009600960000000000960096000000000096009600000096009600960000969600000000000000000000000000000000000000000000000000000000000000000000000000000000
310
00000000000000000000000000000000000000000000009600000000000000000000000000000000000096960000000000009696000000000000000000000000000000000000960000000000000000000000000000000000000000000000000000960000009600960096000000969696000000000096009600000000009696
310
96000096960096009600000096000000000000000000000000000000000000000000000000000000000000000000000000000000000000000000000000000000000000000000000000000000960000000000000000000000000000000000009696000000000000969696000000000000000000000000000000000096000000
310
00000000000000000000000000000000000000000000009600969696969600960000000000000000000000969696000000000000000000000096009696969696969600000000000000000000000000000000000000000000000000000000000000000000000000000000000000000000000000000000000000000000000000
310
00009696000000000000000000000000000000009696969600000000009600969600000000000000000000000000000000960000000000000000000000000000000000000000000000000000009696969696009696960000000000000000000000960000000000000000000000969696009696969696000000000000000000
310
00000000000000000000000000000000000000000000000000000000000000000000000000000000000000000000000000000000000000009600000000000000000000000000009696000000969600000096960000969600000000000000000000000000009696000000000000000000000000000000000000000000000000
310
00000096969600969696969696000000000000000000000000000000000000000000969696009696009696960000000000000000000000000000000000000000000000000000000000000000000000000000000000000000000000000000000000000000000000000000000000969600000000000000000000000096960000
310
00000096969696960000000000960000000000000000000000009696000000000000000000000000000000000000000000000000000000000000969696000000000000000000000000000000000000000000000000000000000000009696960000000000000000000000000000000000000000000000000000000000000000
310
00000000000000000000000000000000000000000000000000000000000000000000000096969600000000000000969696960000000000000000000000000000000000969696000000000000000096960000000000000000000000000000000000000000000000000000000000000000000000000000000000000000000000
310
00000000000000000000000000000000000000000000000000000000000000000000000000000000000000000000000000000000000000000000000000000000000000000000000000000000000000000000000000000000000000969696969696969696000000000000000000000000000000000000000000000096969696
310
969696969600000000000000000000000000000000000000000000000000000000000000000000000000000000000000000000000000000000000000000000000000000000000000000000000000000000000000000000000000000000000000000000000000000000000000
  0
ENDSEC
  0
EOF
