  0
SECTION
  2
HEADER
  9
$ACADVER
  1
AC1021
  9
$ACADMAINTVER
 70
    25
  9
$DWGCODEPAGE
  3
ANSI_1251
  9
$INSBASE
 10
0.0
 20
0.0
 30
0.0
  9
$EXTMIN
 10
1.000000000000000E+20
 20
1.000000000000000E+20
 30
1.000000000000000E+20
  9
$EXTMAX
 10
-1.000000000000000E+20
 20
-1.000000000000000E+20
 30
-1.000000000000000E+20
  9
$LIMMIN
 10
0.0
 20
0.0
  9
$LIMMAX
 10
420.0
 20
297.0
  9
$ORTHOMODE
 70
     0
  9
$REGENMODE
 70
     1
  9
$FILLMODE
 70
     1
  9
$QTEXTMODE
 70
     0
  9
$MIRRTEXT
 70
     1
  9
$LTSCALE
 40
1.0
  9
$ATTMODE
 70
     1
  9
$TEXTSIZE
 40
2.5
  9
$TRACEWID
 40
1.0
  9
$TEXTSTYLE
  7
Standard
  9
$CLAYER
  8
0
  9
$CELTYPE
  6
ByLayer
  9
$CECOLOR
 62
   256
  9
$CELTSCALE
 40
1.0
  9
$DISPSILH
 70
     0
  9
$DIMSCALE
 40
1.0
  9
$DIMASZ
 40
2.5
  9
$DIMEXO
 40
0.625
  9
$DIMDLI
 40
3.75
  9
$DIMRND
 40
0.0
  9
$DIMDLE
 40
0.0
  9
$DIMEXE
 40
1.25
  9
$DIMTP
 40
0.0
  9
$DIMTM
 40
0.0
  9
$DIMTXT
 40
2.5
  9
$DIMCEN
 40
2.5
  9
$DIMTSZ
 40
0.0
  9
$DIMTOL
 70
     0
  9
$DIMLIM
 70
     0
  9
$DIMTIH
 70
     0
  9
$DIMTOH
 70
     0
  9
$DIMSE1
 70
     0
  9
$DIMSE2
 70
     0
  9
$DIMTAD
 70
     1
  9
$DIMZIN
 70
     8
  9
$DIMBLK
  1

  9
$DIMASO
 70
     1
  9
$DIMSHO
 70
     1
  9
$DIMPOST
  1

  9
$DIMAPOST
  1

  9
$DIMALT
 70
     0
  9
$DIMALTD
 70
     3
  9
$DIMALTF
 40
0.03937007874016
  9
$DIMLFAC
 40
1.0
  9
$DIMTOFL
 70
     1
  9
$DIMTVP
 40
0.0
  9
$DIMTIX
 70
     0
  9
$DIMSOXD
 70
     0
  9
$DIMSAH
 70
     0
  9
$DIMBLK1
  1

  9
$DIMBLK2
  1

  9
$DIMSTYLE
  2
ISO-25
  9
$DIMCLRD
 70
     0
  9
$DIMCLRE
 70
     0
  9
$DIMCLRT
 70
     0
  9
$DIMTFAC
 40
1.0
  9
$DIMGAP
 40
0.625
  9
$DIMJUST
 70
     0
  9
$DIMSD1
 70
     0
  9
$DIMSD2
 70
     0
  9
$DIMTOLJ
 70
     0
  9
$DIMTZIN
 70
     8
  9
$DIMALTZ
 70
     0
  9
$DIMALTTZ
 70
     0
  9
$DIMUPT
 70
     0
  9
$DIMDEC
 70
     2
  9
$DIMTDEC
 70
     2
  9
$DIMALTU
 70
     2
  9
$DIMALTTD
 70
     3
  9
$DIMTXSTY
  7
Standard
  9
$DIMAUNIT
 70
     0
  9
$DIMADEC
 70
     0
  9
$DIMALTRND
 40
0.0
  9
$DIMAZIN
 70
     0
  9
$DIMDSEP
 70
    44
  9
$DIMATFIT
 70
     3
  9
$DIMFRAC
 70
     0
  9
$DIMLDRBLK
  1

  9
$DIMLUNIT
 70
     2
  9
$DIMLWD
 70
    -2
  9
$DIMLWE
 70
    -2
  9
$DIMTMOVE
 70
     0
  9
$DIMFXL
 40
1.0
  9
$DIMFXLON
 70
     0
  9
$DIMJOGANG
 40
0.7853981633974483
  9
$DIMTFILL
 70
     0
  9
$DIMTFILLCLR
 70
     0
  9
$DIMARCSYM
 70
     0
  9
$DIMLTYPE
  6

  9
$DIMLTEX1
  6

  9
$DIMLTEX2
  6

  9
$LUNITS
 70
     2
  9
$LUPREC
 70
     4
  9
$SKETCHINC
 40
1.0
  9
$FILLETRAD
 40
10.0
  9
$AUNITS
 70
     0
  9
$AUPREC
 70
     0
  9
$MENU
  1
.
  9
$ELEVATION
 40
0.0
  9
$PELEVATION
 40
0.0
  9
$THICKNESS
 40
0.0
  9
$LIMCHECK
 70
     0
  9
$CHAMFERA
 40
10.0
  9
$CHAMFERB
 40
10.0
  9
$CHAMFERC
 40
20.0
  9
$CHAMFERD
 40
0.0
  9
$SKPOLY
 70
     0
  9
$TDCREATE
 40
2457652.447707917
  9
$TDUCREATE
 40
2457652.28104125
  9
$TDUPDATE
 40
2457652.44770897
  9
$TDUUPDATE
 40
2457652.281042303
  9
$TDINDWG
 40
0.0000000116
  9
$TDUSRTIMER
 40
0.0000000116
  9
$USRTIMER
 70
     1
  9
$ANGBASE
 50
0.0
  9
$ANGDIR
 70
     0
  9
$PDMODE
 70
     0
  9
$PDSIZE
 40
0.0
  9
$PLINEWID
 40
0.0
  9
$SPLFRAME
 70
     0
  9
$SPLINETYPE
 70
     6
  9
$SPLINESEGS
 70
     8
  9
$HANDSEED
  5
25B
  9
$SURFTAB1
 70
     6
  9
$SURFTAB2
 70
     6
  9
$SURFTYPE
 70
     6
  9
$SURFU
 70
     6
  9
$SURFV
 70
     6
  9
$UCSBASE
  2

  9
$UCSNAME
  2

  9
$UCSORG
 10
0.0
 20
0.0
 30
0.0
  9
$UCSXDIR
 10
1.0
 20
0.0
 30
0.0
  9
$UCSYDIR
 10
0.0
 20
1.0
 30
0.0
  9
$UCSORTHOREF
  2

  9
$UCSORTHOVIEW
 70
     0
  9
$UCSORGTOP
 10
0.0
 20
0.0
 30
0.0
  9
$UCSORGBOTTOM
 10
0.0
 20
0.0
 30
0.0
  9
$UCSORGLEFT
 10
0.0
 20
0.0
 30
0.0
  9
$UCSORGRIGHT
 10
0.0
 20
0.0
 30
0.0
  9
$UCSORGFRONT
 10
0.0
 20
0.0
 30
0.0
  9
$UCSORGBACK
 10
0.0
 20
0.0
 30
0.0
  9
$PUCSBASE
  2

  9
$PUCSNAME
  2

  9
$PUCSORG
 10
0.0
 20
0.0
 30
0.0
  9
$PUCSXDIR
 10
1.0
 20
0.0
 30
0.0
  9
$PUCSYDIR
 10
0.0
 20
1.0
 30
0.0
  9
$PUCSORTHOREF
  2

  9
$PUCSORTHOVIEW
 70
     0
  9
$PUCSORGTOP
 10
0.0
 20
0.0
 30
0.0
  9
$PUCSORGBOTTOM
 10
0.0
 20
0.0
 30
0.0
  9
$PUCSORGLEFT
 10
0.0
 20
0.0
 30
0.0
  9
$PUCSORGRIGHT
 10
0.0
 20
0.0
 30
0.0
  9
$PUCSORGFRONT
 10
0.0
 20
0.0
 30
0.0
  9
$PUCSORGBACK
 10
0.0
 20
0.0
 30
0.0
  9
$USERI1
 70
     0
  9
$USERI2
 70
     0
  9
$USERI3
 70
     0
  9
$USERI4
 70
     0
  9
$USERI5
 70
     0
  9
$USERR1
 40
0.0
  9
$USERR2
 40
0.0
  9
$USERR3
 40
0.0
  9
$USERR4
 40
0.0
  9
$USERR5
 40
0.0
  9
$WORLDVIEW
 70
     1
  9
$SHADEDGE
 70
     3
  9
$SHADEDIF
 70
    70
  9
$TILEMODE
 70
     1
  9
$MAXACTVP
 70
    64
  9
$PINSBASE
 10
0.0
 20
0.0
 30
0.0
  9
$PLIMCHECK
 70
     0
  9
$PEXTMIN
 10
1.000000000000000E+20
 20
1.000000000000000E+20
 30
1.000000000000000E+20
  9
$PEXTMAX
 10
-1.000000000000000E+20
 20
-1.000000000000000E+20
 30
-1.000000000000000E+20
  9
$PLIMMIN
 10
0.0
 20
0.0
  9
$PLIMMAX
 10
420.0
 20
297.0
  9
$UNITMODE
 70
     0
  9
$VISRETAIN
 70
     1
  9
$PLINEGEN
 70
     0
  9
$PSLTSCALE
 70
     1
  9
$TREEDEPTH
 70
  3020
  9
$CMLSTYLE
  2
Standard
  9
$CMLJUST
 70
     0
  9
$CMLSCALE
 40
20.0
  9
$PROXYGRAPHICS
 70
     1
  9
$MEASUREMENT
 70
     1
  9
$CELWEIGHT
370
    -1
  9
$ENDCAPS
280
     0
  9
$JOINSTYLE
280
     0
  9
$LWDISPLAY
290
     0
  9
$INSUNITS
 70
     4
  9
$HYPERLINKBASE
  1

  9
$STYLESHEET
  1

  9
$XEDIT
290
     1
  9
$CEPSNTYPE
380
     0
  9
$PSTYLEMODE
290
     1
  9
$FINGERPRINTGUID
  2
{93CDA0A0-3786-4E8D-B086-F805DD6684E2}
  9
$VERSIONGUID
  2
{FAEB1C32-E019-11D5-929B-00C0DF256EC4}
  9
$EXTNAMES
290
     1
  9
$PSVPSCALE
 40
0.0
  9
$OLESTARTUP
290
     0
  9
$SORTENTS
280
   127
  9
$INDEXCTL
280
     0
  9
$HIDETEXT
280
     1
  9
$XCLIPFRAME
290
     0
  9
$HALOGAP
280
     0
  9
$OBSCOLOR
 70
   257
  9
$OBSLTYPE
280
     0
  9
$INTERSECTIONDISPLAY
280
     0
  9
$INTERSECTIONCOLOR
 70
   257
  9
$DIMASSOC
280
     2
  9
$PROJECTNAME
  1

  9
$CAMERADISPLAY
290
     0
  9
$LENSLENGTH
 40
50.0
  9
$CAMERAHEIGHT
 40
0.0
  9
$STEPSPERSEC
 40
2.0
  9
$STEPSIZE
 40
6.0
  9
$3DDWFPREC
 40
2.0
  9
$PSOLWIDTH
 40
5.0
  9
$PSOLHEIGHT
 40
80.0
  9
$LOFTANG1
 40
1.570796326794897
  9
$LOFTANG2
 40
1.570796326794897
  9
$LOFTMAG1
 40
0.0
  9
$LOFTMAG2
 40
0.0
  9
$LOFTPARAM
 70
     7
  9
$LOFTNORMALS
280
     1
  9
$LATITUDE
 40
37.795
  9
$LONGITUDE
 40
-122.394
  9
$NORTHDIRECTION
 40
0.0
  9
$TIMEZONE
 70
 -8000
  9
$LIGHTGLYPHDISPLAY
280
     1
  9
$TILEMODELIGHTSYNCH
280
     1
  9
$SOLIDHIST
280
     1
  9
$SHOWHIST
280
     1
  9
$DWFFRAME
280
     2
  9
$DGNFRAME
280
     2
  9
$REALWORLDSCALE
290
     1
  9
$INTERFERECOLOR
 62
   256
  9
$CSHADOW
280
     0
  9
$SHADOWPLANELOCATION
 40
0.0
  0
ENDSEC
  0
SECTION
  2
CLASSES
  0
CLASS
  1
ACDBDICTIONARYWDFLT
  2
AcDbDictionaryWithDefault
  3
ObjectDBX Classes
 90
        0
 91
        4
280
     0
281
     0
  0
CLASS
  1
VISUALSTYLE
  2
AcDbVisualStyle
  3
ObjectDBX Classes
 90
     4095
 91
        4
280
     0
281
     0
  0
CLASS
  1
MATERIAL
  2
AcDbMaterial
  3
ObjectDBX Classes
 90
     1153
 91
        4
280
     0
281
     0
  0
CLASS
  1
SCALE
  2
AcDbScale
  3
ObjectDBX Classes
 90
     1153
 91
        4
280
     0
281
     0
  0
CLASS
  1
DICTIONARYVAR
  2
AcDbDictionaryVar
  3
ObjectDBX Classes
 90
        0
 91
        4
280
     0
281
     0
  0
ENDSEC
  0
SECTION
  2
TABLES
  0
TABLE
  2
VPORT
  5
8
330
0
100
AcDbSymbolTable
 70
     1
  0
VPORT
  5
29
330
8
100
AcDbSymbolTableRecord
100
AcDbViewportTableRecord
  2
*Active
 70
     0
 10
0.0
 20
0.0
 11
1.0
 21
1.0
 12
61.74892892657562
 22
24.48219711015072
 13
0.0
 23
0.0
 14
10.0
 24
10.0
 15
10.0
 25
10.0
 16
0.0
 26
0.0
 36
1.0
 17
0.0
 27
0.0
 37
0.0
 40
221.2639638364509
 41
1.699907813349213
 42
50.0
 43
0.0
 44
0.0
 50
0.0
 51
0.0
 71
     0
 72
   100
 73
     1
 74
     3
 75
     0
 76
     0
 77
     0
 78
     0
281
     0
 65
     1
110
0.0
120
0.0
130
0.0
111
1.0
121
0.0
131
0.0
112
0.0
122
1.0
132
0.0
 79
     0
146
0.0
 60
     3
 61
     5
292
     1
282
     1
141
0.0
142
0.0
 63
   250
  0
ENDTAB
  0
TABLE
  2
LTYPE
  5
5
330
0
100
AcDbSymbolTable
 70
     3
  0
LTYPE
  5
14
330
5
100
AcDbSymbolTableRecord
100
AcDbLinetypeTableRecord
  2
ByBlock
 70
     0
  3

 72
    65
 73
     0
 40
0.0
  0
LTYPE
  5
15
330
5
100
AcDbSymbolTableRecord
100
AcDbLinetypeTableRecord
  2
ByLayer
 70
     0
  3

 72
    65
 73
     0
 40
0.0
  0
LTYPE
  5
16
330
5
100
AcDbSymbolTableRecord
100
AcDbLinetypeTableRecord
  2
Continuous
 70
     0
  3
Solid line
 72
    65
 73
     0
 40
0.0
  0
LTYPE
  5
42
330
5
100
AcDbSymbolTableRecord
100
AcDbLinetypeTableRecord
  2
K5LT_THIN
 70
     0
  3

 72
    65
 73
     0
 40
0.0
  0
LTYPE
  5
A4
330
5
100
AcDbSymbolTableRecord
100
AcDbLinetypeTableRecord
  2
K5LT32768
 70
     0
  3

 72
    65
 73
     0
 40
0.0
  0
ENDTAB
  0
TABLE
  2
LAYER
  5
2
330
0
100
AcDbSymbolTable
 70
     2
  0
LAYER
  5
10
330
2
100
AcDbSymbolTableRecord
100
AcDbLayerTableRecord
  2
0
 70
     0
 62
     7
  6
Continuous
370
    -3
390
F
347
3E
  0
LAYER
  5
40
330
2
100
AcDbSymbolTableRecord
100
AcDbLayerTableRecord
  2
Системный слой
 70
     0
 62
     7
  6
Continuous
370
    -3
390
F
347
3E
  0
ENDTAB
  0
TABLE
  2
STYLE
  5
3
330
0
100
AcDbSymbolTable
 70
     1
  0
STYLE
  5
11
330
3
100
AcDbSymbolTableRecord
100
AcDbTextStyleTableRecord
  2
Standard
 70
     0
 40
0.0
 41
1.0
 50
0.0
 71
     0
 42
2.5
  3
txt
  4

  0
ENDTAB
  0
TABLE
  2
VIEW
  5
6
330
0
100
AcDbSymbolTable
 70
     0
  0
ENDTAB
  0
TABLE
  2
UCS
  5
7
330
0
100
AcDbSymbolTable
 70
     0
  0
ENDTAB
  0
TABLE
  2
APPID
  5
9
330
0
100
AcDbSymbolTable
 70
     2
  0
APPID
  5
12
330
9
100
AcDbSymbolTableRecord
100
AcDbRegAppTableRecord
  2
ACAD
 70
     0
  0
APPID
  5
3F
330
9
100
AcDbSymbolTableRecord
100
AcDbRegAppTableRecord
  2
KOMPAS
 70
     0
  0
ENDTAB
  0
TABLE
  2
DIMSTYLE
  5
A
330
0
100
AcDbSymbolTable
 70
     1
100
AcDbDimStyleTable
  0
DIMSTYLE
105
27
330
A
100
AcDbSymbolTableRecord
100
AcDbDimStyleTableRecord
  2
ISO-25
 70
     0
 41
2.5
 42
0.625
 43
3.75
 44
1.25
 73
     0
 74
     0
 77
     1
 78
     8
140
2.5
141
2.5
143
0.03937007874016
147
0.625
171
     3
172
     1
178
     0
271
     2
272
     2
274
     3
278
    44
283
     0
284
     8
340
11
  0
ENDTAB
  0
TABLE
  2
BLOCK_RECORD
  5
1
330
0
100
AcDbSymbolTable
 70
    15
  0
BLOCK_RECORD
  5
1F
330
1
100
AcDbSymbolTableRecord
100
AcDbBlockTableRecord
  2
*Model_Space
340
22
 70
     0
280
     1
281
     0
  0
BLOCK_RECORD
  5
1B
330
1
100
AcDbSymbolTableRecord
100
AcDbBlockTableRecord
  2
*Paper_Space
340
1E
 70
     0
280
     1
281
     0
  0
BLOCK_RECORD
  5
23
330
1
100
AcDbSymbolTableRecord
100
AcDbBlockTableRecord
  2
*Paper_Space0
340
26
 70
     0
280
     1
281
     0
  0
BLOCK_RECORD
  5
41
330
1
100
AcDbSymbolTableRecord
100
AcDbBlockTableRecord
  2
KDIMARROW_00
340
0
 70
     0
280
     1
281
     0
  0
BLOCK_RECORD
  5
46
330
1
100
AcDbSymbolTableRecord
100
AcDbBlockTableRecord
  2
KDIMARROW_01
340
0
 70
     0
280
     1
281
     0
  0
BLOCK_RECORD
  5
4F
330
1
100
AcDbSymbolTableRecord
100
AcDbBlockTableRecord
  2
KDIMARROW_02
340
0
 70
     0
280
     1
281
     0
  0
BLOCK_RECORD
  5
59
330
1
100
AcDbSymbolTableRecord
100
AcDbBlockTableRecord
  2
KDIMARROW_03
340
0
 70
     0
280
     1
281
     0
  0
BLOCK_RECORD
  5
5F
330
1
100
AcDbSymbolTableRecord
100
AcDbBlockTableRecord
  2
KDIMARROW_04
340
0
 70
     0
280
     1
281
     0
  0
BLOCK_RECORD
  5
65
330
1
100
AcDbSymbolTableRecord
100
AcDbBlockTableRecord
  2
KDIMARROW_05
340
0
 70
     0
280
     1
281
     0
  0
BLOCK_RECORD
  5
6E
330
1
100
AcDbSymbolTableRecord
100
AcDbBlockTableRecord
  2
KDIMARROW_06
340
0
 70
     0
280
     1
281
     0
  0
BLOCK_RECORD
  5
78
330
1
100
AcDbSymbolTableRecord
100
AcDbBlockTableRecord
  2
KDIMARROW_07
340
0
 70
     0
280
     1
281
     0
  0
BLOCK_RECORD
  5
7E
330
1
100
AcDbSymbolTableRecord
100
AcDbBlockTableRecord
  2
KDIMARROW_08
340
0
 70
     0
280
     1
281
     0
  0
BLOCK_RECORD
  5
85
330
1
100
AcDbSymbolTableRecord
100
AcDbBlockTableRecord
  2
KDIMARROW_09
340
0
 70
     0
280
     1
281
     0
  0
BLOCK_RECORD
  5
8B
330
1
100
AcDbSymbolTableRecord
100
AcDbBlockTableRecord
  2
KDIMARROW_10
340
0
 70
     0
280
     1
281
     0
  0
BLOCK_RECORD
  5
92
330
1
100
AcDbSymbolTableRecord
100
AcDbBlockTableRecord
  2
KDIMARROW_11
340
0
 70
     0
280
     1
281
     0
  0
BLOCK_RECORD
  5
98
330
1
100
AcDbSymbolTableRecord
100
AcDbBlockTableRecord
  2
KDIMARROW_12
340
0
 70
     0
280
     1
281
     0
  0
BLOCK_RECORD
  5
9E
330
1
100
AcDbSymbolTableRecord
100
AcDbBlockTableRecord
  2
KDIMARROW_13
340
0
 70
     0
280
     1
281
     0
  0
ENDTAB
  0
ENDSEC
  0
SECTION
  2
BLOCKS
  0
BLOCK
  5
20
330
1F
100
AcDbEntity
  8
0
100
AcDbBlockBegin
  2
*Model_Space
 70
     0
 10
0.0
 20
0.0
 30
0.0
  3
*Model_Space
  1

  0
ENDBLK
  5
21
330
1F
100
AcDbEntity
  8
0
100
AcDbBlockEnd
  0
BLOCK
  5
1C
330
1B
100
AcDbEntity
 67
     1
  8
0
100
AcDbBlockBegin
  2
*Paper_Space
 70
     0
 10
0.0
 20
0.0
 30
0.0
  3
*Paper_Space
  1

  0
ENDBLK
  5
1D
330
1B
100
AcDbEntity
 67
     1
  8
0
100
AcDbBlockEnd
  0
BLOCK
  5
24
330
23
100
AcDbEntity
  8
0
100
AcDbBlockBegin
  2
*Paper_Space0
 70
     0
 10
0.0
 20
0.0
 30
0.0
  3
*Paper_Space0
  1

  0
ENDBLK
  5
25
330
23
100
AcDbEntity
  8
0
100
AcDbBlockEnd
  0
BLOCK
  5
44
330
41
100
AcDbEntity
  8
0
100
AcDbBlockBegin
  2
KDIMARROW_00
 70
     0
 10
0.0
 20
0.0
 30
0.0
  3
KDIMARROW_00
  1

  0
LINE
  5
43
330
41
100
AcDbEntity
  8
0
  6
K5LT_THIN
 62
     0
100
AcDbLine
 10
0.0
 20
0.0
 30
0.0
 11
-1.0
 21
0.0
 31
0.0
  0
ENDBLK
  5
45
330
41
100
AcDbEntity
  8
0
100
AcDbBlockEnd
  0
BLOCK
  5
4D
330
46
100
AcDbEntity
  8
0
100
AcDbBlockBegin
  2
KDIMARROW_01
 70
     0
 10
0.0
 20
0.0
 30
0.0
  3
KDIMARROW_01
  1

  0
LINE
  5
47
330
46
100
AcDbEntity
  8
0
  6
K5LT_THIN
 62
     0
100
AcDbLine
 10
0.0
 20
0.0
 30
0.0
 11
-5.0
 21
-0.6582624912261956
 31
0.0
  0
LINE
  5
48
330
46
100
AcDbEntity
  8
0
  6
K5LT_THIN
 62
     0
100
AcDbLine
 10
-5.0
 20
-0.6582624912261956
 30
0.0
 11
-4.5
 21
0.0000000000000006
 31
0.0
  0
LINE
  5
49
330
46
100
AcDbEntity
  8
0
  6
K5LT_THIN
 62
     0
100
AcDbLine
 10
-4.5
 20
0.0000000000000006
 30
0.0
 11
-5.0
 21
0.658262491226197
 31
0.0
  0
LINE
  5
4A
330
46
100
AcDbEntity
  8
0
  6
K5LT_THIN
 62
     0
100
AcDbLine
 10
-5.0
 20
0.658262491226197
 30
0.0
 11
0.0
 21
0.0
 31
0.0
  0
HATCH
  5
4B
330
46
100
AcDbEntity
  8
0
 62
     0
100
AcDbHatch
 10
0.0
 20
0.0
 30
0.0
210
0.0
220
0.0
230
1.0
  2
SOLID
 70
     1
 71
     0
 91
        1
 92
        1
 93
        4
 72
     1
 10
0.0
 20
0.0
 11
-5.0
 21
0.658262491226197
 72
     1
 10
-5.0
 20
0.658262491226197
 11
-4.5
 21
0.0000000000000006
 72
     1
 10
-4.5
 20
0.0000000000000006
 11
-5.0
 21
-0.6582624912261956
 72
     1
 10
-5.0
 20
-0.6582624912261956
 11
0.0
 21
0.0
 97
        0
 75
     0
 76
     1
 98
        0
  0
LINE
  5
4C
330
46
100
AcDbEntity
  8
0
  6
K5LT_THIN
 62
     0
100
AcDbLine
 10
0.0
 20
0.0
 30
0.0
 11
-1.0
 21
0.0
 31
0.0
  0
ENDBLK
  5
4E
330
46
100
AcDbEntity
  8
0
100
AcDbBlockEnd
  0
BLOCK
  5
57
330
4F
100
AcDbEntity
  8
0
100
AcDbBlockBegin
  2
KDIMARROW_02
 70
     0
 10
0.0
 20
0.0
 30
0.0
  3
KDIMARROW_02
  1

  0
LINE
  5
50
330
4F
100
AcDbEntity
  8
0
  6
K5LT_THIN
 62
     0
100
AcDbLine
 10
0.0
 20
0.0
 30
0.0
 11
5.0
 21
-0.658262491226197
 31
0.0
  0
LINE
  5
51
330
4F
100
AcDbEntity
  8
0
  6
K5LT_THIN
 62
     0
100
AcDbLine
 10
5.0
 20
-0.658262491226197
 30
0.0
 11
4.5
 21
-0.0000000000000006
 31
0.0
  0
LINE
  5
52
330
4F
100
AcDbEntity
  8
0
  6
K5LT_THIN
 62
     0
100
AcDbLine
 10
4.5
 20
-0.0000000000000006
 30
0.0
 11
5.0
 21
0.6582624912261956
 31
0.0
  0
LINE
  5
53
330
4F
100
AcDbEntity
  8
0
  6
K5LT_THIN
 62
     0
100
AcDbLine
 10
5.0
 20
0.6582624912261956
 30
0.0
 11
0.0
 21
0.0
 31
0.0
  0
LINE
  5
54
330
4F
100
AcDbEntity
  8
0
  6
K5LT_THIN
 62
     0
100
AcDbLine
 10
0.0
 20
0.0
 30
0.0
 11
7.0
 21
-0.0000000000000009
 31
0.0
  0
HATCH
  5
55
330
4F
100
AcDbEntity
  8
0
 62
     0
100
AcDbHatch
 10
0.0
 20
0.0
 30
0.0
210
0.0
220
0.0
230
1.0
  2
SOLID
 70
     1
 71
     0
 91
        1
 92
        1
 93
        4
 72
     1
 10
4.5
 20
-0.0000000000000006
 11
5.0
 21
0.6582624912261956
 72
     1
 10
5.0
 20
0.6582624912261956
 11
0.0
 21
0.0
 72
     1
 10
0.0
 20
0.0
 11
5.0
 21
-0.658262491226197
 72
     1
 10
5.0
 20
-0.658262491226197
 11
4.5
 21
-0.0000000000000006
 97
        0
 75
     0
 76
     1
 98
        0
  0
LINE
  5
56
330
4F
100
AcDbEntity
  8
0
  6
K5LT_THIN
 62
     0
100
AcDbLine
 10
0.0
 20
0.0
 30
0.0
 11
-1.0
 21
0.0
 31
0.0
  0
ENDBLK
  5
58
330
4F
100
AcDbEntity
  8
0
100
AcDbBlockEnd
  0
BLOCK
  5
5D
330
59
100
AcDbEntity
  8
0
100
AcDbBlockBegin
  2
KDIMARROW_03
 70
     0
 10
0.0
 20
0.0
 30
0.0
  3
KDIMARROW_03
  1

  0
LINE
  5
5A
330
59
100
AcDbEntity
  8
0
  6
K5LT_THIN
 62
     0
100
AcDbLine
 10
-1.060500025749207
 20
-1.060500025749206
 30
0.0
 11
1.060500025749207
 21
1.060500025749206
 31
0.0
  0
LINE
  5
5B
330
59
100
AcDbEntity
  8
0
  6
K5LT_THIN
 62
     0
100
AcDbLine
 10
0.0
 20
0.0
 30
0.0
 11
2.0
 21
-0.0000000000000002
 31
0.0
  0
LINE
  5
5C
330
59
100
AcDbEntity
  8
0
  6
K5LT_THIN
 62
     0
100
AcDbLine
 10
0.0
 20
0.0
 30
0.0
 11
-1.0
 21
0.0
 31
0.0
  0
ENDBLK
  5
5E
330
59
100
AcDbEntity
  8
0
100
AcDbBlockEnd
  0
BLOCK
  5
63
330
5F
100
AcDbEntity
  8
0
100
AcDbBlockBegin
  2
KDIMARROW_04
 70
     0
 10
0.0
 20
0.0
 30
0.0
  3
KDIMARROW_04
  1

  0
LWPOLYLINE
  5
60
330
5F
100
AcDbEntity
  8
0
  6
K5LT_THIN
 62
     7
100
AcDbPolyline
 90
       15
 70
     0
 43
0.0
 10
-0.25
 20
0.0
 10
0.0
 20
-0.25
 10
0.25
 20
0.0
 10
0.0
 20
0.25
 10
-0.25
 20
0.0
 10
-0.5
 20
0.0000000000000001
 10
-0.0000000000000001
 20
-0.5
 10
0.5
 20
-0.0000000000000001
 10
0.0000000000000001
 20
0.5
 10
-0.5
 20
0.0000000000000001
 10
-0.75
 20
0.0000000000000001
 10
-0.0000000000000001
 20
-0.75
 10
0.75
 20
-0.0000000000000001
 10
0.0000000000000001
 20
0.75
 10
-0.75
 20
0.0000000000000001
  0
LWPOLYLINE
  5
61
330
5F
100
AcDbEntity
  8
0
  6
K5LT_THIN
 62
     7
100
AcDbPolyline
 90
       15
 70
     0
 43
0.0
 10
-0.25
 20
0.0
 10
0.0
 20
-0.25
 10
0.25
 20
0.0
 10
0.0
 20
0.25
 10
-0.25
 20
0.0
 10
-0.5
 20
0.0000000000000001
 10
-0.0000000000000001
 20
-0.5
 10
0.5
 20
-0.0000000000000001
 10
0.0000000000000001
 20
0.5
 10
-0.5
 20
0.0000000000000001
 10
-0.75
 20
0.0000000000000001
 10
-0.0000000000000001
 20
-0.75
 10
0.75
 20
-0.0000000000000001
 10
0.0000000000000001
 20
0.75
 10
-0.75
 20
0.0000000000000001
  0
LINE
  5
62
330
5F
100
AcDbEntity
  8
0
  6
K5LT_THIN
 62
     0
100
AcDbLine
 10
0.0
 20
0.0
 30
0.0
 11
-1.0
 21
0.0
 31
0.0
  0
ENDBLK
  5
64
330
5F
100
AcDbEntity
  8
0
100
AcDbBlockEnd
  0
BLOCK
  5
6C
330
65
100
AcDbEntity
  8
0
100
AcDbBlockBegin
  2
KDIMARROW_05
 70
     0
 10
0.0
 20
0.0
 30
0.0
  3
KDIMARROW_05
  1

  0
LINE
  5
66
330
65
100
AcDbEntity
  8
0
  6
K5LT_THIN
 62
     0
100
AcDbLine
 10
0.0
 20
0.0
 30
0.0
 11
-5.0
 21
-0.6582624912261956
 31
0.0
  0
LINE
  5
67
330
65
100
AcDbEntity
  8
0
  6
K5LT_THIN
 62
     0
100
AcDbLine
 10
-5.0
 20
-0.6582624912261956
 30
0.0
 11
-5.0
 21
0.0000000000000006
 31
0.0
  0
LINE
  5
68
330
65
100
AcDbEntity
  8
0
  6
K5LT_THIN
 62
     0
100
AcDbLine
 10
-5.0
 20
0.0000000000000006
 30
0.0
 11
-5.0
 21
0.658262491226197
 31
0.0
  0
LINE
  5
69
330
65
100
AcDbEntity
  8
0
  6
K5LT_THIN
 62
     0
100
AcDbLine
 10
-5.0
 20
0.658262491226197
 30
0.0
 11
0.0
 21
0.0
 31
0.0
  0
HATCH
  5
6A
330
65
100
AcDbEntity
  8
0
 62
     0
100
AcDbHatch
 10
0.0
 20
0.0
 30
0.0
210
0.0
220
0.0
230
1.0
  2
SOLID
 70
     1
 71
     0
 91
        1
 92
        1
 93
        4
 72
     1
 10
0.0
 20
0.0
 11
-5.0
 21
0.658262491226197
 72
     1
 10
-5.0
 20
0.658262491226197
 11
-5.0
 21
0.0000000000000007
 72
     1
 10
-5.0
 20
0.0000000000000006
 11
-5.0
 21
-0.6582624912261956
 72
     1
 10
-5.0
 20
-0.6582624912261956
 11
0.0
 21
0.0
 97
        0
 75
     0
 76
     1
 98
        0
  0
LINE
  5
6B
330
65
100
AcDbEntity
  8
0
  6
K5LT_THIN
 62
     0
100
AcDbLine
 10
0.0
 20
0.0
 30
0.0
 11
-1.0
 21
0.0
 31
0.0
  0
ENDBLK
  5
6D
330
65
100
AcDbEntity
  8
0
100
AcDbBlockEnd
  0
BLOCK
  5
76
330
6E
100
AcDbEntity
  8
0
100
AcDbBlockBegin
  2
KDIMARROW_06
 70
     0
 10
0.0
 20
0.0
 30
0.0
  3
KDIMARROW_06
  1

  0
LINE
  5
6F
330
6E
100
AcDbEntity
  8
0
  6
K5LT_THIN
 62
     0
100
AcDbLine
 10
0.0
 20
0.0
 30
0.0
 11
5.0
 21
-0.658262491226197
 31
0.0
  0
LINE
  5
70
330
6E
100
AcDbEntity
  8
0
  6
K5LT_THIN
 62
     0
100
AcDbLine
 10
5.0
 20
-0.658262491226197
 30
0.0
 11
5.0
 21
-0.0000000000000006
 31
0.0
  0
LINE
  5
71
330
6E
100
AcDbEntity
  8
0
  6
K5LT_THIN
 62
     0
100
AcDbLine
 10
5.0
 20
-0.0000000000000006
 30
0.0
 11
5.0
 21
0.6582624912261956
 31
0.0
  0
LINE
  5
72
330
6E
100
AcDbEntity
  8
0
  6
K5LT_THIN
 62
     0
100
AcDbLine
 10
5.0
 20
0.6582624912261956
 30
0.0
 11
0.0
 21
0.0
 31
0.0
  0
LINE
  5
73
330
6E
100
AcDbEntity
  8
0
  6
K5LT_THIN
 62
     0
100
AcDbLine
 10
0.0
 20
0.0
 30
0.0
 11
7.0
 21
-0.0000000000000009
 31
0.0
  0
HATCH
  5
74
330
6E
100
AcDbEntity
  8
0
 62
     0
100
AcDbHatch
 10
0.0
 20
0.0
 30
0.0
210
0.0
220
0.0
230
1.0
  2
SOLID
 70
     1
 71
     0
 91
        1
 92
        1
 93
        4
 72
     1
 10
5.0
 20
-0.0000000000000006
 11
5.0
 21
0.6582624912261956
 72
     1
 10
5.0
 20
0.6582624912261956
 11
0.0
 21
0.0
 72
     1
 10
0.0
 20
0.0
 11
5.0
 21
-0.658262491226197
 72
     1
 10
5.0
 20
-0.658262491226197
 11
5.0
 21
-0.0000000000000007
 97
        0
 75
     0
 76
     1
 98
        0
  0
LINE
  5
75
330
6E
100
AcDbEntity
  8
0
  6
K5LT_THIN
 62
     0
100
AcDbLine
 10
0.0
 20
0.0
 30
0.0
 11
-1.0
 21
0.0
 31
0.0
  0
ENDBLK
  5
77
330
6E
100
AcDbEntity
  8
0
100
AcDbBlockEnd
  0
BLOCK
  5
7C
330
78
100
AcDbEntity
  8
0
100
AcDbBlockBegin
  2
KDIMARROW_07
 70
     0
 10
0.0
 20
0.0
 30
0.0
  3
KDIMARROW_07
  1

  0
LINE
  5
79
330
78
100
AcDbEntity
  8
0
  6
K5LT_THIN
 62
     0
100
AcDbLine
 10
0.0
 20
0.0
 30
0.0
 11
-5.0
 21
-0.6582624912261956
 31
0.0
  0
LINE
  5
7A
330
78
100
AcDbEntity
  8
0
  6
K5LT_THIN
 62
     0
100
AcDbLine
 10
0.0
 20
0.0
 30
0.0
 11
-5.0
 21
0.658262491226197
 31
0.0
  0
LINE
  5
7B
330
78
100
AcDbEntity
  8
0
  6
K5LT_THIN
 62
     0
100
AcDbLine
 10
0.0
 20
0.0
 30
0.0
 11
-1.0
 21
0.0
 31
0.0
  0
ENDBLK
  5
7D
330
78
100
AcDbEntity
  8
0
100
AcDbBlockEnd
  0
BLOCK
  5
83
330
7E
100
AcDbEntity
  8
0
100
AcDbBlockBegin
  2
KDIMARROW_08
 70
     0
 10
0.0
 20
0.0
 30
0.0
  3
KDIMARROW_08
  1

  0
LINE
  5
7F
330
7E
100
AcDbEntity
  8
0
  6
K5LT_THIN
 62
     0
100
AcDbLine
 10
0.0
 20
0.0
 30
0.0
 11
5.0
 21
-0.658262491226197
 31
0.0
  0
LINE
  5
80
330
7E
100
AcDbEntity
  8
0
  6
K5LT_THIN
 62
     0
100
AcDbLine
 10
0.0
 20
0.0
 30
0.0
 11
5.0
 21
0.6582624912261956
 31
0.0
  0
LINE
  5
81
330
7E
100
AcDbEntity
  8
0
  6
K5LT_THIN
 62
     0
100
AcDbLine
 10
0.0
 20
0.0
 30
0.0
 11
7.0
 21
-0.0000000000000009
 31
0.0
  0
LINE
  5
82
330
7E
100
AcDbEntity
  8
0
  6
K5LT_THIN
 62
     0
100
AcDbLine
 10
0.0
 20
0.0
 30
0.0
 11
-1.0
 21
0.0
 31
0.0
  0
ENDBLK
  5
84
330
7E
100
AcDbEntity
  8
0
100
AcDbBlockEnd
  0
BLOCK
  5
89
330
85
100
AcDbEntity
  8
0
100
AcDbBlockBegin
  2
KDIMARROW_09
 70
     0
 10
0.0
 20
0.0
 30
0.0
  3
KDIMARROW_09
  1

  0
LINE
  5
86
330
85
100
AcDbEntity
  8
0
  6
K5LT_THIN
 62
     0
100
AcDbLine
 10
0.0
 20
0.0
 30
0.0
 11
-2.0
 21
-2.0
 31
0.0
  0
LINE
  5
87
330
85
100
AcDbEntity
  8
0
  6
K5LT_THIN
 62
     0
100
AcDbLine
 10
0.0
 20
0.0
 30
0.0
 11
-2.0
 21
2.0
 31
0.0
  0
LINE
  5
88
330
85
100
AcDbEntity
  8
0
  6
K5LT_THIN
 62
     0
100
AcDbLine
 10
0.0
 20
0.0
 30
0.0
 11
-1.0
 21
0.0
 31
0.0
  0
ENDBLK
  5
8A
330
85
100
AcDbEntity
  8
0
100
AcDbBlockEnd
  0
BLOCK
  5
90
330
8B
100
AcDbEntity
  8
0
100
AcDbBlockBegin
  2
KDIMARROW_10
 70
     0
 10
0.0
 20
0.0
 30
0.0
  3
KDIMARROW_10
  1

  0
LINE
  5
8C
330
8B
100
AcDbEntity
  8
0
  6
K5LT_THIN
 62
     0
100
AcDbLine
 10
0.0
 20
0.0
 30
0.0
 11
2.0
 21
-2.0
 31
0.0
  0
LINE
  5
8D
330
8B
100
AcDbEntity
  8
0
  6
K5LT_THIN
 62
     0
100
AcDbLine
 10
0.0
 20
0.0
 30
0.0
 11
2.0
 21
2.0
 31
0.0
  0
LINE
  5
8E
330
8B
100
AcDbEntity
  8
0
  6
K5LT_THIN
 62
     0
100
AcDbLine
 10
0.0
 20
0.0
 30
0.0
 11
4.0
 21
-0.0000000000000005
 31
0.0
  0
LINE
  5
8F
330
8B
100
AcDbEntity
  8
0
  6
K5LT_THIN
 62
     0
100
AcDbLine
 10
0.0
 20
0.0
 30
0.0
 11
-1.0
 21
0.0
 31
0.0
  0
ENDBLK
  5
91
330
8B
100
AcDbEntity
  8
0
100
AcDbBlockEnd
  0
BLOCK
  5
96
330
92
100
AcDbEntity
  8
0
100
AcDbBlockBegin
  2
KDIMARROW_11
 70
     0
 10
0.0
 20
0.0
 30
0.0
  3
KDIMARROW_11
  1

  0
CIRCLE
  5
93
330
92
100
AcDbEntity
  8
0
  6
K5LT_THIN
 62
     0
100
AcDbCircle
 10
0.0
 20
0.0
 30
0.0
 40
2.5
  0
CIRCLE
  5
94
330
92
100
AcDbEntity
  8
0
  6
K5LT_THIN
 62
     0
100
AcDbCircle
 10
0.0
 20
0.0
 30
0.0
 40
2.5
  0
LINE
  5
95
330
92
100
AcDbEntity
  8
0
  6
K5LT_THIN
 62
     0
100
AcDbLine
 10
0.0
 20
0.0
 30
0.0
 11
-1.0
 21
0.0
 31
0.0
  0
ENDBLK
  5
97
330
92
100
AcDbEntity
  8
0
100
AcDbBlockEnd
  0
BLOCK
  5
9C
330
98
100
AcDbEntity
  8
0
100
AcDbBlockBegin
  2
KDIMARROW_12
 70
     0
 10
0.0
 20
0.0
 30
0.0
  3
KDIMARROW_12
  1

  0
CIRCLE
  5
99
330
98
100
AcDbEntity
  8
0
  6
K5LT_THIN
 62
     0
100
AcDbCircle
 10
0.0
 20
0.0
 30
0.0
 40
1.5
  0
CIRCLE
  5
9A
330
98
100
AcDbEntity
  8
0
  6
K5LT_THIN
 62
     0
100
AcDbCircle
 10
0.0
 20
0.0
 30
0.0
 40
1.5
  0
LINE
  5
9B
330
98
100
AcDbEntity
  8
0
  6
K5LT_THIN
 62
     0
100
AcDbLine
 10
0.0
 20
0.0
 30
0.0
 11
-1.0
 21
0.0
 31
0.0
  0
ENDBLK
  5
9D
330
98
100
AcDbEntity
  8
0
100
AcDbBlockEnd
  0
BLOCK
  5
A2
330
9E
100
AcDbEntity
  8
0
100
AcDbBlockBegin
  2
KDIMARROW_13
 70
     0
 10
0.0
 20
0.0
 30
0.0
  3
KDIMARROW_13
  1

  0
LINE
  5
9F
330
9E
100
AcDbEntity
  8
0
  6
K5LT_THIN
 62
     0
100
AcDbLine
 10
-1.060500025749206
 20
1.060500025749207
 30
0.0
 11
1.060500025749206
 21
-1.060500025749207
 31
0.0
  0
LINE
  5
A0
330
9E
100
AcDbEntity
  8
0
  6
K5LT_THIN
 62
     0
100
AcDbLine
 10
0.0
 20
0.0
 30
0.0
 11
2.0
 21
-0.0000000000000002
 31
0.0
  0
LINE
  5
A1
330
9E
100
AcDbEntity
  8
0
  6
K5LT_THIN
 62
     0
100
AcDbLine
 10
0.0
 20
0.0
 30
0.0
 11
-1.0
 21
0.0
 31
0.0
  0
ENDBLK
  5
A3
330
9E
100
AcDbEntity
  8
0
100
AcDbBlockEnd
  0
ENDSEC
  0
SECTION
  2
ENTITIES
  0
SPLINE
  5
A5
330
1F
100
AcDbEntity
  8
0
  6
K5LT32768
 62
    30
420
 16744448
100
AcDbSpline
210
0.0
220
0.0
230
1.0
 70
     8
 71
     3
 72
    11
 73
     7
 74
     0
 42
0.0
 43
0.0
 12
1.0
 22
0.0
 32
0.0
 13
1.0
 23
0.0
 33
0.0
 40
0.0
 40
0.0
 40
0.0
 40
0.0
 40
1.0
 40
1.0
 40
1.0
 40
2.0
 40
2.0
 40
2.0
 40
2.0
 10
-36.60985730182711
 20
132.94492448096
 30
0.0
 10
-33.94654357818875
 20
132.6911656097187
 30
0.0
 10
-31.94720851019123
 20
131.8050815910108
 30
0.0
 10
-30.61185209783457
 20
130.2866724248362
 30
0.0
 10
-29.50992464089766
 20
129.0336910218266
 30
0.0
 10
-28.86012969384518
 20
127.3501313862816
 30
0.0
 10
-28.66246725667712
 20
125.235993518201
 30
0.0
  0
SPLINE
  5
A6
330
1F
100
AcDbEntity
  8
0
  6
K5LT32768
 62
    30
420
 16744448
100
AcDbSpline
210
0.0
220
0.0
230
1.0
 70
     8
 71
     3
 72
    14
 73
    10
 74
     0
 42
0.0
 43
0.0
 12
1.0
 22
0.0
 32
0.0
 13
1.0
 23
0.0
 33
0.0
 40
0.0
 40
0.0
 40
0.0
 40
0.0
 40
1.0
 40
1.0
 40
1.0
 40
2.0
 40
2.0
 40
2.0
 40
3.0
 40
3.0
 40
3.0
 40
3.0
 10
-28.66246725667712
 20
125.235993518201
 30
0.0
 10
-25.41471655920558
 20
127.1124732915192
 30
0.0
 10
-22.3134224937278
 20
127.8804127743994
 30
0.0
 10
-19.35858506024379
 20
127.5398119668416
 30
0.0
 10
-16.14290834376956
 20
127.1691445067422
 30
0.0
 10
-12.25349693840304
 20
125.0908099985123
 30
0.0
 10
-10.23191966755205
 20
122.4891330602064
 30
0.0
 10
-8.9082797870169
 20
120.7856694323428
 30
0.0
 10
-8.022195768308965
 20
118.6886039214007
 30
0.0
 10
-7.573667611428242
 20
116.19793652738
 30
0.0
  0
SPLINE
  5
A7
330
1F
100
AcDbEntity
  8
0
  6
K5LT32768
 62
    30
420
 16744448
100
AcDbSpline
210
0.0
220
0.0
230
1.0
 70
     8
 71
     3
 72
    23
 73
    19
 74
     0
 42
0.0
 43
0.0
 12
1.0
 22
0.0
 32
0.0
 13
1.0
 23
0.0
 33
0.0
 40
0.0
 40
0.0
 40
0.0
 40
0.0
 40
1.0
 40
1.0
 40
1.0
 40
2.0
 40
2.0
 40
2.0
 40
3.0
 40
3.0
 40
3.0
 40
4.0
 40
4.0
 40
4.0
 40
5.0
 40
5.0
 40
5.0
 40
6.0
 40
6.0
 40
6.0
 40
6.0
 10
-7.573667611428242
 20
116.19793652738
 30
0.0
 10
-1.354864261585234
 20
118.0961776148892
 30
0.0
 10
4.605134241198798
 20
118.6490945773296
 30
0.0
 10
10.30632789692385
 20
117.8566874147012
 30
0.0
 10
18.4950214356269
 20
116.7185434040832
 30
0.0
 10
27.32950969266246
 20
111.8924485776066
 30
0.0
 10
33.27067113591684
 20
106.1160746333511
 30
0.0
 10
38.13695255434781
 20
101.3847672182404
 30
0.0
 10
42.23633444235413
 20
94.68453775572449
 30
0.0
 10
44.42056126160155
 20
88.17287396751416
 30
0.0
 10
46.42546403933795
 20
82.19581485367786
 30
0.0
 10
47.42224501083015
 20
75.07655729858976
 30
0.0
 10
46.56193088838867
 20
68.90054732643003
 30
0.0
 10
45.58098138552516
 20
61.85852191520321
 30
0.0
 10
41.66915602137878
 20
54.61905023437382
 30
0.0
 10
37.47957005753292
 20
48.74213670184775
 30
0.0
 10
32.95334834483305
 20
42.39300963675671
 30
0.0
 10
27.07073523216496
 20
37.02727884779586
 30
0.0
 10
19.83173071952866
 20
32.6449443349652
 30
0.0
  0
SPLINE
  5
A8
330
1F
100
AcDbEntity
  8
0
  6
K5LT32768
 62
    30
420
 16744448
100
AcDbSpline
210
0.0
220
0.0
230
1.0
 70
     8
 71
     3
 72
    11
 73
     7
 74
     0
 42
0.0
 43
0.0
 12
1.0
 22
0.0
 32
0.0
 13
1.0
 23
0.0
 33
0.0
 40
0.0
 40
0.0
 40
0.0
 40
0.0
 40
1.0
 40
1.0
 40
1.0
 40
2.0
 40
2.0
 40
2.0
 40
2.0
 10
19.83173071952866
 20
32.6449443349652
 30
0.0
 10
25.20575326636778
 20
30.04819691454703
 30
0.0
 10
29.15894537508188
 20
26.58850458381347
 30
0.0
 10
31.69130704567098
 20
22.26586734276451
 30
0.0
 10
33.98148483358393
 20
18.35662803084871
 30
0.0
 10
35.10960092662368
 20
13.74160765023154
 30
0.0
 10
35.07565532479024
 20
8.420806200912985
 30
0.0
  0
SPLINE
  5
A9
330
1F
100
AcDbEntity
  8
0
  6
K5LT32768
 62
    30
420
 16744448
100
AcDbSpline
210
0.0
220
0.0
230
1.0
 70
     8
 71
     3
 72
    17
 73
    13
 74
     0
 42
0.0
 43
0.0
 12
1.0
 22
0.0
 32
0.0
 13
1.0
 23
0.0
 33
0.0
 40
0.0
 40
0.0
 40
0.0
 40
0.0
 40
1.0
 40
1.0
 40
1.0
 40
2.0
 40
2.0
 40
2.0
 40
3.0
 40
3.0
 40
3.0
 40
4.0
 40
4.0
 40
4.0
 40
4.0
 10
35.07565532479024
 20
8.420806200912985
 30
0.0
 10
37.24147296804007
 20
10.52179421429476
 30
0.0
 10
39.32677847335598
 20
11.56444696695272
 30
0.0
 10
41.33157184073797
 20
11.54876445888685
 30
0.0
 10
43.85177661933994
 20
11.52905014198462
 30
0.0
 10
47.33757274547571
 20
8.7825147443799
 30
0.0
 10
48.51049243280913
 20
6.472242040207956
 30
0.0
 10
49.68723569950495
 20
4.154438120447617
 30
0.0
 10
49.77836517504987
 20
-0.0147710382460224
 30
0.0
 10
48.3566584201219
 20
-2.34757468719376
 30
0.0
 10
47.60827793197961
 20
-3.575552768811613
 30
0.0
 10
46.48016183893985
 20
-4.635298189545926
 30
0.0
 10
44.97231014100263
 20
-5.526810949396701
 30
0.0
  0
SPLINE
  5
AA
330
1F
100
AcDbEntity
  8
0
  6
K5LT32768
 62
    30
420
 16744448
100
AcDbSpline
210
0.0
220
0.0
230
1.0
 70
     8
 71
     3
 72
    20
 73
    16
 74
     0
 42
0.0
 43
0.0
 12
1.0
 22
0.0
 32
0.0
 13
1.0
 23
0.0
 33
0.0
 40
0.0
 40
0.0
 40
0.0
 40
0.0
 40
1.0
 40
1.0
 40
1.0
 40
2.0
 40
2.0
 40
2.0
 40
3.0
 40
3.0
 40
3.0
 40
4.0
 40
4.0
 40
4.0
 40
5.0
 40
5.0
 40
5.0
 40
5.0
 10
44.97231014100263
 20
-5.526810949396701
 30
0.0
 10
47.21240017242096
 20
-10.37623936174307
 30
0.0
 10
48.44498943919583
 20
-15.27083879378509
 30
0.0
 10
48.67007794132725
 20
-20.21060924552275
 30
0.0
 10
48.89677858969496
 20
-25.18575970230955
 30
0.0
 10
48.31049368062587
 20
-30.8051047683189
 30
0.0
 10
46.28422654527911
 20
-35.27352179072216
 30
0.0
 10
44.31418573411123
 20
-39.61794594975348
 30
0.0
 10
40.41522629299114
 20
-43.29916071619239
 30
0.0
 10
36.88325985040289
 20
-46.73985238068484
 30
0.0
 10
35.54567144505266
 20
-48.04287418217107
 30
0.0
 10
33.90701231471152
 20
-49.06981032035944
 30
0.0
 10
32.69911655344682
 20
-50.4848078405378
 30
0.0
 10
31.8840540682518
 20
-51.4396182077286
 30
0.0
 10
31.15405506826892
 20
-52.47032195017184
 30
0.0
 10
30.50911955349817
 20
-53.57691906786755
 30
0.0
  0
SPLINE
  5
AB
330
1F
100
AcDbEntity
  8
0
  6
K5LT32768
 62
    30
420
 16744448
100
AcDbSpline
210
0.0
220
0.0
230
1.0
 70
     8
 71
     3
 72
    20
 73
    16
 74
     0
 42
0.0
 43
0.0
 12
1.0
 22
0.0
 32
0.0
 13
1.0
 23
0.0
 33
0.0
 40
0.0
 40
0.0
 40
0.0
 40
0.0
 40
1.0
 40
1.0
 40
1.0
 40
2.0
 40
2.0
 40
2.0
 40
3.0
 40
3.0
 40
3.0
 40
4.0
 40
4.0
 40
4.0
 40
5.0
 40
5.0
 40
5.0
 40
5.0
 10
30.50911955349817
 20
-53.57691906786755
 30
0.0
 10
32.26007652270202
 20
-58.41119400679089
 30
0.0
 10
32.6020921643622
 20
-62.83547382209192
 30
0.0
 10
31.53516647847874
 20
-66.84975851377065
 30
0.0
 10
30.32692151698934
 20
-71.39575390677562
 30
0.0
 10
26.37733717167651
 20
-76.0046240067734
 30
0.0
 10
22.48972617303559
 20
-78.91034558769485
 30
0.0
 10
19.19770257746857
 20
-81.37090658772436
 30
0.0
 10
14.78159355594929
 20
-83.47150481857156
 30
0.0
 10
10.73680713671149
 20
-83.8945677968166
 30
0.0
 10
6.641821727594955
 20
-84.32288132032207
 30
0.0
 10
1.853235424262369
 20
-83.11235691301133
 30
0.0
 10
-1.939116012412931
 20
-81.37168988849572
 30
0.0
 10
-6.308395566282521
 20
-79.366216248379
 30
0.0
 10
-10.10296803001718
 20
-76.16646865733789
 30
0.0
 10
-13.3228334036169
 20
-71.77244711537236
 30
0.0
  0
SPLINE
  5
AC
330
1F
100
AcDbEntity
  8
0
  6
K5LT32768
 62
    30
420
 16744448
100
AcDbSpline
210
0.0
220
0.0
230
1.0
 70
     8
 71
     3
 72
    17
 73
    13
 74
     0
 42
0.0
 43
0.0
 12
1.0
 22
0.0
 32
0.0
 13
1.0
 23
0.0
 33
0.0
 40
0.0
 40
0.0
 40
0.0
 40
0.0
 40
1.0
 40
1.0
 40
1.0
 40
2.0
 40
2.0
 40
2.0
 40
3.0
 40
3.0
 40
3.0
 40
4.0
 40
4.0
 40
4.0
 40
4.0
 10
-13.3228334036169
 20
-71.77244711537236
 30
0.0
 10
-15.14755271345597
 20
-71.61080688728133
 30
0.0
 10
-16.89100492652325
 20
-71.73387410232138
 30
0.0
 10
-18.55319004281873
 20
-72.1416487604925
 30
0.0
 10
-20.93531028596173
 20
-72.72604111146906
 30
0.0
 10
-22.91746340646124
 20
-74.62697871370634
 30
0.0
 10
-25.19881965498105
 20
-75.64906438913371
 30
0.0
 10
-27.374386689738
 20
-76.62375473116154
 30
0.0
 10
-29.58595012377391
 20
-77.68781356755727
 30
0.0
 10
-31.90598287466339
 20
-78.17194229745459
 30
0.0
 10
-33.43721437604118
 20
-78.49146932208672
 30
0.0
 10
-35.00517251842908
 20
-78.65555894214012
 30
0.0
 10
-36.60985730182712
 20
-78.66421115761479
 30
0.0
  0
SPLINE
  5
AD
330
1F
100
AcDbEntity
  8
0
  6
K5LT32768
 62
    30
420
 16744448
100
AcDbSpline
210
0.0
220
0.0
230
1.0
 70
     8
 71
     3
 72
    11
 73
     7
 74
     0
 42
0.0
 43
0.0
 12
1.0
 22
0.0
 32
0.0
 13
1.0
 23
0.0
 33
0.0
 40
0.0
 40
0.0
 40
0.0
 40
0.0
 40
1.0
 40
1.0
 40
1.0
 40
2.0
 40
2.0
 40
2.0
 40
2.0
 10
-36.60985730182713
 20
132.94492448096
 30
0.0
 10
-39.27317102546549
 20
132.6911656097187
 30
0.0
 10
-41.27250609346301
 20
131.8050815910108
 30
0.0
 10
-42.60786250581967
 20
130.2866724248362
 30
0.0
 10
-43.70978996275657
 20
129.0336910218266
 30
0.0
 10
-44.35958490980907
 20
127.3501313862816
 30
0.0
 10
-44.55724734697712
 20
125.235993518201
 30
0.0
  0
SPLINE
  5
AE
330
1F
100
AcDbEntity
  8
0
  6
K5LT32768
 62
    30
420
 16744448
100
AcDbSpline
210
0.0
220
0.0
230
1.0
 70
     8
 71
     3
 72
    14
 73
    10
 74
     0
 42
0.0
 43
0.0
 12
1.0
 22
0.0
 32
0.0
 13
1.0
 23
0.0
 33
0.0
 40
0.0
 40
0.0
 40
0.0
 40
0.0
 40
1.0
 40
1.0
 40
1.0
 40
2.0
 40
2.0
 40
2.0
 40
3.0
 40
3.0
 40
3.0
 40
3.0
 10
-44.55724734697712
 20
125.235993518201
 30
0.0
 10
-47.80499804444866
 20
127.1124732915192
 30
0.0
 10
-50.90629210992644
 20
127.8804127743994
 30
0.0
 10
-53.86112954341045
 20
127.5398119668416
 30
0.0
 10
-57.07680625988468
 20
127.1691445067422
 30
0.0
 10
-60.96621766525121
 20
125.0908099985123
 30
0.0
 10
-62.98779493610219
 20
122.4891330602064
 30
0.0
 10
-64.31143481663734
 20
120.7856694323428
 30
0.0
 10
-65.19751883534528
 20
118.6886039214007
 30
0.0
 10
-65.64604699222599
 20
116.19793652738
 30
0.0
  0
SPLINE
  5
AF
330
1F
100
AcDbEntity
  8
0
  6
K5LT32768
 62
    30
420
 16744448
100
AcDbSpline
210
0.0
220
0.0
230
1.0
 70
     8
 71
     3
 72
    23
 73
    19
 74
     0
 42
0.0
 43
0.0
 12
1.0
 22
0.0
 32
0.0
 13
1.0
 23
0.0
 33
0.0
 40
0.0
 40
0.0
 40
0.0
 40
0.0
 40
1.0
 40
1.0
 40
1.0
 40
2.0
 40
2.0
 40
2.0
 40
3.0
 40
3.0
 40
3.0
 40
4.0
 40
4.0
 40
4.0
 40
5.0
 40
5.0
 40
5.0
 40
6.0
 40
6.0
 40
6.0
 40
6.0
 10
-65.64604699222599
 20
116.19793652738
 30
0.0
 10
-71.864850342069
 20
118.0961776148892
 30
0.0
 10
-77.82484884485304
 20
118.6490945773296
 30
0.0
 10
-83.52604250057809
 20
117.8566874147012
 30
0.0
 10
-91.71473603928115
 20
116.7185434040832
 30
0.0
 10
-100.5492242963167
 20
111.8924485776066
 30
0.0
 10
-106.4903857395711
 20
106.1160746333511
 30
0.0
 10
-111.3566671580021
 20
101.3847672182404
 30
0.0
 10
-115.4560490460084
 20
94.68453775572449
 30
0.0
 10
-117.6402758652558
 20
88.17287396751416
 30
0.0
 10
-119.6451786429922
 20
82.19581485367786
 30
0.0
 10
-120.6419596144844
 20
75.07655729858976
 30
0.0
 10
-119.7816454920429
 20
68.90054732643003
 30
0.0
 10
-118.8006959891794
 20
61.85852191520321
 30
0.0
 10
-114.888870625033
 20
54.61905023437382
 30
0.0
 10
-110.6992846611872
 20
48.74213670184775
 30
0.0
 10
-106.1730629484873
 20
42.39300963675671
 30
0.0
 10
-100.2904498358192
 20
37.02727884779586
 30
0.0
 10
-93.0514453231829
 20
32.6449443349652
 30
0.0
  0
SPLINE
  5
B0
330
1F
100
AcDbEntity
  8
0
  6
K5LT32768
 62
    30
420
 16744448
100
AcDbSpline
210
0.0
220
0.0
230
1.0
 70
     8
 71
     3
 72
    11
 73
     7
 74
     0
 42
0.0
 43
0.0
 12
1.0
 22
0.0
 32
0.0
 13
1.0
 23
0.0
 33
0.0
 40
0.0
 40
0.0
 40
0.0
 40
0.0
 40
1.0
 40
1.0
 40
1.0
 40
2.0
 40
2.0
 40
2.0
 40
2.0
 10
-93.0514453231829
 20
32.6449443349652
 30
0.0
 10
-98.42546787002202
 20
30.04819691454703
 30
0.0
 10
-102.3786599787361
 20
26.58850458381347
 30
0.0
 10
-104.9110216493252
 20
22.26586734276451
 30
0.0
 10
-107.2011994372382
 20
18.35662803084871
 30
0.0
 10
-108.3293155302779
 20
13.74160765023154
 30
0.0
 10
-108.2953699284445
 20
8.420806200912985
 30
0.0
  0
SPLINE
  5
B1
330
1F
100
AcDbEntity
  8
0
  6
K5LT32768
 62
    30
420
 16744448
100
AcDbSpline
210
0.0
220
0.0
230
1.0
 70
     8
 71
     3
 72
    17
 73
    13
 74
     0
 42
0.0
 43
0.0
 12
1.0
 22
0.0
 32
0.0
 13
1.0
 23
0.0
 33
0.0
 40
0.0
 40
0.0
 40
0.0
 40
0.0
 40
1.0
 40
1.0
 40
1.0
 40
2.0
 40
2.0
 40
2.0
 40
3.0
 40
3.0
 40
3.0
 40
4.0
 40
4.0
 40
4.0
 40
4.0
 10
-108.2953699284445
 20
8.420806200912985
 30
0.0
 10
-110.4611875716943
 20
10.52179421429476
 30
0.0
 10
-112.5464930770102
 20
11.56444696695272
 30
0.0
 10
-114.5512864443922
 20
11.54876445888685
 30
0.0
 10
-117.0714912229942
 20
11.52905014198462
 30
0.0
 10
-120.55728734913
 20
8.7825147443799
 30
0.0
 10
-121.7302070364634
 20
6.472242040207956
 30
0.0
 10
-122.9069503031592
 20
4.154438120447617
 30
0.0
 10
-122.9980797787041
 20
-0.0147710382460224
 30
0.0
 10
-121.5763730237761
 20
-2.34757468719376
 30
0.0
 10
-120.8279925356339
 20
-3.575552768811613
 30
0.0
 10
-119.6998764425941
 20
-4.635298189545926
 30
0.0
 10
-118.1920247446569
 20
-5.526810949396701
 30
0.0
  0
SPLINE
  5
B2
330
1F
100
AcDbEntity
  8
0
  6
K5LT32768
 62
    30
420
 16744448
100
AcDbSpline
210
0.0
220
0.0
230
1.0
 70
     8
 71
     3
 72
    20
 73
    16
 74
     0
 42
0.0
 43
0.0
 12
1.0
 22
0.0
 32
0.0
 13
1.0
 23
0.0
 33
0.0
 40
0.0
 40
0.0
 40
0.0
 40
0.0
 40
1.0
 40
1.0
 40
1.0
 40
2.0
 40
2.0
 40
2.0
 40
3.0
 40
3.0
 40
3.0
 40
4.0
 40
4.0
 40
4.0
 40
5.0
 40
5.0
 40
5.0
 40
5.0
 10
-118.1920247446569
 20
-5.526810949396701
 30
0.0
 10
-120.4321147760752
 20
-10.37623936174307
 30
0.0
 10
-121.6647040428501
 20
-15.27083879378509
 30
0.0
 10
-121.8897925449815
 20
-20.21060924552275
 30
0.0
 10
-122.1164931933492
 20
-25.18575970230955
 30
0.0
 10
-121.5302082842801
 20
-30.8051047683189
 30
0.0
 10
-119.5039411489334
 20
-35.27352179072216
 30
0.0
 10
-117.5339003377655
 20
-39.61794594975348
 30
0.0
 10
-113.6349408966454
 20
-43.29916071619239
 30
0.0
 10
-110.1029744540571
 20
-46.73985238068484
 30
0.0
 10
-108.7653860487069
 20
-48.04287418217107
 30
0.0
 10
-107.1267269183658
 20
-49.06981032035944
 30
0.0
 10
-105.9188311571011
 20
-50.4848078405378
 30
0.0
 10
-105.103768671906
 20
-51.4396182077286
 30
0.0
 10
-104.3737696719232
 20
-52.47032195017184
 30
0.0
 10
-103.7288341571524
 20
-53.57691906786755
 30
0.0
  0
SPLINE
  5
B3
330
1F
100
AcDbEntity
  8
0
  6
K5LT32768
 62
    30
420
 16744448
100
AcDbSpline
210
0.0
220
0.0
230
1.0
 70
     8
 71
     3
 72
    20
 73
    16
 74
     0
 42
0.0
 43
0.0
 12
1.0
 22
0.0
 32
0.0
 13
1.0
 23
0.0
 33
0.0
 40
0.0
 40
0.0
 40
0.0
 40
0.0
 40
1.0
 40
1.0
 40
1.0
 40
2.0
 40
2.0
 40
2.0
 40
3.0
 40
3.0
 40
3.0
 40
4.0
 40
4.0
 40
4.0
 40
5.0
 40
5.0
 40
5.0
 40
5.0
 10
-103.7288341571524
 20
-53.57691906786755
 30
0.0
 10
-105.4797911263562
 20
-58.41119400679089
 30
0.0
 10
-105.8218067680164
 20
-62.83547382209192
 30
0.0
 10
-104.754881082133
 20
-66.84975851377065
 30
0.0
 10
-103.5466361206436
 20
-71.39575390677562
 30
0.0
 10
-99.59705177533075
 20
-76.0046240067734
 30
0.0
 10
-95.70944077668983
 20
-78.91034558769485
 30
0.0
 10
-92.41741718112281
 20
-81.37090658772436
 30
0.0
 10
-88.00130815960352
 20
-83.47150481857156
 30
0.0
 10
-83.95652174036573
 20
-83.8945677968166
 30
0.0
 10
-79.8615363312492
 20
-84.32288132032207
 30
0.0
 10
-75.0729500279166
 20
-83.11235691301133
 30
0.0
 10
-71.2805985912413
 20
-81.37168988849572
 30
0.0
 10
-66.91131903737171
 20
-79.366216248379
 30
0.0
 10
-63.11674657363707
 20
-76.16646865733789
 30
0.0
 10
-59.89688120003734
 20
-71.77244711537236
 30
0.0
  0
SPLINE
  5
B4
330
1F
100
AcDbEntity
  8
0
  6
K5LT32768
 62
    30
420
 16744448
100
AcDbSpline
210
0.0
220
0.0
230
1.0
 70
     8
 71
     3
 72
    17
 73
    13
 74
     0
 42
0.0
 43
0.0
 12
1.0
 22
0.0
 32
0.0
 13
1.0
 23
0.0
 33
0.0
 40
0.0
 40
0.0
 40
0.0
 40
0.0
 40
1.0
 40
1.0
 40
1.0
 40
2.0
 40
2.0
 40
2.0
 40
3.0
 40
3.0
 40
3.0
 40
4.0
 40
4.0
 40
4.0
 40
4.0
 10
-59.89688120003734
 20
-71.77244711537236
 30
0.0
 10
-58.07216189019826
 20
-71.61080688728133
 30
0.0
 10
-56.32870967713099
 20
-71.73387410232138
 30
0.0
 10
-54.66652456083551
 20
-72.1416487604925
 30
0.0
 10
-52.28440431769251
 20
-72.72604111146906
 30
0.0
 10
-50.302251197193
 20
-74.62697871370634
 30
0.0
 10
-48.02089494867319
 20
-75.64906438913371
 30
0.0
 10
-45.84532791391624
 20
-76.62375473116154
 30
0.0
 10
-43.63376447988033
 20
-77.68781356755727
 30
0.0
 10
-41.31373172899085
 20
-78.17194229745459
 30
0.0
 10
-39.78250022761306
 20
-78.49146932208672
 30
0.0
 10
-38.21454208522515
 20
-78.65555894214012
 30
0.0
 10
-36.60985730182712
 20
-78.66421115761479
 30
0.0
  0
LINE
  5
B5
330
1F
100
AcDbEntity
  8
0
  6
K5LT32768
 62
    30
420
 16744448
100
AcDbLine
 10
164.5581586855695
 20
-24.96801107082901
 30
0.0
 11
192.0914059558831
 21
-24.96801107082901
 31
0.0
  0
LINE
  5
B6
330
1F
100
AcDbEntity
  8
0
  6
K5LT32768
 62
    30
420
 16744448
100
AcDbLine
 10
202.5581586855695
 20
-8.689732490963891
 30
0.0
 11
202.5581586855695
 21
16.23795259758683
 31
0.0
  0
LINE
  5
B7
330
1F
100
AcDbEntity
  8
0
  6
K5LT32768
 62
    30
420
 16744448
100
AcDbLine
 10
194.6195247291628
 20
83.03198892917099
 30
0.0
 11
180.5180741265073
 21
83.031988929171
 31
0.0
  0
LINE
  5
B8
330
1F
100
AcDbEntity
  8
0
  6
K5LT32768
 62
    30
420
 16744448
100
AcDbLine
 10
164.5581586855695
 20
79.03198892917099
 30
0.0
 11
194.5581586855695
 21
79.03198892917099
 31
0.0
  0
LINE
  5
B9
330
1F
100
AcDbEntity
  8
0
  6
K5LT32768
 62
    30
420
 16744448
100
AcDbLine
 10
198.5581586855695
 20
75.03198892917099
 30
0.0
 11
198.5581586855695
 21
-16.968011070829
 31
0.0
  0
LINE
  5
BA
330
1F
100
AcDbEntity
  8
0
  6
K5LT32768
 62
    30
420
 16744448
100
AcDbLine
 10
194.5581586855695
 20
-20.96801107082901
 30
0.0
 11
164.5581586855695
 21
-20.96801107082901
 31
0.0
  0
ARC
  5
BB
330
1F
100
AcDbEntity
  8
0
  6
K5LT32768
 62
    30
420
 16744448
100
AcDbCircle
 10
194.5581586855695
 20
75.03198892917099
 30
0.0
 40
4.0
100
AcDbArc
 50
0.0
 51
90.0
  0
ARC
  5
BC
330
1F
100
AcDbEntity
  8
0
  6
K5LT32768
 62
    30
420
 16744448
100
AcDbCircle
 10
194.5581586855695
 20
-16.96801107082901
 30
0.0
 40
4.0
100
AcDbArc
 50
270.0
 51
0.0
  0
SPLINE
  5
BD
330
1F
100
AcDbEntity
  8
0
  6
K5LT32768
 62
    30
420
 16744448
100
AcDbSpline
210
0.0
220
0.0
230
1.0
 70
     8
 71
     3
 72
    14
 73
    10
 74
     0
 42
0.0
 43
0.0
 12
1.0
 22
0.0
 32
0.0
 13
1.0
 23
0.0
 33
0.0
 40
0.0
 40
0.0
 40
0.0
 40
0.0
 40
1.0
 40
1.0
 40
1.0
 40
2.0
 40
2.0
 40
2.0
 40
3.0
 40
3.0
 40
3.0
 40
3.0
 10
164.5581586855695
 20
99.39206562533069
 30
0.0
 10
164.7383468462888
 20
95.81744578633042
 30
0.0
 10
165.5002741803049
 20
92.46728284336388
 30
0.0
 10
166.8439406876177
 20
89.34157679643108
 30
0.0
 10
167.6341265960415
 20
87.50340574824388
 30
0.0
 10
168.2415722203158
 20
85.07391554037862
 30
0.0
 10
169.8180649329043
 20
84.05994236083589
 30
0.0
 10
170.8148293283104
 20
83.41884053068196
 30
0.0
 10
172.0455014298082
 20
83.07618938679366
 30
0.0
 10
173.5100812373981
 20
83.03198892917099
 30
0.0
  0
SPLINE
  5
BE
330
1F
100
AcDbEntity
  8
0
  6
K5LT32768
 62
    30
420
 16744448
100
AcDbSpline
210
0.0
220
0.0
230
1.0
 70
     8
 71
     3
 72
    17
 73
    13
 74
     0
 42
0.0
 43
0.0
 12
1.0
 22
0.0
 32
0.0
 13
1.0
 23
0.0
 33
0.0
 40
0.0
 40
0.0
 40
0.0
 40
0.0
 40
1.0
 40
1.0
 40
1.0
 40
2.0
 40
2.0
 40
2.0
 40
3.0
 40
3.0
 40
3.0
 40
4.0
 40
4.0
 40
4.0
 40
4.0
 10
180.5180741265073
 20
83.03198892917099
 30
0.0
 10
182.5596777842676
 20
83.5908793228023
 30
0.0
 10
184.3828956399645
 20
84.43776450944998
 30
0.0
 10
185.9877276935979
 20
85.57264448911405
 30
0.0
 10
188.1732232584811
 20
87.11814899010847
 30
0.0
 10
189.6073846485142
 20
89.68369053755526
 30
0.0
 10
191.3291862552099
 20
91.81146808907684
 30
0.0
 10
192.1840415537697
 20
92.86788591735706
 30
0.0
 10
192.8683083969057
 20
94.09798468516182
 30
0.0
 10
193.8503546962907
 20
95.01634322604401
 30
0.0
 10
194.7667961680687
 20
95.87335154973808
 30
0.0
 10
195.8066001013958
 20
96.59978991411731
 30
0.0
 10
196.9697664962721
 20
97.1956583191817
 30
0.0
  0
SPLINE
  5
BF
330
1F
100
AcDbEntity
  8
0
  6
K5LT32768
 62
    30
420
 16744448
100
AcDbSpline
210
0.0
220
0.0
230
1.0
 70
     8
 71
     3
 72
    11
 73
     7
 74
     0
 42
0.0
 43
0.0
 12
1.0
 22
0.0
 32
0.0
 13
1.0
 23
0.0
 33
0.0
 40
0.0
 40
0.0
 40
0.0
 40
0.0
 40
1.0
 40
1.0
 40
1.0
 40
2.0
 40
2.0
 40
2.0
 40
2.0
 10
196.9697664962721
 20
97.1956583191817
 30
0.0
 10
195.3271466253111
 20
95.004837626775
 30
0.0
 10
194.3158304709792
 20
92.71157141765626
 30
0.0
 10
193.9358180332765
 20
90.31585969182548
 30
0.0
 10
193.5660745315921
 20
87.98488640081865
 30
0.0
 10
193.7939767635541
 20
85.55692947993383
 30
0.0
 10
194.6195247291628
 20
83.03198892917099
 30
0.0
  0
SPLINE
  5
C0
330
1F
100
AcDbEntity
  8
0
  6
K5LT32768
 62
    30
420
 16744448
100
AcDbSpline
210
0.0
220
0.0
230
1.0
 70
     8
 71
     3
 72
    17
 73
    13
 74
     0
 42
0.0
 43
0.0
 12
1.0
 22
0.0
 32
0.0
 13
1.0
 23
0.0
 33
0.0
 40
0.0
 40
0.0
 40
0.0
 40
0.0
 40
1.0
 40
1.0
 40
1.0
 40
2.0
 40
2.0
 40
2.0
 40
3.0
 40
3.0
 40
3.0
 40
4.0
 40
4.0
 40
4.0
 40
4.0
 10
164.5581586855695
 20
126.505319357802
 30
0.0
 10
165.7712979327432
 20
124.3810729661812
 30
0.0
 10
167.2444168189075
 20
122.5555759430872
 30
0.0
 10
168.9775153440624
 20
121.0288282885201
 30
0.0
 10
170.8331495408995
 20
119.3941346362927
 30
0.0
 10
174.2436282815406
 20
119.1069016261026
 30
0.0
 10
175.4385441336646
 20
117.1522110147588
 30
0.0
 10
176.3707138847398
 20
115.6273308674527
 30
0.0
 10
176.753645818505
 20
113.210652008292
 30
0.0
 10
176.484615461505
 20
111.3680519078768
 30
0.0
 10
176.2276641213457
 20
109.6081814960056
 30
0.0
 10
175.4072160210787
 20
107.9262628904584
 30
0.0
 10
174.0232711607042
 20
106.322296091235
 30
0.0
  0
SPLINE
  5
C1
330
1F
100
AcDbEntity
  8
0
  6
K5LT32768
 62
    30
420
 16744448
100
AcDbSpline
210
0.0
220
0.0
230
1.0
 70
     8
 71
     3
 72
    11
 73
     7
 74
     0
 42
0.0
 43
0.0
 12
1.0
 22
0.0
 32
0.0
 13
1.0
 23
0.0
 33
0.0
 40
0.0
 40
0.0
 40
0.0
 40
0.0
 40
1.0
 40
1.0
 40
1.0
 40
2.0
 40
2.0
 40
2.0
 40
2.0
 10
174.0232711607042
 20
106.322296091235
 30
0.0
 10
175.9389791550907
 20
107.3623475745736
 30
0.0
 10
177.6935403974361
 20
107.7478828513735
 30
0.0
 10
179.2869548877403
 20
107.4789019216346
 30
0.0
 10
181.4465388935229
 20
107.1143471135422
 30
0.0
 10
183.3101143620779
 20
105.5475193310628
 30
0.0
 10
184.8776812934053
 20
102.7784185741965
 30
0.0
  0
SPLINE
  5
C2
330
1F
100
AcDbEntity
  8
0
  6
K5LT32768
 62
    30
420
 16744448
100
AcDbSpline
210
0.0
220
0.0
230
1.0
 70
     8
 71
     3
 72
    11
 73
     7
 74
     0
 42
0.0
 43
0.0
 12
1.0
 22
0.0
 32
0.0
 13
1.0
 23
0.0
 33
0.0
 40
0.0
 40
0.0
 40
0.0
 40
0.0
 40
1.0
 40
1.0
 40
1.0
 40
2.0
 40
2.0
 40
2.0
 40
2.0
 10
184.8776812934053
 20
102.7784185741965
 30
0.0
 10
181.3345713609223
 20
103.691210448934
 30
0.0
 10
178.5214032969253
 20
103.5012919298456
 30
0.0
 10
176.4381771014142
 20
102.2086630169313
 30
0.0
 10
174.1280463037887
 20
100.7752412079799
 30
0.0
 10
172.7155273180687
 20
97.98581295886888
 30
0.0
 10
172.2006201442541
 20
93.84037826959829
 30
0.0
  0
SPLINE
  5
C3
330
1F
100
AcDbEntity
  8
0
  6
K5LT32768
 62
    30
420
 16744448
100
AcDbSpline
210
0.0
220
0.0
230
1.0
 70
     8
 71
     3
 72
    11
 73
     7
 74
     0
 42
0.0
 43
0.0
 12
1.0
 22
0.0
 32
0.0
 13
1.0
 23
0.0
 33
0.0
 40
0.0
 40
0.0
 40
0.0
 40
0.0
 40
1.0
 40
1.0
 40
1.0
 40
2.0
 40
2.0
 40
2.0
 40
2.0
 10
172.2006201442541
 20
93.84037826959829
 30
0.0
 10
173.5682623291047
 20
95.9973092212238
 30
0.0
 10
175.0005641043775
 20
97.12890725593708
 30
0.0
 10
176.4975254700725
 20
97.23517237373818
 30
0.0
 10
178.0289909726393
 20
97.34388684410999
 30
0.0
 10
179.6281311538475
 20
96.37945694101015
 30
0.0
 10
181.2949460136972
 20
94.34188266443871
 30
0.0
  0
SPLINE
  5
C4
330
1F
100
AcDbEntity
  8
0
  6
K5LT32768
 62
    30
420
 16744448
100
AcDbSpline
210
0.0
220
0.0
230
1.0
 70
     8
 71
     3
 72
    23
 73
    19
 74
     0
 42
0.0
 43
0.0
 12
1.0
 22
0.0
 32
0.0
 13
1.0
 23
0.0
 33
0.0
 40
0.0
 40
0.0
 40
0.0
 40
0.0
 40
1.0
 40
1.0
 40
1.0
 40
2.0
 40
2.0
 40
2.0
 40
3.0
 40
3.0
 40
3.0
 40
4.0
 40
4.0
 40
4.0
 40
5.0
 40
5.0
 40
5.0
 40
6.0
 40
6.0
 40
6.0
 40
6.0
 10
181.2949460136972
 20
94.34188266443871
 30
0.0
 10
180.2604498647469
 20
94.9242597461081
 30
0.0
 10
179.3207489335215
 20
95.14682049297731
 30
0.0
 10
178.4758432200208
 20
95.00956490504629
 30
0.0
 10
177.2561722716442
 20
94.81142841427952
 30
0.0
 10
175.7214936072812
 20
93.29091244324053
 30
0.0
 10
175.4094507076009
 20
92.16573313949553
 30
0.0
 10
175.0715928713471
 20
90.94746909519151
 30
0.0
 10
175.8683360124456
 20
88.54437224772714
 30
0.0
 10
176.8931890200622
 20
87.88762100523223
 30
0.0
 10
177.8282981917452
 20
87.28837984010214
 30
0.0
 10
179.8169092008734
 20
87.56785391369917
 30
0.0
 10
181.0229273230793
 20
88.01126586460401
 30
0.0
 10
182.5747388516235
 20
88.58181432041806
 30
0.0
 10
183.6139439505421
 20
90.43410983910859
 30
0.0
 10
184.8311889917299
 20
91.72061164575716
 30
0.0
 10
185.6371467403004
 20
92.57242542567329
 30
0.0
 10
186.4202308496549
 20
93.44618243190045
 30
0.0
 10
187.1804413197935
 20
94.34188266443871
 30
0.0
  0
SPLINE
  5
C5
330
1F
100
AcDbEntity
  8
0
  6
K5LT32768
 62
    30
420
 16744448
100
AcDbSpline
210
0.0
220
0.0
230
1.0
 70
     8
 71
     3
 72
    11
 73
     7
 74
     0
 42
0.0
 43
0.0
 12
1.0
 22
0.0
 32
0.0
 13
1.0
 23
0.0
 33
0.0
 40
0.0
 40
0.0
 40
0.0
 40
0.0
 40
1.0
 40
1.0
 40
1.0
 40
2.0
 40
2.0
 40
2.0
 40
2.0
 10
187.1804413197935
 20
94.34188266443871
 30
0.0
 10
186.4595015967992
 20
94.22904977932738
 30
0.0
 10
185.8085798693919
 20
94.28669606586328
 30
0.0
 10
185.2276761375714
 20
94.51482152404637
 30
0.0
 10
184.5857816789042
 20
94.76689851971265
 30
0.0
 10
184.0293798338406
 20
95.22713214464176
 30
0.0
 10
183.5584706023807
 20
95.89552239883369
 30
0.0
  0
SPLINE
  5
C6
330
1F
100
AcDbEntity
  8
0
  6
K5LT32768
 62
    30
420
 16744448
100
AcDbSpline
210
0.0
220
0.0
230
1.0
 70
     8
 71
     3
 72
    20
 73
    16
 74
     0
 42
0.0
 43
0.0
 12
1.0
 22
0.0
 32
0.0
 13
1.0
 23
0.0
 33
0.0
 40
0.0
 40
0.0
 40
0.0
 40
0.0
 40
1.0
 40
1.0
 40
1.0
 40
2.0
 40
2.0
 40
2.0
 40
3.0
 40
3.0
 40
3.0
 40
4.0
 40
4.0
 40
4.0
 40
5.0
 40
5.0
 40
5.0
 40
5.0
 10
183.5584706023807
 20
95.89552239883369
 30
0.0
 10
185.0764317875476
 20
96.15605825733955
 30
0.0
 10
186.5087891627061
 20
96.57754963743581
 30
0.0
 10
187.8555427278565
 20
97.15999653912247
 30
0.0
 10
190.947941036622
 20
98.4974036641747
 30
0.0
 10
192.8417788167967
 20
102.0416987322249
 30
0.0
 10
195.7787056312378
 20
103.7181201407977
 30
0.0
 10
198.4683594060835
 20
105.2533961128201
 30
0.0
 10
201.5426200857572
 20
106.5985284016779
 30
0.0
 10
204.592111557471
 20
107.0416940927778
 30
0.0
 10
207.0236722684636
 20
107.395059331846
 30
0.0
 10
209.6673945426575
 20
107.3043299262905
 30
0.0
 10
212.0998277168548
 20
106.8339707207791
 30
0.0
 10
214.0023545026067
 20
106.4660794270313
 30
0.0
 10
215.8619732614527
 20
105.8528009001778
 30
0.0
 10
217.678683993393
 20
104.9941351402186
 30
0.0
  0
SPLINE
  5
C7
330
1F
100
AcDbEntity
  8
0
  6
K5LT32768
 62
    30
420
 16744448
100
AcDbSpline
210
0.0
220
0.0
230
1.0
 70
     8
 71
     3
 72
    20
 73
    16
 74
     0
 42
0.0
 43
0.0
 12
1.0
 22
0.0
 32
0.0
 13
1.0
 23
0.0
 33
0.0
 40
0.0
 40
0.0
 40
0.0
 40
0.0
 40
1.0
 40
1.0
 40
1.0
 40
2.0
 40
2.0
 40
2.0
 40
3.0
 40
3.0
 40
3.0
 40
4.0
 40
4.0
 40
4.0
 40
5.0
 40
5.0
 40
5.0
 40
5.0
 10
217.678683993393
 20
104.9941351402186
 30
0.0
 10
215.9198879788313
 20
106.2399611113663
 30
0.0
 10
214.070160809128
 20
107.1994452582178
 30
0.0
 10
212.1295024842832
 20
107.8725875807729
 30
0.0
 10
209.488673013149
 20
108.7885932788977
 30
0.0
 10
206.4852639910938
 20
109.2019526046241
 30
0.0
 10
203.7018685346192
 20
109.0299035104803
 30
0.0
 10
201.3490063265455
 20
108.8844668242909
 30
0.0
 10
198.8140686641632
 20
108.4287189452442
 30
0.0
 10
196.6986234215181
 20
107.3977913019186
 30
0.0
 10
195.1581139565936
 20
106.6470492074508
 30
0.0
 10
193.3932455635689
 20
105.7480102038079
 30
0.0
 10
192.4254569118293
 20
104.3709650242223
 30
0.0
 10
191.8234316092888
 20
103.5143564668046
 30
0.0
 10
191.3980932761484
 20
102.515305963382
 30
0.0
 10
191.1494419124083
 20
101.3738135139545
 30
0.0
  0
SPLINE
  5
C8
330
1F
100
AcDbEntity
  8
0
  6
K5LT32768
 62
    30
420
 16744448
100
AcDbSpline
210
0.0
220
0.0
230
1.0
 70
     8
 71
     3
 72
    11
 73
     7
 74
     0
 42
0.0
 43
0.0
 12
1.0
 22
0.0
 32
0.0
 13
1.0
 23
0.0
 33
0.0
 40
0.0
 40
0.0
 40
0.0
 40
0.0
 40
1.0
 40
1.0
 40
1.0
 40
2.0
 40
2.0
 40
2.0
 40
2.0
 10
191.1494419124083
 20
101.3738135139545
 30
0.0
 10
190.5024391902435
 20
102.3316491384584
 30
0.0
 10
190.1397474396346
 20
103.3158623868928
 30
0.0
 10
190.0613666605814
 20
104.3264532592577
 30
0.0
 10
189.9913931897702
 20
105.2286457580283
 30
0.0
 10
190.1480100116411
 20
106.1518607080042
 30
0.0
 10
190.5312171261942
 20
107.0960981091853
 30
0.0
  0
SPLINE
  5
C9
330
1F
100
AcDbEntity
  8
0
  6
K5LT32768
 62
    30
420
 16744448
100
AcDbSpline
210
0.0
220
0.0
230
1.0
 70
     8
 71
     3
 72
    20
 73
    16
 74
     0
 42
0.0
 43
0.0
 12
1.0
 22
0.0
 32
0.0
 13
1.0
 23
0.0
 33
0.0
 40
0.0
 40
0.0
 40
0.0
 40
0.0
 40
1.0
 40
1.0
 40
1.0
 40
2.0
 40
2.0
 40
2.0
 40
3.0
 40
3.0
 40
3.0
 40
4.0
 40
4.0
 40
4.0
 40
5.0
 40
5.0
 40
5.0
 40
5.0
 10
190.5312171261942
 20
107.0960981091853
 30
0.0
 10
189.3548626518601
 20
106.8844280110434
 30
0.0
 10
188.2420589175142
 20
106.8926710016682
 30
0.0
 10
187.1928059231564
 20
107.1208270810597
 30
0.0
 10
185.482517527637
 20
107.492722798345
 30
0.0
 10
183.7428951801951
 20
108.7052186115287
 30
0.0
 10
182.5684881826521
 20
109.9893878184848
 30
0.0
 10
181.2984895251885
 20
111.3780828553862
 30
0.0
 10
180.8160392554396
 20
113.5030674627403
 30
0.0
 10
180.0461330514679
 20
115.306116771471
 30
0.0
 10
179.5276521139273
 20
116.5203512992617
 30
0.0
 10
179.3945014870235
 20
118.0518457148794
 30
0.0
 10
178.587123710881
 20
118.9907335807498
 30
0.0
 10
177.6722356879206
 20
120.0546435480167
 30
0.0
 10
176.3451141973302
 20
120.7470547604986
 30
0.0
 10
174.60575923911
 20
121.0679672181955
 30
0.0
  0
SPLINE
  5
CA
330
1F
100
AcDbEntity
  8
0
  6
K5LT32768
 62
    30
420
 16744448
100
AcDbSpline
210
0.0
220
0.0
230
1.0
 70
     8
 71
     3
 72
    11
 73
     7
 74
     0
 42
0.0
 43
0.0
 12
1.0
 22
0.0
 32
0.0
 13
1.0
 23
0.0
 33
0.0
 40
0.0
 40
0.0
 40
0.0
 40
0.0
 40
1.0
 40
1.0
 40
1.0
 40
2.0
 40
2.0
 40
2.0
 40
2.0
 10
174.60575923911
 20
121.0679672181955
 30
0.0
 10
176.5102866148816
 20
121.9110501446998
 30
0.0
 10
178.2000996929625
 20
122.0429379946963
 30
0.0
 10
179.6751984733526
 20
121.4636307681852
 30
0.0
 10
180.6409991078205
 20
121.0843373307869
 30
0.0
 10
181.5147561140477
 20
120.4001691089297
 30
0.0
 10
182.2964694920342
 20
119.4111261026138
 30
0.0
  0
SPLINE
  5
CB
330
1F
100
AcDbEntity
  8
0
  6
K5LT32768
 62
    30
420
 16744448
100
AcDbSpline
210
0.0
220
0.0
230
1.0
 70
     8
 71
     3
 72
    20
 73
    16
 74
     0
 42
0.0
 43
0.0
 12
1.0
 22
0.0
 32
0.0
 13
1.0
 23
0.0
 33
0.0
 40
0.0
 40
0.0
 40
0.0
 40
0.0
 40
1.0
 40
1.0
 40
1.0
 40
2.0
 40
2.0
 40
2.0
 40
3.0
 40
3.0
 40
3.0
 40
4.0
 40
4.0
 40
4.0
 40
5.0
 40
5.0
 40
5.0
 40
5.0
 10
182.2964694920342
 20
119.4111261026138
 30
0.0
 10
183.0694439569532
 20
120.4346386953418
 30
0.0
 10
183.8937430194317
 20
121.0281340203263
 30
0.0
 10
184.7693666794696
 20
121.1916120775673
 30
0.0
 10
185.8817657186545
 20
121.3992958601125
 30
0.0
 10
187.6275719571096
 20
120.61073218739
 30
0.0
 10
188.355067601251
 20
119.7326027369804
 30
0.0
 10
189.0678381852948
 20
118.872247288429
 30
0.0
 10
189.5727361467054
 20
116.9992736615762
 30
0.0
 10
189.1463947012303
 20
116.0232569558273
 30
0.0
 10
188.782802732976
 20
115.190891632543
 30
0.0
 10
187.4735541360405
 20
114.1928498880252
 30
0.0
 10
186.5498526544231
 20
114.0943971496276
 30
0.0
 10
185.6270154045432
 20
113.9960365253847
 30
0.0
 10
184.6460995201938
 20
114.4411580191231
 30
0.0
 10
183.6071050013749
 20
115.4297616308428
 30
0.0
  0
SPLINE
  5
CC
330
1F
100
AcDbEntity
  8
0
  6
K5LT32768
 62
    30
420
 16744448
100
AcDbSpline
210
0.0
220
0.0
230
1.0
 70
     8
 71
     3
 72
    41
 73
    37
 74
     0
 42
0.0
 43
0.0
 12
1.0
 22
0.0
 32
0.0
 13
1.0
 23
0.0
 33
0.0
 40
0.0
 40
0.0
 40
0.0
 40
0.0
 40
1.0
 40
1.0
 40
1.0
 40
2.0
 40
2.0
 40
2.0
 40
3.0
 40
3.0
 40
3.0
 40
4.0
 40
4.0
 40
4.0
 40
5.0
 40
5.0
 40
5.0
 40
6.0
 40
6.0
 40
6.0
 40
7.0
 40
7.0
 40
7.0
 40
8.0
 40
8.0
 40
8.0
 40
9.0
 40
9.0
 40
9.0
 40
10.0
 40
10.0
 40
10.0
 40
11.0
 40
11.0
 40
11.0
 40
12.0
 40
12.0
 40
12.0
 40
12.0
 10
183.6071050013749
 20
115.4297616308428
 30
0.0
 10
183.8586991162933
 20
114.0151912672849
 30
0.0
 10
184.3615215444052
 20
112.9023875329389
 30
0.0
 10
185.1155722857106
 20
112.0913504278049
 30
0.0
 10
186.4105899350822
 20
110.6984635729688
 30
0.0
 10
189.1824350363262
 20
110.7140301154176
 30
0.0
 10
191.2236283386761
 20
110.5828831434693
 30
0.0
 10
194.3929476774746
 20
110.3792539066195
 30
0.0
 10
197.5451719641997
 20
112.407483069486
 30
0.0
 10
200.7690114821769
 20
112.6601167809151
 30
0.0
 10
203.1853171000689
 20
112.8494687175704
 30
0.0
 10
205.6744183495017
 20
112.7358570311704
 30
0.0
 10
208.0887871569857
 20
112.4870139777946
 30
0.0
 10
212.3389360091058
 20
112.0489615914381
 30
0.0
 10
216.8083033286863
 20
111.2106688776451
 30
0.0
 10
220.6016469254091
 20
109.3958924935003
 30
0.0
 10
224.4839629303738
 20
107.5385507521183
 30
0.0
 10
228.0109676268954
 20
104.4635156333706
 30
0.0
 10
231.0620020282609
 20
101.3589766343351
 30
0.0
 10
234.2495680879721
 20
98.11551168358072
 30
0.0
 10
237.1593237963381
 20
94.28361954477414
 30
0.0
 10
239.1978333179954
 20
90.23506108179926
 30
0.0
 10
241.1927981339213
 20
86.27298408238099
 30
0.0
 10
242.7557967106171
 20
81.74389514593835
 30
0.0
 10
243.2478147668257
 20
77.37025575158962
 30
0.0
 10
243.8043724557292
 20
72.42291163951862
 30
0.0
 10
243.3095360084715
 20
66.8690400314115
 30
0.0
 10
241.6240113640957
 20
62.20051343661163
 30
0.0
 10
240.2087227243297
 20
58.28048018399048
 30
0.0
 10
237.5341272920954
 20
54.62250638803673
 30
0.0
 10
234.9578710792039
 20
51.26120630243032
 30
0.0
 10
231.2380086629151
 20
46.40781718851053
 30
0.0
 10
226.1463823595111
 20
42.6280665079052
 30
0.0
 10
221.5828588409275
 20
38.48443742305449
 30
0.0
 10
217.8752825578231
 20
35.11799899923265
 30
0.0
 10
214.0982777428659
 20
31.82766078281027
 30
0.0
 10
210.2518443960556
 20
28.61342277378734
 30
0.0
  0
SPLINE
  5
CD
330
1F
100
AcDbEntity
  8
0
  6
K5LT32768
 62
    30
420
 16744448
100
AcDbSpline
210
0.0
220
0.0
230
1.0
 70
     8
 71
     3
 72
     8
 73
     4
 74
     0
 42
0.0
 43
0.0
 12
1.0
 22
0.0
 32
0.0
 13
1.0
 23
0.0
 33
0.0
 40
0.0
 40
0.0
 40
0.0
 40
0.0
 40
1.0
 40
1.0
 40
1.0
 40
1.0
 10
205.680673617893
 20
94.50082179212922
 30
0.0
 10
208.3000449141003
 20
95.41415279168056
 30
0.0
 10
210.7941120131273
 20
95.89749342087264
 30
0.0
 10
213.1628749149743
 20
95.9508436797053
 30
0.0
  0
SPLINE
  5
CE
330
1F
100
AcDbEntity
  8
0
  6
K5LT32768
 62
    30
420
 16744448
100
AcDbSpline
210
0.0
220
0.0
230
1.0
 70
     8
 71
     3
 72
    11
 73
     7
 74
     0
 42
0.0
 43
0.0
 12
1.0
 22
0.0
 32
0.0
 13
1.0
 23
0.0
 33
0.0
 40
0.0
 40
0.0
 40
0.0
 40
0.0
 40
1.0
 40
1.0
 40
1.0
 40
2.0
 40
2.0
 40
2.0
 40
2.0
 10
205.680673617893
 20
94.50082179212922
 30
0.0
 10
205.9590234310317
 20
95.80727238418898
 30
0.0
 10
206.4908315993529
 20
96.87545086051317
 30
0.0
 10
207.2760981228569
 20
97.7053572211018
 30
0.0
 10
208.0446383388817
 20
98.51758643826123
 30
0.0
 10
209.0559544932135
 20
99.10158590766416
 30
0.0
 10
210.3100465858525
 20
99.45735562931054
 30
0.0
  0
SPLINE
  5
CF
330
1F
100
AcDbEntity
  8
0
  6
K5LT32768
 62
    30
420
 16744448
100
AcDbSpline
210
0.0
220
0.0
230
1.0
 70
     8
 71
     3
 72
     8
 73
     4
 74
     0
 42
0.0
 43
0.0
 12
1.0
 22
0.0
 32
0.0
 13
1.0
 23
0.0
 33
0.0
 40
0.0
 40
0.0
 40
0.0
 40
0.0
 40
1.0
 40
1.0
 40
1.0
 40
1.0
 10
210.3100465858525
 20
99.45735562931054
 30
0.0
 10
208.6964136825202
 20
99.97705977381314
 30
0.0
 10
207.1754473381801
 20
100.1293352846836
 30
0.0
 10
205.7471475528321
 20
99.91418216192207
 30
0.0
  0
SPLINE
  5
D0
330
1F
100
AcDbEntity
  8
0
  6
K5LT32768
 62
    30
420
 16744448
100
AcDbSpline
210
0.0
220
0.0
230
1.0
 70
     8
 71
     3
 72
    17
 73
    13
 74
     0
 42
0.0
 43
0.0
 12
1.0
 22
0.0
 32
0.0
 13
1.0
 23
0.0
 33
0.0
 40
0.0
 40
0.0
 40
0.0
 40
0.0
 40
1.0
 40
1.0
 40
1.0
 40
2.0
 40
2.0
 40
2.0
 40
3.0
 40
3.0
 40
3.0
 40
4.0
 40
4.0
 40
4.0
 40
4.0
 10
205.6950263886198
 20
83.03198892917099
 30
0.0
 10
204.3420707931681
 20
82.3044925781098
 30
0.0
 10
203.2964482254846
 20
82.09630290193451
 30
0.0
 10
202.5581586855695
 20
82.40741990064515
 30
0.0
 10
201.5549296467249
 20
82.83018304533302
 30
0.0
 10
200.9062813504899
 20
85.41068714946917
 30
0.0
 10
201.2509328653586
 20
86.55239174445603
 30
0.0
 10
201.6007457395371
 20
87.71119403780241
 30
0.0
 10
203.593932584488
 20
89.20878146684626
 30
0.0
 10
204.7121980132832
 20
89.28721852800136
 30
0.0
 10
204.8010784905699
 20
89.29345275759741
 30
0.0
 10
204.8931513308368
 20
89.29019313196441
 30
0.0
 10
204.9877908806025
 20
89.27821436840108
 30
0.0
  0
LINE
  5
D1
330
1F
100
AcDbEntity
  8
0
  6
K5LT32768
 62
    30
420
 16744448
100
AcDbLine
 10
173.5100812373632
 20
83.03198892917099
 30
0.0
 11
164.5581586855695
 21
83.03198892917099
 31
0.0
  0
SPLINE
  5
D2
330
1F
100
AcDbEntity
  8
0
  6
K5LT32768
 62
    30
420
 16744448
100
AcDbSpline
210
0.0
220
0.0
230
1.0
 70
     8
 71
     3
 72
    11
 73
     7
 74
     0
 42
0.0
 43
0.0
 12
1.0
 22
0.0
 32
0.0
 13
1.0
 23
0.0
 33
0.0
 40
0.0
 40
0.0
 40
0.0
 40
0.0
 40
1.0
 40
1.0
 40
1.0
 40
2.0
 40
2.0
 40
2.0
 40
2.0
 10
219.045773702323
 20
47.90757232651976
 30
0.0
 10
219.1220100841157
 20
50.15531620125614
 30
0.0
 10
219.6777826031539
 20
52.13790246153397
 30
0.0
 10
220.7130912594377
 20
53.85533110735324
 30
0.0
 10
221.4651216148658
 20
55.10284166094413
 30
0.0
 10
222.4701705376928
 20
56.21044659630451
 30
0.0
 10
223.7282380279187
 20
57.17814591343439
 30
0.0
  0
SPLINE
  5
D3
330
1F
100
AcDbEntity
  8
0
  6
K5LT32768
 62
    30
420
 16744448
100
AcDbSpline
210
0.0
220
0.0
230
1.0
 70
     8
 71
     3
 72
    11
 73
     7
 74
     0
 42
0.0
 43
0.0
 12
1.0
 22
0.0
 32
0.0
 13
1.0
 23
0.0
 33
0.0
 40
0.0
 40
0.0
 40
0.0
 40
0.0
 40
1.0
 40
1.0
 40
1.0
 40
2.0
 40
2.0
 40
2.0
 40
2.0
 10
223.7282380279187
 20
57.17814591343439
 30
0.0
 10
221.9986374999976
 20
57.43999761690482
 30
0.0
 10
220.5874471426118
 20
57.19016045746243
 30
0.0
 10
219.4946669557613
 20
56.42863443510719
 30
0.0
 10
218.6528823087367
 20
55.84201974201333
 30
0.0
 10
218.0000373993703
 20
54.95177668378641
 30
0.0
 10
217.5361322276621
 20
53.75790526042645
 30
0.0
  0
SPLINE
  5
D4
330
1F
100
AcDbEntity
  8
0
  6
K5LT32768
 62
    30
420
 16744448
100
AcDbSpline
210
0.0
220
0.0
230
1.0
 70
     8
 71
     3
 72
     8
 73
     4
 74
     0
 42
0.0
 43
0.0
 12
1.0
 22
0.0
 32
0.0
 13
1.0
 23
0.0
 33
0.0
 40
0.0
 40
0.0
 40
0.0
 40
0.0
 40
1.0
 40
1.0
 40
1.0
 40
1.0
 10
217.5361322276621
 20
53.75790526042645
 30
0.0
 10
217.0570092781133
 20
54.74485686395375
 30
0.0
 10
216.5075665747488
 20
55.60016566612676
 30
0.0
 10
215.8878041175687
 20
56.32383166694545
 30
0.0
  0
SPLINE
  5
D5
330
1F
100
AcDbEntity
  8
0
  6
K5LT32768
 62
    30
420
 16744448
100
AcDbSpline
210
0.0
220
0.0
230
1.0
 70
     8
 71
     3
 72
    17
 73
    13
 74
     0
 42
0.0
 43
0.0
 12
1.0
 22
0.0
 32
0.0
 13
1.0
 23
0.0
 33
0.0
 40
0.0
 40
0.0
 40
0.0
 40
0.0
 40
1.0
 40
1.0
 40
1.0
 40
2.0
 40
2.0
 40
2.0
 40
3.0
 40
3.0
 40
3.0
 40
4.0
 40
4.0
 40
4.0
 40
4.0
 10
214.6873544413359
 20
42.43401355978013
 30
0.0
 10
215.7334674598349
 20
45.42594949482923
 30
0.0
 10
215.7809470896071
 20
48.03732913229484
 30
0.0
 10
214.8297933306523
 20
50.26815247217695
 30
0.0
 10
214.0467021538423
 20
52.10480407349424
 30
0.0
 10
212.2410957877927
 20
54.71578004443018
 30
0.0
 10
210.4497974841758
 20
55.00424554194412
 30
0.0
 10
209.1052370885214
 20
55.22076965894175
 30
0.0
 10
206.8170531618858
 20
54.57525525367181
 30
0.0
 10
205.856143303725
 20
53.47302748179384
 30
0.0
 10
205.1919900439801
 20
52.71119934416269
 30
0.0
 10
204.8002830983602
 20
51.66664748917643
 30
0.0
 10
204.6810224668654
 20
50.33937191683511
 30
0.0
  0
SPLINE
  5
D6
330
1F
100
AcDbEntity
  8
0
  6
K5LT32768
 62
    30
420
 16744448
100
AcDbSpline
210
0.0
220
0.0
230
1.0
 70
     8
 71
     3
 72
    20
 73
    16
 74
     0
 42
0.0
 43
0.0
 12
1.0
 22
0.0
 32
0.0
 13
1.0
 23
0.0
 33
0.0
 40
0.0
 40
0.0
 40
0.0
 40
0.0
 40
1.0
 40
1.0
 40
1.0
 40
2.0
 40
2.0
 40
2.0
 40
3.0
 40
3.0
 40
3.0
 40
4.0
 40
4.0
 40
4.0
 40
5.0
 40
5.0
 40
5.0
 40
5.0
 10
204.6810224668654
 20
50.33937191683511
 30
0.0
 10
205.8234574269903
 20
51.42572109507868
 30
0.0
 10
206.8205296522045
 20
51.87677757791365
 30
0.0
 10
207.6722391425079
 20
51.69254136534001
 30
0.0
 10
208.5510720554668
 20
51.50243799181656
 30
0.0
 10
209.6813379184192
 20
50.00759245345048
 30
0.0
 10
209.8444322045816
 20
49.09303163531743
 30
0.0
 10
210.0564443793368
 20
47.90416087496862
 30
0.0
 10
208.7709879864315
 20
45.7070963037358
 30
0.0
 10
207.6366294201788
 20
45.28279134610624
 30
0.0
 10
206.7438897053034
 20
44.94886352278512
 30
0.0
 10
205.0547696219279
 20
45.25754075457024
 30
0.0
 10
204.2180960765874
 20
45.85254690337147
 30
0.0
 10
203.300658122809
 20
46.5049892169618
 30
0.0
 10
202.7473456591363
 20
47.64450033149225
 30
0.0
 10
202.5581586855695
 20
49.27108024696281
 30
0.0
  0
LINE
  5
D7
330
1F
100
AcDbEntity
  8
0
  6
K5LT32768
 62
    30
420
 16744448
100
AcDbLine
 10
202.5581586855695
 20
58.31253326788909
 30
0.0
 11
202.5581586855695
 21
67.00489466755111
 31
0.0
  0
LINE
  5
D8
330
1F
100
AcDbEntity
  8
0
  6
K5LT32768
 62
    30
420
 16744448
100
AcDbLine
 10
197.2460170425567
 20
90.0743650631216
 30
0.0
 11
200.4389029097744
 21
93.77003976342087
 31
0.0
  0
LINE
  5
D9
330
1F
100
AcDbEntity
  8
0
  6
K5LT32768
 62
    30
420
 16744448
100
AcDbLine
 10
208.1416033438589
 20
90.09204124547833
 30
0.0
 11
213.2635194677484
 21
95.84700463602432
 31
0.0
  0
LINE
  5
DA
330
1F
100
AcDbEntity
  8
0
  6
K5LT32768
 62
    30
420
 16744448
100
AcDbLine
 10
202.5581586855695
 20
70.49727594665333
 30
0.0
 11
207.0201590422968
 21
75.37572967000852
 31
0.0
  0
LINE
  5
DB
330
1F
100
AcDbEntity
  8
0
  6
K5LT32768
 62
    30
420
 16744448
100
AcDbLine
 10
203.6354764730588
 20
69.03509845297951
 30
0.0
 11
208.2706144158487
 21
74.12722182674877
 31
0.0
  0
LINE
  5
DC
330
1F
100
AcDbEntity
  8
0
  6
K5LT32768
 62
    30
420
 16744448
100
AcDbLine
 10
202.5581586855695
 20
58.31253326788909
 30
0.0
 11
206.8973522219781
 21
62.71829741643228
 31
0.0
  0
LINE
  5
DD
330
1F
100
AcDbEntity
  8
0
  6
K5LT32768
 62
    30
420
 16744448
100
AcDbLine
 10
205.4003329159005
 20
58.46500249496455
 30
0.0
 11
208.2689404235962
 21
61.36333452634901
 31
0.0
  0
LINE
  5
DE
330
1F
100
AcDbEntity
  8
0
  6
K5LT32768
 62
    30
420
 16744448
100
AcDbLine
 10
214.4505559794579
 20
57.66721670099025
 30
0.0
 11
219.6046199981427
 21
62.81086846913217
 31
0.0
  0
LINE
  5
DF
330
1F
100
AcDbEntity
  8
0
  6
K5LT32768
 62
    30
420
 16744448
100
AcDbLine
 10
215.8878041175686
 20
56.32383166694544
 30
0.0
 11
221.0074812925199
 21
61.41019207069308
 31
0.0
  0
LINE
  5
E0
330
1F
100
AcDbEntity
  8
0
  6
K5LT32768
 62
    30
420
 16744448
100
AcDbLine
 10
232.4420192500415
 20
79.49570550841013
 30
0.0
 11
229.3459365289455
 21
82.658730558611
 31
0.0
  0
LINE
  5
E1
330
1F
100
AcDbEntity
  8
0
  6
K5LT32768
 62
    30
420
 16744448
100
AcDbLine
 10
232.65753637166
 20
75.83741531462222
 30
0.0
 11
227.6787310748689
 21
80.97424951424168
 31
0.0
  0
LINE
  5
E2
330
1F
100
AcDbEntity
  8
0
  6
K5LT32768
 62
    30
420
 16744448
100
AcDbLine
 10
232.13740815939
 20
65.58838870898371
 30
0.0
 11
228.7227806802412
 21
69.07528343636848
 31
0.0
  0
LINE
  5
E3
330
1F
100
AcDbEntity
  8
0
  6
K5LT32768
 62
    30
420
 16744448
100
AcDbLine
 10
231.4079867108834
 20
63.18944117090511
 30
0.0
 11
227.0900674281731
 21
67.45319521630952
 31
0.0
  0
LINE
  5
E4
330
1F
100
AcDbEntity
  8
0
  6
K5LT32768
 62
    30
420
 16744448
100
AcDbLine
 10
228.4762756065269
 20
57.19852353151706
 30
0.0
 11
222.5858648404679
 21
62.9783041421903
 31
0.0
  0
LINE
  5
E5
330
1F
100
AcDbEntity
  8
0
  6
K5LT32768
 62
    30
420
 16744448
100
AcDbLine
 10
227.1261520516647
 20
55.30105087725941
 30
0.0
 11
221.0074812925199
 21
61.41019207069309
 31
0.0
  0
LINE
  5
E6
330
1F
100
AcDbEntity
  8
0
  6
K5LT32768
 62
    30
420
 16744448
100
AcDbLine
 10
210.373641995046
 20
59.28414448909857
 30
0.0
 11
208.2689404235962
 21
61.36333452634899
 31
0.0
  0
SPLINE
  5
E7
330
1F
100
AcDbEntity
  8
0
  6
K5LT32768
 62
    30
420
 16744448
100
AcDbSpline
210
0.0
220
0.0
230
1.0
 70
     8
 71
     3
 72
    17
 73
    13
 74
     0
 42
0.0
 43
0.0
 12
1.0
 22
0.0
 32
0.0
 13
1.0
 23
0.0
 33
0.0
 40
0.0
 40
0.0
 40
0.0
 40
0.0
 40
1.0
 40
1.0
 40
1.0
 40
2.0
 40
2.0
 40
2.0
 40
3.0
 40
3.0
 40
3.0
 40
4.0
 40
4.0
 40
4.0
 40
4.0
 10
197.2460170420906
 20
90.07436505577009
 30
0.0
 10
197.2318744125105
 20
89.85130997800785
 30
0.0
 10
197.2276936039269
 20
89.63127011158998
 30
0.0
 10
197.2341560270264
 20
89.41541353348003
 30
0.0
 10
197.2878875506833
 20
87.62068380833333
 30
0.0
 10
197.8924799866093
 20
85.3610286037953
 30
0.0
 10
199.0716177722209
 20
83.9884916348823
 30
0.0
 10
199.9320602017558
 20
82.98692162451631
 30
0.0
 10
201.3311359119855
 20
81.7233929885293
 30
0.0
 10
202.5581586855695
 20
81.68098153626592
 30
0.0
 10
203.5605104813232
 20
81.64633572833804
 30
0.0
 10
204.6061330490066
 20
82.09667152597306
 30
0.0
 10
205.6950263886198
 20
83.03198892917099
 30
0.0
  0
LINE
  5
E8
330
1F
100
AcDbEntity
  8
0
  6
K5LT32768
 62
    30
420
 16744448
100
AcDbLine
 10
202.3610793390599
 20
95.99490438265408
 30
0.0
 11
205.7471475528319
 21
99.91418216192206
 31
0.0
  0
LINE
  5
E9
330
1F
100
AcDbEntity
  8
0
  6
K5LT32768
 62
    30
420
 16744448
100
AcDbLine
 10
213.2635194677484
 20
95.84700463602432
 30
0.0
 11
213.1628749149748
 21
95.95084367970536
 31
0.0
  0
SPLINE
  5
EA
330
1F
100
AcDbEntity
  8
0
  6
K5LT32768
 62
    30
420
 16744448
100
AcDbSpline
210
0.0
220
0.0
230
1.0
 70
     8
 71
     3
 72
    11
 73
     7
 74
     0
 42
0.0
 43
0.0
 12
1.0
 22
0.0
 32
0.0
 13
1.0
 23
0.0
 33
0.0
 40
0.0
 40
0.0
 40
0.0
 40
0.0
 40
1.0
 40
1.0
 40
1.0
 40
2.0
 40
2.0
 40
2.0
 40
2.0
 10
216.5628490505489
 20
95.7182091176039
 30
0.0
 10
217.3569315191023
 20
95.58769954194439
 30
0.0
 10
218.1353461817216
 20
95.40342476266068
 30
0.0
 10
218.8980930384066
 20
95.1653847797528
 30
0.0
 10
220.3427788866621
 20
94.71452353842224
 30
0.0
 10
221.8215331798312
 20
93.99150764951649
 30
0.0
 10
223.2246673094618
 20
93.09265870875372
 30
0.0
  0
LINE
  5
EB
330
1F
100
AcDbEntity
  8
0
  6
K5LT32768
 62
    30
420
 16744448
100
AcDbLine
 10
209.6549677189817
 20
88.54664799469165
 30
0.0
 11
214.7716398769049
 21
94.2910159935497
 31
0.0
  0
LINE
  5
EC
330
1F
100
AcDbEntity
  8
0
  6
K5LT32768
 62
    30
420
 16744448
100
AcDbLine
 10
208.141603343859
 20
90.09204124547836
 30
0.0
 11
202.3610793390599
 21
95.99490438265408
 31
0.0
  0
SPLINE
  5
ED
330
1F
100
AcDbEntity
  8
0
  6
K5LT32768
 62
    30
420
 16744448
100
AcDbSpline
210
0.0
220
0.0
230
1.0
 70
     8
 71
     3
 72
    14
 73
    10
 74
     0
 42
0.0
 43
0.0
 12
1.0
 22
0.0
 32
0.0
 13
1.0
 23
0.0
 33
0.0
 40
0.0
 40
0.0
 40
0.0
 40
0.0
 40
1.0
 40
1.0
 40
1.0
 40
2.0
 40
2.0
 40
2.0
 40
3.0
 40
3.0
 40
3.0
 40
3.0
 10
208.8767972577531
 20
85.43799281973752
 30
0.0
 10
208.8850421500292
 20
85.41039113875536
 30
0.0
 10
208.8927481422679
 20
85.38302288270627
 30
0.0
 10
208.8999015255869
 20
85.35590502665495
 30
0.0
 10
209.2936658684676
 20
83.86317853735318
 30
0.0
 10
208.5654326739259
 20
81.44340399049207
 30
0.0
 10
207.4897564653214
 20
80.14264147052168
 30
0.0
 10
207.1482915978524
 20
79.72972474154935
 30
0.0
 10
206.7044209787752
 20
79.36475668464405
 30
0.0
 10
206.2142567857557
 20
79.04243049232569
 30
0.0
  0
LINE
  5
EE
330
1F
100
AcDbEntity
  8
0
  6
K5LT32768
 62
    30
420
 16744448
100
AcDbLine
 10
204.9877908804812
 20
89.27821436852402
 30
0.0
 11
200.4389029097744
 21
93.77003976342088
 31
0.0
  0
LINE
  5
EF
330
1F
100
AcDbEntity
  8
0
  6
K5LT32768
 62
    30
420
 16744448
100
AcDbLine
 10
214.5214643119527
 20
83.57715676483231
 30
0.0
 11
219.6845679059607
 21
89.22215002761436
 31
0.0
  0
LINE
  5
F0
330
1F
100
AcDbEntity
  8
0
  6
K5LT32768
 62
    30
420
 16744448
100
AcDbLine
 10
215.7399085997284
 20
82.33292529636302
 30
0.0
 11
220.8842191820375
 21
87.98442142904068
 31
0.0
  0
LINE
  5
F1
330
1F
100
AcDbEntity
  8
0
  6
K5LT32768
 62
    30
420
 16744448
100
AcDbLine
 10
214.5214643119527
 20
83.57715676483232
 30
0.0
 11
209.6549677189817
 21
88.54664799469167
 31
0.0
  0
LINE
  5
F2
330
1F
100
AcDbEntity
  8
0
  6
K5LT32768
 62
    30
420
 16744448
100
AcDbLine
 10
212.7370341866174
 20
81.62617982779908
 30
0.0
 11
208.8767972575874
 21
85.43799282029215
 31
0.0
  0
LINE
  5
F3
330
1F
100
AcDbEntity
  8
0
  6
K5LT32768
 62
    30
420
 16744448
100
AcDbLine
 10
219.6845679059607
 20
89.22215002761438
 30
0.0
 11
214.7716398769049
 21
94.29101599354969
 31
0.0
  0
LINE
  5
F4
330
1F
100
AcDbEntity
  8
0
  6
K5LT32768
 62
    30
420
 16744448
100
AcDbLine
 10
221.2481206440213
 20
90.93163435456057
 30
0.0
 11
223.2246673094797
 21
93.09265870879513
 31
0.0
  0
LINE
  5
F5
330
1F
100
AcDbEntity
  8
0
  6
K5LT32768
 62
    30
420
 16744448
100
AcDbLine
 10
222.4496195732567
 20
89.7041570700984
 30
0.0
 11
224.6384357733101
 21
92.1087720504387
 31
0.0
  0
LINE
  5
F6
330
1F
100
AcDbEntity
  8
0
  6
K5LT32768
 62
    30
420
 16744448
100
AcDbLine
 10
227.9455428092041
 20
84.08940306148186
 30
0.0
 11
229.9779262698212
 21
86.15296674255475
 31
0.0
  0
LINE
  5
F7
330
1F
100
AcDbEntity
  8
0
  6
K5LT32768
 62
    30
420
 16744448
100
AcDbLine
 10
227.9455428092041
 20
84.08940306148185
 30
0.0
 11
222.4496195732567
 21
89.7041570700984
 31
0.0
  0
LINE
  5
F8
330
1F
100
AcDbEntity
  8
0
  6
K5LT32768
 62
    30
420
 16744448
100
AcDbLine
 10
229.3459365289455
 20
82.658730558611
 30
0.0
 11
230.9108266067383
 21
84.23983603431478
 31
0.0
  0
LINE
  5
F9
330
1F
100
AcDbEntity
  8
0
  6
K5LT32768
 62
    30
420
 16744448
100
AcDbLine
 10
226.2893151019078
 20
82.40776600302752
 30
0.0
 11
220.8842191820375
 21
87.98442142904068
 31
0.0
  0
LINE
  5
FA
330
1F
100
AcDbEntity
  8
0
  6
K5LT32768
 62
    30
420
 16744448
100
AcDbLine
 10
220.9627820357733
 20
76.99951485638059
 30
0.0
 11
215.7399085997284
 21
82.33292529636303
 31
0.0
  0
LINE
  5
FB
330
1F
100
AcDbEntity
  8
0
  6
K5LT32768
 62
    30
420
 16744448
100
AcDbLine
 10
220.9627820357733
 20
76.99951485638057
 30
0.0
 11
226.2893151019078
 21
82.40776600302752
 31
0.0
  0
LINE
  5
FC
330
1F
100
AcDbEntity
  8
0
  6
K5LT32768
 62
    30
420
 16744448
100
AcDbLine
 10
222.3463749799403
 20
75.58663952186092
 30
0.0
 11
227.6787310748689
 21
80.97424951424166
 31
0.0
  0
LINE
  5
FD
330
1F
100
AcDbEntity
  8
0
  6
K5LT32768
 62
    30
420
 16744448
100
AcDbLine
 10
219.2172751349391
 20
75.22722890964789
 30
0.0
 11
213.9796651842348
 21
80.39913675539822
 31
0.0
  0
LINE
  5
FE
330
1F
100
AcDbEntity
  8
0
  6
K5LT32768
 62
    30
420
 16744448
100
AcDbLine
 10
227.3185591674645
 20
70.50922392296049
 30
0.0
 11
232.65753637166
 21
75.8374153146222
 31
0.0
  0
LINE
  5
FF
330
1F
100
AcDbEntity
  8
0
  6
K5LT32768
 62
    30
420
 16744448
100
AcDbLine
 10
228.7227806802412
 20
69.07528343636847
 30
0.0
 11
233.1736991473555
 21
73.49723714122393
 31
0.0
  0
LINE
  5
100
330
1F
100
AcDbEntity
  8
0
  6
K5LT32768
 62
    30
420
 16744448
100
AcDbLine
 10
227.3185591674645
 20
70.50922392296049
 30
0.0
 11
222.3463749799403
 21
75.5866395218609
 31
0.0
  0
LINE
  5
101
330
1F
100
AcDbEntity
  8
0
  6
K5LT32768
 62
    30
420
 16744448
100
AcDbLine
 10
225.6656955171627
 20
68.85969939114413
 30
0.0
 11
220.6198620480614
 21
73.84223645534178
 31
0.0
  0
LINE
  5
102
330
1F
100
AcDbEntity
  8
0
  6
K5LT32768
 62
    30
420
 16744448
100
AcDbLine
 10
214.7377701189428
 20
70.67900066467533
 30
0.0
 11
219.2172751349391
 21
75.22722890964789
 31
0.0
  0
LINE
  5
103
330
1F
100
AcDbEntity
  8
0
  6
K5LT32768
 62
    30
420
 16744448
100
AcDbLine
 10
214.7377701189428
 20
70.67900066467533
 30
0.0
 11
209.663757106546
 21
75.65771661371197
 31
0.0
  0
LINE
  5
104
330
1F
100
AcDbEntity
  8
0
  6
K5LT32768
 62
    30
420
 16744448
100
AcDbLine
 10
216.1335491266317
 20
69.30943633956755
 30
0.0
 11
220.6198620480614
 21
73.84223645534178
 31
0.0
  0
LINE
  5
105
330
1F
100
AcDbEntity
  8
0
  6
K5LT32768
 62
    30
420
 16744448
100
AcDbLine
 10
213.2436367563477
 20
69.16194475397907
 30
0.0
 11
208.2706144158487
 21
74.12722182674875
 31
0.0
  0
LINE
  5
106
330
1F
100
AcDbEntity
  8
0
  6
K5LT32768
 62
    30
420
 16744448
100
AcDbLine
 10
208.4064509399382
 20
76.89140881142976
 30
0.0
 11
212.7370341866174
 21
81.62617982779909
 31
0.0
  0
LINE
  5
107
330
1F
100
AcDbEntity
  8
0
  6
K5LT32768
 62
    30
420
 16744448
100
AcDbLine
 10
208.4064509399382
 20
76.89140881142977
 30
0.0
 11
206.2142567857557
 21
79.04243049232569
 31
0.0
  0
LINE
  5
108
330
1F
100
AcDbEntity
  8
0
  6
K5LT32768
 62
    30
420
 16744448
100
AcDbLine
 10
209.663757106546
 20
75.65771661371197
 30
0.0
 11
213.9796651842348
 21
80.39913675539822
 31
0.0
  0
LINE
  5
109
330
1F
100
AcDbEntity
  8
0
  6
K5LT32768
 62
    30
420
 16744448
100
AcDbLine
 10
207.0201590422968
 20
75.37572967000852
 30
0.0
 11
204.3382706232571
 21
78.05344116354836
 31
0.0
  0
LINE
  5
10A
330
1F
100
AcDbEntity
  8
0
  6
K5LT32768
 62
    30
420
 16744448
100
AcDbLine
 10
221.2481206440213
 20
90.93163435456057
 30
0.0
 11
216.5628490505529
 21
95.71820911761742
 31
0.0
  0
SPLINE
  5
10B
330
1F
100
AcDbEntity
  8
0
  6
K5LT32768
 62
    30
420
 16744448
100
AcDbSpline
210
0.0
220
0.0
230
1.0
 70
     8
 71
     3
 72
    11
 73
     7
 74
     0
 42
0.0
 43
0.0
 12
1.0
 22
0.0
 32
0.0
 13
1.0
 23
0.0
 33
0.0
 40
0.0
 40
0.0
 40
0.0
 40
0.0
 40
1.0
 40
1.0
 40
1.0
 40
2.0
 40
2.0
 40
2.0
 40
2.0
 10
224.6384357732896
 20
92.10877205041304
 30
0.0
 10
226.1450825563778
 20
90.97372872951618
 30
0.0
 10
227.508166024408
 20
89.65773705722754
 30
0.0
 10
228.5711765249278
 20
88.29823390764238
 30
0.0
 10
229.0857142405671
 20
87.64018241647645
 30
0.0
 10
229.5540492734778
 20
86.91871102189208
 30
0.0
 10
229.9779262698213
 20
86.15296674255477
 30
0.0
  0
SPLINE
  5
10C
330
1F
100
AcDbEntity
  8
0
  6
K5LT32768
 62
    30
420
 16744448
100
AcDbSpline
210
0.0
220
0.0
230
1.0
 70
     8
 71
     3
 72
     8
 73
     4
 74
     0
 42
0.0
 43
0.0
 12
1.0
 22
0.0
 32
0.0
 13
1.0
 23
0.0
 33
0.0
 40
0.0
 40
0.0
 40
0.0
 40
0.0
 40
1.0
 40
1.0
 40
1.0
 40
1.0
 10
230.9108266067383
 20
84.23983603431476
 30
0.0
 10
231.5645120398788
 20
82.71703276329507
 30
0.0
 10
232.0712434061026
 20
81.095420576873
 30
0.0
 10
232.4420192489304
 20
79.49570550858908
 30
0.0
  0
SPLINE
  5
10D
330
1F
100
AcDbEntity
  8
0
  6
K5LT32768
 62
    30
420
 16744448
100
AcDbSpline
210
0.0
220
0.0
230
1.0
 70
     8
 71
     3
 72
     8
 73
     4
 74
     0
 42
0.0
 43
0.0
 12
1.0
 22
0.0
 32
0.0
 13
1.0
 23
0.0
 33
0.0
 40
0.0
 40
0.0
 40
0.0
 40
0.0
 40
1.0
 40
1.0
 40
1.0
 40
1.0
 10
233.1736991473166
 20
73.49723714127073
 30
0.0
 10
233.181712586594
 20
70.88637900028314
 30
0.0
 10
232.8119059909359
 20
68.16791765908467
 30
0.0
 10
232.1374081562872
 20
65.58838871039862
 30
0.0
  0
SPLINE
  5
10E
330
1F
100
AcDbEntity
  8
0
  6
K5LT32768
 62
    30
420
 16744448
100
AcDbSpline
210
0.0
220
0.0
230
1.0
 70
     8
 71
     3
 72
    11
 73
     7
 74
     0
 42
0.0
 43
0.0
 12
1.0
 22
0.0
 32
0.0
 13
1.0
 23
0.0
 33
0.0
 40
0.0
 40
0.0
 40
0.0
 40
0.0
 40
1.0
 40
1.0
 40
1.0
 40
2.0
 40
2.0
 40
2.0
 40
2.0
 10
231.4079867108823
 20
63.18944117090597
 30
0.0
 10
231.0119748481128
 20
62.05345101110605
 30
0.0
 10
230.5562601017918
 20
60.96346174200605
 30
0.0
 10
230.0479831640913
 20
59.94354643570254
 30
0.0
 10
229.5786961467032
 20
59.00186882536477
 30
0.0
 10
229.054793627515
 20
58.08686119063631
 30
0.0
 10
228.4762756065266
 20
57.19852353151717
 30
0.0
  0
LINE
  5
10F
330
1F
100
AcDbEntity
  8
0
  6
K5LT32768
 62
    30
420
 16744448
100
AcDbLine
 10
221.1672165361923
 20
64.37030824649884
 30
0.0
 11
225.6656955171627
 21
68.85969939114413
 31
0.0
  0
LINE
  5
110
330
1F
100
AcDbEntity
  8
0
  6
K5LT32768
 62
    30
420
 16744448
100
AcDbLine
 10
221.1672165361923
 20
64.37030824649884
 30
0.0
 11
216.1335491266317
 21
69.30943633956754
 31
0.0
  0
LINE
  5
111
330
1F
100
AcDbEntity
  8
0
  6
K5LT32768
 62
    30
420
 16744448
100
AcDbLine
 10
222.5858648404679
 20
62.9783041421903
 30
0.0
 11
227.0900674281731
 21
67.45319521630952
 31
0.0
  0
LINE
  5
112
330
1F
100
AcDbEntity
  8
0
  6
K5LT32768
 62
    30
420
 16744448
100
AcDbLine
 10
219.6046199981427
 20
62.81086846913217
 30
0.0
 11
214.6237441803461
 21
67.78398678774742
 31
0.0
  0
SPLINE
  5
113
330
1F
100
AcDbEntity
  8
0
  6
K5LT32768
 62
    30
420
 16744448
100
AcDbSpline
210
0.0
220
0.0
230
1.0
 70
     8
 71
     3
 72
     8
 73
     4
 74
     0
 42
0.0
 43
0.0
 12
1.0
 22
0.0
 32
0.0
 13
1.0
 23
0.0
 33
0.0
 40
0.0
 40
0.0
 40
0.0
 40
0.0
 40
1.0
 40
1.0
 40
1.0
 40
1.0
 10
227.1261520516637
 20
55.3010508772599
 30
0.0
 10
225.0018740481804
 20
52.55861394905607
 30
0.0
 10
222.3084145984002
 20
50.09412109880935
 30
0.0
 10
219.045773702323
 20
47.90757232651976
 30
0.0
  0
LINE
  5
114
330
1F
100
AcDbEntity
  8
0
  6
K5LT32768
 62
    30
420
 16744448
100
AcDbLine
 10
214.4505559794579
 20
57.66721670099024
 30
0.0
 11
209.6279011600627
 21
62.73637681998041
 31
0.0
  0
SPLINE
  5
115
330
1F
100
AcDbEntity
  8
0
  6
K5LT32768
 62
    30
420
 16744448
100
AcDbSpline
210
0.0
220
0.0
230
1.0
 70
     8
 71
     3
 72
    11
 73
     7
 74
     0
 42
0.0
 43
0.0
 12
1.0
 22
0.0
 32
0.0
 13
1.0
 23
0.0
 33
0.0
 40
0.0
 40
0.0
 40
0.0
 40
0.0
 40
1.0
 40
1.0
 40
1.0
 40
2.0
 40
2.0
 40
2.0
 40
2.0
 10
210.3736419950459
 20
59.28414448909855
 30
0.0
 10
209.3948522962544
 20
59.42583779218192
 30
0.0
 10
208.4859246650969
 20
59.37211284090538
 30
0.0
 10
207.6010196978498
 20
59.20619277677515
 30
0.0
 10
206.8385161590608
 20
59.06322303342637
 30
0.0
 10
206.1047858598993
 20
58.81602503531381
 30
0.0
 10
205.4003329159007
 20
58.46500249496383
 30
0.0
  0
LINE
  5
116
330
1F
100
AcDbEntity
  8
0
  6
K5LT32768
 62
    30
420
 16744448
100
AcDbLine
 10
208.2950098883849
 20
64.13739752960403
 30
0.0
 11
213.2436367563477
 21
69.16194475397907
 31
0.0
  0
LINE
  5
117
330
1F
100
AcDbEntity
  8
0
  6
K5LT32768
 62
    30
420
 16744448
100
AcDbLine
 10
208.2950098883849
 20
64.13739752960403
 30
0.0
 11
203.6354764730588
 21
69.0350984529795
 31
0.0
  0
LINE
  5
118
330
1F
100
AcDbEntity
  8
0
  6
K5LT32768
 62
    30
420
 16744448
100
AcDbLine
 10
209.6279011600627
 20
62.73637681998041
 30
0.0
 11
214.6237441803461
 21
67.78398678774741
 31
0.0
  0
LINE
  5
119
330
1F
100
AcDbEntity
  8
0
  6
K5LT32768
 62
    30
420
 16744448
100
AcDbLine
 10
206.8973522219781
 20
62.71829741643229
 30
0.0
 11
202.5581586855695
 21
67.00489466755113
 31
0.0
  0
LINE
  5
11A
330
1F
100
AcDbEntity
  8
0
  6
K5LT32768
 62
    30
420
 16744448
100
AcDbLine
 10
202.5581586855695
 20
70.49727594665333
 30
0.0
 11
202.5581586855695
 21
77.45054635546924
 31
0.0
  0
SPLINE
  5
11B
330
1F
100
AcDbEntity
  8
0
  6
K5LT32768
 62
    30
420
 16744448
100
AcDbSpline
210
0.0
220
0.0
230
1.0
 70
     8
 71
     3
 72
    11
 73
     7
 74
     0
 42
0.0
 43
0.0
 12
1.0
 22
0.0
 32
0.0
 13
1.0
 23
0.0
 33
0.0
 40
0.0
 40
0.0
 40
0.0
 40
0.0
 40
1.0
 40
1.0
 40
1.0
 40
2.0
 40
2.0
 40
2.0
 40
2.0
 10
204.3382706234912
 20
78.05344116394595
 30
0.0
 10
204.3347170795711
 20
78.0518889902269
 30
0.0
 10
204.3311645313956
 20
78.0503385075986
 30
0.0
 10
204.3276129968471
 20
78.04878971436978
 30
0.0
 10
203.7611225920913
 20
77.80174819158172
 30
0.0
 10
203.1713044883321
 20
77.60233373861487
 30
0.0
 10
202.5581586855695
 20
77.45054635546924
 30
0.0
  0
SPLINE
  5
11C
330
1F
100
AcDbEntity
  8
0
  6
K5LT32768
 62
    30
420
 16744448
100
AcDbSpline
210
0.0
220
0.0
230
1.0
 70
     8
 71
     3
 72
    11
 73
     7
 74
     0
 42
0.0
 43
0.0
 12
1.0
 22
0.0
 32
0.0
 13
1.0
 23
0.0
 33
0.0
 40
0.0
 40
0.0
 40
0.0
 40
0.0
 40
1.0
 40
1.0
 40
1.0
 40
2.0
 40
2.0
 40
2.0
 40
2.0
 10
214.6873544413359
 20
42.43401355978013
 30
0.0
 10
214.3918371000302
 20
43.39130091522579
 30
0.0
 10
213.9581386481256
 20
44.24522729243921
 30
0.0
 10
213.3862590856222
 20
44.99579269142038
 30
0.0
 10
212.8698353211938
 20
45.67357492776182
 30
0.0
 10
212.2407302267135
 20
46.26707029991309
 30
0.0
 10
211.4989438021811
 20
46.77627880787421
 30
0.0
  0
SPLINE
  5
11D
330
1F
100
AcDbEntity
  8
0
  6
K5LT32768
 62
    30
420
 16744448
100
AcDbSpline
210
0.0
220
0.0
230
1.0
 70
     8
 71
     3
 72
    20
 73
    16
 74
     0
 42
0.0
 43
0.0
 12
1.0
 22
0.0
 32
0.0
 13
1.0
 23
0.0
 33
0.0
 40
0.0
 40
0.0
 40
0.0
 40
0.0
 40
1.0
 40
1.0
 40
1.0
 40
2.0
 40
2.0
 40
2.0
 40
3.0
 40
3.0
 40
3.0
 40
4.0
 40
4.0
 40
4.0
 40
5.0
 40
5.0
 40
5.0
 40
5.0
 10
211.4989438021811
 20
46.77627880787421
 30
0.0
 10
212.0983208398545
 20
45.34679913733166
 30
0.0
 10
212.3831986184871
 20
43.95801996649768
 30
0.0
 10
212.3535771380789
 20
42.60994129537227
 30
0.0
 10
212.2971215410629
 20
40.0406373593716
 30
0.0
 10
209.9780392875722
 20
37.75580825481764
 30
0.0
 10
208.7569951828422
 20
35.34555794024071
 30
0.0
 10
207.7973644806942
 20
33.45131825408188
 30
0.0
 10
206.8005978143695
 20
31.57589739898813
 30
0.0
 10
205.836997951858
 20
29.68361208991757
 30
0.0
 10
205.2998275919856
 20
28.62873483225041
 30
0.0
 10
204.7305632275431
 20
27.58818533671388
 30
0.0
 10
204.2345604470495
 20
26.51434680262978
 30
0.0
 10
203.6165424361388
 20
25.17634713614897
 30
0.0
 10
203.0577418489787
 20
23.81130778020104
 30
0.0
 10
202.5581586855695
 20
22.419228734786
 30
0.0
  0
SPLINE
  5
11E
330
1F
100
AcDbEntity
  8
0
  6
K5LT32768
 62
    30
420
 16744448
100
AcDbSpline
210
0.0
220
0.0
230
1.0
 70
     8
 71
     3
 72
    26
 73
    22
 74
     0
 42
0.0
 43
0.0
 12
1.0
 22
0.0
 32
0.0
 13
1.0
 23
0.0
 33
0.0
 40
0.0
 40
0.0
 40
0.0
 40
0.0
 40
1.0
 40
1.0
 40
1.0
 40
2.0
 40
2.0
 40
2.0
 40
3.0
 40
3.0
 40
3.0
 40
4.0
 40
4.0
 40
4.0
 40
5.0
 40
5.0
 40
5.0
 40
6.0
 40
6.0
 40
6.0
 40
7.0
 40
7.0
 40
7.0
 40
7.0
 10
210.2518443960556
 20
28.61342277378734
 30
0.0
 10
213.0873156189907
 20
29.3839051818602
 30
0.0
 10
215.7108182054353
 20
29.455757175271
 30
0.0
 10
218.1223521553893
 20
28.82897875401974
 30
0.0
 10
221.1969992203606
 20
28.02985152907468
 30
0.0
 10
224.2592248592806
 20
25.51246460712562
 30
0.0
 10
226.3125882910769
 20
23.0245940143803
 30
0.0
 10
228.4388654653803
 20
20.44838058228101
 30
0.0
 10
229.4795195236772
 20
16.80160913978944
 30
0.0
 10
230.5145355259079
 20
13.51679815251692
 30
0.0
 10
231.5339289723394
 20
10.28156817928449
 30
0.0
 10
230.832573581678
 20
6.309703257200104
 30
0.0
 10
232.5086799763361
 20
3.474856455717404
 30
0.0
 10
233.5526054725178
 20
1.709235333294309
 30
0.0
 10
234.9496096870416
 20
-0.7519066212757402
 30
0.0
 10
236.8174563781544
 20
-1.225626891720667
 30
0.0
 10
237.9054843306256
 20
-1.501570789230406
 30
0.0
 10
239.6046568080578
 20
-1.572637855684194
 30
0.0
 10
240.5208675003783
 20
-0.9407491130880565
 30
0.0
 10
241.2127809951788
 20
-0.4635528176514327
 30
0.0
 10
241.7231870152289
 20
0.3198610735882461
 30
0.0
 10
242.0520855605286
 20
1.40949256063098
 30
0.0
  0
SPLINE
  5
11F
330
1F
100
AcDbEntity
  8
0
  6
K5LT32768
 62
    30
420
 16744448
100
AcDbSpline
210
0.0
220
0.0
230
1.0
 70
     8
 71
     3
 72
    26
 73
    22
 74
     0
 42
0.0
 43
0.0
 12
1.0
 22
0.0
 32
0.0
 13
1.0
 23
0.0
 33
0.0
 40
0.0
 40
0.0
 40
0.0
 40
0.0
 40
1.0
 40
1.0
 40
1.0
 40
2.0
 40
2.0
 40
2.0
 40
3.0
 40
3.0
 40
3.0
 40
4.0
 40
4.0
 40
4.0
 40
5.0
 40
5.0
 40
5.0
 40
6.0
 40
6.0
 40
6.0
 40
7.0
 40
7.0
 40
7.0
 40
7.0
 10
242.0520855605286
 20
1.40949256063098
 30
0.0
 10
241.3151012691849
 20
0.7200549088526026
 30
0.0
 10
240.6266466374894
 20
0.3876975004478904
 30
0.0
 10
239.9867216654422
 20
0.4124203354168436
 30
0.0
 10
239.1277353778339
 20
0.4456063762134596
 30
0.0
 10
237.9580259069519
 20
1.609595403481782
 30
0.0
 10
237.6720897140522
 20
2.442174508174194
 30
0.0
 10
237.3664238471485
 20
3.33220179440483
 30
0.0
 10
237.8004577774492
 20
4.988186463157593
 30
0.0
 10
238.4198938829628
 20
5.647049517791062
 30
0.0
 10
239.2038668296177
 20
6.480922141271387
 30
0.0
 10
241.3638215324692
 20
6.542974492002167
 30
0.0
 10
242.5506216731357
 20
6.181195352727205
 30
0.0
 10
243.9571554396852
 20
5.752433543567221
 30
0.0
 10
245.5389784249386
 20
3.99478769767052
 30
0.0
 10
245.969155016727
 20
2.620223119819574
 30
0.0
 10
246.4749354395576
 20
1.004077874669796
 30
0.0
 10
245.7122561323061
 20
-1.812251931076577
 30
0.0
 10
244.5447661235639
 20
-3.006113008174482
 30
0.0
 10
243.3649037982618
 20
-4.21262586564214
 30
0.0
 10
241.4775885148208
 20
-4.723031885692234
 30
0.0
 10
238.8828202732408
 20
-4.537331068324763
 30
0.0
  0
SPLINE
  5
120
330
1F
100
AcDbEntity
  8
0
  6
K5LT32768
 62
    30
420
 16744448
100
AcDbSpline
210
0.0
220
0.0
230
1.0
 70
     8
 71
     3
 72
    23
 73
    19
 74
     0
 42
0.0
 43
0.0
 12
1.0
 22
0.0
 32
0.0
 13
1.0
 23
0.0
 33
0.0
 40
0.0
 40
0.0
 40
0.0
 40
0.0
 40
1.0
 40
1.0
 40
1.0
 40
2.0
 40
2.0
 40
2.0
 40
3.0
 40
3.0
 40
3.0
 40
4.0
 40
4.0
 40
4.0
 40
5.0
 40
5.0
 40
5.0
 40
6.0
 40
6.0
 40
6.0
 40
6.0
 10
211.0616542711367
 20
14.48595418967689
 30
0.0
 10
210.0835398816082
 20
14.13297024807772
 30
0.0
 10
209.2431504012479
 20
14.07599469008719
 30
0.0
 10
208.5404858300559
 20
14.31502751570531
 30
0.0
 10
207.4947765754618
 20
14.67075747299716
 30
0.0
 10
206.7068943099915
 20
16.25155943722502
 30
0.0
 10
206.3184390684253
 20
17.34897597870089
 30
0.0
 10
205.6798139274056
 20
19.15314211823274
 30
0.0
 10
206.163857591265
 20
22.00367495100846
 30
0.0
 10
207.258535775269
 20
23.45960457318493
 30
0.0
 10
208.3313456566811
 20
24.88644920034136
 30
0.0
 10
210.9224348676999
 20
26.07578238799259
 30
0.0
 10
212.7281893423596
 20
26.06623635125156
 30
0.0
 10
214.6422476509785
 20
26.05611777134773
 30
0.0
 10
217.2369451135118
 20
24.58569392670219
 30
0.0
 10
218.4115012519147
 20
23.07501955674888
 30
0.0
 10
219.7952962396013
 20
21.29522925740197
 30
0.0
 10
220.1798812560373
 20
18.80254859531641
 30
0.0
 10
219.5652563012229
 20
15.59697757049217
 30
0.0
  0
SPLINE
  5
121
330
1F
100
AcDbEntity
  8
0
  6
K5LT32768
 62
    30
420
 16744448
100
AcDbSpline
210
0.0
220
0.0
230
1.0
 70
     8
 71
     3
 72
    29
 73
    25
 74
     0
 42
0.0
 43
0.0
 12
1.0
 22
0.0
 32
0.0
 13
1.0
 23
0.0
 33
0.0
 40
0.0
 40
0.0
 40
0.0
 40
0.0
 40
1.0
 40
1.0
 40
1.0
 40
2.0
 40
2.0
 40
2.0
 40
3.0
 40
3.0
 40
3.0
 40
4.0
 40
4.0
 40
4.0
 40
5.0
 40
5.0
 40
5.0
 40
6.0
 40
6.0
 40
6.0
 40
7.0
 40
7.0
 40
7.0
 40
8.0
 40
8.0
 40
8.0
 40
8.0
 10
211.0616542711367
 20
14.48595418967689
 30
0.0
 10
209.5119255892993
 20
14.89025041637078
 30
0.0
 10
208.5290972139627
 20
15.48849377527132
 30
0.0
 10
208.1131691451269
 20
16.2806842663785
 30
0.0
 10
207.5068905347818
 20
17.43542275618882
 30
0.0
 10
208.779920705921
 20
20.17029837393719
 30
0.0
 10
209.9078992218285
 20
20.981167800597
 30
0.0
 10
211.0767921553175
 20
21.82144935688384
 30
0.0
 10
213.9478431643162
 20
21.81312401190149
 30
0.0
 10
215.1211627779618
 20
21.06663113758279
 30
0.0
 10
216.5082804990736
 20
20.18411499909102
 30
0.0
 10
217.2929230883787
 20
16.91601154332075
 30
0.0
 10
216.9158928546634
 20
15.16966088556322
 30
0.0
 10
216.5273337009791
 20
13.3699099029231
 30
0.0
 10
214.4209674559418
 20
11.32795661501312
 30
0.0
 10
212.6427260053738
 20
10.46917735134472
 30
0.0
 10
210.9846967704455
 20
9.668453059906314
 30
0.0
 10
208.3430675109707
 20
9.19457246627422
 30
0.0
 10
206.7457557533543
 20
9.913665660937074
 30
0.0
 10
205.3558231465467
 20
10.53939891171263
 30
0.0
 10
204.1665413618912
 20
12.32856436083487
 30
0.0
 10
203.4126856109084
 20
13.84497916228346
 30
0.0
 10
203.0410334899007
 20
14.59257414521115
 30
0.0
 10
202.7561911814543
 20
15.39023195707854
 30
0.0
 10
202.5581586855695
 20
16.23795259788561
 30
0.0
  0
LINE
  5
122
330
1F
100
AcDbEntity
  8
0
  6
K5LT32768
 62
    30
420
 16744448
100
AcDbLine
 10
202.5581586855695
 20
22.4192287452023
 30
0.0
 11
202.5581586855695
 21
49.27108024696264
 31
0.0
  0
SPLINE
  5
123
330
1F
100
AcDbEntity
  8
0
  6
K5LT32768
 62
    30
420
 16744448
100
AcDbSpline
210
0.0
220
0.0
230
1.0
 70
     8
 71
     3
 72
    11
 73
     7
 74
     0
 42
0.0
 43
0.0
 12
1.0
 22
0.0
 32
0.0
 13
1.0
 23
0.0
 33
0.0
 40
0.0
 40
0.0
 40
0.0
 40
0.0
 40
1.0
 40
1.0
 40
1.0
 40
2.0
 40
2.0
 40
2.0
 40
2.0
 10
219.5652563012229
 20
15.59697757049217
 30
0.0
 10
220.6253025456848
 20
16.22351090509008
 30
0.0
 10
221.3975397478308
 20
17.00188404157091
 30
0.0
 10
221.881967907661
 20
17.93209697993466
 30
0.0
 10
222.3497386344686
 20
18.830323834494
 30
0.0
 10
222.5491530874355
 20
19.87012776782112
 30
0.0
 10
222.4802112665615
 20
21.05150877991603
 30
0.0
  0
SPLINE
  5
124
330
1F
100
AcDbEntity
  8
0
  6
K5LT32768
 62
    30
420
 16744448
100
AcDbSpline
210
0.0
220
0.0
230
1.0
 70
     8
 71
     3
 72
    17
 73
    13
 74
     0
 42
0.0
 43
0.0
 12
1.0
 22
0.0
 32
0.0
 13
1.0
 23
0.0
 33
0.0
 40
0.0
 40
0.0
 40
0.0
 40
0.0
 40
1.0
 40
1.0
 40
1.0
 40
2.0
 40
2.0
 40
2.0
 40
3.0
 40
3.0
 40
3.0
 40
4.0
 40
4.0
 40
4.0
 40
4.0
 10
222.4802112665615
 20
21.05150877991603
 30
0.0
 10
223.1120134922207
 20
18.51612411076258
 30
0.0
 10
223.1547451607136
 20
16.16588234365333
 30
0.0
 10
222.6084062720402
 20
14.00078347858828
 30
0.0
 10
221.8356103845002
 20
10.93825299846323
 30
0.0
 10
219.4878001778174
 20
7.264664579432255
 30
0.0
 10
216.7541676885135
 20
5.92449813343104
 30
0.0
 10
214.7522254023878
 20
4.943043644140904
 30
0.0
 10
211.6521474137581
 20
4.438444512978256
 30
0.0
 10
209.4897840447213
 20
5.155328100558922
 30
0.0
 10
207.913463361854
 20
5.677922241068643
 30
0.0
 10
206.4748305225932
 20
6.717726174395766
 30
0.0
 10
205.1738855269389
 20
8.27473990054029
 30
0.0
  0
SPLINE
  5
125
330
1F
100
AcDbEntity
  8
0
  6
K5LT32768
 62
    30
420
 16744448
100
AcDbSpline
210
0.0
220
0.0
230
1.0
 70
     8
 71
     3
 72
    11
 73
     7
 74
     0
 42
0.0
 43
0.0
 12
1.0
 22
0.0
 32
0.0
 13
1.0
 23
0.0
 33
0.0
 40
0.0
 40
0.0
 40
0.0
 40
0.0
 40
1.0
 40
1.0
 40
1.0
 40
2.0
 40
2.0
 40
2.0
 40
2.0
 10
205.1738855269389
 20
8.27473990054029
 30
0.0
 10
205.1918550353167
 20
6.794342414366475
 30
0.0
 10
205.5052206042647
 20
5.483904580584347
 30
0.0
 10
206.1139822337826
 20
4.343426399193905
 30
0.0
 10
206.8696021916604
 20
2.927818000771762
 30
0.0
 10
208.0803327989591
 20
1.774062951463586
 30
0.0
 10
209.7461740556787
 20
0.8821612512693751
 30
0.0
  0
SPLINE
  5
126
330
1F
100
AcDbEntity
  8
0
  6
K5LT32768
 62
    30
420
 16744448
100
AcDbSpline
210
0.0
220
0.0
230
1.0
 70
     8
 71
     3
 72
    14
 73
    10
 74
     0
 42
0.0
 43
0.0
 12
1.0
 22
0.0
 32
0.0
 13
1.0
 23
0.0
 33
0.0
 40
0.0
 40
0.0
 40
0.0
 40
0.0
 40
1.0
 40
1.0
 40
1.0
 40
2.0
 40
2.0
 40
2.0
 40
3.0
 40
3.0
 40
3.0
 40
3.0
 10
209.7461740556787
 20
0.8821612512693751
 30
0.0
 10
208.4732155693788
 20
0.4330684774572831
 30
0.0
 10
207.3764360780611
 20
-0.2079065499361494
 30
0.0
 10
206.4558355817258
 20
-1.040763830910922
 30
0.0
 10
205.4706597200432
 20
-1.932041744304475
 30
0.0
 10
204.7362016832607
 20
-3.183411034005135
 30
0.0
 10
204.1055938146165
 20
-4.373833973356767
 30
0.0
 10
203.3966588411859
 20
-5.712118027272655
 30
0.0
 10
202.8808471315036
 20
-7.150750866533469
 30
0.0
 10
202.5581586855695
 20
-8.689732491139207
 30
0.0
  0
SPLINE
  5
127
330
1F
100
AcDbEntity
  8
0
  6
K5LT32768
 62
    30
420
 16744448
100
AcDbSpline
210
0.0
220
0.0
230
1.0
 70
     8
 71
     3
 72
    11
 73
     7
 74
     0
 42
0.0
 43
0.0
 12
1.0
 22
0.0
 32
0.0
 13
1.0
 23
0.0
 33
0.0
 40
0.0
 40
0.0
 40
0.0
 40
0.0
 40
1.0
 40
1.0
 40
1.0
 40
2.0
 40
2.0
 40
2.0
 40
2.0
 10
227.3516214747516
 20
9.813079966284525
 30
0.0
 10
227.3982577364305
 20
8.134390722724934
 30
0.0
 10
227.6404038578902
 20
6.510587319994905
 30
0.0
 10
228.0780598391308
 20
4.941669758094445
 30
0.0
 10
228.5272906862174
 20
3.331258394942043
 30
0.0
 10
229.1825096031085
 20
1.778674439700173
 30
0.0
 10
230.043716589804
 20
0.2839178923688372
 30
0.0
  0
SPLINE
  5
128
330
1F
100
AcDbEntity
  8
0
  6
K5LT32768
 62
    30
420
 16744448
100
AcDbSpline
210
0.0
220
0.0
230
1.0
 70
     8
 71
     3
 72
    11
 73
     7
 74
     0
 42
0.0
 43
0.0
 12
1.0
 22
0.0
 32
0.0
 13
1.0
 23
0.0
 33
0.0
 40
0.0
 40
0.0
 40
0.0
 40
0.0
 40
1.0
 40
1.0
 40
1.0
 40
2.0
 40
2.0
 40
2.0
 40
2.0
 10
227.3516214747516
 20
9.813079966284525
 30
0.0
 10
227.0943091179915
 20
8.486481887431832
 30
0.0
 10
226.610016875072
 20
7.318482948626024
 30
0.0
 10
225.8987447459932
 20
6.309083149867099
 30
0.0
 10
225.2126035027193
 20
5.33534777550651
 30
0.0
 10
224.3152384643685
 20
4.509202184643865
 30
0.0
 10
223.2066496309407
 20
3.830646377279162
 30
0.0
  0
SPLINE
  5
129
330
1F
100
AcDbEntity
  8
0
  6
K5LT32768
 62
    30
420
 16744448
100
AcDbSpline
210
0.0
220
0.0
230
1.0
 70
     8
 71
     3
 72
    11
 73
     7
 74
     0
 42
0.0
 43
0.0
 12
1.0
 22
0.0
 32
0.0
 13
1.0
 23
0.0
 33
0.0
 40
0.0
 40
0.0
 40
0.0
 40
0.0
 40
1.0
 40
1.0
 40
1.0
 40
2.0
 40
2.0
 40
2.0
 40
2.0
 10
223.2066496309407
 20
3.830646377279162
 30
0.0
 10
224.6672149572986
 20
3.531277286348377
 30
0.0
 10
226.0203844595736
 20
3.032741153931263
 30
0.0
 10
227.2661581377658
 20
2.33503798002782
 30
0.0
 10
228.2604194756423
 20
1.778195831835566
 30
0.0
 10
229.1862722929884
 20
1.094489135949238
 30
0.0
 10
230.043716589804
 20
0.2839178923688372
 30
0.0
  0
SPLINE
  5
12A
330
1F
100
AcDbEntity
  8
0
  6
K5LT32768
 62
    30
420
 16744448
100
AcDbSpline
210
0.0
220
0.0
230
1.0
 70
     8
 71
     3
 72
    23
 73
    19
 74
     0
 42
0.0
 43
0.0
 12
1.0
 22
0.0
 32
0.0
 13
1.0
 23
0.0
 33
0.0
 40
0.0
 40
0.0
 40
0.0
 40
0.0
 40
1.0
 40
1.0
 40
1.0
 40
2.0
 40
2.0
 40
2.0
 40
3.0
 40
3.0
 40
3.0
 40
4.0
 40
4.0
 40
4.0
 40
5.0
 40
5.0
 40
5.0
 40
6.0
 40
6.0
 40
6.0
 40
6.0
 10
213.7629508940109
 20
-23.64581646365261
 30
0.0
 10
213.0619109474351
 20
-25.14768188213533
 30
0.0
 10
212.2357653565725
 20
-26.08777858897904
 30
0.0
 10
211.2845141214229
 20
-26.46610658418372
 30
0.0
 10
209.7960822030979
 20
-27.05808002174779
 30
0.0
 10
207.1239394528011
 20
-25.30760050059644
 30
0.0
 10
205.9003238913181
 20
-24.11586481707447
 30
0.0
 10
203.6230749776843
 20
-21.89794697092522
 30
0.0
 10
204.207420877191
 20
-16.57317058776235
 30
0.0
 10
205.0029588529673
 20
-13.21928935138613
 30
0.0
 10
205.8765421559637
 20
-9.536379499757231
 30
0.0
 10
208.4018985319103
 20
-5.029547120348002
 30
0.0
 10
211.5836358008732
 20
-3.177347255555693
 30
0.0
 10
214.0226584176419
 20
-1.757507407346965
 30
0.0
 10
217.7009631316812
 20
-1.093102726738512
 30
0.0
 10
220.642749521367
 20
-1.553543852825666
 30
0.0
 10
222.2323272988812
 20
-1.802340633056843
 30
0.0
 10
223.7991551436207
 20
-2.343608433966852
 30
0.0
 10
225.3432330555855
 20
-3.177347255555693
 30
0.0
  0
SPLINE
  5
12B
330
1F
100
AcDbEntity
  8
0
  6
K5LT32768
 62
    30
420
 16744448
100
AcDbSpline
210
0.0
220
0.0
230
1.0
 70
     8
 71
     3
 72
    11
 73
     7
 74
     0
 42
0.0
 43
0.0
 12
1.0
 22
0.0
 32
0.0
 13
1.0
 23
0.0
 33
0.0
 40
0.0
 40
0.0
 40
0.0
 40
0.0
 40
1.0
 40
1.0
 40
1.0
 40
2.0
 40
2.0
 40
2.0
 40
2.0
 10
225.3432330555855
 20
-3.177347255555693
 30
0.0
 10
224.2843118650995
 20
-3.24229264505498
 30
0.0
 10
223.4011907162463
 20
-3.541414324505249
 30
0.0
 10
222.693869609026
 20
-4.074712293906497
 30
0.0
 10
221.9954355286656
 20
-4.601309723298436
 30
0.0
 10
221.4684116172532
 20
-5.356235866672923
 30
0.0
 10
221.1127978747889
 20
-6.339490724029956
 30
0.0
  0
SPLINE
  5
12C
330
1F
100
AcDbEntity
  8
0
  6
K5LT32768
 62
    30
420
 16744448
100
AcDbSpline
210
0.0
220
0.0
230
1.0
 70
     8
 71
     3
 72
    20
 73
    16
 74
     0
 42
0.0
 43
0.0
 12
1.0
 22
0.0
 32
0.0
 13
1.0
 23
0.0
 33
0.0
 40
0.0
 40
0.0
 40
0.0
 40
0.0
 40
1.0
 40
1.0
 40
1.0
 40
2.0
 40
2.0
 40
2.0
 40
3.0
 40
3.0
 40
3.0
 40
4.0
 40
4.0
 40
4.0
 40
5.0
 40
5.0
 40
5.0
 40
5.0
 10
221.1127978747889
 20
-6.339490724029956
 30
0.0
 10
224.3184060436176
 20
-5.928842763631034
 30
0.0
 10
226.9392817111818
 20
-6.413135006550517
 30
0.0
 10
228.9754248774817
 20
-7.792367452788403
 30
0.0
 10
230.8557381344961
 20
-9.066044616599225
 30
0.0
 10
232.364837292823
 20
-11.65585300355805
 30
0.0
 10
233.1203967212925
 20
-13.90299604727245
 30
0.0
 10
233.8778768953207
 20
-16.15585166614388
 30
0.0
 10
233.7693590793391
 20
-18.8750742115534
 30
0.0
 10
233.5049817377286
 20
-21.29557469654337
 30
0.0
 10
233.2339273140492
 20
-23.77720704815841
 30
0.0
 10
232.3482357871032
 20
-26.24983069521392
 30
0.0
 10
231.4538616500696
 20
-28.60269000882849
 30
0.0
 10
230.3322827631382
 20
-31.55326429401818
 30
0.0
 10
228.8794060343797
 20
-34.37355441454928
 30
0.0
 10
227.0952314637942
 20
-37.06356037042179
 30
0.0
  0
SPLINE
  5
12D
330
1F
100
AcDbEntity
  8
0
  6
K5LT32768
 62
    30
420
 16744448
100
AcDbSpline
210
0.0
220
0.0
230
1.0
 70
     8
 71
     3
 72
    20
 73
    16
 74
     0
 42
0.0
 43
0.0
 12
1.0
 22
0.0
 32
0.0
 13
1.0
 23
0.0
 33
0.0
 40
0.0
 40
0.0
 40
0.0
 40
0.0
 40
1.0
 40
1.0
 40
1.0
 40
2.0
 40
2.0
 40
2.0
 40
3.0
 40
3.0
 40
3.0
 40
4.0
 40
4.0
 40
4.0
 40
5.0
 40
5.0
 40
5.0
 40
5.0
 10
238.8828202732408
 20
-4.537331068324763
 30
0.0
 10
243.0319590315741
 20
-9.847992111560874
 30
0.0
 10
245.2178316497383
 20
-15.25382823261069
 30
0.0
 10
245.4404381277333
 20
-20.75483943147423
 30
0.0
 10
245.6530739524007
 20
-26.00945764074815
 30
0.0
 10
243.6274484695631
 20
-32.26191714447828
 30
0.0
 10
240.7043450579662
 20
-36.77921447955857
 30
0.0
 10
238.2675656735344
 20
-40.54495775631089
 30
0.0
 10
233.6575190059113
 20
-42.88159514829019
 30
0.0
 10
230.5911839165085
 20
-46.3582297860801
 30
0.0
 10
229.3546390818109
 20
-47.76023396310147
 30
0.0
 10
227.8195783146976
 20
-49.063296603871
 30
0.0
 10
227.0302116836009
 20
-50.70261591022741
 30
0.0
 10
226.2372054300301
 20
-52.34949381249427
 30
0.0
 10
225.8454984844103
 20
-54.18932946616321
 30
0.0
 10
225.8550908467413
 20
-56.22212287123424
 30
0.0
  0
SPLINE
  5
12E
330
1F
100
AcDbEntity
  8
0
  6
K5LT32768
 62
    30
420
 16744448
100
AcDbSpline
210
0.0
220
0.0
230
1.0
 70
     8
 71
     3
 72
    11
 73
     7
 74
     0
 42
0.0
 43
0.0
 12
1.0
 22
0.0
 32
0.0
 13
1.0
 23
0.0
 33
0.0
 40
0.0
 40
0.0
 40
0.0
 40
0.0
 40
1.0
 40
1.0
 40
1.0
 40
2.0
 40
2.0
 40
2.0
 40
2.0
 10
225.8550908467413
 20
-56.22212287123424
 30
0.0
 10
225.0167524008843
 20
-55.31407196247714
 30
0.0
 10
224.5350317900294
 20
-54.36843583108379
 30
0.0
 10
224.4099290141767
 20
-53.38521447705418
 30
0.0
 10
224.2699229625298
 20
-52.28486367560853
 30
0.0
 10
224.5765622259566
 20
-51.13743933504396
 30
0.0
 10
225.3298468044569
 20
-49.94294145536044
 30
0.0
  0
SPLINE
  5
12F
330
1F
100
AcDbEntity
  8
0
  6
K5LT32768
 62
    30
420
 16744448
100
AcDbSpline
210
0.0
220
0.0
230
1.0
 70
     8
 71
     3
 72
    20
 73
    16
 74
     0
 42
0.0
 43
0.0
 12
1.0
 22
0.0
 32
0.0
 13
1.0
 23
0.0
 33
0.0
 40
0.0
 40
0.0
 40
0.0
 40
0.0
 40
1.0
 40
1.0
 40
1.0
 40
2.0
 40
2.0
 40
2.0
 40
3.0
 40
3.0
 40
3.0
 40
4.0
 40
4.0
 40
4.0
 40
5.0
 40
5.0
 40
5.0
 40
5.0
 10
225.3298468044569
 20
-49.94294145536044
 30
0.0
 10
223.7528084384418
 20
-51.03038053436985
 30
0.0
 10
222.3086364235933
 20
-52.24704599893403
 30
0.0
 10
220.9973307599113
 20
-53.59293784905294
 30
0.0
 10
219.6628427547473
 20
-54.96262348374209
 30
0.0
 10
218.0405741482892
 20
-56.35183408503036
 30
0.0
 10
217.4066839010756
 20
-58.10350249816887
 30
0.0
 10
217.0333444032087
 20
-59.13517479264745
 30
0.0
 10
216.5371008168596
 20
-60.46324173189082
 30
0.0
 10
216.8725380873645
 20
-61.45675121757742
 30
0.0
 10
217.0906552162148
 20
-62.10277792825642
 30
0.0
 10
217.5587606653094
 20
-63.14419260744767
 30
0.0
 10
218.1782278542139
 20
-63.23723726328107
 30
0.0
 10
218.5033564657013
 20
-63.28607193975675
 30
0.0
 10
218.8792368531277
 20
-63.19704763747156
 30
0.0
 10
219.3058690164929
 20
-62.97016435642553
 30
0.0
  0
SPLINE
  5
130
330
1F
100
AcDbEntity
  8
0
  6
K5LT32768
 62
    30
420
 16744448
100
AcDbSpline
210
0.0
220
0.0
230
1.0
 70
     8
 71
     3
 72
    23
 73
    19
 74
     0
 42
0.0
 43
0.0
 12
1.0
 22
0.0
 32
0.0
 13
1.0
 23
0.0
 33
0.0
 40
0.0
 40
0.0
 40
0.0
 40
0.0
 40
1.0
 40
1.0
 40
1.0
 40
2.0
 40
2.0
 40
2.0
 40
3.0
 40
3.0
 40
3.0
 40
4.0
 40
4.0
 40
4.0
 40
5.0
 40
5.0
 40
5.0
 40
6.0
 40
6.0
 40
6.0
 40
6.0
 10
219.3058690164929
 20
-62.97016435642553
 30
0.0
 10
218.7577882411701
 20
-62.44677539499684
 30
0.0
 10
218.4511489777433
 20
-61.93241275957134
 30
0.0
 10
218.3859512262127
 20
-61.42707645014903
 30
0.0
 10
218.2754024042329
 20
-60.57023196703923
 30
0.0
 10
219.3964106122384
 20
-59.13930010369877
 30
0.0
 10
220.1367625044879
 20
-58.93439598616391
 30
0.0
 10
220.9205614042427
 20
-58.71746722085602
 30
0.0
 10
222.5949450807435
 20
-59.64929290414559
 30
0.0
 10
223.0152149450421
 20
-60.38845959015522
 30
0.0
 10
223.5265421018644
 20
-61.28777698614731
 30
0.0
 10
222.9334315400286
 20
-63.26954493076498
 30
0.0
 10
222.1546466896187
 20
-64.21650458841809
 30
0.0
 10
221.6938247723878
 20
-64.77683876126495
 30
0.0
 10
220.9833219889829
 20
-65.38046306469971
 30
0.0
 10
220.2554615742015
 20
-65.55186912269583
 30
0.0
 10
219.9107370510918
 20
-65.63304934681693
 30
0.0
 10
219.5447482528083
 20
-65.65283252510253
 30
0.0
 10
219.1574951793509
 20
-65.61121865755263
 30
0.0
  0
SPLINE
  5
131
330
1F
100
AcDbEntity
  8
0
  6
K5LT32768
 62
    30
420
 16744448
100
AcDbSpline
210
0.0
220
0.0
230
1.0
 70
     8
 71
     3
 72
    20
 73
    16
 74
     0
 42
0.0
 43
0.0
 12
1.0
 22
0.0
 32
0.0
 13
1.0
 23
0.0
 33
0.0
 40
0.0
 40
0.0
 40
0.0
 40
0.0
 40
1.0
 40
1.0
 40
1.0
 40
2.0
 40
2.0
 40
2.0
 40
3.0
 40
3.0
 40
3.0
 40
4.0
 40
4.0
 40
4.0
 40
5.0
 40
5.0
 40
5.0
 40
5.0
 10
213.7629508940109
 20
-23.64581646365261
 30
0.0
 10
212.053119802917
 20
-24.16580059915769
 30
0.0
 10
210.6866287287444
 20
-24.16302966398427
 30
0.0
 10
209.6634776714931
 20
-23.63750365813236
 30
0.0
 10
208.2397698782991
 20
-22.90623776659578
 30
0.0
 10
207.4689359563857
 20
-20.09921515371456
 30
0.0
 10
207.3867341932523
 20
-18.40714701893058
 30
0.0
 10
207.2536414380656
 20
-15.66752196178341
 30
0.0
 10
209.9543362862491
 20
-11.92322689449405
 30
0.0
 10
212.309422794854
 20
-10.59237886388792
 30
0.0
 10
214.6945804278856
 20
-9.244537785860729
 30
0.0
 10
218.9359512068552
 20
-9.354923533855763
 30
0.0
 10
221.6625311378972
 20
-10.46931164884788
 30
0.0
 10
223.5786301008503
 20
-11.25244581893165
 30
0.0
 10
225.3015711114109
 20
-12.60618518437212
 30
0.0
 10
226.8313541695789
 20
-14.53052974516926
 30
0.0
  0
SPLINE
  5
132
330
1F
100
AcDbEntity
  8
0
  6
K5LT32768
 62
    30
420
 16744448
100
AcDbSpline
210
0.0
220
0.0
230
1.0
 70
     8
 71
     3
 72
    11
 73
     7
 74
     0
 42
0.0
 43
0.0
 12
1.0
 22
0.0
 32
0.0
 13
1.0
 23
0.0
 33
0.0
 40
0.0
 40
0.0
 40
0.0
 40
0.0
 40
1.0
 40
1.0
 40
1.0
 40
2.0
 40
2.0
 40
2.0
 40
2.0
 10
226.8313541695789
 20
-14.53052974516926
 30
0.0
 10
227.0082597346395
 20
-13.71873241009801
 30
0.0
 10
227.3296633773447
 20
-13.04743305464151
 30
0.0
 10
227.7955650976945
 20
-12.51663167879976
 30
0.0
 10
228.4278868492075
 20
-11.79622812367726
 30
0.0
 10
229.326372827309
 20
-11.33462064868931
 30
0.0
 10
230.4910230319992
 20
-11.13180925383593
 30
0.0
  0
SPLINE
  5
133
330
1F
100
AcDbEntity
  8
0
  6
K5LT32768
 62
    30
420
 16744448
100
AcDbSpline
210
0.0
220
0.0
230
1.0
 70
     8
 71
     3
 72
    23
 73
    19
 74
     0
 42
0.0
 43
0.0
 12
1.0
 22
0.0
 32
0.0
 13
1.0
 23
0.0
 33
0.0
 40
0.0
 40
0.0
 40
0.0
 40
0.0
 40
1.0
 40
1.0
 40
1.0
 40
2.0
 40
2.0
 40
2.0
 40
3.0
 40
3.0
 40
3.0
 40
4.0
 40
4.0
 40
4.0
 40
5.0
 40
5.0
 40
5.0
 40
6.0
 40
6.0
 40
6.0
 40
6.0
 10
230.4910230319992
 20
-11.13180925383593
 30
0.0
 10
229.9543975290166
 20
-11.9610402133949
 30
0.0
 10
229.5752199602765
 20
-12.81831123837251
 30
0.0
 10
229.3534903257789
 20
-13.70362232876876
 30
0.0
 10
228.9568693846091
 20
-15.28723075664767
 30
0.0
 10
229.4955831429996
 20
-17.05773660439018
 30
0.0
 10
229.6749669601455
 20
-18.72360361926266
 30
0.0
 10
229.8183874996227
 20
-20.05549380741718
 30
0.0
 10
230.1670728782405
 20
-21.37376035078109
 30
0.0
 10
230.2437333132556
 20
-22.70496809103368
 30
0.0
 10
230.3590254783114
 20
-24.70701546374413
 30
0.0
 10
230.240464222247
 20
-26.78089883017614
 30
0.0
 10
229.8233407913916
 20
-28.7388372283761
 30
0.0
 10
229.5223989760467
 20
-30.15142998222698
 30
0.0
 10
228.940896330546
 20
-31.51103756335499
 30
0.0
 10
228.4879763101765
 20
-32.8933045032676
 30
0.0
 10
228.0316444882583
 20
-34.28598392281055
 30
0.0
 10
227.5673962061308
 20
-35.67606921186195
 30
0.0
 10
227.0952314637942
 20
-37.06356037042179
 30
0.0
  0
SPLINE
  5
134
330
1F
100
AcDbEntity
  8
0
  6
K5LT32768
 62
    30
420
 16744448
100
AcDbSpline
210
0.0
220
0.0
230
1.0
 70
     8
 71
     3
 72
    20
 73
    16
 74
     0
 42
0.0
 43
0.0
 12
1.0
 22
0.0
 32
0.0
 13
1.0
 23
0.0
 33
0.0
 40
0.0
 40
0.0
 40
0.0
 40
0.0
 40
1.0
 40
1.0
 40
1.0
 40
2.0
 40
2.0
 40
2.0
 40
3.0
 40
3.0
 40
3.0
 40
4.0
 40
4.0
 40
4.0
 40
5.0
 40
5.0
 40
5.0
 40
5.0
 10
211.8341396663766
 20
-16.52114135647715
 30
0.0
 10
213.930035958906
 20
-15.18889981844714
 30
0.0
 10
215.8410910572331
 20
-14.64288407606796
 30
0.0
 10
217.5673049613579
 20
-14.88309412933964
 30
0.0
 10
219.9826952886007
 20
-15.21920603168991
 30
0.0
 10
222.5019628344072
 20
-18.26898459896307
 30
0.0
 10
223.7277869242882
 20
-20.5094302573337
 30
0.0
 10
225.5432990063329
 20
-23.8276520115917
 30
0.0
 10
224.4731616104366
 20
-28.87660001209348
 30
0.0
 10
223.7277869242882
 20
-32.86600390552318
 30
0.0
 10
223.0843560470168
 20
-36.30978284602263
 30
0.0
 10
221.9271558818508
 20
-39.90782721626559
 30
0.0
 10
220.1312049690514
 20
-42.9079456023227
 30
0.0
 10
218.5665303458525
 20
-45.52171921484265
 30
0.0
 10
216.5486460805382
 20
-47.87196088856169
 30
0.0
 10
214.0775521731085
 20
-49.95867062347981
 30
0.0
  0
SPLINE
  5
135
330
1F
100
AcDbEntity
  8
0
  6
K5LT32768
 62
    30
420
 16744448
100
AcDbSpline
210
0.0
220
0.0
230
1.0
 70
     8
 71
     3
 72
    23
 73
    19
 74
     0
 42
0.0
 43
0.0
 12
1.0
 22
0.0
 32
0.0
 13
1.0
 23
0.0
 33
0.0
 40
0.0
 40
0.0
 40
0.0
 40
0.0
 40
1.0
 40
1.0
 40
1.0
 40
2.0
 40
2.0
 40
2.0
 40
3.0
 40
3.0
 40
3.0
 40
4.0
 40
4.0
 40
4.0
 40
5.0
 40
5.0
 40
5.0
 40
6.0
 40
6.0
 40
6.0
 40
6.0
 10
211.8341396663766
 20
-16.52114135647715
 30
0.0
 10
214.0236756549034
 20
-16.47046889912834
 30
0.0
 10
215.6498529745979
 20
-16.95713510429238
 30
0.0
 10
216.7126716254601
 20
-17.98113997196928
 30
0.0
 10
217.945619215354
 20
-19.16906072648141
 30
0.0
 10
218.3652014107555
 20
-21.87775841837008
 30
0.0
 10
218.1370605186232
 20
-23.71430526695057
 30
0.0
 10
217.9304070897242
 20
-25.3778768434689
 30
0.0
 10
217.0157784785552
 20
-27.39406469876358
 30
0.0
 10
215.7868188449041
 20
-28.52161778137587
 30
0.0
 10
214.628000284796
 20
-29.58481742102263
 30
0.0
 10
212.7086283900232
 20
-30.30302441934872
 30
0.0
 10
211.1219452197952
 20
-30.44454278714599
 30
0.0
 10
209.2775002485796
 20
-30.60905127045006
 30
0.0
 10
206.9500956077392
 20
-30.00387611677
 30
0.0
 10
205.459999369472
 20
-28.91332472699571
 30
0.0
 10
204.215767356324
 20
-28.00271310588453
 30
0.0
 10
203.2484871283565
 20
-26.68760855382896
 30
0.0
 10
202.5581586855695
 20
-24.96801107082901
 30
0.0
  0
SPLINE
  5
136
330
1F
100
AcDbEntity
  8
0
  6
K5LT32768
 62
    30
420
 16744448
100
AcDbSpline
210
0.0
220
0.0
230
1.0
 70
     8
 71
     3
 72
    17
 73
    13
 74
     0
 42
0.0
 43
0.0
 12
1.0
 22
0.0
 32
0.0
 13
1.0
 23
0.0
 33
0.0
 40
0.0
 40
0.0
 40
0.0
 40
0.0
 40
1.0
 40
1.0
 40
1.0
 40
2.0
 40
2.0
 40
2.0
 40
3.0
 40
3.0
 40
3.0
 40
4.0
 40
4.0
 40
4.0
 40
4.0
 10
202.5581586855695
 20
-24.96801107082901
 30
0.0
 10
203.1702009223401
 20
-26.51450114771417
 30
0.0
 10
203.1442243357789
 20
-27.80224913588259
 30
0.0
 10
202.5581586855695
 20
-28.55722750370494
 30
0.0
 10
201.9943128883853
 20
-29.28358193090854
 30
0.0
 10
200.0759410123367
 20
-29.90682408758133
 30
0.0
 10
199.2392161583196
 20
-29.51052240036997
 30
0.0
 10
198.5674140835615
 20
-29.19233381732437
 30
0.0
 10
197.8009151483538
 20
-28.00150149129864
 30
0.0
 10
197.7451742263132
 20
-27.17500857562426
 30
0.0
 10
197.6978880424018
 20
-26.47387743926558
 30
0.0
 10
197.9688828621539
 20
-25.73821160433383
 30
0.0
 10
198.5581586855695
 20
-24.96801107082901
 30
0.0
  0
SPLINE
  5
137
330
1F
100
AcDbEntity
  8
0
  6
K5LT32768
 62
    30
420
 16744448
100
AcDbSpline
210
0.0
220
0.0
230
1.0
 70
     8
 71
     3
 72
    20
 73
    16
 74
     0
 42
0.0
 43
0.0
 12
1.0
 22
0.0
 32
0.0
 13
1.0
 23
0.0
 33
0.0
 40
0.0
 40
0.0
 40
0.0
 40
0.0
 40
1.0
 40
1.0
 40
1.0
 40
2.0
 40
2.0
 40
2.0
 40
3.0
 40
3.0
 40
3.0
 40
4.0
 40
4.0
 40
4.0
 40
5.0
 40
5.0
 40
5.0
 40
5.0
 10
198.5581586855695
 20
-24.96801107082901
 30
0.0
 10
197.0857868998227
 20
-25.20268852423088
 30
0.0
 10
195.8719316110754
 20
-25.69898589962554
 30
0.0
 10
194.9165928193277
 20
-26.45690319701297
 30
0.0
 10
193.273617738221
 20
-27.76035621692969
 30
0.0
 10
192.4996127823245
 20
-30.55970791443735
 30
0.0
 10
192.281473366976
 20
-32.68860460460132
 30
0.0
 10
192.029474311826
 20
-35.14794902695762
 30
0.0
 10
193.1236857770941
 20
-37.90617293614901
 30
0.0
 10
194.1687886504171
 20
-40.27347546069456
 30
0.0
 10
194.6502554184286
 20
-41.3640642673011
 30
0.0
 10
195.4641594968026
 20
-42.3288029296523
 30
0.0
 10
195.8780553222127
 20
-43.44274074798235
 30
0.0
 10
196.305159130501
 20
-44.5922258483301
 30
0.0
 10
196.5662970942475
 20
-45.80295640751869
 30
0.0
 10
196.6614692134524
 20
-47.07493242554813
 30
0.0
  0
SPLINE
  5
138
330
1F
100
AcDbEntity
  8
0
  6
K5LT32768
 62
    30
420
 16744448
100
AcDbSpline
210
0.0
220
0.0
230
1.0
 70
     8
 71
     3
 72
    17
 73
    13
 74
     0
 42
0.0
 43
0.0
 12
1.0
 22
0.0
 32
0.0
 13
1.0
 23
0.0
 33
0.0
 40
0.0
 40
0.0
 40
0.0
 40
0.0
 40
1.0
 40
1.0
 40
1.0
 40
2.0
 40
2.0
 40
2.0
 40
3.0
 40
3.0
 40
3.0
 40
4.0
 40
4.0
 40
4.0
 40
4.0
 10
196.6614692134524
 20
-47.07493242554813
 30
0.0
 10
197.4637527137698
 20
-43.54226009799167
 30
0.0
 10
198.9562429376936
 20
-41.08702370813134
 30
0.0
 10
201.1389398852235
 20
-39.70922325596713
 30
0.0
 10
203.2629240798523
 20
-38.36848450290255
 30
0.0
 10
206.6921009962636
 20
-39.05052206765568
 30
0.0
 10
209.4716149102273
 20
-38.74776075308208
 30
0.0
 10
211.049682242206
 20
-38.57586820110914
 30
0.0
 10
212.7219886753941
 20
-38.69178713146669
 30
0.0
 10
214.2077079799945
 20
-38.24922464047501
 30
0.0
 10
216.2463437866726
 20
-37.64196071246747
 30
0.0
 10
218.1099192552275
 20
-36.51431950538005
 30
0.0
 10
219.7984343856594
 20
-34.86630101921276
 30
0.0
  0
SPLINE
  5
139
330
1F
100
AcDbEntity
  8
0
  6
K5LT32768
 62
    30
420
 16744448
100
AcDbSpline
210
0.0
220
0.0
230
1.0
 70
     8
 71
     3
 72
    11
 73
     7
 74
     0
 42
0.0
 43
0.0
 12
1.0
 22
0.0
 32
0.0
 13
1.0
 23
0.0
 33
0.0
 40
0.0
 40
0.0
 40
0.0
 40
0.0
 40
1.0
 40
1.0
 40
1.0
 40
2.0
 40
2.0
 40
2.0
 40
2.0
 10
219.7984343856594
 20
-34.86630101921276
 30
0.0
 10
219.408633452019
 20
-36.90038070852739
 30
0.0
 10
218.6252195607793
 20
-38.59777747288003
 30
0.0
 10
217.4481927119404
 20
-39.95849131227067
 30
0.0
 10
216.3164760227249
 20
-41.26682388157788
 30
0.0
 10
214.8208676849037
 20
-42.26389610679202
 30
0.0
 10
212.9613676984768
 20
-42.94970798791307
 30
0.0
  0
SPLINE
  5
13A
330
1F
100
AcDbEntity
  8
0
  6
K5LT32768
 62
    30
420
 16744448
100
AcDbSpline
210
0.0
220
0.0
230
1.0
 70
     8
 71
     3
 72
    11
 73
     7
 74
     0
 42
0.0
 43
0.0
 12
1.0
 22
0.0
 32
0.0
 13
1.0
 23
0.0
 33
0.0
 40
0.0
 40
0.0
 40
0.0
 40
0.0
 40
1.0
 40
1.0
 40
1.0
 40
2.0
 40
2.0
 40
2.0
 40
2.0
 10
212.9613676984768
 20
-42.94970798791307
 30
0.0
 10
213.6680904800712
 20
-43.9909073606459
 30
0.0
 10
214.1201355212696
 20
-45.07469564763871
 30
0.0
 10
214.3175028220718
 20
-46.20107284889152
 30
0.0
 10
214.5284505978155
 20
-47.40495395932309
 30
0.0
 10
214.448467048161
 20
-48.65748655085252
 30
0.0
 10
214.0775521731085
 20
-49.95867062347981
 30
0.0
  0
SPLINE
  5
13B
330
1F
100
AcDbEntity
  8
0
  6
K5LT32768
 62
    30
420
 16744448
100
AcDbSpline
210
0.0
220
0.0
230
1.0
 70
     8
 71
     3
 72
    11
 73
     7
 74
     0
 42
0.0
 43
0.0
 12
1.0
 22
0.0
 32
0.0
 13
1.0
 23
0.0
 33
0.0
 40
0.0
 40
0.0
 40
0.0
 40
0.0
 40
1.0
 40
1.0
 40
1.0
 40
2.0
 40
2.0
 40
2.0
 40
2.0
 10
192.0914059558831
 20
-24.96801107082901
 30
0.0
 10
190.8709520036965
 20
-26.05743892114399
 30
0.0
 10
190.0163186677986
 20
-27.26960511724268
 30
0.0
 10
189.5275059481896
 20
-28.60450965912505
 30
0.0
 10
188.9403735324973
 20
-30.20791664293069
 30
0.0
 10
188.8810239952822
 20
-31.9884027593845
 30
0.0
 10
189.3494573365442
 20
-33.94596800848649
 30
0.0
  0
SPLINE
  5
13C
330
1F
100
AcDbEntity
  8
0
  6
K5LT32768
 62
    30
420
 16744448
100
AcDbSpline
210
0.0
220
0.0
230
1.0
 70
     8
 71
     3
 72
    20
 73
    16
 74
     0
 42
0.0
 43
0.0
 12
1.0
 22
0.0
 32
0.0
 13
1.0
 23
0.0
 33
0.0
 40
0.0
 40
0.0
 40
0.0
 40
0.0
 40
1.0
 40
1.0
 40
1.0
 40
2.0
 40
2.0
 40
2.0
 40
3.0
 40
3.0
 40
3.0
 40
4.0
 40
4.0
 40
4.0
 40
5.0
 40
5.0
 40
5.0
 40
5.0
 10
189.3494573365442
 20
-33.94596800848649
 30
0.0
 10
186.9417440903849
 20
-31.5309357845602
 30
0.0
 10
184.2765965150464
 20
-29.85599475930337
 30
0.0
 10
181.3540146105287
 20
-28.92114493271601
 30
0.0
 10
179.0073627183578
 20
-28.17051853929799
 30
0.0
 10
176.2119772310735
 20
-27.70740528094369
 30
0.0
 10
173.8161479888541
 20
-28.10069686505075
 30
0.0
 10
171.2364935328313
 20
-28.52416460205784
 30
0.0
 10
167.6709032573544
 20
-29.66258700902216
 30
0.0
 10
166.4833933840958
 20
-31.69015716108629
 30
0.0
 10
165.4974759374244
 20
-33.37352572271747
 30
0.0
 10
165.2198574923044
 20
-36.68655904808322
 30
0.0
 10
166.1244473544922
 20
-38.45885371932474
 30
0.0
 10
166.4303264746168
 20
-39.05813960268597
 30
0.0
 10
166.9464777674989
 20
-39.69345920869267
 30
0.0
 10
167.5670390399103
 20
-40.26098935313523
 30
0.0
  0
SPLINE
  5
13D
330
1F
100
AcDbEntity
  8
0
  6
K5LT32768
 62
    30
420
 16744448
100
AcDbSpline
210
0.0
220
0.0
230
1.0
 70
     8
 71
     3
 72
    17
 73
    13
 74
     0
 42
0.0
 43
0.0
 12
1.0
 22
0.0
 32
0.0
 13
1.0
 23
0.0
 33
0.0
 40
0.0
 40
0.0
 40
0.0
 40
0.0
 40
1.0
 40
1.0
 40
1.0
 40
2.0
 40
2.0
 40
2.0
 40
3.0
 40
3.0
 40
3.0
 40
4.0
 40
4.0
 40
4.0
 40
4.0
 10
170.0728536801313
 20
-36.35645554593249
 30
0.0
 10
169.7741398278751
 20
-35.24914653232942
 30
0.0
 10
169.7741398278751
 20
-34.34323512428235
 30
0.0
 10
170.0728536801313
 20
-33.63872132179129
 30
0.0
 10
170.61394963439
 20
-32.36255161835108
 30
0.0
 10
173.1219323013362
 20
-31.87135386147271
 30
0.0
 10
174.6365960565194
 20
-31.79271316954445
 30
0.0
 10
176.6999336138343
 20
-31.68558556935361
 30
0.0
 10
179.1058218615368
 20
-33.13325362402075
 30
0.0
 10
180.7899565640089
 20
-34.45916938945656
 30
0.0
 10
182.8721957213611
 20
-36.09851196822333
 30
0.0
 10
184.3934431801571
 20
-38.4060221585319
 30
0.0
 10
185.3536989403969
 20
-41.38169996038225
 30
0.0
  0
SPLINE
  5
13E
330
1F
100
AcDbEntity
  8
0
  6
K5LT32768
 62
    30
420
 16744448
100
AcDbSpline
210
0.0
220
0.0
230
1.0
 70
     8
 71
     3
 72
    11
 73
     7
 74
     0
 42
0.0
 43
0.0
 12
1.0
 22
0.0
 32
0.0
 13
1.0
 23
0.0
 33
0.0
 40
0.0
 40
0.0
 40
0.0
 40
0.0
 40
1.0
 40
1.0
 40
1.0
 40
2.0
 40
2.0
 40
2.0
 40
2.0
 10
185.3536989403969
 20
-41.38169996038225
 30
0.0
 10
184.3462477113974
 20
-40.45281940158007
 30
0.0
 10
183.2665604942192
 20
-39.87166852397546
 30
0.0
 10
182.1146372888624
 20
-39.63824732756843
 30
0.0
 10
181.0000265784822
 20
-39.41238698867159
 30
0.0
 10
179.8177837501787
 20
-39.51209421515502
 30
0.0
 10
178.567908803952
 20
-39.9373690070187
 30
0.0
  0
SPLINE
  5
13F
330
1F
100
AcDbEntity
  8
0
  6
K5LT32768
 62
    30
420
 16744448
100
AcDbSpline
210
0.0
220
0.0
230
1.0
 70
     8
 71
     3
 72
     8
 73
     4
 74
     0
 42
0.0
 43
0.0
 12
1.0
 22
0.0
 32
0.0
 13
1.0
 23
0.0
 33
0.0
 40
0.0
 40
0.0
 40
0.0
 40
0.0
 40
1.0
 40
1.0
 40
1.0
 40
1.0
 10
178.567908803952
 20
-39.9373690070187
 30
0.0
 10
180.0151063847095
 20
-40.85185040964136
 30
0.0
 10
181.3710608692184
 20
-41.85855090234815
 30
0.0
 10
182.6357722574787
 20
-42.95747048513908
 30
0.0
  0
SPLINE
  5
140
330
1F
100
AcDbEntity
  8
0
  6
K5LT32768
 62
    30
420
 16744448
100
AcDbSpline
210
0.0
220
0.0
230
1.0
 70
     8
 71
     3
 72
    14
 73
    10
 74
     0
 42
0.0
 43
0.0
 12
1.0
 22
0.0
 32
0.0
 13
1.0
 23
0.0
 33
0.0
 40
0.0
 40
0.0
 40
0.0
 40
0.0
 40
1.0
 40
1.0
 40
1.0
 40
2.0
 40
2.0
 40
2.0
 40
3.0
 40
3.0
 40
3.0
 40
3.0
 10
189.3362892641616
 20
-54.08155127816706
 30
0.0
 10
188.7047251290795
 20
-52.96133875613712
 30
0.0
 10
187.9165625313255
 20
-52.21116034528299
 30
0.0
 10
186.9718014708999
 20
-51.83101604560466
 30
0.0
 10
186.1122631514753
 20
-51.48516289164726
 30
0.0
 10
184.877531695338
 20
-51.41397546527592
 30
0.0
 10
184.0043247280605
 20
-51.71231697589108
 30
0.0
 10
183.6729220300137
 20
-51.8255446358415
 30
0.0
 10
183.3232254831094
 20
-52.00955927970809
 30
0.0
 10
182.9948081017624
 20
-52.23935271299958
 30
0.0
  0
SPLINE
  5
141
330
1F
100
AcDbEntity
  8
0
  6
K5LT32768
 62
    30
420
 16744448
100
AcDbSpline
210
0.0
220
0.0
230
1.0
 70
     8
 71
     3
 72
    23
 73
    19
 74
     0
 42
0.0
 43
0.0
 12
1.0
 22
0.0
 32
0.0
 13
1.0
 23
0.0
 33
0.0
 40
0.0
 40
0.0
 40
0.0
 40
0.0
 40
1.0
 40
1.0
 40
1.0
 40
2.0
 40
2.0
 40
2.0
 40
3.0
 40
3.0
 40
3.0
 40
4.0
 40
4.0
 40
4.0
 40
5.0
 40
5.0
 40
5.0
 40
6.0
 40
6.0
 40
6.0
 40
6.0
 10
181.5116442640754
 20
-56.2525563924354
 30
0.0
 10
181.6955818028512
 20
-55.46240045117785
 30
0.0
 10
182.0318958337063
 20
-54.90847145918117
 30
0.0
 10
182.5205863566408
 20
-54.59076941644533
 30
0.0
 10
183.0165104350816
 20
-54.26836477512658
 30
0.0
 10
184.0062413682118
 20
-54.10288842709508
 30
0.0
 10
184.4791210069148
 20
-54.35337127701817
 30
0.0
 10
184.9690259483841
 20
-54.61287237600229
 30
0.0
 10
185.2978442883982
 20
-55.57865572994698
 30
0.0
 10
185.3693640297666
 20
-56.19320685757861
 30
0.0
 10
185.4840984279485
 20
-57.17909064898733
 30
0.0
 10
184.6799576603944
 20
-58.46519755702354
 30
0.0
 10
183.9746499606321
 20
-59.16068360041803
 30
0.0
 10
182.9296357901119
 20
-60.19114558316849
 30
0.0
 10
180.8478691251728
 20
-60.05621174541193
 30
0.0
 10
179.2563619395174
 20
-60.31799953012541
 30
0.0
 10
178.7710478522128
 20
-60.39782907846226
 30
0.0
 10
178.2719479615847
 20
-60.4207252044993
 30
0.0
 10
177.7673210999902
 20
-60.4178257964303
 30
0.0
  0
SPLINE
  5
142
330
1F
100
AcDbEntity
  8
0
  6
K5LT32768
 62
    30
420
 16744448
100
AcDbSpline
210
0.0
220
0.0
230
1.0
 70
     8
 71
     3
 72
    14
 73
    10
 74
     0
 42
0.0
 43
0.0
 12
1.0
 22
0.0
 32
0.0
 13
1.0
 23
0.0
 33
0.0
 40
0.0
 40
0.0
 40
0.0
 40
0.0
 40
1.0
 40
1.0
 40
1.0
 40
2.0
 40
2.0
 40
2.0
 40
3.0
 40
3.0
 40
3.0
 40
3.0
 10
164.5581586855695
 20
-72.74451221159272
 30
0.0
 10
165.1391782860646
 20
-71.01932141680032
 30
0.0
 10
166.0111672235309
 20
-69.60917635653477
 30
0.0
 10
167.1741254979684
 20
-68.51407703079607
 30
0.0
 10
168.4208188232636
 20
-67.34012861842153
 30
0.0
 10
170.2476894830953
 20
-66.05311950134778
 30
0.0
 10
171.9173407006798
 20
-66.07837192670104
 30
0.0
 10
172.7904814975346
 20
-66.09157763251747
 30
0.0
 10
173.6878465358854
 20
-66.33372375397721
 30
0.0
 10
174.6094358157322
 20
-66.80481029108026
 30
0.0
  0
SPLINE
  5
143
330
1F
100
AcDbEntity
  8
0
  6
K5LT32768
 62
    30
420
 16744448
100
AcDbSpline
210
0.0
220
0.0
230
1.0
 70
     8
 71
     3
 72
    11
 73
     7
 74
     0
 42
0.0
 43
0.0
 12
1.0
 22
0.0
 32
0.0
 13
1.0
 23
0.0
 33
0.0
 40
0.0
 40
0.0
 40
0.0
 40
0.0
 40
1.0
 40
1.0
 40
1.0
 40
2.0
 40
2.0
 40
2.0
 40
2.0
 10
174.6094358157322
 20
-66.80481029108026
 30
0.0
 10
174.0453609152202
 20
-67.40999296985211
 30
0.0
 10
173.589556451296
 20
-68.06521188674317
 30
0.0
 10
173.2420224239595
 20
-68.77046704175345
 30
0.0
 10
172.7801912079379
 20
-69.70766691349026
 30
0.0
 10
172.5095573074829
 20
-70.73322695731974
 30
0.0
 10
172.4301207225945
 20
-71.84714717324192
 30
0.0
  0
SPLINE
  5
144
330
1F
100
AcDbEntity
  8
0
  6
K5LT32768
 62
    30
420
 16744448
100
AcDbSpline
210
0.0
220
0.0
230
1.0
 70
     8
 71
     3
 72
    20
 73
    16
 74
     0
 42
0.0
 43
0.0
 12
1.0
 22
0.0
 32
0.0
 13
1.0
 23
0.0
 33
0.0
 40
0.0
 40
0.0
 40
0.0
 40
0.0
 40
1.0
 40
1.0
 40
1.0
 40
2.0
 40
2.0
 40
2.0
 40
3.0
 40
3.0
 40
3.0
 40
4.0
 40
4.0
 40
4.0
 40
5.0
 40
5.0
 40
5.0
 40
5.0
 10
172.4301207225945
 20
-71.84714717324192
 30
0.0
 10
173.4019252335405
 20
-70.31994131904726
 30
0.0
 10
174.5786282414864
 20
-69.10604488287902
 30
0.0
 10
175.9602297464323
 20
-68.2054578647372
 30
0.0
 10
177.3235800643209
 20
-67.31676775179608
 30
0.0
 10
179.041697381551
 20
-66.87341639425598
 30
0.0
 10
180.6488430001186
 20
-66.45464658646193
 30
0.0
 10
182.0211669275022
 20
-66.09706366388035
 30
0.0
 10
183.6202040328567
 20
-66.32662166890171
 30
0.0
 10
184.8626599749506
 20
-65.74245216818048
 30
0.0
 10
186.086304374394
 20
-65.16712735088473
 30
0.0
 10
187.1759022271115
 20
-64.06371276041918
 30
0.0
 10
188.0617627871319
 20
-63.00742713541071
 30
0.0
 10
189.1845578931191
 20
-61.66862463780683
 30
0.0
 10
190.0173754044759
 20
-60.09751077388777
 30
0.0
 10
190.5602153212023
 20
-58.29408554365353
 30
0.0
  0
SPLINE
  5
145
330
1F
100
AcDbEntity
  8
0
  6
K5LT32768
 62
    30
420
 16744448
100
AcDbSpline
210
0.0
220
0.0
230
1.0
 70
     8
 71
     3
 72
    20
 73
    16
 74
     0
 42
0.0
 43
0.0
 12
1.0
 22
0.0
 32
0.0
 13
1.0
 23
0.0
 33
0.0
 40
0.0
 40
0.0
 40
0.0
 40
0.0
 40
1.0
 40
1.0
 40
1.0
 40
2.0
 40
2.0
 40
2.0
 40
3.0
 40
3.0
 40
3.0
 40
4.0
 40
4.0
 40
4.0
 40
5.0
 40
5.0
 40
5.0
 40
5.0
 10
190.5602153212023
 20
-58.29408554365353
 30
0.0
 10
191.1718113459564
 20
-62.25506746576634
 30
0.0
 10
192.4678302037284
 20
-65.72471857961608
 30
0.0
 10
194.4482718945182
 20
-68.70303888520274
 30
0.0
 10
197.030685513537
 20
-72.58664472662498
 30
0.0
 10
201.3283747655777
 20
-77.1456970551863
 30
0.0
 10
205.6867007081497
 20
-77.84761594268235
 30
0.0
 10
208.5311164125368
 20
-78.30571594096322
 30
0.0
 10
212.5764899772614
 20
-77.88552285820342
 30
0.0
 10
215.0022044396009
 20
-76.22381253995232
 30
0.0
 10
216.824146817846
 20
-74.97570997215506
 30
0.0
 10
218.7704665169022
 20
-72.7492473848393
 30
0.0
 10
219.3181029573833
 20
-70.58323229889014
 30
0.0
 10
219.7016778031992
 20
-69.06611466168911
 30
0.0
 10
219.6481418771884
 20
-67.40877678124328
 30
0.0
 10
219.1574951793509
 20
-65.61121865755263
 30
0.0
  0
SPLINE
  5
146
330
1F
100
AcDbEntity
  8
0
  6
K5LT32768
 62
    30
420
 16744448
100
AcDbSpline
210
0.0
220
0.0
230
1.0
 70
     8
 71
     3
 72
    23
 73
    19
 74
     0
 42
0.0
 43
0.0
 12
1.0
 22
0.0
 32
0.0
 13
1.0
 23
0.0
 33
0.0
 40
0.0
 40
0.0
 40
0.0
 40
0.0
 40
1.0
 40
1.0
 40
1.0
 40
2.0
 40
2.0
 40
2.0
 40
3.0
 40
3.0
 40
3.0
 40
4.0
 40
4.0
 40
4.0
 40
5.0
 40
5.0
 40
5.0
 40
6.0
 40
6.0
 40
6.0
 40
6.0
 10
210.5581109163398
 20
-48.7900813675135
 30
0.0
 10
210.7741237938664
 20
-46.25140691827173
 30
0.0
 10
210.3325632194398
 20
-44.55638406805355
 30
0.0
 10
209.23342919306
 20
-43.70501281685895
 30
0.0
 10
208.1429422865909
 20
-42.86033948340774
 30
0.0
 10
205.4371429030173
 20
-43.10276490200128
 30
0.0
 10
204.0201656369267
 20
-43.66228114836606
 30
0.0
 10
201.7275787537606
 20
-44.56754592433053
 30
0.0
 10
200.5859511271784
 20
-48.29230256734182
 30
0.0
 10
199.6615354506514
 20
-50.88393312366537
 30
0.0
 10
198.6746418154652
 20
-53.65072274627216
 30
0.0
 10
198.3043289864821
 20
-56.87574037517759
 30
0.0
 10
198.5077804013433
 20
-59.8148518386805
 30
0.0
 10
198.7014373677017
 20
-62.61247018013847
 30
0.0
 10
199.2678454483306
 20
-65.77996001927401
 30
0.0
 10
200.6870954944809
 20
-68.10479552630221
 30
0.0
 10
202.2588521166952
 20
-70.67944797295326
 30
0.0
 10
204.6803133312925
 20
-72.7163241711146
 30
0.0
 10
207.9514791382731
 20
-74.21542412078624
 30
0.0
  0
SPLINE
  5
147
330
1F
100
AcDbEntity
  8
0
  6
K5LT32768
 62
    30
420
 16744448
100
AcDbSpline
210
0.0
220
0.0
230
1.0
 70
     8
 71
     3
 72
    14
 73
    10
 74
     0
 42
0.0
 43
0.0
 12
1.0
 22
0.0
 32
0.0
 13
1.0
 23
0.0
 33
0.0
 40
0.0
 40
0.0
 40
0.0
 40
0.0
 40
1.0
 40
1.0
 40
1.0
 40
2.0
 40
2.0
 40
2.0
 40
3.0
 40
3.0
 40
3.0
 40
3.0
 10
207.9514791382731
 20
-74.21542412078624
 30
0.0
 10
205.7723314363265
 20
-72.3186323215764
 30
0.0
 10
204.3764302655587
 20
-70.23902445492216
 30
0.0
 10
203.7637756259694
 20
-67.97660052082352
 30
0.0
 10
203.0256304922711
 20
-65.25076265164991
 30
0.0
 10
203.6059461865242
 20
-61.54050182983222
 30
0.0
 10
204.9602623437704
 20
-59.00295013731549
 30
0.0
 10
205.9687672299871
 20
-57.11333723767031
 30
0.0
 10
207.5071072957313
 20
-55.47528994544265
 30
0.0
 10
209.5752825410031
 20
-54.08880826063253
 30
0.0
  0
SPLINE
  5
148
330
1F
100
AcDbEntity
  8
0
  6
K5LT32768
 62
    30
420
 16744448
100
AcDbSpline
210
0.0
220
0.0
230
1.0
 70
     8
 71
     3
 72
    17
 73
    13
 74
     0
 42
0.0
 43
0.0
 12
1.0
 22
0.0
 32
0.0
 13
1.0
 23
0.0
 33
0.0
 40
0.0
 40
0.0
 40
0.0
 40
0.0
 40
1.0
 40
1.0
 40
1.0
 40
2.0
 40
2.0
 40
2.0
 40
3.0
 40
3.0
 40
3.0
 40
4.0
 40
4.0
 40
4.0
 40
4.0
 10
210.5581109163398
 20
-48.7900813675135
 30
0.0
 10
209.7097811800556
 20
-47.55067744457502
 30
0.0
 10
208.8693916996953
 20
-46.89545852768396
 30
0.0
 10
208.0369424752589
 20
-46.82442461684032
 30
0.0
 10
206.9698472102808
 20
-46.73336807226196
 30
0.0
 10
205.2334572288545
 20
-48.30815612382076
 30
0.0
 10
204.8747990067846
 20
-49.43105639490693
 30
0.0
 10
204.5630401114927
 20
-50.4071225394846
 30
0.0
 10
204.8771313507213
 20
-52.15308702999963
 30
0.0
 10
205.5157740341781
 20
-52.93505321132436
 30
0.0
 10
206.2724120553711
 20
-53.86149511601347
 30
0.0
 10
207.6255815576462
 20
-54.24608013244952
 30
0.0
 10
209.5752825410031
 20
-54.08880826063253
 30
0.0
  0
SPLINE
  5
149
330
1F
100
AcDbEntity
  8
0
  6
K5LT32768
 62
    30
420
 16744448
100
AcDbSpline
210
0.0
220
0.0
230
1.0
 70
     8
 71
     3
 72
    17
 73
    13
 74
     0
 42
0.0
 43
0.0
 12
1.0
 22
0.0
 32
0.0
 13
1.0
 23
0.0
 33
0.0
 40
0.0
 40
0.0
 40
0.0
 40
0.0
 40
1.0
 40
1.0
 40
1.0
 40
2.0
 40
2.0
 40
2.0
 40
3.0
 40
3.0
 40
3.0
 40
4.0
 40
4.0
 40
4.0
 40
4.0
 10
209.4898192040174
 20
-70.49776896190434
 30
0.0
 10
208.2540102164795
 20
-68.90223992545668
 30
0.0
 10
207.5703035205932
 20
-67.29268041222429
 30
0.0
 10
207.4386991163584
 20
-65.66909042220716
 30
0.0
 10
207.2640517911005
 20
-63.51448434560573
 30
0.0
 10
208.5297205664012
 20
-60.96367925628323
 30
0.0
 10
209.8316725519605
 20
-59.13114514279418
 30
0.0
 10
210.9870904120732
 20
-57.50486194074391
 30
0.0
 10
212.8338511965188
 20
-56.28402134922293
 30
0.0
 10
214.4894244176861
 20
-55.07163663596912
 30
0.0
 10
216.164482819562
 20
-53.84498282550838
 30
0.0
 10
217.9449690067659
 20
-52.76244722368837
 30
0.0
 10
219.830882979298
 20
-51.82402983050908
 30
0.0
  0
SPLINE
  5
14A
330
1F
100
AcDbEntity
  8
0
  6
K5LT32768
 62
    30
420
 16744448
100
AcDbSpline
210
0.0
220
0.0
230
1.0
 70
     8
 71
     3
 72
    14
 73
    10
 74
     0
 42
0.0
 43
0.0
 12
1.0
 22
0.0
 32
0.0
 13
1.0
 23
0.0
 33
0.0
 40
0.0
 40
0.0
 40
0.0
 40
0.0
 40
1.0
 40
1.0
 40
1.0
 40
2.0
 40
2.0
 40
2.0
 40
3.0
 40
3.0
 40
3.0
 40
3.0
 10
219.830882979298
 20
-51.82402983050908
 30
0.0
 10
218.0650329320291
 20
-52.89216089526896
 30
0.0
 10
216.7261073192517
 20
-54.21684261854871
 30
0.0
 10
215.8141061409659
 20
-55.79807500034834
 30
0.0
 10
215.0220271117357
 20
-57.17138573698269
 30
0.0
 10
214.4596647932819
 20
-58.90176740643676
 30
0.0
 10
214.4039610807003
 20
-60.49855853456683
 30
0.0
 10
214.3642439744889
 20
-61.63708090398011
 30
0.0
 10
214.5351706484605
 20
-62.79083595328828
 30
0.0
 10
214.9167411026151
 20
-63.95982368249135
 30
0.0
  0
SPLINE
  5
14B
330
1F
100
AcDbEntity
  8
0
  6
K5LT32768
 62
    30
420
 16744448
100
AcDbSpline
210
0.0
220
0.0
230
1.0
 70
     8
 71
     3
 72
    14
 73
    10
 74
     0
 42
0.0
 43
0.0
 12
1.0
 22
0.0
 32
0.0
 13
1.0
 23
0.0
 33
0.0
 40
0.0
 40
0.0
 40
0.0
 40
0.0
 40
1.0
 40
1.0
 40
1.0
 40
2.0
 40
2.0
 40
2.0
 40
3.0
 40
3.0
 40
3.0
 40
3.0
 10
214.9167411026151
 20
-63.95982368249135
 30
0.0
 10
213.7110853939062
 20
-63.0631349720108
 30
0.0
 10
212.6143059025885
 20
-62.69279384507237
 30
0.0
 10
211.6264026286621
 20
-62.84880030167607
 30
0.0
 10
210.4644729999467
 20
-63.03228843151929
 30
0.0
 10
209.0388073330903
 20
-64.4795815061733
 30
0.0
 10
208.5924541656666
 20
-65.58362708522138
 30
0.0
 10
208.0465737460596
 20
-66.93385132006759
 30
0.0
 10
208.3456954255099
 20
-68.57189861229524
 30
0.0
 10
209.4898192040174
 20
-70.49776896190434
 30
0.0
  0
LINE
  5
14C
330
1F
100
AcDbEntity
  8
0
  6
K5LT32768
 62
    30
420
 16744448
100
AcDbLine
 10
164.5581586855695
 20
-47.79980472391988
 30
0.0
 11
169.8899233824202
 21
-42.45713876031034
 31
0.0
  0
LINE
  5
14D
330
1F
100
AcDbEntity
  8
0
  6
K5LT32768
 62
    30
420
 16744448
100
AcDbLine
 10
166.2575603662662
 20
-48.90369668743863
 30
0.0
 11
171.3105054346757
 21
-43.80021485532291
 31
0.0
  0
LINE
  5
14E
330
1F
100
AcDbEntity
  8
0
  6
K5LT32768
 62
    30
420
 16744448
100
AcDbLine
 10
164.5581586855695
 20
-61.08935362521034
 30
0.0
 11
169.7910346819596
 21
-55.84076836938666
 31
0.0
  0
LINE
  5
14F
330
1F
100
AcDbEntity
  8
0
  6
K5LT32768
 62
    30
420
 16744448
100
AcDbLine
 10
166.1886440419248
 20
-62.14984930051087
 30
0.0
 11
171.1442645702262
 21
-57.19084267951717
 31
0.0
  0
LINE
  5
150
330
1F
100
AcDbEntity
  8
0
  6
K5LT32768
 62
    30
420
 16744448
100
AcDbLine
 10
182.9948081018142
 20
-52.23935271296334
 30
0.0
 11
179.4694917776271
 21
-48.85992698349052
 31
0.0
  0
LINE
  5
151
330
1F
100
AcDbEntity
  8
0
  6
K5LT32768
 62
    30
420
 16744448
100
AcDbLine
 10
181.7193676360741
 20
-53.64117685873671
 30
0.0
 11
178.1056908695206
 21
-50.22465975396666
 31
0.0
  0
LINE
  5
152
330
1F
100
AcDbEntity
  8
0
  6
K5LT32768
 62
    30
420
 16744448
100
AcDbLine
 10
177.7673210999974
 20
-60.41782579646449
 30
0.0
 11
172.8426555809097
 21
-55.49129118663839
 31
0.0
  0
LINE
  5
153
330
1F
100
AcDbEntity
  8
0
  6
K5LT32768
 62
    30
420
 16744448
100
AcDbLine
 10
174.325743212271
 20
-60.36490247534059
 30
0.0
 11
171.1442645702262
 21
-57.19084267951717
 31
0.0
  0
LINE
  5
154
330
1F
100
AcDbEntity
  8
0
  6
K5LT32768
 62
    30
420
 16744448
100
AcDbLine
 10
168.0652970919143
 20
-64.04310989961525
 30
0.0
 11
166.1886440419248
 21
-62.14984930051087
 31
0.0
  0
LINE
  5
155
330
1F
100
AcDbEntity
  8
0
  6
K5LT32768
 62
    30
420
 16744448
100
AcDbLine
 10
166.7489284375606
 20
-65.48361769215792
 30
0.0
 11
164.5581586855695
 21
-63.243216960287
 31
0.0
  0
SPLINE
  5
156
330
1F
100
AcDbEntity
  8
0
  6
K5LT32768
 62
    30
420
 16744448
100
AcDbSpline
210
0.0
220
0.0
230
1.0
 70
     8
 71
     3
 72
     8
 73
     4
 74
     0
 42
0.0
 43
0.0
 12
1.0
 22
0.0
 32
0.0
 13
1.0
 23
0.0
 33
0.0
 40
0.0
 40
0.0
 40
0.0
 40
0.0
 40
1.0
 40
1.0
 40
1.0
 40
1.0
 10
166.748928437561
 20
-65.48361769215738
 30
0.0
 10
165.933504034328
 20
-66.45584762534202
 30
0.0
 10
165.2032474503308
 20
-67.50361986464813
 30
0.0
 10
164.5581586855695
 20
-68.62693441007578
 30
0.0
  0
SPLINE
  5
157
330
1F
100
AcDbEntity
  8
0
  6
K5LT32768
 62
    30
420
 16744448
100
AcDbSpline
210
0.0
220
0.0
230
1.0
 70
     8
 71
     3
 72
    14
 73
    10
 74
     0
 42
0.0
 43
0.0
 12
1.0
 22
0.0
 32
0.0
 13
1.0
 23
0.0
 33
0.0
 40
0.0
 40
0.0
 40
0.0
 40
0.0
 40
1.0
 40
1.0
 40
1.0
 40
2.0
 40
2.0
 40
2.0
 40
3.0
 40
3.0
 40
3.0
 40
3.0
 10
174.3257432123724
 20
-60.36490247568528
 30
0.0
 10
173.7934025568638
 20
-60.41021360810515
 30
0.0
 10
173.2769770979276
 20
-60.50960231327809
 30
0.0
 10
172.7872626401275
 20
-60.70377150669454
 30
0.0
 10
171.8302065887042
 20
-61.08323917116573
 30
0.0
 10
170.9055896098478
 20
-61.68908533042613
 30
0.0
 10
170.0571840367152
 20
-62.30620894782782
 30
0.0
 10
169.3496787649584
 20
-62.82084278153219
 30
0.0
 10
168.6872860038553
 20
-63.41488163388241
 30
0.0
 10
168.0652970919142
 20
-64.04310989961525
 30
0.0
  0
LINE
  5
158
330
1F
100
AcDbEntity
  8
0
  6
K5LT32768
 62
    30
420
 16744448
100
AcDbLine
 10
171.4892914381344
 20
-54.13741339265673
 30
0.0
 11
176.7079036089605
 21
-48.90313478285309
 31
0.0
  0
LINE
  5
159
330
1F
100
AcDbEntity
  8
0
  6
K5LT32768
 62
    30
420
 16744448
100
AcDbLine
 10
171.4892914381344
 20
-54.13741339265673
 30
0.0
 11
166.2575603662662
 21
-48.90369668743862
 31
0.0
  0
LINE
  5
15A
330
1F
100
AcDbEntity
  8
0
  6
K5LT32768
 62
    30
420
 16744448
100
AcDbLine
 10
172.8426555809096
 20
-55.49129118663837
 30
0.0
 11
178.1056908695206
 21
-50.22465975396666
 31
0.0
  0
LINE
  5
15B
330
1F
100
AcDbEntity
  8
0
  6
K5LT32768
 62
    30
420
 16744448
100
AcDbLine
 10
169.7910346819597
 20
-55.84076836938667
 30
0.0
 11
164.5581586855695
 21
-50.62009484445097
 31
0.0
  0
LINE
  5
15C
330
1F
100
AcDbEntity
  8
0
  6
K5LT32768
 62
    30
420
 16744448
100
AcDbLine
 10
176.7079036089605
 20
-48.90313478285309
 30
0.0
 11
171.3105054346757
 21
-43.80021485532291
 31
0.0
  0
LINE
  5
15D
330
1F
100
AcDbEntity
  8
0
  6
K5LT32768
 62
    30
420
 16744448
100
AcDbLine
 10
178.0794809456245
 20
-47.52743992759521
 30
0.0
 11
172.7133299541489
 21
-42.38336006037632
 31
0.0
  0
LINE
  5
15E
330
1F
100
AcDbEntity
  8
0
  6
K5LT32768
 62
    30
420
 16744448
100
AcDbLine
 10
178.0794809456244
 20
-47.52743992759521
 30
0.0
 11
182.6357722573796
 21
-42.95747048505301
 31
0.0
  0
LINE
  5
15F
330
1F
100
AcDbEntity
  8
0
  6
K5LT32768
 62
    30
420
 16744448
100
AcDbLine
 10
179.4694917776271
 20
-48.85992698349051
 30
0.0
 11
184.0581663355106
 21
-44.26811706096414
 31
0.0
  0
SPLINE
  5
160
330
1F
100
AcDbEntity
  8
0
  6
K5LT32768
 62
    30
420
 16744448
100
AcDbSpline
210
0.0
220
0.0
230
1.0
 70
     8
 71
     3
 72
     8
 73
     4
 74
     0
 42
0.0
 43
0.0
 12
1.0
 22
0.0
 32
0.0
 13
1.0
 23
0.0
 33
0.0
 40
0.0
 40
0.0
 40
0.0
 40
0.0
 40
1.0
 40
1.0
 40
1.0
 40
1.0
 10
181.7193676360741
 20
-53.64117685873671
 30
0.0
 10
181.370874116885
 20
-54.3681868085923
 30
0.0
 10
181.3016329928854
 20
-55.23864665315853
 30
0.0
 10
181.5116442640754
 20
-56.2525563924354
 30
0.0
  0
SPLINE
  5
161
330
1F
100
AcDbEntity
  8
0
  6
K5LT32768
 62
    30
420
 16744448
100
AcDbSpline
210
0.0
220
0.0
230
1.0
 70
     8
 71
     3
 72
    11
 73
     7
 74
     0
 42
0.0
 43
0.0
 12
1.0
 22
0.0
 32
0.0
 13
1.0
 23
0.0
 33
0.0
 40
0.0
 40
0.0
 40
0.0
 40
0.0
 40
1.0
 40
1.0
 40
1.0
 40
2.0
 40
2.0
 40
2.0
 40
2.0
 10
184.0581663355106
 20
-44.26811706096414
 30
0.0
 10
186.0038537274227
 20
-46.12798447310045
 30
0.0
 10
188.4411854022319
 20
-48.07136719440255
 30
0.0
 10
189.0798992532043
 20
-50.57755446174964
 30
0.0
 10
189.3582585771991
 20
-51.66978158737274
 30
0.0
 10
189.4437219141849
 20
-52.83778052617855
 30
0.0
 10
189.3362892641616
 20
-54.08155127816706
 30
0.0
  0
LINE
  5
162
330
1F
100
AcDbEntity
  8
0
  6
K5LT32768
 62
    30
420
 16744448
100
AcDbLine
 10
169.8899233824202
 20
-42.45713876031034
 30
0.0
 11
167.5670390398963
 21
-40.26098935312239
 31
0.0
  0
LINE
  5
163
330
1F
100
AcDbEntity
  8
0
  6
K5LT32768
 62
    30
420
 16744448
100
AcDbLine
 10
172.7133299541488
 20
-42.38336006037633
 30
0.0
 11
173.2524282233334
 21
-41.8388700282742
 31
0.0
  0
SPLINE
  5
164
330
1F
100
AcDbEntity
  8
0
  6
K5LT32768
 62
    30
420
 16744448
100
AcDbSpline
210
0.0
220
0.0
230
1.0
 70
     8
 71
     3
 72
    17
 73
    13
 74
     0
 42
0.0
 43
0.0
 12
1.0
 22
0.0
 32
0.0
 13
1.0
 23
0.0
 33
0.0
 40
0.0
 40
0.0
 40
0.0
 40
0.0
 40
1.0
 40
1.0
 40
1.0
 40
2.0
 40
2.0
 40
2.0
 40
3.0
 40
3.0
 40
3.0
 40
4.0
 40
4.0
 40
4.0
 40
4.0
 10
173.2524282233334
 20
-41.83887002827419
 30
0.0
 10
174.2006091351657
 20
-41.6021087006273
 30
0.0
 10
175.0814170421052
 20
-41.18699979673711
 30
0.0
 10
175.4570441241846
 20
-40.61252989694606
 30
0.0
 10
176.067287702793
 20
-39.67924637140652
 30
0.0
 10
176.1243902816024
 20
-37.40760428421278
 30
0.0
 10
175.4057661199556
 20
-36.45901155439066
 30
0.0
 10
174.8780958615964
 20
-35.76248032494273
 30
0.0
 10
173.5975220615967
 20
-35.07101671816817
 30
0.0
 10
172.6880318958144
 20
-35.07450544020551
 30
0.0
 10
171.8195689874175
 20
-35.07783678539332
 30
0.0
 10
170.9478429155231
 20
-35.50515348730232
 30
0.0
 10
170.0728536801313
 20
-36.35645554593249
 30
0.0
  0
LINE
  5
165
330
1F
100
AcDbEntity
  8
0
  6
K5LT32768
 62
    30
420
 16744448
100
AcDbLine
 10
164.5581586855695
 20
-24.96801107082901
 30
0.0
 11
137.0249114152558
 21
-24.96801107082901
 31
0.0
  0
LINE
  5
166
330
1F
100
AcDbEntity
  8
0
  6
K5LT32768
 62
    30
420
 16744448
100
AcDbLine
 10
126.5581586855695
 20
-8.689732490963891
 30
0.0
 11
126.5581586855695
 21
16.23795259758683
 31
0.0
  0
LINE
  5
167
330
1F
100
AcDbEntity
  8
0
  6
K5LT32768
 62
    30
420
 16744448
100
AcDbLine
 10
134.4967926419761
 20
83.03198892917099
 30
0.0
 11
148.5982432446316
 21
83.031988929171
 31
0.0
  0
LINE
  5
168
330
1F
100
AcDbEntity
  8
0
  6
K5LT32768
 62
    30
420
 16744448
100
AcDbLine
 10
164.5581586855695
 20
79.03198892917099
 30
0.0
 11
134.5581586855695
 21
79.03198892917099
 31
0.0
  0
LINE
  5
169
330
1F
100
AcDbEntity
  8
0
  6
K5LT32768
 62
    30
420
 16744448
100
AcDbLine
 10
130.5581586855695
 20
75.03198892917099
 30
0.0
 11
130.5581586855695
 21
-16.968011070829
 31
0.0
  0
LINE
  5
16A
330
1F
100
AcDbEntity
  8
0
  6
K5LT32768
 62
    30
420
 16744448
100
AcDbLine
 10
134.5581586855695
 20
-20.96801107082901
 30
0.0
 11
164.5581586855695
 21
-20.96801107082901
 31
0.0
  0
ARC
  5
16B
330
1F
100
AcDbEntity
  8
0
  6
K5LT32768
 62
    30
420
 16744448
100
AcDbCircle
 10
134.5581586855695
 20
75.03198892917099
 30
0.0
 40
4.0
100
AcDbArc
 50
90.0
 51
180.0
  0
ARC
  5
16C
330
1F
100
AcDbEntity
  8
0
  6
K5LT32768
 62
    30
420
 16744448
100
AcDbCircle
 10
134.5581586855695
 20
-16.96801107082901
 30
0.0
 40
4.0
100
AcDbArc
 50
180.0
 51
270.0
  0
SPLINE
  5
16D
330
1F
100
AcDbEntity
  8
0
  6
K5LT32768
 62
    30
420
 16744448
100
AcDbSpline
210
0.0
220
0.0
230
1.0
 70
     8
 71
     3
 72
    14
 73
    10
 74
     0
 42
0.0
 43
0.0
 12
1.0
 22
0.0
 32
0.0
 13
1.0
 23
0.0
 33
0.0
 40
0.0
 40
0.0
 40
0.0
 40
0.0
 40
1.0
 40
1.0
 40
1.0
 40
2.0
 40
2.0
 40
2.0
 40
3.0
 40
3.0
 40
3.0
 40
3.0
 10
164.5581586855695
 20
99.39206562533069
 30
0.0
 10
164.3779705248501
 20
95.81744578633042
 30
0.0
 10
163.616043190834
 20
92.46728284336388
 30
0.0
 10
162.2723766835212
 20
89.34157679643108
 30
0.0
 10
161.4821907750975
 20
87.50340574824388
 30
0.0
 10
160.8747451508231
 20
85.07391554037862
 30
0.0
 10
159.2982524382346
 20
84.05994236083589
 30
0.0
 10
158.3014880428286
 20
83.41884053068196
 30
0.0
 10
157.0708159413307
 20
83.07618938679366
 30
0.0
 10
155.6062361337409
 20
83.03198892917099
 30
0.0
  0
SPLINE
  5
16E
330
1F
100
AcDbEntity
  8
0
  6
K5LT32768
 62
    30
420
 16744448
100
AcDbSpline
210
0.0
220
0.0
230
1.0
 70
     8
 71
     3
 72
    17
 73
    13
 74
     0
 42
0.0
 43
0.0
 12
1.0
 22
0.0
 32
0.0
 13
1.0
 23
0.0
 33
0.0
 40
0.0
 40
0.0
 40
0.0
 40
0.0
 40
1.0
 40
1.0
 40
1.0
 40
2.0
 40
2.0
 40
2.0
 40
3.0
 40
3.0
 40
3.0
 40
4.0
 40
4.0
 40
4.0
 40
4.0
 10
148.5982432446317
 20
83.03198892917099
 30
0.0
 10
146.5566395868713
 20
83.5908793228023
 30
0.0
 10
144.7334217311745
 20
84.43776450944998
 30
0.0
 10
143.128589677541
 20
85.57264448911405
 30
0.0
 10
140.9430941126579
 20
87.11814899010847
 30
0.0
 10
139.5089327226247
 20
89.68369053755526
 30
0.0
 10
137.7871311159291
 20
91.81146808907684
 30
0.0
 10
136.9322758173693
 20
92.86788591735706
 30
0.0
 10
136.2480089742333
 20
94.09798468516182
 30
0.0
 10
135.2659626748482
 20
95.01634322604401
 30
0.0
 10
134.3495212030703
 20
95.87335154973808
 30
0.0
 10
133.3097172697431
 20
96.59978991411731
 30
0.0
 10
132.1465508748668
 20
97.1956583191817
 30
0.0
  0
SPLINE
  5
16F
330
1F
100
AcDbEntity
  8
0
  6
K5LT32768
 62
    30
420
 16744448
100
AcDbSpline
210
0.0
220
0.0
230
1.0
 70
     8
 71
     3
 72
    11
 73
     7
 74
     0
 42
0.0
 43
0.0
 12
1.0
 22
0.0
 32
0.0
 13
1.0
 23
0.0
 33
0.0
 40
0.0
 40
0.0
 40
0.0
 40
0.0
 40
1.0
 40
1.0
 40
1.0
 40
2.0
 40
2.0
 40
2.0
 40
2.0
 10
132.1465508748668
 20
97.1956583191817
 30
0.0
 10
133.7891707458279
 20
95.004837626775
 30
0.0
 10
134.8004869001597
 20
92.71157141765626
 30
0.0
 10
135.1804993378624
 20
90.31585969182548
 30
0.0
 10
135.5502428395469
 20
87.98488640081865
 30
0.0
 10
135.3223406075848
 20
85.55692947993383
 30
0.0
 10
134.4967926419761
 20
83.03198892917099
 30
0.0
  0
SPLINE
  5
170
330
1F
100
AcDbEntity
  8
0
  6
K5LT32768
 62
    30
420
 16744448
100
AcDbSpline
210
0.0
220
0.0
230
1.0
 70
     8
 71
     3
 72
    17
 73
    13
 74
     0
 42
0.0
 43
0.0
 12
1.0
 22
0.0
 32
0.0
 13
1.0
 23
0.0
 33
0.0
 40
0.0
 40
0.0
 40
0.0
 40
0.0
 40
1.0
 40
1.0
 40
1.0
 40
2.0
 40
2.0
 40
2.0
 40
3.0
 40
3.0
 40
3.0
 40
4.0
 40
4.0
 40
4.0
 40
4.0
 10
164.5581586855695
 20
126.505319357802
 30
0.0
 10
163.3450194383958
 20
124.3810729661812
 30
0.0
 10
161.8719005522315
 20
122.5555759430872
 30
0.0
 10
160.1388020270766
 20
121.0288282885201
 30
0.0
 10
158.2831678302395
 20
119.3941346362927
 30
0.0
 10
154.8726890895984
 20
119.1069016261026
 30
0.0
 10
153.6777732374743
 20
117.1522110147588
 30
0.0
 10
152.7456034863992
 20
115.6273308674527
 30
0.0
 10
152.362671552634
 20
113.210652008292
 30
0.0
 10
152.631701909634
 20
111.3680519078768
 30
0.0
 10
152.8886532497933
 20
109.6081814960056
 30
0.0
 10
153.7091013500602
 20
107.9262628904584
 30
0.0
 10
155.0930462104348
 20
106.322296091235
 30
0.0
  0
SPLINE
  5
171
330
1F
100
AcDbEntity
  8
0
  6
K5LT32768
 62
    30
420
 16744448
100
AcDbSpline
210
0.0
220
0.0
230
1.0
 70
     8
 71
     3
 72
    11
 73
     7
 74
     0
 42
0.0
 43
0.0
 12
1.0
 22
0.0
 32
0.0
 13
1.0
 23
0.0
 33
0.0
 40
0.0
 40
0.0
 40
0.0
 40
0.0
 40
1.0
 40
1.0
 40
1.0
 40
2.0
 40
2.0
 40
2.0
 40
2.0
 10
155.0930462104348
 20
106.322296091235
 30
0.0
 10
153.1773382160483
 20
107.3623475745736
 30
0.0
 10
151.4227769737029
 20
107.7478828513735
 30
0.0
 10
149.8293624833987
 20
107.4789019216346
 30
0.0
 10
147.6697784776161
 20
107.1143471135422
 30
0.0
 10
145.8062030090611
 20
105.5475193310628
 30
0.0
 10
144.2386360777336
 20
102.7784185741965
 30
0.0
  0
SPLINE
  5
172
330
1F
100
AcDbEntity
  8
0
  6
K5LT32768
 62
    30
420
 16744448
100
AcDbSpline
210
0.0
220
0.0
230
1.0
 70
     8
 71
     3
 72
    11
 73
     7
 74
     0
 42
0.0
 43
0.0
 12
1.0
 22
0.0
 32
0.0
 13
1.0
 23
0.0
 33
0.0
 40
0.0
 40
0.0
 40
0.0
 40
0.0
 40
1.0
 40
1.0
 40
1.0
 40
2.0
 40
2.0
 40
2.0
 40
2.0
 10
144.2386360777336
 20
102.7784185741965
 30
0.0
 10
147.7817460102166
 20
103.691210448934
 30
0.0
 10
150.5949140742137
 20
103.5012919298456
 30
0.0
 10
152.6781402697248
 20
102.2086630169313
 30
0.0
 10
154.9882710673503
 20
100.7752412079799
 30
0.0
 10
156.4007900530703
 20
97.98581295886888
 30
0.0
 10
156.9156972268849
 20
93.84037826959829
 30
0.0
  0
SPLINE
  5
173
330
1F
100
AcDbEntity
  8
0
  6
K5LT32768
 62
    30
420
 16744448
100
AcDbSpline
210
0.0
220
0.0
230
1.0
 70
     8
 71
     3
 72
    11
 73
     7
 74
     0
 42
0.0
 43
0.0
 12
1.0
 22
0.0
 32
0.0
 13
1.0
 23
0.0
 33
0.0
 40
0.0
 40
0.0
 40
0.0
 40
0.0
 40
1.0
 40
1.0
 40
1.0
 40
2.0
 40
2.0
 40
2.0
 40
2.0
 10
156.9156972268849
 20
93.84037826959829
 30
0.0
 10
155.5480550420343
 20
95.9973092212238
 30
0.0
 10
154.1157532667615
 20
97.12890725593708
 30
0.0
 10
152.6187919010665
 20
97.23517237373818
 30
0.0
 10
151.0873263984997
 20
97.34388684410999
 30
0.0
 10
149.4881862172915
 20
96.37945694101015
 30
0.0
 10
147.8213713574417
 20
94.34188266443871
 30
0.0
  0
SPLINE
  5
174
330
1F
100
AcDbEntity
  8
0
  6
K5LT32768
 62
    30
420
 16744448
100
AcDbSpline
210
0.0
220
0.0
230
1.0
 70
     8
 71
     3
 72
    23
 73
    19
 74
     0
 42
0.0
 43
0.0
 12
1.0
 22
0.0
 32
0.0
 13
1.0
 23
0.0
 33
0.0
 40
0.0
 40
0.0
 40
0.0
 40
0.0
 40
1.0
 40
1.0
 40
1.0
 40
2.0
 40
2.0
 40
2.0
 40
3.0
 40
3.0
 40
3.0
 40
4.0
 40
4.0
 40
4.0
 40
5.0
 40
5.0
 40
5.0
 40
6.0
 40
6.0
 40
6.0
 40
6.0
 10
147.8213713574417
 20
94.34188266443871
 30
0.0
 10
148.855867506392
 20
94.9242597461081
 30
0.0
 10
149.7955684376175
 20
95.14682049297731
 30
0.0
 10
150.6404741511181
 20
95.00956490504629
 30
0.0
 10
151.8601450994947
 20
94.81142841427952
 30
0.0
 10
153.3948237638578
 20
93.29091244324053
 30
0.0
 10
153.7068666635381
 20
92.16573313949553
 30
0.0
 10
154.0447244997919
 20
90.94746909519151
 30
0.0
 10
153.2479813586934
 20
88.54437224772714
 30
0.0
 10
152.2231283510768
 20
87.88762100523223
 30
0.0
 10
151.2880191793938
 20
87.28837984010214
 30
0.0
 10
149.2994081702656
 20
87.56785391369917
 30
0.0
 10
148.0933900480596
 20
88.01126586460401
 30
0.0
 10
146.5415785195155
 20
88.58181432041806
 30
0.0
 10
145.5023734205969
 20
90.43410983910859
 30
0.0
 10
144.2851283794091
 20
91.72061164575716
 30
0.0
 10
143.4791706308386
 20
92.57242542567329
 30
0.0
 10
142.696086521484
 20
93.44618243190045
 30
0.0
 10
141.9358760513454
 20
94.34188266443871
 30
0.0
  0
SPLINE
  5
175
330
1F
100
AcDbEntity
  8
0
  6
K5LT32768
 62
    30
420
 16744448
100
AcDbSpline
210
0.0
220
0.0
230
1.0
 70
     8
 71
     3
 72
    11
 73
     7
 74
     0
 42
0.0
 43
0.0
 12
1.0
 22
0.0
 32
0.0
 13
1.0
 23
0.0
 33
0.0
 40
0.0
 40
0.0
 40
0.0
 40
0.0
 40
1.0
 40
1.0
 40
1.0
 40
2.0
 40
2.0
 40
2.0
 40
2.0
 10
141.9358760513454
 20
94.34188266443871
 30
0.0
 10
142.6568157743397
 20
94.22904977932738
 30
0.0
 10
143.3077375017471
 20
94.28669606586328
 30
0.0
 10
143.8886412335676
 20
94.51482152404637
 30
0.0
 10
144.5305356922348
 20
94.76689851971265
 30
0.0
 10
145.0869375372984
 20
95.22713214464176
 30
0.0
 10
145.5578467687582
 20
95.89552239883369
 30
0.0
  0
SPLINE
  5
176
330
1F
100
AcDbEntity
  8
0
  6
K5LT32768
 62
    30
420
 16744448
100
AcDbSpline
210
0.0
220
0.0
230
1.0
 70
     8
 71
     3
 72
    20
 73
    16
 74
     0
 42
0.0
 43
0.0
 12
1.0
 22
0.0
 32
0.0
 13
1.0
 23
0.0
 33
0.0
 40
0.0
 40
0.0
 40
0.0
 40
0.0
 40
1.0
 40
1.0
 40
1.0
 40
2.0
 40
2.0
 40
2.0
 40
3.0
 40
3.0
 40
3.0
 40
4.0
 40
4.0
 40
4.0
 40
5.0
 40
5.0
 40
5.0
 40
5.0
 10
145.5578467687582
 20
95.89552239883369
 30
0.0
 10
144.0398855835914
 20
96.15605825733955
 30
0.0
 10
142.6075282084328
 20
96.57754963743581
 30
0.0
 10
141.2607746432825
 20
97.15999653912247
 30
0.0
 10
138.168376334517
 20
98.4974036641747
 30
0.0
 10
136.2745385543422
 20
102.0416987322249
 30
0.0
 10
133.3376117399011
 20
103.7181201407977
 30
0.0
 10
130.6479579650555
 20
105.2533961128201
 30
0.0
 10
127.5736972853817
 20
106.5985284016779
 30
0.0
 10
124.524205813668
 20
107.0416940927778
 30
0.0
 10
122.0926451026753
 20
107.395059331846
 30
0.0
 10
119.4489228284814
 20
107.3043299262905
 30
0.0
 10
117.0164896542842
 20
106.8339707207791
 30
0.0
 10
115.1139628685323
 20
106.4660794270313
 30
0.0
 10
113.2543441096862
 20
105.8528009001778
 30
0.0
 10
111.437633377746
 20
104.9941351402186
 30
0.0
  0
SPLINE
  5
177
330
1F
100
AcDbEntity
  8
0
  6
K5LT32768
 62
    30
420
 16744448
100
AcDbSpline
210
0.0
220
0.0
230
1.0
 70
     8
 71
     3
 72
    20
 73
    16
 74
     0
 42
0.0
 43
0.0
 12
1.0
 22
0.0
 32
0.0
 13
1.0
 23
0.0
 33
0.0
 40
0.0
 40
0.0
 40
0.0
 40
0.0
 40
1.0
 40
1.0
 40
1.0
 40
2.0
 40
2.0
 40
2.0
 40
3.0
 40
3.0
 40
3.0
 40
4.0
 40
4.0
 40
4.0
 40
5.0
 40
5.0
 40
5.0
 40
5.0
 10
111.437633377746
 20
104.9941351402186
 30
0.0
 10
113.1964293923077
 20
106.2399611113663
 30
0.0
 10
115.0461565620109
 20
107.1994452582178
 30
0.0
 10
116.9868148868558
 20
107.8725875807729
 30
0.0
 10
119.62764435799
 20
108.7885932788977
 30
0.0
 10
122.6310533800452
 20
109.2019526046241
 30
0.0
 10
125.4144488365198
 20
109.0299035104803
 30
0.0
 10
127.7673110445934
 20
108.8844668242909
 30
0.0
 10
130.3022487069757
 20
108.4287189452442
 30
0.0
 10
132.4176939496209
 20
107.3977913019186
 30
0.0
 10
133.9582034145454
 20
106.6470492074508
 30
0.0
 10
135.7230718075701
 20
105.7480102038079
 30
0.0
 10
136.6908604593097
 20
104.3709650242223
 30
0.0
 10
137.2928857618502
 20
103.5143564668046
 30
0.0
 10
137.7182240949905
 20
102.515305963382
 30
0.0
 10
137.9668754587307
 20
101.3738135139545
 30
0.0
  0
SPLINE
  5
178
330
1F
100
AcDbEntity
  8
0
  6
K5LT32768
 62
    30
420
 16744448
100
AcDbSpline
210
0.0
220
0.0
230
1.0
 70
     8
 71
     3
 72
    11
 73
     7
 74
     0
 42
0.0
 43
0.0
 12
1.0
 22
0.0
 32
0.0
 13
1.0
 23
0.0
 33
0.0
 40
0.0
 40
0.0
 40
0.0
 40
0.0
 40
1.0
 40
1.0
 40
1.0
 40
2.0
 40
2.0
 40
2.0
 40
2.0
 10
137.9668754587307
 20
101.3738135139545
 30
0.0
 10
138.6138781808955
 20
102.3316491384584
 30
0.0
 10
138.9765699315044
 20
103.3158623868928
 30
0.0
 10
139.0549507105575
 20
104.3264532592577
 30
0.0
 10
139.1249241813688
 20
105.2286457580283
 30
0.0
 10
138.9683073594979
 20
106.1518607080042
 30
0.0
 10
138.5851002449448
 20
107.0960981091853
 30
0.0
  0
SPLINE
  5
179
330
1F
100
AcDbEntity
  8
0
  6
K5LT32768
 62
    30
420
 16744448
100
AcDbSpline
210
0.0
220
0.0
230
1.0
 70
     8
 71
     3
 72
    20
 73
    16
 74
     0
 42
0.0
 43
0.0
 12
1.0
 22
0.0
 32
0.0
 13
1.0
 23
0.0
 33
0.0
 40
0.0
 40
0.0
 40
0.0
 40
0.0
 40
1.0
 40
1.0
 40
1.0
 40
2.0
 40
2.0
 40
2.0
 40
3.0
 40
3.0
 40
3.0
 40
4.0
 40
4.0
 40
4.0
 40
5.0
 40
5.0
 40
5.0
 40
5.0
 10
138.5851002449448
 20
107.0960981091853
 30
0.0
 10
139.7614547192788
 20
106.8844280110434
 30
0.0
 10
140.8742584536248
 20
106.8926710016682
 30
0.0
 10
141.9235114479826
 20
107.1208270810597
 30
0.0
 10
143.6337998435019
 20
107.492722798345
 30
0.0
 10
145.3734221909438
 20
108.7052186115287
 30
0.0
 10
146.5478291884869
 20
109.9893878184848
 30
0.0
 10
147.8178278459504
 20
111.3780828553862
 30
0.0
 10
148.3002781156993
 20
113.5030674627403
 30
0.0
 10
149.070184319671
 20
115.306116771471
 30
0.0
 10
149.5886652572117
 20
116.5203512992617
 30
0.0
 10
149.7218158841155
 20
118.0518457148794
 30
0.0
 10
150.529193660258
 20
118.9907335807498
 30
0.0
 10
151.4440816832184
 20
120.0546435480167
 30
0.0
 10
152.7712031738087
 20
120.7470547604986
 30
0.0
 10
154.510558132029
 20
121.0679672181955
 30
0.0
  0
SPLINE
  5
17A
330
1F
100
AcDbEntity
  8
0
  6
K5LT32768
 62
    30
420
 16744448
100
AcDbSpline
210
0.0
220
0.0
230
1.0
 70
     8
 71
     3
 72
    11
 73
     7
 74
     0
 42
0.0
 43
0.0
 12
1.0
 22
0.0
 32
0.0
 13
1.0
 23
0.0
 33
0.0
 40
0.0
 40
0.0
 40
0.0
 40
0.0
 40
1.0
 40
1.0
 40
1.0
 40
2.0
 40
2.0
 40
2.0
 40
2.0
 10
154.510558132029
 20
121.0679672181955
 30
0.0
 10
152.6060307562573
 20
121.9110501446998
 30
0.0
 10
150.9162176781765
 20
122.0429379946963
 30
0.0
 10
149.4411188977864
 20
121.4636307681852
 30
0.0
 10
148.4753182633185
 20
121.0843373307869
 30
0.0
 10
147.6015612570913
 20
120.4001691089297
 30
0.0
 10
146.8198478791048
 20
119.4111261026138
 30
0.0
  0
SPLINE
  5
17B
330
1F
100
AcDbEntity
  8
0
  6
K5LT32768
 62
    30
420
 16744448
100
AcDbSpline
210
0.0
220
0.0
230
1.0
 70
     8
 71
     3
 72
    20
 73
    16
 74
     0
 42
0.0
 43
0.0
 12
1.0
 22
0.0
 32
0.0
 13
1.0
 23
0.0
 33
0.0
 40
0.0
 40
0.0
 40
0.0
 40
0.0
 40
1.0
 40
1.0
 40
1.0
 40
2.0
 40
2.0
 40
2.0
 40
3.0
 40
3.0
 40
3.0
 40
4.0
 40
4.0
 40
4.0
 40
5.0
 40
5.0
 40
5.0
 40
5.0
 10
146.8198478791048
 20
119.4111261026138
 30
0.0
 10
146.0468734141858
 20
120.4346386953418
 30
0.0
 10
145.2225743517073
 20
121.0281340203263
 30
0.0
 10
144.3469506916693
 20
121.1916120775673
 30
0.0
 10
143.2345516524844
 20
121.3992958601125
 30
0.0
 10
141.4887454140294
 20
120.61073218739
 30
0.0
 10
140.761249769888
 20
119.7326027369804
 30
0.0
 10
140.0484791858442
 20
118.872247288429
 30
0.0
 10
139.5435812244335
 20
116.9992736615762
 30
0.0
 10
139.9699226699086
 20
116.0232569558273
 30
0.0
 10
140.333514638163
 20
115.190891632543
 30
0.0
 10
141.6427632350985
 20
114.1928498880252
 30
0.0
 10
142.5664647167158
 20
114.0943971496276
 30
0.0
 10
143.4893019665958
 20
113.9960365253847
 30
0.0
 10
144.4702178509452
 20
114.4411580191231
 30
0.0
 10
145.509212369764
 20
115.4297616308428
 30
0.0
  0
SPLINE
  5
17C
330
1F
100
AcDbEntity
  8
0
  6
K5LT32768
 62
    30
420
 16744448
100
AcDbSpline
210
0.0
220
0.0
230
1.0
 70
     8
 71
     3
 72
    41
 73
    37
 74
     0
 42
0.0
 43
0.0
 12
1.0
 22
0.0
 32
0.0
 13
1.0
 23
0.0
 33
0.0
 40
0.0
 40
0.0
 40
0.0
 40
0.0
 40
1.0
 40
1.0
 40
1.0
 40
2.0
 40
2.0
 40
2.0
 40
3.0
 40
3.0
 40
3.0
 40
4.0
 40
4.0
 40
4.0
 40
5.0
 40
5.0
 40
5.0
 40
6.0
 40
6.0
 40
6.0
 40
7.0
 40
7.0
 40
7.0
 40
8.0
 40
8.0
 40
8.0
 40
9.0
 40
9.0
 40
9.0
 40
10.0
 40
10.0
 40
10.0
 40
11.0
 40
11.0
 40
11.0
 40
12.0
 40
12.0
 40
12.0
 40
12.0
 10
145.509212369764
 20
115.4297616308428
 30
0.0
 10
145.2576182548457
 20
114.0151912672849
 30
0.0
 10
144.7547958267338
 20
112.9023875329389
 30
0.0
 10
144.0007450854284
 20
112.0913504278049
 30
0.0
 10
142.7057274360568
 20
110.6984635729688
 30
0.0
 10
139.9338823348127
 20
110.7140301154176
 30
0.0
 10
137.8926890324629
 20
110.5828831434693
 30
0.0
 10
134.7233696936644
 20
110.3792539066195
 30
0.0
 10
131.5711454069393
 20
112.407483069486
 30
0.0
 10
128.3473058889621
 20
112.6601167809151
 30
0.0
 10
125.9310002710701
 20
112.8494687175704
 30
0.0
 10
123.4418990216373
 20
112.7358570311704
 30
0.0
 10
121.0275302141532
 20
112.4870139777946
 30
0.0
 10
116.7773813620332
 20
112.0489615914381
 30
0.0
 10
112.3080140424527
 20
111.2106688776451
 30
0.0
 10
108.5146704457299
 20
109.3958924935003
 30
0.0
 10
104.6323544407651
 20
107.5385507521183
 30
0.0
 10
101.1053497442435
 20
104.4635156333706
 30
0.0
 10
98.05431534287803
 20
101.3589766343351
 30
0.0
 10
94.86674928316685
 20
98.11551168358072
 30
0.0
 10
91.95699357480086
 20
94.28361954477414
 30
0.0
 10
89.91848405314352
 20
90.23506108179926
 30
0.0
 10
87.92351923721768
 20
86.27298408238099
 30
0.0
 10
86.36052066052184
 20
81.74389514593835
 30
0.0
 10
85.86850260431328
 20
77.37025575158962
 30
0.0
 10
85.31194491540978
 20
72.42291163951862
 30
0.0
 10
85.8067813626675
 20
66.8690400314115
 30
0.0
 10
87.49230600704331
 20
62.20051343661163
 30
0.0
 10
88.90759464680929
 20
58.28048018399048
 30
0.0
 10
91.58219007904358
 20
54.62250638803673
 30
0.0
 10
94.15844629193504
 20
51.26120630243032
 30
0.0
 10
97.87830870822384
 20
46.40781718851053
 30
0.0
 10
102.9699350116279
 20
42.6280665079052
 30
0.0
 10
107.5334585302114
 20
38.48443742305449
 30
0.0
 10
111.2410348133158
 20
35.11799899923265
 30
0.0
 10
115.0180396282731
 20
31.82766078281027
 30
0.0
 10
118.8644729750833
 20
28.61342277378734
 30
0.0
  0
SPLINE
  5
17D
330
1F
100
AcDbEntity
  8
0
  6
K5LT32768
 62
    30
420
 16744448
100
AcDbSpline
210
0.0
220
0.0
230
1.0
 70
     8
 71
     3
 72
     8
 73
     4
 74
     0
 42
0.0
 43
0.0
 12
1.0
 22
0.0
 32
0.0
 13
1.0
 23
0.0
 33
0.0
 40
0.0
 40
0.0
 40
0.0
 40
0.0
 40
1.0
 40
1.0
 40
1.0
 40
1.0
 10
123.435643753246
 20
94.50082179212922
 30
0.0
 10
120.8162724570387
 20
95.41415279168056
 30
0.0
 10
118.3222053580116
 20
95.89749342087264
 30
0.0
 10
115.9534424561647
 20
95.9508436797053
 30
0.0
  0
SPLINE
  5
17E
330
1F
100
AcDbEntity
  8
0
  6
K5LT32768
 62
    30
420
 16744448
100
AcDbSpline
210
0.0
220
0.0
230
1.0
 70
     8
 71
     3
 72
    11
 73
     7
 74
     0
 42
0.0
 43
0.0
 12
1.0
 22
0.0
 32
0.0
 13
1.0
 23
0.0
 33
0.0
 40
0.0
 40
0.0
 40
0.0
 40
0.0
 40
1.0
 40
1.0
 40
1.0
 40
2.0
 40
2.0
 40
2.0
 40
2.0
 10
123.435643753246
 20
94.50082179212922
 30
0.0
 10
123.1572939401073
 20
95.80727238418898
 30
0.0
 10
122.625485771786
 20
96.87545086051317
 30
0.0
 10
121.8402192482821
 20
97.7053572211018
 30
0.0
 10
121.0716790322573
 20
98.51758643826123
 30
0.0
 10
120.0603628779254
 20
99.10158590766416
 30
0.0
 10
118.8062707852865
 20
99.45735562931054
 30
0.0
  0
SPLINE
  5
17F
330
1F
100
AcDbEntity
  8
0
  6
K5LT32768
 62
    30
420
 16744448
100
AcDbSpline
210
0.0
220
0.0
230
1.0
 70
     8
 71
     3
 72
     8
 73
     4
 74
     0
 42
0.0
 43
0.0
 12
1.0
 22
0.0
 32
0.0
 13
1.0
 23
0.0
 33
0.0
 40
0.0
 40
0.0
 40
0.0
 40
0.0
 40
1.0
 40
1.0
 40
1.0
 40
1.0
 10
118.8062707852865
 20
99.45735562931054
 30
0.0
 10
120.4199036886187
 20
99.97705977381314
 30
0.0
 10
121.9408700329588
 20
100.1293352846836
 30
0.0
 10
123.3691698183069
 20
99.91418216192207
 30
0.0
  0
SPLINE
  5
180
330
1F
100
AcDbEntity
  8
0
  6
K5LT32768
 62
    30
420
 16744448
100
AcDbSpline
210
0.0
220
0.0
230
1.0
 70
     8
 71
     3
 72
    17
 73
    13
 74
     0
 42
0.0
 43
0.0
 12
1.0
 22
0.0
 32
0.0
 13
1.0
 23
0.0
 33
0.0
 40
0.0
 40
0.0
 40
0.0
 40
0.0
 40
1.0
 40
1.0
 40
1.0
 40
2.0
 40
2.0
 40
2.0
 40
3.0
 40
3.0
 40
3.0
 40
4.0
 40
4.0
 40
4.0
 40
4.0
 10
123.4212909825192
 20
83.03198892917099
 30
0.0
 10
124.7742465779709
 20
82.3044925781098
 30
0.0
 10
125.8198691456543
 20
82.09630290193451
 30
0.0
 10
126.5581586855695
 20
82.40741990064515
 30
0.0
 10
127.561387724414
 20
82.83018304533302
 30
0.0
 10
128.210036020649
 20
85.41068714946917
 30
0.0
 10
127.8653845057804
 20
86.55239174445603
 30
0.0
 10
127.5155716316019
 20
87.71119403780241
 30
0.0
 10
125.522384786651
 20
89.20878146684626
 30
0.0
 10
124.4041193578558
 20
89.28721852800136
 30
0.0
 10
124.3152388805691
 20
89.29345275759741
 30
0.0
 10
124.2231660403021
 20
89.29019313196441
 30
0.0
 10
124.1285264905364
 20
89.27821436840108
 30
0.0
  0
LINE
  5
181
330
1F
100
AcDbEntity
  8
0
  6
K5LT32768
 62
    30
420
 16744448
100
AcDbLine
 10
155.6062361337757
 20
83.03198892917099
 30
0.0
 11
164.5581586855695
 21
83.03198892917099
 31
0.0
  0
SPLINE
  5
182
330
1F
100
AcDbEntity
  8
0
  6
K5LT32768
 62
    30
420
 16744448
100
AcDbSpline
210
0.0
220
0.0
230
1.0
 70
     8
 71
     3
 72
    11
 73
     7
 74
     0
 42
0.0
 43
0.0
 12
1.0
 22
0.0
 32
0.0
 13
1.0
 23
0.0
 33
0.0
 40
0.0
 40
0.0
 40
0.0
 40
0.0
 40
1.0
 40
1.0
 40
1.0
 40
2.0
 40
2.0
 40
2.0
 40
2.0
 10
110.070543668816
 20
47.90757232651976
 30
0.0
 10
109.9943072870233
 20
50.15531620125614
 30
0.0
 10
109.438534767985
 20
52.13790246153397
 30
0.0
 10
108.4032261117013
 20
53.85533110735324
 30
0.0
 10
107.6511957562731
 20
55.10284166094413
 30
0.0
 10
106.6461468334461
 20
56.21044659630451
 30
0.0
 10
105.3880793432203
 20
57.17814591343439
 30
0.0
  0
SPLINE
  5
183
330
1F
100
AcDbEntity
  8
0
  6
K5LT32768
 62
    30
420
 16744448
100
AcDbSpline
210
0.0
220
0.0
230
1.0
 70
     8
 71
     3
 72
    11
 73
     7
 74
     0
 42
0.0
 43
0.0
 12
1.0
 22
0.0
 32
0.0
 13
1.0
 23
0.0
 33
0.0
 40
0.0
 40
0.0
 40
0.0
 40
0.0
 40
1.0
 40
1.0
 40
1.0
 40
2.0
 40
2.0
 40
2.0
 40
2.0
 10
105.3880793432203
 20
57.17814591343439
 30
0.0
 10
107.1176798711413
 20
57.43999761690482
 30
0.0
 10
108.5288702285272
 20
57.19016045746243
 30
0.0
 10
109.6216504153776
 20
56.42863443510719
 30
0.0
 10
110.4634350624023
 20
55.84201974201333
 30
0.0
 10
111.1162799717686
 20
54.95177668378641
 30
0.0
 10
111.5801851434769
 20
53.75790526042645
 30
0.0
  0
SPLINE
  5
184
330
1F
100
AcDbEntity
  8
0
  6
K5LT32768
 62
    30
420
 16744448
100
AcDbSpline
210
0.0
220
0.0
230
1.0
 70
     8
 71
     3
 72
     8
 73
     4
 74
     0
 42
0.0
 43
0.0
 12
1.0
 22
0.0
 32
0.0
 13
1.0
 23
0.0
 33
0.0
 40
0.0
 40
0.0
 40
0.0
 40
0.0
 40
1.0
 40
1.0
 40
1.0
 40
1.0
 10
111.5801851434769
 20
53.75790526042645
 30
0.0
 10
112.0593080930257
 20
54.74485686395375
 30
0.0
 10
112.6087507963902
 20
55.60016566612676
 30
0.0
 10
113.2285132535703
 20
56.32383166694545
 30
0.0
  0
SPLINE
  5
185
330
1F
100
AcDbEntity
  8
0
  6
K5LT32768
 62
    30
420
 16744448
100
AcDbSpline
210
0.0
220
0.0
230
1.0
 70
     8
 71
     3
 72
    17
 73
    13
 74
     0
 42
0.0
 43
0.0
 12
1.0
 22
0.0
 32
0.0
 13
1.0
 23
0.0
 33
0.0
 40
0.0
 40
0.0
 40
0.0
 40
0.0
 40
1.0
 40
1.0
 40
1.0
 40
2.0
 40
2.0
 40
2.0
 40
3.0
 40
3.0
 40
3.0
 40
4.0
 40
4.0
 40
4.0
 40
4.0
 10
114.428962929803
 20
42.43401355978013
 30
0.0
 10
113.382849911304
 20
45.42594949482923
 30
0.0
 10
113.3353702815319
 20
48.03732913229484
 30
0.0
 10
114.2865240404867
 20
50.26815247217695
 30
0.0
 10
115.0696152172966
 20
52.10480407349424
 30
0.0
 10
116.8752215833462
 20
54.71578004443018
 30
0.0
 10
118.6665198869631
 20
55.00424554194412
 30
0.0
 10
120.0110802826175
 20
55.22076965894175
 30
0.0
 10
122.2992642092531
 20
54.57525525367181
 30
0.0
 10
123.260174067414
 20
53.47302748179384
 30
0.0
 10
123.9243273271589
 20
52.71119934416269
 30
0.0
 10
124.3160342727787
 20
51.66664748917643
 30
0.0
 10
124.4352949042735
 20
50.33937191683511
 30
0.0
  0
SPLINE
  5
186
330
1F
100
AcDbEntity
  8
0
  6
K5LT32768
 62
    30
420
 16744448
100
AcDbSpline
210
0.0
220
0.0
230
1.0
 70
     8
 71
     3
 72
    20
 73
    16
 74
     0
 42
0.0
 43
0.0
 12
1.0
 22
0.0
 32
0.0
 13
1.0
 23
0.0
 33
0.0
 40
0.0
 40
0.0
 40
0.0
 40
0.0
 40
1.0
 40
1.0
 40
1.0
 40
2.0
 40
2.0
 40
2.0
 40
3.0
 40
3.0
 40
3.0
 40
4.0
 40
4.0
 40
4.0
 40
5.0
 40
5.0
 40
5.0
 40
5.0
 10
124.4352949042735
 20
50.33937191683511
 30
0.0
 10
123.2928599441486
 20
51.42572109507868
 30
0.0
 10
122.2957877189345
 20
51.87677757791365
 30
0.0
 10
121.4440782286311
 20
51.69254136534001
 30
0.0
 10
120.5652453156721
 20
51.50243799181656
 30
0.0
 10
119.4349794527197
 20
50.00759245345048
 30
0.0
 10
119.2718851665574
 20
49.09303163531743
 30
0.0
 10
119.0598729918021
 20
47.90416087496862
 30
0.0
 10
120.3453293847075
 20
45.7070963037358
 30
0.0
 10
121.4796879509602
 20
45.28279134610624
 30
0.0
 10
122.3724276658356
 20
44.94886352278512
 30
0.0
 10
124.061547749211
 20
45.25754075457024
 30
0.0
 10
124.8982212945515
 20
45.85254690337147
 30
0.0
 10
125.81565924833
 20
46.5049892169618
 30
0.0
 10
126.3689717120026
 20
47.64450033149225
 30
0.0
 10
126.5581586855695
 20
49.27108024696281
 30
0.0
  0
LINE
  5
187
330
1F
100
AcDbEntity
  8
0
  6
K5LT32768
 62
    30
420
 16744448
100
AcDbLine
 10
126.5581586855695
 20
58.31253326788909
 30
0.0
 11
126.5581586855695
 21
67.00489466755111
 31
0.0
  0
LINE
  5
188
330
1F
100
AcDbEntity
  8
0
  6
K5LT32768
 62
    30
420
 16744448
100
AcDbLine
 10
131.8703003285822
 20
90.0743650631216
 30
0.0
 11
128.6774144613646
 21
93.77003976342087
 31
0.0
  0
LINE
  5
189
330
1F
100
AcDbEntity
  8
0
  6
K5LT32768
 62
    30
420
 16744448
100
AcDbLine
 10
120.97471402728
 20
90.09204124547833
 30
0.0
 11
115.8527979033906
 21
95.84700463602432
 31
0.0
  0
LINE
  5
18A
330
1F
100
AcDbEntity
  8
0
  6
K5LT32768
 62
    30
420
 16744448
100
AcDbLine
 10
126.5581586855695
 20
70.49727594665333
 30
0.0
 11
122.0961583288422
 21
75.37572967000852
 31
0.0
  0
LINE
  5
18B
330
1F
100
AcDbEntity
  8
0
  6
K5LT32768
 62
    30
420
 16744448
100
AcDbLine
 10
125.4808408980802
 20
69.03509845297951
 30
0.0
 11
120.8457029552902
 21
74.12722182674877
 31
0.0
  0
LINE
  5
18C
330
1F
100
AcDbEntity
  8
0
  6
K5LT32768
 62
    30
420
 16744448
100
AcDbLine
 10
126.5581586855695
 20
58.31253326788909
 30
0.0
 11
122.2189651491609
 21
62.71829741643228
 31
0.0
  0
LINE
  5
18D
330
1F
100
AcDbEntity
  8
0
  6
K5LT32768
 62
    30
420
 16744448
100
AcDbLine
 10
123.7159844552385
 20
58.46500249496455
 30
0.0
 11
120.8473769475428
 21
61.36333452634901
 31
0.0
  0
LINE
  5
18E
330
1F
100
AcDbEntity
  8
0
  6
K5LT32768
 62
    30
420
 16744448
100
AcDbLine
 10
114.665761391681
 20
57.66721670099025
 30
0.0
 11
109.5116973729963
 21
62.81086846913217
 31
0.0
  0
LINE
  5
18F
330
1F
100
AcDbEntity
  8
0
  6
K5LT32768
 62
    30
420
 16744448
100
AcDbLine
 10
113.2285132535703
 20
56.32383166694544
 30
0.0
 11
108.1088360786191
 21
61.41019207069308
 31
0.0
  0
LINE
  5
190
330
1F
100
AcDbEntity
  8
0
  6
K5LT32768
 62
    30
420
 16744448
100
AcDbLine
 10
96.67429812109748
 20
79.49570550841013
 30
0.0
 11
99.7703808421935
 21
82.658730558611
 31
0.0
  0
LINE
  5
191
330
1F
100
AcDbEntity
  8
0
  6
K5LT32768
 62
    30
420
 16744448
100
AcDbLine
 10
96.45878099947896
 20
75.83741531462222
 30
0.0
 11
101.4375862962701
 21
80.97424951424168
 31
0.0
  0
LINE
  5
192
330
1F
100
AcDbEntity
  8
0
  6
K5LT32768
 62
    30
420
 16744448
100
AcDbLine
 10
96.978909211749
 20
65.58838870898371
 30
0.0
 11
100.3935366908978
 21
69.07528343636848
 31
0.0
  0
LINE
  5
193
330
1F
100
AcDbEntity
  8
0
  6
K5LT32768
 62
    30
420
 16744448
100
AcDbLine
 10
97.70833066025557
 20
63.18944117090511
 30
0.0
 11
102.0262499429659
 21
67.45319521630952
 31
0.0
  0
LINE
  5
194
330
1F
100
AcDbEntity
  8
0
  6
K5LT32768
 62
    30
420
 16744448
100
AcDbLine
 10
100.6400417646121
 20
57.19852353151706
 30
0.0
 11
106.530452530671
 21
62.9783041421903
 31
0.0
  0
LINE
  5
195
330
1F
100
AcDbEntity
  8
0
  6
K5LT32768
 62
    30
420
 16744448
100
AcDbLine
 10
101.9901653194743
 20
55.30105087725941
 30
0.0
 11
108.1088360786191
 21
61.41019207069309
 31
0.0
  0
LINE
  5
196
330
1F
100
AcDbEntity
  8
0
  6
K5LT32768
 62
    30
420
 16744448
100
AcDbLine
 10
118.742675376093
 20
59.28414448909857
 30
0.0
 11
120.8473769475428
 21
61.36333452634899
 31
0.0
  0
SPLINE
  5
197
330
1F
100
AcDbEntity
  8
0
  6
K5LT32768
 62
    30
420
 16744448
100
AcDbSpline
210
0.0
220
0.0
230
1.0
 70
     8
 71
     3
 72
    17
 73
    13
 74
     0
 42
0.0
 43
0.0
 12
1.0
 22
0.0
 32
0.0
 13
1.0
 23
0.0
 33
0.0
 40
0.0
 40
0.0
 40
0.0
 40
0.0
 40
1.0
 40
1.0
 40
1.0
 40
2.0
 40
2.0
 40
2.0
 40
3.0
 40
3.0
 40
3.0
 40
4.0
 40
4.0
 40
4.0
 40
4.0
 10
131.8703003290484
 20
90.07436505577009
 30
0.0
 10
131.8844429586285
 20
89.85130997800785
 30
0.0
 10
131.8886237672121
 20
89.63127011158998
 30
0.0
 10
131.8821613441125
 20
89.41541353348003
 30
0.0
 10
131.8284298204557
 20
87.62068380833333
 30
0.0
 10
131.2238373845296
 20
85.3610286037953
 30
0.0
 10
130.044699598918
 20
83.9884916348823
 30
0.0
 10
129.1842571693832
 20
82.98692162451631
 30
0.0
 10
127.7851814591534
 20
81.7233929885293
 30
0.0
 10
126.5581586855695
 20
81.68098153626592
 30
0.0
 10
125.5558068898158
 20
81.64633572833804
 30
0.0
 10
124.5101843221323
 20
82.09667152597306
 30
0.0
 10
123.4212909825192
 20
83.03198892917099
 30
0.0
  0
LINE
  5
198
330
1F
100
AcDbEntity
  8
0
  6
K5LT32768
 62
    30
420
 16744448
100
AcDbLine
 10
126.755238032079
 20
95.99490438265408
 30
0.0
 11
123.369169818307
 21
99.91418216192206
 31
0.0
  0
LINE
  5
199
330
1F
100
AcDbEntity
  8
0
  6
K5LT32768
 62
    30
420
 16744448
100
AcDbLine
 10
115.8527979033906
 20
95.84700463602432
 30
0.0
 11
115.9534424561642
 21
95.95084367970536
 31
0.0
  0
SPLINE
  5
19A
330
1F
100
AcDbEntity
  8
0
  6
K5LT32768
 62
    30
420
 16744448
100
AcDbSpline
210
0.0
220
0.0
230
1.0
 70
     8
 71
     3
 72
    11
 73
     7
 74
     0
 42
0.0
 43
0.0
 12
1.0
 22
0.0
 32
0.0
 13
1.0
 23
0.0
 33
0.0
 40
0.0
 40
0.0
 40
0.0
 40
0.0
 40
1.0
 40
1.0
 40
1.0
 40
2.0
 40
2.0
 40
2.0
 40
2.0
 10
112.55346832059
 20
95.7182091176039
 30
0.0
 10
111.7593858520366
 20
95.58769954194439
 30
0.0
 10
110.9809711894174
 20
95.40342476266068
 30
0.0
 10
110.2182243327323
 20
95.1653847797528
 30
0.0
 10
108.7735384844769
 20
94.71452353842224
 30
0.0
 10
107.2947841913078
 20
93.99150764951649
 30
0.0
 10
105.8916500616771
 20
93.09265870875372
 30
0.0
  0
LINE
  5
19B
330
1F
100
AcDbEntity
  8
0
  6
K5LT32768
 62
    30
420
 16744448
100
AcDbLine
 10
119.4613496521573
 20
88.54664799469165
 30
0.0
 11
114.344677494234
 21
94.2910159935497
 31
0.0
  0
LINE
  5
19C
330
1F
100
AcDbEntity
  8
0
  6
K5LT32768
 62
    30
420
 16744448
100
AcDbLine
 10
120.97471402728
 20
90.09204124547836
 30
0.0
 11
126.755238032079
 21
95.99490438265408
 31
0.0
  0
SPLINE
  5
19D
330
1F
100
AcDbEntity
  8
0
  6
K5LT32768
 62
    30
420
 16744448
100
AcDbSpline
210
0.0
220
0.0
230
1.0
 70
     8
 71
     3
 72
    14
 73
    10
 74
     0
 42
0.0
 43
0.0
 12
1.0
 22
0.0
 32
0.0
 13
1.0
 23
0.0
 33
0.0
 40
0.0
 40
0.0
 40
0.0
 40
0.0
 40
1.0
 40
1.0
 40
1.0
 40
2.0
 40
2.0
 40
2.0
 40
3.0
 40
3.0
 40
3.0
 40
3.0
 10
120.2395201133859
 20
85.43799281973752
 30
0.0
 10
120.2312752211098
 20
85.41039113875536
 30
0.0
 10
120.223569228871
 20
85.38302288270627
 30
0.0
 10
120.216415845552
 20
85.35590502665495
 30
0.0
 10
119.8226515026713
 20
83.86317853735318
 30
0.0
 10
120.550884697213
 20
81.44340399049207
 30
0.0
 10
121.6265609058176
 20
80.14264147052168
 30
0.0
 10
121.9680257732866
 20
79.72972474154935
 30
0.0
 10
122.4118963923638
 20
79.36475668464405
 30
0.0
 10
122.9020605853833
 20
79.04243049232569
 30
0.0
  0
LINE
  5
19E
330
1F
100
AcDbEntity
  8
0
  6
K5LT32768
 62
    30
420
 16744448
100
AcDbLine
 10
124.1285264906577
 20
89.27821436852402
 30
0.0
 11
128.6774144613646
 21
93.77003976342088
 31
0.0
  0
LINE
  5
19F
330
1F
100
AcDbEntity
  8
0
  6
K5LT32768
 62
    30
420
 16744448
100
AcDbLine
 10
114.5948530591862
 20
83.57715676483231
 30
0.0
 11
109.4317494651783
 21
89.22215002761436
 31
0.0
  0
LINE
  5
1A0
330
1F
100
AcDbEntity
  8
0
  6
K5LT32768
 62
    30
420
 16744448
100
AcDbLine
 10
113.3764087714106
 20
82.33292529636302
 30
0.0
 11
108.2320981891014
 21
87.98442142904068
 31
0.0
  0
LINE
  5
1A1
330
1F
100
AcDbEntity
  8
0
  6
K5LT32768
 62
    30
420
 16744448
100
AcDbLine
 10
114.5948530591862
 20
83.57715676483232
 30
0.0
 11
119.4613496521573
 21
88.54664799469167
 31
0.0
  0
LINE
  5
1A2
330
1F
100
AcDbEntity
  8
0
  6
K5LT32768
 62
    30
420
 16744448
100
AcDbLine
 10
116.3792831845215
 20
81.62617982779908
 30
0.0
 11
120.2395201135516
 21
85.43799282029215
 31
0.0
  0
LINE
  5
1A3
330
1F
100
AcDbEntity
  8
0
  6
K5LT32768
 62
    30
420
 16744448
100
AcDbLine
 10
109.4317494651783
 20
89.22215002761438
 30
0.0
 11
114.344677494234
 21
94.29101599354969
 31
0.0
  0
LINE
  5
1A4
330
1F
100
AcDbEntity
  8
0
  6
K5LT32768
 62
    30
420
 16744448
100
AcDbLine
 10
107.8681967271177
 20
90.93163435456057
 30
0.0
 11
105.8916500616593
 21
93.09265870879513
 31
0.0
  0
LINE
  5
1A5
330
1F
100
AcDbEntity
  8
0
  6
K5LT32768
 62
    30
420
 16744448
100
AcDbLine
 10
106.6666977978823
 20
89.7041570700984
 30
0.0
 11
104.4778815978289
 21
92.1087720504387
 31
0.0
  0
LINE
  5
1A6
330
1F
100
AcDbEntity
  8
0
  6
K5LT32768
 62
    30
420
 16744448
100
AcDbLine
 10
101.1707745619348
 20
84.08940306148186
 30
0.0
 11
99.13839110131772
 21
86.15296674255475
 31
0.0
  0
LINE
  5
1A7
330
1F
100
AcDbEntity
  8
0
  6
K5LT32768
 62
    30
420
 16744448
100
AcDbLine
 10
101.1707745619348
 20
84.08940306148185
 30
0.0
 11
106.6666977978823
 21
89.7041570700984
 31
0.0
  0
LINE
  5
1A8
330
1F
100
AcDbEntity
  8
0
  6
K5LT32768
 62
    30
420
 16744448
100
AcDbLine
 10
99.7703808421935
 20
82.658730558611
 30
0.0
 11
98.20549076440071
 21
84.23983603431478
 31
0.0
  0
LINE
  5
1A9
330
1F
100
AcDbEntity
  8
0
  6
K5LT32768
 62
    30
420
 16744448
100
AcDbLine
 10
102.8270022692312
 20
82.40776600302752
 30
0.0
 11
108.2320981891015
 21
87.98442142904068
 31
0.0
  0
LINE
  5
1AA
330
1F
100
AcDbEntity
  8
0
  6
K5LT32768
 62
    30
420
 16744448
100
AcDbLine
 10
108.1535353353656
 20
76.99951485638059
 30
0.0
 11
113.3764087714106
 21
82.33292529636303
 31
0.0
  0
LINE
  5
1AB
330
1F
100
AcDbEntity
  8
0
  6
K5LT32768
 62
    30
420
 16744448
100
AcDbLine
 10
108.1535353353656
 20
76.99951485638057
 30
0.0
 11
102.8270022692312
 21
82.40776600302752
 31
0.0
  0
LINE
  5
1AC
330
1F
100
AcDbEntity
  8
0
  6
K5LT32768
 62
    30
420
 16744448
100
AcDbLine
 10
106.7699423911986
 20
75.58663952186092
 30
0.0
 11
101.4375862962701
 21
80.97424951424166
 31
0.0
  0
LINE
  5
1AD
330
1F
100
AcDbEntity
  8
0
  6
K5LT32768
 62
    30
420
 16744448
100
AcDbLine
 10
109.8990422361999
 20
75.22722890964789
 30
0.0
 11
115.1366521869042
 21
80.39913675539822
 31
0.0
  0
LINE
  5
1AE
330
1F
100
AcDbEntity
  8
0
  6
K5LT32768
 62
    30
420
 16744448
100
AcDbLine
 10
101.7977582036744
 20
70.50922392296049
 30
0.0
 11
96.45878099947896
 21
75.8374153146222
 31
0.0
  0
LINE
  5
1AF
330
1F
100
AcDbEntity
  8
0
  6
K5LT32768
 62
    30
420
 16744448
100
AcDbLine
 10
100.3935366908978
 20
69.07528343636847
 30
0.0
 11
95.94261822378346
 21
73.49723714122393
 31
0.0
  0
LINE
  5
1B0
330
1F
100
AcDbEntity
  8
0
  6
K5LT32768
 62
    30
420
 16744448
100
AcDbLine
 10
101.7977582036744
 20
70.50922392296049
 30
0.0
 11
106.7699423911986
 21
75.5866395218609
 31
0.0
  0
LINE
  5
1B1
330
1F
100
AcDbEntity
  8
0
  6
K5LT32768
 62
    30
420
 16744448
100
AcDbLine
 10
103.4506218539762
 20
68.85969939114413
 30
0.0
 11
108.4964553230776
 21
73.84223645534178
 31
0.0
  0
LINE
  5
1B2
330
1F
100
AcDbEntity
  8
0
  6
K5LT32768
 62
    30
420
 16744448
100
AcDbLine
 10
114.3785472521962
 20
70.67900066467533
 30
0.0
 11
109.8990422361999
 21
75.22722890964789
 31
0.0
  0
LINE
  5
1B3
330
1F
100
AcDbEntity
  8
0
  6
K5LT32768
 62
    30
420
 16744448
100
AcDbLine
 10
114.3785472521962
 20
70.67900066467533
 30
0.0
 11
119.452560264593
 21
75.65771661371197
 31
0.0
  0
LINE
  5
1B4
330
1F
100
AcDbEntity
  8
0
  6
K5LT32768
 62
    30
420
 16744448
100
AcDbLine
 10
112.9827682445073
 20
69.30943633956755
 30
0.0
 11
108.4964553230776
 21
73.84223645534178
 31
0.0
  0
LINE
  5
1B5
330
1F
100
AcDbEntity
  8
0
  6
K5LT32768
 62
    30
420
 16744448
100
AcDbLine
 10
115.8726806147913
 20
69.16194475397907
 30
0.0
 11
120.8457029552902
 21
74.12722182674875
 31
0.0
  0
LINE
  5
1B6
330
1F
100
AcDbEntity
  8
0
  6
K5LT32768
 62
    30
420
 16744448
100
AcDbLine
 10
120.7098664312008
 20
76.89140881142976
 30
0.0
 11
116.3792831845215
 21
81.62617982779909
 31
0.0
  0
LINE
  5
1B7
330
1F
100
AcDbEntity
  8
0
  6
K5LT32768
 62
    30
420
 16744448
100
AcDbLine
 10
120.7098664312008
 20
76.89140881142977
 30
0.0
 11
122.9020605853833
 21
79.04243049232569
 31
0.0
  0
LINE
  5
1B8
330
1F
100
AcDbEntity
  8
0
  6
K5LT32768
 62
    30
420
 16744448
100
AcDbLine
 10
119.452560264593
 20
75.65771661371197
 30
0.0
 11
115.1366521869042
 21
80.39913675539822
 31
0.0
  0
LINE
  5
1B9
330
1F
100
AcDbEntity
  8
0
  6
K5LT32768
 62
    30
420
 16744448
100
AcDbLine
 10
122.0961583288422
 20
75.37572967000852
 30
0.0
 11
124.7780467478819
 21
78.05344116354836
 31
0.0
  0
LINE
  5
1BA
330
1F
100
AcDbEntity
  8
0
  6
K5LT32768
 62
    30
420
 16744448
100
AcDbLine
 10
107.8681967271177
 20
90.93163435456057
 30
0.0
 11
112.553468320586
 21
95.71820911761742
 31
0.0
  0
SPLINE
  5
1BB
330
1F
100
AcDbEntity
  8
0
  6
K5LT32768
 62
    30
420
 16744448
100
AcDbSpline
210
0.0
220
0.0
230
1.0
 70
     8
 71
     3
 72
    11
 73
     7
 74
     0
 42
0.0
 43
0.0
 12
1.0
 22
0.0
 32
0.0
 13
1.0
 23
0.0
 33
0.0
 40
0.0
 40
0.0
 40
0.0
 40
0.0
 40
1.0
 40
1.0
 40
1.0
 40
2.0
 40
2.0
 40
2.0
 40
2.0
 10
104.4778815978493
 20
92.10877205041304
 30
0.0
 10
102.9712348147611
 20
90.97372872951618
 30
0.0
 10
101.6081513467309
 20
89.65773705722754
 30
0.0
 10
100.5451408462112
 20
88.29823390764238
 30
0.0
 10
100.0306031305719
 20
87.64018241647645
 30
0.0
 10
99.56226809766117
 20
86.91871102189208
 30
0.0
 10
99.1383911013177
 20
86.15296674255477
 30
0.0
  0
SPLINE
  5
1BC
330
1F
100
AcDbEntity
  8
0
  6
K5LT32768
 62
    30
420
 16744448
100
AcDbSpline
210
0.0
220
0.0
230
1.0
 70
     8
 71
     3
 72
     8
 73
     4
 74
     0
 42
0.0
 43
0.0
 12
1.0
 22
0.0
 32
0.0
 13
1.0
 23
0.0
 33
0.0
 40
0.0
 40
0.0
 40
0.0
 40
0.0
 40
1.0
 40
1.0
 40
1.0
 40
1.0
 10
98.20549076440071
 20
84.23983603431476
 30
0.0
 10
97.55180533126011
 20
82.71703276329507
 30
0.0
 10
97.0450739650364
 20
81.095420576873
 30
0.0
 10
96.67429812220851
 20
79.49570550858908
 30
0.0
  0
SPLINE
  5
1BD
330
1F
100
AcDbEntity
  8
0
  6
K5LT32768
 62
    30
420
 16744448
100
AcDbSpline
210
0.0
220
0.0
230
1.0
 70
     8
 71
     3
 72
     8
 73
     4
 74
     0
 42
0.0
 43
0.0
 12
1.0
 22
0.0
 32
0.0
 13
1.0
 23
0.0
 33
0.0
 40
0.0
 40
0.0
 40
0.0
 40
0.0
 40
1.0
 40
1.0
 40
1.0
 40
1.0
 10
95.94261822382236
 20
73.49723714127073
 30
0.0
 10
95.9346047845449
 20
70.88637900028314
 30
0.0
 10
96.30441138020304
 20
68.16791765908467
 30
0.0
 10
96.97890921485174
 20
65.58838871039862
 30
0.0
  0
SPLINE
  5
1BE
330
1F
100
AcDbEntity
  8
0
  6
K5LT32768
 62
    30
420
 16744448
100
AcDbSpline
210
0.0
220
0.0
230
1.0
 70
     8
 71
     3
 72
    11
 73
     7
 74
     0
 42
0.0
 43
0.0
 12
1.0
 22
0.0
 32
0.0
 13
1.0
 23
0.0
 33
0.0
 40
0.0
 40
0.0
 40
0.0
 40
0.0
 40
1.0
 40
1.0
 40
1.0
 40
2.0
 40
2.0
 40
2.0
 40
2.0
 10
97.70833066025668
 20
63.18944117090597
 30
0.0
 10
98.10434252302613
 20
62.05345101110605
 30
0.0
 10
98.56005726934717
 20
60.96346174200605
 30
0.0
 10
99.06833420704766
 20
59.94354643570254
 30
0.0
 10
99.53762122443572
 20
59.00186882536477
 30
0.0
 10
100.061523743624
 20
58.08686119063631
 30
0.0
 10
100.6400417646124
 20
57.19852353151717
 30
0.0
  0
LINE
  5
1BF
330
1F
100
AcDbEntity
  8
0
  6
K5LT32768
 62
    30
420
 16744448
100
AcDbLine
 10
107.9491008349467
 20
64.37030824649884
 30
0.0
 11
103.4506218539762
 21
68.85969939114413
 31
0.0
  0
LINE
  5
1C0
330
1F
100
AcDbEntity
  8
0
  6
K5LT32768
 62
    30
420
 16744448
100
AcDbLine
 10
107.9491008349467
 20
64.37030824649884
 30
0.0
 11
112.9827682445073
 21
69.30943633956754
 31
0.0
  0
LINE
  5
1C1
330
1F
100
AcDbEntity
  8
0
  6
K5LT32768
 62
    30
420
 16744448
100
AcDbLine
 10
106.530452530671
 20
62.9783041421903
 30
0.0
 11
102.0262499429659
 21
67.45319521630952
 31
0.0
  0
LINE
  5
1C2
330
1F
100
AcDbEntity
  8
0
  6
K5LT32768
 62
    30
420
 16744448
100
AcDbLine
 10
109.5116973729963
 20
62.81086846913217
 30
0.0
 11
114.4925731907929
 21
67.78398678774742
 31
0.0
  0
SPLINE
  5
1C3
330
1F
100
AcDbEntity
  8
0
  6
K5LT32768
 62
    30
420
 16744448
100
AcDbSpline
210
0.0
220
0.0
230
1.0
 70
     8
 71
     3
 72
     8
 73
     4
 74
     0
 42
0.0
 43
0.0
 12
1.0
 22
0.0
 32
0.0
 13
1.0
 23
0.0
 33
0.0
 40
0.0
 40
0.0
 40
0.0
 40
0.0
 40
1.0
 40
1.0
 40
1.0
 40
1.0
 10
101.9901653194753
 20
55.3010508772599
 30
0.0
 10
104.1144433229585
 20
52.55861394905607
 30
0.0
 10
106.8079027727387
 20
50.09412109880935
 30
0.0
 10
110.070543668816
 20
47.90757232651976
 30
0.0
  0
LINE
  5
1C4
330
1F
100
AcDbEntity
  8
0
  6
K5LT32768
 62
    30
420
 16744448
100
AcDbLine
 10
114.665761391681
 20
57.66721670099024
 30
0.0
 11
119.4884162110763
 21
62.73637681998041
 31
0.0
  0
SPLINE
  5
1C5
330
1F
100
AcDbEntity
  8
0
  6
K5LT32768
 62
    30
420
 16744448
100
AcDbSpline
210
0.0
220
0.0
230
1.0
 70
     8
 71
     3
 72
    11
 73
     7
 74
     0
 42
0.0
 43
0.0
 12
1.0
 22
0.0
 32
0.0
 13
1.0
 23
0.0
 33
0.0
 40
0.0
 40
0.0
 40
0.0
 40
0.0
 40
1.0
 40
1.0
 40
1.0
 40
2.0
 40
2.0
 40
2.0
 40
2.0
 10
118.742675376093
 20
59.28414448909855
 30
0.0
 10
119.7214650748845
 20
59.42583779218192
 30
0.0
 10
120.630392706042
 20
59.37211284090538
 30
0.0
 10
121.5152976732892
 20
59.20619277677515
 30
0.0
 10
122.2778012120782
 20
59.06322303342637
 30
0.0
 10
123.0115315112397
 20
58.81602503531381
 30
0.0
 10
123.7159844552383
 20
58.46500249496383
 30
0.0
  0
LINE
  5
1C6
330
1F
100
AcDbEntity
  8
0
  6
K5LT32768
 62
    30
420
 16744448
100
AcDbLine
 10
120.821307482754
 20
64.13739752960403
 30
0.0
 11
115.8726806147913
 21
69.16194475397907
 31
0.0
  0
LINE
  5
1C7
330
1F
100
AcDbEntity
  8
0
  6
K5LT32768
 62
    30
420
 16744448
100
AcDbLine
 10
120.821307482754
 20
64.13739752960403
 30
0.0
 11
125.4808408980802
 21
69.0350984529795
 31
0.0
  0
LINE
  5
1C8
330
1F
100
AcDbEntity
  8
0
  6
K5LT32768
 62
    30
420
 16744448
100
AcDbLine
 10
119.4884162110763
 20
62.73637681998041
 30
0.0
 11
114.4925731907929
 21
67.78398678774741
 31
0.0
  0
LINE
  5
1C9
330
1F
100
AcDbEntity
  8
0
  6
K5LT32768
 62
    30
420
 16744448
100
AcDbLine
 10
122.2189651491609
 20
62.71829741643229
 30
0.0
 11
126.5581586855695
 21
67.00489466755113
 31
0.0
  0
LINE
  5
1CA
330
1F
100
AcDbEntity
  8
0
  6
K5LT32768
 62
    30
420
 16744448
100
AcDbLine
 10
126.5581586855695
 20
70.49727594665333
 30
0.0
 11
126.5581586855695
 21
77.45054635546924
 31
0.0
  0
SPLINE
  5
1CB
330
1F
100
AcDbEntity
  8
0
  6
K5LT32768
 62
    30
420
 16744448
100
AcDbSpline
210
0.0
220
0.0
230
1.0
 70
     8
 71
     3
 72
    11
 73
     7
 74
     0
 42
0.0
 43
0.0
 12
1.0
 22
0.0
 32
0.0
 13
1.0
 23
0.0
 33
0.0
 40
0.0
 40
0.0
 40
0.0
 40
0.0
 40
1.0
 40
1.0
 40
1.0
 40
2.0
 40
2.0
 40
2.0
 40
2.0
 10
124.7780467476478
 20
78.05344116394595
 30
0.0
 10
124.7816002915678
 20
78.0518889902269
 30
0.0
 10
124.7851528397434
 20
78.0503385075986
 30
0.0
 10
124.7887043742919
 20
78.04878971436978
 30
0.0
 10
125.3551947790476
 20
77.80174819158172
 30
0.0
 10
125.9450128828068
 20
77.60233373861487
 30
0.0
 10
126.5581586855695
 20
77.45054635546924
 30
0.0
  0
SPLINE
  5
1CC
330
1F
100
AcDbEntity
  8
0
  6
K5LT32768
 62
    30
420
 16744448
100
AcDbSpline
210
0.0
220
0.0
230
1.0
 70
     8
 71
     3
 72
    11
 73
     7
 74
     0
 42
0.0
 43
0.0
 12
1.0
 22
0.0
 32
0.0
 13
1.0
 23
0.0
 33
0.0
 40
0.0
 40
0.0
 40
0.0
 40
0.0
 40
1.0
 40
1.0
 40
1.0
 40
2.0
 40
2.0
 40
2.0
 40
2.0
 10
114.428962929803
 20
42.43401355978013
 30
0.0
 10
114.7244802711088
 20
43.39130091522579
 30
0.0
 10
115.1581787230134
 20
44.24522729243921
 30
0.0
 10
115.7300582855168
 20
44.99579269142038
 30
0.0
 10
116.2464820499451
 20
45.67357492776182
 30
0.0
 10
116.8755871444255
 20
46.26707029991309
 30
0.0
 10
117.6173735689579
 20
46.77627880787421
 30
0.0
  0
SPLINE
  5
1CD
330
1F
100
AcDbEntity
  8
0
  6
K5LT32768
 62
    30
420
 16744448
100
AcDbSpline
210
0.0
220
0.0
230
1.0
 70
     8
 71
     3
 72
    20
 73
    16
 74
     0
 42
0.0
 43
0.0
 12
1.0
 22
0.0
 32
0.0
 13
1.0
 23
0.0
 33
0.0
 40
0.0
 40
0.0
 40
0.0
 40
0.0
 40
1.0
 40
1.0
 40
1.0
 40
2.0
 40
2.0
 40
2.0
 40
3.0
 40
3.0
 40
3.0
 40
4.0
 40
4.0
 40
4.0
 40
5.0
 40
5.0
 40
5.0
 40
5.0
 10
117.6173735689579
 20
46.77627880787421
 30
0.0
 10
117.0179965312844
 20
45.34679913733166
 30
0.0
 10
116.7331187526518
 20
43.95801996649768
 30
0.0
 10
116.76274023306
 20
42.60994129537227
 30
0.0
 10
116.819195830076
 20
40.0406373593716
 30
0.0
 10
119.1382780835667
 20
37.75580825481764
 30
0.0
 10
120.3593221882967
 20
35.34555794024071
 30
0.0
 10
121.3189528904447
 20
33.45131825408188
 30
0.0
 10
122.3157195567695
 20
31.57589739898813
 30
0.0
 10
123.279319419281
 20
29.68361208991757
 30
0.0
 10
123.8164897791534
 20
28.62873483225041
 30
0.0
 10
124.3857541435958
 20
27.58818533671388
 30
0.0
 10
124.8817569240894
 20
26.51434680262978
 30
0.0
 10
125.4997749350002
 20
25.17634713614897
 30
0.0
 10
126.0585755221602
 20
23.81130778020104
 30
0.0
 10
126.5581586855695
 20
22.419228734786
 30
0.0
  0
SPLINE
  5
1CE
330
1F
100
AcDbEntity
  8
0
  6
K5LT32768
 62
    30
420
 16744448
100
AcDbSpline
210
0.0
220
0.0
230
1.0
 70
     8
 71
     3
 72
    26
 73
    22
 74
     0
 42
0.0
 43
0.0
 12
1.0
 22
0.0
 32
0.0
 13
1.0
 23
0.0
 33
0.0
 40
0.0
 40
0.0
 40
0.0
 40
0.0
 40
1.0
 40
1.0
 40
1.0
 40
2.0
 40
2.0
 40
2.0
 40
3.0
 40
3.0
 40
3.0
 40
4.0
 40
4.0
 40
4.0
 40
5.0
 40
5.0
 40
5.0
 40
6.0
 40
6.0
 40
6.0
 40
7.0
 40
7.0
 40
7.0
 40
7.0
 10
118.8644729750833
 20
28.61342277378734
 30
0.0
 10
116.0290017521482
 20
29.3839051818602
 30
0.0
 10
113.4054991657037
 20
29.455757175271
 30
0.0
 10
110.9939652157497
 20
28.82897875401974
 30
0.0
 10
107.9193181507783
 20
28.02985152907468
 30
0.0
 10
104.8570925118584
 20
25.51246460712562
 30
0.0
 10
102.8037290800621
 20
23.0245940143803
 30
0.0
 10
100.6774519057587
 20
20.44838058228101
 30
0.0
 10
99.63679784746179
 20
16.80160913978944
 30
0.0
 10
98.6017818452311
 20
13.51679815251692
 30
0.0
 10
97.58238839879957
 20
10.28156817928449
 30
0.0
 10
98.283743789461
 20
6.309703257200104
 30
0.0
 10
96.60763739480282
 20
3.474856455717404
 30
0.0
 10
95.56371189862114
 20
1.709235333294309
 30
0.0
 10
94.16670768409736
 20
-0.7519066212757402
 30
0.0
 10
92.2988609929846
 20
-1.225626891720667
 30
0.0
 10
91.21083304051334
 20
-1.501570789230406
 30
0.0
 10
89.5116605630812
 20
-1.572637855684194
 30
0.0
 10
88.59544987076066
 20
-0.9407491130880565
 30
0.0
 10
87.90353637596016
 20
-0.4635528176514327
 30
0.0
 10
87.39313035591007
 20
0.3198610735882461
 30
0.0
 10
87.06423181061038
 20
1.40949256063098
 30
0.0
  0
SPLINE
  5
1CF
330
1F
100
AcDbEntity
  8
0
  6
K5LT32768
 62
    30
420
 16744448
100
AcDbSpline
210
0.0
220
0.0
230
1.0
 70
     8
 71
     3
 72
    26
 73
    22
 74
     0
 42
0.0
 43
0.0
 12
1.0
 22
0.0
 32
0.0
 13
1.0
 23
0.0
 33
0.0
 40
0.0
 40
0.0
 40
0.0
 40
0.0
 40
1.0
 40
1.0
 40
1.0
 40
2.0
 40
2.0
 40
2.0
 40
3.0
 40
3.0
 40
3.0
 40
4.0
 40
4.0
 40
4.0
 40
5.0
 40
5.0
 40
5.0
 40
6.0
 40
6.0
 40
6.0
 40
7.0
 40
7.0
 40
7.0
 40
7.0
 10
87.06423181061038
 20
1.40949256063098
 30
0.0
 10
87.8012161019541
 20
0.7200549088526026
 30
0.0
 10
88.48967073364955
 20
0.3876975004478904
 30
0.0
 10
89.1295957056968
 20
0.4124203354168436
 30
0.0
 10
89.9885819933051
 20
0.4456063762134596
 30
0.0
 10
91.15829146418704
 20
1.609595403481782
 30
0.0
 10
91.44422765708677
 20
2.442174508174194
 30
0.0
 10
91.74989352399044
 20
3.33220179440483
 30
0.0
 10
91.31585959368974
 20
4.988186463157593
 30
0.0
 10
90.69642348817615
 20
5.647049517791062
 30
0.0
 10
89.91245054152125
 20
6.480922141271387
 30
0.0
 10
87.75249583866977
 20
6.542974492002167
 30
0.0
 10
86.56569569800331
 20
6.181195352727205
 30
0.0
 10
85.15916193145372
 20
5.752433543567221
 30
0.0
 10
83.57733894620034
 20
3.99478769767052
 30
0.0
 10
83.14716235441199
 20
2.620223119819574
 30
0.0
 10
82.64138193158135
 20
1.004077874669796
 30
0.0
 10
83.4040612388329
 20
-1.812251931076577
 30
0.0
 10
84.57155124757503
 20
-3.006113008174482
 30
0.0
 10
85.75141357287714
 20
-4.21262586564214
 30
0.0
 10
87.6387288563182
 20
-4.723031885692234
 30
0.0
 10
90.23349709789818
 20
-4.537331068324763
 30
0.0
  0
SPLINE
  5
1D0
330
1F
100
AcDbEntity
  8
0
  6
K5LT32768
 62
    30
420
 16744448
100
AcDbSpline
210
0.0
220
0.0
230
1.0
 70
     8
 71
     3
 72
    23
 73
    19
 74
     0
 42
0.0
 43
0.0
 12
1.0
 22
0.0
 32
0.0
 13
1.0
 23
0.0
 33
0.0
 40
0.0
 40
0.0
 40
0.0
 40
0.0
 40
1.0
 40
1.0
 40
1.0
 40
2.0
 40
2.0
 40
2.0
 40
3.0
 40
3.0
 40
3.0
 40
4.0
 40
4.0
 40
4.0
 40
5.0
 40
5.0
 40
5.0
 40
6.0
 40
6.0
 40
6.0
 40
6.0
 10
118.0546631000022
 20
14.48595418967689
 30
0.0
 10
119.0327774895308
 20
14.13297024807772
 30
0.0
 10
119.8731669698911
 20
14.07599469008719
 30
0.0
 10
120.5758315410831
 20
14.31502751570531
 30
0.0
 10
121.6215407956772
 20
14.67075747299716
 30
0.0
 10
122.4094230611475
 20
16.25155943722502
 30
0.0
 10
122.7978783027137
 20
17.34897597870089
 30
0.0
 10
123.4365034437334
 20
19.15314211823274
 30
0.0
 10
122.952459779874
 20
22.00367495100846
 30
0.0
 10
121.8577815958699
 20
23.45960457318493
 30
0.0
 10
120.7849717144578
 20
24.88644920034136
 30
0.0
 10
118.1938825034391
 20
26.07578238799259
 30
0.0
 10
116.3881280287793
 20
26.06623635125156
 30
0.0
 10
114.4740697201605
 20
26.05611777134773
 30
0.0
 10
111.8793722576272
 20
24.58569392670219
 30
0.0
 10
110.7048161192242
 20
23.07501955674888
 30
0.0
 10
109.3210211315377
 20
21.29522925740197
 30
0.0
 10
108.9364361151016
 20
18.80254859531641
 30
0.0
 10
109.551061069916
 20
15.59697757049217
 30
0.0
  0
SPLINE
  5
1D1
330
1F
100
AcDbEntity
  8
0
  6
K5LT32768
 62
    30
420
 16744448
100
AcDbSpline
210
0.0
220
0.0
230
1.0
 70
     8
 71
     3
 72
    29
 73
    25
 74
     0
 42
0.0
 43
0.0
 12
1.0
 22
0.0
 32
0.0
 13
1.0
 23
0.0
 33
0.0
 40
0.0
 40
0.0
 40
0.0
 40
0.0
 40
1.0
 40
1.0
 40
1.0
 40
2.0
 40
2.0
 40
2.0
 40
3.0
 40
3.0
 40
3.0
 40
4.0
 40
4.0
 40
4.0
 40
5.0
 40
5.0
 40
5.0
 40
6.0
 40
6.0
 40
6.0
 40
7.0
 40
7.0
 40
7.0
 40
8.0
 40
8.0
 40
8.0
 40
8.0
 10
118.0546631000022
 20
14.48595418967689
 30
0.0
 10
119.6043917818397
 20
14.89025041637078
 30
0.0
 10
120.5872201571763
 20
15.48849377527132
 30
0.0
 10
121.003148226012
 20
16.2806842663785
 30
0.0
 10
121.6094268363572
 20
17.43542275618882
 30
0.0
 10
120.3363966652179
 20
20.17029837393719
 30
0.0
 10
119.2084181493104
 20
20.981167800597
 30
0.0
 10
118.0395252158215
 20
21.82144935688384
 30
0.0
 10
115.1684742068228
 20
21.81312401190149
 30
0.0
 10
113.9951545931772
 20
21.06663113758279
 30
0.0
 10
112.6080368720653
 20
20.18411499909102
 30
0.0
 10
111.8233942827603
 20
16.91601154332075
 30
0.0
 10
112.2004245164756
 20
15.16966088556322
 30
0.0
 10
112.5889836701598
 20
13.3699099029231
 30
0.0
 10
114.6953499151972
 20
11.32795661501312
 30
0.0
 10
116.4735913657651
 20
10.46917735134472
 30
0.0
 10
118.1316206006934
 20
9.668453059906314
 30
0.0
 10
120.7732498601683
 20
9.19457246627422
 30
0.0
 10
122.3705616177847
 20
9.913665660937074
 30
0.0
 10
123.7604942245923
 20
10.53939891171263
 30
0.0
 10
124.9497760092478
 20
12.32856436083487
 30
0.0
 10
125.7036317602305
 20
13.84497916228346
 30
0.0
 10
126.0752838812383
 20
14.59257414521115
 30
0.0
 10
126.3601261896846
 20
15.39023195707854
 30
0.0
 10
126.5581586855695
 20
16.23795259788561
 30
0.0
  0
LINE
  5
1D2
330
1F
100
AcDbEntity
  8
0
  6
K5LT32768
 62
    30
420
 16744448
100
AcDbLine
 10
126.5581586855695
 20
22.4192287452023
 30
0.0
 11
126.5581586855695
 21
49.27108024696264
 31
0.0
  0
SPLINE
  5
1D3
330
1F
100
AcDbEntity
  8
0
  6
K5LT32768
 62
    30
420
 16744448
100
AcDbSpline
210
0.0
220
0.0
230
1.0
 70
     8
 71
     3
 72
    11
 73
     7
 74
     0
 42
0.0
 43
0.0
 12
1.0
 22
0.0
 32
0.0
 13
1.0
 23
0.0
 33
0.0
 40
0.0
 40
0.0
 40
0.0
 40
0.0
 40
1.0
 40
1.0
 40
1.0
 40
2.0
 40
2.0
 40
2.0
 40
2.0
 10
109.551061069916
 20
15.59697757049217
 30
0.0
 10
108.4910148254542
 20
16.22351090509008
 30
0.0
 10
107.7187776233082
 20
17.00188404157091
 30
0.0
 10
107.234349463478
 20
17.93209697993466
 30
0.0
 10
106.7665787366703
 20
18.830323834494
 30
0.0
 10
106.5671642837035
 20
19.87012776782112
 30
0.0
 10
106.6361061045774
 20
21.05150877991603
 30
0.0
  0
SPLINE
  5
1D4
330
1F
100
AcDbEntity
  8
0
  6
K5LT32768
 62
    30
420
 16744448
100
AcDbSpline
210
0.0
220
0.0
230
1.0
 70
     8
 71
     3
 72
    17
 73
    13
 74
     0
 42
0.0
 43
0.0
 12
1.0
 22
0.0
 32
0.0
 13
1.0
 23
0.0
 33
0.0
 40
0.0
 40
0.0
 40
0.0
 40
0.0
 40
1.0
 40
1.0
 40
1.0
 40
2.0
 40
2.0
 40
2.0
 40
3.0
 40
3.0
 40
3.0
 40
4.0
 40
4.0
 40
4.0
 40
4.0
 10
106.6361061045774
 20
21.05150877991603
 30
0.0
 10
106.0043038789183
 20
18.51612411076258
 30
0.0
 10
105.9615722104254
 20
16.16588234365333
 30
0.0
 10
106.5079110990987
 20
14.00078347858828
 30
0.0
 10
107.2807069866388
 20
10.93825299846323
 30
0.0
 10
109.6285171933215
 20
7.264664579432255
 30
0.0
 10
112.3621496826254
 20
5.92449813343104
 30
0.0
 10
114.3640919687511
 20
4.943043644140904
 30
0.0
 10
117.4641699573808
 20
4.438444512978256
 30
0.0
 10
119.6265333264176
 20
5.155328100558922
 30
0.0
 10
121.2028540092849
 20
5.677922241068643
 30
0.0
 10
122.6414868485458
 20
6.717726174395766
 30
0.0
 10
123.9424318442001
 20
8.27473990054029
 30
0.0
  0
SPLINE
  5
1D5
330
1F
100
AcDbEntity
  8
0
  6
K5LT32768
 62
    30
420
 16744448
100
AcDbSpline
210
0.0
220
0.0
230
1.0
 70
     8
 71
     3
 72
    11
 73
     7
 74
     0
 42
0.0
 43
0.0
 12
1.0
 22
0.0
 32
0.0
 13
1.0
 23
0.0
 33
0.0
 40
0.0
 40
0.0
 40
0.0
 40
0.0
 40
1.0
 40
1.0
 40
1.0
 40
2.0
 40
2.0
 40
2.0
 40
2.0
 10
123.9424318442001
 20
8.27473990054029
 30
0.0
 10
123.9244623358222
 20
6.794342414366475
 30
0.0
 10
123.6110967668743
 20
5.483904580584347
 30
0.0
 10
123.0023351373564
 20
4.343426399193905
 30
0.0
 10
122.2467151794786
 20
2.927818000771762
 30
0.0
 10
121.0359845721799
 20
1.774062951463586
 30
0.0
 10
119.3701433154603
 20
0.8821612512693751
 30
0.0
  0
SPLINE
  5
1D6
330
1F
100
AcDbEntity
  8
0
  6
K5LT32768
 62
    30
420
 16744448
100
AcDbSpline
210
0.0
220
0.0
230
1.0
 70
     8
 71
     3
 72
    14
 73
    10
 74
     0
 42
0.0
 43
0.0
 12
1.0
 22
0.0
 32
0.0
 13
1.0
 23
0.0
 33
0.0
 40
0.0
 40
0.0
 40
0.0
 40
0.0
 40
1.0
 40
1.0
 40
1.0
 40
2.0
 40
2.0
 40
2.0
 40
3.0
 40
3.0
 40
3.0
 40
3.0
 10
119.3701433154603
 20
0.8821612512693751
 30
0.0
 10
120.6431018017602
 20
0.4330684774572831
 30
0.0
 10
121.7398812930778
 20
-0.2079065499361494
 30
0.0
 10
122.6604817894132
 20
-1.040763830910922
 30
0.0
 10
123.6456576510957
 20
-1.932041744304475
 30
0.0
 10
124.3801156878783
 20
-3.183411034005135
 30
0.0
 10
125.0107235565225
 20
-4.373833973356767
 30
0.0
 10
125.7196585299531
 20
-5.712118027272655
 30
0.0
 10
126.2354702396354
 20
-7.150750866533469
 30
0.0
 10
126.5581586855695
 20
-8.689732491139207
 30
0.0
  0
SPLINE
  5
1D7
330
1F
100
AcDbEntity
  8
0
  6
K5LT32768
 62
    30
420
 16744448
100
AcDbSpline
210
0.0
220
0.0
230
1.0
 70
     8
 71
     3
 72
    11
 73
     7
 74
     0
 42
0.0
 43
0.0
 12
1.0
 22
0.0
 32
0.0
 13
1.0
 23
0.0
 33
0.0
 40
0.0
 40
0.0
 40
0.0
 40
0.0
 40
1.0
 40
1.0
 40
1.0
 40
2.0
 40
2.0
 40
2.0
 40
2.0
 10
101.7646958963874
 20
9.813079966284525
 30
0.0
 10
101.7180596347085
 20
8.134390722724934
 30
0.0
 10
101.4759135132487
 20
6.510587319994905
 30
0.0
 10
101.0382575320081
 20
4.941669758094445
 30
0.0
 10
100.5890266849215
 20
3.331258394942043
 30
0.0
 10
99.93380776803048
 20
1.778674439700173
 30
0.0
 10
99.07260078133493
 20
0.2839178923688372
 30
0.0
  0
SPLINE
  5
1D8
330
1F
100
AcDbEntity
  8
0
  6
K5LT32768
 62
    30
420
 16744448
100
AcDbSpline
210
0.0
220
0.0
230
1.0
 70
     8
 71
     3
 72
    11
 73
     7
 74
     0
 42
0.0
 43
0.0
 12
1.0
 22
0.0
 32
0.0
 13
1.0
 23
0.0
 33
0.0
 40
0.0
 40
0.0
 40
0.0
 40
0.0
 40
1.0
 40
1.0
 40
1.0
 40
2.0
 40
2.0
 40
2.0
 40
2.0
 10
101.7646958963874
 20
9.813079966284525
 30
0.0
 10
102.0220082531475
 20
8.486481887431832
 30
0.0
 10
102.506300496067
 20
7.318482948626024
 30
0.0
 10
103.2175726251458
 20
6.309083149867099
 30
0.0
 10
103.9037138684197
 20
5.33534777550651
 30
0.0
 10
104.8010789067705
 20
4.509202184643865
 30
0.0
 10
105.9096677401982
 20
3.830646377279162
 30
0.0
  0
SPLINE
  5
1D9
330
1F
100
AcDbEntity
  8
0
  6
K5LT32768
 62
    30
420
 16744448
100
AcDbSpline
210
0.0
220
0.0
230
1.0
 70
     8
 71
     3
 72
    11
 73
     7
 74
     0
 42
0.0
 43
0.0
 12
1.0
 22
0.0
 32
0.0
 13
1.0
 23
0.0
 33
0.0
 40
0.0
 40
0.0
 40
0.0
 40
0.0
 40
1.0
 40
1.0
 40
1.0
 40
2.0
 40
2.0
 40
2.0
 40
2.0
 10
105.9096677401982
 20
3.830646377279162
 30
0.0
 10
104.4491024138404
 20
3.531277286348377
 30
0.0
 10
103.0959329115653
 20
3.032741153931263
 30
0.0
 10
101.8501592333731
 20
2.33503798002782
 30
0.0
 10
100.8558978954967
 20
1.778195831835566
 30
0.0
 10
99.9300450781506
 20
1.094489135949238
 30
0.0
 10
99.07260078133493
 20
0.2839178923688372
 30
0.0
  0
SPLINE
  5
1DA
330
1F
100
AcDbEntity
  8
0
  6
K5LT32768
 62
    30
420
 16744448
100
AcDbSpline
210
0.0
220
0.0
230
1.0
 70
     8
 71
     3
 72
    23
 73
    19
 74
     0
 42
0.0
 43
0.0
 12
1.0
 22
0.0
 32
0.0
 13
1.0
 23
0.0
 33
0.0
 40
0.0
 40
0.0
 40
0.0
 40
0.0
 40
1.0
 40
1.0
 40
1.0
 40
2.0
 40
2.0
 40
2.0
 40
3.0
 40
3.0
 40
3.0
 40
4.0
 40
4.0
 40
4.0
 40
5.0
 40
5.0
 40
5.0
 40
6.0
 40
6.0
 40
6.0
 40
6.0
 10
115.3533664771281
 20
-23.64581646365261
 30
0.0
 10
116.0544064237038
 20
-25.14768188213533
 30
0.0
 10
116.8805520145665
 20
-26.08777858897904
 30
0.0
 10
117.831803249716
 20
-26.46610658418372
 30
0.0
 10
119.3202351680411
 20
-27.05808002174779
 30
0.0
 10
121.9923779183379
 20
-25.30760050059644
 30
0.0
 10
123.2159934798209
 20
-24.11586481707447
 30
0.0
 10
125.4932423934547
 20
-21.89794697092522
 30
0.0
 10
124.9088964939479
 20
-16.57317058776235
 30
0.0
 10
124.1133585181717
 20
-13.21928935138613
 30
0.0
 10
123.2397752151752
 20
-9.536379499757231
 30
0.0
 10
120.7144188392287
 20
-5.029547120348002
 30
0.0
 10
117.5326815702658
 20
-3.177347255555693
 30
0.0
 10
115.0936589534971
 20
-1.757507407346965
 30
0.0
 10
111.4153542394578
 20
-1.093102726738512
 30
0.0
 10
108.4735678497719
 20
-1.553543852825666
 30
0.0
 10
106.8839900722578
 20
-1.802340633056843
 30
0.0
 10
105.3171622275183
 20
-2.343608433966852
 30
0.0
 10
103.7730843155534
 20
-3.177347255555693
 30
0.0
  0
SPLINE
  5
1DB
330
1F
100
AcDbEntity
  8
0
  6
K5LT32768
 62
    30
420
 16744448
100
AcDbSpline
210
0.0
220
0.0
230
1.0
 70
     8
 71
     3
 72
    11
 73
     7
 74
     0
 42
0.0
 43
0.0
 12
1.0
 22
0.0
 32
0.0
 13
1.0
 23
0.0
 33
0.0
 40
0.0
 40
0.0
 40
0.0
 40
0.0
 40
1.0
 40
1.0
 40
1.0
 40
2.0
 40
2.0
 40
2.0
 40
2.0
 10
103.7730843155534
 20
-3.177347255555693
 30
0.0
 10
104.8320055060395
 20
-3.24229264505498
 30
0.0
 10
105.7151266548927
 20
-3.541414324505249
 30
0.0
 10
106.4224477621129
 20
-4.074712293906497
 30
0.0
 10
107.1208818424734
 20
-4.601309723298436
 30
0.0
 10
107.6479057538857
 20
-5.356235866672923
 30
0.0
 10
108.0035194963501
 20
-6.339490724029956
 30
0.0
  0
SPLINE
  5
1DC
330
1F
100
AcDbEntity
  8
0
  6
K5LT32768
 62
    30
420
 16744448
100
AcDbSpline
210
0.0
220
0.0
230
1.0
 70
     8
 71
     3
 72
    20
 73
    16
 74
     0
 42
0.0
 43
0.0
 12
1.0
 22
0.0
 32
0.0
 13
1.0
 23
0.0
 33
0.0
 40
0.0
 40
0.0
 40
0.0
 40
0.0
 40
1.0
 40
1.0
 40
1.0
 40
2.0
 40
2.0
 40
2.0
 40
3.0
 40
3.0
 40
3.0
 40
4.0
 40
4.0
 40
4.0
 40
5.0
 40
5.0
 40
5.0
 40
5.0
 10
108.0035194963501
 20
-6.339490724029956
 30
0.0
 10
104.7979113275214
 20
-5.928842763631034
 30
0.0
 10
102.1770356599571
 20
-6.413135006550517
 30
0.0
 10
100.1408924936573
 20
-7.792367452788403
 30
0.0
 10
98.26057923664288
 20
-9.066044616599225
 30
0.0
 10
96.751480078316
 20
-11.65585300355805
 30
0.0
 10
95.99592064984645
 20
-13.90299604727245
 30
0.0
 10
95.2384404758183
 20
-16.15585166614388
 30
0.0
 10
95.34695829179987
 20
-18.8750742115534
 30
0.0
 10
95.61133563341039
 20
-21.29557469654337
 30
0.0
 10
95.8823900570898
 20
-23.77720704815841
 30
0.0
 10
96.7680815840358
 20
-26.24983069521392
 30
0.0
 10
97.66245572106939
 20
-28.60269000882849
 30
0.0
 10
98.78403460800081
 20
-31.55326429401818
 30
0.0
 10
100.2369113367593
 20
-34.37355441454928
 30
0.0
 10
102.0210859073447
 20
-37.06356037042179
 30
0.0
  0
SPLINE
  5
1DD
330
1F
100
AcDbEntity
  8
0
  6
K5LT32768
 62
    30
420
 16744448
100
AcDbSpline
210
0.0
220
0.0
230
1.0
 70
     8
 71
     3
 72
    20
 73
    16
 74
     0
 42
0.0
 43
0.0
 12
1.0
 22
0.0
 32
0.0
 13
1.0
 23
0.0
 33
0.0
 40
0.0
 40
0.0
 40
0.0
 40
0.0
 40
1.0
 40
1.0
 40
1.0
 40
2.0
 40
2.0
 40
2.0
 40
3.0
 40
3.0
 40
3.0
 40
4.0
 40
4.0
 40
4.0
 40
5.0
 40
5.0
 40
5.0
 40
5.0
 10
90.23349709789818
 20
-4.537331068324763
 30
0.0
 10
86.08435833956484
 20
-9.847992111560874
 30
0.0
 10
83.89848572140065
 20
-15.25382823261069
 30
0.0
 10
83.67587924340563
 20
-20.75483943147423
 30
0.0
 10
83.46324341873822
 20
-26.00945764074815
 30
0.0
 10
85.48886890157584
 20
-32.26191714447828
 30
0.0
 10
88.41197231317273
 20
-36.77921447955857
 30
0.0
 10
90.8487516976046
 20
-40.54495775631089
 30
0.0
 10
95.45879836522766
 20
-42.88159514829019
 30
0.0
 10
98.52513345463043
 20
-46.3582297860801
 30
0.0
 10
99.76167828932805
 20
-47.76023396310147
 30
0.0
 10
101.2967390564414
 20
-49.063296603871
 30
0.0
 10
102.0861056875381
 20
-50.70261591022741
 30
0.0
 10
102.8791119411089
 20
-52.34949381249427
 30
0.0
 10
103.2708188867287
 20
-54.18932946616321
 30
0.0
 10
103.2612265243976
 20
-56.22212287123424
 30
0.0
  0
SPLINE
  5
1DE
330
1F
100
AcDbEntity
  8
0
  6
K5LT32768
 62
    30
420
 16744448
100
AcDbSpline
210
0.0
220
0.0
230
1.0
 70
     8
 71
     3
 72
    11
 73
     7
 74
     0
 42
0.0
 43
0.0
 12
1.0
 22
0.0
 32
0.0
 13
1.0
 23
0.0
 33
0.0
 40
0.0
 40
0.0
 40
0.0
 40
0.0
 40
1.0
 40
1.0
 40
1.0
 40
2.0
 40
2.0
 40
2.0
 40
2.0
 10
103.2612265243976
 20
-56.22212287123424
 30
0.0
 10
104.0995649702547
 20
-55.31407196247714
 30
0.0
 10
104.5812855811096
 20
-54.36843583108379
 30
0.0
 10
104.7063883569623
 20
-53.38521447705418
 30
0.0
 10
104.8463944086091
 20
-52.28486367560853
 30
0.0
 10
104.5397551451824
 20
-51.13743933504396
 30
0.0
 10
103.7864705666821
 20
-49.94294145536044
 30
0.0
  0
SPLINE
  5
1DF
330
1F
100
AcDbEntity
  8
0
  6
K5LT32768
 62
    30
420
 16744448
100
AcDbSpline
210
0.0
220
0.0
230
1.0
 70
     8
 71
     3
 72
    20
 73
    16
 74
     0
 42
0.0
 43
0.0
 12
1.0
 22
0.0
 32
0.0
 13
1.0
 23
0.0
 33
0.0
 40
0.0
 40
0.0
 40
0.0
 40
0.0
 40
1.0
 40
1.0
 40
1.0
 40
2.0
 40
2.0
 40
2.0
 40
3.0
 40
3.0
 40
3.0
 40
4.0
 40
4.0
 40
4.0
 40
5.0
 40
5.0
 40
5.0
 40
5.0
 10
103.7864705666821
 20
-49.94294145536044
 30
0.0
 10
105.3635089326971
 20
-51.03038053436985
 30
0.0
 10
106.8076809475457
 20
-52.24704599893403
 30
0.0
 10
108.1189866112276
 20
-53.59293784905294
 30
0.0
 10
109.4534746163917
 20
-54.96262348374209
 30
0.0
 10
111.0757432228498
 20
-56.35183408503036
 30
0.0
 10
111.7096334700633
 20
-58.10350249816887
 30
0.0
 10
112.0829729679302
 20
-59.13517479264745
 30
0.0
 10
112.5792165542793
 20
-60.46324173189082
 30
0.0
 10
112.2437792837744
 20
-61.45675121757742
 30
0.0
 10
112.0256621549242
 20
-62.10277792825642
 30
0.0
 10
111.5575567058295
 20
-63.14419260744767
 30
0.0
 10
110.9380895169251
 20
-63.23723726328107
 30
0.0
 10
110.6129609054376
 20
-63.28607193975675
 30
0.0
 10
110.2370805180113
 20
-63.19704763747156
 30
0.0
 10
109.8104483546461
 20
-62.97016435642553
 30
0.0
  0
SPLINE
  5
1E0
330
1F
100
AcDbEntity
  8
0
  6
K5LT32768
 62
    30
420
 16744448
100
AcDbSpline
210
0.0
220
0.0
230
1.0
 70
     8
 71
     3
 72
    23
 73
    19
 74
     0
 42
0.0
 43
0.0
 12
1.0
 22
0.0
 32
0.0
 13
1.0
 23
0.0
 33
0.0
 40
0.0
 40
0.0
 40
0.0
 40
0.0
 40
1.0
 40
1.0
 40
1.0
 40
2.0
 40
2.0
 40
2.0
 40
3.0
 40
3.0
 40
3.0
 40
4.0
 40
4.0
 40
4.0
 40
5.0
 40
5.0
 40
5.0
 40
6.0
 40
6.0
 40
6.0
 40
6.0
 10
109.8104483546461
 20
-62.97016435642553
 30
0.0
 10
110.3585291299689
 20
-62.44677539499684
 30
0.0
 10
110.6651683933956
 20
-61.93241275957134
 30
0.0
 10
110.7303661449263
 20
-61.42707645014903
 30
0.0
 10
110.8409149669061
 20
-60.57023196703923
 30
0.0
 10
109.7199067589006
 20
-59.13930010369877
 30
0.0
 10
108.9795548666511
 20
-58.93439598616391
 30
0.0
 10
108.1957559668962
 20
-58.71746722085602
 30
0.0
 10
106.5213722903955
 20
-59.64929290414559
 30
0.0
 10
106.1011024260968
 20
-60.38845959015522
 30
0.0
 10
105.5897752692746
 20
-61.28777698614731
 30
0.0
 10
106.1828858311104
 20
-63.26954493076498
 30
0.0
 10
106.9616706815202
 20
-64.21650458841809
 30
0.0
 10
107.4224925987512
 20
-64.77683876126495
 30
0.0
 10
108.1329953821561
 20
-65.38046306469971
 30
0.0
 10
108.8608557969375
 20
-65.55186912269583
 30
0.0
 10
109.2055803200472
 20
-65.63304934681693
 30
0.0
 10
109.5715691183307
 20
-65.65283252510253
 30
0.0
 10
109.9588221917881
 20
-65.61121865755263
 30
0.0
  0
SPLINE
  5
1E1
330
1F
100
AcDbEntity
  8
0
  6
K5LT32768
 62
    30
420
 16744448
100
AcDbSpline
210
0.0
220
0.0
230
1.0
 70
     8
 71
     3
 72
    20
 73
    16
 74
     0
 42
0.0
 43
0.0
 12
1.0
 22
0.0
 32
0.0
 13
1.0
 23
0.0
 33
0.0
 40
0.0
 40
0.0
 40
0.0
 40
0.0
 40
1.0
 40
1.0
 40
1.0
 40
2.0
 40
2.0
 40
2.0
 40
3.0
 40
3.0
 40
3.0
 40
4.0
 40
4.0
 40
4.0
 40
5.0
 40
5.0
 40
5.0
 40
5.0
 10
115.3533664771281
 20
-23.64581646365261
 30
0.0
 10
117.063197568222
 20
-24.16580059915769
 30
0.0
 10
118.4296886423945
 20
-24.16302966398427
 30
0.0
 10
119.4528396996459
 20
-23.63750365813236
 30
0.0
 10
120.8765474928399
 20
-22.90623776659578
 30
0.0
 10
121.6473814147532
 20
-20.09921515371456
 30
0.0
 10
121.7295831778866
 20
-18.40714701893058
 30
0.0
 10
121.8626759330733
 20
-15.66752196178341
 30
0.0
 10
119.1619810848898
 20
-11.92322689449405
 30
0.0
 10
116.806894576285
 20
-10.59237886388792
 30
0.0
 10
114.4217369432534
 20
-9.244537785860729
 30
0.0
 10
110.1803661642837
 20
-9.354923533855763
 30
0.0
 10
107.4537862332418
 20
-10.46931164884788
 30
0.0
 10
105.5376872702887
 20
-11.25244581893165
 30
0.0
 10
103.8147462597281
 20
-12.60618518437212
 30
0.0
 10
102.28496320156
 20
-14.53052974516926
 30
0.0
  0
SPLINE
  5
1E2
330
1F
100
AcDbEntity
  8
0
  6
K5LT32768
 62
    30
420
 16744448
100
AcDbSpline
210
0.0
220
0.0
230
1.0
 70
     8
 71
     3
 72
    11
 73
     7
 74
     0
 42
0.0
 43
0.0
 12
1.0
 22
0.0
 32
0.0
 13
1.0
 23
0.0
 33
0.0
 40
0.0
 40
0.0
 40
0.0
 40
0.0
 40
1.0
 40
1.0
 40
1.0
 40
2.0
 40
2.0
 40
2.0
 40
2.0
 10
102.28496320156
 20
-14.53052974516926
 30
0.0
 10
102.1080576364995
 20
-13.71873241009801
 30
0.0
 10
101.7866539937943
 20
-13.04743305464151
 30
0.0
 10
101.3207522734444
 20
-12.51663167879976
 30
0.0
 10
100.6884305219315
 20
-11.79622812367726
 30
0.0
 10
99.78994454382992
 20
-11.33462064868931
 30
0.0
 10
98.6252943391398
 20
-11.13180925383593
 30
0.0
  0
SPLINE
  5
1E3
330
1F
100
AcDbEntity
  8
0
  6
K5LT32768
 62
    30
420
 16744448
100
AcDbSpline
210
0.0
220
0.0
230
1.0
 70
     8
 71
     3
 72
    23
 73
    19
 74
     0
 42
0.0
 43
0.0
 12
1.0
 22
0.0
 32
0.0
 13
1.0
 23
0.0
 33
0.0
 40
0.0
 40
0.0
 40
0.0
 40
0.0
 40
1.0
 40
1.0
 40
1.0
 40
2.0
 40
2.0
 40
2.0
 40
3.0
 40
3.0
 40
3.0
 40
4.0
 40
4.0
 40
4.0
 40
5.0
 40
5.0
 40
5.0
 40
6.0
 40
6.0
 40
6.0
 40
6.0
 10
98.6252943391398
 20
-11.13180925383593
 30
0.0
 10
99.16191984212237
 20
-11.9610402133949
 30
0.0
 10
99.54109741086245
 20
-12.81831123837251
 30
0.0
 10
99.7628270453601
 20
-13.70362232876876
 30
0.0
 10
100.1594479865299
 20
-15.28723075664767
 30
0.0
 10
99.62073422813936
 20
-17.05773660439018
 30
0.0
 10
99.4413504109935
 20
-18.72360361926266
 30
0.0
 10
99.29792987151629
 20
-20.05549380741718
 30
0.0
 10
98.94924449289843
 20
-21.37376035078109
 30
0.0
 10
98.87258405788336
 20
-22.70496809103368
 30
0.0
 10
98.75729189282754
 20
-24.70701546374413
 30
0.0
 10
98.87585314889196
 20
-26.78089883017614
 30
0.0
 10
99.29297657974737
 20
-28.7388372283761
 30
0.0
 10
99.59391839509229
 20
-30.15142998222698
 30
0.0
 10
100.1754210405929
 20
-31.51103756335499
 30
0.0
 10
100.6283410609625
 20
-32.8933045032676
 30
0.0
 10
101.0846728828807
 20
-34.28598392281055
 30
0.0
 10
101.5489211650081
 20
-35.67606921186195
 30
0.0
 10
102.0210859073447
 20
-37.06356037042179
 30
0.0
  0
SPLINE
  5
1E4
330
1F
100
AcDbEntity
  8
0
  6
K5LT32768
 62
    30
420
 16744448
100
AcDbSpline
210
0.0
220
0.0
230
1.0
 70
     8
 71
     3
 72
    20
 73
    16
 74
     0
 42
0.0
 43
0.0
 12
1.0
 22
0.0
 32
0.0
 13
1.0
 23
0.0
 33
0.0
 40
0.0
 40
0.0
 40
0.0
 40
0.0
 40
1.0
 40
1.0
 40
1.0
 40
2.0
 40
2.0
 40
2.0
 40
3.0
 40
3.0
 40
3.0
 40
4.0
 40
4.0
 40
4.0
 40
5.0
 40
5.0
 40
5.0
 40
5.0
 10
117.2821777047623
 20
-16.52114135647715
 30
0.0
 10
115.1862814122329
 20
-15.18889981844714
 30
0.0
 10
113.2752263139058
 20
-14.64288407606796
 30
0.0
 10
111.549012409781
 20
-14.88309412933964
 30
0.0
 10
109.1336220825383
 20
-15.21920603168991
 30
0.0
 10
106.6143545367318
 20
-18.26898459896307
 30
0.0
 10
105.3885304468508
 20
-20.5094302573337
 30
0.0
 10
103.5730183648061
 20
-23.8276520115917
 30
0.0
 10
104.6431557607024
 20
-28.87660001209348
 30
0.0
 10
105.3885304468508
 20
-32.86600390552318
 30
0.0
 10
106.0319613241222
 20
-36.30978284602263
 30
0.0
 10
107.1891614892882
 20
-39.90782721626559
 30
0.0
 10
108.9851124020875
 20
-42.9079456023227
 30
0.0
 10
110.5497870252864
 20
-45.52171921484265
 30
0.0
 10
112.5676712906007
 20
-47.87196088856169
 30
0.0
 10
115.0387651980305
 20
-49.95867062347981
 30
0.0
  0
SPLINE
  5
1E5
330
1F
100
AcDbEntity
  8
0
  6
K5LT32768
 62
    30
420
 16744448
100
AcDbSpline
210
0.0
220
0.0
230
1.0
 70
     8
 71
     3
 72
    23
 73
    19
 74
     0
 42
0.0
 43
0.0
 12
1.0
 22
0.0
 32
0.0
 13
1.0
 23
0.0
 33
0.0
 40
0.0
 40
0.0
 40
0.0
 40
0.0
 40
1.0
 40
1.0
 40
1.0
 40
2.0
 40
2.0
 40
2.0
 40
3.0
 40
3.0
 40
3.0
 40
4.0
 40
4.0
 40
4.0
 40
5.0
 40
5.0
 40
5.0
 40
6.0
 40
6.0
 40
6.0
 40
6.0
 10
117.2821777047623
 20
-16.52114135647715
 30
0.0
 10
115.0926417162355
 20
-16.47046889912834
 30
0.0
 10
113.466464396541
 20
-16.95713510429238
 30
0.0
 10
112.4036457456788
 20
-17.98113997196928
 30
0.0
 10
111.170698155785
 20
-19.16906072648141
 30
0.0
 10
110.7511159603835
 20
-21.87775841837008
 30
0.0
 10
110.9792568525158
 20
-23.71430526695057
 30
0.0
 10
111.1859102814148
 20
-25.3778768434689
 30
0.0
 10
112.1005388925837
 20
-27.39406469876358
 30
0.0
 10
113.3294985262348
 20
-28.52161778137587
 30
0.0
 10
114.488317086343
 20
-29.58481742102263
 30
0.0
 10
116.4076889811158
 20
-30.30302441934872
 30
0.0
 10
117.9943721513438
 20
-30.44454278714599
 30
0.0
 10
119.8388171225594
 20
-30.60905127045006
 30
0.0
 10
122.1662217633997
 20
-30.00387611677
 30
0.0
 10
123.656318001667
 20
-28.91332472699571
 30
0.0
 10
124.9005500148149
 20
-28.00271310588453
 30
0.0
 10
125.8678302427824
 20
-26.68760855382896
 30
0.0
 10
126.5581586855695
 20
-24.96801107082901
 30
0.0
  0
SPLINE
  5
1E6
330
1F
100
AcDbEntity
  8
0
  6
K5LT32768
 62
    30
420
 16744448
100
AcDbSpline
210
0.0
220
0.0
230
1.0
 70
     8
 71
     3
 72
    17
 73
    13
 74
     0
 42
0.0
 43
0.0
 12
1.0
 22
0.0
 32
0.0
 13
1.0
 23
0.0
 33
0.0
 40
0.0
 40
0.0
 40
0.0
 40
0.0
 40
1.0
 40
1.0
 40
1.0
 40
2.0
 40
2.0
 40
2.0
 40
3.0
 40
3.0
 40
3.0
 40
4.0
 40
4.0
 40
4.0
 40
4.0
 10
126.5581586855695
 20
-24.96801107082901
 30
0.0
 10
125.9461164487988
 20
-26.51450114771417
 30
0.0
 10
125.97209303536
 20
-27.80224913588259
 30
0.0
 10
126.5581586855695
 20
-28.55722750370494
 30
0.0
 10
127.1220044827536
 20
-29.28358193090854
 30
0.0
 10
129.0403763588023
 20
-29.90682408758133
 30
0.0
 10
129.8771012128194
 20
-29.51052240036997
 30
0.0
 10
130.5489032875775
 20
-29.19233381732437
 30
0.0
 10
131.3154022227852
 20
-28.00150149129864
 30
0.0
 10
131.3711431448258
 20
-27.17500857562426
 30
0.0
 10
131.4184293287371
 20
-26.47387743926558
 30
0.0
 10
131.147434508985
 20
-25.73821160433383
 30
0.0
 10
130.5581586855695
 20
-24.96801107082901
 30
0.0
  0
SPLINE
  5
1E7
330
1F
100
AcDbEntity
  8
0
  6
K5LT32768
 62
    30
420
 16744448
100
AcDbSpline
210
0.0
220
0.0
230
1.0
 70
     8
 71
     3
 72
    20
 73
    16
 74
     0
 42
0.0
 43
0.0
 12
1.0
 22
0.0
 32
0.0
 13
1.0
 23
0.0
 33
0.0
 40
0.0
 40
0.0
 40
0.0
 40
0.0
 40
1.0
 40
1.0
 40
1.0
 40
2.0
 40
2.0
 40
2.0
 40
3.0
 40
3.0
 40
3.0
 40
4.0
 40
4.0
 40
4.0
 40
5.0
 40
5.0
 40
5.0
 40
5.0
 10
130.5581586855695
 20
-24.96801107082901
 30
0.0
 10
132.0305304713162
 20
-25.20268852423088
 30
0.0
 10
133.2443857600635
 20
-25.69898589962554
 30
0.0
 10
134.1997245518113
 20
-26.45690319701297
 30
0.0
 10
135.8426996329179
 20
-27.76035621692969
 30
0.0
 10
136.6167045888145
 20
-30.55970791443735
 30
0.0
 10
136.834844004163
 20
-32.68860460460132
 30
0.0
 10
137.086843059313
 20
-35.14794902695762
 30
0.0
 10
135.9926315940449
 20
-37.90617293614901
 30
0.0
 10
134.9475287207219
 20
-40.27347546069456
 30
0.0
 10
134.4660619527104
 20
-41.3640642673011
 30
0.0
 10
133.6521578743363
 20
-42.3288029296523
 30
0.0
 10
133.2382620489262
 20
-43.44274074798235
 30
0.0
 10
132.811158240638
 20
-44.5922258483301
 30
0.0
 10
132.5500202768914
 20
-45.80295640751869
 30
0.0
 10
132.4548481576866
 20
-47.07493242554813
 30
0.0
  0
SPLINE
  5
1E8
330
1F
100
AcDbEntity
  8
0
  6
K5LT32768
 62
    30
420
 16744448
100
AcDbSpline
210
0.0
220
0.0
230
1.0
 70
     8
 71
     3
 72
    17
 73
    13
 74
     0
 42
0.0
 43
0.0
 12
1.0
 22
0.0
 32
0.0
 13
1.0
 23
0.0
 33
0.0
 40
0.0
 40
0.0
 40
0.0
 40
0.0
 40
1.0
 40
1.0
 40
1.0
 40
2.0
 40
2.0
 40
2.0
 40
3.0
 40
3.0
 40
3.0
 40
4.0
 40
4.0
 40
4.0
 40
4.0
 10
132.4548481576866
 20
-47.07493242554813
 30
0.0
 10
131.6525646573691
 20
-43.54226009799167
 30
0.0
 10
130.1600744334454
 20
-41.08702370813134
 30
0.0
 10
127.9773774859155
 20
-39.70922325596713
 30
0.0
 10
125.8533932912867
 20
-38.36848450290255
 30
0.0
 10
122.4242163748753
 20
-39.05052206765568
 30
0.0
 10
119.6447024609116
 20
-38.74776075308208
 30
0.0
 10
118.066635128933
 20
-38.57586820110914
 30
0.0
 10
116.3943286957449
 20
-38.69178713146669
 30
0.0
 10
114.9086093911445
 20
-38.24922464047501
 30
0.0
 10
112.8699735844664
 20
-37.64196071246747
 30
0.0
 10
111.0063981159114
 20
-36.51431950538005
 30
0.0
 10
109.3178829854795
 20
-34.86630101921276
 30
0.0
  0
SPLINE
  5
1E9
330
1F
100
AcDbEntity
  8
0
  6
K5LT32768
 62
    30
420
 16744448
100
AcDbSpline
210
0.0
220
0.0
230
1.0
 70
     8
 71
     3
 72
    11
 73
     7
 74
     0
 42
0.0
 43
0.0
 12
1.0
 22
0.0
 32
0.0
 13
1.0
 23
0.0
 33
0.0
 40
0.0
 40
0.0
 40
0.0
 40
0.0
 40
1.0
 40
1.0
 40
1.0
 40
2.0
 40
2.0
 40
2.0
 40
2.0
 10
109.3178829854795
 20
-34.86630101921276
 30
0.0
 10
109.70768391912
 20
-36.90038070852739
 30
0.0
 10
110.4910978103597
 20
-38.59777747288003
 30
0.0
 10
111.6681246591985
 20
-39.95849131227067
 30
0.0
 10
112.799841348414
 20
-41.26682388157788
 30
0.0
 10
114.2954496862353
 20
-42.26389610679202
 30
0.0
 10
116.1549496726622
 20
-42.94970798791307
 30
0.0
  0
SPLINE
  5
1EA
330
1F
100
AcDbEntity
  8
0
  6
K5LT32768
 62
    30
420
 16744448
100
AcDbSpline
210
0.0
220
0.0
230
1.0
 70
     8
 71
     3
 72
    11
 73
     7
 74
     0
 42
0.0
 43
0.0
 12
1.0
 22
0.0
 32
0.0
 13
1.0
 23
0.0
 33
0.0
 40
0.0
 40
0.0
 40
0.0
 40
0.0
 40
1.0
 40
1.0
 40
1.0
 40
2.0
 40
2.0
 40
2.0
 40
2.0
 10
116.1549496726622
 20
-42.94970798791307
 30
0.0
 10
115.4482268910677
 20
-43.9909073606459
 30
0.0
 10
114.9961818498694
 20
-45.07469564763871
 30
0.0
 10
114.7988145490672
 20
-46.20107284889152
 30
0.0
 10
114.5878667733235
 20
-47.40495395932309
 30
0.0
 10
114.6678503229779
 20
-48.65748655085252
 30
0.0
 10
115.0387651980305
 20
-49.95867062347981
 30
0.0
  0
SPLINE
  5
1EB
330
1F
100
AcDbEntity
  8
0
  6
K5LT32768
 62
    30
420
 16744448
100
AcDbSpline
210
0.0
220
0.0
230
1.0
 70
     8
 71
     3
 72
    11
 73
     7
 74
     0
 42
0.0
 43
0.0
 12
1.0
 22
0.0
 32
0.0
 13
1.0
 23
0.0
 33
0.0
 40
0.0
 40
0.0
 40
0.0
 40
0.0
 40
1.0
 40
1.0
 40
1.0
 40
2.0
 40
2.0
 40
2.0
 40
2.0
 10
137.0249114152558
 20
-24.96801107082901
 30
0.0
 10
138.2453653674425
 20
-26.05743892114399
 30
0.0
 10
139.0999987033404
 20
-27.26960511724268
 30
0.0
 10
139.5888114229493
 20
-28.60450965912505
 30
0.0
 10
140.1759438386417
 20
-30.20791664293069
 30
0.0
 10
140.2352933758568
 20
-31.9884027593845
 30
0.0
 10
139.7668600345947
 20
-33.94596800848649
 30
0.0
  0
SPLINE
  5
1EC
330
1F
100
AcDbEntity
  8
0
  6
K5LT32768
 62
    30
420
 16744448
100
AcDbSpline
210
0.0
220
0.0
230
1.0
 70
     8
 71
     3
 72
    20
 73
    16
 74
     0
 42
0.0
 43
0.0
 12
1.0
 22
0.0
 32
0.0
 13
1.0
 23
0.0
 33
0.0
 40
0.0
 40
0.0
 40
0.0
 40
0.0
 40
1.0
 40
1.0
 40
1.0
 40
2.0
 40
2.0
 40
2.0
 40
3.0
 40
3.0
 40
3.0
 40
4.0
 40
4.0
 40
4.0
 40
5.0
 40
5.0
 40
5.0
 40
5.0
 10
139.7668600345947
 20
-33.94596800848649
 30
0.0
 10
142.1745732807541
 20
-31.5309357845602
 30
0.0
 10
144.8397208560926
 20
-29.85599475930337
 30
0.0
 10
147.7623027606102
 20
-28.92114493271601
 30
0.0
 10
150.1089546527811
 20
-28.17051853929799
 30
0.0
 10
152.9043401400655
 20
-27.70740528094369
 30
0.0
 10
155.3001693822848
 20
-28.10069686505075
 30
0.0
 10
157.8798238383076
 20
-28.52416460205784
 30
0.0
 10
161.4454141137846
 20
-29.66258700902216
 30
0.0
 10
162.6329239870432
 20
-31.69015716108629
 30
0.0
 10
163.6188414337146
 20
-33.37352572271747
 30
0.0
 10
163.8964598788346
 20
-36.68655904808322
 30
0.0
 10
162.9918700166467
 20
-38.45885371932474
 30
0.0
 10
162.6859908965222
 20
-39.05813960268597
 30
0.0
 10
162.16983960364
 20
-39.69345920869267
 30
0.0
 10
161.5492783312286
 20
-40.26098935313523
 30
0.0
  0
SPLINE
  5
1ED
330
1F
100
AcDbEntity
  8
0
  6
K5LT32768
 62
    30
420
 16744448
100
AcDbSpline
210
0.0
220
0.0
230
1.0
 70
     8
 71
     3
 72
    17
 73
    13
 74
     0
 42
0.0
 43
0.0
 12
1.0
 22
0.0
 32
0.0
 13
1.0
 23
0.0
 33
0.0
 40
0.0
 40
0.0
 40
0.0
 40
0.0
 40
1.0
 40
1.0
 40
1.0
 40
2.0
 40
2.0
 40
2.0
 40
3.0
 40
3.0
 40
3.0
 40
4.0
 40
4.0
 40
4.0
 40
4.0
 10
159.0434636910076
 20
-36.35645554593249
 30
0.0
 10
159.3421775432639
 20
-35.24914653232942
 30
0.0
 10
159.3421775432639
 20
-34.34323512428235
 30
0.0
 10
159.0434636910076
 20
-33.63872132179129
 30
0.0
 10
158.502367736749
 20
-32.36255161835108
 30
0.0
 10
155.9943850698027
 20
-31.87135386147271
 30
0.0
 10
154.4797213146196
 20
-31.79271316954445
 30
0.0
 10
152.4163837573047
 20
-31.68558556935361
 30
0.0
 10
150.0104955096022
 20
-33.13325362402075
 30
0.0
 10
148.3263608071301
 20
-34.45916938945656
 30
0.0
 10
146.2441216497778
 20
-36.09851196822333
 30
0.0
 10
144.7228741909818
 20
-38.4060221585319
 30
0.0
 10
143.762618430742
 20
-41.38169996038225
 30
0.0
  0
SPLINE
  5
1EE
330
1F
100
AcDbEntity
  8
0
  6
K5LT32768
 62
    30
420
 16744448
100
AcDbSpline
210
0.0
220
0.0
230
1.0
 70
     8
 71
     3
 72
    11
 73
     7
 74
     0
 42
0.0
 43
0.0
 12
1.0
 22
0.0
 32
0.0
 13
1.0
 23
0.0
 33
0.0
 40
0.0
 40
0.0
 40
0.0
 40
0.0
 40
1.0
 40
1.0
 40
1.0
 40
2.0
 40
2.0
 40
2.0
 40
2.0
 10
143.762618430742
 20
-41.38169996038225
 30
0.0
 10
144.7700696597415
 20
-40.45281940158007
 30
0.0
 10
145.8497568769197
 20
-39.87166852397546
 30
0.0
 10
147.0016800822766
 20
-39.63824732756843
 30
0.0
 10
148.1162907926568
 20
-39.41238698867159
 30
0.0
 10
149.2985336209602
 20
-39.51209421515502
 30
0.0
 10
150.5484085671869
 20
-39.9373690070187
 30
0.0
  0
SPLINE
  5
1EF
330
1F
100
AcDbEntity
  8
0
  6
K5LT32768
 62
    30
420
 16744448
100
AcDbSpline
210
0.0
220
0.0
230
1.0
 70
     8
 71
     3
 72
     8
 73
     4
 74
     0
 42
0.0
 43
0.0
 12
1.0
 22
0.0
 32
0.0
 13
1.0
 23
0.0
 33
0.0
 40
0.0
 40
0.0
 40
0.0
 40
0.0
 40
1.0
 40
1.0
 40
1.0
 40
1.0
 10
150.5484085671869
 20
-39.9373690070187
 30
0.0
 10
149.1012109864294
 20
-40.85185040964136
 30
0.0
 10
147.7452565019206
 20
-41.85855090234815
 30
0.0
 10
146.4805451136603
 20
-42.95747048513908
 30
0.0
  0
SPLINE
  5
1F0
330
1F
100
AcDbEntity
  8
0
  6
K5LT32768
 62
    30
420
 16744448
100
AcDbSpline
210
0.0
220
0.0
230
1.0
 70
     8
 71
     3
 72
    14
 73
    10
 74
     0
 42
0.0
 43
0.0
 12
1.0
 22
0.0
 32
0.0
 13
1.0
 23
0.0
 33
0.0
 40
0.0
 40
0.0
 40
0.0
 40
0.0
 40
1.0
 40
1.0
 40
1.0
 40
2.0
 40
2.0
 40
2.0
 40
3.0
 40
3.0
 40
3.0
 40
3.0
 10
139.7800281069773
 20
-54.08155127816706
 30
0.0
 10
140.4115922420595
 20
-52.96133875613712
 30
0.0
 10
141.1997548398134
 20
-52.21116034528299
 30
0.0
 10
142.1445159002391
 20
-51.83101604560466
 30
0.0
 10
143.0040542196637
 20
-51.48516289164726
 30
0.0
 10
144.238785675801
 20
-51.41397546527592
 30
0.0
 10
145.1119926430785
 20
-51.71231697589108
 30
0.0
 10
145.4433953411253
 20
-51.8255446358415
 30
0.0
 10
145.7930918880295
 20
-52.00955927970809
 30
0.0
 10
146.1215092693766
 20
-52.23935271299958
 30
0.0
  0
SPLINE
  5
1F1
330
1F
100
AcDbEntity
  8
0
  6
K5LT32768
 62
    30
420
 16744448
100
AcDbSpline
210
0.0
220
0.0
230
1.0
 70
     8
 71
     3
 72
    23
 73
    19
 74
     0
 42
0.0
 43
0.0
 12
1.0
 22
0.0
 32
0.0
 13
1.0
 23
0.0
 33
0.0
 40
0.0
 40
0.0
 40
0.0
 40
0.0
 40
1.0
 40
1.0
 40
1.0
 40
2.0
 40
2.0
 40
2.0
 40
3.0
 40
3.0
 40
3.0
 40
4.0
 40
4.0
 40
4.0
 40
5.0
 40
5.0
 40
5.0
 40
6.0
 40
6.0
 40
6.0
 40
6.0
 10
147.6046731070636
 20
-56.2525563924354
 30
0.0
 10
147.4207355682878
 20
-55.46240045117785
 30
0.0
 10
147.0844215374326
 20
-54.90847145918117
 30
0.0
 10
146.5957310144982
 20
-54.59076941644533
 30
0.0
 10
146.0998069360573
 20
-54.26836477512658
 30
0.0
 10
145.1100760029272
 20
-54.10288842709508
 30
0.0
 10
144.6371963642242
 20
-54.35337127701817
 30
0.0
 10
144.1472914227548
 20
-54.61287237600229
 30
0.0
 10
143.8184730827407
 20
-55.57865572994698
 30
0.0
 10
143.7469533413723
 20
-56.19320685757861
 30
0.0
 10
143.6322189431905
 20
-57.17909064898733
 30
0.0
 10
144.4363597107446
 20
-58.46519755702354
 30
0.0
 10
145.1416674105069
 20
-59.16068360041803
 30
0.0
 10
146.1866815810271
 20
-60.19114558316849
 30
0.0
 10
148.2684482459662
 20
-60.05621174541193
 30
0.0
 10
149.8599554316216
 20
-60.31799953012541
 30
0.0
 10
150.3452695189262
 20
-60.39782907846226
 30
0.0
 10
150.8443694095542
 20
-60.4207252044993
 30
0.0
 10
151.3489962711488
 20
-60.4178257964303
 30
0.0
  0
SPLINE
  5
1F2
330
1F
100
AcDbEntity
  8
0
  6
K5LT32768
 62
    30
420
 16744448
100
AcDbSpline
210
0.0
220
0.0
230
1.0
 70
     8
 71
     3
 72
    14
 73
    10
 74
     0
 42
0.0
 43
0.0
 12
1.0
 22
0.0
 32
0.0
 13
1.0
 23
0.0
 33
0.0
 40
0.0
 40
0.0
 40
0.0
 40
0.0
 40
1.0
 40
1.0
 40
1.0
 40
2.0
 40
2.0
 40
2.0
 40
3.0
 40
3.0
 40
3.0
 40
3.0
 10
164.5581586855695
 20
-72.74451221159272
 30
0.0
 10
163.9771390850744
 20
-71.01932141680032
 30
0.0
 10
163.105150147608
 20
-69.60917635653477
 30
0.0
 10
161.9421918731706
 20
-68.51407703079607
 30
0.0
 10
160.6954985478754
 20
-67.34012861842153
 30
0.0
 10
158.8686278880437
 20
-66.05311950134778
 30
0.0
 10
157.1989766704592
 20
-66.07837192670104
 30
0.0
 10
156.3258358736044
 20
-66.09157763251747
 30
0.0
 10
155.4284708352536
 20
-66.33372375397721
 30
0.0
 10
154.5068815554068
 20
-66.80481029108026
 30
0.0
  0
SPLINE
  5
1F3
330
1F
100
AcDbEntity
  8
0
  6
K5LT32768
 62
    30
420
 16744448
100
AcDbSpline
210
0.0
220
0.0
230
1.0
 70
     8
 71
     3
 72
    11
 73
     7
 74
     0
 42
0.0
 43
0.0
 12
1.0
 22
0.0
 32
0.0
 13
1.0
 23
0.0
 33
0.0
 40
0.0
 40
0.0
 40
0.0
 40
0.0
 40
1.0
 40
1.0
 40
1.0
 40
2.0
 40
2.0
 40
2.0
 40
2.0
 10
154.5068815554068
 20
-66.80481029108026
 30
0.0
 10
155.0709564559188
 20
-67.40999296985211
 30
0.0
 10
155.526760919843
 20
-68.06521188674317
 30
0.0
 10
155.8742949471794
 20
-68.77046704175345
 30
0.0
 10
156.336126163201
 20
-69.70766691349026
 30
0.0
 10
156.6067600636561
 20
-70.73322695731974
 30
0.0
 10
156.6861966485444
 20
-71.84714717324192
 30
0.0
  0
SPLINE
  5
1F4
330
1F
100
AcDbEntity
  8
0
  6
K5LT32768
 62
    30
420
 16744448
100
AcDbSpline
210
0.0
220
0.0
230
1.0
 70
     8
 71
     3
 72
    20
 73
    16
 74
     0
 42
0.0
 43
0.0
 12
1.0
 22
0.0
 32
0.0
 13
1.0
 23
0.0
 33
0.0
 40
0.0
 40
0.0
 40
0.0
 40
0.0
 40
1.0
 40
1.0
 40
1.0
 40
2.0
 40
2.0
 40
2.0
 40
3.0
 40
3.0
 40
3.0
 40
4.0
 40
4.0
 40
4.0
 40
5.0
 40
5.0
 40
5.0
 40
5.0
 10
156.6861966485444
 20
-71.84714717324192
 30
0.0
 10
155.7143921375985
 20
-70.31994131904726
 30
0.0
 10
154.5376891296526
 20
-69.10604488287902
 30
0.0
 10
153.1560876247067
 20
-68.2054578647372
 30
0.0
 10
151.792737306818
 20
-67.31676775179608
 30
0.0
 10
150.0746199895879
 20
-66.87341639425598
 30
0.0
 10
148.4674743710204
 20
-66.45464658646193
 30
0.0
 10
147.0951504436368
 20
-66.09706366388035
 30
0.0
 10
145.4961133382823
 20
-66.32662166890171
 30
0.0
 10
144.2536573961884
 20
-65.74245216818048
 30
0.0
 10
143.0300129967449
 20
-65.16712735088473
 30
0.0
 10
141.9404151440274
 20
-64.06371276041918
 30
0.0
 10
141.054554584007
 20
-63.00742713541071
 30
0.0
 10
139.9317594780199
 20
-61.66862463780683
 30
0.0
 10
139.0989419666631
 20
-60.09751077388777
 30
0.0
 10
138.5561020499367
 20
-58.29408554365353
 30
0.0
  0
SPLINE
  5
1F5
330
1F
100
AcDbEntity
  8
0
  6
K5LT32768
 62
    30
420
 16744448
100
AcDbSpline
210
0.0
220
0.0
230
1.0
 70
     8
 71
     3
 72
    20
 73
    16
 74
     0
 42
0.0
 43
0.0
 12
1.0
 22
0.0
 32
0.0
 13
1.0
 23
0.0
 33
0.0
 40
0.0
 40
0.0
 40
0.0
 40
0.0
 40
1.0
 40
1.0
 40
1.0
 40
2.0
 40
2.0
 40
2.0
 40
3.0
 40
3.0
 40
3.0
 40
4.0
 40
4.0
 40
4.0
 40
5.0
 40
5.0
 40
5.0
 40
5.0
 10
138.5561020499367
 20
-58.29408554365353
 30
0.0
 10
137.9445060251825
 20
-62.25506746576634
 30
0.0
 10
136.6484871674105
 20
-65.72471857961608
 30
0.0
 10
134.6680454766208
 20
-68.70303888520274
 30
0.0
 10
132.0856318576019
 20
-72.58664472662498
 30
0.0
 10
127.7879426055612
 20
-77.1456970551863
 30
0.0
 10
123.4296166629893
 20
-77.84761594268235
 30
0.0
 10
120.5852009586021
 20
-78.30571594096322
 30
0.0
 10
116.5398273938776
 20
-77.88552285820342
 30
0.0
 10
114.1141129315381
 20
-76.22381253995232
 30
0.0
 10
112.292170553293
 20
-74.97570997215506
 30
0.0
 10
110.3458508542367
 20
-72.7492473848393
 30
0.0
 10
109.7982144137557
 20
-70.58323229889014
 30
0.0
 10
109.4146395679398
 20
-69.06611466168911
 30
0.0
 10
109.4681754939506
 20
-67.40877678124328
 30
0.0
 10
109.9588221917881
 20
-65.61121865755263
 30
0.0
  0
SPLINE
  5
1F6
330
1F
100
AcDbEntity
  8
0
  6
K5LT32768
 62
    30
420
 16744448
100
AcDbSpline
210
0.0
220
0.0
230
1.0
 70
     8
 71
     3
 72
    23
 73
    19
 74
     0
 42
0.0
 43
0.0
 12
1.0
 22
0.0
 32
0.0
 13
1.0
 23
0.0
 33
0.0
 40
0.0
 40
0.0
 40
0.0
 40
0.0
 40
1.0
 40
1.0
 40
1.0
 40
2.0
 40
2.0
 40
2.0
 40
3.0
 40
3.0
 40
3.0
 40
4.0
 40
4.0
 40
4.0
 40
5.0
 40
5.0
 40
5.0
 40
6.0
 40
6.0
 40
6.0
 40
6.0
 10
118.5582064547992
 20
-48.7900813675135
 30
0.0
 10
118.3421935772726
 20
-46.25140691827173
 30
0.0
 10
118.7837541516992
 20
-44.55638406805355
 30
0.0
 10
119.882888178079
 20
-43.70501281685895
 30
0.0
 10
120.9733750845481
 20
-42.86033948340774
 30
0.0
 10
123.6791744681217
 20
-43.10276490200128
 30
0.0
 10
125.0961517342122
 20
-43.66228114836606
 30
0.0
 10
127.3887386173783
 20
-44.56754592433053
 30
0.0
 10
128.5303662439606
 20
-48.29230256734182
 30
0.0
 10
129.4547819204875
 20
-50.88393312366537
 30
0.0
 10
130.4416755556738
 20
-53.65072274627216
 30
0.0
 10
130.8119883846568
 20
-56.87574037517759
 30
0.0
 10
130.6085369697957
 20
-59.8148518386805
 30
0.0
 10
130.4148800034373
 20
-62.61247018013847
 30
0.0
 10
129.8484719228083
 20
-65.77996001927401
 30
0.0
 10
128.4292218766581
 20
-68.10479552630221
 30
0.0
 10
126.8574652544438
 20
-70.67944797295326
 30
0.0
 10
124.4360040398464
 20
-72.7163241711146
 30
0.0
 10
121.1648382328659
 20
-74.21542412078624
 30
0.0
  0
SPLINE
  5
1F7
330
1F
100
AcDbEntity
  8
0
  6
K5LT32768
 62
    30
420
 16744448
100
AcDbSpline
210
0.0
220
0.0
230
1.0
 70
     8
 71
     3
 72
    14
 73
    10
 74
     0
 42
0.0
 43
0.0
 12
1.0
 22
0.0
 32
0.0
 13
1.0
 23
0.0
 33
0.0
 40
0.0
 40
0.0
 40
0.0
 40
0.0
 40
1.0
 40
1.0
 40
1.0
 40
2.0
 40
2.0
 40
2.0
 40
3.0
 40
3.0
 40
3.0
 40
3.0
 10
121.1648382328659
 20
-74.21542412078624
 30
0.0
 10
123.3439859348124
 20
-72.3186323215764
 30
0.0
 10
124.7398871055803
 20
-70.23902445492216
 30
0.0
 10
125.3525417451696
 20
-67.97660052082352
 30
0.0
 10
126.0906868788679
 20
-65.25076265164991
 30
0.0
 10
125.5103711846147
 20
-61.54050182983222
 30
0.0
 10
124.1560550273685
 20
-59.00295013731549
 30
0.0
 10
123.1475501411519
 20
-57.11333723767031
 30
0.0
 10
121.6092100754077
 20
-55.47528994544265
 30
0.0
 10
119.5410348301358
 20
-54.08880826063253
 30
0.0
  0
SPLINE
  5
1F8
330
1F
100
AcDbEntity
  8
0
  6
K5LT32768
 62
    30
420
 16744448
100
AcDbSpline
210
0.0
220
0.0
230
1.0
 70
     8
 71
     3
 72
    17
 73
    13
 74
     0
 42
0.0
 43
0.0
 12
1.0
 22
0.0
 32
0.0
 13
1.0
 23
0.0
 33
0.0
 40
0.0
 40
0.0
 40
0.0
 40
0.0
 40
1.0
 40
1.0
 40
1.0
 40
2.0
 40
2.0
 40
2.0
 40
3.0
 40
3.0
 40
3.0
 40
4.0
 40
4.0
 40
4.0
 40
4.0
 10
118.5582064547992
 20
-48.7900813675135
 30
0.0
 10
119.4065361910834
 20
-47.55067744457502
 30
0.0
 10
120.2469256714437
 20
-46.89545852768396
 30
0.0
 10
121.0793748958801
 20
-46.82442461684032
 30
0.0
 10
122.1464701608581
 20
-46.73336807226196
 30
0.0
 10
123.8828601422844
 20
-48.30815612382076
 30
0.0
 10
124.2415183643543
 20
-49.43105639490693
 30
0.0
 10
124.5532772596463
 20
-50.4071225394846
 30
0.0
 10
124.2391860204176
 20
-52.15308702999963
 30
0.0
 10
123.6005433369609
 20
-52.93505321132436
 30
0.0
 10
122.8439053157678
 20
-53.86149511601347
 30
0.0
 10
121.4907358134928
 20
-54.24608013244952
 30
0.0
 10
119.5410348301358
 20
-54.08880826063253
 30
0.0
  0
SPLINE
  5
1F9
330
1F
100
AcDbEntity
  8
0
  6
K5LT32768
 62
    30
420
 16744448
100
AcDbSpline
210
0.0
220
0.0
230
1.0
 70
     8
 71
     3
 72
    17
 73
    13
 74
     0
 42
0.0
 43
0.0
 12
1.0
 22
0.0
 32
0.0
 13
1.0
 23
0.0
 33
0.0
 40
0.0
 40
0.0
 40
0.0
 40
0.0
 40
1.0
 40
1.0
 40
1.0
 40
2.0
 40
2.0
 40
2.0
 40
3.0
 40
3.0
 40
3.0
 40
4.0
 40
4.0
 40
4.0
 40
4.0
 10
119.6264981671216
 20
-70.49776896190434
 30
0.0
 10
120.8623071546594
 20
-68.90223992545668
 30
0.0
 10
121.5460138505457
 20
-67.29268041222429
 30
0.0
 10
121.6776182547806
 20
-65.66909042220716
 30
0.0
 10
121.8522655800384
 20
-63.51448434560573
 30
0.0
 10
120.5865968047378
 20
-60.96367925628323
 30
0.0
 10
119.2846448191785
 20
-59.13114514279418
 30
0.0
 10
118.1292269590657
 20
-57.50486194074391
 30
0.0
 10
116.2824661746201
 20
-56.28402134922293
 30
0.0
 10
114.6268929534529
 20
-55.07163663596912
 30
0.0
 10
112.951834551577
 20
-53.84498282550838
 30
0.0
 10
111.171348364373
 20
-52.76244722368837
 30
0.0
 10
109.2854343918409
 20
-51.82402983050908
 30
0.0
  0
SPLINE
  5
1FA
330
1F
100
AcDbEntity
  8
0
  6
K5LT32768
 62
    30
420
 16744448
100
AcDbSpline
210
0.0
220
0.0
230
1.0
 70
     8
 71
     3
 72
    14
 73
    10
 74
     0
 42
0.0
 43
0.0
 12
1.0
 22
0.0
 32
0.0
 13
1.0
 23
0.0
 33
0.0
 40
0.0
 40
0.0
 40
0.0
 40
0.0
 40
1.0
 40
1.0
 40
1.0
 40
2.0
 40
2.0
 40
2.0
 40
3.0
 40
3.0
 40
3.0
 40
3.0
 10
109.2854343918409
 20
-51.82402983050908
 30
0.0
 10
111.0512844391098
 20
-52.89216089526896
 30
0.0
 10
112.3902100518872
 20
-54.21684261854871
 30
0.0
 10
113.3022112301731
 20
-55.79807500034834
 30
0.0
 10
114.0942902594033
 20
-57.17138573698269
 30
0.0
 10
114.6566525778571
 20
-58.90176740643676
 30
0.0
 10
114.7123562904386
 20
-60.49855853456683
 30
0.0
 10
114.7520733966501
 20
-61.63708090398011
 30
0.0
 10
114.5811467226785
 20
-62.79083595328828
 30
0.0
 10
114.1995762685239
 20
-63.95982368249135
 30
0.0
  0
SPLINE
  5
1FB
330
1F
100
AcDbEntity
  8
0
  6
K5LT32768
 62
    30
420
 16744448
100
AcDbSpline
210
0.0
220
0.0
230
1.0
 70
     8
 71
     3
 72
    14
 73
    10
 74
     0
 42
0.0
 43
0.0
 12
1.0
 22
0.0
 32
0.0
 13
1.0
 23
0.0
 33
0.0
 40
0.0
 40
0.0
 40
0.0
 40
0.0
 40
1.0
 40
1.0
 40
1.0
 40
2.0
 40
2.0
 40
2.0
 40
3.0
 40
3.0
 40
3.0
 40
3.0
 10
114.1995762685239
 20
-63.95982368249135
 30
0.0
 10
115.4052319772328
 20
-63.0631349720108
 30
0.0
 10
116.5020114685504
 20
-62.69279384507237
 30
0.0
 10
117.4899147424768
 20
-62.84880030167607
 30
0.0
 10
118.6518443711923
 20
-63.03228843151929
 30
0.0
 10
120.0775100380486
 20
-64.4795815061733
 30
0.0
 10
120.5238632054724
 20
-65.58362708522138
 30
0.0
 10
121.0697436250794
 20
-66.93385132006759
 30
0.0
 10
120.7706219456291
 20
-68.57189861229524
 30
0.0
 10
119.6264981671216
 20
-70.49776896190434
 30
0.0
  0
LINE
  5
1FC
330
1F
100
AcDbEntity
  8
0
  6
K5LT32768
 62
    30
420
 16744448
100
AcDbLine
 10
164.5581586855695
 20
-47.79980472391988
 30
0.0
 11
159.2263939887188
 21
-42.45713876031034
 31
0.0
  0
LINE
  5
1FD
330
1F
100
AcDbEntity
  8
0
  6
K5LT32768
 62
    30
420
 16744448
100
AcDbLine
 10
162.8587570048728
 20
-48.90369668743863
 30
0.0
 11
157.8058119364633
 21
-43.80021485532291
 31
0.0
  0
LINE
  5
1FE
330
1F
100
AcDbEntity
  8
0
  6
K5LT32768
 62
    30
420
 16744448
100
AcDbLine
 10
164.5581586855695
 20
-61.08935362521034
 30
0.0
 11
159.3252826891793
 21
-55.84076836938666
 31
0.0
  0
LINE
  5
1FF
330
1F
100
AcDbEntity
  8
0
  6
K5LT32768
 62
    30
420
 16744448
100
AcDbLine
 10
162.9276733292141
 20
-62.14984930051087
 30
0.0
 11
157.9720528009128
 21
-57.19084267951717
 31
0.0
  0
LINE
  5
200
330
1F
100
AcDbEntity
  8
0
  6
K5LT32768
 62
    30
420
 16744448
100
AcDbLine
 10
146.1215092693248
 20
-52.23935271296334
 30
0.0
 11
149.6468255935118
 21
-48.85992698349052
 31
0.0
  0
LINE
  5
201
330
1F
100
AcDbEntity
  8
0
  6
K5LT32768
 62
    30
420
 16744448
100
AcDbLine
 10
147.3969497350649
 20
-53.64117685873671
 30
0.0
 11
151.0106265016183
 21
-50.22465975396666
 31
0.0
  0
LINE
  5
202
330
1F
100
AcDbEntity
  8
0
  6
K5LT32768
 62
    30
420
 16744448
100
AcDbLine
 10
151.3489962711415
 20
-60.41782579646449
 30
0.0
 11
156.2736617902293
 21
-55.49129118663839
 31
0.0
  0
LINE
  5
203
330
1F
100
AcDbEntity
  8
0
  6
K5LT32768
 62
    30
420
 16744448
100
AcDbLine
 10
154.790574158868
 20
-60.36490247534059
 30
0.0
 11
157.9720528009128
 21
-57.19084267951717
 31
0.0
  0
LINE
  5
204
330
1F
100
AcDbEntity
  8
0
  6
K5LT32768
 62
    30
420
 16744448
100
AcDbLine
 10
161.0510202792247
 20
-64.04310989961525
 30
0.0
 11
162.9276733292141
 21
-62.14984930051087
 31
0.0
  0
LINE
  5
205
330
1F
100
AcDbEntity
  8
0
  6
K5LT32768
 62
    30
420
 16744448
100
AcDbLine
 10
162.3673889335784
 20
-65.48361769215792
 30
0.0
 11
164.5581586855695
 21
-63.243216960287
 31
0.0
  0
SPLINE
  5
206
330
1F
100
AcDbEntity
  8
0
  6
K5LT32768
 62
    30
420
 16744448
100
AcDbSpline
210
0.0
220
0.0
230
1.0
 70
     8
 71
     3
 72
     8
 73
     4
 74
     0
 42
0.0
 43
0.0
 12
1.0
 22
0.0
 32
0.0
 13
1.0
 23
0.0
 33
0.0
 40
0.0
 40
0.0
 40
0.0
 40
0.0
 40
1.0
 40
1.0
 40
1.0
 40
1.0
 10
162.3673889335779
 20
-65.48361769215738
 30
0.0
 10
163.182813336811
 20
-66.45584762534202
 30
0.0
 10
163.9130699208082
 20
-67.50361986464813
 30
0.0
 10
164.5581586855695
 20
-68.62693441007578
 30
0.0
  0
SPLINE
  5
207
330
1F
100
AcDbEntity
  8
0
  6
K5LT32768
 62
    30
420
 16744448
100
AcDbSpline
210
0.0
220
0.0
230
1.0
 70
     8
 71
     3
 72
    14
 73
    10
 74
     0
 42
0.0
 43
0.0
 12
1.0
 22
0.0
 32
0.0
 13
1.0
 23
0.0
 33
0.0
 40
0.0
 40
0.0
 40
0.0
 40
0.0
 40
1.0
 40
1.0
 40
1.0
 40
2.0
 40
2.0
 40
2.0
 40
3.0
 40
3.0
 40
3.0
 40
3.0
 10
154.7905741587666
 20
-60.36490247568528
 30
0.0
 10
155.3229148142752
 20
-60.41021360810515
 30
0.0
 10
155.8393402732113
 20
-60.50960231327809
 30
0.0
 10
156.3290547310115
 20
-60.70377150669454
 30
0.0
 10
157.2861107824347
 20
-61.08323917116573
 30
0.0
 10
158.2107277612911
 20
-61.68908533042613
 30
0.0
 10
159.0591333344237
 20
-62.30620894782782
 30
0.0
 10
159.7666386061806
 20
-62.82084278153219
 30
0.0
 10
160.4290313672837
 20
-63.41488163388241
 30
0.0
 10
161.0510202792247
 20
-64.04310989961525
 30
0.0
  0
LINE
  5
208
330
1F
100
AcDbEntity
  8
0
  6
K5LT32768
 62
    30
420
 16744448
100
AcDbLine
 10
157.6270259330046
 20
-54.13741339265673
 30
0.0
 11
152.4084137621785
 21
-48.90313478285309
 31
0.0
  0
LINE
  5
209
330
1F
100
AcDbEntity
  8
0
  6
K5LT32768
 62
    30
420
 16744448
100
AcDbLine
 10
157.6270259330046
 20
-54.13741339265673
 30
0.0
 11
162.8587570048728
 21
-48.90369668743862
 31
0.0
  0
LINE
  5
20A
330
1F
100
AcDbEntity
  8
0
  6
K5LT32768
 62
    30
420
 16744448
100
AcDbLine
 10
156.2736617902293
 20
-55.49129118663837
 30
0.0
 11
151.0106265016183
 21
-50.22465975396666
 31
0.0
  0
LINE
  5
20B
330
1F
100
AcDbEntity
  8
0
  6
K5LT32768
 62
    30
420
 16744448
100
AcDbLine
 10
159.3252826891793
 20
-55.84076836938667
 30
0.0
 11
164.5581586855695
 21
-50.62009484445097
 31
0.0
  0
LINE
  5
20C
330
1F
100
AcDbEntity
  8
0
  6
K5LT32768
 62
    30
420
 16744448
100
AcDbLine
 10
152.4084137621785
 20
-48.90313478285309
 30
0.0
 11
157.8058119364633
 21
-43.80021485532291
 31
0.0
  0
LINE
  5
20D
330
1F
100
AcDbEntity
  8
0
  6
K5LT32768
 62
    30
420
 16744448
100
AcDbLine
 10
151.0368364255145
 20
-47.52743992759521
 30
0.0
 11
156.4029874169901
 21
-42.38336006037632
 31
0.0
  0
LINE
  5
20E
330
1F
100
AcDbEntity
  8
0
  6
K5LT32768
 62
    30
420
 16744448
100
AcDbLine
 10
151.0368364255145
 20
-47.52743992759521
 30
0.0
 11
146.4805451137594
 21
-42.95747048505301
 31
0.0
  0
LINE
  5
20F
330
1F
100
AcDbEntity
  8
0
  6
K5LT32768
 62
    30
420
 16744448
100
AcDbLine
 10
149.6468255935119
 20
-48.85992698349051
 30
0.0
 11
145.0581510356283
 21
-44.26811706096414
 31
0.0
  0
SPLINE
  5
210
330
1F
100
AcDbEntity
  8
0
  6
K5LT32768
 62
    30
420
 16744448
100
AcDbSpline
210
0.0
220
0.0
230
1.0
 70
     8
 71
     3
 72
     8
 73
     4
 74
     0
 42
0.0
 43
0.0
 12
1.0
 22
0.0
 32
0.0
 13
1.0
 23
0.0
 33
0.0
 40
0.0
 40
0.0
 40
0.0
 40
0.0
 40
1.0
 40
1.0
 40
1.0
 40
1.0
 10
147.3969497350649
 20
-53.64117685873671
 30
0.0
 10
147.745443254254
 20
-54.3681868085923
 30
0.0
 10
147.8146843782536
 20
-55.23864665315853
 30
0.0
 10
147.6046731070636
 20
-56.2525563924354
 30
0.0
  0
SPLINE
  5
211
330
1F
100
AcDbEntity
  8
0
  6
K5LT32768
 62
    30
420
 16744448
100
AcDbSpline
210
0.0
220
0.0
230
1.0
 70
     8
 71
     3
 72
    11
 73
     7
 74
     0
 42
0.0
 43
0.0
 12
1.0
 22
0.0
 32
0.0
 13
1.0
 23
0.0
 33
0.0
 40
0.0
 40
0.0
 40
0.0
 40
0.0
 40
1.0
 40
1.0
 40
1.0
 40
2.0
 40
2.0
 40
2.0
 40
2.0
 10
145.0581510356283
 20
-44.26811706096414
 30
0.0
 10
143.1124636437162
 20
-46.12798447310045
 30
0.0
 10
140.675131968907
 20
-48.07136719440255
 30
0.0
 10
140.0364181179347
 20
-50.57755446174964
 30
0.0
 10
139.7580587939399
 20
-51.66978158737274
 30
0.0
 10
139.6725954569541
 20
-52.83778052617855
 30
0.0
 10
139.7800281069773
 20
-54.08155127816706
 30
0.0
  0
LINE
  5
212
330
1F
100
AcDbEntity
  8
0
  6
K5LT32768
 62
    30
420
 16744448
100
AcDbLine
 10
159.2263939887188
 20
-42.45713876031034
 30
0.0
 11
161.5492783312426
 21
-40.26098935312239
 31
0.0
  0
LINE
  5
213
330
1F
100
AcDbEntity
  8
0
  6
K5LT32768
 62
    30
420
 16744448
100
AcDbLine
 10
156.4029874169901
 20
-42.38336006037633
 30
0.0
 11
155.8638891478055
 21
-41.8388700282742
 31
0.0
  0
SPLINE
  5
214
330
1F
100
AcDbEntity
  8
0
  6
K5LT32768
 62
    30
420
 16744448
100
AcDbSpline
210
0.0
220
0.0
230
1.0
 70
     8
 71
     3
 72
    17
 73
    13
 74
     0
 42
0.0
 43
0.0
 12
1.0
 22
0.0
 32
0.0
 13
1.0
 23
0.0
 33
0.0
 40
0.0
 40
0.0
 40
0.0
 40
0.0
 40
1.0
 40
1.0
 40
1.0
 40
2.0
 40
2.0
 40
2.0
 40
3.0
 40
3.0
 40
3.0
 40
4.0
 40
4.0
 40
4.0
 40
4.0
 10
155.8638891478055
 20
-41.83887002827419
 30
0.0
 10
154.9157082359733
 20
-41.6021087006273
 30
0.0
 10
154.0349003290338
 20
-41.18699979673711
 30
0.0
 10
153.6592732469543
 20
-40.61252989694606
 30
0.0
 10
153.049029668346
 20
-39.67924637140652
 30
0.0
 10
152.9919270895366
 20
-37.40760428421278
 30
0.0
 10
153.7105512511834
 20
-36.45901155439066
 30
0.0
 10
154.2382215095425
 20
-35.76248032494273
 30
0.0
 10
155.5187953095423
 20
-35.07101671816817
 30
0.0
 10
156.4282854753246
 20
-35.07450544020551
 30
0.0
 10
157.2967483837215
 20
-35.07783678539332
 30
0.0
 10
158.1684744556159
 20
-35.50515348730232
 30
0.0
 10
159.0434636910076
 20
-36.35645554593249
 30
0.0
  0
ENDSEC
  0
SECTION
  2
OBJECTS
  0
DICTIONARY
  5
C
330
0
100
AcDbDictionary
281
     1
  3
ACAD_GROUP
350
D
  3
ACAD_LAYOUT
350
1A
  3
ACAD_MATERIAL
350
3B
  3
ACAD_MLEADERSTYLE
350
25A
  3
ACAD_MLINESTYLE
350
17
  3
ACAD_PLOTSETTINGS
350
19
  3
ACAD_PLOTSTYLENAME
350
E
  3
ACAD_SCALELIST
350
215
  3
ACAD_TABLESTYLE
350
259
  3
ACAD_VISUALSTYLE
350
2A
  3
AcDbVariableDictionary
350
237
  0
DICTIONARY
  5
D
102
{ACAD_REACTORS
330
C
102
}
330
C
100
AcDbDictionary
281
     1
  0
DICTIONARY
  5
1A
102
{ACAD_REACTORS
330
C
102
}
330
C
100
AcDbDictionary
281
     1
  3
Layout1
350
1E
  3
Layout2
350
26
  3
Model
350
22
  0
DICTIONARY
  5
3B
102
{ACAD_REACTORS
330
C
102
}
330
C
100
AcDbDictionary
281
     1
  3
ByBlock
350
3D
  3
ByLayer
350
3C
  3
Global
350
3E
  0
DICTIONARY
  5
25A
102
{ACAD_REACTORS
330
C
102
}
330
C
100
AcDbDictionary
281
     1
  0
DICTIONARY
  5
17
102
{ACAD_REACTORS
330
C
102
}
330
C
100
AcDbDictionary
281
     1
  3
Standard
350
18
  0
DICTIONARY
  5
19
102
{ACAD_REACTORS
330
C
102
}
330
C
100
AcDbDictionary
281
     1
  0
ACDBDICTIONARYWDFLT
  5
E
102
{ACAD_REACTORS
330
C
102
}
330
C
100
AcDbDictionary
281
     1
  3
Normal
350
F
100
AcDbDictionaryWithDefault
340
F
  0
DICTIONARY
  5
215
102
{ACAD_REACTORS
330
C
102
}
330
C
100
AcDbDictionary
281
     1
  3
A0
350
216
  3
A1
350
217
  3
A2
350
218
  3
A3
350
219
  3
A4
350
21A
  3
A5
350
21B
  3
A6
350
21C
  3
A7
350
21D
  3
A8
350
21E
  3
A9
350
21F
  3
B0
350
220
  3
B1
350
221
  3
B2
350
222
  3
B3
350
223
  3
B4
350
224
  3
B5
350
225
  3
B6
350
226
  3
B7
350
227
  3
B8
350
228
  3
B9
350
229
  3
C0
350
22A
  3
C1
350
22B
  3
C2
350
22C
  3
C3
350
22D
  3
C4
350
22E
  3
C5
350
22F
  3
C6
350
230
  3
C7
350
231
  3
C8
350
232
  3
C9
350
233
  3
D0
350
234
  3
D1
350
235
  3
D2
350
236
  0
DICTIONARY
  5
259
102
{ACAD_REACTORS
330
C
102
}
330
C
100
AcDbDictionary
281
     1
  0
DICTIONARY
  5
2A
102
{ACAD_REACTORS
330
C
102
}
330
C
100
AcDbDictionary
281
     1
  3
2dWireframe
350
2F
  3
3D Hidden
350
31
  3
3dWireframe
350
30
  3
Basic
350
32
  3
Brighten
350
36
  3
ColorChange
350
3A
  3
Conceptual
350
34
  3
Dim
350
35
  3
Facepattern
350
39
  3
Flat
350
2B
  3
FlatWithEdges
350
2C
  3
Gouraud
350
2D
  3
GouraudWithEdges
350
2E
  3
Linepattern
350
38
  3
Realistic
350
33
  3
Thicken
350
37
  0
DICTIONARY
  5
237
102
{ACAD_REACTORS
330
C
102
}
330
C
100
AcDbDictionary
281
     1
  3
CANNOSCALE
350
238
  0
LAYOUT
  5
1E
102
{ACAD_REACTORS
330
1A
102
}
330
1A
100
AcDbPlotSettings
  1

  2
none_device
  4

  6

 40
0.0
 41
0.0
 42
0.0
 43
0.0
 44
0.0
 45
0.0
 46
0.0
 47
0.0
 48
0.0
 49
0.0
140
0.0
141
0.0
142
1.0
143
1.0
 70
   688
 72
     0
 73
     0
 74
     5
  7

 75
    16
 76
     0
 77
     2
 78
   300
147
1.0
148
0.0
149
0.0
100
AcDbLayout
  1
Layout1
 70
     1
 71
     1
 10
0.0
 20
0.0
 11
420.0
 21
297.0
 12
0.0
 22
0.0
 32
0.0
 14
1.000000000000000E+20
 24
1.000000000000000E+20
 34
1.000000000000000E+20
 15
-1.000000000000000E+20
 25
-1.000000000000000E+20
 35
-1.000000000000000E+20
146
0.0
 13
0.0
 23
0.0
 33
0.0
 16
1.0
 26
0.0
 36
0.0
 17
0.0
 27
1.0
 37
0.0
 76
     0
330
1B
  0
LAYOUT
  5
26
102
{ACAD_REACTORS
330
1A
102
}
330
1A
100
AcDbPlotSettings
  1

  2
none_device
  4

  6

 40
0.0
 41
0.0
 42
0.0
 43
0.0
 44
0.0
 45
0.0
 46
0.0
 47
0.0
 48
0.0
 49
0.0
140
0.0
141
0.0
142
1.0
143
1.0
 70
   688
 72
     0
 73
     0
 74
     5
  7

 75
    16
 76
     0
 77
     2
 78
   300
147
1.0
148
0.0
149
0.0
100
AcDbLayout
  1
Layout2
 70
     1
 71
     2
 10
0.0
 20
0.0
 11
0.0
 21
0.0
 12
0.0
 22
0.0
 32
0.0
 14
0.0
 24
0.0
 34
0.0
 15
0.0
 25
0.0
 35
0.0
146
0.0
 13
0.0
 23
0.0
 33
0.0
 16
1.0
 26
0.0
 36
0.0
 17
0.0
 27
1.0
 37
0.0
 76
     0
330
23
  0
LAYOUT
  5
22
102
{ACAD_REACTORS
330
1A
102
}
330
1A
100
AcDbPlotSettings
  1

  2
none_device
  4

  6

 40
0.0
 41
0.0
 42
0.0
 43
0.0
 44
0.0
 45
0.0
 46
0.0
 47
0.0
 48
0.0
 49
0.0
140
0.0
141
0.0
142
1.0
143
1.0
 70
  1712
 72
     0
 73
     0
 74
     0
  7

 75
     0
 76
     0
 77
     2
 78
   300
147
1.0
148
0.0
149
0.0
100
AcDbLayout
  1
Model
 70
     1
 71
     0
 10
0.0
 20
0.0
 11
420.0
 21
297.0
 12
0.0
 22
0.0
 32
0.0
 14
1.000000000000000E+20
 24
1.000000000000000E+20
 34
1.000000000000000E+20
 15
-1.000000000000000E+20
 25
-1.000000000000000E+20
 35
-1.000000000000000E+20
146
0.0
 13
0.0
 23
0.0
 33
0.0
 16
1.0
 26
0.0
 36
0.0
 17
0.0
 27
1.0
 37
0.0
 76
     0
330
1F
331
29
  0
MATERIAL
  5
3D
102
{ACAD_REACTORS
330
3B
102
}
330
3B
100
AcDbMaterial
  1
ByBlock
 72
     1
 94
      127
  0
MATERIAL
  5
3C
102
{ACAD_REACTORS
330
3B
102
}
330
3B
100
AcDbMaterial
  1
ByLayer
 72
     1
 94
      127
  0
MATERIAL
  5
3E
102
{ACAD_REACTORS
330
3B
102
}
330
3B
100
AcDbMaterial
  1
Global
 72
     1
 94
      127
  0
MLINESTYLE
  5
18
102
{ACAD_REACTORS
330
17
102
}
330
17
100
AcDbMlineStyle
  2
Standard
 70
     0
  3

 62
   256
 51
90.0
 52
90.0
 71
     2
 49
0.5
 62
   256
  6
BYLAYER
 49
-0.5
 62
   256
  6
BYLAYER
  0
ACDBPLACEHOLDER
  5
F
102
{ACAD_REACTORS
330
E
102
}
330
E
  0
SCALE
  5
216
102
{ACAD_REACTORS
330
215
102
}
330
215
100
AcDbScale
 70
     0
300
1:1
140
1.0
141
1.0
290
     1
  0
SCALE
  5
217
102
{ACAD_REACTORS
330
215
102
}
330
215
100
AcDbScale
 70
     0
300
1:2
140
1.0
141
2.0
290
     0
  0
SCALE
  5
218
102
{ACAD_REACTORS
330
215
102
}
330
215
100
AcDbScale
 70
     0
300
1:4
140
1.0
141
4.0
290
     0
  0
SCALE
  5
219
102
{ACAD_REACTORS
330
215
102
}
330
215
100
AcDbScale
 70
     0
300
1:5
140
1.0
141
5.0
290
     0
  0
SCALE
  5
21A
102
{ACAD_REACTORS
330
215
102
}
330
215
100
AcDbScale
 70
     0
300
1:8
140
1.0
141
8.0
290
     0
  0
SCALE
  5
21B
102
{ACAD_REACTORS
330
215
102
}
330
215
100
AcDbScale
 70
     0
300
1:10
140
1.0
141
10.0
290
     0
  0
SCALE
  5
21C
102
{ACAD_REACTORS
330
215
102
}
330
215
100
AcDbScale
 70
     0
300
1:16
140
1.0
141
16.0
290
     0
  0
SCALE
  5
21D
102
{ACAD_REACTORS
330
215
102
}
330
215
100
AcDbScale
 70
     0
300
1:20
140
1.0
141
20.0
290
     0
  0
SCALE
  5
21E
102
{ACAD_REACTORS
330
215
102
}
330
215
100
AcDbScale
 70
     0
300
1:30
140
1.0
141
30.0
290
     0
  0
SCALE
  5
21F
102
{ACAD_REACTORS
330
215
102
}
330
215
100
AcDbScale
 70
     0
300
1:40
140
1.0
141
40.0
290
     0
  0
SCALE
  5
220
102
{ACAD_REACTORS
330
215
102
}
330
215
100
AcDbScale
 70
     0
300
1:50
140
1.0
141
50.0
290
     0
  0
SCALE
  5
221
102
{ACAD_REACTORS
330
215
102
}
330
215
100
AcDbScale
 70
     0
300
1:100
140
1.0
141
100.0
290
     0
  0
SCALE
  5
222
102
{ACAD_REACTORS
330
215
102
}
330
215
100
AcDbScale
 70
     0
300
2:1
140
2.0
141
1.0
290
     0
  0
SCALE
  5
223
102
{ACAD_REACTORS
330
215
102
}
330
215
100
AcDbScale
 70
     0
300
4:1
140
4.0
141
1.0
290
     0
  0
SCALE
  5
224
102
{ACAD_REACTORS
330
215
102
}
330
215
100
AcDbScale
 70
     0
300
8:1
140
8.0
141
1.0
290
     0
  0
SCALE
  5
225
102
{ACAD_REACTORS
330
215
102
}
330
215
100
AcDbScale
 70
     0
300
10:1
140
10.0
141
1.0
290
     0
  0
SCALE
  5
226
102
{ACAD_REACTORS
330
215
102
}
330
215
100
AcDbScale
 70
     0
300
100:1
140
100.0
141
1.0
290
     0
  0
SCALE
  5
227
102
{ACAD_REACTORS
330
215
102
}
330
215
100
AcDbScale
 70
     0
300
1/128" = 1'-0"
140
0.0078125
141
12.0
290
     0
  0
SCALE
  5
228
102
{ACAD_REACTORS
330
215
102
}
330
215
100
AcDbScale
 70
     0
300
1/64" = 1'-0"
140
0.015625
141
12.0
290
     0
  0
SCALE
  5
229
102
{ACAD_REACTORS
330
215
102
}
330
215
100
AcDbScale
 70
     0
300
1/32" = 1'-0"
140
0.03125
141
12.0
290
     0
  0
SCALE
  5
22A
102
{ACAD_REACTORS
330
215
102
}
330
215
100
AcDbScale
 70
     0
300
1/16" = 1'-0"
140
0.0625
141
12.0
290
     0
  0
SCALE
  5
22B
102
{ACAD_REACTORS
330
215
102
}
330
215
100
AcDbScale
 70
     0
300
3/32" = 1'-0"
140
0.09375
141
12.0
290
     0
  0
SCALE
  5
22C
102
{ACAD_REACTORS
330
215
102
}
330
215
100
AcDbScale
 70
     0
300
1/8" = 1'-0"
140
0.125
141
12.0
290
     0
  0
SCALE
  5
22D
102
{ACAD_REACTORS
330
215
102
}
330
215
100
AcDbScale
 70
     0
300
3/16" = 1'-0"
140
0.1875
141
12.0
290
     0
  0
SCALE
  5
22E
102
{ACAD_REACTORS
330
215
102
}
330
215
100
AcDbScale
 70
     0
300
1/4" = 1'-0"
140
0.25
141
12.0
290
     0
  0
SCALE
  5
22F
102
{ACAD_REACTORS
330
215
102
}
330
215
100
AcDbScale
 70
     0
300
3/8" = 1'-0"
140
0.375
141
12.0
290
     0
  0
SCALE
  5
230
102
{ACAD_REACTORS
330
215
102
}
330
215
100
AcDbScale
 70
     0
300
1/2" = 1'-0"
140
0.5
141
12.0
290
     0
  0
SCALE
  5
231
102
{ACAD_REACTORS
330
215
102
}
330
215
100
AcDbScale
 70
     0
300
3/4" = 1'-0"
140
0.75
141
12.0
290
     0
  0
SCALE
  5
232
102
{ACAD_REACTORS
330
215
102
}
330
215
100
AcDbScale
 70
     0
300
1" = 1'-0"
140
1.0
141
12.0
290
     0
  0
SCALE
  5
233
102
{ACAD_REACTORS
330
215
102
}
330
215
100
AcDbScale
 70
     0
300
1-1/2" = 1'-0"
140
1.5
141
12.0
290
     0
  0
SCALE
  5
234
102
{ACAD_REACTORS
330
215
102
}
330
215
100
AcDbScale
 70
     0
300
3" = 1'-0"
140
3.0
141
12.0
290
     0
  0
SCALE
  5
235
102
{ACAD_REACTORS
330
215
102
}
330
215
100
AcDbScale
 70
     0
300
6" = 1'-0"
140
6.0
141
12.0
290
     0
  0
SCALE
  5
236
102
{ACAD_REACTORS
330
215
102
}
330
215
100
AcDbScale
 70
     0
300
1'-0" = 1'-0"
140
12.0
141
12.0
290
     0
  0
VISUALSTYLE
  5
2F
102
{ACAD_REACTORS
330
2A
102
}
102
{ACAD_XDICTIONARY
360
241
102
}
330
2A
100
AcDbVisualStyle
  2
2dWireframe
 70
     4
 71
     0
 72
     2
 73
     0
 90
        0
 40
-0.6
 41
-30.0
 62
     5
 63
     7
421
 16777215
 74
     1
 91
        4
 64
     7
 65
   257
 75
     1
175
     1
 42
1.0
 92
        0
 66
   257
 43
1.0
 76
     1
 77
     6
 78
     2
 67
     7
 79
     5
170
     0
171
     0
290
     0
174
     0
 93
        1
 44
0.0
173
     0
291
     0
 45
0.0
  0
VISUALSTYLE
  5
31
102
{ACAD_REACTORS
330
2A
102
}
102
{ACAD_XDICTIONARY
360
245
102
}
330
2A
100
AcDbVisualStyle
  2
3D Hidden
 70
     6
 71
     1
 72
     2
 73
     2
 90
        0
 40
-0.6
 41
-30.0
 62
     5
 63
     7
421
 16777215
 74
     2
 91
        2
 64
     7
 65
   257
 75
     2
175
     1
 42
40.0
 92
        0
 66
   257
 43
1.0
 76
     1
 77
     6
 78
     2
 67
     7
 79
     3
170
     0
171
     0
290
     0
174
     0
 93
        1
 44
0.0
173
     0
291
     0
 45
0.0
  0
VISUALSTYLE
  5
30
102
{ACAD_REACTORS
330
2A
102
}
102
{ACAD_XDICTIONARY
360
243
102
}
330
2A
100
AcDbVisualStyle
  2
3dWireframe
 70
     5
 71
     0
 72
     2
 73
     0
 90
        0
 40
-0.6
 41
-30.0
 62
     5
 63
     7
421
 16777215
 74
     1
 91
        4
 64
     7
 65
   257
 75
     1
175
     1
 42
1.0
 92
        0
 66
   257
 43
1.0
 76
     1
 77
     6
 78
     2
 67
     7
 79
     5
170
     0
171
     0
290
     0
174
     0
 93
        1
 44
0.0
173
     0
291
     0
 45
0.0
  0
VISUALSTYLE
  5
32
102
{ACAD_REACTORS
330
2A
102
}
102
{ACAD_XDICTIONARY
360
247
102
}
330
2A
100
AcDbVisualStyle
  2
Basic
 70
     7
 71
     1
 72
     0
 73
     1
 90
        0
 40
-0.6
 41
-30.0
 62
     5
 63
     7
421
 16777215
 74
     0
 91
        4
 64
     7
 65
   257
 75
     1
175
     1
 42
1.0
 92
        8
 66
     7
 43
1.0
 76
     1
 77
     6
 78
     2
 67
     7
 79
     5
170
     0
171
     0
290
     0
174
     0
 93
        1
 44
0.0
173
     0
291
     1
 45
0.0
  0
VISUALSTYLE
  5
36
102
{ACAD_REACTORS
330
2A
102
}
102
{ACAD_XDICTIONARY
360
24F
102
}
330
2A
100
AcDbVisualStyle
  2
Brighten
 70
    12
 71
     2
 72
     2
 73
     0
 90
        0
 40
-0.6
 41
-30.0
 62
     5
 63
     7
421
 16777215
 74
     1
 91
        4
 64
     7
 65
   257
 75
     1
175
     1
 42
1.0
 92
        8
 66
     7
 43
1.0
 76
     1
 77
     6
 78
     2
 67
     7
 79
     5
170
     0
171
     0
290
     0
174
     0
 93
        1
 44
50.0
173
     0
291
     1
 45
0.0
  0
VISUALSTYLE
  5
3A
102
{ACAD_REACTORS
330
2A
102
}
102
{ACAD_XDICTIONARY
360
257
102
}
330
2A
100
AcDbVisualStyle
  2
ColorChange
 70
    16
 71
     2
 72
     2
 73
     3
 90
        0
 40
-0.6
 41
-30.0
 62
     5
 63
     8
421
  8421504
 74
     1
 91
        4
 64
     7
 65
   257
 75
     1
175
     1
 42
1.0
 92
        8
 66
     8
424
  8421504
 43
1.0
 76
     1
 77
     6
 78
     2
 67
     7
 79
     5
170
     0
171
     0
290
     0
174
     0
 93
        1
 44
0.0
173
     0
291
     1
 45
0.0
  0
VISUALSTYLE
  5
34
102
{ACAD_REACTORS
330
2A
102
}
102
{ACAD_XDICTIONARY
360
24B
102
}
330
2A
100
AcDbVisualStyle
  2
Conceptual
 70
     9
 71
     3
 72
     2
 73
     0
 90
        0
 40
-0.6
 41
-30.0
 62
     5
 63
     7
421
 16777215
 74
     2
 91
        2
 64
     7
 65
   257
 75
     1
175
     1
 42
40.0
 92
        8
 66
     7
 43
1.0
 76
     1
 77
     6
 78
     2
 67
     7
 79
     3
170
     0
171
     0
290
     0
174
     0
 93
        1
 44
0.0
173
     0
291
     0
 45
0.0
  0
VISUALSTYLE
  5
35
102
{ACAD_REACTORS
330
2A
102
}
102
{ACAD_XDICTIONARY
360
24D
102
}
330
2A
100
AcDbVisualStyle
  2
Dim
 70
    11
 71
     2
 72
     2
 73
     0
 90
        0
 40
-0.6
 41
-30.0
 62
     5
 63
     7
421
 16777215
 74
     1
 91
        4
 64
     7
 65
   257
 75
     1
175
     1
 42
1.0
 92
        8
 66
     7
 43
1.0
 76
     1
 77
     6
 78
     2
 67
     7
 79
     5
170
     0
171
     0
290
     0
174
     0
 93
        1
 44
-50.0
173
     0
291
     1
 45
0.0
  0
VISUALSTYLE
  5
39
102
{ACAD_REACTORS
330
2A
102
}
102
{ACAD_XDICTIONARY
360
255
102
}
330
2A
100
AcDbVisualStyle
  2
Facepattern
 70
    15
 71
     2
 72
     2
 73
     0
 90
        0
 40
-0.6
 41
-30.0
 62
     5
 63
     7
421
 16777215
 74
     1
 91
        4
 64
     7
 65
   257
 75
     1
175
     1
 42
1.0
 92
        8
 66
     7
 43
1.0
 76
     1
 77
     6
 78
     2
 67
     7
 79
     5
170
     0
171
     0
290
     0
174
     0
 93
        1
 44
0.0
173
     0
291
     1
 45
0.0
  0
VISUALSTYLE
  5
2B
102
{ACAD_REACTORS
330
2A
102
}
102
{ACAD_XDICTIONARY
360
239
102
}
330
2A
100
AcDbVisualStyle
  2
Flat
 70
     0
 71
     2
 72
     1
 73
     1
 90
        2
 40
-0.6
 41
30.0
 62
     5
 63
     7
421
 16777215
 74
     0
 91
        4
 64
     7
 65
   257
 75
     1
175
     1
 42
1.0
 92
        8
 66
     7
 43
1.0
 76
     1
 77
     6
 78
     2
 67
     7
 79
     5
170
     0
171
     0
290
     0
174
     0
 93
       13
 44
0.0
173
     0
291
     1
 45
0.0
  0
VISUALSTYLE
  5
2C
102
{ACAD_REACTORS
330
2A
102
}
102
{ACAD_XDICTIONARY
360
23B
102
}
330
2A
100
AcDbVisualStyle
  2
FlatWithEdges
 70
     1
 71
     2
 72
     1
 73
     1
 90
        2
 40
-0.6
 41
30.0
 62
     5
 63
     7
421
 16777215
 74
     1
 91
        4
 64
     7
 65
   257
 75
     1
175
     1
 42
1.0
 92
        0
 66
   257
 43
1.0
 76
     1
 77
     6
 78
     2
 67
     7
 79
     5
170
     0
171
     0
290
     0
174
     0
 93
       13
 44
0.0
173
     0
291
     1
 45
0.0
  0
VISUALSTYLE
  5
2D
102
{ACAD_REACTORS
330
2A
102
}
102
{ACAD_XDICTIONARY
360
23D
102
}
330
2A
100
AcDbVisualStyle
  2
Gouraud
 70
     2
 71
     2
 72
     2
 73
     1
 90
        2
 40
-0.6
 41
30.0
 62
     5
 63
     7
421
 16777215
 74
     0
 91
        4
 64
     7
 65
   257
 75
     1
175
     1
 42
1.0
 92
        0
 66
     7
 43
1.0
 76
     1
 77
     6
 78
     2
 67
     7
 79
     5
170
     0
171
     0
290
     0
174
     0
 93
       13
 44
0.0
173
     0
291
     1
 45
0.0
  0
VISUALSTYLE
  5
2E
102
{ACAD_REACTORS
330
2A
102
}
102
{ACAD_XDICTIONARY
360
23F
102
}
330
2A
100
AcDbVisualStyle
  2
GouraudWithEdges
 70
     3
 71
     2
 72
     2
 73
     1
 90
        2
 40
-0.6
 41
30.0
 62
     5
 63
     7
421
 16777215
 74
     1
 91
        4
 64
     7
 65
   257
 75
     1
175
     1
 42
1.0
 92
        0
 66
   257
 43
1.0
 76
     1
 77
     6
 78
     2
 67
     7
 79
     5
170
     0
171
     0
290
     0
174
     0
 93
       13
 44
0.0
173
     0
291
     1
 45
0.0
  0
VISUALSTYLE
  5
38
102
{ACAD_REACTORS
330
2A
102
}
102
{ACAD_XDICTIONARY
360
253
102
}
330
2A
100
AcDbVisualStyle
  2
Linepattern
 70
    14
 71
     2
 72
     2
 73
     0
 90
        0
 40
-0.6
 41
-30.0
 62
     5
 63
     7
421
 16777215
 74
     1
 91
        4
 64
     7
 65
   257
 75
     7
175
     7
 42
1.0
 92
        8
 66
     7
 43
1.0
 76
     1
 77
     6
 78
     2
 67
     7
 79
     5
170
     0
171
     0
290
     0
174
     0
 93
        1
 44
0.0
173
     0
291
     1
 45
0.0
  0
VISUALSTYLE
  5
33
102
{ACAD_REACTORS
330
2A
102
}
102
{ACAD_XDICTIONARY
360
249
102
}
330
2A
100
AcDbVisualStyle
  2
Realistic
 70
     8
 71
     2
 72
     2
 73
     0
 90
        0
 40
-0.6
 41
-30.0
 62
     5
 63
     7
421
 16777215
 74
     1
 91
        0
 64
     7
 65
   257
 75
     1
175
     1
 42
1.0
 92
        8
 66
     8
424
  7895160
 43
1.0
 76
     1
 77
     6
 78
     2
 67
     7
 79
     5
170
     0
171
     0
290
     0
174
     0
 93
       13
 44
0.0
173
     0
291
     0
 45
0.0
  0
VISUALSTYLE
  5
37
102
{ACAD_REACTORS
330
2A
102
}
102
{ACAD_XDICTIONARY
360
251
102
}
330
2A
100
AcDbVisualStyle
  2
Thicken
 70
    13
 71
     2
 72
     2
 73
     0
 90
        0
 40
-0.6
 41
-30.0
 62
     5
 63
     7
421
 16777215
 74
     1
 91
        4
 64
     7
 65
   257
 75
     1
175
     1
 42
1.0
 92
       12
 66
     7
 43
1.0
 76
     1
 77
     6
 78
     2
 67
     7
 79
     5
170
     0
171
     0
290
     0
174
     0
 93
        1
 44
0.0
173
     0
291
     1
 45
0.0
  0
DICTIONARYVAR
  5
238
102
{ACAD_REACTORS
330
237
102
}
330
237
100
DictionaryVariables
280
     0
  1
1:1
  0
DICTIONARY
  5
241
330
2F
100
AcDbDictionary
280
     1
281
     1
  3
ACAD_XREC_ROUNDTRIP
360
242
  0
DICTIONARY
  5
245
330
31
100
AcDbDictionary
280
     1
281
     1
  3
ACAD_XREC_ROUNDTRIP
360
246
  0
DICTIONARY
  5
243
330
30
100
AcDbDictionary
280
     1
281
     1
  3
ACAD_XREC_ROUNDTRIP
360
244
  0
DICTIONARY
  5
247
330
32
100
AcDbDictionary
280
     1
281
     1
  3
ACAD_XREC_ROUNDTRIP
360
248
  0
DICTIONARY
  5
24F
330
36
100
AcDbDictionary
280
     1
281
     1
  3
ACAD_XREC_ROUNDTRIP
360
250
  0
DICTIONARY
  5
257
330
3A
100
AcDbDictionary
280
     1
281
     1
  3
ACAD_XREC_ROUNDTRIP
360
258
  0
DICTIONARY
  5
24B
330
34
100
AcDbDictionary
280
     1
281
     1
  3
ACAD_XREC_ROUNDTRIP
360
24C
  0
DICTIONARY
  5
24D
330
35
100
AcDbDictionary
280
     1
281
     1
  3
ACAD_XREC_ROUNDTRIP
360
24E
  0
DICTIONARY
  5
255
330
39
100
AcDbDictionary
280
     1
281
     1
  3
ACAD_XREC_ROUNDTRIP
360
256
  0
DICTIONARY
  5
239
330
2B
100
AcDbDictionary
280
     1
281
     1
  3
ACAD_XREC_ROUNDTRIP
360
23A
  0
DICTIONARY
  5
23B
330
2C
100
AcDbDictionary
280
     1
281
     1
  3
ACAD_XREC_ROUNDTRIP
360
23C
  0
DICTIONARY
  5
23D
330
2D
100
AcDbDictionary
280
     1
281
     1
  3
ACAD_XREC_ROUNDTRIP
360
23E
  0
DICTIONARY
  5
23F
330
2E
100
AcDbDictionary
280
     1
281
     1
  3
ACAD_XREC_ROUNDTRIP
360
240
  0
DICTIONARY
  5
253
330
38
100
AcDbDictionary
280
     1
281
     1
  3
ACAD_XREC_ROUNDTRIP
360
254
  0
DICTIONARY
  5
249
330
33
100
AcDbDictionary
280
     1
281
     1
  3
ACAD_XREC_ROUNDTRIP
360
24A
  0
DICTIONARY
  5
251
330
37
100
AcDbDictionary
280
     1
281
     1
  3
ACAD_XREC_ROUNDTRIP
360
252
  0
XRECORD
  5
242
102
{ACAD_REACTORS
330
241
102
}
330
241
100
AcDbXrecord
280
     1
102
RTVSPropertyOp0
 70
     1
102
RTVSPropertyOp1
 70
     1
102
RTVSPropertyOp2
 70
     1
102
RTVSPropertyOp3
 70
     1
102
RTVSPropertyOp4
 70
     1
102
RTVSPropertyOp5
 70
     1
102
RTVSPropertyOp6
 70
     1
102
RTVSPropertyOp7
 70
     1
102
RTVSPropertyOp8
 70
     1
102
RTVSPropertyOp9
 70
     1
102
RTVSPropertyOp10
 70
     1
102
RTVSPropertyOp11
 70
     1
102
RTVSPropertyOp12
 70
     1
102
RTVSPropertyOp13
 70
     1
102
RTVSPropertyOp14
 70
     1
102
RTVSPropertyOp15
 70
     1
102
RTVSPropertyOp16
 70
     1
102
RTVSPropertyOp17
 70
     1
102
RTVSPropertyOp18
 70
     1
102
RTVSPropertyOp19
 70
     1
102
RTVSPropertyOp20
 70
     1
102
RTVSPropertyOp21
 70
     1
102
RTVSPropertyOp22
 70
     1
102
RTVSPropertyOp23
 70
     1
102
RTVSPropertyOp24
 70
     1
102
RTVSPropertyOp25
 70
     1
102
RTVSPropertyOp26
 70
     1
102
RTVSPropertyOp27
 70
     1
102
RTVSPropertyOp28
 70
     1
102
RTVSPropertyOp29
 70
     1
102
RTVSPropertyOp30
 70
     1
102
RTVSPropertyOp31
 70
     1
102
RTVSPropertyOp32
 70
     1
  0
XRECORD
  5
246
102
{ACAD_REACTORS
330
245
102
}
330
245
100
AcDbXrecord
280
     1
102
RTVSPropertyOp0
 70
     1
102
RTVSPropertyOp1
 70
     1
102
RTVSPropertyOp2
 70
     1
102
RTVSPropertyOp3
 70
     1
102
RTVSPropertyOp4
 70
     1
102
RTVSPropertyOp5
 70
     1
102
RTVSPropertyOp6
 70
     1
102
RTVSPropertyOp7
 70
     1
102
RTVSPropertyOp8
 70
     1
102
RTVSPropertyOp9
 70
     1
102
RTVSPropertyOp10
 70
     1
102
RTVSPropertyOp11
 70
     1
102
RTVSPropertyOp12
 70
     1
102
RTVSPropertyOp13
 70
     1
102
RTVSPropertyOp14
 70
     1
102
RTVSPropertyOp15
 70
     1
102
RTVSPropertyOp16
 70
     1
102
RTVSPropertyOp17
 70
     1
102
RTVSPropertyOp18
 70
     1
102
RTVSPropertyOp19
 70
     1
102
RTVSPropertyOp20
 70
     1
102
RTVSPropertyOp21
 70
     1
102
RTVSPropertyOp22
 70
     1
102
RTVSPropertyOp23
 70
     1
102
RTVSPropertyOp24
 70
     1
102
RTVSPropertyOp25
 70
     1
102
RTVSPropertyOp26
 70
     1
102
RTVSPropertyOp27
 70
     1
102
RTVSPropertyOp28
 70
     1
102
RTVSPropertyOp29
 70
     1
102
RTVSPropertyOp30
 70
     1
102
RTVSPropertyOp31
 70
     1
102
RTVSPropertyOp32
 70
     1
  0
XRECORD
  5
244
102
{ACAD_REACTORS
330
243
102
}
330
243
100
AcDbXrecord
280
     1
102
RTVSPropertyOp0
 70
     1
102
RTVSPropertyOp1
 70
     1
102
RTVSPropertyOp2
 70
     1
102
RTVSPropertyOp3
 70
     1
102
RTVSPropertyOp4
 70
     1
102
RTVSPropertyOp5
 70
     1
102
RTVSPropertyOp6
 70
     1
102
RTVSPropertyOp7
 70
     1
102
RTVSPropertyOp8
 70
     1
102
RTVSPropertyOp9
 70
     1
102
RTVSPropertyOp10
 70
     1
102
RTVSPropertyOp11
 70
     1
102
RTVSPropertyOp12
 70
     1
102
RTVSPropertyOp13
 70
     1
102
RTVSPropertyOp14
 70
     1
102
RTVSPropertyOp15
 70
     1
102
RTVSPropertyOp16
 70
     1
102
RTVSPropertyOp17
 70
     1
102
RTVSPropertyOp18
 70
     1
102
RTVSPropertyOp19
 70
     1
102
RTVSPropertyOp20
 70
     1
102
RTVSPropertyOp21
 70
     1
102
RTVSPropertyOp22
 70
     1
102
RTVSPropertyOp23
 70
     1
102
RTVSPropertyOp24
 70
     1
102
RTVSPropertyOp25
 70
     1
102
RTVSPropertyOp26
 70
     1
102
RTVSPropertyOp27
 70
     1
102
RTVSPropertyOp28
 70
     1
102
RTVSPropertyOp29
 70
     1
102
RTVSPropertyOp30
 70
     1
102
RTVSPropertyOp31
 70
     1
102
RTVSPropertyOp32
 70
     1
  0
XRECORD
  5
248
102
{ACAD_REACTORS
330
247
102
}
330
247
100
AcDbXrecord
280
     1
102
RTVSPropertyOp0
 70
     1
102
RTVSPropertyOp1
 70
     1
102
RTVSPropertyOp2
 70
     1
102
RTVSPropertyOp3
 70
     1
102
RTVSPropertyOp4
 70
     1
102
RTVSPropertyOp5
 70
     1
102
RTVSPropertyOp6
 70
     1
102
RTVSPropertyOp7
 70
     1
102
RTVSPropertyOp8
 70
     1
102
RTVSPropertyOp9
 70
     1
102
RTVSPropertyOp10
 70
     1
102
RTVSPropertyOp11
 70
     1
102
RTVSPropertyOp12
 70
     1
102
RTVSPropertyOp13
 70
     1
102
RTVSPropertyOp14
 70
     1
102
RTVSPropertyOp15
 70
     1
102
RTVSPropertyOp16
 70
     1
102
RTVSPropertyOp17
 70
     1
102
RTVSPropertyOp18
 70
     1
102
RTVSPropertyOp19
 70
     1
102
RTVSPropertyOp20
 70
     1
102
RTVSPropertyOp21
 70
     1
102
RTVSPropertyOp22
 70
     1
102
RTVSPropertyOp23
 70
     1
102
RTVSPropertyOp24
 70
     1
102
RTVSPropertyOp25
 70
     1
102
RTVSPropertyOp26
 70
     1
102
RTVSPropertyOp27
 70
     1
102
RTVSPropertyOp28
 70
     1
102
RTVSPropertyOp29
 70
     1
102
RTVSPropertyOp30
 70
     1
102
RTVSPropertyOp31
 70
     1
102
RTVSPropertyOp32
 70
     1
  0
XRECORD
  5
250
102
{ACAD_REACTORS
330
24F
102
}
330
24F
100
AcDbXrecord
280
     1
102
RTVSPropertyOp0
 70
     1
102
RTVSPropertyOp1
 70
     1
102
RTVSPropertyOp2
 70
     1
102
RTVSPropertyOp3
 70
     1
102
RTVSPropertyOp4
 70
     1
102
RTVSPropertyOp5
 70
     1
102
RTVSPropertyOp6
 70
     1
102
RTVSPropertyOp7
 70
     1
102
RTVSPropertyOp8
 70
     1
102
RTVSPropertyOp9
 70
     1
102
RTVSPropertyOp10
 70
     1
102
RTVSPropertyOp11
 70
     1
102
RTVSPropertyOp12
 70
     1
102
RTVSPropertyOp13
 70
     1
102
RTVSPropertyOp14
 70
     1
102
RTVSPropertyOp15
 70
     1
102
RTVSPropertyOp16
 70
     1
102
RTVSPropertyOp17
 70
     1
102
RTVSPropertyOp18
 70
     1
102
RTVSPropertyOp19
 70
     1
102
RTVSPropertyOp20
 70
     1
102
RTVSPropertyOp21
 70
     1
102
RTVSPropertyOp22
 70
     1
102
RTVSPropertyOp23
 70
     1
102
RTVSPropertyOp24
 70
     1
102
RTVSPropertyOp25
 70
     1
102
RTVSPropertyOp26
 70
     1
102
RTVSPropertyOp27
 70
     1
102
RTVSPropertyOp28
 70
     1
102
RTVSPropertyOp29
 70
     1
102
RTVSPropertyOp30
 70
     1
102
RTVSPropertyOp31
 70
     1
102
RTVSPropertyOp32
 70
     1
  0
XRECORD
  5
258
102
{ACAD_REACTORS
330
257
102
}
330
257
100
AcDbXrecord
280
     1
102
RTVSPropertyOp0
 70
     1
102
RTVSPropertyOp1
 70
     1
102
RTVSPropertyOp2
 70
     1
102
RTVSPropertyOp3
 70
     1
102
RTVSPropertyOp4
 70
     1
102
RTVSPropertyOp5
 70
     1
102
RTVSPropertyOp6
 70
     1
102
RTVSPropertyOp7
 70
     1
102
RTVSPropertyOp8
 70
     1
102
RTVSPropertyOp9
 70
     1
102
RTVSPropertyOp10
 70
     1
102
RTVSPropertyOp11
 70
     1
102
RTVSPropertyOp12
 70
     1
102
RTVSPropertyOp13
 70
     1
102
RTVSPropertyOp14
 70
     1
102
RTVSPropertyOp15
 70
     1
102
RTVSPropertyOp16
 70
     1
102
RTVSPropertyOp17
 70
     1
102
RTVSPropertyOp18
 70
     1
102
RTVSPropertyOp19
 70
     1
102
RTVSPropertyOp20
 70
     1
102
RTVSPropertyOp21
 70
     1
102
RTVSPropertyOp22
 70
     1
102
RTVSPropertyOp23
 70
     1
102
RTVSPropertyOp24
 70
     1
102
RTVSPropertyOp25
 70
     1
102
RTVSPropertyOp26
 70
     1
102
RTVSPropertyOp27
 70
     1
102
RTVSPropertyOp28
 70
     1
102
RTVSPropertyOp29
 70
     1
102
RTVSPropertyOp30
 70
     1
102
RTVSPropertyOp31
 70
     1
102
RTVSPropertyOp32
 70
     1
  0
XRECORD
  5
24C
102
{ACAD_REACTORS
330
24B
102
}
330
24B
100
AcDbXrecord
280
     1
102
RTVSPropertyOp0
 70
     1
102
RTVSPropertyOp1
 70
     1
102
RTVSPropertyOp2
 70
     1
102
RTVSPropertyOp3
 70
     1
102
RTVSPropertyOp4
 70
     1
102
RTVSPropertyOp5
 70
     1
102
RTVSPropertyOp6
 70
     1
102
RTVSPropertyOp7
 70
     1
102
RTVSPropertyOp8
 70
     1
102
RTVSPropertyOp9
 70
     1
102
RTVSPropertyOp10
 70
     1
102
RTVSPropertyOp11
 70
     1
102
RTVSPropertyOp12
 70
     1
102
RTVSPropertyOp13
 70
     1
102
RTVSPropertyOp14
 70
     1
102
RTVSPropertyOp15
 70
     1
102
RTVSPropertyOp16
 70
     1
102
RTVSPropertyOp17
 70
     1
102
RTVSPropertyOp18
 70
     1
102
RTVSPropertyOp19
 70
     1
102
RTVSPropertyOp20
 70
     1
102
RTVSPropertyOp21
 70
     1
102
RTVSPropertyOp22
 70
     1
102
RTVSPropertyOp23
 70
     1
102
RTVSPropertyOp24
 70
     1
102
RTVSPropertyOp25
 70
     1
102
RTVSPropertyOp26
 70
     1
102
RTVSPropertyOp27
 70
     1
102
RTVSPropertyOp28
 70
     1
102
RTVSPropertyOp29
 70
     1
102
RTVSPropertyOp30
 70
     1
102
RTVSPropertyOp31
 70
     1
102
RTVSPropertyOp32
 70
     1
  0
XRECORD
  5
24E
102
{ACAD_REACTORS
330
24D
102
}
330
24D
100
AcDbXrecord
280
     1
102
RTVSPropertyOp0
 70
     1
102
RTVSPropertyOp1
 70
     1
102
RTVSPropertyOp2
 70
     1
102
RTVSPropertyOp3
 70
     1
102
RTVSPropertyOp4
 70
     1
102
RTVSPropertyOp5
 70
     1
102
RTVSPropertyOp6
 70
     1
102
RTVSPropertyOp7
 70
     1
102
RTVSPropertyOp8
 70
     1
102
RTVSPropertyOp9
 70
     1
102
RTVSPropertyOp10
 70
     1
102
RTVSPropertyOp11
 70
     1
102
RTVSPropertyOp12
 70
     1
102
RTVSPropertyOp13
 70
     1
102
RTVSPropertyOp14
 70
     1
102
RTVSPropertyOp15
 70
     1
102
RTVSPropertyOp16
 70
     1
102
RTVSPropertyOp17
 70
     1
102
RTVSPropertyOp18
 70
     1
102
RTVSPropertyOp19
 70
     1
102
RTVSPropertyOp20
 70
     1
102
RTVSPropertyOp21
 70
     1
102
RTVSPropertyOp22
 70
     1
102
RTVSPropertyOp23
 70
     1
102
RTVSPropertyOp24
 70
     1
102
RTVSPropertyOp25
 70
     1
102
RTVSPropertyOp26
 70
     1
102
RTVSPropertyOp27
 70
     1
102
RTVSPropertyOp28
 70
     1
102
RTVSPropertyOp29
 70
     1
102
RTVSPropertyOp30
 70
     1
102
RTVSPropertyOp31
 70
     1
102
RTVSPropertyOp32
 70
     1
  0
XRECORD
  5
256
102
{ACAD_REACTORS
330
255
102
}
330
255
100
AcDbXrecord
280
     1
102
RTVSPropertyOp0
 70
     1
102
RTVSPropertyOp1
 70
     1
102
RTVSPropertyOp2
 70
     1
102
RTVSPropertyOp3
 70
     1
102
RTVSPropertyOp4
 70
     1
102
RTVSPropertyOp5
 70
     1
102
RTVSPropertyOp6
 70
     1
102
RTVSPropertyOp7
 70
     1
102
RTVSPropertyOp8
 70
     1
102
RTVSPropertyOp9
 70
     1
102
RTVSPropertyOp10
 70
     1
102
RTVSPropertyOp11
 70
     1
102
RTVSPropertyOp12
 70
     1
102
RTVSPropertyOp13
 70
     1
102
RTVSPropertyOp14
 70
     1
102
RTVSPropertyOp15
 70
     1
102
RTVSPropertyOp16
 70
     1
102
RTVSPropertyOp17
 70
     1
102
RTVSPropertyOp18
 70
     1
102
RTVSPropertyOp19
 70
     1
102
RTVSPropertyOp20
 70
     1
102
RTVSPropertyOp21
 70
     1
102
RTVSPropertyOp22
 70
     1
102
RTVSPropertyOp23
 70
     1
102
RTVSPropertyOp24
 70
     1
102
RTVSPropertyOp25
 70
     1
102
RTVSPropertyOp26
 70
     1
102
RTVSPropertyOp27
 70
     1
102
RTVSPropertyOp28
 70
     1
102
RTVSPropertyOp29
 70
     1
102
RTVSPropertyOp30
 70
     1
102
RTVSPropertyOp31
 70
     1
102
RTVSPropertyOp32
 70
     1
  0
XRECORD
  5
23A
102
{ACAD_REACTORS
330
239
102
}
330
239
100
AcDbXrecord
280
     1
102
RTVSPropertyOp0
 70
     1
102
RTVSPropertyOp1
 70
     1
102
RTVSPropertyOp2
 70
     1
102
RTVSPropertyOp3
 70
     1
102
RTVSPropertyOp4
 70
     1
102
RTVSPropertyOp5
 70
     1
102
RTVSPropertyOp6
 70
     1
102
RTVSPropertyOp7
 70
     1
102
RTVSPropertyOp8
 70
     1
102
RTVSPropertyOp9
 70
     1
102
RTVSPropertyOp10
 70
     1
102
RTVSPropertyOp11
 70
     1
102
RTVSPropertyOp12
 70
     1
102
RTVSPropertyOp13
 70
     1
102
RTVSPropertyOp14
 70
     1
102
RTVSPropertyOp15
 70
     1
102
RTVSPropertyOp16
 70
     1
102
RTVSPropertyOp17
 70
     1
102
RTVSPropertyOp18
 70
     1
102
RTVSPropertyOp19
 70
     1
102
RTVSPropertyOp20
 70
     1
102
RTVSPropertyOp21
 70
     1
102
RTVSPropertyOp22
 70
     1
102
RTVSPropertyOp23
 70
     1
102
RTVSPropertyOp24
 70
     1
102
RTVSPropertyOp25
 70
     1
102
RTVSPropertyOp26
 70
     1
102
RTVSPropertyOp27
 70
     1
102
RTVSPropertyOp28
 70
     1
102
RTVSPropertyOp29
 70
     1
102
RTVSPropertyOp30
 70
     1
102
RTVSPropertyOp31
 70
     1
102
RTVSPropertyOp32
 70
     1
  0
XRECORD
  5
23C
102
{ACAD_REACTORS
330
23B
102
}
330
23B
100
AcDbXrecord
280
     1
102
RTVSPropertyOp0
 70
     1
102
RTVSPropertyOp1
 70
     1
102
RTVSPropertyOp2
 70
     1
102
RTVSPropertyOp3
 70
     1
102
RTVSPropertyOp4
 70
     1
102
RTVSPropertyOp5
 70
     1
102
RTVSPropertyOp6
 70
     1
102
RTVSPropertyOp7
 70
     1
102
RTVSPropertyOp8
 70
     1
102
RTVSPropertyOp9
 70
     1
102
RTVSPropertyOp10
 70
     1
102
RTVSPropertyOp11
 70
     1
102
RTVSPropertyOp12
 70
     1
102
RTVSPropertyOp13
 70
     1
102
RTVSPropertyOp14
 70
     1
102
RTVSPropertyOp15
 70
     1
102
RTVSPropertyOp16
 70
     1
102
RTVSPropertyOp17
 70
     1
102
RTVSPropertyOp18
 70
     1
102
RTVSPropertyOp19
 70
     1
102
RTVSPropertyOp20
 70
     1
102
RTVSPropertyOp21
 70
     1
102
RTVSPropertyOp22
 70
     1
102
RTVSPropertyOp23
 70
     1
102
RTVSPropertyOp24
 70
     1
102
RTVSPropertyOp25
 70
     1
102
RTVSPropertyOp26
 70
     1
102
RTVSPropertyOp27
 70
     1
102
RTVSPropertyOp28
 70
     1
102
RTVSPropertyOp29
 70
     1
102
RTVSPropertyOp30
 70
     1
102
RTVSPropertyOp31
 70
     1
102
RTVSPropertyOp32
 70
     1
  0
XRECORD
  5
23E
102
{ACAD_REACTORS
330
23D
102
}
330
23D
100
AcDbXrecord
280
     1
102
RTVSPropertyOp0
 70
     1
102
RTVSPropertyOp1
 70
     1
102
RTVSPropertyOp2
 70
     1
102
RTVSPropertyOp3
 70
     1
102
RTVSPropertyOp4
 70
     1
102
RTVSPropertyOp5
 70
     1
102
RTVSPropertyOp6
 70
     1
102
RTVSPropertyOp7
 70
     1
102
RTVSPropertyOp8
 70
     1
102
RTVSPropertyOp9
 70
     1
102
RTVSPropertyOp10
 70
     1
102
RTVSPropertyOp11
 70
     1
102
RTVSPropertyOp12
 70
     1
102
RTVSPropertyOp13
 70
     1
102
RTVSPropertyOp14
 70
     1
102
RTVSPropertyOp15
 70
     1
102
RTVSPropertyOp16
 70
     1
102
RTVSPropertyOp17
 70
     1
102
RTVSPropertyOp18
 70
     1
102
RTVSPropertyOp19
 70
     1
102
RTVSPropertyOp20
 70
     1
102
RTVSPropertyOp21
 70
     1
102
RTVSPropertyOp22
 70
     1
102
RTVSPropertyOp23
 70
     1
102
RTVSPropertyOp24
 70
     1
102
RTVSPropertyOp25
 70
     1
102
RTVSPropertyOp26
 70
     1
102
RTVSPropertyOp27
 70
     1
102
RTVSPropertyOp28
 70
     1
102
RTVSPropertyOp29
 70
     1
102
RTVSPropertyOp30
 70
     1
102
RTVSPropertyOp31
 70
     1
102
RTVSPropertyOp32
 70
     1
  0
XRECORD
  5
240
102
{ACAD_REACTORS
330
23F
102
}
330
23F
100
AcDbXrecord
280
     1
102
RTVSPropertyOp0
 70
     1
102
RTVSPropertyOp1
 70
     1
102
RTVSPropertyOp2
 70
     1
102
RTVSPropertyOp3
 70
     1
102
RTVSPropertyOp4
 70
     1
102
RTVSPropertyOp5
 70
     1
102
RTVSPropertyOp6
 70
     1
102
RTVSPropertyOp7
 70
     1
102
RTVSPropertyOp8
 70
     1
102
RTVSPropertyOp9
 70
     1
102
RTVSPropertyOp10
 70
     1
102
RTVSPropertyOp11
 70
     1
102
RTVSPropertyOp12
 70
     1
102
RTVSPropertyOp13
 70
     1
102
RTVSPropertyOp14
 70
     1
102
RTVSPropertyOp15
 70
     1
102
RTVSPropertyOp16
 70
     1
102
RTVSPropertyOp17
 70
     1
102
RTVSPropertyOp18
 70
     1
102
RTVSPropertyOp19
 70
     1
102
RTVSPropertyOp20
 70
     1
102
RTVSPropertyOp21
 70
     1
102
RTVSPropertyOp22
 70
     1
102
RTVSPropertyOp23
 70
     1
102
RTVSPropertyOp24
 70
     1
102
RTVSPropertyOp25
 70
     1
102
RTVSPropertyOp26
 70
     1
102
RTVSPropertyOp27
 70
     1
102
RTVSPropertyOp28
 70
     1
102
RTVSPropertyOp29
 70
     1
102
RTVSPropertyOp30
 70
     1
102
RTVSPropertyOp31
 70
     1
102
RTVSPropertyOp32
 70
     1
  0
XRECORD
  5
254
102
{ACAD_REACTORS
330
253
102
}
330
253
100
AcDbXrecord
280
     1
102
RTVSPropertyOp0
 70
     1
102
RTVSPropertyOp1
 70
     1
102
RTVSPropertyOp2
 70
     1
102
RTVSPropertyOp3
 70
     1
102
RTVSPropertyOp4
 70
     1
102
RTVSPropertyOp5
 70
     1
102
RTVSPropertyOp6
 70
     1
102
RTVSPropertyOp7
 70
     1
102
RTVSPropertyOp8
 70
     1
102
RTVSPropertyOp9
 70
     1
102
RTVSPropertyOp10
 70
     1
102
RTVSPropertyOp11
 70
     1
102
RTVSPropertyOp12
 70
     1
102
RTVSPropertyOp13
 70
     1
102
RTVSPropertyOp14
 70
     1
102
RTVSPropertyOp15
 70
     1
102
RTVSPropertyOp16
 70
     1
102
RTVSPropertyOp17
 70
     1
102
RTVSPropertyOp18
 70
     1
102
RTVSPropertyOp19
 70
     1
102
RTVSPropertyOp20
 70
     1
102
RTVSPropertyOp21
 70
     1
102
RTVSPropertyOp22
 70
     1
102
RTVSPropertyOp23
 70
     1
102
RTVSPropertyOp24
 70
     1
102
RTVSPropertyOp25
 70
     1
102
RTVSPropertyOp26
 70
     1
102
RTVSPropertyOp27
 70
     1
102
RTVSPropertyOp28
 70
     1
102
RTVSPropertyOp29
 70
     1
102
RTVSPropertyOp30
 70
     1
102
RTVSPropertyOp31
 70
     1
102
RTVSPropertyOp32
 70
     1
  0
XRECORD
  5
24A
102
{ACAD_REACTORS
330
249
102
}
330
249
100
AcDbXrecord
280
     1
102
RTVSPropertyOp0
 70
     1
102
RTVSPropertyOp1
 70
     1
102
RTVSPropertyOp2
 70
     1
102
RTVSPropertyOp3
 70
     1
102
RTVSPropertyOp4
 70
     1
102
RTVSPropertyOp5
 70
     1
102
RTVSPropertyOp6
 70
     1
102
RTVSPropertyOp7
 70
     1
102
RTVSPropertyOp8
 70
     1
102
RTVSPropertyOp9
 70
     1
102
RTVSPropertyOp10
 70
     1
102
RTVSPropertyOp11
 70
     1
102
RTVSPropertyOp12
 70
     1
102
RTVSPropertyOp13
 70
     1
102
RTVSPropertyOp14
 70
     1
102
RTVSPropertyOp15
 70
     1
102
RTVSPropertyOp16
 70
     1
102
RTVSPropertyOp17
 70
     1
102
RTVSPropertyOp18
 70
     1
102
RTVSPropertyOp19
 70
     1
102
RTVSPropertyOp20
 70
     1
102
RTVSPropertyOp21
 70
     1
102
RTVSPropertyOp22
 70
     1
102
RTVSPropertyOp23
 70
     1
102
RTVSPropertyOp24
 70
     1
102
RTVSPropertyOp25
 70
     1
102
RTVSPropertyOp26
 70
     1
102
RTVSPropertyOp27
 70
     1
102
RTVSPropertyOp28
 70
     1
102
RTVSPropertyOp29
 70
     1
102
RTVSPropertyOp30
 70
     1
102
RTVSPropertyOp31
 70
     1
102
RTVSPropertyOp32
 70
     1
  0
XRECORD
  5
252
102
{ACAD_REACTORS
330
251
102
}
330
251
100
AcDbXrecord
280
     1
102
RTVSPropertyOp0
 70
     1
102
RTVSPropertyOp1
 70
     1
102
RTVSPropertyOp2
 70
     1
102
RTVSPropertyOp3
 70
     1
102
RTVSPropertyOp4
 70
     1
102
RTVSPropertyOp5
 70
     1
102
RTVSPropertyOp6
 70
     1
102
RTVSPropertyOp7
 70
     1
102
RTVSPropertyOp8
 70
     1
102
RTVSPropertyOp9
 70
     1
102
RTVSPropertyOp10
 70
     1
102
RTVSPropertyOp11
 70
     1
102
RTVSPropertyOp12
 70
     1
102
RTVSPropertyOp13
 70
     1
102
RTVSPropertyOp14
 70
     1
102
RTVSPropertyOp15
 70
     1
102
RTVSPropertyOp16
 70
     1
102
RTVSPropertyOp17
 70
     1
102
RTVSPropertyOp18
 70
     1
102
RTVSPropertyOp19
 70
     1
102
RTVSPropertyOp20
 70
     1
102
RTVSPropertyOp21
 70
     1
102
RTVSPropertyOp22
 70
     1
102
RTVSPropertyOp23
 70
     1
102
RTVSPropertyOp24
 70
     1
102
RTVSPropertyOp25
 70
     1
102
RTVSPropertyOp26
 70
     1
102
RTVSPropertyOp27
 70
     1
102
RTVSPropertyOp28
 70
     1
102
RTVSPropertyOp29
 70
     1
102
RTVSPropertyOp30
 70
     1
102
RTVSPropertyOp31
 70
     1
102
RTVSPropertyOp32
 70
     1
  0
ENDSEC
  0
SECTION
  2
THUMBNAILIMAGE
 90
    16364
310
28000000B40000005500000001000800000000000000000000000000000000000000000000000000FFFFFF00FF000000FFFF000000FF000000FFFF000000FF00FF00FF000000000080808000C0C0C000FF000000FF7F7F00A5000000A55252007F0000007F3F3F004C0000004C2626002600000026131300FF3F0000FF9F7F
310
00A5290000A56752007F1F00007F4F3F004C1300004C2F26002609000026171300FF7F0000FFBF7F00A5520000A57C52007F3F00007F5F3F004C2600004C39260026130000261C1300FFBF0000FFDF7F00A57C0000A59152007F5F00007F6F3F004C3900004C422600261C000026211300FFFF0000FFFF7F00A5A50000A5A5
310
52007F7F00007F7F3F004C4C00004C4C26002626000026261300BFFF0000DFFF7F007CA5000091A552005F7F00006F7F3F00394C0000424C26001C260000212613007FFF0000BFFF7F0052A500007CA552003F7F00005F7F3F00264C0000394C2600132600001C2613003FFF00009FFF7F0029A5000067A552001F7F00004F
310
7F3F00134C00002F4C2600092600001726130000FF00007FFF7F0000A5000052A55200007F00003F7F3F00004C0000264C2600002600001326130000FF3F007FFF9F0000A5290052A56700007F1F003F7F4F00004C1300264C2F00002609001326170000FF7F007FFFBF0000A5520052A57C00007F3F003F7F5F00004C2600
310
264C39000026130013261C0000FFBF007FFFDF0000A57C0052A59100007F5F003F7F6F00004C3900264C420000261C001326210000FFFF007FFFFF0000A5A50052A5A500007F7F003F7F7F00004C4C00264C4C00002626001326260000BFFF007FDFFF00007CA5005291A500005F7F003F6F7F0000394C0026424C00001C26
310
0013212600007FFF007FBFFF000052A500527CA500003F7F003F5F7F0000264C0026394C0000132600131C2600003FFF007F9FFF000029A5005267A500001F7F003F4F7F0000134C00262F4C0000092600131726000000FF007F7FFF000000A5005252A50000007F003F3F7F0000004C0026264C0000002600131326003F00
310
FF009F7FFF002900A5006752A5001F007F004F3F7F0013004C002F264C0009002600171326007F00FF00BF7FFF005200A5007C52A5003F007F005F3F7F0026004C0039264C00130026001C132600BF00FF00DF7FFF007C00A5009152A5005F007F006F3F7F0039004C0042264C001C00260021132600FF00FF00FF7FFF00A5
310
00A500A552A5007F007F007F3F7F004C004C004C264C002600260026132600FF00BF00FF7FDF00A5007C00A55291007F005F007F3F6F004C0039004C26420026001C0026132100FF007F00FF7FBF00A5005200A5527C007F003F007F3F5F004C0026004C2639002600130026131C00FF003F00FF7F9F00A5002900A5526700
310
7F001F007F3F4F004C0013004C262F002600090026131700000000002D2D2D005B5B5B0089898900B7B7B700B3B3B30000000000000000000000000000000000000000000000000000000000000000000000000000000000000000000000000000000000000000000000000000000000000000000000000000000000000000
310
00000000000000000000000000000000000000000000000000000000000000000000000000000000000000000000000000000000000000000000000000000000000000000000000000000000000000000000000000000000000000000000000000000000000000000000000000000000000000000000000000000000000000
310
00000000000096969696969696000000000000000000000000000000000000000000000000000000969696969696960000000000000000000000000000000000000000000000000000000000000000000000000000000000000000000000000000000000000000000000000000000000000000000000000000000000000000
310
00000000000000000000000000000000000000000000000000000000000000000000000000000000000000000000000000000000000000000096969600000000009696960000000000000000000000000000000000000000000000969696000000000000969600000000000000000000000000000000000000000000000000
310
00000000000000000000000000000000000000000000000000000000000000000000000000000000000000000000000000000000000000000000000000000000000000000000000000000000000000000000000000000000000000000000000000000000000000000000000000969600000000000000000096960000000000
310
00009696969696969600000000000000969600000000000000000000969600000000000000000000000000000000000000000000000000000000000000000000969696969600000000000000000000000000000000000000000000000000000000969696969600000000000000000000000000000000000000000000000000
310
00000000000000000000000000000000000000000000000000000000000000000000960000000000000000000000000096000000009696000000000000009696000000009696000000000000000000000000969600000000000000000000000000000000000000000000000000000000000000969696000000969600000000
310
00000000000000000000000000000000000000000000969600000096969600000000000000000000000000000000000000000000000000000000000000000000000000000000000000000000000000000000000000009696000000000000000000000000000096009696960000000000000000000096969696960000000000
310
00000000000000000096000000000000000000000000000000000000000000000000000000000000009600000096960096960000000000000000960000969600009600000000000000009696009696000000960000000000000000000000000000000000000000000000000000000000000000000000000000000000000000
310
00000000000000000000009696000000000000000000000000000000969696000000000000000000000000000096960000000000000000000000000000000096000000000000000000000000000000000000000000000000000000000096960000969696960096960000000000000096000096960000960000000000000096
310
96009696969600009696000000000000000000000000000000000000000000000000000000000000000000000000000000000000000000000000000000000000960000000000000000000000000000000000000000000000000000000000000000000000000000000000000000000000000000009600000000000000000000
310
00000000000000000000000000000000000000960000000096969696009600000000009696960096969696009696960000000000960096969696000000009600000000000000000000000000000000000000000000000000000000000000000000000000000000000000000000000000000000000096000000000000000000
310
00000000000000000000000000000000000000000000000000000000000000000000000000000000000096960000000000000000000000000000000000000000000000000000009696960000969600969600009600969696000096969696969696960000969696009600009696009696000096969600000000000000000000
310
00000000000000000000000000000000000000000000000000000000000000000000000000000000000000960000000000000000000000000000000000000000000000000000000000000000000000000000000000000000000000000000000096000000000000000000000000000000000000000000000000000000969696
310
96969696969696000096969600000000009696969696960000000000969696000096969696969696969696000000000000000000000000000000000000000000000000000000000000000000000000000000000000000000000000000000000096000000000000000000000000000000000000000000000000000000000000
310
00000000000000000000000000000000000000000000960000000000000000000000000000000000000000000000000000009696969600960096009600009696009696960096969696009696960096969600969600009600960096009696969600000000000000000000000000000000000000000000000000000000000000
310
00000000000000000000000000000000000000000000960000000000000000000000000000000000000000000000000000000000000000000000000000000000000000000000000000009600000000000000000000000000000000000000000000000000000096000096969696969600960000009696969600960096960096
310
96960096009696009600000096009696969696960000960000000000000000000000000000000000000000000000000000000000000000000000000000000000000000000000000000000096000000000000000000000000000000000000000000000000000000000000000000000000000000000000000000000000000000
310
96000000000000000000000000000000000000000000000000000000960096969696969600009600000096009696000096960000000096960000969600960000009600009696969696960096000000000000000000000000000000000000000000000000000000000000000000000000000000000000000000000000000000
310
00960000000000000000000000000000000000000000000000000000000000000000000000000000000000000000000000000000009696000000000000000000000000000000000000000000000000000096969696000000969600960000009696969600969600960096960096960096969696000000960096000000009696
310
96960000000000000000000000000000000000000000000000000000000000000000000000000000000000000000000000000000009696000000000000000000000000000000000000000000000000000000000000000000000000000000000000000000000000000000009696000000000000000000000000000000000000
310
00000000000096969600009600960096009600000096000000969600000096960000009696000000960000009600960096009600009696960000000000000000000000000000000000000000000000000000000000000000000000000000000000000000000000000096000000000000000000000000000000000000000000
310
00000000000000000000000000000000000000000000000000000000000000000000960000000000000000000000000000000000000000000000960000000096960096969696969600009696009696009600969600960096009696009696000096969696969600969600000096960000000000000000000000000000000000
310
00000000000000000000000000000000000000000000000000000000000096000000000000000000000000000000000000000000000000000000000000000000000000000000000000000000000000000000000000000000960000000000000000000000000000000000000000009696000000969696969696969600960000
310
00969600969600969600969696009696009696000000960096969696969696960000009696000000000000000000000000000000000000000000000000000000000000000000000000000000000000000000960000000000000000000000000000000000000000000000000000000000000000000000000000000000000000
310
00000000000000000000000000000096960000000000000000000000000000000000009696000000009600969600960000969696000000969696969696000000009696969696960000009696960000960096960096000000009696000000000000000000000000000000000000000000000000000000000000000000000000
310
00000000000000960000000000000000000000000000000000000000000000000000000000000000000000000000000000000000000000000000000000000000000000000096000000000000000000000000000000000096960000000096969696969696969696009600000096969696000096969696000096969696000000
310
96009696969696969696969600000000969600000000000000000000000000000000000000000000000000000000000000000000000000000000000096000000000000000000000000000000000000000000000000000000000000000000000000000000000000000000000000000000000000000000000000000096000000
310
00000000000000000000000096000000009600969696960000000000000000960000969600969696009696009696960096960000960000000000000000969696960096000000009600000000000000000000000000000000000000000000000000000000000000000000000000000000960000000000000000000000000000
310
00000000000000000000000000000000000000000000000000000000000000000000000000000000000000000000000000960000000000000000000000000000969600000000960096960000000000000000000096960000969600969600969600969600969600009696000000000000000000009696009600000000969600
310
00000000000000000000000000000000000000000000000000000000000000000000000000009600000000000000000000000000000000000000000000000000000000000000000000000000000000000000000000000000000000000000000000000000000096960000000000000000000000000096000000009696009600
310
00009696000000000000969696960096969696969696969696969600969696960000000000009696000000960096960000000096000000000000000000000000000000000000000000000000000000000000000000000000000000960000000000000000000000000000000000000000000000000000000000000000000000
310
00000000000000000000000000000000000000000000000000000000009600000000000000000000000000960000000096969696000096960096969696969696960096969696969696000096969696969696009696969696969696009696000096969696000000009600000000000000000000000000000000000000000000
310
00000000000000000000000000000000969600000000000000000000000000000000000000000000000000000000000000000000000000000000000000000000000000000000000000000000000000000000960000000000000000000000000096000000969600960000960096969696960096969696000000000000000000
310
00000000000000000096969696009696969696009600009600969600000096000000000000000000000000000000000000000000000000000000000000000000000000000096000000000000000000000000000000000000000000000000000000000000000000000000000000000000000000000000000000000000000000
310
00000000000000009600000000000000000000000096960000009696009600009600969696969696000096969696969696969696969696969696969696969696000096969696969600960000960096960000009696000000000000000000000000000000000000000000000000000000000000000000000000009600000000
310
00000000000000000000000000000000000000000000000000000000000000000000000000000000000000000000000000000000000000000000000000960000000000000000000000009600000000969600009600960000009696000096969696969696969696969696969696969696969696969696960000969600000096
310
00960000969600000000960000000000000000000000000000000000000000000000000000000000000000000000000096960000000000000000000000000000000000000000000000000000000000000000000000000000000000000000000000000000000000000000000000000000000096000000000000000000000000
310
96960000009696960096969696000096960096000000000000000000000000000000000000000000000000009600009696000096969696009696960000009696000000000000000000000000000000000000000000000000000000000000000000000000000096000000000000000000000000000000000000000000000000
310
00000000000000000000000000000000000000000000000000000000000000000000000000000000960000000000000000000000000096000000960096000096969696009696009600000000000000000000000000000000000000000000000000009600969600969696960000960096000000960000000000000000000000
310
00000000000000000000000000000000000000000000000000000000960000000000000000000000000000000000000000000000000000000000000000000000000000000000000000000000000000000000000000000000000000000096000000000000000000000000009600000096969696960000000096969600960000
310
00000000000000000000000000000000000000000000000096009696960000000096969696960000009600000000000000000000000000000000000000000000000000000000000000000000000000000096000000000000000000000000000000000000000000000000000000000000000000000000000000000000000000
310
00000000000000000000000000000000000096000000000000000000000000000096960000009696009696969696969696009600000000000000000000000000000000000000000000000000009600969696969696969600969600000096960000000000000000000000000000000000000000000000000000000000000000
310
00000000000000969600000000000000000000000000000000000000000000000000000000000000000000000000000000000000000000000000000000000000000000000000009600000000000000000000000000000096000000969696000000000000960096960000000000000000000000000000000000000000000000
310
00000096960096000000000000969696000000960000000000000000000000000000000000000000000000000000000000000000000000000000000096960000000000000000000000000000000000000000000000000000000000000000000000000000000000000000000000000000000000000000000000000000960000
310
00000000000000000000000000969600000000969696000000969696969600000000000000000000000000000000000000000000000000009696969696000000969696000000009696000000000000000000000000000000000000000000000000000000000000000000000000000000969600000000000000000000000000
310
00000000000000000000000000000000000000000000000000000000000000000000000000000000000000000000000000009696000000000000000000000000969600000000000096969600969696009696960000000000000000000000000000000000000000000000000000969696009696960096969600000000000096
310
96000000000000000000000000000000000000000000000000000000000000000000000000009600000000000000000000000000000000000000000000000000000000000000000000000000000000000000000000000000000000000000000000000000000000009600000000000000000000000096009696969696960000
310
96960000969696969600000000000000000000000000000000000000000000000000009696969696000096960000969696969696009600000000000000000000000000000000000000000000000000000000000000000000000000960000000000000000000000000000000000000000000000000000000000000000000000
310
00000000000000000000000000000000000000000000000000000000000096000000000000000000000000960096960096009696960000000096960096960000000000000000000000000000000000000000000000000000969600969600000000969696009600969600960000000000000000000000000000000000000000
310
00000000000000000000000000000000009600000000000000000000000000000000000000000000000000000000000000000000000000000000000000000000000000000000000000000000000000000000009600000000000000000000000096969696000096969696009696969696969696000000000000000000000000
310
00000000000000000000000000009696969696969696009696969600009696969600000000000000000000000000000000000000000000000000000000000000000000000000009600000000960000000000000000000000000000000000000000000000000000000000000000000000000000000000000000000000000000
310
00000000960000009696000000000000000000000000000096960000969696009696000000969696960000000000000000000000000000000000000000000000000000969696960000009696009696960000969600000000000000000000000000000000000000000000000000000000000000000000000000000000969696
310
96969600000000000000000000000000000000000000000000000000000000000000000000000000000000000000000000000000000000000096969696960000000000000000000000000000000000000096960000960096969696969696000000000000000000000000000000000000000000000000000096969696969600
310
00960000969600000000000000000000000000000000000000000000000000000000000000000000000000000000000000000000969600960000000000000000000000000000000000000000000000000000000000000000000000000000000000000000000000000000000000009600960000000000000000000000000000
310
00000000000000960000969600960000009696960000000000000000000000000000000000000000000000000000969696000000960096960000960000000000000000000000000000000000000000000000000000000000000000000000000000000000000000000000000096000000000000000000000000000000000000
310
00000000000000000000000000000000000000000000000000000000000000000000009696000000000000000000000000000000000000000000000096000096969696009696009696000000000000000000000000000000000000000000000000000096960096960096969696000096000000000000000000000000000000
310
00000000000000000000000000000000000000000000000000000000000000000000960000000000000000000000000000000000000000000000000000000000000000000000000000000000000000000000000000000000960000000000000000000000000000000000000000000000000096009696969600009696009600
310
00000000000000000000000000000000000000000000000000960096960000969696960096000000000000000000000000000000000000000000000000000000000000000000000000000000000000000000000000000000960000000000000000000000000000000000000000000000000000000000000000000000000000
310
00000000000000000000000000009600000000000000000000000000000000000000000000000000960096960096969696960096000000000000000000000000000000000000000000000000000096009696969696009696009600000000000000000000000000000000000000000000000000000000000000000000000000
310
00000000000000000000000000009600000000000000000000000000000000000000000000000000000000000000000000000000000000000000000000000000000096000000000000000000000000000000000000000000000000000096960000960000009600969600000000000000000000000000000000000000000000
310
00000000969600960000009600009696000000000000000000000000000000000000000000000000000000000000000000000000000000000000000000000000000000009600000000000000000000000000000000000000000000000000000000000000000000000000000000000000000000000000969600000000000000
310
00000000000000000000000000000000000000009696000096969696969696000000000000000000000000000000000000000000000000000096969696969696000096960000000000000000000000000000000000000000000000000000000000000000000000000000000000000000000000000000000000009600000000
310
00000000000000000000000000000000000000000000000000000000000000000000000000000000000000969600000000000000000000000000000000000000000000000000000000000096969696960096969600000000000000000000000000000000000000000000000000009696960096969696960000000000000000
310
00000000000000000000000000000000000000000000000000000000000000000000000000000000000000000000000000969600000000000000000000000000000000000000000000000000000000000000000000000000000000000000969696000000000000000000000000000000000000000000000000000000000000
310
00000000960000969696000000000000000000000000000000000000000000000000000096969600009600000000000000000000000000000000000000000000000000000000000000000000000000000000000000000000000000000000000000000000000000969600000000000000000000000000000000000000000000
310
00000000000000000000000000000000000000009696000000000000000000000000000000000000000000000000000000000000000000009600009600969600000000000000000000000000000000000000000000000000009696009600009600000000000000000000000000000000000000000000000000000000000000
310
00000000000000000000000000000000000000000000000000000096960000000000000000000000000000000000000000000000000000000000000000000000000000000000000000009696000000000000000000000000000000000000000000000000000000000000000096000096960096960000000000000000000000
310
00000000000000000000000000000096960096960000960000000000000000000000000000000000000000000000000000000000000000000000000000000000000000000000000000000000000000969600000000000000000000000000000000000000000000000000000000000000000000000000000000000000000000
310
00009696000000000000000000000000000000000000000000000000000000009696000096960000969600000000000000000000000000000000000000000000000000009696000096960000969600000000000000000000000000000000000000000000000000000000000000000000000000000000000000000000000000
310
00000000960000000000000000000000000000000000000000000000000000000000000000000000000000000000000000000000000000009696000000000000000000000000000000000000000000000000000096000000969600000096960000000000000000000000000000000000000000000000000000969600000096
310
96000000960000000000000000000000000000000000000000000000000000000000000000000000000000000000000000000000000000009696000000000000000000000000000000000000000000000000000000000000000000000000000000000000000000000000000000009696000000000000000000000000000000
310
00000000000000000096960000009696009696969600000000000000000000000000000000000000000000000000009696969600969600000096960000000000000000000000000000000000000000000000000000000000000000000000000000000000000000000000000096000000000000000000000000000000000000
310
00000000000000000000000000000000000000000000000000000000000000000000000000960000000000000000000000000000000000000000000000960000000096969696969696960000000000000000000000000000000000000000000000000000969696969696969600000000960000000000000000000000000000
310
00000000000000000000000000000000000000000000000000000000000000000096960000000000000000000000000000000000000000000000000000000000000000000000000000000000000000000000000000000000000000960000000000000000000000000000000000000000009600000096969696009600969696
310
00000000000000000000000000000000000000000000000000009696960096009696969600000096000000000000000000000000000000000000000000000000000000000000000000000000000000000000000000009600000000000000000000000000000000000000000000000000000000000000000000000000000000
310
00000000000000000000000000000000009696000000000000000000000000000000000000009600000096969600969696969600960000000000000000000000000000000000000000000000000000960096969696960096969600000096000000000000000000000000000000000000000000000000000000000000000000
310
00000000000000000000009696000000000000000000000000000000000000000000000000000000000000000000000000000000000000000000000000000000000000000000009600000000000000000000000000000000000096960000969696969600969696960096000000000000000000000000000000000000000000
310
00000000009600969696960096969696960000969600000000000000000000000000000000000000000000000000000000000000000000000000000000000000960000000000000000000000000000000000000000000000000000000000000000000000000000000000000000000000000000000000000000000000969600
310
00000000000000000000000000000000960000009696969696960000000096960000000000000000000000000000000000000000000000000000969600000000969696969696000000960000000000000000000000000000000000000000000000000000000000000000000000000000000000009696000000000000000000
310
00000000000000000000000000000000000000000000000000000000000000000000000000000000000000000000000000000096000000000000000000000000000000009696000096969696009600969696969696000000000000000000000000000000000000000000000000000096969696969600960096969696000096
310
96000000000000000000000000000000000000000000000000000000000000000000000000000000000096000000000000000000000000000000000000000000000000000000000000000000000000000000000000000000000000000000000000000000000000009696000000000000000000000000000000960000009600
310
00969600000096960096960000000000000000000000000000000000000000000000000000969600969600000096960000960000009600000000000000000000000000000000000000000000000000000000000000000000000000000000009600000000000000000000000000000000000000000000000000000000000000
310
00000000000000000000000000000000000000000000000000000000000000960000000000000000000000000000969600000096009600969600960096969696000000000000000000000000000000000000000000000000000096969696009600969600960096000000969600000000000000000000000000000000000000
310
00000000000000000000000000000000000000009600000000000000000000000000000000000000000000000000000000000000000000000000000000000000000000000000000000000000000000000000000096000000000000000000000000000096000000969696009600969600969600969600000000000000000000
310
00000000000000000000000000000000969600969600969600960096969600000096000000000000000000000000000000000000000000000000000000000000000000000000000000960000000000000000000000000000000000000000000000000000000000000000000000000000000000000000000000000000000000
310
00000000000000000000960000000000000000000000000000960000009696969696009696960000969696000000000000000000000000000000000000000000000000000096969600009696960096969696960000009600000000000000000000000000000000000000000000000000000000000000000000000000000096
310
00000000000000000000000000000000000000000000000000000000000000000000000000000000000000000000000000000000000000000000000000000096000000000000000000000000000096000000969600960096960096960096969600000000000000000000000000000000000000000000000000009696960096
310
96960096009600969600000096000000000000000000000000000000000000000000000000000000000000000000000000000000960000000000000000000000000000000000000000000000000000000000000000000000000000000000000000000000000000000000000000000000000000009600000000000000000000
310
00000000960000009600000096960000009696009696000000000000000000000000000000000000000000000000000096960096960000960096000000960000009600000000000000000000000000000000000000000000000000000000000000000000000000000096000000000000000000000000000000000000000000
310
00000000000000000000000000000000000000000000000000000000000000000000000000000000000096000000000000000000000000000096000000009600960096969600969696960096969696969696969696969696969696969696969696969696960096969696009600960096009600000000960000000000000000
310
00000000000000000000000000000000000000000000000000000000000000960000000000000000000000000000000000000000000000000000000000000000000000000000000000000000000000000000000000000000000000000000009600000000000000000000000000009696000096969600960096009600960096
310
00000000000000000000000000000000000000000000000000000000960096009600960096009696960000969600000000000000000000000000000000000000000000000000000000000000000000000000000096960000000000000000000000000000000000000000000000000000000000000000000000000000000000
310
00000000000000000000000000000000000000000096000000000000000000000000000000960000009696960000009696969696969600969696969696000096969696969696960000969696969696009696969696969600000096969600000096000000000000000000000000000000000000000000000000000000000000
310
00000000000000000000009600000000000000000000000000000000000000000000000000000000000000000000000000000000000000000000000000000000000000000000000000009600000000000000000000000000000096000000960096960096009696000096969696000096960000000000960000960000000000
310
96960000969696960000969600960096960096000000960000000000000000000000000000000000000000000000000000000000000000000000000000000000960000000000000000000000000000000000000000000000000000000000000000000000000000000000000000000000000000000000000000000000000096
310
00000000000000000000000000000000969600000096960096000000960096960096960096000096969600009696969600009696960000960096960096960096000000960096960000009696000000000000000000000000000000000000000000000000000000000000000000000000000000000096960000000000000000
310
00000000000000000000000000000000000000000000000000000000000000000000000000000000000000000000000000000000960000000000000000000000000000000000960000009696969696009600960096009696969600960000960000009696000000960000960096969696009600960096009696969696000000
310
96000000000000000000000000000000000000000000000000000000000000000000000000000000000000009600000000000000000000000000000000000000000000000000000000000000000000000000000000000000000000000000000000000000000000009696000000000000000000000000000000000096960000
310
00009696969600960096009600969600969696009696960096960096969600969696009696009600960096009696969600000000969600000000000000000000000000000000000000000000000000000000000000000000000000000000000000969600000000000000000000000000000000000000000000000000000000
310
00000000000000000000000000000000000000000000000000000000000096000000000000000000000000000000000000009600000000009696969696969696009696000096969696969600009696000096969696969600009696009696969696969696000000000096000000000000000000000000000000000000000000
310
00000000000000000000000000000000000000000000000096000000000000000000000000000000000000000000000000000000000000000000000000000000000000000000000000000000000000000000969600000000000000000000000000000000000000009600000000000000009696960000000096960000000000
310
96000096960000960000000000969600000000969696000000000000000096000000000000000000000000000000000000000000000000000000000000000000000000000000000000000000009696000000000000000000000000000000000000000000000000000000000000000000000000000000000000000000000000
310
00000000000000969600000000000000000000000000000000000000000096960000000000000000960000000096969600000000969600000000000096960000000096969600000000960000000000000000960000000000000000000000000000000000000000000000000000000000000000000000000000000000000000
310
00000000969600000000000000000000000000000000000000000000000000000000000000000000000000000000000000000000000000000000000096000000000000000000000000000000000000000000000000960000009600000000000000969696960096969696000000000000000096969696009696969600000000
310
00000096000000960000000000000000000000000000000000000000000000000000000000000000000000000000000000000000000000000000969600000000000000000000000000000000000000000000000000000000000000000000000000000000000000000000000000000000960000000000000000000000000000
310
00000000000000000000000096960096969696969696969696009696969696969600000000000096969696969696009696969696969696969600969600000000000000000000000000000000000000000000000000000000000000000000000000000000000000000000000000000000969600000000000000000000000000
310
00000000000000000000000000000000000000000000000000000000000000000000000096960000000000000000000000000000000000000000000000000000000096969600969696969696960000000096960096000000000000000096009696000000009696969696969600969696000000000000000000000000000000
310
00000000000000000000000000000000000000000000000000000000000000000000000000000000969600000000000000000000000000000000000000000000000000000000000000000000000000000000000000000000969600000000000000000000000000000000000000000000000000000000000000969696969696
310
96969696969696969600960000000000000000960096969696969696969696969696969600000000000000000000000000000000000000000000000000000000000000000000000000000000000000000000000000000000000000000000969696000000000000000000000000000000000000000000000000000000000000
310
00000000000000000000000096960000000000000000000000000000000000000000000000000000000000000000000000000000000000000000969696969696000000000000000096969696969600000000000000000000000000000000000000000000000000000000000000000000000000000000000000000000000000
310
00000000000000000000000000000000000000000000969696969600969696969600000000000000000000000000000000000000000096969696969696969696960000000000000000000000000000000000000000000000000000000000000000000000000000000000000000000096000000969696000000000000969696
310
00000096000000000000000000000000000000000000000000000000000000000000000000000000000000000000000000000000000000000000000000000000000000000000000000000000000000009600000000969600000000000000000000000000000000000000009600000000969600000000000000000000000000
310
00000000000000000000000000000000000000000000000000000000000000000000000000969696969696969696000096969696969696969600000000000000000000000000000000000000000000000000000000000000000000000000000000000000000000000000000000000000000000000000000000000000000000
310
00000000000000000000000096000000000000000000000000000000000000009696000000000000000000000000000000000000000000000000000000000000000000000000000000000000000000000000000000000000000000969696969696009696969600969696969696000000000000000000000000000000000000
310
00000000000000000000000000000000000000000000000000000000000000000000000000000000000000000000000000000000000000000000000000000000009696960000000096000000000096960000000096960000000000000000000000000000000000000000000000000000000000000000000000000000000000
310
00000000000000000000000000000000000000000000000000969600000000000000000000000000000000000000000000000000000000000000000000000000000000000000000000000000000000000000000000000000000000000000000000000000000000000000000000000000000000000000000096969696969600
310
00000000969696969696960000000000000000000000000000000000000000000000000000000000000000000000000000000000000000000000000000000000000000000000000000000000000096000000000000000000000000000000000000000000000000000000000000000000000000000000000000000000000000
310
00000000000000000000000000000000000000000000000000000000000000000000000000000000000000000000000000000000960000009696000000000000000000000000000000000000000000000000000000000000000000000000000000000000000000000000000000000000000000000000000000000000000000
310
00000000000000000000000000000000000000000000000000000000000000000000000000000000000000000000000000000000000000000000000000000000000000000000000000000000000000000000000000000000000000000000000000000000000000000096969696960000000000000000000000000000000000
310
000000000000000000000000000000000000000000000000000000000000000000000000000000000000000000000000000000000000000000000000000000000000000000000000000000000000000000000000000000000000000000000000000000000000000000000000
  0
ENDSEC
  0
EOF
