  0
SECTION
  2
HEADER
  9
$ACADVER
  1
AC1021
  9
$ACADMAINTVER
 70
    25
  9
$DWGCODEPAGE
  3
ANSI_1251
  9
$INSBASE
 10
0.0
 20
0.0
 30
0.0
  9
$EXTMIN
 10
1.000000000000000E+20
 20
1.000000000000000E+20
 30
1.000000000000000E+20
  9
$EXTMAX
 10
-1.000000000000000E+20
 20
-1.000000000000000E+20
 30
-1.000000000000000E+20
  9
$LIMMIN
 10
0.0
 20
0.0
  9
$LIMMAX
 10
420.0
 20
297.0
  9
$ORTHOMODE
 70
     0
  9
$REGENMODE
 70
     1
  9
$FILLMODE
 70
     1
  9
$QTEXTMODE
 70
     0
  9
$MIRRTEXT
 70
     1
  9
$LTSCALE
 40
1.0
  9
$ATTMODE
 70
     1
  9
$TEXTSIZE
 40
2.5
  9
$TRACEWID
 40
1.0
  9
$TEXTSTYLE
  7
Standard
  9
$CLAYER
  8
0
  9
$CELTYPE
  6
ByLayer
  9
$CECOLOR
 62
   256
  9
$CELTSCALE
 40
1.0
  9
$DISPSILH
 70
     0
  9
$DIMSCALE
 40
1.0
  9
$DIMASZ
 40
2.5
  9
$DIMEXO
 40
0.625
  9
$DIMDLI
 40
3.75
  9
$DIMRND
 40
0.0
  9
$DIMDLE
 40
0.0
  9
$DIMEXE
 40
1.25
  9
$DIMTP
 40
0.0
  9
$DIMTM
 40
0.0
  9
$DIMTXT
 40
2.5
  9
$DIMCEN
 40
2.5
  9
$DIMTSZ
 40
0.0
  9
$DIMTOL
 70
     0
  9
$DIMLIM
 70
     0
  9
$DIMTIH
 70
     0
  9
$DIMTOH
 70
     0
  9
$DIMSE1
 70
     0
  9
$DIMSE2
 70
     0
  9
$DIMTAD
 70
     1
  9
$DIMZIN
 70
     8
  9
$DIMBLK
  1

  9
$DIMASO
 70
     1
  9
$DIMSHO
 70
     1
  9
$DIMPOST
  1

  9
$DIMAPOST
  1

  9
$DIMALT
 70
     0
  9
$DIMALTD
 70
     3
  9
$DIMALTF
 40
0.03937007874016
  9
$DIMLFAC
 40
1.0
  9
$DIMTOFL
 70
     1
  9
$DIMTVP
 40
0.0
  9
$DIMTIX
 70
     0
  9
$DIMSOXD
 70
     0
  9
$DIMSAH
 70
     0
  9
$DIMBLK1
  1

  9
$DIMBLK2
  1

  9
$DIMSTYLE
  2
ISO-25
  9
$DIMCLRD
 70
     0
  9
$DIMCLRE
 70
     0
  9
$DIMCLRT
 70
     0
  9
$DIMTFAC
 40
1.0
  9
$DIMGAP
 40
0.625
  9
$DIMJUST
 70
     0
  9
$DIMSD1
 70
     0
  9
$DIMSD2
 70
     0
  9
$DIMTOLJ
 70
     0
  9
$DIMTZIN
 70
     8
  9
$DIMALTZ
 70
     0
  9
$DIMALTTZ
 70
     0
  9
$DIMUPT
 70
     0
  9
$DIMDEC
 70
     2
  9
$DIMTDEC
 70
     2
  9
$DIMALTU
 70
     2
  9
$DIMALTTD
 70
     3
  9
$DIMTXSTY
  7
Standard
  9
$DIMAUNIT
 70
     0
  9
$DIMADEC
 70
     0
  9
$DIMALTRND
 40
0.0
  9
$DIMAZIN
 70
     0
  9
$DIMDSEP
 70
    44
  9
$DIMATFIT
 70
     3
  9
$DIMFRAC
 70
     0
  9
$DIMLDRBLK
  1

  9
$DIMLUNIT
 70
     2
  9
$DIMLWD
 70
    -2
  9
$DIMLWE
 70
    -2
  9
$DIMTMOVE
 70
     0
  9
$DIMFXL
 40
1.0
  9
$DIMFXLON
 70
     0
  9
$DIMJOGANG
 40
0.7853981633974483
  9
$DIMTFILL
 70
     0
  9
$DIMTFILLCLR
 70
     0
  9
$DIMARCSYM
 70
     0
  9
$DIMLTYPE
  6

  9
$DIMLTEX1
  6

  9
$DIMLTEX2
  6

  9
$LUNITS
 70
     2
  9
$LUPREC
 70
     4
  9
$SKETCHINC
 40
1.0
  9
$FILLETRAD
 40
10.0
  9
$AUNITS
 70
     0
  9
$AUPREC
 70
     0
  9
$MENU
  1
.
  9
$ELEVATION
 40
0.0
  9
$PELEVATION
 40
0.0
  9
$THICKNESS
 40
0.0
  9
$LIMCHECK
 70
     0
  9
$CHAMFERA
 40
10.0
  9
$CHAMFERB
 40
10.0
  9
$CHAMFERC
 40
20.0
  9
$CHAMFERD
 40
0.0
  9
$SKPOLY
 70
     0
  9
$TDCREATE
 40
2457659.624183437
  9
$TDUCREATE
 40
2457659.457516771
  9
$TDUPDATE
 40
2457659.624184479
  9
$TDUUPDATE
 40
2457659.457517812
  9
$TDINDWG
 40
0.0000000116
  9
$TDUSRTIMER
 40
0.0000000116
  9
$USRTIMER
 70
     1
  9
$ANGBASE
 50
0.0
  9
$ANGDIR
 70
     0
  9
$PDMODE
 70
     0
  9
$PDSIZE
 40
0.0
  9
$PLINEWID
 40
0.0
  9
$SPLFRAME
 70
     0
  9
$SPLINETYPE
 70
     6
  9
$SPLINESEGS
 70
     8
  9
$HANDSEED
  5
2B6
  9
$SURFTAB1
 70
     6
  9
$SURFTAB2
 70
     6
  9
$SURFTYPE
 70
     6
  9
$SURFU
 70
     6
  9
$SURFV
 70
     6
  9
$UCSBASE
  2

  9
$UCSNAME
  2

  9
$UCSORG
 10
0.0
 20
0.0
 30
0.0
  9
$UCSXDIR
 10
1.0
 20
0.0
 30
0.0
  9
$UCSYDIR
 10
0.0
 20
1.0
 30
0.0
  9
$UCSORTHOREF
  2

  9
$UCSORTHOVIEW
 70
     0
  9
$UCSORGTOP
 10
0.0
 20
0.0
 30
0.0
  9
$UCSORGBOTTOM
 10
0.0
 20
0.0
 30
0.0
  9
$UCSORGLEFT
 10
0.0
 20
0.0
 30
0.0
  9
$UCSORGRIGHT
 10
0.0
 20
0.0
 30
0.0
  9
$UCSORGFRONT
 10
0.0
 20
0.0
 30
0.0
  9
$UCSORGBACK
 10
0.0
 20
0.0
 30
0.0
  9
$PUCSBASE
  2

  9
$PUCSNAME
  2

  9
$PUCSORG
 10
0.0
 20
0.0
 30
0.0
  9
$PUCSXDIR
 10
1.0
 20
0.0
 30
0.0
  9
$PUCSYDIR
 10
0.0
 20
1.0
 30
0.0
  9
$PUCSORTHOREF
  2

  9
$PUCSORTHOVIEW
 70
     0
  9
$PUCSORGTOP
 10
0.0
 20
0.0
 30
0.0
  9
$PUCSORGBOTTOM
 10
0.0
 20
0.0
 30
0.0
  9
$PUCSORGLEFT
 10
0.0
 20
0.0
 30
0.0
  9
$PUCSORGRIGHT
 10
0.0
 20
0.0
 30
0.0
  9
$PUCSORGFRONT
 10
0.0
 20
0.0
 30
0.0
  9
$PUCSORGBACK
 10
0.0
 20
0.0
 30
0.0
  9
$USERI1
 70
     0
  9
$USERI2
 70
     0
  9
$USERI3
 70
     0
  9
$USERI4
 70
     0
  9
$USERI5
 70
     0
  9
$USERR1
 40
0.0
  9
$USERR2
 40
0.0
  9
$USERR3
 40
0.0
  9
$USERR4
 40
0.0
  9
$USERR5
 40
0.0
  9
$WORLDVIEW
 70
     1
  9
$SHADEDGE
 70
     3
  9
$SHADEDIF
 70
    70
  9
$TILEMODE
 70
     1
  9
$MAXACTVP
 70
    64
  9
$PINSBASE
 10
0.0
 20
0.0
 30
0.0
  9
$PLIMCHECK
 70
     0
  9
$PEXTMIN
 10
1.000000000000000E+20
 20
1.000000000000000E+20
 30
1.000000000000000E+20
  9
$PEXTMAX
 10
-1.000000000000000E+20
 20
-1.000000000000000E+20
 30
-1.000000000000000E+20
  9
$PLIMMIN
 10
0.0
 20
0.0
  9
$PLIMMAX
 10
420.0
 20
297.0
  9
$UNITMODE
 70
     0
  9
$VISRETAIN
 70
     1
  9
$PLINEGEN
 70
     0
  9
$PSLTSCALE
 70
     1
  9
$TREEDEPTH
 70
  3020
  9
$CMLSTYLE
  2
Standard
  9
$CMLJUST
 70
     0
  9
$CMLSCALE
 40
20.0
  9
$PROXYGRAPHICS
 70
     1
  9
$MEASUREMENT
 70
     1
  9
$CELWEIGHT
370
    -1
  9
$ENDCAPS
280
     0
  9
$JOINSTYLE
280
     0
  9
$LWDISPLAY
290
     0
  9
$INSUNITS
 70
     4
  9
$HYPERLINKBASE
  1

  9
$STYLESHEET
  1

  9
$XEDIT
290
     1
  9
$CEPSNTYPE
380
     0
  9
$PSTYLEMODE
290
     1
  9
$FINGERPRINTGUID
  2
{A686B0C7-2FF7-4193-BCC0-DA34F7CDA67E}
  9
$VERSIONGUID
  2
{FAEB1C32-E019-11D5-929B-00C0DF256EC4}
  9
$EXTNAMES
290
     1
  9
$PSVPSCALE
 40
0.0
  9
$OLESTARTUP
290
     0
  9
$SORTENTS
280
   127
  9
$INDEXCTL
280
     0
  9
$HIDETEXT
280
     1
  9
$XCLIPFRAME
290
     0
  9
$HALOGAP
280
     0
  9
$OBSCOLOR
 70
   257
  9
$OBSLTYPE
280
     0
  9
$INTERSECTIONDISPLAY
280
     0
  9
$INTERSECTIONCOLOR
 70
   257
  9
$DIMASSOC
280
     2
  9
$PROJECTNAME
  1

  9
$CAMERADISPLAY
290
     0
  9
$LENSLENGTH
 40
50.0
  9
$CAMERAHEIGHT
 40
0.0
  9
$STEPSPERSEC
 40
2.0
  9
$STEPSIZE
 40
6.0
  9
$3DDWFPREC
 40
2.0
  9
$PSOLWIDTH
 40
5.0
  9
$PSOLHEIGHT
 40
80.0
  9
$LOFTANG1
 40
1.570796326794897
  9
$LOFTANG2
 40
1.570796326794897
  9
$LOFTMAG1
 40
0.0
  9
$LOFTMAG2
 40
0.0
  9
$LOFTPARAM
 70
     7
  9
$LOFTNORMALS
280
     1
  9
$LATITUDE
 40
37.795
  9
$LONGITUDE
 40
-122.394
  9
$NORTHDIRECTION
 40
0.0
  9
$TIMEZONE
 70
 -8000
  9
$LIGHTGLYPHDISPLAY
280
     1
  9
$TILEMODELIGHTSYNCH
280
     1
  9
$SOLIDHIST
280
     1
  9
$SHOWHIST
280
     1
  9
$DWFFRAME
280
     2
  9
$DGNFRAME
280
     2
  9
$REALWORLDSCALE
290
     1
  9
$INTERFERECOLOR
 62
   256
  9
$CSHADOW
280
     0
  9
$SHADOWPLANELOCATION
 40
0.0
  0
ENDSEC
  0
SECTION
  2
CLASSES
  0
CLASS
  1
ACDBDICTIONARYWDFLT
  2
AcDbDictionaryWithDefault
  3
ObjectDBX Classes
 90
        0
 91
        4
280
     0
281
     0
  0
CLASS
  1
VISUALSTYLE
  2
AcDbVisualStyle
  3
ObjectDBX Classes
 90
     4095
 91
        4
280
     0
281
     0
  0
CLASS
  1
MATERIAL
  2
AcDbMaterial
  3
ObjectDBX Classes
 90
     1153
 91
        4
280
     0
281
     0
  0
CLASS
  1
SCALE
  2
AcDbScale
  3
ObjectDBX Classes
 90
     1153
 91
        4
280
     0
281
     0
  0
CLASS
  1
DICTIONARYVAR
  2
AcDbDictionaryVar
  3
ObjectDBX Classes
 90
        0
 91
        4
280
     0
281
     0
  0
ENDSEC
  0
SECTION
  2
TABLES
  0
TABLE
  2
VPORT
  5
8
330
0
100
AcDbSymbolTable
 70
     1
  0
VPORT
  5
29
330
8
100
AcDbSymbolTableRecord
100
AcDbViewportTableRecord
  2
*Active
 70
     0
 10
0.0
 20
0.0
 11
1.0
 21
1.0
 12
41.64073092765386
 22
25.78166287246034
 13
0.0
 23
0.0
 14
10.0
 24
10.0
 15
10.0
 25
10.0
 16
0.0
 26
0.0
 36
1.0
 17
0.0
 27
0.0
 37
0.0
 40
233.5812676521224
 41
1.437955487931726
 42
50.0
 43
0.0
 44
0.0
 50
0.0
 51
0.0
 71
     0
 72
   100
 73
     1
 74
     3
 75
     0
 76
     0
 77
     0
 78
     0
281
     0
 65
     1
110
0.0
120
0.0
130
0.0
111
1.0
121
0.0
131
0.0
112
0.0
122
1.0
132
0.0
 79
     0
146
0.0
 60
     3
 61
     5
292
     1
282
     1
141
0.0
142
0.0
 63
   250
  0
ENDTAB
  0
TABLE
  2
LTYPE
  5
5
330
0
100
AcDbSymbolTable
 70
     3
  0
LTYPE
  5
14
330
5
100
AcDbSymbolTableRecord
100
AcDbLinetypeTableRecord
  2
ByBlock
 70
     0
  3

 72
    65
 73
     0
 40
0.0
  0
LTYPE
  5
15
330
5
100
AcDbSymbolTableRecord
100
AcDbLinetypeTableRecord
  2
ByLayer
 70
     0
  3

 72
    65
 73
     0
 40
0.0
  0
LTYPE
  5
16
330
5
100
AcDbSymbolTableRecord
100
AcDbLinetypeTableRecord
  2
Continuous
 70
     0
  3
Solid line
 72
    65
 73
     0
 40
0.0
  0
LTYPE
  5
42
330
5
100
AcDbSymbolTableRecord
100
AcDbLinetypeTableRecord
  2
K5LT_THIN
 70
     0
  3

 72
    65
 73
     0
 40
0.0
  0
LTYPE
  5
A4
330
5
100
AcDbSymbolTableRecord
100
AcDbLinetypeTableRecord
  2
K5LT32771
 70
     0
  3

 72
    65
 73
     0
 40
0.0
  0
ENDTAB
  0
TABLE
  2
LAYER
  5
2
330
0
100
AcDbSymbolTable
 70
     2
  0
LAYER
  5
10
330
2
100
AcDbSymbolTableRecord
100
AcDbLayerTableRecord
  2
0
 70
     0
 62
     7
  6
Continuous
370
    -3
390
F
347
3E
  0
LAYER
  5
40
330
2
100
AcDbSymbolTableRecord
100
AcDbLayerTableRecord
  2
Системный слой
 70
     0
 62
     7
  6
Continuous
370
    -3
390
F
347
3E
  0
ENDTAB
  0
TABLE
  2
STYLE
  5
3
330
0
100
AcDbSymbolTable
 70
     1
  0
STYLE
  5
11
330
3
100
AcDbSymbolTableRecord
100
AcDbTextStyleTableRecord
  2
Standard
 70
     0
 40
0.0
 41
1.0
 50
0.0
 71
     0
 42
2.5
  3
txt
  4

  0
ENDTAB
  0
TABLE
  2
VIEW
  5
6
330
0
100
AcDbSymbolTable
 70
     0
  0
ENDTAB
  0
TABLE
  2
UCS
  5
7
330
0
100
AcDbSymbolTable
 70
     0
  0
ENDTAB
  0
TABLE
  2
APPID
  5
9
330
0
100
AcDbSymbolTable
 70
     2
  0
APPID
  5
12
330
9
100
AcDbSymbolTableRecord
100
AcDbRegAppTableRecord
  2
ACAD
 70
     0
  0
APPID
  5
3F
330
9
100
AcDbSymbolTableRecord
100
AcDbRegAppTableRecord
  2
KOMPAS
 70
     0
  0
ENDTAB
  0
TABLE
  2
DIMSTYLE
  5
A
330
0
100
AcDbSymbolTable
 70
     1
100
AcDbDimStyleTable
  0
DIMSTYLE
105
27
330
A
100
AcDbSymbolTableRecord
100
AcDbDimStyleTableRecord
  2
ISO-25
 70
     0
 41
2.5
 42
0.625
 43
3.75
 44
1.25
 73
     0
 74
     0
 77
     1
 78
     8
140
2.5
141
2.5
143
0.03937007874016
147
0.625
171
     3
172
     1
178
     0
271
     2
272
     2
274
     3
278
    44
283
     0
284
     8
340
11
  0
ENDTAB
  0
TABLE
  2
BLOCK_RECORD
  5
1
330
0
100
AcDbSymbolTable
 70
    15
  0
BLOCK_RECORD
  5
1F
330
1
100
AcDbSymbolTableRecord
100
AcDbBlockTableRecord
  2
*Model_Space
340
22
 70
     0
280
     1
281
     0
  0
BLOCK_RECORD
  5
1B
330
1
100
AcDbSymbolTableRecord
100
AcDbBlockTableRecord
  2
*Paper_Space
340
1E
 70
     0
280
     1
281
     0
  0
BLOCK_RECORD
  5
23
330
1
100
AcDbSymbolTableRecord
100
AcDbBlockTableRecord
  2
*Paper_Space0
340
26
 70
     0
280
     1
281
     0
  0
BLOCK_RECORD
  5
41
330
1
100
AcDbSymbolTableRecord
100
AcDbBlockTableRecord
  2
KDIMARROW_00
340
0
 70
     0
280
     1
281
     0
  0
BLOCK_RECORD
  5
46
330
1
100
AcDbSymbolTableRecord
100
AcDbBlockTableRecord
  2
KDIMARROW_01
340
0
 70
     0
280
     1
281
     0
  0
BLOCK_RECORD
  5
4F
330
1
100
AcDbSymbolTableRecord
100
AcDbBlockTableRecord
  2
KDIMARROW_02
340
0
 70
     0
280
     1
281
     0
  0
BLOCK_RECORD
  5
59
330
1
100
AcDbSymbolTableRecord
100
AcDbBlockTableRecord
  2
KDIMARROW_03
340
0
 70
     0
280
     1
281
     0
  0
BLOCK_RECORD
  5
5F
330
1
100
AcDbSymbolTableRecord
100
AcDbBlockTableRecord
  2
KDIMARROW_04
340
0
 70
     0
280
     1
281
     0
  0
BLOCK_RECORD
  5
65
330
1
100
AcDbSymbolTableRecord
100
AcDbBlockTableRecord
  2
KDIMARROW_05
340
0
 70
     0
280
     1
281
     0
  0
BLOCK_RECORD
  5
6E
330
1
100
AcDbSymbolTableRecord
100
AcDbBlockTableRecord
  2
KDIMARROW_06
340
0
 70
     0
280
     1
281
     0
  0
BLOCK_RECORD
  5
78
330
1
100
AcDbSymbolTableRecord
100
AcDbBlockTableRecord
  2
KDIMARROW_07
340
0
 70
     0
280
     1
281
     0
  0
BLOCK_RECORD
  5
7E
330
1
100
AcDbSymbolTableRecord
100
AcDbBlockTableRecord
  2
KDIMARROW_08
340
0
 70
     0
280
     1
281
     0
  0
BLOCK_RECORD
  5
85
330
1
100
AcDbSymbolTableRecord
100
AcDbBlockTableRecord
  2
KDIMARROW_09
340
0
 70
     0
280
     1
281
     0
  0
BLOCK_RECORD
  5
8B
330
1
100
AcDbSymbolTableRecord
100
AcDbBlockTableRecord
  2
KDIMARROW_10
340
0
 70
     0
280
     1
281
     0
  0
BLOCK_RECORD
  5
92
330
1
100
AcDbSymbolTableRecord
100
AcDbBlockTableRecord
  2
KDIMARROW_11
340
0
 70
     0
280
     1
281
     0
  0
BLOCK_RECORD
  5
98
330
1
100
AcDbSymbolTableRecord
100
AcDbBlockTableRecord
  2
KDIMARROW_12
340
0
 70
     0
280
     1
281
     0
  0
BLOCK_RECORD
  5
9E
330
1
100
AcDbSymbolTableRecord
100
AcDbBlockTableRecord
  2
KDIMARROW_13
340
0
 70
     0
280
     1
281
     0
  0
ENDTAB
  0
ENDSEC
  0
SECTION
  2
BLOCKS
  0
BLOCK
  5
20
330
1F
100
AcDbEntity
  8
0
100
AcDbBlockBegin
  2
*Model_Space
 70
     0
 10
0.0
 20
0.0
 30
0.0
  3
*Model_Space
  1

  0
ENDBLK
  5
21
330
1F
100
AcDbEntity
  8
0
100
AcDbBlockEnd
  0
BLOCK
  5
1C
330
1B
100
AcDbEntity
 67
     1
  8
0
100
AcDbBlockBegin
  2
*Paper_Space
 70
     0
 10
0.0
 20
0.0
 30
0.0
  3
*Paper_Space
  1

  0
ENDBLK
  5
1D
330
1B
100
AcDbEntity
 67
     1
  8
0
100
AcDbBlockEnd
  0
BLOCK
  5
24
330
23
100
AcDbEntity
  8
0
100
AcDbBlockBegin
  2
*Paper_Space0
 70
     0
 10
0.0
 20
0.0
 30
0.0
  3
*Paper_Space0
  1

  0
ENDBLK
  5
25
330
23
100
AcDbEntity
  8
0
100
AcDbBlockEnd
  0
BLOCK
  5
44
330
41
100
AcDbEntity
  8
0
100
AcDbBlockBegin
  2
KDIMARROW_00
 70
     0
 10
0.0
 20
0.0
 30
0.0
  3
KDIMARROW_00
  1

  0
LINE
  5
43
330
41
100
AcDbEntity
  8
0
  6
K5LT_THIN
 62
     0
100
AcDbLine
 10
0.0
 20
0.0
 30
0.0
 11
-1.0
 21
0.0
 31
0.0
  0
ENDBLK
  5
45
330
41
100
AcDbEntity
  8
0
100
AcDbBlockEnd
  0
BLOCK
  5
4D
330
46
100
AcDbEntity
  8
0
100
AcDbBlockBegin
  2
KDIMARROW_01
 70
     0
 10
0.0
 20
0.0
 30
0.0
  3
KDIMARROW_01
  1

  0
LINE
  5
47
330
46
100
AcDbEntity
  8
0
  6
K5LT_THIN
 62
     0
100
AcDbLine
 10
0.0
 20
0.0
 30
0.0
 11
-5.0
 21
-0.6582624912261956
 31
0.0
  0
LINE
  5
48
330
46
100
AcDbEntity
  8
0
  6
K5LT_THIN
 62
     0
100
AcDbLine
 10
-5.0
 20
-0.6582624912261956
 30
0.0
 11
-4.5
 21
0.0000000000000006
 31
0.0
  0
LINE
  5
49
330
46
100
AcDbEntity
  8
0
  6
K5LT_THIN
 62
     0
100
AcDbLine
 10
-4.5
 20
0.0000000000000006
 30
0.0
 11
-5.0
 21
0.658262491226197
 31
0.0
  0
LINE
  5
4A
330
46
100
AcDbEntity
  8
0
  6
K5LT_THIN
 62
     0
100
AcDbLine
 10
-5.0
 20
0.658262491226197
 30
0.0
 11
0.0
 21
0.0
 31
0.0
  0
HATCH
  5
4B
330
46
100
AcDbEntity
  8
0
 62
     0
100
AcDbHatch
 10
0.0
 20
0.0
 30
0.0
210
0.0
220
0.0
230
1.0
  2
SOLID
 70
     1
 71
     0
 91
        1
 92
        1
 93
        4
 72
     1
 10
0.0
 20
0.0
 11
-5.0
 21
0.658262491226197
 72
     1
 10
-5.0
 20
0.658262491226197
 11
-4.5
 21
0.0000000000000006
 72
     1
 10
-4.5
 20
0.0000000000000006
 11
-5.0
 21
-0.6582624912261956
 72
     1
 10
-5.0
 20
-0.6582624912261956
 11
0.0
 21
0.0
 97
        0
 75
     0
 76
     1
 98
        0
  0
LINE
  5
4C
330
46
100
AcDbEntity
  8
0
  6
K5LT_THIN
 62
     0
100
AcDbLine
 10
0.0
 20
0.0
 30
0.0
 11
-1.0
 21
0.0
 31
0.0
  0
ENDBLK
  5
4E
330
46
100
AcDbEntity
  8
0
100
AcDbBlockEnd
  0
BLOCK
  5
57
330
4F
100
AcDbEntity
  8
0
100
AcDbBlockBegin
  2
KDIMARROW_02
 70
     0
 10
0.0
 20
0.0
 30
0.0
  3
KDIMARROW_02
  1

  0
LINE
  5
50
330
4F
100
AcDbEntity
  8
0
  6
K5LT_THIN
 62
     0
100
AcDbLine
 10
0.0
 20
0.0
 30
0.0
 11
5.0
 21
-0.658262491226197
 31
0.0
  0
LINE
  5
51
330
4F
100
AcDbEntity
  8
0
  6
K5LT_THIN
 62
     0
100
AcDbLine
 10
5.0
 20
-0.658262491226197
 30
0.0
 11
4.5
 21
-0.0000000000000006
 31
0.0
  0
LINE
  5
52
330
4F
100
AcDbEntity
  8
0
  6
K5LT_THIN
 62
     0
100
AcDbLine
 10
4.5
 20
-0.0000000000000006
 30
0.0
 11
5.0
 21
0.6582624912261956
 31
0.0
  0
LINE
  5
53
330
4F
100
AcDbEntity
  8
0
  6
K5LT_THIN
 62
     0
100
AcDbLine
 10
5.0
 20
0.6582624912261956
 30
0.0
 11
0.0
 21
0.0
 31
0.0
  0
LINE
  5
54
330
4F
100
AcDbEntity
  8
0
  6
K5LT_THIN
 62
     0
100
AcDbLine
 10
0.0
 20
0.0
 30
0.0
 11
7.0
 21
-0.0000000000000009
 31
0.0
  0
HATCH
  5
55
330
4F
100
AcDbEntity
  8
0
 62
     0
100
AcDbHatch
 10
0.0
 20
0.0
 30
0.0
210
0.0
220
0.0
230
1.0
  2
SOLID
 70
     1
 71
     0
 91
        1
 92
        1
 93
        4
 72
     1
 10
4.5
 20
-0.0000000000000006
 11
5.0
 21
0.6582624912261956
 72
     1
 10
5.0
 20
0.6582624912261956
 11
0.0
 21
0.0
 72
     1
 10
0.0
 20
0.0
 11
5.0
 21
-0.658262491226197
 72
     1
 10
5.0
 20
-0.658262491226197
 11
4.5
 21
-0.0000000000000006
 97
        0
 75
     0
 76
     1
 98
        0
  0
LINE
  5
56
330
4F
100
AcDbEntity
  8
0
  6
K5LT_THIN
 62
     0
100
AcDbLine
 10
0.0
 20
0.0
 30
0.0
 11
-1.0
 21
0.0
 31
0.0
  0
ENDBLK
  5
58
330
4F
100
AcDbEntity
  8
0
100
AcDbBlockEnd
  0
BLOCK
  5
5D
330
59
100
AcDbEntity
  8
0
100
AcDbBlockBegin
  2
KDIMARROW_03
 70
     0
 10
0.0
 20
0.0
 30
0.0
  3
KDIMARROW_03
  1

  0
LINE
  5
5A
330
59
100
AcDbEntity
  8
0
  6
K5LT_THIN
 62
     0
100
AcDbLine
 10
-1.060500025749207
 20
-1.060500025749206
 30
0.0
 11
1.060500025749207
 21
1.060500025749206
 31
0.0
  0
LINE
  5
5B
330
59
100
AcDbEntity
  8
0
  6
K5LT_THIN
 62
     0
100
AcDbLine
 10
0.0
 20
0.0
 30
0.0
 11
2.0
 21
-0.0000000000000002
 31
0.0
  0
LINE
  5
5C
330
59
100
AcDbEntity
  8
0
  6
K5LT_THIN
 62
     0
100
AcDbLine
 10
0.0
 20
0.0
 30
0.0
 11
-1.0
 21
0.0
 31
0.0
  0
ENDBLK
  5
5E
330
59
100
AcDbEntity
  8
0
100
AcDbBlockEnd
  0
BLOCK
  5
63
330
5F
100
AcDbEntity
  8
0
100
AcDbBlockBegin
  2
KDIMARROW_04
 70
     0
 10
0.0
 20
0.0
 30
0.0
  3
KDIMARROW_04
  1

  0
LWPOLYLINE
  5
60
330
5F
100
AcDbEntity
  8
0
  6
K5LT_THIN
 62
     7
100
AcDbPolyline
 90
       15
 70
     0
 43
0.0
 10
-0.25
 20
0.0
 10
0.0
 20
-0.25
 10
0.25
 20
0.0
 10
0.0
 20
0.25
 10
-0.25
 20
0.0
 10
-0.5
 20
0.0000000000000001
 10
-0.0000000000000001
 20
-0.5
 10
0.5
 20
-0.0000000000000001
 10
0.0000000000000001
 20
0.5
 10
-0.5
 20
0.0000000000000001
 10
-0.75
 20
0.0000000000000001
 10
-0.0000000000000001
 20
-0.75
 10
0.75
 20
-0.0000000000000001
 10
0.0000000000000001
 20
0.75
 10
-0.75
 20
0.0000000000000001
  0
LWPOLYLINE
  5
61
330
5F
100
AcDbEntity
  8
0
  6
K5LT_THIN
 62
     7
100
AcDbPolyline
 90
       15
 70
     0
 43
0.0
 10
-0.25
 20
0.0
 10
0.0
 20
-0.25
 10
0.25
 20
0.0
 10
0.0
 20
0.25
 10
-0.25
 20
0.0
 10
-0.5
 20
0.0000000000000001
 10
-0.0000000000000001
 20
-0.5
 10
0.5
 20
-0.0000000000000001
 10
0.0000000000000001
 20
0.5
 10
-0.5
 20
0.0000000000000001
 10
-0.75
 20
0.0000000000000001
 10
-0.0000000000000001
 20
-0.75
 10
0.75
 20
-0.0000000000000001
 10
0.0000000000000001
 20
0.75
 10
-0.75
 20
0.0000000000000001
  0
LINE
  5
62
330
5F
100
AcDbEntity
  8
0
  6
K5LT_THIN
 62
     0
100
AcDbLine
 10
0.0
 20
0.0
 30
0.0
 11
-1.0
 21
0.0
 31
0.0
  0
ENDBLK
  5
64
330
5F
100
AcDbEntity
  8
0
100
AcDbBlockEnd
  0
BLOCK
  5
6C
330
65
100
AcDbEntity
  8
0
100
AcDbBlockBegin
  2
KDIMARROW_05
 70
     0
 10
0.0
 20
0.0
 30
0.0
  3
KDIMARROW_05
  1

  0
LINE
  5
66
330
65
100
AcDbEntity
  8
0
  6
K5LT_THIN
 62
     0
100
AcDbLine
 10
0.0
 20
0.0
 30
0.0
 11
-5.0
 21
-0.6582624912261956
 31
0.0
  0
LINE
  5
67
330
65
100
AcDbEntity
  8
0
  6
K5LT_THIN
 62
     0
100
AcDbLine
 10
-5.0
 20
-0.6582624912261956
 30
0.0
 11
-5.0
 21
0.0000000000000006
 31
0.0
  0
LINE
  5
68
330
65
100
AcDbEntity
  8
0
  6
K5LT_THIN
 62
     0
100
AcDbLine
 10
-5.0
 20
0.0000000000000006
 30
0.0
 11
-5.0
 21
0.658262491226197
 31
0.0
  0
LINE
  5
69
330
65
100
AcDbEntity
  8
0
  6
K5LT_THIN
 62
     0
100
AcDbLine
 10
-5.0
 20
0.658262491226197
 30
0.0
 11
0.0
 21
0.0
 31
0.0
  0
HATCH
  5
6A
330
65
100
AcDbEntity
  8
0
 62
     0
100
AcDbHatch
 10
0.0
 20
0.0
 30
0.0
210
0.0
220
0.0
230
1.0
  2
SOLID
 70
     1
 71
     0
 91
        1
 92
        1
 93
        4
 72
     1
 10
0.0
 20
0.0
 11
-5.0
 21
0.658262491226197
 72
     1
 10
-5.0
 20
0.658262491226197
 11
-5.0
 21
0.0000000000000007
 72
     1
 10
-5.0
 20
0.0000000000000006
 11
-5.0
 21
-0.6582624912261956
 72
     1
 10
-5.0
 20
-0.6582624912261956
 11
0.0
 21
0.0
 97
        0
 75
     0
 76
     1
 98
        0
  0
LINE
  5
6B
330
65
100
AcDbEntity
  8
0
  6
K5LT_THIN
 62
     0
100
AcDbLine
 10
0.0
 20
0.0
 30
0.0
 11
-1.0
 21
0.0
 31
0.0
  0
ENDBLK
  5
6D
330
65
100
AcDbEntity
  8
0
100
AcDbBlockEnd
  0
BLOCK
  5
76
330
6E
100
AcDbEntity
  8
0
100
AcDbBlockBegin
  2
KDIMARROW_06
 70
     0
 10
0.0
 20
0.0
 30
0.0
  3
KDIMARROW_06
  1

  0
LINE
  5
6F
330
6E
100
AcDbEntity
  8
0
  6
K5LT_THIN
 62
     0
100
AcDbLine
 10
0.0
 20
0.0
 30
0.0
 11
5.0
 21
-0.658262491226197
 31
0.0
  0
LINE
  5
70
330
6E
100
AcDbEntity
  8
0
  6
K5LT_THIN
 62
     0
100
AcDbLine
 10
5.0
 20
-0.658262491226197
 30
0.0
 11
5.0
 21
-0.0000000000000006
 31
0.0
  0
LINE
  5
71
330
6E
100
AcDbEntity
  8
0
  6
K5LT_THIN
 62
     0
100
AcDbLine
 10
5.0
 20
-0.0000000000000006
 30
0.0
 11
5.0
 21
0.6582624912261956
 31
0.0
  0
LINE
  5
72
330
6E
100
AcDbEntity
  8
0
  6
K5LT_THIN
 62
     0
100
AcDbLine
 10
5.0
 20
0.6582624912261956
 30
0.0
 11
0.0
 21
0.0
 31
0.0
  0
LINE
  5
73
330
6E
100
AcDbEntity
  8
0
  6
K5LT_THIN
 62
     0
100
AcDbLine
 10
0.0
 20
0.0
 30
0.0
 11
7.0
 21
-0.0000000000000009
 31
0.0
  0
HATCH
  5
74
330
6E
100
AcDbEntity
  8
0
 62
     0
100
AcDbHatch
 10
0.0
 20
0.0
 30
0.0
210
0.0
220
0.0
230
1.0
  2
SOLID
 70
     1
 71
     0
 91
        1
 92
        1
 93
        4
 72
     1
 10
5.0
 20
-0.0000000000000006
 11
5.0
 21
0.6582624912261956
 72
     1
 10
5.0
 20
0.6582624912261956
 11
0.0
 21
0.0
 72
     1
 10
0.0
 20
0.0
 11
5.0
 21
-0.658262491226197
 72
     1
 10
5.0
 20
-0.658262491226197
 11
5.0
 21
-0.0000000000000007
 97
        0
 75
     0
 76
     1
 98
        0
  0
LINE
  5
75
330
6E
100
AcDbEntity
  8
0
  6
K5LT_THIN
 62
     0
100
AcDbLine
 10
0.0
 20
0.0
 30
0.0
 11
-1.0
 21
0.0
 31
0.0
  0
ENDBLK
  5
77
330
6E
100
AcDbEntity
  8
0
100
AcDbBlockEnd
  0
BLOCK
  5
7C
330
78
100
AcDbEntity
  8
0
100
AcDbBlockBegin
  2
KDIMARROW_07
 70
     0
 10
0.0
 20
0.0
 30
0.0
  3
KDIMARROW_07
  1

  0
LINE
  5
79
330
78
100
AcDbEntity
  8
0
  6
K5LT_THIN
 62
     0
100
AcDbLine
 10
0.0
 20
0.0
 30
0.0
 11
-5.0
 21
-0.6582624912261956
 31
0.0
  0
LINE
  5
7A
330
78
100
AcDbEntity
  8
0
  6
K5LT_THIN
 62
     0
100
AcDbLine
 10
0.0
 20
0.0
 30
0.0
 11
-5.0
 21
0.658262491226197
 31
0.0
  0
LINE
  5
7B
330
78
100
AcDbEntity
  8
0
  6
K5LT_THIN
 62
     0
100
AcDbLine
 10
0.0
 20
0.0
 30
0.0
 11
-1.0
 21
0.0
 31
0.0
  0
ENDBLK
  5
7D
330
78
100
AcDbEntity
  8
0
100
AcDbBlockEnd
  0
BLOCK
  5
83
330
7E
100
AcDbEntity
  8
0
100
AcDbBlockBegin
  2
KDIMARROW_08
 70
     0
 10
0.0
 20
0.0
 30
0.0
  3
KDIMARROW_08
  1

  0
LINE
  5
7F
330
7E
100
AcDbEntity
  8
0
  6
K5LT_THIN
 62
     0
100
AcDbLine
 10
0.0
 20
0.0
 30
0.0
 11
5.0
 21
-0.658262491226197
 31
0.0
  0
LINE
  5
80
330
7E
100
AcDbEntity
  8
0
  6
K5LT_THIN
 62
     0
100
AcDbLine
 10
0.0
 20
0.0
 30
0.0
 11
5.0
 21
0.6582624912261956
 31
0.0
  0
LINE
  5
81
330
7E
100
AcDbEntity
  8
0
  6
K5LT_THIN
 62
     0
100
AcDbLine
 10
0.0
 20
0.0
 30
0.0
 11
7.0
 21
-0.0000000000000009
 31
0.0
  0
LINE
  5
82
330
7E
100
AcDbEntity
  8
0
  6
K5LT_THIN
 62
     0
100
AcDbLine
 10
0.0
 20
0.0
 30
0.0
 11
-1.0
 21
0.0
 31
0.0
  0
ENDBLK
  5
84
330
7E
100
AcDbEntity
  8
0
100
AcDbBlockEnd
  0
BLOCK
  5
89
330
85
100
AcDbEntity
  8
0
100
AcDbBlockBegin
  2
KDIMARROW_09
 70
     0
 10
0.0
 20
0.0
 30
0.0
  3
KDIMARROW_09
  1

  0
LINE
  5
86
330
85
100
AcDbEntity
  8
0
  6
K5LT_THIN
 62
     0
100
AcDbLine
 10
0.0
 20
0.0
 30
0.0
 11
-2.0
 21
-2.0
 31
0.0
  0
LINE
  5
87
330
85
100
AcDbEntity
  8
0
  6
K5LT_THIN
 62
     0
100
AcDbLine
 10
0.0
 20
0.0
 30
0.0
 11
-2.0
 21
2.0
 31
0.0
  0
LINE
  5
88
330
85
100
AcDbEntity
  8
0
  6
K5LT_THIN
 62
     0
100
AcDbLine
 10
0.0
 20
0.0
 30
0.0
 11
-1.0
 21
0.0
 31
0.0
  0
ENDBLK
  5
8A
330
85
100
AcDbEntity
  8
0
100
AcDbBlockEnd
  0
BLOCK
  5
90
330
8B
100
AcDbEntity
  8
0
100
AcDbBlockBegin
  2
KDIMARROW_10
 70
     0
 10
0.0
 20
0.0
 30
0.0
  3
KDIMARROW_10
  1

  0
LINE
  5
8C
330
8B
100
AcDbEntity
  8
0
  6
K5LT_THIN
 62
     0
100
AcDbLine
 10
0.0
 20
0.0
 30
0.0
 11
2.0
 21
-2.0
 31
0.0
  0
LINE
  5
8D
330
8B
100
AcDbEntity
  8
0
  6
K5LT_THIN
 62
     0
100
AcDbLine
 10
0.0
 20
0.0
 30
0.0
 11
2.0
 21
2.0
 31
0.0
  0
LINE
  5
8E
330
8B
100
AcDbEntity
  8
0
  6
K5LT_THIN
 62
     0
100
AcDbLine
 10
0.0
 20
0.0
 30
0.0
 11
4.0
 21
-0.0000000000000005
 31
0.0
  0
LINE
  5
8F
330
8B
100
AcDbEntity
  8
0
  6
K5LT_THIN
 62
     0
100
AcDbLine
 10
0.0
 20
0.0
 30
0.0
 11
-1.0
 21
0.0
 31
0.0
  0
ENDBLK
  5
91
330
8B
100
AcDbEntity
  8
0
100
AcDbBlockEnd
  0
BLOCK
  5
96
330
92
100
AcDbEntity
  8
0
100
AcDbBlockBegin
  2
KDIMARROW_11
 70
     0
 10
0.0
 20
0.0
 30
0.0
  3
KDIMARROW_11
  1

  0
CIRCLE
  5
93
330
92
100
AcDbEntity
  8
0
  6
K5LT_THIN
 62
     0
100
AcDbCircle
 10
0.0
 20
0.0
 30
0.0
 40
2.5
  0
CIRCLE
  5
94
330
92
100
AcDbEntity
  8
0
  6
K5LT_THIN
 62
     0
100
AcDbCircle
 10
0.0
 20
0.0
 30
0.0
 40
2.5
  0
LINE
  5
95
330
92
100
AcDbEntity
  8
0
  6
K5LT_THIN
 62
     0
100
AcDbLine
 10
0.0
 20
0.0
 30
0.0
 11
-1.0
 21
0.0
 31
0.0
  0
ENDBLK
  5
97
330
92
100
AcDbEntity
  8
0
100
AcDbBlockEnd
  0
BLOCK
  5
9C
330
98
100
AcDbEntity
  8
0
100
AcDbBlockBegin
  2
KDIMARROW_12
 70
     0
 10
0.0
 20
0.0
 30
0.0
  3
KDIMARROW_12
  1

  0
CIRCLE
  5
99
330
98
100
AcDbEntity
  8
0
  6
K5LT_THIN
 62
     0
100
AcDbCircle
 10
0.0
 20
0.0
 30
0.0
 40
1.5
  0
CIRCLE
  5
9A
330
98
100
AcDbEntity
  8
0
  6
K5LT_THIN
 62
     0
100
AcDbCircle
 10
0.0
 20
0.0
 30
0.0
 40
1.5
  0
LINE
  5
9B
330
98
100
AcDbEntity
  8
0
  6
K5LT_THIN
 62
     0
100
AcDbLine
 10
0.0
 20
0.0
 30
0.0
 11
-1.0
 21
0.0
 31
0.0
  0
ENDBLK
  5
9D
330
98
100
AcDbEntity
  8
0
100
AcDbBlockEnd
  0
BLOCK
  5
A2
330
9E
100
AcDbEntity
  8
0
100
AcDbBlockBegin
  2
KDIMARROW_13
 70
     0
 10
0.0
 20
0.0
 30
0.0
  3
KDIMARROW_13
  1

  0
LINE
  5
9F
330
9E
100
AcDbEntity
  8
0
  6
K5LT_THIN
 62
     0
100
AcDbLine
 10
-1.060500025749206
 20
1.060500025749207
 30
0.0
 11
1.060500025749206
 21
-1.060500025749207
 31
0.0
  0
LINE
  5
A0
330
9E
100
AcDbEntity
  8
0
  6
K5LT_THIN
 62
     0
100
AcDbLine
 10
0.0
 20
0.0
 30
0.0
 11
2.0
 21
-0.0000000000000002
 31
0.0
  0
LINE
  5
A1
330
9E
100
AcDbEntity
  8
0
  6
K5LT_THIN
 62
     0
100
AcDbLine
 10
0.0
 20
0.0
 30
0.0
 11
-1.0
 21
0.0
 31
0.0
  0
ENDBLK
  5
A3
330
9E
100
AcDbEntity
  8
0
100
AcDbBlockEnd
  0
ENDSEC
  0
SECTION
  2
ENTITIES
  0
SPLINE
  5
A5
330
1F
100
AcDbEntity
  8
0
  6
K5LT32771
 62
    30
420
 16744448
100
AcDbSpline
210
0.0
220
0.0
230
1.0
 70
     8
 71
     3
 72
    20
 73
    16
 74
     0
 42
0.0
 43
0.0
 12
1.0
 22
0.0
 32
0.0
 13
1.0
 23
0.0
 33
0.0
 40
0.0
 40
0.0
 40
0.0
 40
0.0
 40
1.0
 40
1.0
 40
1.0
 40
2.0
 40
2.0
 40
2.0
 40
3.0
 40
3.0
 40
3.0
 40
4.0
 40
4.0
 40
4.0
 40
5.0
 40
5.0
 40
5.0
 40
5.0
 10
-35.78454378193125
 20
140.2822842705596
 30
0.0
 10
-45.05514847258224
 20
140.1524343080128
 30
0.0
 10
-52.68275133945102
 20
137.7699599690186
 30
0.0
 10
-58.66735238253757
 20
133.134861253577
 30
0.0
 10
-63.71516582078036
 20
129.2253084839038
 30
0.0
 10
-65.29415257448396
 20
121.0135865402746
 30
0.0
 10
-70.3041179706356
 20
116.5984048915429
 30
0.0
 10
-71.99174197405725
 20
115.1111358306449
 30
0.0
 10
-73.66199202796064
 20
112.6654204179109
 30
0.0
 10
-75.75200929059208
 20
112.5100181841611
 30
0.0
 10
-76.79178530647236
 20
112.4327061359037
 30
0.0
 10
-78.14166916366186
 20
112.6011211867887
 30
0.0
 10
-79.07482422871004
 20
113.1745811717847
 30
0.0
 10
-79.53582982108975
 20
113.4578869909258
 30
0.0
 10
-79.95425836885275
 20
113.8270886507167
 30
0.0
 10
-80.33010987199904
 20
114.2821861511573
 30
0.0
  0
SPLINE
  5
A6
330
1F
100
AcDbEntity
  8
0
  6
K5LT32771
 62
    30
420
 16744448
100
AcDbSpline
210
0.0
220
0.0
230
1.0
 70
     8
 71
     3
 72
    23
 73
    19
 74
     0
 42
0.0
 43
0.0
 12
1.0
 22
0.0
 32
0.0
 13
1.0
 23
0.0
 33
0.0
 40
0.0
 40
0.0
 40
0.0
 40
0.0
 40
1.0
 40
1.0
 40
1.0
 40
2.0
 40
2.0
 40
2.0
 40
3.0
 40
3.0
 40
3.0
 40
4.0
 40
4.0
 40
4.0
 40
5.0
 40
5.0
 40
5.0
 40
6.0
 40
6.0
 40
6.0
 40
6.0
 10
-80.33010987199904
 20
114.2821861511573
 30
0.0
 10
-79.35751200279184
 20
114.2337501436999
 30
0.0
 10
-78.52065490726584
 20
114.4060442516023
 30
0.0
 10
-77.81953858542104
 20
114.7990684748646
 30
0.0
 10
-76.94263422154096
 20
115.2906340621305
 30
0.0
 10
-75.90478692330623
 20
116.4265579250739
 30
0.0
 10
-75.82584962255027
 20
117.3096397614426
 30
0.0
 10
-75.74443849254087
 20
118.2203966469839
 30
0.0
 10
-76.6975489247878
 20
119.5594248600595
 30
0.0
 10
-77.45033692563015
 20
120.1894127078115
 30
0.0
 10
-78.68174036611634
 20
121.2199408277047
 30
0.0
 10
-81.59886484325017
 20
121.4323707676452
 30
0.0
 10
-82.84068115857706
 20
120.6324546995606
 30
0.0
 10
-83.94073399759102
 20
119.9238555848535
 30
0.0
 10
-84.68753361589798
 20
117.7788209756971
 30
0.0
 10
-84.83437012144783
 20
116.2758751140281
 30
0.0
 10
-84.98092733714799
 20
114.7757879251547
 30
0.0
 10
-84.6117256773571
 20
113.225140954033
 30
0.0
 10
-83.72676514207518
 20
111.623934200663
 30
0.0
  0
SPLINE
  5
A7
330
1F
100
AcDbEntity
  8
0
  6
K5LT32771
 62
    30
420
 16744448
100
AcDbSpline
210
0.0
220
0.0
230
1.0
 70
     8
 71
     3
 72
    14
 73
    10
 74
     0
 42
0.0
 43
0.0
 12
1.0
 22
0.0
 32
0.0
 13
1.0
 23
0.0
 33
0.0
 40
0.0
 40
0.0
 40
0.0
 40
0.0
 40
1.0
 40
1.0
 40
1.0
 40
2.0
 40
2.0
 40
2.0
 40
3.0
 40
3.0
 40
3.0
 40
3.0
 10
-83.72676514207518
 20
111.623934200663
 30
0.0
 10
-87.42331766999594
 20
112.0176473701857
 30
0.0
 10
-90.69690572014179
 20
111.5746053784367
 30
0.0
 10
-93.54752929251268
 20
110.2948082254158
 30
0.0
 10
-97.27264711030564
 20
108.6224039051521
 30
0.0
 10
-100.975701020643
 20
104.6911609671749
 30
0.0
 10
-102.5560497914103
 20
100.9909263986856
 30
0.0
 10
-104.1786060718127
 20
97.19186700804882
 30
0.0
 10
-104.301673291743
 20
92.7614470905582
 30
0.0
 10
-102.9252514512011
 20
87.69966664621373
 30
0.0
  0
SPLINE
  5
A8
330
1F
100
AcDbEntity
  8
0
  6
K5LT32771
 62
    30
420
 16744448
100
AcDbSpline
210
0.0
220
0.0
230
1.0
 70
     8
 71
     3
 72
    26
 73
    22
 74
     0
 42
0.0
 43
0.0
 12
1.0
 22
0.0
 32
0.0
 13
1.0
 23
0.0
 33
0.0
 40
0.0
 40
0.0
 40
0.0
 40
0.0
 40
1.0
 40
1.0
 40
1.0
 40
2.0
 40
2.0
 40
2.0
 40
3.0
 40
3.0
 40
3.0
 40
4.0
 40
4.0
 40
4.0
 40
5.0
 40
5.0
 40
5.0
 40
6.0
 40
6.0
 40
6.0
 40
7.0
 40
7.0
 40
7.0
 40
7.0
 10
-102.9252514512011
 20
87.69966664621373
 30
0.0
 10
-105.0701380607917
 20
88.57942125547386
 30
0.0
 10
-106.9407598037322
 20
88.75171536337626
 30
0.0
 10
-108.5371166800226
 20
88.21654896992095
 30
0.0
 10
-110.4618583429167
 20
87.57129409655084
 30
0.0
 10
-112.3312787635714
 20
85.25179938086495
 30
0.0
 10
-113.1152172614295
 20
83.19540639676492
 30
0.0
 10
-113.4377060812626
 20
82.34946791005044
 30
0.0
 10
-113.764477352987
 20
81.32191091296006
 30
0.0
 10
-113.705939917095
 20
80.46331411431238
 30
0.0
 10
-113.5961048081207
 20
78.85230960912227
 30
0.0
 10
-112.067487851017
 20
76.90052954335222
 30
0.0
 10
-110.6784863068097
 20
76.18057486073812
 30
0.0
 10
-109.3676744757238
 20
75.50114788691509
 30
0.0
 10
-107.0930175260307
 20
75.4147641578944
 30
0.0
 10
-105.7311840656119
 20
76.03289419682177
 30
0.0
 10
-104.4792654712644
 20
76.60113437592555
 30
0.0
 10
-103.1044517271378
 20
78.11449626767687
 30
0.0
 10
-102.7037304553266
 20
79.4295494668979
 30
0.0
 10
-102.296310845039
 20
80.76658470715981
 30
0.0
 10
-102.5178318409135
 20
82.29261823429546
 30
0.0
 10
-103.3682934429502
 20
84.00765004830487
 30
0.0
  0
SPLINE
  5
A9
330
1F
100
AcDbEntity
  8
0
  6
K5LT32771
 62
    30
420
 16744448
100
AcDbSpline
210
0.0
220
0.0
230
1.0
 70
     8
 71
     3
 72
    29
 73
    25
 74
     0
 42
0.0
 43
0.0
 12
1.0
 22
0.0
 32
0.0
 13
1.0
 23
0.0
 33
0.0
 40
0.0
 40
0.0
 40
0.0
 40
0.0
 40
1.0
 40
1.0
 40
1.0
 40
2.0
 40
2.0
 40
2.0
 40
3.0
 40
3.0
 40
3.0
 40
4.0
 40
4.0
 40
4.0
 40
5.0
 40
5.0
 40
5.0
 40
6.0
 40
6.0
 40
6.0
 40
7.0
 40
7.0
 40
7.0
 40
8.0
 40
8.0
 40
8.0
 40
8.0
 10
-103.3682934429502
 20
84.00765004830487
 30
0.0
 10
-102.4321550634803
 20
83.5782103796156
 30
0.0
 10
-101.8040584889403
 20
83.02731806549295
 30
0.0
 10
-101.4840037193301
 20
82.35497310593693
 30
0.0
 10
-101.0650945408003
 20
81.47496286569167
 30
0.0
 10
-101.4867361035455
 20
80.09990099576059
 30
0.0
 10
-101.8104261610425
 20
79.09074868881353
 30
0.0
 10
-102.2587595734878
 20
77.69300202662329
 30
0.0
 10
-103.4617976975336
 20
76.5416548377072
 30
0.0
 10
-104.3921309273128
 20
75.35172799283582
 30
0.0
 10
-105.8363396111974
 20
73.50453751576502
 30
0.0
 10
-107.7110132393374
 20
72.00042479886942
 30
0.0
 10
-109.2291180181411
 20
70.21799322772357
 30
0.0
 10
-114.2648468848722
 20
64.30546186551743
 30
0.0
 10
-119.0975678103764
 20
57.39436502288581
 30
0.0
 10
-121.2259841836936
 20
50.13054454451834
 30
0.0
 10
-123.1933356216838
 20
43.41640353218145
 30
0.0
 10
-123.6363158996291
 20
35.39624421743228
 30
0.0
 10
-122.333589119054
 20
28.53224830499081
 30
0.0
 10
-120.9194295220698
 20
21.08111899838769
 30
0.0
 10
-117.6923677051309
 20
12.5407807737677
 30
0.0
 10
-112.1805438782505
 20
7.364687318103428
 30
0.0
 10
-109.3993867882892
 20
4.752933121186298
 30
0.0
 10
-106.0765719822081
 20
2.61976806049222
 30
0.0
 10
-102.212099460007
 20
0.9651921360211944
 30
0.0
  0
SPLINE
  5
AA
330
1F
100
AcDbEntity
  8
0
  6
K5LT32771
 62
    30
420
 16744448
100
AcDbSpline
210
0.0
220
0.0
230
1.0
 70
     8
 71
     3
 72
    29
 73
    25
 74
     0
 42
0.0
 43
0.0
 12
1.0
 22
0.0
 32
0.0
 13
1.0
 23
0.0
 33
0.0
 40
0.0
 40
0.0
 40
0.0
 40
0.0
 40
1.0
 40
1.0
 40
1.0
 40
2.0
 40
2.0
 40
2.0
 40
3.0
 40
3.0
 40
3.0
 40
4.0
 40
4.0
 40
4.0
 40
5.0
 40
5.0
 40
5.0
 40
6.0
 40
6.0
 40
6.0
 40
7.0
 40
7.0
 40
7.0
 40
8.0
 40
8.0
 40
8.0
 40
8.0
 10
-102.212099460007
 20
0.9651921360211944
 30
0.0
 10
-104.3104064890013
 20
0.4458524726473601
 30
0.0
 10
-105.9045379712079
 20
-0.4638879826821478
 30
0.0
 10
-106.994493906627
 20
-1.764029229967329
 30
0.0
 10
-108.3093697968604
 20
-3.332463626625601
 30
0.0
 10
-109.0602865341182
 20
-6.174848154221461
 30
0.0
 10
-108.7379460504157
 20
-8.173779758602297
 30
0.0
 10
-108.4280130446424
 20
-10.09576880994627
 30
0.0
 10
-106.9587993791999
 20
-12.57325249262272
 30
0.0
 10
-105.3023197670674
 20
-13.55797020265567
 30
0.0
 10
-103.823765670371
 20
-14.43691757610651
 30
0.0
 10
-101.227645905045
 20
-14.91862223010345
 30
0.0
 10
-99.64464810765969
 20
-14.25876846970781
 30
0.0
 10
-98.45320056175811
 20
-13.76212776384209
 30
0.0
 10
-97.05495583154479
 20
-12.46815842803524
 30
0.0
 10
-96.58505904812384
 20
-11.25046001234708
 30
0.0
 10
-96.12403371912582
 20
-10.05575123263176
 30
0.0
 10
-96.22873869690955
 20
-8.210624798017646
 30
0.0
 10
-96.79017106504016
 20
-7.045663665562543
 30
0.0
 10
-97.34729704096344
 20
-5.889638212322618
 30
0.0
 10
-98.74455219433229
 20
-4.546764929977376
 30
0.0
 10
-99.91812932301403
 20
-4.276651437192239
 30
0.0
 10
-101.2118926520679
 20
-3.978875583260422
 30
0.0
 10
-102.6647694385585
 20
-4.474562957474859
 30
0.0
 10
-104.2767596824858
 20
-5.763713559835551
 30
0.0
  0
SPLINE
  5
AB
330
1F
100
AcDbEntity
  8
0
  6
K5LT32771
 62
    30
420
 16744448
100
AcDbSpline
210
0.0
220
0.0
230
1.0
 70
     8
 71
     3
 72
    44
 73
    40
 74
     0
 42
0.0
 43
0.0
 12
1.0
 22
0.0
 32
0.0
 13
1.0
 23
0.0
 33
0.0
 40
0.0
 40
0.0
 40
0.0
 40
0.0
 40
1.0
 40
1.0
 40
1.0
 40
2.0
 40
2.0
 40
2.0
 40
3.0
 40
3.0
 40
3.0
 40
4.0
 40
4.0
 40
4.0
 40
5.0
 40
5.0
 40
5.0
 40
6.0
 40
6.0
 40
6.0
 40
7.0
 40
7.0
 40
7.0
 40
8.0
 40
8.0
 40
8.0
 40
9.0
 40
9.0
 40
9.0
 40
10.0
 40
10.0
 40
10.0
 40
11.0
 40
11.0
 40
11.0
 40
12.0
 40
12.0
 40
12.0
 40
13.0
 40
13.0
 40
13.0
 40
13.0
 10
-104.2767596824858
 20
-5.763713559835551
 30
0.0
 10
-103.7911869741469
 20
-4.471149711929829
 30
0.0
 10
-103.1089054126906
 20
-3.613667177480291
 30
0.0
 10
-102.229914998117
 20
-3.191265956486939
 30
0.0
 10
-101.2670800566136
 20
-2.728573021316055
 30
0.0
 10
-99.63803598354325
 20
-2.921291935126416
 30
0.0
 10
-98.6333330428803
 20
-3.369314568132321
 30
0.0
 10
-97.40575981533624
 20
-3.916720739004024
 30
0.0
 10
-96.39607512002262
 20
-5.472159123823054
 30
0.0
 10
-95.82016497888324
 20
-6.7522381893946
 30
0.0
 10
-95.145329206572
 20
-8.252199872870769
 30
0.0
 10
-95.21266339624576
 20
-10.19720730987768
 30
0.0
 10
-95.2860191439471
 20
-11.88003820478163
 30
0.0
 10
-95.4191701893233
 20
-14.93461402016419
 30
0.0
 10
-97.67538874958403
 20
-17.75233699173859
 30
0.0
 10
-98.17040665260231
 20
-20.78246878705079
 30
0.0
 10
-98.84888923740091
 20
-24.93563504675259
 30
0.0
 10
-98.67870477848082
 20
-29.62312248527132
 30
0.0
 10
-97.57705818759874
 20
-33.59507928646354
 30
0.0
 10
-96.00978926384435
 20
-39.24582473652571
 30
0.0
 10
-92.06073330506169
 20
-45.2379807506934
 30
0.0
 10
-87.38709237737032
 20
-48.73234733788979
 30
0.0
 10
-83.97993310365224
 20
-51.27979668360106
 30
0.0
 10
-79.38380801851122
 20
-52.79953009813465
 30
0.0
 10
-75.12959727231299
 20
-53.90117057496217
 30
0.0
 10
-71.52979313294668
 20
-54.83335052211715
 30
0.0
 10
-67.22416346036756
 20
-53.59632912853179
 30
0.0
 10
-63.96850106922925
 20
-55.36313606920661
 30
0.0
 10
-63.34011970750022
 20
-55.70415071320517
 30
0.0
 10
-62.65285586815372
 20
-56.04661725686142
 30
0.0
 10
-62.135292518466
 20
-56.52917615470805
 30
0.0
 10
-61.43535160766735
 20
-57.18177784042742
 30
0.0
 10
-60.72554845858434
 20
-58.09450853836685
 30
0.0
 10
-60.54851688624773
 20
-59.00207324387938
 30
0.0
 10
-60.40742361775592
 20
-59.72539772763352
 30
0.0
 10
-60.39982531600792
 20
-60.73456639779581
 30
0.0
 10
-60.79580659516486
 20
-61.33071800284905
 30
0.0
 10
-61.08992556360965
 20
-61.77351543884975
 30
0.0
 10
-61.5570283471198
 20
-62.11697336790133
 30
0.0
 10
-62.19711494569529
 20
-62.36109179000378
 30
0.0
  0
SPLINE
  5
AC
330
1F
100
AcDbEntity
  8
0
  6
K5LT32771
 62
    30
420
 16744448
100
AcDbSpline
210
0.0
220
0.0
230
1.0
 70
     8
 71
     3
 72
    29
 73
    25
 74
     0
 42
0.0
 43
0.0
 12
1.0
 22
0.0
 32
0.0
 13
1.0
 23
0.0
 33
0.0
 40
0.0
 40
0.0
 40
0.0
 40
0.0
 40
1.0
 40
1.0
 40
1.0
 40
2.0
 40
2.0
 40
2.0
 40
3.0
 40
3.0
 40
3.0
 40
4.0
 40
4.0
 40
4.0
 40
5.0
 40
5.0
 40
5.0
 40
6.0
 40
6.0
 40
6.0
 40
7.0
 40
7.0
 40
7.0
 40
8.0
 40
8.0
 40
8.0
 40
8.0
 10
-62.19711494569529
 20
-62.36109179000378
 30
0.0
 10
-61.82890607748032
 20
-61.40189268515149
 30
0.0
 10
-61.72053768066669
 20
-60.4876051007969
 30
0.0
 10
-61.87200975525439
 20
-59.61822903694001
 30
0.0
 10
-62.02211565850023
 20
-58.75669413236592
 30
0.0
 10
-62.46759969836111
 20
-57.71266841597207
 30
0.0
 10
-63.08785082409696
 20
-57.16593942351177
 30
0.0
 10
-63.86033817810444
 20
-56.48501968758419
 30
0.0
 10
-65.43373533017336
 20
-56.17216596789186
 30
0.0
 10
-66.40565441873517
 20
-56.38285534527417
 30
0.0
 10
-67.62707354998578
 20
-56.6476305094978
 30
0.0
 10
-69.06689712670153
 20
-58.20301636572819
 30
0.0
 10
-69.43495335297007
 20
-59.41215427950906
 30
0.0
 10
-69.79505022410592
 20
-60.59514412847455
 30
0.0
 10
-69.26479416633812
 20
-62.34016258107878
 30
0.0
 10
-68.67247675047557
 20
-63.53364942812796
 30
0.0
 10
-67.95964329072493
 20
-64.96996944095427
 30
0.0
 10
-66.50396520236356
 20
-66.55166184465307
 30
0.0
 10
-65.0646821371843
 20
-67.05901349462039
 30
0.0
 10
-63.63608008368453
 20
-67.56260005554441
 30
0.0
 10
-61.42484947001694
 20
-67.4239267320769
 30
0.0
 10
-60.07932101111358
 20
-66.59608710434239
 30
0.0
 10
-59.37557024830033
 20
-66.16310275113145
 30
0.0
 10
-58.758335061263
 20
-65.54586756409412
 30
0.0
 10
-58.22761545000159
 20
-64.7443815432304
 30
0.0
  0
SPLINE
  5
AD
330
1F
100
AcDbEntity
  8
0
  6
K5LT32771
 62
    30
420
 16744448
100
AcDbSpline
210
0.0
220
0.0
230
1.0
 70
     8
 71
     3
 72
    17
 73
    13
 74
     0
 42
0.0
 43
0.0
 12
1.0
 22
0.0
 32
0.0
 13
1.0
 23
0.0
 33
0.0
 40
0.0
 40
0.0
 40
0.0
 40
0.0
 40
1.0
 40
1.0
 40
1.0
 40
2.0
 40
2.0
 40
2.0
 40
3.0
 40
3.0
 40
3.0
 40
4.0
 40
4.0
 40
4.0
 40
4.0
 10
-58.22761545000159
 20
-64.7443815432304
 30
0.0
 10
-58.42773631023794
 20
-68.09355616184203
 30
0.0
 10
-57.9054783132039
 20
-71.04274474011869
 30
0.0
 10
-56.66084145889948
 20
-73.59194727806037
 30
0.0
 10
-54.97609993034053
 20
-77.0425500506887
 30
0.0
 10
-51.199149834739
 20
-80.04838582141531
 30
0.0
 10
-47.63591271458145
 20
-81.74514995048405
 30
0.0
 10
-45.3656507901601
 20
-82.8262172123727
 30
0.0
 10
-42.21776163858361
 20
-82.39072989051391
 30
0.0
 10
-40.14932409713582
 20
-83.74499211541816
 30
0.0
 10
-38.38293074533644
 20
-84.90149780762752
 30
0.0
 10
-36.92800397360158
 20
-86.55948661103442
 30
0.0
 10
-35.78454378193126
 20
-88.71895852563888
 30
0.0
  0
SPLINE
  5
AE
330
1F
100
AcDbEntity
  8
0
  6
K5LT32771
 62
    30
420
 16744448
100
AcDbSpline
210
0.0
220
0.0
230
1.0
 70
     8
 71
     3
 72
    17
 73
    13
 74
     0
 42
0.0
 43
0.0
 12
1.0
 22
0.0
 32
0.0
 13
1.0
 23
0.0
 33
0.0
 40
0.0
 40
0.0
 40
0.0
 40
0.0
 40
1.0
 40
1.0
 40
1.0
 40
2.0
 40
2.0
 40
2.0
 40
3.0
 40
3.0
 40
3.0
 40
4.0
 40
4.0
 40
4.0
 40
4.0
 10
-40.11399088465632
 20
-76.11211543797309
 30
0.0
 10
-43.8703006633144
 20
-75.42796880261565
 30
0.0
 10
-46.99704655820126
 20
-74.01564981801711
 30
0.0
 10
-49.49422856931685
 20
-71.87515848417742
 30
0.0
 10
-52.08761250388373
 20
-69.65220644762178
 30
0.0
 10
-54.82057530088145
 20
-66.15624126440909
 30
0.0
 10
-55.23736504297377
 20
-62.85022973985939
 30
0.0
 10
-55.52542930235293
 20
-60.56527964358892
 30
0.0
 10
-55.48874488783436
 20
-57.08703932387978
 30
0.0
 10
-53.95541493724678
 20
-55.56875313933007
 30
0.0
 10
-52.89488919914682
 20
-54.51863240315094
 30
0.0
 10
-51.30527106804535
 20
-53.90329635240198
 30
0.0
 10
-49.18656054394236
 20
-53.7227449870832
 30
0.0
  0
SPLINE
  5
AF
330
1F
100
AcDbEntity
  8
0
  6
K5LT32771
 62
    30
420
 16744448
100
AcDbSpline
210
0.0
220
0.0
230
1.0
 70
     8
 71
     3
 72
    14
 73
    10
 74
     0
 42
0.0
 43
0.0
 12
1.0
 22
0.0
 32
0.0
 13
1.0
 23
0.0
 33
0.0
 40
0.0
 40
0.0
 40
0.0
 40
0.0
 40
1.0
 40
1.0
 40
1.0
 40
2.0
 40
2.0
 40
2.0
 40
3.0
 40
3.0
 40
3.0
 40
3.0
 10
-49.18656054394236
 20
-53.7227449870832
 30
0.0
 10
-50.51549165324071
 20
-54.28858278175785
 30
0.0
 10
-51.3701250570587
 20
-55.02356750904132
 30
0.0
 10
-51.75046075539634
 20
-55.92769916893362
 30
0.0
 10
-52.21317635477087
 20
-57.02766381792421
 30
0.0
 10
-51.80942885038892
 20
-59.11490319833199
 30
0.0
 10
-51.03256869618922
 20
-59.97866150303092
 30
0.0
 10
-50.2478433791221
 20
-60.85116475327484
 30
0.0
 10
-48.91461526916603
 20
-61.22720345095475
 30
0.0
 10
-47.03288436632101
 20
-61.10677759607067
 30
0.0
  0
SPLINE
  5
B0
330
1F
100
AcDbEntity
  8
0
  6
K5LT32771
 62
    30
420
 16744448
100
AcDbSpline
210
0.0
220
0.0
230
1.0
 70
     8
 71
     3
 72
    14
 73
    10
 74
     0
 42
0.0
 43
0.0
 12
1.0
 22
0.0
 32
0.0
 13
1.0
 23
0.0
 33
0.0
 40
0.0
 40
0.0
 40
0.0
 40
0.0
 40
1.0
 40
1.0
 40
1.0
 40
2.0
 40
2.0
 40
2.0
 40
3.0
 40
3.0
 40
3.0
 40
3.0
 10
-47.03288436632101
 20
-61.10677759607067
 30
0.0
 10
-47.69094150526077
 20
-62.66843036769202
 30
0.0
 10
-47.96442419448253
 20
-64.17258515841168
 30
0.0
 10
-47.85333243398628
 20
-65.61924196822969
 30
0.0
 10
-47.68279210774231
 20
-67.84004865278798
 30
0.0
 10
-46.03380381699616
 20
-70.0464287952431
 30
0.0
 10
-44.62281816755426
 20
-71.87515848417742
 30
0.0
 10
-43.3793787340822
 20
-73.48673731864778
 30
0.0
 10
-41.8764363060669
 20
-74.89905630350972
 30
0.0
 10
-40.11399088350836
 20
-76.11211543876323
 30
0.0
  0
SPLINE
  5
B1
330
1F
100
AcDbEntity
  8
0
  6
K5LT32771
 62
    30
420
 16744448
100
AcDbSpline
210
0.0
220
0.0
230
1.0
 70
     8
 71
     3
 72
    17
 73
    13
 74
     0
 42
0.0
 43
0.0
 12
1.0
 22
0.0
 32
0.0
 13
1.0
 23
0.0
 33
0.0
 40
0.0
 40
0.0
 40
0.0
 40
0.0
 40
1.0
 40
1.0
 40
1.0
 40
2.0
 40
2.0
 40
2.0
 40
3.0
 40
3.0
 40
3.0
 40
4.0
 40
4.0
 40
4.0
 40
4.0
 10
-43.89392666766021
 20
-55.87839980482944
 30
0.0
 10
-44.03004190796505
 20
-54.05970064023987
 30
0.0
 10
-44.54282192987981
 20
-52.57833613248616
 30
0.0
 10
-45.43226673340445
 20
-51.43430628156828
 30
0.0
 10
-46.67584867854742
 20
-49.83477490911177
 30
0.0
 10
-49.29687743607131
 20
-49.03741222324755
 30
0.0
 10
-51.37196865391697
 20
-48.61401616103716
 30
0.0
 10
-53.76639456168706
 20
-48.1254639027625
 30
0.0
 10
-56.42270489772044
 20
-48.93552859573417
 30
0.0
 10
-58.93547397715953
 20
-49.2122595199377
 30
0.0
 10
-61.20711710364145
 20
-49.4624352750422
 30
0.0
 10
-63.47189553376493
 20
-49.7758008439901
 30
0.0
 10
-65.72980926752996
 20
-50.1523562267814
 30
0.0
  0
SPLINE
  5
B2
330
1F
100
AcDbEntity
  8
0
  6
K5LT32771
 62
    30
420
 16744448
100
AcDbSpline
210
0.0
220
0.0
230
1.0
 70
     8
 71
     3
 72
    11
 73
     7
 74
     0
 42
0.0
 43
0.0
 12
1.0
 22
0.0
 32
0.0
 13
1.0
 23
0.0
 33
0.0
 40
0.0
 40
0.0
 40
0.0
 40
0.0
 40
1.0
 40
1.0
 40
1.0
 40
2.0
 40
2.0
 40
2.0
 40
2.0
 10
-65.72980926752996
 20
-50.1523562267814
 30
0.0
 10
-63.90988644320684
 20
-50.43558199381722
 30
0.0
 10
-62.34305859846732
 20
-51.0480692422154
 30
0.0
 10
-61.02932573331142
 20
-51.98981797197592
 30
0.0
 10
-59.37407585784245
 20
-53.17638299520399
 30
0.0
 10
-58.12061358205083
 20
-54.88564973491982
 30
0.0
 10
-57.26893890593659
 20
-57.11761819112341
 30
0.0
  0
SPLINE
  5
B3
330
1F
100
AcDbEntity
  8
0
  6
K5LT32771
 62
    30
420
 16744448
100
AcDbSpline
210
0.0
220
0.0
230
1.0
 70
     8
 71
     3
 72
    17
 73
    13
 74
     0
 42
0.0
 43
0.0
 12
1.0
 22
0.0
 32
0.0
 13
1.0
 23
0.0
 33
0.0
 40
0.0
 40
0.0
 40
0.0
 40
0.0
 40
1.0
 40
1.0
 40
1.0
 40
2.0
 40
2.0
 40
2.0
 40
3.0
 40
3.0
 40
3.0
 40
4.0
 40
4.0
 40
4.0
 40
4.0
 10
-57.26893890593659
 20
-57.11761819112341
 30
0.0
 10
-57.24257864044789
 20
-55.06857006921259
 30
0.0
 10
-56.72979861853315
 20
-53.47325444547781
 30
0.0
 10
-55.73059884019234
 20
-52.33167131991909
 30
0.0
 10
-54.58713274585122
 20
-51.02526430678309
 30
0.0
 10
-52.13425905352194
 20
-50.00823245733881
 30
0.0
 10
-50.38914027858037
 20
-50.1950878952743
 30
0.0
 10
-49.10220009493688
 20
-50.33288468885904
 30
0.0
 10
-47.63895703983488
 20
-51.19714624297648
 30
0.0
 10
-46.58602178271264
 20
-52.07528130896171
 30
0.0
 10
-45.42958947256456
 20
-53.03973164540006
 30
0.0
 10
-44.53222443421375
 20
-54.3074378106893
 30
0.0
 10
-43.89392666766021
 20
-55.87839980482944
 30
0.0
  0
SPLINE
  5
B4
330
1F
100
AcDbEntity
  8
0
  6
K5LT32771
 62
    30
420
 16744448
100
AcDbSpline
210
0.0
220
0.0
230
1.0
 70
     8
 71
     3
 72
    14
 73
    10
 74
     0
 42
0.0
 43
0.0
 12
1.0
 22
0.0
 32
0.0
 13
1.0
 23
0.0
 33
0.0
 40
0.0
 40
0.0
 40
0.0
 40
0.0
 40
1.0
 40
1.0
 40
1.0
 40
2.0
 40
2.0
 40
2.0
 40
3.0
 40
3.0
 40
3.0
 40
3.0
 10
-78.38903826998919
 20
-47.05305983950264
 30
0.0
 10
-83.68137292410508
 20
-39.63586512605833
 30
0.0
 10
-86.65861546357371
 20
-31.93756655971803
 30
0.0
 10
-87.32076588839507
 20
-23.95816414048171
 30
0.0
 10
-87.81000861391863
 20
-18.06242739955969
 30
0.0
 10
-85.69707657801443
 20
-11.86855330931619
 30
0.0
 10
-84.99687271314033
 20
-5.810566461001734
 30
0.0
 10
-84.5761926280942
 20
-2.170948700514986
 30
0.0
 10
-84.18237752431727
 20
1.471841009421734
 30
0.0
 10
-83.81542740180952
 20
5.117802668808425
 30
0.0
  0
SPLINE
  5
B5
330
1F
100
AcDbEntity
  8
0
  6
K5LT32771
 62
    30
420
 16744448
100
AcDbSpline
210
0.0
220
0.0
230
1.0
 70
     8
 71
     3
 72
    11
 73
     7
 74
     0
 42
0.0
 43
0.0
 12
1.0
 22
0.0
 32
0.0
 13
1.0
 23
0.0
 33
0.0
 40
0.0
 40
0.0
 40
0.0
 40
0.0
 40
1.0
 40
1.0
 40
1.0
 40
2.0
 40
2.0
 40
2.0
 40
2.0
 10
-83.81542740180952
 20
5.117802668808425
 30
0.0
 10
-84.69513259143633
 20
2.818139980062548
 30
0.0
 10
-85.92580479073928
 20
1.144425789010541
 30
0.0
 10
-87.50744399971836
 20
0.0966600956524033
 30
0.0
 10
-89.70789576466892
 20
-1.361041418141469
 30
0.0
 10
-92.58766871103781
 20
-1.607175858002058
 30
0.0
 10
-96.14676283882503
 20
-0.6417432239293639
 30
0.0
  0
SPLINE
  5
B6
330
1F
100
AcDbEntity
  8
0
  6
K5LT32771
 62
    30
420
 16744448
100
AcDbSpline
210
0.0
220
0.0
230
1.0
 70
     8
 71
     3
 72
    17
 73
    13
 74
     0
 42
0.0
 43
0.0
 12
1.0
 22
0.0
 32
0.0
 13
1.0
 23
0.0
 33
0.0
 40
0.0
 40
0.0
 40
0.0
 40
0.0
 40
1.0
 40
1.0
 40
1.0
 40
2.0
 40
2.0
 40
2.0
 40
3.0
 40
3.0
 40
3.0
 40
4.0
 40
4.0
 40
4.0
 40
4.0
 10
-96.14676283882503
 20
-0.6417432239293639
 30
0.0
 10
-94.06767503465804
 20
-3.559193198390404
 30
0.0
 10
-92.51702806353633
 20
-6.61126025266171
 30
0.0
 10
-91.49482192545989
 20
-9.797944386743282
 30
0.0
 10
-89.70816770634995
 20
-15.36776288131956
 30
0.0
 10
-92.3232063948159
 20
-21.98695224109872
 30
0.0
 10
-90.97793960175264
 20
-27.74114505258024
 30
0.0
 10
-90.1463059057659
 20
-31.29834326776556
 30
0.0
 10
-89.03619470787281
 20
-35.07400766422768
 30
0.0
 10
-87.13824233992744
 20
-38.15263185868316
 30
0.0
 10
-85.00363391179194
 20
-41.61513031941151
 30
0.0
 10
-82.08723255514585
 20
-44.58193964635133
 30
0.0
 10
-78.38903826998919
 20
-47.05305983950264
 30
0.0
  0
SPLINE
  5
B7
330
1F
100
AcDbEntity
  8
0
  6
K5LT32771
 62
    30
420
 16744448
100
AcDbSpline
210
0.0
220
0.0
230
1.0
 70
     8
 71
     3
 72
    14
 73
    10
 74
     0
 42
0.0
 43
0.0
 12
1.0
 22
0.0
 32
0.0
 13
1.0
 23
0.0
 33
0.0
 40
0.0
 40
0.0
 40
0.0
 40
0.0
 40
1.0
 40
1.0
 40
1.0
 40
2.0
 40
2.0
 40
2.0
 40
3.0
 40
3.0
 40
3.0
 40
3.0
 10
-111.6174665093897
 20
28.69912842624758
 30
0.0
 10
-110.6606345490756
 20
23.88817459156115
 30
0.0
 10
-108.6949777202942
 20
20.0765096105329
 30
0.0
 10
-105.7204960230455
 20
17.26413348316281
 30
0.0
 10
-103.3076428521907
 20
14.98277782283447
 30
0.0
 10
-99.81198817383591
 20
12.97676073985903
 30
0.0
 10
-96.49045526181118
 20
12.39272308140023
 30
0.0
 10
-94.36835321813317
 20
12.01958587595107
 30
0.0
 10
-92.14630636820637
 20
12.07086388018015
 30
0.0
 10
-89.82431471203081
 20
12.54655709408748
 30
0.0
  0
SPLINE
  5
B8
330
1F
100
AcDbEntity
  8
0
  6
K5LT32771
 62
    30
420
 16744448
100
AcDbSpline
210
0.0
220
0.0
230
1.0
 70
     8
 71
     3
 72
    17
 73
    13
 74
     0
 42
0.0
 43
0.0
 12
1.0
 22
0.0
 32
0.0
 13
1.0
 23
0.0
 33
0.0
 40
0.0
 40
0.0
 40
0.0
 40
0.0
 40
1.0
 40
1.0
 40
1.0
 40
2.0
 40
2.0
 40
2.0
 40
3.0
 40
3.0
 40
3.0
 40
4.0
 40
4.0
 40
4.0
 40
4.0
 10
-111.6174665093897
 20
28.69912842624758
 30
0.0
 10
-111.6886851725033
 20
25.56210728228937
 30
0.0
 10
-111.2613684705943
 20
22.62216837315547
 30
0.0
 10
-110.3355164036627
 20
19.87931169884587
 30
0.0
 10
-108.9006446552584
 20
15.62847326314155
 30
0.0
 10
-105.8894326765292
 20
11.37970551092022
 30
0.0
 10
-102.4387037523844
 20
8.546872764219259
 30
0.0
 10
-99.64289849679652
 20
6.251691411082161
 30
0.0
 10
-96.07723239859588
 20
3.954002490192327
 30
0.0
 10
-92.43949292771387
 20
3.52162834976945
 30
0.0
 10
-91.33924732716686
 20
3.39085544819186
 30
0.0
 10
-90.21113123412711
 20
3.3737627801155
 30
0.0
 10
-89.05514464859462
 20
3.470350345540371
 30
0.0
  0
SPLINE
  5
B9
330
1F
100
AcDbEntity
  8
0
  6
K5LT32771
 62
    30
420
 16744448
100
AcDbSpline
210
0.0
220
0.0
230
1.0
 70
     8
 71
     3
 72
    14
 73
    10
 74
     0
 42
0.0
 43
0.0
 12
1.0
 22
0.0
 32
0.0
 13
1.0
 23
0.0
 33
0.0
 40
0.0
 40
0.0
 40
0.0
 40
0.0
 40
1.0
 40
1.0
 40
1.0
 40
2.0
 40
2.0
 40
2.0
 40
3.0
 40
3.0
 40
3.0
 40
3.0
 10
-89.82431471203081
 20
12.54655709408748
 30
0.0
 10
-91.2223461796952
 20
11.87270278993609
 30
0.0
 10
-92.1966282600477
 20
10.98388404996538
 30
0.0
 10
-92.74716095308835
 20
9.88010087417533
 30
0.0
 10
-93.27825331495234
 20
8.81529433093745
 30
0.0
 10
-93.55238205809049
 20
7.09497852692954
 30
0.0
 10
-93.15738498692099
 20
6.085528561223434
 30
0.0
 10
-92.65390249396006
 20
4.798834501066865
 30
0.0
 10
-91.28648904785128
 20
3.927108429172511
 30
0.0
 10
-89.05514464859462
 20
3.470350345540371
 30
0.0
  0
SPLINE
  5
BA
330
1F
100
AcDbEntity
  8
0
  6
K5LT32771
 62
    30
420
 16744448
100
AcDbSpline
210
0.0
220
0.0
230
1.0
 70
     8
 71
     3
 72
    26
 73
    22
 74
     0
 42
0.0
 43
0.0
 12
1.0
 22
0.0
 32
0.0
 13
1.0
 23
0.0
 33
0.0
 40
0.0
 40
0.0
 40
0.0
 40
0.0
 40
1.0
 40
1.0
 40
1.0
 40
2.0
 40
2.0
 40
2.0
 40
3.0
 40
3.0
 40
3.0
 40
4.0
 40
4.0
 40
4.0
 40
5.0
 40
5.0
 40
5.0
 40
6.0
 40
6.0
 40
6.0
 40
7.0
 40
7.0
 40
7.0
 40
7.0
 10
-112.756567908773
 20
40.76662233064465
 30
0.0
 10
-109.3196083798307
 20
47.57468812198476
 30
0.0
 10
-105.6618532599121
 20
54.25221781765011
 30
0.0
 10
-101.7833025490172
 20
60.79921141764069
 30
0.0
 10
-98.11084191547984
 20
66.99832496705176
 30
0.0
 10
-93.1030118938562
 20
72.49382680939242
 30
0.0
 10
-90.17205664508954
 20
79.04545498095555
 30
0.0
 10
-88.95643801895145
 20
81.7627538002516
 30
0.0
 10
-86.40789300228882
 20
84.7450556086663
 30
0.0
 10
-87.01001558931443
 20
87.43966438983244
 30
0.0
 10
-87.29794005392539
 20
88.72817906669543
 30
0.0
 10
-87.99704083718386
 20
90.35753902630857
 30
0.0
 10
-89.00985775424854
 20
91.23423670278434
 30
0.0
 10
-89.94524063451834
 20
92.04390722065482
 30
0.0
 10
-91.5155765468877
 20
92.85077339651737
 30
0.0
 10
-92.70187405874228
 20
92.67002082119858
 30
0.0
 10
-93.52668064652171
 20
92.54434752812392
 30
0.0
 10
-94.58111721119738
 20
91.99529491395558
 30
0.0
 10
-95.11194025750902
 20
91.3367927112425
 30
0.0
 10
-95.67534246172241
 20
90.63787506803581
 30
0.0
 10
-95.93173248286783
 20
89.69777832383602
 30
0.0
 10
-95.88111032094523
 20
88.51650247864312
 30
0.0
  0
SPLINE
  5
BB
330
1F
100
AcDbEntity
  8
0
  6
K5LT32771
 62
    30
420
 16744448
100
AcDbSpline
210
0.0
220
0.0
230
1.0
 70
     8
 71
     3
 72
    23
 73
    19
 74
     0
 42
0.0
 43
0.0
 12
1.0
 22
0.0
 32
0.0
 13
1.0
 23
0.0
 33
0.0
 40
0.0
 40
0.0
 40
0.0
 40
0.0
 40
1.0
 40
1.0
 40
1.0
 40
2.0
 40
2.0
 40
2.0
 40
3.0
 40
3.0
 40
3.0
 40
4.0
 40
4.0
 40
4.0
 40
5.0
 40
5.0
 40
5.0
 40
6.0
 40
6.0
 40
6.0
 40
6.0
 10
-95.88111032094523
 20
88.51650247864312
 30
0.0
 10
-95.23456099592012
 20
89.429102746481
 30
0.0
 10
-94.49957626863663
 20
89.97606812492452
 30
0.0
 10
-93.67615613909479
 20
90.15739861397367
 30
0.0
 10
-92.92859878933686
 20
90.32202288651763
 30
0.0
 10
-91.74407436636059
 20
90.18464610921338
 30
0.0
 10
-91.21481193609897
 20
89.74717458014103
 30
0.0
 10
-90.54931181680121
 20
89.19709330072149
 30
0.0
 10
-90.41018233581697
 20
87.5923865762585
 30
0.0
 10
-90.59947588535002
 20
86.67049432639625
 30
0.0
 10
-90.83637578445138
 20
85.51675093940054
 30
0.0
 10
-92.04493807407725
 20
84.13860581298974
 30
0.0
 10
-93.163376096804
 20
83.69637008110962
 30
0.0
 10
-93.96720677847402
 20
83.37853159333238
 30
0.0
 10
-95.15127197687836
 20
83.29658661952404
 30
0.0
 10
-95.98366632940338
 20
83.59381407265147
 30
0.0
 10
-96.69467619236909
 20
83.84769812421516
 30
0.0
 10
-97.32710491119441
 20
84.3433854984296
 30
0.0
 10
-97.88095248587933
 20
85.08087619529478
 30
0.0
  0
SPLINE
  5
BC
330
1F
100
AcDbEntity
  8
0
  6
K5LT32771
 62
    30
420
 16744448
100
AcDbSpline
210
0.0
220
0.0
230
1.0
 70
     8
 71
     3
 72
    17
 73
    13
 74
     0
 42
0.0
 43
0.0
 12
1.0
 22
0.0
 32
0.0
 13
1.0
 23
0.0
 33
0.0
 40
0.0
 40
0.0
 40
0.0
 40
0.0
 40
1.0
 40
1.0
 40
1.0
 40
2.0
 40
2.0
 40
2.0
 40
3.0
 40
3.0
 40
3.0
 40
4.0
 40
4.0
 40
4.0
 40
4.0
 10
-97.88095248587933
 20
85.08087619529478
 30
0.0
 10
-97.46443639421028
 20
83.46191859874975
 30
0.0
 10
-97.29350971344668
 20
81.87230046764829
 30
0.0
 10
-97.36817244358853
 20
80.31202180199037
 30
0.0
 10
-97.50981837112343
 20
77.35194897328263
 30
0.0
 10
-99.28276643333339
 20
74.5442561802692
 30
0.0
 10
-100.4448526973333
 20
71.74859509573406
 30
0.0
 10
-102.2138054229084
 20
67.49297961478814
 30
0.0
 10
-104.8878855195839
 20
63.62238616766955
 30
0.0
 10
-106.700769213281
 20
59.39059607652586
 30
0.0
 10
-109.2639452195779
 20
53.40740870327318
 30
0.0
 10
-111.2825447847419
 20
47.19941745464612
 30
0.0
 10
-112.756567908773
 20
40.76662233064465
 30
0.0
  0
SPLINE
  5
BD
330
1F
100
AcDbEntity
  8
0
  6
K5LT32771
 62
    30
420
 16744448
100
AcDbSpline
210
0.0
220
0.0
230
1.0
 70
     8
 71
     3
 72
    20
 73
    16
 74
     0
 42
0.0
 43
0.0
 12
1.0
 22
0.0
 32
0.0
 13
1.0
 23
0.0
 33
0.0
 40
0.0
 40
0.0
 40
0.0
 40
0.0
 40
1.0
 40
1.0
 40
1.0
 40
2.0
 40
2.0
 40
2.0
 40
3.0
 40
3.0
 40
3.0
 40
4.0
 40
4.0
 40
4.0
 40
5.0
 40
5.0
 40
5.0
 40
5.0
 10
-98.31261974435525
 20
92.24496652775723
 30
0.0
 10
-95.98853203406448
 20
94.21404120216934
 30
0.0
 10
-93.50749678168228
 20
95.6908479000159
 30
0.0
 10
-90.86951398720859
 20
96.6753866212969
 30
0.0
 10
-86.8356238354988
 20
98.18090100906026
 30
0.0
 10
-81.66117093021724
 20
96.25057127764538
 30
0.0
 10
-77.66686210846036
 20
97.73868744374643
 30
0.0
 10
-74.01987209040736
 20
99.09740682315754
 30
0.0
 10
-70.64580283723386
 20
101.9418549101356
 30
0.0
 10
-67.7427210989315
 20
104.6501427896683
 30
0.0
 10
-63.41770580664144
 20
108.6849539148116
 30
0.0
 10
-61.63095927195463
 20
115.2340894503392
 30
0.0
 10
-57.46414648191947
 20
119.4477459020908
 30
0.0
 10
-53.74264825783934
 20
123.2110815238828
 30
0.0
 10
-49.43037270012739
 20
126.4009839912313
 30
0.0
 10
-44.52731980878363
 20
129.0174533041365
 30
0.0
  0
SPLINE
  5
BE
330
1F
100
AcDbEntity
  8
0
  6
K5LT32771
 62
    30
420
 16744448
100
AcDbSpline
210
0.0
220
0.0
230
1.0
 70
     8
 71
     3
 72
    17
 73
    13
 74
     0
 42
0.0
 43
0.0
 12
1.0
 22
0.0
 32
0.0
 13
1.0
 23
0.0
 33
0.0
 40
0.0
 40
0.0
 40
0.0
 40
0.0
 40
1.0
 40
1.0
 40
1.0
 40
2.0
 40
2.0
 40
2.0
 40
3.0
 40
3.0
 40
3.0
 40
4.0
 40
4.0
 40
4.0
 40
4.0
 10
-44.52731980878363
 20
129.0174533041365
 30
0.0
 10
-49.63067875290385
 20
128.0321197963788
 30
0.0
 10
-54.13001753885695
 20
126.181189030449
 30
0.0
 10
-58.0253361666429
 20
123.4646610063471
 30
0.0
 10
-61.93066679184574
 20
120.7411507879348
 30
0.0
 10
-64.17834585615836
 20
115.7794153307763
 30
0.0
 10
-67.91994064903858
 20
112.6839725404533
 30
0.0
 10
-69.69119631889177
 20
111.2186025855082
 30
0.0
 10
-71.38708873694397
 20
109.2027896796131
 30
0.0
 10
-73.53180587786001
 20
108.6227542827536
 30
0.0
 10
-74.79105541668672
 20
108.282192214188
 30
0.0
 10
-76.14479483591995
 20
108.2083518822298
 30
0.0
 10
-77.59302413555973
 20
108.4012332868791
 30
0.0
  0
SPLINE
  5
BF
330
1F
100
AcDbEntity
  8
0
  6
K5LT32771
 62
    30
420
 16744448
100
AcDbSpline
210
0.0
220
0.0
230
1.0
 70
     8
 71
     3
 72
    14
 73
    10
 74
     0
 42
0.0
 43
0.0
 12
1.0
 22
0.0
 32
0.0
 13
1.0
 23
0.0
 33
0.0
 40
0.0
 40
0.0
 40
0.0
 40
0.0
 40
1.0
 40
1.0
 40
1.0
 40
2.0
 40
2.0
 40
2.0
 40
3.0
 40
3.0
 40
3.0
 40
3.0
 10
-98.31261974435525
 20
92.24496652775723
 30
0.0
 10
-97.9585846246434
 20
95.95260507508503
 30
0.0
 10
-96.78698520379663
 20
98.99975014945004
 30
0.0
 10
-94.7978214818149
 20
101.3864017508523
 30
0.0
 10
-92.98837254938681
 20
103.557426762274
 30
0.0
 10
-90.06072674871058
 20
105.1832052459193
 30
0.0
 10
-87.33994795403905
 20
106.2598636600919
 30
0.0
 10
-85.37080513001465
 20
107.0390869451108
 30
0.0
 10
-83.27866239119963
 20
107.5313558248319
 30
0.0
 10
-81.06351973759402
 20
107.7366702992555
 30
0.0
  0
SPLINE
  5
C0
330
1F
100
AcDbEntity
  8
0
  6
K5LT32771
 62
    30
420
 16744448
100
AcDbSpline
210
0.0
220
0.0
230
1.0
 70
     8
 71
     3
 72
    23
 73
    19
 74
     0
 42
0.0
 43
0.0
 12
1.0
 22
0.0
 32
0.0
 13
1.0
 23
0.0
 33
0.0
 40
0.0
 40
0.0
 40
0.0
 40
0.0
 40
1.0
 40
1.0
 40
1.0
 40
2.0
 40
2.0
 40
2.0
 40
3.0
 40
3.0
 40
3.0
 40
4.0
 40
4.0
 40
4.0
 40
5.0
 40
5.0
 40
5.0
 40
6.0
 40
6.0
 40
6.0
 40
6.0
 10
-81.06351973759402
 20
107.7366702992555
 30
0.0
 10
-81.86833615906505
 20
107.4327854259807
 30
0.0
 10
-82.42384960480135
 20
107.0169785909061
 30
0.0
 10
-82.73006007480289
 20
106.4892497940318
 30
0.0
 10
-83.17793664793118
 20
105.7173710105141
 30
0.0
 10
-83.00501739499913
 20
104.1526005743909
 30
0.0
 10
-82.47367006384552
 20
103.4553013310362
 30
0.0
 10
-82.0064787578141
 20
102.8421955053416
 30
0.0
 10
-80.8428246148372
 20
102.373788951008
 30
0.0
 10
-80.03796495975047
 20
102.3442779502209
 30
0.0
 10
-79.01527926471402
 20
102.3067801353405
 30
0.0
 10
-77.56534130942228
 20
103.0232490682606
 30
0.0
 10
-77.00401649675486
 20
103.8826180159652
 30
0.0
 10
-76.60017651985454
 20
104.5008831062623
 30
0.0
 10
-76.38600289125425
 20
105.5150373562089
 30
0.0
 10
-76.49123647484011
 20
106.2755914515674
 30
0.0
 10
-76.59418772775378
 20
107.0196504711092
 30
0.0
 10
-76.96145028132699
 20
107.7281977495465
 30
0.0
 10
-77.59302413555973
 20
108.4012332868791
 30
0.0
  0
CIRCLE
  5
C1
330
1F
100
AcDbEntity
  8
0
  6
K5LT32771
 62
    30
420
 16744448
100
AcDbCircle
 10
-82.44272082289135
 20
83.51941529435308
 30
0.0
 40
1.5875
  0
CIRCLE
  5
C2
330
1F
100
AcDbEntity
  8
0
  6
K5LT32771
 62
    30
420
 16744448
100
AcDbCircle
 10
-35.78454378193125
 20
128.4509200024733
 30
0.0
 40
1.5875
  0
SPLINE
  5
C3
330
1F
100
AcDbEntity
  8
0
  6
K5LT32771
 62
    30
420
 16744448
100
AcDbSpline
210
0.0
220
0.0
230
1.0
 70
     8
 71
     3
 72
    20
 73
    16
 74
     0
 42
0.0
 43
0.0
 12
1.0
 22
0.0
 32
0.0
 13
1.0
 23
0.0
 33
0.0
 40
0.0
 40
0.0
 40
0.0
 40
0.0
 40
1.0
 40
1.0
 40
1.0
 40
2.0
 40
2.0
 40
2.0
 40
3.0
 40
3.0
 40
3.0
 40
4.0
 40
4.0
 40
4.0
 40
5.0
 40
5.0
 40
5.0
 40
5.0
 10
-35.78454378193126
 20
140.2822842705596
 30
0.0
 10
-26.51393909128027
 20
140.1524343080128
 30
0.0
 10
-18.88633622441149
 20
137.7699599690186
 30
0.0
 10
-12.90173518132494
 20
133.134861253577
 30
0.0
 10
-7.853921743082147
 20
129.2253084839038
 30
0.0
 10
-6.274934989378551
 20
121.0135865402746
 30
0.0
 10
-1.264969593226908
 20
116.5984048915429
 30
0.0
 10
0.4226544101947383
 20
115.1111358306449
 30
0.0
 10
2.092904464098126
 20
112.6654204179109
 30
0.0
 10
4.182921726729575
 20
112.5100181841611
 30
0.0
 10
5.222697742609853
 20
112.4327061359037
 30
0.0
 10
6.572581599799349
 20
112.6011211867887
 30
0.0
 10
7.505736664847532
 20
113.1745811717847
 30
0.0
 10
7.966742257227239
 20
113.4578869909258
 30
0.0
 10
8.385170804990238
 20
113.8270886507167
 30
0.0
 10
8.761022308136532
 20
114.2821861511573
 30
0.0
  0
SPLINE
  5
C4
330
1F
100
AcDbEntity
  8
0
  6
K5LT32771
 62
    30
420
 16744448
100
AcDbSpline
210
0.0
220
0.0
230
1.0
 70
     8
 71
     3
 72
    23
 73
    19
 74
     0
 42
0.0
 43
0.0
 12
1.0
 22
0.0
 32
0.0
 13
1.0
 23
0.0
 33
0.0
 40
0.0
 40
0.0
 40
0.0
 40
0.0
 40
1.0
 40
1.0
 40
1.0
 40
2.0
 40
2.0
 40
2.0
 40
3.0
 40
3.0
 40
3.0
 40
4.0
 40
4.0
 40
4.0
 40
5.0
 40
5.0
 40
5.0
 40
6.0
 40
6.0
 40
6.0
 40
6.0
 10
8.761022308136532
 20
114.2821861511573
 30
0.0
 10
7.788424438929326
 20
114.2337501436999
 30
0.0
 10
6.951567343403326
 20
114.4060442516023
 30
0.0
 10
6.250451021558533
 20
114.7990684748646
 30
0.0
 10
5.373546657678446
 20
115.2906340621305
 30
0.0
 10
4.335699359443723
 20
116.4265579250739
 30
0.0
 10
4.256762058687755
 20
117.3096397614426
 30
0.0
 10
4.175350928678355
 20
118.2203966469839
 30
0.0
 10
5.128461360925286
 20
119.5594248600595
 30
0.0
 10
5.881249361767644
 20
120.1894127078115
 30
0.0
 10
7.112652802253834
 20
121.2199408277047
 30
0.0
 10
10.02977727938766
 20
121.4323707676452
 30
0.0
 10
11.27159359471455
 20
120.6324546995606
 30
0.0
 10
12.37164643372851
 20
119.9238555848535
 30
0.0
 10
13.11844605203547
 20
117.7788209756971
 30
0.0
 10
13.26528255758532
 20
116.2758751140281
 30
0.0
 10
13.41183977328548
 20
114.7757879251547
 30
0.0
 10
13.04263811349459
 20
113.225140954033
 30
0.0
 10
12.15767757821267
 20
111.623934200663
 30
0.0
  0
SPLINE
  5
C5
330
1F
100
AcDbEntity
  8
0
  6
K5LT32771
 62
    30
420
 16744448
100
AcDbSpline
210
0.0
220
0.0
230
1.0
 70
     8
 71
     3
 72
    14
 73
    10
 74
     0
 42
0.0
 43
0.0
 12
1.0
 22
0.0
 32
0.0
 13
1.0
 23
0.0
 33
0.0
 40
0.0
 40
0.0
 40
0.0
 40
0.0
 40
1.0
 40
1.0
 40
1.0
 40
2.0
 40
2.0
 40
2.0
 40
3.0
 40
3.0
 40
3.0
 40
3.0
 10
12.15767757821267
 20
111.623934200663
 30
0.0
 10
15.85423010613344
 20
112.0176473701857
 30
0.0
 10
19.12781815627928
 20
111.5746053784367
 30
0.0
 10
21.97844172865017
 20
110.2948082254158
 30
0.0
 10
25.70355954644313
 20
108.6224039051521
 30
0.0
 10
29.40661345678049
 20
104.6911609671749
 30
0.0
 10
30.98696222754775
 20
100.9909263986856
 30
0.0
 10
32.60951850795018
 20
97.19186700804882
 30
0.0
 10
32.73258572788048
 20
92.7614470905582
 30
0.0
 10
31.35616388733862
 20
87.69966664621373
 30
0.0
  0
SPLINE
  5
C6
330
1F
100
AcDbEntity
  8
0
  6
K5LT32771
 62
    30
420
 16744448
100
AcDbSpline
210
0.0
220
0.0
230
1.0
 70
     8
 71
     3
 72
    26
 73
    22
 74
     0
 42
0.0
 43
0.0
 12
1.0
 22
0.0
 32
0.0
 13
1.0
 23
0.0
 33
0.0
 40
0.0
 40
0.0
 40
0.0
 40
0.0
 40
1.0
 40
1.0
 40
1.0
 40
2.0
 40
2.0
 40
2.0
 40
3.0
 40
3.0
 40
3.0
 40
4.0
 40
4.0
 40
4.0
 40
5.0
 40
5.0
 40
5.0
 40
6.0
 40
6.0
 40
6.0
 40
7.0
 40
7.0
 40
7.0
 40
7.0
 10
31.35616388733862
 20
87.69966664621373
 30
0.0
 10
33.50105049692922
 20
88.57942125547386
 30
0.0
 10
35.37167223986971
 20
88.75171536337626
 30
0.0
 10
36.96802911616008
 20
88.21654896992095
 30
0.0
 10
38.89277077905422
 20
87.57129409655084
 30
0.0
 10
40.76219119970887
 20
85.25179938086495
 30
0.0
 10
41.54612969756704
 20
83.19540639676492
 30
0.0
 10
41.86861851740008
 20
82.34946791005044
 30
0.0
 10
42.19538978912452
 20
81.32191091296006
 30
0.0
 10
42.13685235323246
 20
80.46331411431238
 30
0.0
 10
42.02701724425822
 20
78.85230960912227
 30
0.0
 10
40.49840028715447
 20
76.90052954335222
 30
0.0
 10
39.10939874294721
 20
76.18057486073812
 30
0.0
 10
37.79858691186131
 20
75.50114788691509
 30
0.0
 10
35.52392996216815
 20
75.4147641578944
 30
0.0
 10
34.16209650174936
 20
76.03289419682177
 30
0.0
 10
32.9101779074019
 20
76.60113437592555
 30
0.0
 10
31.53536416327529
 20
78.11449626767687
 30
0.0
 10
31.13464289146411
 20
79.4295494668979
 30
0.0
 10
30.72722328117649
 20
80.76658470715981
 30
0.0
 10
30.94874427705102
 20
82.29261823429546
 30
0.0
 10
31.79920587908769
 20
84.00765004830487
 30
0.0
  0
SPLINE
  5
C7
330
1F
100
AcDbEntity
  8
0
  6
K5LT32771
 62
    30
420
 16744448
100
AcDbSpline
210
0.0
220
0.0
230
1.0
 70
     8
 71
     3
 72
    29
 73
    25
 74
     0
 42
0.0
 43
0.0
 12
1.0
 22
0.0
 32
0.0
 13
1.0
 23
0.0
 33
0.0
 40
0.0
 40
0.0
 40
0.0
 40
0.0
 40
1.0
 40
1.0
 40
1.0
 40
2.0
 40
2.0
 40
2.0
 40
3.0
 40
3.0
 40
3.0
 40
4.0
 40
4.0
 40
4.0
 40
5.0
 40
5.0
 40
5.0
 40
6.0
 40
6.0
 40
6.0
 40
7.0
 40
7.0
 40
7.0
 40
8.0
 40
8.0
 40
8.0
 40
8.0
 10
31.79920587908769
 20
84.00765004830487
 30
0.0
 10
30.86306749961783
 20
83.5782103796156
 30
0.0
 10
30.2349709250778
 20
83.02731806549295
 30
0.0
 10
29.91491615546764
 20
82.35497310593693
 30
0.0
 10
29.49600697693781
 20
81.47496286569167
 30
0.0
 10
29.91764853968296
 20
80.09990099576059
 30
0.0
 10
30.24133859717998
 20
79.09074868881353
 30
0.0
 10
30.68967200962528
 20
77.69300202662329
 30
0.0
 10
31.89271013367113
 20
76.5416548377072
 30
0.0
 10
32.8230433634503
 20
75.35172799283582
 30
0.0
 10
34.26725204733485
 20
73.50453751576502
 30
0.0
 10
36.14192567547491
 20
72.00042479886942
 30
0.0
 10
37.66003045427863
 20
70.21799322772357
 30
0.0
 10
42.69575932100972
 20
64.30546186551743
 30
0.0
 10
47.52848024651391
 20
57.39436502288581
 30
0.0
 10
49.65689661983113
 20
50.13054454451834
 30
0.0
 10
51.62424805782128
 20
43.41640353218145
 30
0.0
 10
52.06722833576657
 20
35.39624421743228
 30
0.0
 10
50.76450155519153
 20
28.53224830499081
 30
0.0
 10
49.35034195820734
 20
21.08111899838769
 30
0.0
 10
46.12328014126838
 20
12.5407807737677
 30
0.0
 10
40.61145631438796
 20
7.364687318103428
 30
0.0
 10
37.83029922442671
 20
4.752933121186298
 30
0.0
 10
34.50748441834556
 20
2.61976806049222
 30
0.0
 10
30.6430118961445
 20
0.9651921360211944
 30
0.0
  0
SPLINE
  5
C8
330
1F
100
AcDbEntity
  8
0
  6
K5LT32771
 62
    30
420
 16744448
100
AcDbSpline
210
0.0
220
0.0
230
1.0
 70
     8
 71
     3
 72
    29
 73
    25
 74
     0
 42
0.0
 43
0.0
 12
1.0
 22
0.0
 32
0.0
 13
1.0
 23
0.0
 33
0.0
 40
0.0
 40
0.0
 40
0.0
 40
0.0
 40
1.0
 40
1.0
 40
1.0
 40
2.0
 40
2.0
 40
2.0
 40
3.0
 40
3.0
 40
3.0
 40
4.0
 40
4.0
 40
4.0
 40
5.0
 40
5.0
 40
5.0
 40
6.0
 40
6.0
 40
6.0
 40
7.0
 40
7.0
 40
7.0
 40
8.0
 40
8.0
 40
8.0
 40
8.0
 10
30.6430118961445
 20
0.9651921360211944
 30
0.0
 10
32.74131892513874
 20
0.4458524726473601
 30
0.0
 10
34.33545040734542
 20
-0.4638879826821478
 30
0.0
 10
35.42540634276452
 20
-1.764029229967329
 30
0.0
 10
36.74028223299784
 20
-3.332463626625601
 30
0.0
 10
37.49119897025572
 20
-6.174848154221461
 30
0.0
 10
37.16885848655322
 20
-8.173779758602297
 30
0.0
 10
36.85892548077985
 20
-10.09576880994627
 30
0.0
 10
35.38971181533738
 20
-12.57325249262272
 30
0.0
 10
33.73323220320488
 20
-13.55797020265567
 30
0.0
 10
32.25467810650845
 20
-14.43691757610651
 30
0.0
 10
29.65855834118247
 20
-14.91862223010345
 30
0.0
 10
28.07556054379718
 20
-14.25876846970781
 30
0.0
 10
26.8841129978956
 20
-13.76212776384209
 30
0.0
 10
25.48586826768228
 20
-12.46815842803524
 30
0.0
 10
25.01597148426133
 20
-11.25046001234708
 30
0.0
 10
24.55494615526331
 20
-10.05575123263176
 30
0.0
 10
24.65965113304703
 20
-8.210624798017646
 30
0.0
 10
25.22108350117765
 20
-7.045663665562543
 30
0.0
 10
25.77820947710093
 20
-5.889638212322618
 30
0.0
 10
27.17546463046978
 20
-4.546764929977376
 30
0.0
 10
28.34904175915152
 20
-4.276651437192239
 30
0.0
 10
29.64280508820535
 20
-3.978875583260422
 30
0.0
 10
31.09568187469594
 20
-4.474562957474859
 30
0.0
 10
32.70767211862329
 20
-5.763713559835551
 30
0.0
  0
SPLINE
  5
C9
330
1F
100
AcDbEntity
  8
0
  6
K5LT32771
 62
    30
420
 16744448
100
AcDbSpline
210
0.0
220
0.0
230
1.0
 70
     8
 71
     3
 72
    44
 73
    40
 74
     0
 42
0.0
 43
0.0
 12
1.0
 22
0.0
 32
0.0
 13
1.0
 23
0.0
 33
0.0
 40
0.0
 40
0.0
 40
0.0
 40
0.0
 40
1.0
 40
1.0
 40
1.0
 40
2.0
 40
2.0
 40
2.0
 40
3.0
 40
3.0
 40
3.0
 40
4.0
 40
4.0
 40
4.0
 40
5.0
 40
5.0
 40
5.0
 40
6.0
 40
6.0
 40
6.0
 40
7.0
 40
7.0
 40
7.0
 40
8.0
 40
8.0
 40
8.0
 40
9.0
 40
9.0
 40
9.0
 40
10.0
 40
10.0
 40
10.0
 40
11.0
 40
11.0
 40
11.0
 40
12.0
 40
12.0
 40
12.0
 40
13.0
 40
13.0
 40
13.0
 40
13.0
 10
32.70767211862329
 20
-5.763713559835551
 30
0.0
 10
32.22209941028434
 20
-4.471149711929829
 30
0.0
 10
31.53981784882809
 20
-3.613667177480291
 30
0.0
 10
30.66082743425453
 20
-3.191265956486939
 30
0.0
 10
29.69799249275108
 20
-2.728573021316055
 30
0.0
 10
28.06894841968074
 20
-2.921291935126416
 30
0.0
 10
27.06424547901779
 20
-3.369314568132321
 30
0.0
 10
25.83667225147373
 20
-3.916720739004024
 30
0.0
 10
24.82698755616011
 20
-5.472159123823054
 30
0.0
 10
24.25107741502073
 20
-6.7522381893946
 30
0.0
 10
23.57624164270949
 20
-8.252199872870769
 30
0.0
 10
23.64357583238325
 20
-10.19720730987768
 30
0.0
 10
23.71693158008459
 20
-11.88003820478163
 30
0.0
 10
23.85008262546079
 20
-14.93461402016419
 30
0.0
 10
26.10630118572152
 20
-17.75233699173859
 30
0.0
 10
26.6013190887398
 20
-20.78246878705079
 30
0.0
 10
27.2798016735384
 20
-24.93563504675259
 30
0.0
 10
27.10961721461831
 20
-29.62312248527132
 30
0.0
 10
26.00797062373623
 20
-33.59507928646354
 30
0.0
 10
24.44070169998184
 20
-39.24582473652571
 30
0.0
 10
20.49164574119918
 20
-45.2379807506934
 30
0.0
 10
15.81800481350781
 20
-48.73234733788979
 30
0.0
 10
12.41084553978973
 20
-51.27979668360106
 30
0.0
 10
7.814720454648707
 20
-52.79953009813465
 30
0.0
 10
3.560509708450482
 20
-53.90117057496217
 30
0.0
 10
-0.039294430915831
 20
-54.83335052211715
 30
0.0
 10
-4.344924103494947
 20
-53.59632912853179
 30
0.0
 10
-7.600586494633262
 20
-55.36313606920661
 30
0.0
 10
-8.228967856362289
 20
-55.70415071320517
 30
0.0
 10
-8.916231695708788
 20
-56.04661725686142
 30
0.0
 10
-9.433795045396508
 20
-56.52917615470805
 30
0.0
 10
-10.13373595619516
 20
-57.18177784042742
 30
0.0
 10
-10.84353910527817
 20
-58.09450853836685
 30
0.0
 10
-11.02057067761478
 20
-59.00207324387938
 30
0.0
 10
-11.16166394610659
 20
-59.72539772763352
 30
0.0
 10
-11.16926224785459
 20
-60.73456639779581
 30
0.0
 10
-10.77328096869765
 20
-61.33071800284905
 30
0.0
 10
-10.47916200025286
 20
-61.77351543884975
 30
0.0
 10
-10.01205921674271
 20
-62.11697336790133
 30
0.0
 10
-9.37197261816722
 20
-62.36109179000378
 30
0.0
  0
SPLINE
  5
CA
330
1F
100
AcDbEntity
  8
0
  6
K5LT32771
 62
    30
420
 16744448
100
AcDbSpline
210
0.0
220
0.0
230
1.0
 70
     8
 71
     3
 72
    29
 73
    25
 74
     0
 42
0.0
 43
0.0
 12
1.0
 22
0.0
 32
0.0
 13
1.0
 23
0.0
 33
0.0
 40
0.0
 40
0.0
 40
0.0
 40
0.0
 40
1.0
 40
1.0
 40
1.0
 40
2.0
 40
2.0
 40
2.0
 40
3.0
 40
3.0
 40
3.0
 40
4.0
 40
4.0
 40
4.0
 40
5.0
 40
5.0
 40
5.0
 40
6.0
 40
6.0
 40
6.0
 40
7.0
 40
7.0
 40
7.0
 40
8.0
 40
8.0
 40
8.0
 40
8.0
 10
-9.37197261816722
 20
-62.36109179000378
 30
0.0
 10
-9.740181486382191
 20
-61.40189268515149
 30
0.0
 10
-9.848549883195822
 20
-60.4876051007969
 30
0.0
 10
-9.697077808608121
 20
-59.61822903694001
 30
0.0
 10
-9.546971905362277
 20
-58.75669413236592
 30
0.0
 10
-9.101487865501397
 20
-57.71266841597207
 30
0.0
 10
-8.48123673976555
 20
-57.16593942351177
 30
0.0
 10
-7.708749385758068
 20
-56.48501968758419
 30
0.0
 10
-6.135352233689147
 20
-56.17216596789186
 30
0.0
 10
-5.163433145127343
 20
-56.38285534527417
 30
0.0
 10
-3.942014013876729
 20
-56.6476305094978
 30
0.0
 10
-2.502190437160976
 20
-58.20301636572819
 30
0.0
 10
-2.134134210892441
 20
-59.41215427950906
 30
0.0
 10
-1.774037339756589
 20
-60.59514412847455
 30
0.0
 10
-2.30429339752439
 20
-62.34016258107878
 30
0.0
 10
-2.896610813386943
 20
-63.53364942812796
 30
0.0
 10
-3.609444273137584
 20
-64.96996944095427
 30
0.0
 10
-5.06512236149895
 20
-66.55166184465307
 30
0.0
 10
-6.504405426678204
 20
-67.05901349462039
 30
0.0
 10
-7.933007480177984
 20
-67.56260005554441
 30
0.0
 10
-10.14423809384557
 20
-67.4239267320769
 30
0.0
 10
-11.48976655274893
 20
-66.59608710434239
 30
0.0
 10
-12.19351731556218
 20
-66.16310275113145
 30
0.0
 10
-12.81075250259951
 20
-65.54586756409412
 30
0.0
 10
-13.34147211386092
 20
-64.7443815432304
 30
0.0
  0
SPLINE
  5
CB
330
1F
100
AcDbEntity
  8
0
  6
K5LT32771
 62
    30
420
 16744448
100
AcDbSpline
210
0.0
220
0.0
230
1.0
 70
     8
 71
     3
 72
    17
 73
    13
 74
     0
 42
0.0
 43
0.0
 12
1.0
 22
0.0
 32
0.0
 13
1.0
 23
0.0
 33
0.0
 40
0.0
 40
0.0
 40
0.0
 40
0.0
 40
1.0
 40
1.0
 40
1.0
 40
2.0
 40
2.0
 40
2.0
 40
3.0
 40
3.0
 40
3.0
 40
4.0
 40
4.0
 40
4.0
 40
4.0
 10
-13.34147211386092
 20
-64.7443815432304
 30
0.0
 10
-13.14135125362457
 20
-68.09355616184203
 30
0.0
 10
-13.66360925065861
 20
-71.04274474011869
 30
0.0
 10
-14.90824610496303
 20
-73.59194727806037
 30
0.0
 10
-16.59298763352198
 20
-77.0425500506887
 30
0.0
 10
-20.36993772912351
 20
-80.04838582141531
 30
0.0
 10
-23.93317484928106
 20
-81.74514995048405
 30
0.0
 10
-26.20343677370241
 20
-82.8262172123727
 30
0.0
 10
-29.3513259252789
 20
-82.39072989051391
 30
0.0
 10
-31.41976346672669
 20
-83.74499211541816
 30
0.0
 10
-33.18615681852607
 20
-84.90149780762752
 30
0.0
 10
-34.64108359026093
 20
-86.55948661103442
 30
0.0
 10
-35.78454378193125
 20
-88.71895852563888
 30
0.0
  0
SPLINE
  5
CC
330
1F
100
AcDbEntity
  8
0
  6
K5LT32771
 62
    30
420
 16744448
100
AcDbSpline
210
0.0
220
0.0
230
1.0
 70
     8
 71
     3
 72
    17
 73
    13
 74
     0
 42
0.0
 43
0.0
 12
1.0
 22
0.0
 32
0.0
 13
1.0
 23
0.0
 33
0.0
 40
0.0
 40
0.0
 40
0.0
 40
0.0
 40
1.0
 40
1.0
 40
1.0
 40
2.0
 40
2.0
 40
2.0
 40
3.0
 40
3.0
 40
3.0
 40
4.0
 40
4.0
 40
4.0
 40
4.0
 10
-31.45509667920619
 20
-76.11211543797309
 30
0.0
 10
-27.69878690054811
 20
-75.42796880261565
 30
0.0
 10
-24.57204100566126
 20
-74.01564981801711
 30
0.0
 10
-22.07485899454566
 20
-71.87515848417742
 30
0.0
 10
-19.48147505997878
 20
-69.65220644762178
 30
0.0
 10
-16.74851226298106
 20
-66.15624126440909
 30
0.0
 10
-16.33172252088874
 20
-62.85022973985939
 30
0.0
 10
-16.04365826150958
 20
-60.56527964358892
 30
0.0
 10
-16.08034267602815
 20
-57.08703932387978
 30
0.0
 10
-17.61367262661573
 20
-55.56875313933007
 30
0.0
 10
-18.67419836471569
 20
-54.51863240315094
 30
0.0
 10
-20.26381649581716
 20
-53.90329635240198
 30
0.0
 10
-22.38252701992015
 20
-53.7227449870832
 30
0.0
  0
SPLINE
  5
CD
330
1F
100
AcDbEntity
  8
0
  6
K5LT32771
 62
    30
420
 16744448
100
AcDbSpline
210
0.0
220
0.0
230
1.0
 70
     8
 71
     3
 72
    14
 73
    10
 74
     0
 42
0.0
 43
0.0
 12
1.0
 22
0.0
 32
0.0
 13
1.0
 23
0.0
 33
0.0
 40
0.0
 40
0.0
 40
0.0
 40
0.0
 40
1.0
 40
1.0
 40
1.0
 40
2.0
 40
2.0
 40
2.0
 40
3.0
 40
3.0
 40
3.0
 40
3.0
 10
-22.38252701992015
 20
-53.7227449870832
 30
0.0
 10
-21.0535959106218
 20
-54.28858278175785
 30
0.0
 10
-20.19896250680381
 20
-55.02356750904132
 30
0.0
 10
-19.81862680846617
 20
-55.92769916893362
 30
0.0
 10
-19.35591120909164
 20
-57.02766381792421
 30
0.0
 10
-19.75965871347359
 20
-59.11490319833199
 30
0.0
 10
-20.53651886767329
 20
-59.97866150303092
 30
0.0
 10
-21.32124418474041
 20
-60.85116475327484
 30
0.0
 10
-22.65447229469648
 20
-61.22720345095475
 30
0.0
 10
-24.5362031975415
 20
-61.10677759607067
 30
0.0
  0
SPLINE
  5
CE
330
1F
100
AcDbEntity
  8
0
  6
K5LT32771
 62
    30
420
 16744448
100
AcDbSpline
210
0.0
220
0.0
230
1.0
 70
     8
 71
     3
 72
    14
 73
    10
 74
     0
 42
0.0
 43
0.0
 12
1.0
 22
0.0
 32
0.0
 13
1.0
 23
0.0
 33
0.0
 40
0.0
 40
0.0
 40
0.0
 40
0.0
 40
1.0
 40
1.0
 40
1.0
 40
2.0
 40
2.0
 40
2.0
 40
3.0
 40
3.0
 40
3.0
 40
3.0
 10
-24.5362031975415
 20
-61.10677759607067
 30
0.0
 10
-23.87814605860174
 20
-62.66843036769202
 30
0.0
 10
-23.60466336937998
 20
-64.17258515841168
 30
0.0
 10
-23.71575512987623
 20
-65.61924196822969
 30
0.0
 10
-23.8862954561202
 20
-67.84004865278798
 30
0.0
 10
-25.53528374686635
 20
-70.0464287952431
 30
0.0
 10
-26.94626939630825
 20
-71.87515848417742
 30
0.0
 10
-28.18970882978031
 20
-73.48673731864778
 30
0.0
 10
-29.69265125779561
 20
-74.89905630350972
 30
0.0
 10
-31.45509668035415
 20
-76.11211543876323
 30
0.0
  0
SPLINE
  5
CF
330
1F
100
AcDbEntity
  8
0
  6
K5LT32771
 62
    30
420
 16744448
100
AcDbSpline
210
0.0
220
0.0
230
1.0
 70
     8
 71
     3
 72
    17
 73
    13
 74
     0
 42
0.0
 43
0.0
 12
1.0
 22
0.0
 32
0.0
 13
1.0
 23
0.0
 33
0.0
 40
0.0
 40
0.0
 40
0.0
 40
0.0
 40
1.0
 40
1.0
 40
1.0
 40
2.0
 40
2.0
 40
2.0
 40
3.0
 40
3.0
 40
3.0
 40
4.0
 40
4.0
 40
4.0
 40
4.0
 10
-27.6751608962023
 20
-55.87839980482944
 30
0.0
 10
-27.53904565589745
 20
-54.05970064023987
 30
0.0
 10
-27.0262656339827
 20
-52.57833613248616
 30
0.0
 10
-26.13682083045806
 20
-51.43430628156828
 30
0.0
 10
-24.89323888531509
 20
-49.83477490911177
 30
0.0
 10
-22.2722101277912
 20
-49.03741222324755
 30
0.0
 10
-20.19711890994554
 20
-48.61401616103716
 30
0.0
 10
-17.80269300217545
 20
-48.1254639027625
 30
0.0
 10
-15.14638266614207
 20
-48.93552859573417
 30
0.0
 10
-12.63361358670298
 20
-49.2122595199377
 30
0.0
 10
-10.36197046022106
 20
-49.4624352750422
 30
0.0
 10
-8.097192030097581
 20
-49.7758008439901
 30
0.0
 10
-5.839278296332552
 20
-50.1523562267814
 30
0.0
  0
SPLINE
  5
D0
330
1F
100
AcDbEntity
  8
0
  6
K5LT32771
 62
    30
420
 16744448
100
AcDbSpline
210
0.0
220
0.0
230
1.0
 70
     8
 71
     3
 72
    11
 73
     7
 74
     0
 42
0.0
 43
0.0
 12
1.0
 22
0.0
 32
0.0
 13
1.0
 23
0.0
 33
0.0
 40
0.0
 40
0.0
 40
0.0
 40
0.0
 40
1.0
 40
1.0
 40
1.0
 40
2.0
 40
2.0
 40
2.0
 40
2.0
 10
-5.839278296332552
 20
-50.1523562267814
 30
0.0
 10
-7.659201120655673
 20
-50.43558199381722
 30
0.0
 10
-9.226028965395187
 20
-51.0480692422154
 30
0.0
 10
-10.53976183055109
 20
-51.98981797197592
 30
0.0
 10
-12.19501170602006
 20
-53.17638299520399
 30
0.0
 10
-13.44847398181167
 20
-54.88564973491982
 30
0.0
 10
-14.30014865792592
 20
-57.11761819112341
 30
0.0
  0
SPLINE
  5
D1
330
1F
100
AcDbEntity
  8
0
  6
K5LT32771
 62
    30
420
 16744448
100
AcDbSpline
210
0.0
220
0.0
230
1.0
 70
     8
 71
     3
 72
    17
 73
    13
 74
     0
 42
0.0
 43
0.0
 12
1.0
 22
0.0
 32
0.0
 13
1.0
 23
0.0
 33
0.0
 40
0.0
 40
0.0
 40
0.0
 40
0.0
 40
1.0
 40
1.0
 40
1.0
 40
2.0
 40
2.0
 40
2.0
 40
3.0
 40
3.0
 40
3.0
 40
4.0
 40
4.0
 40
4.0
 40
4.0
 10
-14.30014865792592
 20
-57.11761819112341
 30
0.0
 10
-14.32650892341461
 20
-55.06857006921259
 30
0.0
 10
-14.83928894532936
 20
-53.47325444547781
 30
0.0
 10
-15.83848872367017
 20
-52.33167131991909
 30
0.0
 10
-16.98195481801129
 20
-51.02526430678309
 30
0.0
 10
-19.43482851034057
 20
-50.00823245733881
 30
0.0
 10
-21.17994728528214
 20
-50.1950878952743
 30
0.0
 10
-22.46688746892563
 20
-50.33288468885904
 30
0.0
 10
-23.93013052402763
 20
-51.19714624297648
 30
0.0
 10
-24.98306578114987
 20
-52.07528130896171
 30
0.0
 10
-26.13949809129795
 20
-53.03973164540006
 30
0.0
 10
-27.03686312964876
 20
-54.3074378106893
 30
0.0
 10
-27.6751608962023
 20
-55.87839980482944
 30
0.0
  0
SPLINE
  5
D2
330
1F
100
AcDbEntity
  8
0
  6
K5LT32771
 62
    30
420
 16744448
100
AcDbSpline
210
0.0
220
0.0
230
1.0
 70
     8
 71
     3
 72
    14
 73
    10
 74
     0
 42
0.0
 43
0.0
 12
1.0
 22
0.0
 32
0.0
 13
1.0
 23
0.0
 33
0.0
 40
0.0
 40
0.0
 40
0.0
 40
0.0
 40
1.0
 40
1.0
 40
1.0
 40
2.0
 40
2.0
 40
2.0
 40
3.0
 40
3.0
 40
3.0
 40
3.0
 10
6.819950706126676
 20
-47.05305983950264
 30
0.0
 10
12.11228536024257
 20
-39.63586512605833
 30
0.0
 10
15.0895278997112
 20
-31.93756655971803
 30
0.0
 10
15.75167832453256
 20
-23.95816414048171
 30
0.0
 10
16.24092105005612
 20
-18.06242739955969
 30
0.0
 10
14.12798901415192
 20
-11.86855330931619
 30
0.0
 10
13.42778514927782
 20
-5.810566461001734
 30
0.0
 10
13.00710506423169
 20
-2.170948700514986
 30
0.0
 10
12.61328996045475
 20
1.471841009421734
 30
0.0
 10
12.246339837947
 20
5.117802668808425
 30
0.0
  0
SPLINE
  5
D3
330
1F
100
AcDbEntity
  8
0
  6
K5LT32771
 62
    30
420
 16744448
100
AcDbSpline
210
0.0
220
0.0
230
1.0
 70
     8
 71
     3
 72
    11
 73
     7
 74
     0
 42
0.0
 43
0.0
 12
1.0
 22
0.0
 32
0.0
 13
1.0
 23
0.0
 33
0.0
 40
0.0
 40
0.0
 40
0.0
 40
0.0
 40
1.0
 40
1.0
 40
1.0
 40
2.0
 40
2.0
 40
2.0
 40
2.0
 10
12.246339837947
 20
5.117802668808425
 30
0.0
 10
13.12604502757382
 20
2.818139980062548
 30
0.0
 10
14.35671722687677
 20
1.144425789010541
 30
0.0
 10
15.93835643585585
 20
0.0966600956524033
 30
0.0
 10
18.13880820080641
 20
-1.361041418141469
 30
0.0
 10
21.0185811471753
 20
-1.607175858002058
 30
0.0
 10
24.57767527496252
 20
-0.6417432239293639
 30
0.0
  0
SPLINE
  5
D4
330
1F
100
AcDbEntity
  8
0
  6
K5LT32771
 62
    30
420
 16744448
100
AcDbSpline
210
0.0
220
0.0
230
1.0
 70
     8
 71
     3
 72
    17
 73
    13
 74
     0
 42
0.0
 43
0.0
 12
1.0
 22
0.0
 32
0.0
 13
1.0
 23
0.0
 33
0.0
 40
0.0
 40
0.0
 40
0.0
 40
0.0
 40
1.0
 40
1.0
 40
1.0
 40
2.0
 40
2.0
 40
2.0
 40
3.0
 40
3.0
 40
3.0
 40
4.0
 40
4.0
 40
4.0
 40
4.0
 10
24.57767527496252
 20
-0.6417432239293639
 30
0.0
 10
22.49858747079553
 20
-3.559193198390404
 30
0.0
 10
20.94794049967382
 20
-6.61126025266171
 30
0.0
 10
19.92573436159738
 20
-9.797944386743282
 30
0.0
 10
18.13908014248744
 20
-15.36776288131956
 30
0.0
 10
20.75411883095339
 20
-21.98695224109872
 30
0.0
 10
19.40885203789013
 20
-27.74114505258024
 30
0.0
 10
18.57721834190339
 20
-31.29834326776556
 30
0.0
 10
17.4671071440103
 20
-35.07400766422768
 30
0.0
 10
15.56915477606493
 20
-38.15263185868316
 30
0.0
 10
13.43454634792943
 20
-41.61513031941151
 30
0.0
 10
10.51814499128334
 20
-44.58193964635133
 30
0.0
 10
6.819950706126676
 20
-47.05305983950264
 30
0.0
  0
SPLINE
  5
D5
330
1F
100
AcDbEntity
  8
0
  6
K5LT32771
 62
    30
420
 16744448
100
AcDbSpline
210
0.0
220
0.0
230
1.0
 70
     8
 71
     3
 72
    14
 73
    10
 74
     0
 42
0.0
 43
0.0
 12
1.0
 22
0.0
 32
0.0
 13
1.0
 23
0.0
 33
0.0
 40
0.0
 40
0.0
 40
0.0
 40
0.0
 40
1.0
 40
1.0
 40
1.0
 40
2.0
 40
2.0
 40
2.0
 40
3.0
 40
3.0
 40
3.0
 40
3.0
 10
40.04837894552718
 20
28.69912842624758
 30
0.0
 10
39.09154698521304
 20
23.88817459156115
 30
0.0
 10
37.12589015643165
 20
20.0765096105329
 30
0.0
 10
34.151408459183
 20
17.26413348316281
 30
0.0
 10
31.73855528832821
 20
14.98277782283447
 30
0.0
 10
28.2429006099734
 20
12.97676073985903
 30
0.0
 10
24.92136769794867
 20
12.39272308140023
 30
0.0
 10
22.79926565427066
 20
12.01958587595107
 30
0.0
 10
20.57721880434387
 20
12.07086388018015
 30
0.0
 10
18.2552271481683
 20
12.54655709408748
 30
0.0
  0
SPLINE
  5
D6
330
1F
100
AcDbEntity
  8
0
  6
K5LT32771
 62
    30
420
 16744448
100
AcDbSpline
210
0.0
220
0.0
230
1.0
 70
     8
 71
     3
 72
    17
 73
    13
 74
     0
 42
0.0
 43
0.0
 12
1.0
 22
0.0
 32
0.0
 13
1.0
 23
0.0
 33
0.0
 40
0.0
 40
0.0
 40
0.0
 40
0.0
 40
1.0
 40
1.0
 40
1.0
 40
2.0
 40
2.0
 40
2.0
 40
3.0
 40
3.0
 40
3.0
 40
4.0
 40
4.0
 40
4.0
 40
4.0
 10
40.04837894552718
 20
28.69912842624758
 30
0.0
 10
40.11959760864075
 20
25.56210728228937
 30
0.0
 10
39.69228090673175
 20
22.62216837315547
 30
0.0
 10
38.76642883980018
 20
19.87931169884587
 30
0.0
 10
37.33155709139588
 20
15.62847326314155
 30
0.0
 10
34.32034511266673
 20
11.37970551092022
 30
0.0
 10
30.8696161885219
 20
8.546872764219259
 30
0.0
 10
28.07381093293401
 20
6.251691411082161
 30
0.0
 10
24.50814483473337
 20
3.954002490192327
 30
0.0
 10
20.87040536385136
 20
3.52162834976945
 30
0.0
 10
19.77015976330435
 20
3.39085544819186
 30
0.0
 10
18.6420436702646
 20
3.3737627801155
 30
0.0
 10
17.48605708473211
 20
3.470350345540371
 30
0.0
  0
SPLINE
  5
D7
330
1F
100
AcDbEntity
  8
0
  6
K5LT32771
 62
    30
420
 16744448
100
AcDbSpline
210
0.0
220
0.0
230
1.0
 70
     8
 71
     3
 72
    14
 73
    10
 74
     0
 42
0.0
 43
0.0
 12
1.0
 22
0.0
 32
0.0
 13
1.0
 23
0.0
 33
0.0
 40
0.0
 40
0.0
 40
0.0
 40
0.0
 40
1.0
 40
1.0
 40
1.0
 40
2.0
 40
2.0
 40
2.0
 40
3.0
 40
3.0
 40
3.0
 40
3.0
 10
18.2552271481683
 20
12.54655709408748
 30
0.0
 10
19.65325861583268
 20
11.87270278993609
 30
0.0
 10
20.62754069618519
 20
10.98388404996538
 30
0.0
 10
21.17807338922584
 20
9.88010087417533
 30
0.0
 10
21.70916575108983
 20
8.81529433093745
 30
0.0
 10
21.98329449422798
 20
7.09497852692954
 30
0.0
 10
21.58829742305848
 20
6.085528561223434
 30
0.0
 10
21.08481493009755
 20
4.798834501066865
 30
0.0
 10
19.71740148398877
 20
3.927108429172511
 30
0.0
 10
17.48605708473211
 20
3.470350345540371
 30
0.0
  0
SPLINE
  5
D8
330
1F
100
AcDbEntity
  8
0
  6
K5LT32771
 62
    30
420
 16744448
100
AcDbSpline
210
0.0
220
0.0
230
1.0
 70
     8
 71
     3
 72
    26
 73
    22
 74
     0
 42
0.0
 43
0.0
 12
1.0
 22
0.0
 32
0.0
 13
1.0
 23
0.0
 33
0.0
 40
0.0
 40
0.0
 40
0.0
 40
0.0
 40
1.0
 40
1.0
 40
1.0
 40
2.0
 40
2.0
 40
2.0
 40
3.0
 40
3.0
 40
3.0
 40
4.0
 40
4.0
 40
4.0
 40
5.0
 40
5.0
 40
5.0
 40
6.0
 40
6.0
 40
6.0
 40
7.0
 40
7.0
 40
7.0
 40
7.0
 10
41.18748034491047
 20
40.76662233064465
 30
0.0
 10
37.75052081596817
 20
47.57468812198476
 30
0.0
 10
34.09276569604958
 20
54.25221781765011
 30
0.0
 10
30.21421498515468
 20
60.79921141764069
 30
0.0
 10
26.54175435161733
 20
66.99832496705176
 30
0.0
 10
21.5339243299937
 20
72.49382680939242
 30
0.0
 10
18.60296908122703
 20
79.04545498095555
 30
0.0
 10
17.38735045508894
 20
81.7627538002516
 30
0.0
 10
14.83880543842631
 20
84.7450556086663
 30
0.0
 10
15.44092802545192
 20
87.43966438983244
 30
0.0
 10
15.72885249006288
 20
88.72817906669543
 30
0.0
 10
16.42795327332135
 20
90.35753902630857
 30
0.0
 10
17.44077019038603
 20
91.23423670278434
 30
0.0
 10
18.37615307065583
 20
92.04390722065482
 30
0.0
 10
19.94648898302519
 20
92.85077339651737
 30
0.0
 10
21.13278649487977
 20
92.67002082119858
 30
0.0
 10
21.9575930826592
 20
92.54434752812392
 30
0.0
 10
23.01202964733487
 20
91.99529491395558
 30
0.0
 10
23.54285269364651
 20
91.3367927112425
 30
0.0
 10
24.1062548978599
 20
90.63787506803581
 30
0.0
 10
24.36264491900531
 20
89.69777832383602
 30
0.0
 10
24.31202275708272
 20
88.51650247864312
 30
0.0
  0
SPLINE
  5
D9
330
1F
100
AcDbEntity
  8
0
  6
K5LT32771
 62
    30
420
 16744448
100
AcDbSpline
210
0.0
220
0.0
230
1.0
 70
     8
 71
     3
 72
    23
 73
    19
 74
     0
 42
0.0
 43
0.0
 12
1.0
 22
0.0
 32
0.0
 13
1.0
 23
0.0
 33
0.0
 40
0.0
 40
0.0
 40
0.0
 40
0.0
 40
1.0
 40
1.0
 40
1.0
 40
2.0
 40
2.0
 40
2.0
 40
3.0
 40
3.0
 40
3.0
 40
4.0
 40
4.0
 40
4.0
 40
5.0
 40
5.0
 40
5.0
 40
6.0
 40
6.0
 40
6.0
 40
6.0
 10
24.31202275708272
 20
88.51650247864312
 30
0.0
 10
23.6654734320576
 20
89.429102746481
 30
0.0
 10
22.93048870477412
 20
89.97606812492452
 30
0.0
 10
22.10706857523228
 20
90.15739861397367
 30
0.0
 10
21.35951122547435
 20
90.32202288651763
 30
0.0
 10
20.17498680249808
 20
90.18464610921338
 30
0.0
 10
19.64572437223646
 20
89.74717458014103
 30
0.0
 10
18.9802242529387
 20
89.19709330072149
 30
0.0
 10
18.84109477195446
 20
87.5923865762585
 30
0.0
 10
19.03038832148751
 20
86.67049432639625
 30
0.0
 10
19.26728822058887
 20
85.51675093940054
 30
0.0
 10
20.47585051021474
 20
84.13860581298974
 30
0.0
 10
21.59428853294149
 20
83.69637008110962
 30
0.0
 10
22.39811921461151
 20
83.37853159333238
 30
0.0
 10
23.58218441301585
 20
83.29658661952404
 30
0.0
 10
24.41457876554087
 20
83.59381407265147
 30
0.0
 10
25.12558862850658
 20
83.84769812421516
 30
0.0
 10
25.7580173473319
 20
84.3433854984296
 30
0.0
 10
26.31186492201682
 20
85.08087619529478
 30
0.0
  0
SPLINE
  5
DA
330
1F
100
AcDbEntity
  8
0
  6
K5LT32771
 62
    30
420
 16744448
100
AcDbSpline
210
0.0
220
0.0
230
1.0
 70
     8
 71
     3
 72
    17
 73
    13
 74
     0
 42
0.0
 43
0.0
 12
1.0
 22
0.0
 32
0.0
 13
1.0
 23
0.0
 33
0.0
 40
0.0
 40
0.0
 40
0.0
 40
0.0
 40
1.0
 40
1.0
 40
1.0
 40
2.0
 40
2.0
 40
2.0
 40
3.0
 40
3.0
 40
3.0
 40
4.0
 40
4.0
 40
4.0
 40
4.0
 10
26.31186492201682
 20
85.08087619529478
 30
0.0
 10
25.89534883034777
 20
83.46191859874975
 30
0.0
 10
25.72442214958417
 20
81.87230046764829
 30
0.0
 10
25.79908487972602
 20
80.31202180199037
 30
0.0
 10
25.94073080726092
 20
77.35194897328263
 30
0.0
 10
27.71367886947088
 20
74.5442561802692
 30
0.0
 10
28.87576513347081
 20
71.74859509573406
 30
0.0
 10
30.64471785904591
 20
67.49297961478814
 30
0.0
 10
33.31879795572141
 20
63.62238616766955
 30
0.0
 10
35.13168164941854
 20
59.39059607652586
 30
0.0
 10
37.69485765571541
 20
53.40740870327318
 30
0.0
 10
39.71345722087939
 20
47.19941745464612
 30
0.0
 10
41.18748034491047
 20
40.76662233064465
 30
0.0
  0
SPLINE
  5
DB
330
1F
100
AcDbEntity
  8
0
  6
K5LT32771
 62
    30
420
 16744448
100
AcDbSpline
210
0.0
220
0.0
230
1.0
 70
     8
 71
     3
 72
    20
 73
    16
 74
     0
 42
0.0
 43
0.0
 12
1.0
 22
0.0
 32
0.0
 13
1.0
 23
0.0
 33
0.0
 40
0.0
 40
0.0
 40
0.0
 40
0.0
 40
1.0
 40
1.0
 40
1.0
 40
2.0
 40
2.0
 40
2.0
 40
3.0
 40
3.0
 40
3.0
 40
4.0
 40
4.0
 40
4.0
 40
5.0
 40
5.0
 40
5.0
 40
5.0
 10
26.74353218049274
 20
92.24496652775723
 30
0.0
 10
24.41944447020198
 20
94.21404120216934
 30
0.0
 10
21.93840921781977
 20
95.6908479000159
 30
0.0
 10
19.30042642334608
 20
96.6753866212969
 30
0.0
 10
15.26653627163628
 20
98.18090100906026
 30
0.0
 10
10.09208336635473
 20
96.25057127764538
 30
0.0
 10
6.097774544597854
 20
97.73868744374643
 30
0.0
 10
2.450784526544851
 20
99.09740682315754
 30
0.0
 10
-0.9232847266286512
 20
101.9418549101356
 30
0.0
 10
-3.826366464931013
 20
104.6501427896683
 30
0.0
 10
-8.151381757221074
 20
108.6849539148116
 30
0.0
 10
-9.93812829190788
 20
115.2340894503392
 30
0.0
 10
-14.10494108194304
 20
119.4477459020908
 30
0.0
 10
-17.82643930602317
 20
123.2110815238828
 30
0.0
 10
-22.13871486373512
 20
126.4009839912313
 30
0.0
 10
-27.04176775507888
 20
129.0174533041365
 30
0.0
  0
SPLINE
  5
DC
330
1F
100
AcDbEntity
  8
0
  6
K5LT32771
 62
    30
420
 16744448
100
AcDbSpline
210
0.0
220
0.0
230
1.0
 70
     8
 71
     3
 72
    17
 73
    13
 74
     0
 42
0.0
 43
0.0
 12
1.0
 22
0.0
 32
0.0
 13
1.0
 23
0.0
 33
0.0
 40
0.0
 40
0.0
 40
0.0
 40
0.0
 40
1.0
 40
1.0
 40
1.0
 40
2.0
 40
2.0
 40
2.0
 40
3.0
 40
3.0
 40
3.0
 40
4.0
 40
4.0
 40
4.0
 40
4.0
 10
-27.04176775507888
 20
129.0174533041365
 30
0.0
 10
-21.93840881095866
 20
128.0321197963788
 30
0.0
 10
-17.43907002500556
 20
126.181189030449
 30
0.0
 10
-13.54375139721961
 20
123.4646610063471
 30
0.0
 10
-9.638420772016772
 20
120.7411507879348
 30
0.0
 10
-7.390741707704152
 20
115.7794153307763
 30
0.0
 10
-3.64914691482393
 20
112.6839725404533
 30
0.0
 10
-1.877891244970741
 20
111.2186025855082
 30
0.0
 10
-0.1819988269185444
 20
109.2027896796131
 30
0.0
 10
1.962718313997499
 20
108.6227542827536
 30
0.0
 10
3.221967852824207
 20
108.282192214188
 30
0.0
 10
4.575707272057443
 20
108.2083518822298
 30
0.0
 10
6.02393657169722
 20
108.4012332868791
 30
0.0
  0
SPLINE
  5
DD
330
1F
100
AcDbEntity
  8
0
  6
K5LT32771
 62
    30
420
 16744448
100
AcDbSpline
210
0.0
220
0.0
230
1.0
 70
     8
 71
     3
 72
    14
 73
    10
 74
     0
 42
0.0
 43
0.0
 12
1.0
 22
0.0
 32
0.0
 13
1.0
 23
0.0
 33
0.0
 40
0.0
 40
0.0
 40
0.0
 40
0.0
 40
1.0
 40
1.0
 40
1.0
 40
2.0
 40
2.0
 40
2.0
 40
3.0
 40
3.0
 40
3.0
 40
3.0
 10
26.74353218049274
 20
92.24496652775723
 30
0.0
 10
26.3894970607809
 20
95.95260507508503
 30
0.0
 10
25.21789763993412
 20
98.99975014945004
 30
0.0
 10
23.2287339179524
 20
101.3864017508523
 30
0.0
 10
21.4192849855243
 20
103.557426762274
 30
0.0
 10
18.49163918484807
 20
105.1832052459193
 30
0.0
 10
15.77086039017654
 20
106.2598636600919
 30
0.0
 10
13.80171756615213
 20
107.0390869451108
 30
0.0
 10
11.70957482733712
 20
107.5313558248319
 30
0.0
 10
9.49443217373151
 20
107.7366702992555
 30
0.0
  0
SPLINE
  5
DE
330
1F
100
AcDbEntity
  8
0
  6
K5LT32771
 62
    30
420
 16744448
100
AcDbSpline
210
0.0
220
0.0
230
1.0
 70
     8
 71
     3
 72
    23
 73
    19
 74
     0
 42
0.0
 43
0.0
 12
1.0
 22
0.0
 32
0.0
 13
1.0
 23
0.0
 33
0.0
 40
0.0
 40
0.0
 40
0.0
 40
0.0
 40
1.0
 40
1.0
 40
1.0
 40
2.0
 40
2.0
 40
2.0
 40
3.0
 40
3.0
 40
3.0
 40
4.0
 40
4.0
 40
4.0
 40
5.0
 40
5.0
 40
5.0
 40
6.0
 40
6.0
 40
6.0
 40
6.0
 10
9.49443217373151
 20
107.7366702992555
 30
0.0
 10
10.29924859520254
 20
107.4327854259807
 30
0.0
 10
10.85476204093884
 20
107.0169785909061
 30
0.0
 10
11.16097251094038
 20
106.4892497940318
 30
0.0
 10
11.60884908406867
 20
105.7173710105141
 30
0.0
 10
11.43592983113662
 20
104.1526005743909
 30
0.0
 10
10.90458249998301
 20
103.4553013310362
 30
0.0
 10
10.43739119395158
 20
102.8421955053416
 30
0.0
 10
9.273737050974688
 20
102.373788951008
 30
0.0
 10
8.468877395887958
 20
102.3442779502209
 30
0.0
 10
7.446191700851514
 20
102.3067801353405
 30
0.0
 10
5.99625374555977
 20
103.0232490682606
 30
0.0
 10
5.434928932892348
 20
103.8826180159652
 30
0.0
 10
5.031088955992033
 20
104.5008831062623
 30
0.0
 10
4.81691532739174
 20
105.5150373562089
 30
0.0
 10
4.922148910977597
 20
106.2755914515674
 30
0.0
 10
5.025100163891267
 20
107.0196504711092
 30
0.0
 10
5.392362717464479
 20
107.7281977495465
 30
0.0
 10
6.02393657169722
 20
108.4012332868791
 30
0.0
  0
CIRCLE
  5
DF
330
1F
100
AcDbEntity
  8
0
  6
K5LT32771
 62
    30
420
 16744448
100
AcDbCircle
 10
10.87363325902884
 20
83.51941529435308
 30
0.0
 40
1.5875
  0
LINE
  5
E0
330
1F
100
AcDbEntity
  8
0
  6
K5LT32771
 62
    30
420
 16744448
100
AcDbLine
 10
79.54175494173023
 20
44.06782772481007
 30
0.0
 11
84.30445511188665
 21
48.83052789496649
 31
0.0
  0
LINE
  5
E1
330
1F
100
AcDbEntity
  8
0
  6
K5LT32771
 62
    30
420
 16744448
100
AcDbLine
 10
77.95000864070718
 20
38.5291176979796
 30
0.0
 11
79.54175494173023
 21
40.12086399900264
 31
0.0
  0
LINE
  5
E2
330
1F
100
AcDbEntity
  8
0
  6
K5LT32771
 62
    30
420
 16744448
100
AcDbLine
 10
79.5417549417302
 20
30.59546365868978
 30
0.0
 11
84.30445511188665
 21
35.35816382884622
 31
0.0
  0
LINE
  5
E3
330
1F
100
AcDbEntity
  8
0
  6
K5LT32771
 62
    30
420
 16744448
100
AcDbLine
 10
81.51523680463396
 20
28.62198179578607
 30
0.0
 11
86.27793697479038
 21
33.38468196594249
 31
0.0
  0
LINE
  5
E4
330
1F
100
AcDbEntity
  8
0
  6
K5LT32771
 62
    30
420
 16744448
100
AcDbLine
 10
86.27793697479038
 20
23.85928162562963
 30
0.0
 11
91.0406371449468
 21
28.62198179578606
 31
0.0
  0
LINE
  5
E5
330
1F
100
AcDbEntity
  8
0
  6
K5LT32771
 62
    30
420
 16744448
100
AcDbLine
 10
88.25141883769408
 20
21.88579976272592
 30
0.0
 11
93.01411900785052
 21
26.64849993288234
 31
0.0
  0
LINE
  5
E6
330
1F
100
AcDbEntity
  8
0
  6
K5LT32771
 62
    30
420
 16744448
100
AcDbLine
 10
93.35299829225266
 20
17.46197887697162
 30
0.0
 11
97.77681917800695
 21
21.88579976272591
 31
0.0
  0
LINE
  5
E7
330
1F
100
AcDbEntity
  8
0
  6
K5LT32771
 62
    30
420
 16744448
100
AcDbLine
 10
96.99912000587821
 20
17.16113686478976
 30
0.0
 11
99.75030104091067
 21
19.91231789982221
 31
0.0
  0
LINE
  5
E8
330
1F
100
AcDbEntity
  8
0
  6
K5LT32771
 62
    30
420
 16744448
100
AcDbLine
 10
107.8499954053701
 20
18.48661192396872
 30
0.0
 11
111.2491832441273
 21
21.8857997627259
 31
0.0
  0
LINE
  5
E9
330
1F
100
AcDbEntity
  8
0
  6
K5LT32771
 62
    30
420
 16744448
100
AcDbLine
 10
95.47729661161137
 20
68.54937825328973
 30
0.0
 11
99.75030104091061
 21
64.27637382399047
 31
0.0
  0
LINE
  5
EA
330
1F
100
AcDbEntity
  8
0
  6
K5LT32771
 62
    30
420
 16744448
100
AcDbLine
 10
93.4915047129195
 20
66.58820642617417
 30
0.0
 11
97.77681917800692
 21
62.30289196108674
 31
0.0
  0
LINE
  5
EB
330
1F
100
AcDbEntity
  8
0
  6
K5LT32771
 62
    30
420
 16744448
100
AcDbLine
 10
89.06258902860154
 20
61.49172177017927
 30
0.0
 11
93.0141190078505
 21
57.54019179093034
 31
0.0
  0
LINE
  5
EC
330
1F
100
AcDbEntity
  8
0
  6
K5LT32771
 62
    30
420
 16744448
100
AcDbLine
 10
87.3702653812988
 20
59.2370816916746
 30
0.0
 11
91.04063714494677
 21
55.56670992802663
 31
0.0
  0
LINE
  5
ED
330
1F
100
AcDbEntity
  8
0
  6
K5LT32771
 62
    30
420
 16744448
100
AcDbLine
 10
83.65471445230702
 20
53.42723228035355
 30
0.0
 11
86.27793697479035
 21
50.8040097578702
 31
0.0
  0
LINE
  5
EE
330
1F
100
AcDbEntity
  8
0
  6
K5LT32771
 62
    30
420
 16744448
100
AcDbLine
 10
82.29828773444552
 20
50.83669527240761
 30
0.0
 11
84.30445511188665
 21
48.83052789496648
 31
0.0
  0
LINE
  5
EF
330
1F
100
AcDbEntity
  8
0
  6
K5LT32771
 62
    30
420
 16744448
100
AcDbLine
 10
79.54175494173023
 20
40.12086399900264
 30
0.0
 11
84.30445511188665
 21
35.35816382884622
 31
0.0
  0
LINE
  5
F0
330
1F
100
AcDbEntity
  8
0
  6
K5LT32771
 62
    30
420
 16744448
100
AcDbLine
 10
77.79689716343489
 20
32.34032143698515
 30
0.0
 11
79.54175494173023
 21
30.59546365868979
 31
0.0
  0
LINE
  5
F1
330
1F
100
AcDbEntity
  8
0
  6
K5LT32771
 62
    30
420
 16744448
100
AcDbLine
 10
115.3769638305431
 20
75.95607288781555
 30
0.0
 11
120.1396640006996
 21
71.19337271765912
 31
0.0
  0
LINE
  5
F2
330
1F
100
AcDbEntity
  8
0
  6
K5LT32771
 62
    30
420
 16744448
100
AcDbLine
 10
113.4034819676394
 20
73.98259102491186
 30
0.0
 11
118.1661821377959
 21
69.2198908547554
 31
0.0
  0
LINE
  5
F3
330
1F
100
AcDbEntity
  8
0
  6
K5LT32771
 62
    30
420
 16744448
100
AcDbLine
 10
103.6676269522892
 20
74.1930456999492
 30
0.0
 11
106.6672999345793
 21
71.19337271765913
 31
0.0
  0
LINE
  5
F4
330
1F
100
AcDbEntity
  8
0
  6
K5LT32771
 62
    30
420
 16744448
100
AcDbLine
 10
100.8295006091471
 20
73.08420831728394
 30
0.0
 11
104.6938180716756
 21
69.21989085475542
 31
0.0
  0
LINE
  5
F5
330
1F
100
AcDbEntity
  8
0
  6
K5LT32771
 62
    30
420
 16744448
100
AcDbLine
 10
140.34821009988
 20
77.92955475071929
 30
0.0
 11
136.6286261760031
 21
81.64913867459626
 31
0.0
  0
LINE
  5
F6
330
1F
100
AcDbEntity
  8
0
  6
K5LT32771
 62
    30
420
 16744448
100
AcDbLine
 10
138.3747282369764
 20
75.95607288781558
 30
0.0
 11
135.5647554666388
 21
78.76604565815309
 31
0.0
  0
LINE
  5
F7
330
1F
100
AcDbEntity
  8
0
  6
K5LT32771
 62
    30
420
 16744448
100
AcDbLine
 10
140.34821009988
 20
64.457190684599
 30
0.0
 11
135.5855099297236
 21
69.21989085475542
 31
0.0
  0
LINE
  5
F8
330
1F
100
AcDbEntity
  8
0
  6
K5LT32771
 62
    30
420
 16744448
100
AcDbLine
 10
138.3747282369763
 20
62.48370882169527
 30
0.0
 11
133.6120280668198
 21
67.2464089918517
 31
0.0
  0
LINE
  5
F9
330
1F
100
AcDbEntity
  8
0
  6
K5LT32771
 62
    30
420
 16744448
100
AcDbLine
 10
136.3130024762715
 20
87.36671119323108
 30
0.0
 11
140.34821009988
 21
91.40191881683957
 31
0.0
  0
LINE
  5
FA
330
1F
100
AcDbEntity
  8
0
  6
K5LT32771
 62
    30
420
 16744448
100
AcDbLine
 10
136.842130917404
 20
83.94887590855612
 30
0.0
 11
140.34821009988
 21
87.4549550910321
 31
0.0
  0
LINE
  5
FB
330
1F
100
AcDbEntity
  8
0
  6
K5LT32771
 62
    30
420
 16744448
100
AcDbLine
 10
133.6120280668199
 20
71.19337271765913
 30
0.0
 11
138.3747282369763
 21
75.95607288781557
 31
0.0
  0
LINE
  5
FC
330
1F
100
AcDbEntity
  8
0
  6
K5LT32771
 62
    30
420
 16744448
100
AcDbLine
 10
133.6120280668199
 20
71.19337271765914
 30
0.0
 11
130.3394090276749
 21
74.46599175680413
 31
0.0
  0
LINE
  5
FD
330
1F
100
AcDbEntity
  8
0
  6
K5LT32771
 62
    30
420
 16744448
100
AcDbLine
 10
135.5855099297236
 20
69.21989085475542
 30
0.0
 11
140.34821009988
 21
73.98259102491188
 31
0.0
  0
LINE
  5
FE
330
1F
100
AcDbEntity
  8
0
  6
K5LT32771
 62
    30
420
 16744448
100
AcDbLine
 10
131.6385462039162
 20
69.21989085475538
 30
0.0
 11
127.4825258760532
 21
73.37591118261837
 31
0.0
  0
LINE
  5
FF
330
1F
100
AcDbEntity
  8
0
  6
K5LT32771
 62
    30
420
 16744448
100
AcDbLine
 10
128.8493278966634
 20
62.48370882169525
 30
0.0
 11
133.6120280668198
 21
57.72100865153882
 31
0.0
  0
LINE
  5
100
330
1F
100
AcDbEntity
  8
0
  6
K5LT32771
 62
    30
420
 16744448
100
AcDbLine
 10
126.8758460337597
 20
64.45719068459894
 30
0.0
 11
131.6385462039162
 21
69.2198908547554
 31
0.0
  0
LINE
  5
101
330
1F
100
AcDbEntity
  8
0
  6
K5LT32771
 62
    30
420
 16744448
100
AcDbLine
 10
126.8758460337597
 20
60.51022695879156
 30
0.0
 11
131.6385462039161
 21
55.74752678863513
 31
0.0
  0
LINE
  5
102
330
1F
100
AcDbEntity
  8
0
  6
K5LT32771
 62
    30
420
 16744448
100
AcDbLine
 10
128.8493278966634
 20
62.48370882169525
 30
0.0
 11
133.6120280668199
 21
67.24640899185171
 31
0.0
  0
LINE
  5
103
330
1F
100
AcDbEntity
  8
0
  6
K5LT32771
 62
    30
420
 16744448
100
AcDbLine
 10
133.6120280668198
 20
57.72100865153882
 30
0.0
 11
138.3747282369763
 21
62.48370882169526
 31
0.0
  0
LINE
  5
104
330
1F
100
AcDbEntity
  8
0
  6
K5LT32771
 62
    30
420
 16744448
100
AcDbLine
 10
136.5795713224187
 20
54.75346539594
 30
0.0
 11
140.34821009988
 21
50.98482661847868
 31
0.0
  0
LINE
  5
105
330
1F
100
AcDbEntity
  8
0
  6
K5LT32771
 62
    30
420
 16744448
100
AcDbLine
 10
136.0874019597684
 20
56.24941881867996
 30
0.0
 11
140.34821009988
 21
60.51022695879155
 31
0.0
  0
LINE
  5
106
330
1F
100
AcDbEntity
  8
0
  6
K5LT32771
 62
    30
420
 16744448
100
AcDbLine
 10
134.2193612343417
 20
53.16671175820957
 30
0.0
 11
138.3747282369763
 21
49.01134475557496
 31
0.0
  0
LINE
  5
107
330
1F
100
AcDbEntity
  8
0
  6
K5LT32771
 62
    30
420
 16744448
100
AcDbLine
 10
135.5855099297236
 20
42.27516272251483
 30
0.0
 11
140.34821009988
 21
37.51246255235839
 31
0.0
  0
LINE
  5
108
330
1F
100
AcDbEntity
  8
0
  6
K5LT32771
 62
    30
420
 16744448
100
AcDbLine
 10
133.6120280668199
 20
40.30168085961111
 30
0.0
 11
135.0887458478637
 21
38.82496307856734
 31
0.0
  0
LINE
  5
109
330
1F
100
AcDbEntity
  8
0
  6
K5LT32771
 62
    30
420
 16744448
100
AcDbLine
 10
133.6120280668199
 20
44.24864458541854
 30
0.0
 11
138.3747282369763
 21
49.01134475557497
 31
0.0
  0
LINE
  5
10A
330
1F
100
AcDbEntity
  8
0
  6
K5LT32771
 62
    30
420
 16744448
100
AcDbLine
 10
135.5855099297236
 20
42.27516272251482
 30
0.0
 11
140.34821009988
 21
47.03786289267124
 31
0.0
  0
LINE
  5
10B
330
1F
100
AcDbEntity
  8
0
  6
K5LT32771
 62
    30
420
 16744448
100
AcDbLine
 10
129.6275193115964
 20
48.23315334064206
 30
0.0
 11
133.6120280668199
 21
44.24864458541853
 31
0.0
  0
LINE
  5
10C
330
1F
100
AcDbEntity
  8
0
  6
K5LT32771
 62
    30
420
 16744448
100
AcDbLine
 10
128.169931832659
 20
45.74377709377202
 30
0.0
 11
131.6385462039162
 21
42.27516272251482
 31
0.0
  0
LINE
  5
10D
330
1F
100
AcDbEntity
  8
0
  6
K5LT32771
 62
    30
420
 16744448
100
AcDbLine
 10
131.1193557922627
 20
55.22833637698165
 30
0.0
 11
131.6385462039161
 21
55.74752678863513
 31
0.0
  0
LINE
  5
10E
330
1F
100
AcDbEntity
  8
0
  6
K5LT32771
 62
    30
420
 16744448
100
AcDbLine
 10
122.1131458636033
 20
55.74752678863513
 30
0.0
 11
126.8758460337597
 21
60.51022695879156
 31
0.0
  0
LINE
  5
10F
330
1F
100
AcDbEntity
  8
0
  6
K5LT32771
 62
    30
420
 16744448
100
AcDbLine
 10
122.1131458636033
 20
55.74752678863514
 30
0.0
 11
126.2562990154582
 21
51.60437363678027
 31
0.0
  0
LINE
  5
110
330
1F
100
AcDbEntity
  8
0
  6
K5LT32771
 62
    30
420
 16744448
100
AcDbLine
 10
120.1396640006996
 20
57.72100865153883
 30
0.0
 11
124.902364170856
 21
62.48370882169525
 31
0.0
  0
LINE
  5
111
330
1F
100
AcDbEntity
  8
0
  6
K5LT32771
 62
    30
420
 16744448
100
AcDbLine
 10
120.1396640006996
 20
53.77404492573142
 30
0.0
 11
124.7190930174576
 21
49.19461590897335
 31
0.0
  0
LINE
  5
112
330
1F
100
AcDbEntity
  8
0
  6
K5LT32771
 62
    30
420
 16744448
100
AcDbLine
 10
115.3769638305432
 20
62.48370882169526
 30
0.0
 11
120.1396640006996
 21
57.72100865153883
 31
0.0
  0
LINE
  5
113
330
1F
100
AcDbEntity
  8
0
  6
K5LT32771
 62
    30
420
 16744448
100
AcDbLine
 10
115.3769638305432
 20
62.48370882169526
 30
0.0
 11
120.1396640006996
 21
67.2464089918517
 31
0.0
  0
LINE
  5
114
330
1F
100
AcDbEntity
  8
0
  6
K5LT32771
 62
    30
420
 16744448
100
AcDbLine
 10
113.4034819676394
 20
64.45719068459898
 30
0.0
 11
118.1661821377959
 21
69.21989085475542
 31
0.0
  0
LINE
  5
115
330
1F
100
AcDbEntity
  8
0
  6
K5LT32771
 62
    30
420
 16744448
100
AcDbLine
 10
113.4034819676394
 20
60.51022695879156
 30
0.0
 11
118.1661821377959
 21
55.74752678863512
 31
0.0
  0
LINE
  5
116
330
1F
100
AcDbEntity
  8
0
  6
K5LT32771
 62
    30
420
 16744448
100
AcDbLine
 10
115.1961469699346
 20
48.83052789496646
 30
0.0
 11
118.3157535608265
 21
45.71092130407462
 31
0.0
  0
LINE
  5
117
330
1F
100
AcDbEntity
  8
0
  6
K5LT32771
 62
    30
420
 16744448
100
AcDbLine
 10
113.2226651070309
 20
50.80400975787017
 30
0.0
 11
114.9001162470987
 21
52.48146089793802
 31
0.0
  0
LINE
  5
118
330
1F
100
AcDbEntity
  8
0
  6
K5LT32771
 62
    30
420
 16744448
100
AcDbLine
 10
115.1961469699346
 20
48.83052789496647
 30
0.0
 11
116.6622147242212
 21
50.29659564925304
 31
0.0
  0
LINE
  5
119
330
1F
100
AcDbEntity
  8
0
  6
K5LT32771
 62
    30
420
 16744448
100
AcDbLine
 10
108.4599649368745
 20
55.5667099280266
 30
0.0
 11
113.2226651070309
 21
50.80400975787018
 31
0.0
  0
LINE
  5
11A
330
1F
100
AcDbEntity
  8
0
  6
K5LT32771
 62
    30
420
 16744448
100
AcDbLine
 10
106.4864830739708
 20
57.54019179093031
 30
0.0
 11
111.4300001047357
 21
62.48370882169529
 31
0.0
  0
LINE
  5
11B
330
1F
100
AcDbEntity
  8
0
  6
K5LT32771
 62
    30
420
 16744448
100
AcDbLine
 10
106.4864830739708
 20
53.59322806512288
 30
0.0
 11
111.2491832441272
 21
48.83052789496646
 31
0.0
  0
LINE
  5
11C
330
1F
100
AcDbEntity
  8
0
  6
K5LT32771
 62
    30
420
 16744448
100
AcDbLine
 10
108.4599649368745
 20
55.5667099280266
 30
0.0
 11
113.4034819676394
 21
60.51022695879156
 31
0.0
  0
LINE
  5
11D
330
1F
100
AcDbEntity
  8
0
  6
K5LT32771
 62
    30
420
 16744448
100
AcDbLine
 10
125.2409726723139
 20
38.78570219258711
 30
0.0
 11
126.5875145591462
 21
37.43916030575487
 31
0.0
  0
LINE
  5
11E
330
1F
100
AcDbEntity
  8
0
  6
K5LT32771
 62
    30
420
 16744448
100
AcDbLine
 10
126.9124769102592
 20
37.54909342885782
 30
0.0
 11
131.6385462039162
 21
42.27516272251481
 31
0.0
  0
LINE
  5
11F
330
1F
100
AcDbEntity
  8
0
  6
K5LT32771
 62
    30
420
 16744448
100
AcDbLine
 10
131.974580978642
 20
38.66423377143326
 30
0.0
 11
133.6120280668199
 21
40.30168085961112
 31
0.0
  0
LINE
  5
120
330
1F
100
AcDbEntity
  8
0
  6
K5LT32771
 62
    30
420
 16744448
100
AcDbLine
 10
113.222665107031
 20
23.85928162562961
 30
0.0
 11
115.9871152240872
 21
26.62373174268583
 31
0.0
  0
LINE
  5
121
330
1F
100
AcDbEntity
  8
0
  6
K5LT32771
 62
    30
420
 16744448
100
AcDbLine
 10
101.7237829038144
 20
21.88579976272593
 30
0.0
 11
106.4864830739708
 21
26.64849993288236
 31
0.0
  0
LINE
  5
122
330
1F
100
AcDbEntity
  8
0
  6
K5LT32771
 62
    30
420
 16744448
100
AcDbLine
 10
101.7237829038144
 20
21.88579976272593
 30
0.0
 11
105.5752787639884
 21
18.03430390255188
 31
0.0
  0
LINE
  5
123
330
1F
100
AcDbEntity
  8
0
  6
K5LT32771
 62
    30
420
 16744448
100
AcDbLine
 10
99.75030104091067
 20
23.85928162562964
 30
0.0
 11
104.5130012110671
 21
28.62198179578605
 31
0.0
  0
LINE
  5
124
330
1F
100
AcDbEntity
  8
0
  6
K5LT32771
 62
    30
420
 16744448
100
AcDbLine
 10
99.75030104091067
 20
19.9123178998222
 30
0.0
 11
102.0645611049557
 21
17.59805783577722
 31
0.0
  0
LINE
  5
125
330
1F
100
AcDbEntity
  8
0
  6
K5LT32771
 62
    30
420
 16744448
100
AcDbLine
 10
106.4864830739708
 20
26.64849993288235
 30
0.0
 11
111.2491832441272
 21
21.8857997627259
 31
0.0
  0
LINE
  5
126
330
1F
100
AcDbEntity
  8
0
  6
K5LT32771
 62
    30
420
 16744448
100
AcDbLine
 10
106.4864830739708
 20
30.59546365868977
 30
0.0
 11
111.2491832441272
 21
35.35816382884619
 31
0.0
  0
LINE
  5
127
330
1F
100
AcDbEntity
  8
0
  6
K5LT32771
 62
    30
420
 16744448
100
AcDbLine
 10
108.4599649368745
 20
28.62198179578606
 30
0.0
 11
113.222665107031
 21
23.85928162562961
 31
0.0
  0
LINE
  5
128
330
1F
100
AcDbEntity
  8
0
  6
K5LT32771
 62
    30
420
 16744448
100
AcDbLine
 10
108.4599649368745
 20
28.62198179578606
 30
0.0
 11
113.2226651070309
 21
33.38468196594249
 31
0.0
  0
LINE
  5
129
330
1F
100
AcDbEntity
  8
0
  6
K5LT32771
 62
    30
420
 16744448
100
AcDbLine
 10
113.2226651070309
 20
33.38468196594248
 30
0.0
 11
117.291154734652
 21
29.31619233832141
 31
0.0
  0
LINE
  5
12A
330
1F
100
AcDbEntity
  8
0
  6
K5LT32771
 62
    30
420
 16744448
100
AcDbLine
 10
115.1961469699347
 20
35.35816382884619
 30
0.0
 11
118.2494368083409
 21
32.30487399043989
 31
0.0
  0
LINE
  5
12B
330
1F
100
AcDbEntity
  8
0
  6
K5LT32771
 62
    30
420
 16744448
100
AcDbLine
 10
113.2226651070309
 20
37.33164569174991
 30
0.0
 11
116.6849036214111
 21
40.79388420613007
 31
0.0
  0
LINE
  5
12C
330
1F
100
AcDbEntity
  8
0
  6
K5LT32771
 62
    30
420
 16744448
100
AcDbLine
 10
115.1961469699347
 20
35.3581638288462
 30
0.0
 11
117.9676891525781
 21
38.12970601148967
 31
0.0
  0
LINE
  5
12D
330
1F
100
AcDbEntity
  8
0
  6
K5LT32771
 62
    30
420
 16744448
100
AcDbLine
 10
88.25141883769408
 20
21.88579976272592
 30
0.0
 11
92.52700131688295
 21
17.61021728353705
 31
0.0
  0
LINE
  5
12E
330
1F
100
AcDbEntity
  8
0
  6
K5LT32771
 62
    30
420
 16744448
100
AcDbLine
 10
93.01411900785052
 20
30.59546365868978
 30
0.0
 11
95.84571766363305
 21
33.4270623144723
 31
0.0
  0
LINE
  5
12F
330
1F
100
AcDbEntity
  8
0
  6
K5LT32771
 62
    30
420
 16744448
100
AcDbLine
 10
93.0141190078505
 20
26.64849993288235
 30
0.0
 11
97.77681917800695
 21
21.88579976272592
 31
0.0
  0
LINE
  5
130
330
1F
100
AcDbEntity
  8
0
  6
K5LT32771
 62
    30
420
 16744448
100
AcDbLine
 10
94.98760087075422
 20
28.62198179578607
 30
0.0
 11
97.77311688821422
 21
31.40749781324607
 31
0.0
  0
LINE
  5
131
330
1F
100
AcDbEntity
  8
0
  6
K5LT32771
 62
    30
420
 16744448
100
AcDbLine
 10
94.98760087075425
 20
28.62198179578607
 30
0.0
 11
99.75030104091067
 21
23.85928162562963
 31
0.0
  0
LINE
  5
132
330
1F
100
AcDbEntity
  8
0
  6
K5LT32771
 62
    30
420
 16744448
100
AcDbLine
 10
102.4444518997786
 20
30.69053110707451
 30
0.0
 11
104.5130012110671
 21
28.62198179578606
 31
0.0
  0
LINE
  5
133
330
1F
100
AcDbEntity
  8
0
  6
K5LT32771
 62
    30
420
 16744448
100
AcDbLine
 10
99.75030104091064
 20
37.33164569174991
 30
0.0
 11
99.81488939893882
 21
37.39623404977809
 31
0.0
  0
LINE
  5
134
330
1F
100
AcDbEntity
  8
0
  6
K5LT32771
 62
    30
420
 16744448
100
AcDbLine
 10
104.4856650426234
 20
32.59628169003715
 30
0.0
 11
106.4864830739708
 21
30.59546365868977
 31
0.0
  0
LINE
  5
135
330
1F
100
AcDbEntity
  8
0
  6
K5LT32771
 62
    30
420
 16744448
100
AcDbLine
 10
104.4853407206078
 20
38.1197216456396
 30
0.0
 11
106.4864830739708
 21
40.12086399900262
 31
0.0
  0
LINE
  5
136
330
1F
100
AcDbEntity
  8
0
  6
K5LT32771
 62
    30
420
 16744448
100
AcDbLine
 10
106.4864830739708
 20
40.12086399900263
 30
0.0
 11
111.2491832441272
 21
35.35816382884619
 31
0.0
  0
LINE
  5
137
330
1F
100
AcDbEntity
  8
0
  6
K5LT32771
 62
    30
420
 16744448
100
AcDbLine
 10
106.4864830739708
 20
44.06782772481006
 30
0.0
 11
108.2092172649906
 21
45.79056191582987
 31
0.0
  0
LINE
  5
138
330
1F
100
AcDbEntity
  8
0
  6
K5LT32771
 62
    30
420
 16744448
100
AcDbLine
 10
108.4599649368745
 20
42.09434586190633
 30
0.0
 11
111.4687995515472
 21
45.103180476579
 31
0.0
  0
LINE
  5
139
330
1F
100
AcDbEntity
  8
0
  6
K5LT32771
 62
    30
420
 16744448
100
AcDbLine
 10
108.4599649368745
 20
42.09434586190634
 30
0.0
 11
113.2226651070309
 21
37.33164569174991
 31
0.0
  0
LINE
  5
13A
330
1F
100
AcDbEntity
  8
0
  6
K5LT32771
 62
    30
420
 16744448
100
AcDbLine
 10
81.51523680463396
 20
28.62198179578606
 30
0.0
 11
86.27793697479038
 21
23.85928162562962
 31
0.0
  0
LINE
  5
13B
330
1F
100
AcDbEntity
  8
0
  6
K5LT32771
 62
    30
420
 16744448
100
AcDbLine
 10
86.27793697479038
 20
33.38468196594249
 30
0.0
 11
91.0406371449468
 21
28.62198179578606
 31
0.0
  0
LINE
  5
13C
330
1F
100
AcDbEntity
  8
0
  6
K5LT32771
 62
    30
420
 16744448
100
AcDbLine
 10
86.27793697479038
 20
37.33164569174993
 30
0.0
 11
91.0406371449468
 21
42.09434586190633
 31
0.0
  0
LINE
  5
13D
330
1F
100
AcDbEntity
  8
0
  6
K5LT32771
 62
    30
420
 16744448
100
AcDbLine
 10
88.25141883769408
 20
35.35816382884622
 30
0.0
 11
93.01411900785052
 21
30.59546365868978
 31
0.0
  0
LINE
  5
13E
330
1F
100
AcDbEntity
  8
0
  6
K5LT32771
 62
    30
420
 16744448
100
AcDbLine
 10
88.25141883769408
 20
35.3581638288462
 30
0.0
 11
93.0141190078505
 21
40.12086399900263
 31
0.0
  0
LINE
  5
13F
330
1F
100
AcDbEntity
  8
0
  6
K5LT32771
 62
    30
420
 16744448
100
AcDbLine
 10
81.51523680463396
 20
42.09434586190635
 30
0.0
 11
86.27793697479038
 21
37.33164569174993
 31
0.0
  0
LINE
  5
140
330
1F
100
AcDbEntity
  8
0
  6
K5LT32771
 62
    30
420
 16744448
100
AcDbLine
 10
81.51523680463396
 20
42.09434586190636
 30
0.0
 11
86.27793697479035
 21
46.85704603206276
 31
0.0
  0
LINE
  5
141
330
1F
100
AcDbEntity
  8
0
  6
K5LT32771
 62
    30
420
 16744448
100
AcDbLine
 10
86.27793697479035
 20
46.85704603206277
 30
0.0
 11
91.0406371449468
 21
42.09434586190633
 31
0.0
  0
LINE
  5
142
330
1F
100
AcDbEntity
  8
0
  6
K5LT32771
 62
    30
420
 16744448
100
AcDbLine
 10
86.27793697479035
 20
50.8040097578702
 30
0.0
 11
91.04063714494677
 21
55.56670992802663
 31
0.0
  0
LINE
  5
143
330
1F
100
AcDbEntity
  8
0
  6
K5LT32771
 62
    30
420
 16744448
100
AcDbLine
 10
88.25141883769408
 20
48.83052789496648
 30
0.0
 11
93.0141190078505
 21
44.06782772481006
 31
0.0
  0
LINE
  5
144
330
1F
100
AcDbEntity
  8
0
  6
K5LT32771
 62
    30
420
 16744448
100
AcDbLine
 10
88.25141883769408
 20
48.83052789496648
 30
0.0
 11
93.0141190078505
 21
53.59322806512291
 31
0.0
  0
LINE
  5
145
330
1F
100
AcDbEntity
  8
0
  6
K5LT32771
 62
    30
420
 16744448
100
AcDbLine
 10
93.0141190078505
 20
44.06782772481005
 30
0.0
 11
97.77681917800692
 21
48.83052789496648
 31
0.0
  0
LINE
  5
146
330
1F
100
AcDbEntity
  8
0
  6
K5LT32771
 62
    30
420
 16744448
100
AcDbLine
 10
94.98760087075419
 20
42.09434586190634
 30
0.0
 11
96.2616659185164
 21
40.82028081414413
 31
0.0
  0
LINE
  5
147
330
1F
100
AcDbEntity
  8
0
  6
K5LT32771
 62
    30
420
 16744448
100
AcDbLine
 10
94.98760087075419
 20
42.09434586190633
 30
0.0
 11
99.75030104091064
 21
46.85704603206277
 31
0.0
  0
LINE
  5
148
330
1F
100
AcDbEntity
  8
0
  6
K5LT32771
 62
    30
420
 16744448
100
AcDbLine
 10
93.0141190078505
 20
40.12086399900263
 30
0.0
 11
95.39546909292875
 21
37.73951391392438
 31
0.0
  0
LINE
  5
149
330
1F
100
AcDbEntity
  8
0
  6
K5LT32771
 62
    30
420
 16744448
100
AcDbLine
 10
99.75030104091064
 20
46.85704603206277
 30
0.0
 11
100.4405495583284
 21
46.16679751464501
 31
0.0
  0
LINE
  5
14A
330
1F
100
AcDbEntity
  8
0
  6
K5LT32771
 62
    30
420
 16744448
100
AcDbLine
 10
99.75030104091064
 20
50.80400975787018
 30
0.0
 11
104.5130012110671
 21
55.56670992802659
 31
0.0
  0
LINE
  5
14B
330
1F
100
AcDbEntity
  8
0
  6
K5LT32771
 62
    30
420
 16744448
100
AcDbLine
 10
101.7237829038143
 20
48.83052789496648
 30
0.0
 11
102.8542034631567
 21
47.70010733562409
 31
0.0
  0
LINE
  5
14C
330
1F
100
AcDbEntity
  8
0
  6
K5LT32771
 62
    30
420
 16744448
100
AcDbLine
 10
101.7237829038143
 20
48.83052789496648
 30
0.0
 11
106.4864830739708
 21
53.59322806512289
 31
0.0
  0
LINE
  5
14D
330
1F
100
AcDbEntity
  8
0
  6
K5LT32771
 62
    30
420
 16744448
100
AcDbLine
 10
94.98760087075419
 20
55.56670992802661
 30
0.0
 11
99.75030104091061
 21
60.32941009818303
 31
0.0
  0
LINE
  5
14E
330
1F
100
AcDbEntity
  8
0
  6
K5LT32771
 62
    30
420
 16744448
100
AcDbLine
 10
93.0141190078505
 20
53.59322806512291
 30
0.0
 11
97.77681917800695
 21
48.83052789496647
 31
0.0
  0
LINE
  5
14F
330
1F
100
AcDbEntity
  8
0
  6
K5LT32771
 62
    30
420
 16744448
100
AcDbLine
 10
93.0141190078505
 20
57.54019179093034
 30
0.0
 11
97.77681917800692
 21
62.30289196108676
 31
0.0
  0
LINE
  5
150
330
1F
100
AcDbEntity
  8
0
  6
K5LT32771
 62
    30
420
 16744448
100
AcDbLine
 10
94.98760087075419
 20
55.56670992802662
 30
0.0
 11
99.75030104091064
 21
50.80400975787018
 31
0.0
  0
LINE
  5
151
330
1F
100
AcDbEntity
  8
0
  6
K5LT32771
 62
    30
420
 16744448
100
AcDbLine
 10
99.75030104091061
 20
60.32941009818303
 30
0.0
 11
104.5130012110671
 21
55.56670992802658
 31
0.0
  0
LINE
  5
152
330
1F
100
AcDbEntity
  8
0
  6
K5LT32771
 62
    30
420
 16744448
100
AcDbLine
 10
99.75030104091061
 20
64.27637382399045
 30
0.0
 11
104.6938180716756
 21
69.21989085475542
 31
0.0
  0
LINE
  5
153
330
1F
100
AcDbEntity
  8
0
  6
K5LT32771
 62
    30
420
 16744448
100
AcDbLine
 10
101.7237829038143
 20
62.30289196108674
 30
0.0
 11
106.4864830739708
 21
57.54019179093032
 31
0.0
  0
LINE
  5
154
330
1F
100
AcDbEntity
  8
0
  6
K5LT32771
 62
    30
420
 16744448
100
AcDbLine
 10
101.7237829038143
 20
62.30289196108676
 30
0.0
 11
106.6672999345793
 21
67.24640899185172
 31
0.0
  0
LINE
  5
155
330
1F
100
AcDbEntity
  8
0
  6
K5LT32771
 62
    30
420
 16744448
100
AcDbLine
 10
106.6672999345793
 20
67.24640899185172
 30
0.0
 11
111.4300001047357
 21
62.48370882169527
 31
0.0
  0
LINE
  5
156
330
1F
100
AcDbEntity
  8
0
  6
K5LT32771
 62
    30
420
 16744448
100
AcDbLine
 10
108.640781797483
 20
69.21989085475542
 30
0.0
 11
113.4034819676394
 21
64.457190684599
 31
0.0
  0
LINE
  5
157
330
1F
100
AcDbEntity
  8
0
  6
K5LT32771
 62
    30
420
 16744448
100
AcDbLine
 10
106.6672999345793
 20
71.19337271765913
 30
0.0
 11
118.1661821377959
 21
82.69225492087571
 31
0.0
  0
LINE
  5
158
330
1F
100
AcDbEntity
  8
0
  6
K5LT32771
 62
    30
420
 16744448
100
AcDbLine
 10
108.640781797483
 20
69.21989085475542
 30
0.0
 11
113.4034819676394
 21
73.98259102491187
 31
0.0
  0
LINE
  5
159
330
1F
100
AcDbEntity
  8
0
  6
K5LT32771
 62
    30
420
 16744448
100
AcDbLine
 10
115.3769638305431
 20
75.95607288781557
 30
0.0
 11
120.1078607978326
 21
80.68696985510498
 31
0.0
  0
LINE
  5
15A
330
1F
100
AcDbEntity
  8
0
  6
K5LT32771
 62
    30
420
 16744448
100
AcDbLine
 10
122.1131458636033
 20
69.21989085475539
 30
0.0
 11
126.8758460337597
 21
64.45719068459894
 31
0.0
  0
LINE
  5
15B
330
1F
100
AcDbEntity
  8
0
  6
K5LT32771
 62
    30
420
 16744448
100
AcDbLine
 10
120.1396640006996
 20
71.19337271765912
 30
0.0
 11
122.9426834759416
 21
73.99639219290113
 31
0.0
  0
LINE
  5
15C
330
1F
100
AcDbEntity
  8
0
  6
K5LT32771
 62
    30
420
 16744448
100
AcDbLine
 10
120.1396640006996
 20
67.2464089918517
 30
0.0
 11
124.902364170856
 21
62.48370882169527
 31
0.0
  0
LINE
  5
15D
330
1F
100
AcDbEntity
  8
0
  6
K5LT32771
 62
    30
420
 16744448
100
AcDbLine
 10
122.1131458636033
 20
69.21989085475538
 30
0.0
 11
126.2053216812959
 21
73.31206667244801
 31
0.0
  0
LINE
  5
15E
330
1F
100
AcDbEntity
  8
0
  6
K5LT32771
 62
    30
420
 16744448
100
AcDbLine
 10
118.1661821377959
 20
82.69225492087571
 30
0.0
 11
115.8372136106433
 21
85.02122344802821
 31
0.0
  0
LINE
  5
15F
330
1F
100
AcDbEntity
  8
0
  6
K5LT32771
 62
    30
420
 16744448
100
AcDbLine
 10
120.1396640006996
 20
84.66573678377944
 30
0.0
 11
125.0974148890238
 21
89.62348767210361
 31
0.0
  0
LINE
  5
160
330
1F
100
AcDbEntity
  8
0
  6
K5LT32771
 62
    30
420
 16744448
100
AcDbLine
 10
120.1396640006996
 20
84.66573678377944
 30
0.0
 11
117.871787383551
 21
86.93361340092807
 31
0.0
  0
LINE
  5
161
330
1F
100
AcDbEntity
  8
0
  6
K5LT32771
 62
    30
420
 16744448
100
AcDbLine
 10
122.9795278986444
 20
83.55863695591687
 30
0.0
 11
128.3423832263728
 21
88.9214922836453
 31
0.0
  0
ARC
  5
162
330
1F
100
AcDbEntity
  8
0
  6
K5LT32771
 62
    30
420
 16744448
100
AcDbCircle
 10
140.34821009988
 20
-5.015933933027043
 30
0.0
 40
35.6452517967993
100
AcDbArc
 50
90.0
 51
270.0
  0
SPLINE
  5
163
330
1F
100
AcDbEntity
  8
0
  6
K5LT32771
 62
    30
420
 16744448
100
AcDbSpline
210
0.0
220
0.0
230
1.0
 70
     8
 71
     3
 72
    17
 73
    13
 74
     0
 42
0.0
 43
0.0
 12
1.0
 22
0.0
 32
0.0
 13
1.0
 23
0.0
 33
0.0
 40
0.0
 40
0.0
 40
0.0
 40
0.0
 40
1.0
 40
1.0
 40
1.0
 40
2.0
 40
2.0
 40
2.0
 40
3.0
 40
3.0
 40
3.0
 40
4.0
 40
4.0
 40
4.0
 40
4.0
 10
140.34821009988
 20
-63.96197311524128
 30
0.0
 10
138.9239179150637
 20
-60.42728590514485
 30
0.0
 10
136.9677627132803
 20
-57.54751295877597
 30
0.0
 10
134.4797444945301
 20
-55.32265427613463
 30
0.0
 10
131.0563005711099
 20
-52.26131056082101
 30
0.0
 10
125.7988721378498
 20
-50.60126091106673
 30
0.0
 10
121.1884847420583
 20
-49.85846971122956
 30
0.0
 10
116.7981923192251
 20
-49.15113857038681
 30
0.0
 10
111.6396245973175
 20
-49.0873347715705
 30
0.0
 10
107.5280233297956
 20
-50.6707133627695
 30
0.0
 10
104.5375604156148
 20
-51.82234131694184
 30
0.0
 10
101.7808546891762
 20
-53.66834961589625
 30
0.0
 10
99.25790615047987
 20
-56.20873825963274
 30
0.0
  0
SPLINE
  5
164
330
1F
100
AcDbEntity
  8
0
  6
K5LT32771
 62
    30
420
 16744448
100
AcDbSpline
210
0.0
220
0.0
230
1.0
 70
     8
 71
     3
 72
    11
 73
     7
 74
     0
 42
0.0
 43
0.0
 12
1.0
 22
0.0
 32
0.0
 13
1.0
 23
0.0
 33
0.0
 40
0.0
 40
0.0
 40
0.0
 40
0.0
 40
1.0
 40
1.0
 40
1.0
 40
2.0
 40
2.0
 40
2.0
 40
2.0
 10
99.25790615047987
 20
-56.20873825963274
 30
0.0
 10
99.72707647818875
 20
-53.30440177053791
 30
0.0
 10
100.8271600010917
 20
-51.05910816859605
 30
0.0
 10
102.5581567191886
 20
-49.47285745380717
 30
0.0
 10
104.0949173167123
 20
-48.06460082871011
 30
0.0
 10
106.1289448177991
 20
-47.1757820887394
 30
0.0
 10
108.6602392224491
 20
-46.80640123389503
 30
0.0
  0
SPLINE
  5
165
330
1F
100
AcDbEntity
  8
0
  6
K5LT32771
 62
    30
420
 16744448
100
AcDbSpline
210
0.0
220
0.0
230
1.0
 70
     8
 71
     3
 72
    11
 73
     7
 74
     0
 42
0.0
 43
0.0
 12
1.0
 22
0.0
 32
0.0
 13
1.0
 23
0.0
 33
0.0
 40
0.0
 40
0.0
 40
0.0
 40
0.0
 40
1.0
 40
1.0
 40
1.0
 40
2.0
 40
2.0
 40
2.0
 40
2.0
 10
105.0195009221844
 20
-38.65319856147138
 30
0.0
 10
104.7795929641917
 20
-40.49237343413965
 30
0.0
 10
105.0017976491844
 20
-42.11617690139384
 30
0.0
 10
105.6861149771625
 20
-43.52460896323394
 30
0.0
 10
106.302532110117
 20
-44.79329180674149
 30
0.0
 10
107.2939068585459
 20
-45.88722256362851
 30
0.0
 10
108.6602392224491
 20
-46.80640123389503
 30
0.0
  0
SPLINE
  5
166
330
1F
100
AcDbEntity
  8
0
  6
K5LT32771
 62
    30
420
 16744448
100
AcDbSpline
210
0.0
220
0.0
230
1.0
 70
     8
 71
     3
 72
    17
 73
    13
 74
     0
 42
0.0
 43
0.0
 12
1.0
 22
0.0
 32
0.0
 13
1.0
 23
0.0
 33
0.0
 40
0.0
 40
0.0
 40
0.0
 40
0.0
 40
1.0
 40
1.0
 40
1.0
 40
2.0
 40
2.0
 40
2.0
 40
3.0
 40
3.0
 40
3.0
 40
4.0
 40
4.0
 40
4.0
 40
4.0
 10
108.9166292435945
 20
-39.52492463336574
 30
0.0
 10
108.785970694293
 20
-40.72357920565825
 30
0.0
 10
108.9056193708275
 20
-41.7662319583162
 30
0.0
 10
109.275575273198
 20
-42.65288289133959
 30
0.0
 10
110.0343814840512
 20
-44.47146783761541
 30
0.0
 10
112.7726822543351
 20
-45.34469296106002
 30
0.0
 10
114.7110437214805
 20
-46.13978717891699
 30
0.0
 10
117.8491900368077
 20
-47.42701973713559
 30
0.0
 10
121.800169723938
 20
-46.26139436072922
 30
0.0
 10
125.1204785799836
 20
-47.1140692592695
 30
0.0
 10
129.4611331982657
 20
-48.22877496789749
 30
0.0
 10
133.5462808685157
 20
-50.24570980090795
 30
0.0
 10
137.3759215907336
 20
-53.16487375830089
 30
0.0
  0
SPLINE
  5
167
330
1F
100
AcDbEntity
  8
0
  6
K5LT32771
 62
    30
420
 16744448
100
AcDbSpline
210
0.0
220
0.0
230
1.0
 70
     8
 71
     3
 72
    17
 73
    13
 74
     0
 42
0.0
 43
0.0
 12
1.0
 22
0.0
 32
0.0
 13
1.0
 23
0.0
 33
0.0
 40
0.0
 40
0.0
 40
0.0
 40
0.0
 40
1.0
 40
1.0
 40
1.0
 40
2.0
 40
2.0
 40
2.0
 40
3.0
 40
3.0
 40
3.0
 40
4.0
 40
4.0
 40
4.0
 40
4.0
 10
111.4805294550485
 20
-31.8845020032329
 30
0.0
 10
113.9320711826104
 20
-35.80123277759242
 30
0.0
 10
116.9232880959734
 20
-38.92919103556627
 30
0.0
 10
120.4541801951374
 20
-41.26837677715444
 30
0.0
 10
123.5177244963821
 20
-43.2979486096928
 30
0.0
 10
127.8835819806792
 20
-43.36872639581437
 30
0.0
 10
130.8636150536405
 20
-45.57572913239711
 30
0.0
 10
132.111847172403
 20
-46.50016575257924
 30
0.0
 10
133.315946826222
 20
-47.5840018988925
 30
0.0
 10
134.3505193412179
 20
-48.75496539460005
 30
0.0
 10
135.5230523457859
 20
-50.08207714941688
 30
0.0
 10
136.5315197622912
 20
-51.55204660398381
 30
0.0
 10
137.3759215907336
 20
-53.16487375830089
 30
0.0
  0
SPLINE
  5
168
330
1F
100
AcDbEntity
  8
0
  6
K5LT32771
 62
    30
420
 16744448
100
AcDbSpline
210
0.0
220
0.0
230
1.0
 70
     8
 71
     3
 72
    32
 73
    28
 74
     0
 42
0.0
 43
0.0
 12
1.0
 22
0.0
 32
0.0
 13
1.0
 23
0.0
 33
0.0
 40
0.0
 40
0.0
 40
0.0
 40
0.0
 40
1.0
 40
1.0
 40
1.0
 40
2.0
 40
2.0
 40
2.0
 40
3.0
 40
3.0
 40
3.0
 40
4.0
 40
4.0
 40
4.0
 40
5.0
 40
5.0
 40
5.0
 40
6.0
 40
6.0
 40
6.0
 40
7.0
 40
7.0
 40
7.0
 40
8.0
 40
8.0
 40
8.0
 40
9.0
 40
9.0
 40
9.0
 40
9.0
 10
105.0195009221844
 20
-38.65319856147138
 30
0.0
 10
103.7368558438808
 20
-39.18008444870323
 30
0.0
 10
102.5631588317244
 20
-39.32822056123621
 30
0.0
 10
101.4984098857151
 20
-39.09760689907036
 30
0.0
 10
100.0407585968124
 20
-38.78189463360671
 30
0.0
 10
98.38164563296763
 20
-37.33547711697226
 30
0.0
 10
97.73802305834027
 20
-36.02092676758187
 30
0.0
 10
97.0587461634791
 20
-34.63355517019873
 30
0.0
 10
97.0460604269444
 20
-32.31262578753252
 30
0.0
 10
97.73802305834027
 20
-30.89312654843439
 30
0.0
 10
98.26402719125267
 20
-29.81407627526374
 30
0.0
 10
99.3874789957114
 20
-28.55735992105248
 30
0.0
 10
100.5155815103785
 20
-28.15829976488907
 30
0.0
 10
101.4681538806523
 20
-27.82133244685186
 30
0.0
 10
102.9477524671518
 20
-27.76423954557639
 30
0.0
 10
103.8059199843314
 20
-28.24376310187486
 30
0.0
 10
104.5881930139063
 20
-28.68087862725727
 30
0.0
 10
105.3956338601119
 20
-29.77703995514122
 30
0.0
 10
105.5579183925402
 20
-30.67946820596991
 30
0.0
 10
105.6970762310499
 20
-31.45329404701867
 30
0.0
 10
105.4926537592024
 20
-32.56188942566381
 30
0.0
 10
105.0451383706254
 20
-33.20063664705076
 30
0.0
 10
104.559268000987
 20
-33.89412866203512
 30
0.0
 10
103.4215940693742
 20
-34.59754278313956
 30
0.0
 10
102.6094332665304
 20
-34.56805003882342
 30
0.0
 10
101.8974379232324
 20
-34.54219469522564
 30
0.0
 10
101.1852434483508
 20
-34.14336578929195
 30
0.0
 10
100.4728498418856
 20
-33.37156332102234
 30
0.0
  0
SPLINE
  5
169
330
1F
100
AcDbEntity
  8
0
  6
K5LT32771
 62
    30
420
 16744448
100
AcDbSpline
210
0.0
220
0.0
230
1.0
 70
     8
 71
     3
 72
    32
 73
    28
 74
     0
 42
0.0
 43
0.0
 12
1.0
 22
0.0
 32
0.0
 13
1.0
 23
0.0
 33
0.0
 40
0.0
 40
0.0
 40
0.0
 40
0.0
 40
1.0
 40
1.0
 40
1.0
 40
2.0
 40
2.0
 40
2.0
 40
3.0
 40
3.0
 40
3.0
 40
4.0
 40
4.0
 40
4.0
 40
5.0
 40
5.0
 40
5.0
 40
6.0
 40
6.0
 40
6.0
 40
7.0
 40
7.0
 40
7.0
 40
8.0
 40
8.0
 40
8.0
 40
9.0
 40
9.0
 40
9.0
 40
9.0
 10
100.4728498418856
 20
-33.37156332102234
 30
0.0
 10
100.6705373312592
 20
-34.37736656654521
 30
0.0
 10
101.0551223476953
 20
-35.1322927099197
 30
0.0
 10
101.6266048911938
 20
-35.63634175114581
 30
0.0
 10
102.4275176469706
 20
-36.34274881685196
 30
0.0
 10
104.1504452687942
 20
-36.62907879216726
 30
0.0
 10
105.1306017076112
 20
-36.27731677853924
 30
0.0
 10
106.0291484311865
 20
-35.95484314850812
 30
0.0
 10
106.9176075739667
 20
-34.79473687132098
 30
0.0
 10
107.3526484692418
 20
-33.88434334293709
 30
0.0
 10
108.0363736446699
 20
-32.45353768382925
 30
0.0
 10
107.4537249636722
 20
-30.38912319647858
 30
0.0
 10
107.1389901267773
 20
-28.75654312378961
 30
0.0
 10
106.3553505171523
 20
-24.691678797154
 30
0.0
 10
102.166200117201
 20
-21.77826108121388
 30
0.0
 10
100.2591914994211
 20
-17.98816266357991
 30
0.0
 10
98.83217391836004
 20
-15.15202599094546
 30
0.0
 10
97.14755053697291
 20
-12.17376834087516
 30
0.0
 10
96.62699967752499
 20
-9.142707285550514
 30
0.0
 10
95.8716225284982
 20
-4.744300834112589
 30
0.0
 10
96.87881034683352
 20
0.4210105211330557
 30
0.0
 10
98.72085143367684
 20
4.574158300668985
 30
0.0
 10
99.6529078600895
 20
6.675614183171314
 30
0.0
 10
100.9333907093219
 20
8.754890634867177
 30
0.0
 10
102.3957749240659
 20
10.55659188967437
 30
0.0
 10
103.8437875336737
 20
12.34058689550382
 30
0.0
 10
105.5245664943943
 20
13.93590251923859
 30
0.0
 10
107.4381118062276
 20
15.34253876087869
 30
0.0
  0
SPLINE
  5
16A
330
1F
100
AcDbEntity
  8
0
  6
K5LT32771
 62
    30
420
 16744448
100
AcDbSpline
210
0.0
220
0.0
230
1.0
 70
     8
 71
     3
 72
    11
 73
     7
 74
     0
 42
0.0
 43
0.0
 12
1.0
 22
0.0
 32
0.0
 13
1.0
 23
0.0
 33
0.0
 40
0.0
 40
0.0
 40
0.0
 40
0.0
 40
1.0
 40
1.0
 40
1.0
 40
2.0
 40
2.0
 40
2.0
 40
2.0
 10
111.4805294550485
 20
-31.8845020032329
 30
0.0
 10
111.5068182357761
 20
-32.68061145827615
 30
0.0
 10
111.3915362064419
 20
-33.42635614031681
 30
0.0
 10
111.1346833670458
 20
-34.12173604935487
 30
0.0
 10
110.9083224925843
 20
-34.73456479854396
 30
0.0
 10
110.5720084617291
 20
-35.30827696882625
 30
0.0
 10
110.1257412744804
 20
-35.84287256020174
 30
0.0
  0
SPLINE
  5
16B
330
1F
100
AcDbEntity
  8
0
  6
K5LT32771
 62
    30
420
 16744448
100
AcDbSpline
210
0.0
220
0.0
230
1.0
 70
     8
 71
     3
 72
    23
 73
    19
 74
     0
 42
0.0
 43
0.0
 12
1.0
 22
0.0
 32
0.0
 13
1.0
 23
0.0
 33
0.0
 40
0.0
 40
0.0
 40
0.0
 40
0.0
 40
1.0
 40
1.0
 40
1.0
 40
2.0
 40
2.0
 40
2.0
 40
3.0
 40
3.0
 40
3.0
 40
4.0
 40
4.0
 40
4.0
 40
5.0
 40
5.0
 40
5.0
 40
6.0
 40
6.0
 40
6.0
 40
6.0
 10
110.1257412744804
 20
-35.84287256020174
 30
0.0
 10
110.9461059587608
 20
-35.78344958787069
 30
0.0
 10
111.6978667336135
 20
-35.89225706844147
 30
0.0
 10
112.3810235990383
 20
-36.16929500191408
 30
0.0
 10
113.0749847594417
 20
-36.45071435890002
 30
0.0
 10
113.8771833779137
 20
-36.94483272890152
 30
0.0
 10
114.2505339470272
 20
-37.53433430362023
 30
0.0
 10
114.7536494100879
 20
-38.32872805114772
 30
0.0
 10
114.8546076504258
 20
-39.85008316129391
 30
0.0
 10
114.3989077841692
 20
-40.65018488360164
 30
0.0
 10
114.0581688864855
 20
-41.24844219961402
 30
0.0
 10
113.2296866151266
 20
-41.88261054723343
 30
0.0
 10
112.5293974361803
 20
-42.04489895273618
 30
0.0
 10
111.8994004588504
 20
-42.19089750304401
 30
0.0
 10
111.0156596594219
 20
-42.05539966638759
 30
0.0
 10
110.4521637161927
 20
-41.74815127845223
 30
0.0
 10
109.7265627890588
 20
-41.35251450799259
 30
0.0
 10
109.2147179648594
 20
-40.61143895963043
 30
0.0
 10
108.9166292435945
 20
-39.52492463336574
 30
0.0
  0
SPLINE
  5
16C
330
1F
100
AcDbEntity
  8
0
  6
K5LT32771
 62
    30
420
 16744448
100
AcDbSpline
210
0.0
220
0.0
230
1.0
 70
     8
 71
     3
 72
    26
 73
    22
 74
     0
 42
0.0
 43
0.0
 12
1.0
 22
0.0
 32
0.0
 13
1.0
 23
0.0
 33
0.0
 40
0.0
 40
0.0
 40
0.0
 40
0.0
 40
1.0
 40
1.0
 40
1.0
 40
2.0
 40
2.0
 40
2.0
 40
3.0
 40
3.0
 40
3.0
 40
4.0
 40
4.0
 40
4.0
 40
5.0
 40
5.0
 40
5.0
 40
6.0
 40
6.0
 40
6.0
 40
7.0
 40
7.0
 40
7.0
 40
7.0
 10
107.4381118062276
 20
15.34253876087869
 30
0.0
 10
103.6565619002293
 20
13.90396479340289
 30
0.0
 10
99.95618023404481
 20
13.28453221496288
 30
0.0
 10
96.33696680767412
 20
13.48424102555865
 30
0.0
 10
91.3271218918064
 20
13.7606851175614
 30
0.0
 10
85.47271479344712
 20
15.77749601189118
 30
0.0
 10
81.77401360661551
 20
19.02226548229924
 30
0.0
 10
78.66939462976723
 20
21.74586286540015
 30
0.0
 10
75.95622471409314
 20
26.15422936802794
 30
0.0
 10
74.90276103991886
 20
30.1495924000095
 30
0.0
 10
73.64096063351452
 20
34.93509267028567
 30
0.0
 10
75.00528052910767
 20
40.83416343483603
 30
0.0
 10
76.44110116679124
 20
45.73810568564966
 30
0.0
 10
78.20701182977982
 20
51.76944670702057
 30
0.0
 10
82.03066179644065
 20
57.46554134796052
 30
0.0
 10
85.92753194917097
 20
62.50601306855864
 30
0.0
 10
88.92767005984561
 20
66.38659176686325
 30
0.0
 10
92.75141733540156
 20
69.66312642044646
 30
0.0
 10
96.23441079921594
 20
73.17183794820718
 30
0.0
 10
97.18804930064667
 20
74.13251801782236
 30
0.0
 10
98.14523871292283
 20
75.08970743009851
 30
0.0
 10
99.1059790360444
 20
76.04340618503564
 30
0.0
  0
SPLINE
  5
16D
330
1F
100
AcDbEntity
  8
0
  6
K5LT32771
 62
    30
420
 16744448
100
AcDbSpline
210
0.0
220
0.0
230
1.0
 70
     8
 71
     3
 72
    14
 73
    10
 74
     0
 42
0.0
 43
0.0
 12
1.0
 22
0.0
 32
0.0
 13
1.0
 23
0.0
 33
0.0
 40
0.0
 40
0.0
 40
0.0
 40
0.0
 40
1.0
 40
1.0
 40
1.0
 40
2.0
 40
2.0
 40
2.0
 40
3.0
 40
3.0
 40
3.0
 40
3.0
 10
98.85650933306408
 20
38.22543740525123
 30
0.0
 10
98.74659357302448
 20
39.00077012108841
 30
0.0
 10
98.80294300668965
 20
39.71909580274096
 30
0.0
 10
99.02555763405954
 20
40.3804144502089
 30
0.0
 10
99.41824082979483
 20
41.5469537875164
 30
0.0
 10
100.7182902100239
 20
42.52828579966022
 30
0.0
 10
101.7556362374718
 20
43.34789119304834
 30
0.0
 10
102.0312992422722
 20
43.56569208061507
 30
0.0
 10
102.3205563384737
 20
43.78046339039465
 30
0.0
 10
102.620598950161
 20
43.98674812281237
 30
0.0
  0
SPLINE
  5
16E
330
1F
100
AcDbEntity
  8
0
  6
K5LT32771
 62
    30
420
 16744448
100
AcDbSpline
210
0.0
220
0.0
230
1.0
 70
     8
 71
     3
 72
    23
 73
    19
 74
     0
 42
0.0
 43
0.0
 12
1.0
 22
0.0
 32
0.0
 13
1.0
 23
0.0
 33
0.0
 40
0.0
 40
0.0
 40
0.0
 40
0.0
 40
1.0
 40
1.0
 40
1.0
 40
2.0
 40
2.0
 40
2.0
 40
3.0
 40
3.0
 40
3.0
 40
4.0
 40
4.0
 40
4.0
 40
5.0
 40
5.0
 40
5.0
 40
6.0
 40
6.0
 40
6.0
 40
6.0
 10
99.1059790360444
 20
76.04340618503564
 30
0.0
 10
98.29947718731803
 20
78.48785811041287
 30
0.0
 10
98.27658887875728
 20
80.5917537561374
 30
0.0
 10
99.0373141103621
 20
82.35509312220917
 30
0.0
 10
99.80721291510406
 20
84.13969656888214
 30
0.0
 10
102.0005950504726
 20
85.49585901776393
 30
0.0
 10
103.7548904994374
 20
86.66244547745185
 30
0.0
 10
105.3483706928422
 20
87.72209162685266
 30
0.0
 10
107.3404073698762
 20
88.17935656397387
 30
0.0
 10
108.9852469308035
 20
89.17506768467675
 30
0.0
 10
111.0760541781687
 20
90.44074737581575
 30
0.0
 10
113.4144832398092
 20
91.82998946547397
 30
0.0
 10
114.7796614086895
 20
93.73881006106481
 30
0.0
 10
116.3378235389449
 20
95.91746485741335
 30
0.0
 10
116.8556152892049
 20
99.03743599404697
 30
0.0
 10
117.2410056116853
 20
101.7894567250303
 30
0.0
 10
117.5438636806916
 20
103.9521256760475
 30
0.0
 10
117.5780490168443
 20
106.1570798578979
 30
0.0
 10
117.3435616201435
 20
108.4043192705816
 30
0.0
  0
SPLINE
  5
16F
330
1F
100
AcDbEntity
  8
0
  6
K5LT32771
 62
    30
420
 16744448
100
AcDbSpline
210
0.0
220
0.0
230
1.0
 70
     8
 71
     3
 72
    11
 73
     7
 74
     0
 42
0.0
 43
0.0
 12
1.0
 22
0.0
 32
0.0
 13
1.0
 23
0.0
 33
0.0
 40
0.0
 40
0.0
 40
0.0
 40
0.0
 40
1.0
 40
1.0
 40
1.0
 40
2.0
 40
2.0
 40
2.0
 40
2.0
 10
117.3435616201435
 20
108.4043192705816
 30
0.0
 10
118.5295299361303
 20
107.2999874524428
 30
0.0
 10
119.3841633399483
 20
106.0864080190213
 30
0.0
 10
119.9074618315975
 20
104.7635809703169
 30
0.0
 10
120.679012109422
 20
102.813207343737
 30
0.0
 10
120.7302901136511
 20
100.625345829963
 30
0.0
 10
120.0612958442847
 20
98.19999642899474
 30
0.0
  0
SPLINE
  5
170
330
1F
100
AcDbEntity
  8
0
  6
K5LT32771
 62
    30
420
 16744448
100
AcDbSpline
210
0.0
220
0.0
230
1.0
 70
     8
 71
     3
 72
    14
 73
    10
 74
     0
 42
0.0
 43
0.0
 12
1.0
 22
0.0
 32
0.0
 13
1.0
 23
0.0
 33
0.0
 40
0.0
 40
0.0
 40
0.0
 40
0.0
 40
1.0
 40
1.0
 40
1.0
 40
2.0
 40
2.0
 40
2.0
 40
3.0
 40
3.0
 40
3.0
 40
3.0
 10
120.0612958442847
 20
98.19999642899474
 30
0.0
 10
121.7203112357491
 20
100.1708370854295
 30
0.0
 10
123.0364466776288
 20
102.2903279268981
 30
0.0
 10
124.0097021699238
 20
104.5584689534006
 30
0.0
 10
124.9348774504031
 20
106.7145605726865
 30
0.0
 10
125.6967628903753
 20
109.0996334034286
 30
0.0
 10
125.8557103221707
 20
111.4297215200972
 30
0.0
 10
125.984522769708
 20
113.318046168665
 30
0.0
 10
125.8135960889444
 20
115.2324249932173
 30
0.0
 10
125.3429302798799
 20
117.1728579937541
 30
0.0
  0
SPLINE
  5
171
330
1F
100
AcDbEntity
  8
0
  6
K5LT32771
 62
    30
420
 16744448
100
AcDbSpline
210
0.0
220
0.0
230
1.0
 70
     8
 71
     3
 72
    11
 73
     7
 74
     0
 42
0.0
 43
0.0
 12
1.0
 22
0.0
 32
0.0
 13
1.0
 23
0.0
 33
0.0
 40
0.0
 40
0.0
 40
0.0
 40
0.0
 40
1.0
 40
1.0
 40
1.0
 40
2.0
 40
2.0
 40
2.0
 40
2.0
 10
125.3429302798799
 20
117.1728579937541
 30
0.0
 10
126.9264803344143
 20
115.7411735325034
 30
0.0
 10
128.0545964274541
 20
114.1686480694783
 30
0.0
 10
128.7272785589991
 20
112.4552816046788
 30
0.0
 10
129.7850589459279
 20
109.7610440783697
 30
0.0
 10
129.7166882736224
 20
106.7185491607776
 30
0.0
 10
128.5221665420828
 20
103.3277968519027
 30
0.0
  0
SPLINE
  5
172
330
1F
100
AcDbEntity
  8
0
  6
K5LT32771
 62
    30
420
 16744448
100
AcDbSpline
210
0.0
220
0.0
230
1.0
 70
     8
 71
     3
 72
    11
 73
     7
 74
     0
 42
0.0
 43
0.0
 12
1.0
 22
0.0
 32
0.0
 13
1.0
 23
0.0
 33
0.0
 40
0.0
 40
0.0
 40
0.0
 40
0.0
 40
1.0
 40
1.0
 40
1.0
 40
2.0
 40
2.0
 40
2.0
 40
2.0
 10
128.5221665420828
 20
103.3277968519027
 30
0.0
 10
130.1323440356658
 20
104.2993453670676
 30
0.0
 10
131.7191128821834
 20
104.7665451320872
 30
0.0
 10
133.2824730816355
 20
104.7293961469614
 30
0.0
 10
135.0649000715819
 20
104.6870416378978
 30
0.0
 10
136.8168984797906
 20
103.9890910525139
 30
0.0
 10
138.5384683062617
 20
102.6355443908095
 30
0.0
  0
SPLINE
  5
173
330
1F
100
AcDbEntity
  8
0
  6
K5LT32771
 62
    30
420
 16744448
100
AcDbSpline
210
0.0
220
0.0
230
1.0
 70
     8
 71
     3
 72
    11
 73
     7
 74
     0
 42
0.0
 43
0.0
 12
1.0
 22
0.0
 32
0.0
 13
1.0
 23
0.0
 33
0.0
 40
0.0
 40
0.0
 40
0.0
 40
0.0
 40
1.0
 40
1.0
 40
1.0
 40
2.0
 40
2.0
 40
2.0
 40
2.0
 10
138.5384683062617
 20
102.6355443908095
 30
0.0
 10
136.0330303363052
 20
102.216944286123
 30
0.0
 10
133.7255202376889
 20
101.4477742532508
 30
0.0
 10
131.6159380104125
 20
100.3280342921932
 30
0.0
 10
128.8556033741193
 20
98.8628830607383
 30
0.0
 10
126.4341421595218
 20
96.79751908358169
 30
0.0
 10
124.3515543666203
 20
94.13194236072329
 30
0.0
  0
SPLINE
  5
174
330
1F
100
AcDbEntity
  8
0
  6
K5LT32771
 62
    30
420
 16744448
100
AcDbSpline
210
0.0
220
0.0
230
1.0
 70
     8
 71
     3
 72
    17
 73
    13
 74
     0
 42
0.0
 43
0.0
 12
1.0
 22
0.0
 32
0.0
 13
1.0
 23
0.0
 33
0.0
 40
0.0
 40
0.0
 40
0.0
 40
0.0
 40
1.0
 40
1.0
 40
1.0
 40
2.0
 40
2.0
 40
2.0
 40
3.0
 40
3.0
 40
3.0
 40
4.0
 40
4.0
 40
4.0
 40
4.0
 10
124.3515543666203
 20
94.13194236072329
 30
0.0
 10
125.9672362630375
 20
94.29605499197564
 30
0.0
 10
127.4913324392841
 20
94.1536160969993
 30
0.0
 10
128.9238428953601
 20
93.70462567579433
 30
0.0
 10
130.1760696166851
 20
93.31214141805853
 30
0.0
 10
131.3816822540927
 20
92.58458355759731
 30
0.0
 10
132.4705713802705
 20
91.82443226210692
 30
0.0
 10
133.5785416735623
 20
91.05096044246719
 30
0.0
 10
134.783780426242
 20
90.17772502493938
 30
0.0
 10
135.5045198432661
 20
89.08960547856161
 30
0.0
 10
135.8428470210489
 20
88.57882390269558
 30
0.0
 10
136.1096278256616
 20
87.99061806364875
 30
0.0
 10
136.3130024762712
 20
87.36671119323074
 30
0.0
  0
SPLINE
  5
175
330
1F
100
AcDbEntity
  8
0
  6
K5LT32771
 62
    30
420
 16744448
100
AcDbSpline
210
0.0
220
0.0
230
1.0
 70
     8
 71
     3
 72
    20
 73
    16
 74
     0
 42
0.0
 43
0.0
 12
1.0
 22
0.0
 32
0.0
 13
1.0
 23
0.0
 33
0.0
 40
0.0
 40
0.0
 40
0.0
 40
0.0
 40
1.0
 40
1.0
 40
1.0
 40
2.0
 40
2.0
 40
2.0
 40
3.0
 40
3.0
 40
3.0
 40
4.0
 40
4.0
 40
4.0
 40
5.0
 40
5.0
 40
5.0
 40
5.0
 10
123.0597981870339
 20
77.79863887163762
 30
0.0
 10
123.5987931301667
 20
77.36448489810707
 30
0.0
 10
124.1575735288409
 20
77.05438803742567
 30
0.0
 10
124.7361393830564
 20
76.86834828959343
 30
0.0
 10
126.1676068141275
 20
76.4080552426288
 30
0.0
 10
128.1146160214359
 20
77.03300698233801
 30
0.0
 10
129.393891248782
 20
77.76571332794424
 30
0.0
 10
130.9843187481117
 20
78.67663249223004
 30
0.0
 10
132.7438609456024
 20
80.79165778867298
 30
0.0
 10
132.8978880651994
 20
82.50892853065565
 30
0.0
 10
133.0290437018856
 20
83.97120178562876
 30
0.0
 10
132.1464160191007
 20
86.03746172958246
 30
0.0
 10
131.0857553871115
 20
87.19200946348784
 30
0.0
 10
130.4027837251065
 20
87.9354361175069
 30
0.0
 10
129.3898655467173
 20
88.51567361049466
 30
0.0
 10
128.3423832263716
 20
88.92149228364272
 30
0.0
  0
SPLINE
  5
176
330
1F
100
AcDbEntity
  8
0
  6
K5LT32771
 62
    30
420
 16744448
100
AcDbSpline
210
0.0
220
0.0
230
1.0
 70
    11
 71
     3
 72
    26
 73
    22
 74
     0
 42
0.0
 43
0.0
 12
1.0
 22
0.0
 32
0.0
 13
1.0
 23
0.0
 33
0.0
 40
0.0
 40
0.0
 40
0.0
 40
0.0
 40
1.0
 40
1.0
 40
1.0
 40
2.0
 40
2.0
 40
2.0
 40
3.0
 40
3.0
 40
3.0
 40
4.0
 40
4.0
 40
4.0
 40
5.0
 40
5.0
 40
5.0
 40
6.0
 40
6.0
 40
6.0
 40
7.0
 40
7.0
 40
7.0
 40
7.0
 10
116.4461956954346
 20
89.34599548951897
 30
0.0
 10
113.7941666813945
 20
88.45397422223985
 30
0.0
 10
111.258754350816
 20
87.34295084142458
 30
0.0
 10
108.8399587036992
 20
86.01292534707312
 30
0.0
 10
107.1446220144967
 20
85.08070892736997
 30
0.0
 10
104.8591636743371
 20
84.46502462601474
 30
0.0
 10
103.9258168270162
 20
82.89351354709174
 30
0.0
 10
103.4184830187
 20
82.03929659358755
 30
0.0
 10
102.7587042729876
 20
80.77240338140759
 30
0.0
 10
103.0284517886654
 20
79.85956508409615
 30
0.0
 10
103.1953265585895
 20
79.29485300339722
 30
0.0
 10
103.7347930476215
 20
78.51060915469031
 30
0.0
 10
104.1822068379736
 20
78.278493349859
 30
0.0
 10
105.0266747865933
 20
77.84038803935017
 30
0.0
 10
106.4023189515647
 20
79.3927486079516
 30
0.0
 10
107.3870819749407
 20
80.11595509505352
 30
0.0
 10
108.595368822148
 20
81.00331668909924
 30
0.0
 10
109.5652773082834
 20
82.21103439975441
 30
0.0
 10
110.6346887804008
 20
83.27809856352779
 30
0.0
 10
112.6169500782698
 20
85.25600889022621
 30
0.0
 10
114.5541190499477
 20
87.27864119888993
 30
0.0
 10
116.4461956954346
 20
89.34599548951897
 30
0.0
  0
SPLINE
  5
177
330
1F
100
AcDbEntity
  8
0
  6
K5LT32771
 62
    30
420
 16744448
100
AcDbSpline
210
0.0
220
0.0
230
1.0
 70
     8
 71
     3
 72
     8
 73
     4
 74
     0
 42
0.0
 43
0.0
 12
1.0
 22
0.0
 32
0.0
 13
1.0
 23
0.0
 33
0.0
 40
0.0
 40
0.0
 40
0.0
 40
0.0
 40
1.0
 40
1.0
 40
1.0
 40
1.0
 10
99.8148893989389
 20
37.3962340497782
 30
0.0
 10
100.1083549528524
 20
37.85810272582379
 30
0.0
 10
100.4535422827544
 20
38.20329005572584
 30
0.0
 10
100.8504513886451
 20
38.43179603948434
 30
0.0
  0
SPLINE
  5
178
330
1F
100
AcDbEntity
  8
0
  6
K5LT32771
 62
    30
420
 16744448
100
AcDbSpline
210
0.0
220
0.0
230
1.0
 70
     8
 71
     3
 72
    11
 73
     7
 74
     0
 42
0.0
 43
0.0
 12
1.0
 22
0.0
 32
0.0
 13
1.0
 23
0.0
 33
0.0
 40
0.0
 40
0.0
 40
0.0
 40
0.0
 40
1.0
 40
1.0
 40
1.0
 40
2.0
 40
2.0
 40
2.0
 40
2.0
 10
118.315753560827
 20
45.71092130407087
 30
0.0
 10
118.1656920231082
 20
46.79531487742137
 30
0.0
 10
117.8816112594092
 20
47.81857769524492
 30
0.0
 10
117.4635112697302
 20
48.78070975754151
 30
0.0
 10
117.2360712957824
 20
49.30409482471429
 30
0.0
 10
116.9689724472793
 20
49.8093901219516
 30
0.0
 10
116.6622147242209
 20
50.29659564925342
 30
0.0
  0
SPLINE
  5
179
330
1F
100
AcDbEntity
  8
0
  6
K5LT32771
 62
    30
420
 16744448
100
AcDbSpline
210
0.0
220
0.0
230
1.0
 70
     8
 71
     3
 72
     8
 73
     4
 74
     0
 42
0.0
 43
0.0
 12
1.0
 22
0.0
 32
0.0
 13
1.0
 23
0.0
 33
0.0
 40
0.0
 40
0.0
 40
0.0
 40
0.0
 40
1.0
 40
1.0
 40
1.0
 40
1.0
 10
112.7972128848839
 20
54.21617820582394
 30
0.0
 10
113.9064244146967
 20
54.07406476718935
 30
0.0
 10
114.9352408303625
 20
53.8236742928185
 30
0.0
 10
115.8836621318815
 20
53.46500678271142
 30
0.0
  0
SPLINE
  5
17A
330
1F
100
AcDbEntity
  8
0
  6
K5LT32771
 62
    30
420
 16744448
100
AcDbSpline
210
0.0
220
0.0
230
1.0
 70
     8
 71
     3
 72
     8
 73
     4
 74
     0
 42
0.0
 43
0.0
 12
1.0
 22
0.0
 32
0.0
 13
1.0
 23
0.0
 33
0.0
 40
0.0
 40
0.0
 40
0.0
 40
0.0
 40
1.0
 40
1.0
 40
1.0
 40
1.0
 10
123.155369739158
 20
44.88358143613146
 30
0.0
 10
123.5524414319984
 20
46.49065062568027
 30
0.0
 10
124.073682524765
 20
47.92766211662753
 30
0.0
 10
124.7190930174577
 20
49.19461590897329
 30
0.0
  0
SPLINE
  5
17B
330
1F
100
AcDbEntity
  8
0
  6
K5LT32771
 62
    30
420
 16744448
100
AcDbSpline
210
0.0
220
0.0
230
1.0
 70
     8
 71
     3
 72
     8
 73
     4
 74
     0
 42
0.0
 43
0.0
 12
1.0
 22
0.0
 32
0.0
 13
1.0
 23
0.0
 33
0.0
 40
0.0
 40
0.0
 40
0.0
 40
0.0
 40
1.0
 40
1.0
 40
1.0
 40
1.0
 10
139.3592190755471
 20
56.16474236652896
 30
0.0
 10
138.3847826162802
 20
55.74056478178976
 30
0.0
 10
137.4582333666551
 20
55.27013912576042
 30
0.0
 10
136.5795713266718
 20
54.75346539844096
 30
0.0
  0
SPLINE
  5
17C
330
1F
100
AcDbEntity
  8
0
  6
K5LT32771
 62
    30
420
 16744448
100
AcDbSpline
210
0.0
220
0.0
230
1.0
 70
     8
 71
     3
 72
     8
 73
     4
 74
     0
 42
0.0
 43
0.0
 12
1.0
 22
0.0
 32
0.0
 13
1.0
 23
0.0
 33
0.0
 40
0.0
 40
0.0
 40
0.0
 40
0.0
 40
1.0
 40
1.0
 40
1.0
 40
1.0
 10
126.5875145591498
 20
37.43916030573435
 30
0.0
 10
126.6957044577273
 20
37.47656113635449
 30
0.0
 10
126.8040252414305
 20
37.51320551072898
 30
0.0
 10
126.9124769102592
 20
37.54909342885784
 30
0.0
  0
SPLINE
  5
17D
330
1F
100
AcDbEntity
  8
0
  6
K5LT32771
 62
    30
420
 16744448
100
AcDbSpline
210
0.0
220
0.0
230
1.0
 70
    24
 71
     3
 72
     8
 73
     4
 74
     0
 42
0.0
 43
0.0
 12
1.0
 22
0.0
 32
0.0
 13
1.0
 23
0.0
 33
0.0
 40
0.0
 40
0.0
 40
0.0
 40
0.0
 40
1.0
 40
1.0
 40
1.0
 40
1.0
 10
123.8219837941361
 20
33.60242050573398
 30
0.0
 10
122.7622383734017
 20
31.34618831965449
 30
0.0
 10
123.2921110837689
 20
32.47430441269423
 30
0.0
 10
122.2323656630346
 20
30.21807222661474
 30
0.0
  0
SPLINE
  5
17E
330
1F
100
AcDbEntity
  8
0
  6
K5LT32771
 62
    30
420
 16744448
100
AcDbSpline
210
0.0
220
0.0
230
1.0
 70
     8
 71
     3
 72
    11
 73
     7
 74
     0
 42
0.0
 43
0.0
 12
1.0
 22
0.0
 32
0.0
 13
1.0
 23
0.0
 33
0.0
 40
0.0
 40
0.0
 40
0.0
 40
0.0
 40
1.0
 40
1.0
 40
1.0
 40
2.0
 40
2.0
 40
2.0
 40
2.0
 10
123.8219837941361
 20
33.60242050573398
 30
0.0
 10
126.4274645890699
 20
34.68444798652524
 30
0.0
 10
129.0768281409057
 20
35.36815470957963
 30
0.0
 10
131.7700744496434
 20
35.65354067489716
 30
0.0
 10
134.3119778536988
 20
35.92288980733884
 30
0.0
 10
136.8929707332292
 20
35.83742646695704
 30
0.0
 10
139.5130530882344
 20
35.39715065375177
 30
0.0
  0
SPLINE
  5
17F
330
1F
100
AcDbEntity
  8
0
  6
K5LT32771
 62
    30
420
 16744448
100
AcDbSpline
210
0.0
220
0.0
230
1.0
 70
     8
 71
     3
 72
    11
 73
     7
 74
     0
 42
0.0
 43
0.0
 12
1.0
 22
0.0
 32
0.0
 13
1.0
 23
0.0
 33
0.0
 40
0.0
 40
0.0
 40
0.0
 40
0.0
 40
1.0
 40
1.0
 40
1.0
 40
2.0
 40
2.0
 40
2.0
 40
2.0
 10
122.2323656630346
 20
30.21807222661474
 30
0.0
 10
125.474861130263
 20
32.12402106684096
 30
0.0
 10
128.8592094093823
 20
33.5085271810261
 30
0.0
 10
132.3854105003923
 20
34.37159056917017
 30
0.0
 10
134.7001643160644
 20
34.93814341721012
 30
0.0
 10
137.0760451786784
 20
35.27999677873732
 30
0.0
 10
139.5130530882344
 20
35.39715065375177
 30
0.0
  0
SPLINE
  5
180
330
1F
100
AcDbEntity
  8
0
  6
K5LT32771
 62
    30
420
 16744448
100
AcDbSpline
210
0.0
220
0.0
230
1.0
 70
     8
 71
     3
 72
     8
 73
     4
 74
     0
 42
0.0
 43
0.0
 12
1.0
 22
0.0
 32
0.0
 13
1.0
 23
0.0
 33
0.0
 40
0.0
 40
0.0
 40
0.0
 40
0.0
 40
1.0
 40
1.0
 40
1.0
 40
1.0
 10
102.0645611049555
 20
17.59805783577729
 30
0.0
 10
100.3940013909436
 20
17.36879015095951
 30
0.0
 10
98.6812793266285
 20
17.17313033720327
 30
0.0
 10
96.99912000754102
 20
17.16113686645256
 30
0.0
  0
SPLINE
  5
181
330
1F
100
AcDbEntity
  8
0
  6
K5LT32771
 62
    30
420
 16744448
100
AcDbSpline
210
0.0
220
0.0
230
1.0
 70
     8
 71
     3
 72
     8
 73
     4
 74
     0
 42
0.0
 43
0.0
 12
1.0
 22
0.0
 32
0.0
 13
1.0
 23
0.0
 33
0.0
 40
0.0
 40
0.0
 40
0.0
 40
0.0
 40
1.0
 40
1.0
 40
1.0
 40
1.0
 10
93.35299829107868
 20
17.46197887716447
 30
0.0
 10
93.07828134808767
 20
17.50690998271805
 30
0.0
 10
92.80276983193444
 20
17.55629924097319
 30
0.0
 10
92.52700129489267
 20
17.6102173055277
 30
0.0
  0
SPLINE
  5
182
330
1F
100
AcDbEntity
  8
0
  6
K5LT32771
 62
    30
420
 16744448
100
AcDbSpline
210
0.0
220
0.0
230
1.0
 70
     8
 71
     3
 72
    14
 73
    10
 74
     0
 42
0.0
 43
0.0
 12
1.0
 22
0.0
 32
0.0
 13
1.0
 23
0.0
 33
0.0
 40
0.0
 40
0.0
 40
0.0
 40
0.0
 40
1.0
 40
1.0
 40
1.0
 40
2.0
 40
2.0
 40
2.0
 40
3.0
 40
3.0
 40
3.0
 40
3.0
 10
86.63994225885222
 20
19.55031261576038
 30
0.0
 10
85.78237353779383
 20
19.97449492092768
 30
0.0
 10
84.96783877279225
 20
20.45771206265297
 30
0.0
 10
84.21784868729074
 20
21.00279131946736
 30
0.0
 10
82.70567041510796
 20
22.10181519285774
 30
0.0
 10
81.163499678151
 20
23.48519162763824
 30
0.0
 10
80.12273078217231
 20
25.0088849223006
 30
0.0
 10
79.66366100957103
 20
25.68096643530258
 30
0.0
 10
79.28538206790495
 20
26.42598180501247
 30
0.0
 10
78.9742656722268
 20
27.21598920238598
 30
0.0
  0
LINE
  5
183
330
1F
100
AcDbEntity
  8
0
  6
K5LT32771
 62
    30
420
 16744448
100
AcDbLine
 10
78.9742656722267
 20
27.21598920238591
 30
0.0
 11
86.63994225965706
 21
19.55031261495553
 31
0.0
  0
SPLINE
  5
184
330
1F
100
AcDbEntity
  8
0
  6
K5LT32771
 62
    30
420
 16744448
100
AcDbSpline
210
0.0
220
0.0
230
1.0
 70
     8
 71
     3
 72
    11
 73
     7
 74
     0
 42
0.0
 43
0.0
 12
1.0
 22
0.0
 32
0.0
 13
1.0
 23
0.0
 33
0.0
 40
0.0
 40
0.0
 40
0.0
 40
0.0
 40
1.0
 40
1.0
 40
1.0
 40
2.0
 40
2.0
 40
2.0
 40
2.0
 10
77.79689716343486
 20
32.34032143698519
 30
0.0
 10
77.7143260753706
 20
33.08665471355329
 30
0.0
 10
77.66170439921217
 20
33.82418107629434
 30
0.0
 10
77.63005031818719
 20
34.5344852668152
 30
0.0
 10
77.5714075823239
 20
35.85040345740922
 30
0.0
 10
77.69918474927175
 20
37.18851963715802
 30
0.0
 10
77.9500086415477
 20
38.52911769799655
 30
0.0
  0
SPLINE
  5
185
330
1F
100
AcDbEntity
  8
0
  6
K5LT32771
 62
    30
420
 16744448
100
AcDbSpline
210
0.0
220
0.0
230
1.0
 70
     8
 71
     3
 72
    11
 73
     7
 74
     0
 42
0.0
 43
0.0
 12
1.0
 22
0.0
 32
0.0
 13
1.0
 23
0.0
 33
0.0
 40
0.0
 40
0.0
 40
0.0
 40
0.0
 40
1.0
 40
1.0
 40
1.0
 40
2.0
 40
2.0
 40
2.0
 40
2.0
 10
79.54175494173023
 20
44.06782772481007
 30
0.0
 10
79.92544512327092
 20
45.17441249049709
 30
0.0
 10
80.33671869789316
 20
46.26979818085427
 30
0.0
 10
80.77557566559699
 20
47.35398479588159
 30
0.0
 10
81.25080172518935
 20
48.52802046316975
 30
0.0
 10
81.7396546147306
 20
49.6901701702875
 30
0.0
 10
82.2982877344455
 20
50.8366952724076
 30
0.0
  0
SPLINE
  5
186
330
1F
100
AcDbEntity
  8
0
  6
K5LT32771
 62
    30
420
 16744448
100
AcDbSpline
210
0.0
220
0.0
230
1.0
 70
     8
 71
     3
 72
     8
 73
     4
 74
     0
 42
0.0
 43
0.0
 12
1.0
 22
0.0
 32
0.0
 13
1.0
 23
0.0
 33
0.0
 40
0.0
 40
0.0
 40
0.0
 40
0.0
 40
1.0
 40
1.0
 40
1.0
 40
1.0
 10
83.65471445231512
 20
53.42723228034991
 30
0.0
 10
84.77662621275752
 20
55.43172011802544
 30
0.0
 10
86.03167598190048
 20
57.3760364784525
 30
0.0
 10
87.3702653812988
 20
59.23708169167462
 30
0.0
  0
SPLINE
  5
187
330
1F
100
AcDbEntity
  8
0
  6
K5LT32771
 62
    30
420
 16744448
100
AcDbSpline
210
0.0
220
0.0
230
1.0
 70
     8
 71
     3
 72
    11
 73
     7
 74
     0
 42
0.0
 43
0.0
 12
1.0
 22
0.0
 32
0.0
 13
1.0
 23
0.0
 33
0.0
 40
0.0
 40
0.0
 40
0.0
 40
0.0
 40
1.0
 40
1.0
 40
1.0
 40
2.0
 40
2.0
 40
2.0
 40
2.0
 10
89.06258902860321
 20
61.49172177017682
 30
0.0
 10
89.32496633815225
 20
61.82716763717646
 30
0.0
 10
89.58956389690496
 20
62.15934990562673
 30
0.0
 10
89.8560544986857
 20
62.48811618436274
 30
0.0
 10
91.00477763154447
 20
63.90528222010428
 30
0.0
 10
92.21659437547483
 20
65.27197897341684
 30
0.0
 10
93.49150473047678
 20
66.58820644430043
 30
0.0
  0
SPLINE
  5
188
330
1F
100
AcDbEntity
  8
0
  6
K5LT32771
 62
    30
420
 16744448
100
AcDbSpline
210
0.0
220
0.0
230
1.0
 70
     8
 71
     3
 72
     8
 73
     4
 74
     0
 42
0.0
 43
0.0
 12
1.0
 22
0.0
 32
0.0
 13
1.0
 23
0.0
 33
0.0
 40
0.0
 40
0.0
 40
0.0
 40
0.0
 40
1.0
 40
1.0
 40
1.0
 40
1.0
 10
95.47729661161137
 20
68.54937825328973
 30
0.0
 10
97.1615173479476
 20
70.14085721257797
 30
0.0
 10
98.94558534712621
 20
71.65246723390939
 30
0.0
 10
100.8295006091471
 20
73.08420831728395
 30
0.0
  0
SPLINE
  5
189
330
1F
100
AcDbEntity
  8
0
  6
K5LT32771
 62
    30
420
 16744448
100
AcDbSpline
210
0.0
220
0.0
230
1.0
 70
     8
 71
     3
 72
    17
 73
    13
 74
     0
 42
0.0
 43
0.0
 12
1.0
 22
0.0
 32
0.0
 13
1.0
 23
0.0
 33
0.0
 40
0.0
 40
0.0
 40
0.0
 40
0.0
 40
1.0
 40
1.0
 40
1.0
 40
2.0
 40
2.0
 40
2.0
 40
3.0
 40
3.0
 40
3.0
 40
4.0
 40
4.0
 40
4.0
 40
4.0
 10
115.83721364231
 20
85.02122348392815
 30
0.0
 10
115.4166879345775
 20
84.54448020521261
 30
0.0
 10
115.0324266176914
 20
84.04582356534826
 30
0.0
 10
114.6941972872259
 20
83.53448857448515
 30
0.0
 10
113.8061433332126
 20
82.19192889807773
 30
0.0
 10
113.686639865147
 20
80.28474630132288
 30
0.0
 10
112.7285405365527
 20
79.00493171423821
 30
0.0
 10
111.7145916511598
 20
77.6505141341863
 30
0.0
 10
110.1686006225472
 20
76.5153633839709
 30
0.0
 10
108.6690320297276
 20
75.71459324028527
 30
0.0
 10
107.1517710073921
 20
74.90437533316057
 30
0.0
 10
105.4846359812878
 20
74.39719282002352
 30
0.0
 10
103.6676269514146
 20
74.19304570087417
 30
0.0
  0
SPLINE
  5
18A
330
1F
100
AcDbEntity
  8
0
  6
K5LT32771
 62
    30
420
 16744448
100
AcDbSpline
210
0.0
220
0.0
230
1.0
 70
     8
 71
     3
 72
    14
 73
    10
 74
     0
 42
0.0
 43
0.0
 12
1.0
 22
0.0
 32
0.0
 13
1.0
 23
0.0
 33
0.0
 40
0.0
 40
0.0
 40
0.0
 40
0.0
 40
1.0
 40
1.0
 40
1.0
 40
2.0
 40
2.0
 40
2.0
 40
3.0
 40
3.0
 40
3.0
 40
3.0
 10
125.0974148890237
 20
89.62348767208273
 30
0.0
 10
124.5555030243618
 20
89.64940740041428
 30
0.0
 10
124.0135328473647
 20
89.63011960825494
 30
0.0
 10
123.4969209967624
 20
89.55965383198344
 30
0.0
 10
122.2771166399546
 20
89.39327270696353
 30
0.0
 10
121.0459019547307
 20
88.84921713004698
 30
0.0
 10
119.9501925118521
 20
88.27770377719656
 30
0.0
 10
119.2341596964302
 20
87.90422674115169
 30
0.0
 10
118.5340303101328
 20
87.44926848590404
 30
0.0
 10
117.871787383551
 20
86.93361340092805
 30
0.0
  0
SPLINE
  5
18B
330
1F
100
AcDbEntity
  8
0
  6
K5LT32771
 62
    30
420
 16744448
100
AcDbSpline
210
0.0
220
0.0
230
1.0
 70
     8
 71
     3
 72
    20
 73
    16
 74
     0
 42
0.0
 43
0.0
 12
1.0
 22
0.0
 32
0.0
 13
1.0
 23
0.0
 33
0.0
 40
0.0
 40
0.0
 40
0.0
 40
0.0
 40
1.0
 40
1.0
 40
1.0
 40
2.0
 40
2.0
 40
2.0
 40
3.0
 40
3.0
 40
3.0
 40
4.0
 40
4.0
 40
4.0
 40
5.0
 40
5.0
 40
5.0
 40
5.0
 10
122.9795278986444
 20
83.55863695591685
 30
0.0
 10
123.4570575156812
 20
83.67528296726974
 30
0.0
 10
123.9257090320249
 20
83.70859407076853
 30
0.0
 10
124.3088226981274
 20
83.61995191147095
 30
0.0
 10
125.1201165541143
 20
83.43224041594756
 30
0.0
 10
126.2058126945711
 20
82.68688113829108
 30
0.0
 10
126.5736011282509
 20
81.91068517175512
 30
0.0
 10
126.8731660471083
 20
81.27847094085504
 30
0.0
 10
126.9632389434555
 20
80.2672269088878
 30
0.0
 10
126.7017961337296
 20
79.60317507313876
 30
0.0
 10
126.4894264982854
 20
79.06376667853826
 30
0.0
 10
125.9646442702602
 20
78.50257162007154
 30
0.0
 10
125.4625777474356
 20
78.19303001287321
 30
0.0
 10
124.8113699357364
 20
77.7915375741433
 30
0.0
 10
124.0104434156025
 20
77.66007386039811
 30
0.0
 10
123.0597981870339
 20
77.79863887163762
 30
0.0
  0
SPLINE
  5
18C
330
1F
100
AcDbEntity
  8
0
  6
K5LT32771
 62
    30
420
 16744448
100
AcDbSpline
210
0.0
220
0.0
230
1.0
 70
     8
 71
     3
 72
    14
 73
    10
 74
     0
 42
0.0
 43
0.0
 12
1.0
 22
0.0
 32
0.0
 13
1.0
 23
0.0
 33
0.0
 40
0.0
 40
0.0
 40
0.0
 40
0.0
 40
1.0
 40
1.0
 40
1.0
 40
2.0
 40
2.0
 40
2.0
 40
3.0
 40
3.0
 40
3.0
 40
3.0
 10
122.9426834759416
 20
73.99639219290114
 30
0.0
 10
122.4955760667244
 20
74.20418518732016
 30
0.0
 10
122.0995457338419
 20
74.46219582375144
 30
0.0
 10
121.7876542570466
 20
74.77449653344155
 30
0.0
 10
120.9781511254124
 20
75.58506181436324
 30
0.0
 10
120.3657615598117
 20
77.00069297739581
 30
0.0
 10
120.1638508543165
 20
78.19303001287321
 30
0.0
 10
120.0388748476181
 20
78.93104695440763
 30
0.0
 10
119.9893168755414
 20
79.8575889942065
 30
0.0
 10
120.1078607978326
 20
80.68696985510502
 30
0.0
  0
SPLINE
  5
18D
330
1F
100
AcDbEntity
  8
0
  6
K5LT32771
 62
    30
420
 16744448
100
AcDbSpline
210
0.0
220
0.0
230
1.0
 70
     8
 71
     3
 72
     8
 73
     4
 74
     0
 42
0.0
 43
0.0
 12
1.0
 22
0.0
 32
0.0
 13
1.0
 23
0.0
 33
0.0
 40
0.0
 40
0.0
 40
0.0
 40
0.0
 40
1.0
 40
1.0
 40
1.0
 40
1.0
 10
127.4825258760486
 20
73.37591118262291
 30
0.0
 10
127.0866188589251
 20
73.32488824865132
 30
0.0
 10
126.6535720249052
 20
73.30270606687118
 30
0.0
 10
126.2053216788209
 20
73.3120666724997
 30
0.0
  0
SPLINE
  5
18E
330
1F
100
AcDbEntity
  8
0
  6
K5LT32771
 62
    30
420
 16744448
100
AcDbSpline
210
0.0
220
0.0
230
1.0
 70
     8
 71
     3
 72
    11
 73
     7
 74
     0
 42
0.0
 43
0.0
 12
1.0
 22
0.0
 32
0.0
 13
1.0
 23
0.0
 33
0.0
 40
0.0
 40
0.0
 40
0.0
 40
0.0
 40
1.0
 40
1.0
 40
1.0
 40
2.0
 40
2.0
 40
2.0
 40
2.0
 10
135.5647554666339
 20
78.76604565815512
 30
0.0
 10
134.7726268934597
 20
77.48790454760545
 30
0.0
 10
133.3687280477527
 20
76.46396525565619
 30
0.0
 10
132.0859863638344
 20
75.58639823480657
 30
0.0
 10
131.5349938060428
 20
75.20944556887733
 30
0.0
 10
130.9472333629327
 20
74.81617123322032
 30
0.0
 10
130.3394090114638
 20
74.46599177301525
 30
0.0
  0
SPLINE
  5
18F
330
1F
100
AcDbEntity
  8
0
  6
K5LT32771
 62
    30
420
 16744448
100
AcDbSpline
210
0.0
220
0.0
230
1.0
 70
     8
 71
     3
 72
     8
 73
     4
 74
     0
 42
0.0
 43
0.0
 12
1.0
 22
0.0
 32
0.0
 13
1.0
 23
0.0
 33
0.0
 40
0.0
 40
0.0
 40
0.0
 40
0.0
 40
1.0
 40
1.0
 40
1.0
 40
1.0
 10
136.8421309174039
 20
83.94887590855602
 30
0.0
 10
136.8473400609955
 20
83.21236012452238
 30
0.0
 10
136.7787714455466
 20
82.42376022245085
 30
0.0
 10
136.6286261757337
 20
81.6491386746424
 30
0.0
  0
SPLINE
  5
190
330
1F
100
AcDbEntity
  8
0
  6
K5LT32771
 62
    30
420
 16744448
100
AcDbSpline
210
0.0
220
0.0
230
1.0
 70
     8
 71
     3
 72
     8
 73
     4
 74
     0
 42
0.0
 43
0.0
 12
1.0
 22
0.0
 32
0.0
 13
1.0
 23
0.0
 33
0.0
 40
0.0
 40
0.0
 40
0.0
 40
0.0
 40
1.0
 40
1.0
 40
1.0
 40
1.0
 10
107.8499954380401
 20
18.48661195663876
 30
0.0
 10
107.122948620406
 20
18.27544174819793
 30
0.0
 10
106.3539190130919
 20
18.14023411898427
 30
0.0
 10
105.5752787639832
 20
18.03430390256764
 30
0.0
  0
SPLINE
  5
191
330
1F
100
AcDbEntity
  8
0
  6
K5LT32771
 62
    30
420
 16744448
100
AcDbSpline
210
0.0
220
0.0
230
1.0
 70
     8
 71
     3
 72
    11
 73
     7
 74
     0
 42
0.0
 43
0.0
 12
1.0
 22
0.0
 32
0.0
 13
1.0
 23
0.0
 33
0.0
 40
0.0
 40
0.0
 40
0.0
 40
0.0
 40
1.0
 40
1.0
 40
1.0
 40
2.0
 40
2.0
 40
2.0
 40
2.0
 10
102.4444519030408
 20
30.69053110905912
 30
0.0
 10
102.050207959627
 20
30.45068729519265
 30
0.0
 10
101.6605462663344
 20
30.28249707472753
 30
0.0
 10
101.3109399375701
 20
30.21807222661474
 30
0.0
 10
100.3441875088299
 20
30.03992076521412
 30
0.0
 10
98.94504145142722
 20
30.58712350401739
 30
0.0
 10
97.77311688821467
 20
31.40749781324663
 30
0.0
  0
SPLINE
  5
192
330
1F
100
AcDbEntity
  8
0
  6
K5LT32771
 62
    30
420
 16744448
100
AcDbSpline
210
0.0
220
0.0
230
1.0
 70
     8
 71
     3
 72
     8
 73
     4
 74
     0
 42
0.0
 43
0.0
 12
1.0
 22
0.0
 32
0.0
 13
1.0
 23
0.0
 33
0.0
 40
0.0
 40
0.0
 40
0.0
 40
0.0
 40
1.0
 40
1.0
 40
1.0
 40
1.0
 10
95.84571766363305
 20
33.42706231447232
 30
0.0
 10
95.25030852481936
 20
34.57788025429677
 30
0.0
 10
95.26449236289507
 20
36.35451093215223
 30
0.0
 10
95.39546909292869
 20
37.73951391392441
 30
0.0
  0
LINE
  5
193
330
1F
100
AcDbEntity
  8
0
  6
K5LT32771
 62
    30
420
 16744448
100
AcDbLine
 10
98.85650932445895
 20
38.22543740820161
 30
0.0
 11
99.75030104091064
 21
37.33164569174992
 31
0.0
  0
LINE
  5
194
330
1F
100
AcDbEntity
  8
0
  6
K5LT32771
 62
    30
420
 16744448
100
AcDbLine
 10
100.8504513947498
 20
38.43179604558908
 30
0.0
 11
104.5130012110671
 21
42.09434586190633
 31
0.0
  0
SPLINE
  5
195
330
1F
100
AcDbEntity
  8
0
  6
K5LT32771
 62
    30
420
 16744448
100
AcDbSpline
210
0.0
220
0.0
230
1.0
 70
     8
 71
     3
 72
    11
 73
     7
 74
     0
 42
0.0
 43
0.0
 12
1.0
 22
0.0
 32
0.0
 13
1.0
 23
0.0
 33
0.0
 40
0.0
 40
0.0
 40
0.0
 40
0.0
 40
1.0
 40
1.0
 40
1.0
 40
2.0
 40
2.0
 40
2.0
 40
2.0
 10
104.4853407206078
 20
38.11972164563959
 30
0.0
 10
105.3514172614408
 20
37.40712553436547
 30
0.0
 10
105.4878753522274
 20
35.12705778512287
 30
0.0
 10
105.1567902547511
 20
33.91008853110846
 30
0.0
 10
105.0418689197164
 20
33.4876722628028
 30
0.0
 10
104.8020515754808
 20
33.03515414810273
 30
0.0
 10
104.4856650426156
 20
32.59628169002625
 30
0.0
  0
SPLINE
  5
196
330
1F
100
AcDbEntity
  8
0
  6
K5LT32771
 62
    30
420
 16744448
100
AcDbSpline
210
0.0
220
0.0
230
1.0
 70
     8
 71
     3
 72
    11
 73
     7
 74
     0
 42
0.0
 43
0.0
 12
1.0
 22
0.0
 32
0.0
 13
1.0
 23
0.0
 33
0.0
 40
0.0
 40
0.0
 40
0.0
 40
0.0
 40
1.0
 40
1.0
 40
1.0
 40
2.0
 40
2.0
 40
2.0
 40
2.0
 10
102.8542034631568
 20
47.70010733562408
 30
0.0
 10
104.5478550831253
 20
48.57173102538282
 30
0.0
 10
106.3947145812754
 20
49.12952157734811
 30
0.0
 10
108.0283584915796
 20
49.08837778291598
 30
0.0
 10
108.9560526358227
 20
49.06501353754655
 30
0.0
 10
109.9584665385123
 20
48.86301828917974
 30
0.0
 10
110.9512146398798
 20
48.53255929065896
 30
0.0
  0
SPLINE
  5
197
330
1F
100
AcDbEntity
  8
0
  6
K5LT32771
 62
    30
420
 16744448
100
AcDbSpline
210
0.0
220
0.0
230
1.0
 70
     8
 71
     3
 72
    11
 73
     7
 74
     0
 42
0.0
 43
0.0
 12
1.0
 22
0.0
 32
0.0
 13
1.0
 23
0.0
 33
0.0
 40
0.0
 40
0.0
 40
0.0
 40
0.0
 40
1.0
 40
1.0
 40
1.0
 40
2.0
 40
2.0
 40
2.0
 40
2.0
 10
105.2007391038865
 20
45.35357169243257
 30
0.0
 10
105.621835971391
 20
45.50584271400069
 30
0.0
 10
106.0480476057008
 20
45.62224766906463
 30
0.0
 10
106.4739242585865
 20
45.6921978198915
 30
0.0
 10
107.0275272759604
 20
45.78312699927035
 30
0.0
 10
107.6174716513782
 20
45.8131831019541
 30
0.0
 10
108.2092172650055
 20
45.79056191539353
 30
0.0
  0
LINE
  5
198
330
1F
100
AcDbEntity
  8
0
  6
K5LT32771
 62
    30
420
 16744448
100
AcDbLine
 10
102.620598950161
 20
43.98674812281239
 30
0.0
 11
104.5130012110671
 21
42.09434586190633
 31
0.0
  0
LINE
  5
199
330
1F
100
AcDbEntity
  8
0
  6
K5LT32771
 62
    30
420
 16744448
100
AcDbLine
 10
105.2007391056945
 20
45.35357169308635
 30
0.0
 11
106.4864830739708
 21
44.06782772481006
 31
0.0
  0
LINE
  5
19A
330
1F
100
AcDbEntity
  8
0
  6
K5LT32771
 62
    30
420
 16744448
100
AcDbLine
 10
110.9512146398847
 20
48.53255929072396
 30
0.0
 11
111.2491832441272
 21
48.83052789496645
 31
0.0
  0
SPLINE
  5
19B
330
1F
100
AcDbEntity
  8
0
  6
K5LT32771
 62
    30
420
 16744448
100
AcDbSpline
210
0.0
220
0.0
230
1.0
 70
     8
 71
     3
 72
    11
 73
     7
 74
     0
 42
0.0
 43
0.0
 12
1.0
 22
0.0
 32
0.0
 13
1.0
 23
0.0
 33
0.0
 40
0.0
 40
0.0
 40
0.0
 40
0.0
 40
1.0
 40
1.0
 40
1.0
 40
2.0
 40
2.0
 40
2.0
 40
2.0
 10
111.4687995515453
 20
45.10318047656995
 30
0.0
 10
112.5399230438496
 20
44.66521630174321
 30
0.0
 10
113.5692241776522
 20
44.02657647233833
 30
0.0
 10
114.4267619293962
 20
43.31821642561995
 30
0.0
 10
115.2670317477744
 20
42.62412037376463
 30
0.0
 10
116.0496750811598
 20
41.74879389346136
 30
0.0
 10
116.6849036214111
 20
40.79388420613006
 30
0.0
  0
SPLINE
  5
19C
330
1F
100
AcDbEntity
  8
0
  6
K5LT32771
 62
    30
420
 16744448
100
AcDbSpline
210
0.0
220
0.0
230
1.0
 70
     8
 71
     3
 72
    11
 73
     7
 74
     0
 42
0.0
 43
0.0
 12
1.0
 22
0.0
 32
0.0
 13
1.0
 23
0.0
 33
0.0
 40
0.0
 40
0.0
 40
0.0
 40
0.0
 40
1.0
 40
1.0
 40
1.0
 40
2.0
 40
2.0
 40
2.0
 40
2.0
 10
117.9676891525781
 20
38.12970601148968
 30
0.0
 10
118.2833633287305
 20
37.09714108657172
 30
0.0
 10
118.4478389299653
 20
35.97010745753823
 30
0.0
 10
118.4922050670863
 20
34.92025724338433
 30
0.0
 10
118.5286534833736
 20
34.05776661138407
 30
0.0
 10
118.4354912121286
 20
33.17989695473391
 30
0.0
 10
118.249436808324
 20
32.30487399036024
 30
0.0
  0
SPLINE
  5
19D
330
1F
100
AcDbEntity
  8
0
  6
K5LT32771
 62
    30
420
 16744448
100
AcDbSpline
210
0.0
220
0.0
230
1.0
 70
     8
 71
     3
 72
     8
 73
     4
 74
     0
 42
0.0
 43
0.0
 12
1.0
 22
0.0
 32
0.0
 13
1.0
 23
0.0
 33
0.0
 40
0.0
 40
0.0
 40
0.0
 40
0.0
 40
1.0
 40
1.0
 40
1.0
 40
1.0
 10
117.2911547338258
 20
29.31619233871167
 30
0.0
 10
116.9018406479449
 20
28.38116893174784
 30
0.0
 10
116.4505309841706
 20
27.47542764234974
 30
0.0
 10
115.9871152239833
 20
26.62373174259451
 30
0.0
  0
SPLINE
  5
19E
330
1F
100
AcDbEntity
  8
0
  6
K5LT32771
 62
    30
420
 16744448
100
AcDbSpline
210
0.0
220
0.0
230
1.0
 70
     8
 71
     3
 72
     8
 73
     4
 74
     0
 42
0.0
 43
0.0
 12
1.0
 22
0.0
 32
0.0
 13
1.0
 23
0.0
 33
0.0
 40
0.0
 40
0.0
 40
0.0
 40
0.0
 40
1.0
 40
1.0
 40
1.0
 40
1.0
 10
131.9745810023306
 20
38.66423377412062
 30
0.0
 10
133.0017160001642
 20
38.7809225362894
 30
0.0
 10
134.0397709486832
 20
38.83449897105885
 30
0.0
 10
135.0887458478877
 20
38.82496307842899
 30
0.0
  0
SPLINE
  5
19F
330
1F
100
AcDbEntity
  8
0
  6
K5LT32771
 62
    30
420
 16744448
100
AcDbSpline
210
0.0
220
0.0
230
1.0
 70
     8
 71
     3
 72
    11
 73
     7
 74
     0
 42
0.0
 43
0.0
 12
1.0
 22
0.0
 32
0.0
 13
1.0
 23
0.0
 33
0.0
 40
0.0
 40
0.0
 40
0.0
 40
0.0
 40
1.0
 40
1.0
 40
1.0
 40
2.0
 40
2.0
 40
2.0
 40
2.0
 10
128.169931832659
 20
45.74377709377202
 30
0.0
 10
127.5083959124229
 20
44.48518521212637
 30
0.0
 10
126.9211470563944
 20
43.18647165112976
 30
0.0
 10
126.38588400559
 20
41.90945719084485
 30
0.0
 10
125.9583915668087
 20
40.88955860982796
 30
0.0
 10
125.5767544557167
 20
39.84830694374205
 30
0.0
 10
125.240972672314
 20
38.78570219258711
 30
0.0
  0
SPLINE
  5
1A0
330
1F
100
AcDbEntity
  8
0
  6
K5LT32771
 62
    30
420
 16744448
100
AcDbSpline
210
0.0
220
0.0
230
1.0
 70
     8
 71
     3
 72
    11
 73
     7
 74
     0
 42
0.0
 43
0.0
 12
1.0
 22
0.0
 32
0.0
 13
1.0
 23
0.0
 33
0.0
 40
0.0
 40
0.0
 40
0.0
 40
0.0
 40
1.0
 40
1.0
 40
1.0
 40
2.0
 40
2.0
 40
2.0
 40
2.0
 10
126.2562990154582
 20
51.60437363678027
 30
0.0
 10
126.8775906693605
 20
52.38477641059481
 30
0.0
 10
127.5703070529728
 20
53.06735858476939
 30
0.0
 10
128.334448166295
 20
53.65212015930405
 30
0.0
 10
129.1761009470372
 20
54.29619779980487
 30
0.0
 10
130.1044034943816
 20
54.8216032078434
 30
0.0
 10
131.1193558083282
 20
55.22833638341963
 30
0.0
  0
SPLINE
  5
1A1
330
1F
100
AcDbEntity
  8
0
  6
K5LT32771
 62
    30
420
 16744448
100
AcDbSpline
210
0.0
220
0.0
230
1.0
 70
     8
 71
     3
 72
     8
 73
     4
 74
     0
 42
0.0
 43
0.0
 12
1.0
 22
0.0
 32
0.0
 13
1.0
 23
0.0
 33
0.0
 40
0.0
 40
0.0
 40
0.0
 40
0.0
 40
1.0
 40
1.0
 40
1.0
 40
1.0
 10
118.4541924381287
 20
52.08857336316048
 30
0.0
 10
120.6328026787723
 20
50.51055327897585
 30
0.0
 10
122.1998617791154
 20
48.1088893032995
 30
0.0
 10
123.155369739158
 20
44.88358143613146
 30
0.0
  0
SPLINE
  5
1A2
330
1F
100
AcDbEntity
  8
0
  6
K5LT32771
 62
    30
420
 16744448
100
AcDbSpline
210
0.0
220
0.0
230
1.0
 70
     8
 71
     3
 72
     8
 73
     4
 74
     0
 42
0.0
 43
0.0
 12
1.0
 22
0.0
 32
0.0
 13
1.0
 23
0.0
 33
0.0
 40
0.0
 40
0.0
 40
0.0
 40
0.0
 40
1.0
 40
1.0
 40
1.0
 40
1.0
 10
114.9001162470987
 20
52.48146089793803
 30
0.0
 10
114.2804606578044
 20
53.09678927688284
 30
0.0
 10
113.5794928703995
 20
53.67502837951149
 30
0.0
 10
112.7972128848839
 20
54.21617820582394
 30
0.0
  0
LINE
  5
1A3
330
1F
100
AcDbEntity
  8
0
  6
K5LT32771
 62
    30
420
 16744448
100
AcDbLine
 10
115.8836621318747
 20
53.46500678271398
 30
0.0
 11
118.1661821377959
 21
55.74752678863512
 31
0.0
  0
LINE
  5
1A4
330
1F
100
AcDbEntity
  8
0
  6
K5LT32771
 62
    30
420
 16744448
100
AcDbLine
 10
118.4541924381286
 20
52.08857336316049
 30
0.0
 11
120.1396640006996
 21
53.77404492573142
 31
0.0
  0
SPLINE
  5
1A5
330
1F
100
AcDbEntity
  8
0
  6
K5LT32771
 62
    30
420
 16744448
100
AcDbSpline
210
0.0
220
0.0
230
1.0
 70
     8
 71
     3
 72
     8
 73
     4
 74
     0
 42
0.0
 43
0.0
 12
1.0
 22
0.0
 32
0.0
 13
1.0
 23
0.0
 33
0.0
 40
0.0
 40
0.0
 40
0.0
 40
0.0
 40
1.0
 40
1.0
 40
1.0
 40
1.0
 10
136.0874019823611
 20
56.24941881978914
 30
0.0
 10
137.1203696672791
 20
56.30013217067297
 30
0.0
 10
138.2109753650078
 20
56.27190668625293
 30
0.0
 10
139.3592190755471
 20
56.16474236652896
 30
0.0
  0
SPLINE
  5
1A6
330
1F
100
AcDbEntity
  8
0
  6
K5LT32771
 62
    30
420
 16744448
100
AcDbSpline
210
0.0
220
0.0
230
1.0
 70
     8
 71
     3
 72
    11
 73
     7
 74
     0
 42
0.0
 43
0.0
 12
1.0
 22
0.0
 32
0.0
 13
1.0
 23
0.0
 33
0.0
 40
0.0
 40
0.0
 40
0.0
 40
0.0
 40
1.0
 40
1.0
 40
1.0
 40
2.0
 40
2.0
 40
2.0
 40
2.0
 10
134.2193612343417
 20
53.16671175820957
 30
0.0
 10
133.5189586625399
 20
52.63004336371282
 30
0.0
 10
132.8563637469944
 20
52.05686143679419
 30
0.0
 10
132.2315764877051
 20
51.44716597745364
 30
0.0
 10
131.2596174581913
 20
50.49868471739448
 30
0.0
 10
130.398996236023
 20
49.4068398082518
 30
0.0
 10
129.6275193115964
 20
48.2331533406421
 30
0.0
  0
LINE
  5
1A7
330
1F
100
AcDbEntity
  8
0
  6
K5LT32771
 62
    30
420
 16744448
100
AcDbLine
 10
201.1546652580299
 20
44.06782772481007
 30
0.0
 11
196.3919650878734
 21
48.83052789496649
 31
0.0
  0
LINE
  5
1A8
330
1F
100
AcDbEntity
  8
0
  6
K5LT32771
 62
    30
420
 16744448
100
AcDbLine
 10
202.7464115590529
 20
38.5291176979796
 30
0.0
 11
201.1546652580299
 21
40.12086399900264
 31
0.0
  0
LINE
  5
1A9
330
1F
100
AcDbEntity
  8
0
  6
K5LT32771
 62
    30
420
 16744448
100
AcDbLine
 10
201.1546652580299
 20
30.59546365868978
 30
0.0
 11
196.3919650878734
 21
35.35816382884622
 31
0.0
  0
LINE
  5
1AA
330
1F
100
AcDbEntity
  8
0
  6
K5LT32771
 62
    30
420
 16744448
100
AcDbLine
 10
199.1811833951261
 20
28.62198179578607
 30
0.0
 11
194.4184832249697
 21
33.38468196594249
 31
0.0
  0
LINE
  5
1AB
330
1F
100
AcDbEntity
  8
0
  6
K5LT32771
 62
    30
420
 16744448
100
AcDbLine
 10
194.4184832249697
 20
23.85928162562963
 30
0.0
 11
189.6557830548133
 21
28.62198179578606
 31
0.0
  0
LINE
  5
1AC
330
1F
100
AcDbEntity
  8
0
  6
K5LT32771
 62
    30
420
 16744448
100
AcDbLine
 10
192.445001362066
 20
21.88579976272592
 30
0.0
 11
187.6823011919096
 21
26.64849993288234
 31
0.0
  0
LINE
  5
1AD
330
1F
100
AcDbEntity
  8
0
  6
K5LT32771
 62
    30
420
 16744448
100
AcDbLine
 10
187.3434219075074
 20
17.46197887697162
 30
0.0
 11
182.9196010217532
 21
21.88579976272591
 31
0.0
  0
LINE
  5
1AE
330
1F
100
AcDbEntity
  8
0
  6
K5LT32771
 62
    30
420
 16744448
100
AcDbLine
 10
183.6973001938819
 20
17.16113686478976
 30
0.0
 11
180.9461191588494
 21
19.91231789982221
 31
0.0
  0
LINE
  5
1AF
330
1F
100
AcDbEntity
  8
0
  6
K5LT32771
 62
    30
420
 16744448
100
AcDbLine
 10
172.84642479439
 20
18.48661192396872
 30
0.0
 11
169.4472369556328
 21
21.8857997627259
 31
0.0
  0
LINE
  5
1B0
330
1F
100
AcDbEntity
  8
0
  6
K5LT32771
 62
    30
420
 16744448
100
AcDbLine
 10
185.2191235881487
 20
68.54937825328973
 30
0.0
 11
180.9461191588495
 21
64.27637382399047
 31
0.0
  0
LINE
  5
1B1
330
1F
100
AcDbEntity
  8
0
  6
K5LT32771
 62
    30
420
 16744448
100
AcDbLine
 10
187.2049154868406
 20
66.58820642617417
 30
0.0
 11
182.9196010217532
 21
62.30289196108674
 31
0.0
  0
LINE
  5
1B2
330
1F
100
AcDbEntity
  8
0
  6
K5LT32771
 62
    30
420
 16744448
100
AcDbLine
 10
191.6338311711586
 20
61.49172177017927
 30
0.0
 11
187.6823011919096
 21
57.54019179093034
 31
0.0
  0
LINE
  5
1B3
330
1F
100
AcDbEntity
  8
0
  6
K5LT32771
 62
    30
420
 16744448
100
AcDbLine
 10
193.3261548184613
 20
59.2370816916746
 30
0.0
 11
189.6557830548133
 21
55.56670992802663
 31
0.0
  0
LINE
  5
1B4
330
1F
100
AcDbEntity
  8
0
  6
K5LT32771
 62
    30
420
 16744448
100
AcDbLine
 10
197.0417057474531
 20
53.42723228035355
 30
0.0
 11
194.4184832249697
 21
50.8040097578702
 31
0.0
  0
LINE
  5
1B5
330
1F
100
AcDbEntity
  8
0
  6
K5LT32771
 62
    30
420
 16744448
100
AcDbLine
 10
198.3981324653146
 20
50.83669527240761
 30
0.0
 11
196.3919650878734
 21
48.83052789496648
 31
0.0
  0
LINE
  5
1B6
330
1F
100
AcDbEntity
  8
0
  6
K5LT32771
 62
    30
420
 16744448
100
AcDbLine
 10
201.1546652580299
 20
40.12086399900264
 30
0.0
 11
196.3919650878734
 21
35.35816382884622
 31
0.0
  0
LINE
  5
1B7
330
1F
100
AcDbEntity
  8
0
  6
K5LT32771
 62
    30
420
 16744448
100
AcDbLine
 10
202.8995230363252
 20
32.34032143698515
 30
0.0
 11
201.1546652580299
 21
30.59546365868979
 31
0.0
  0
LINE
  5
1B8
330
1F
100
AcDbEntity
  8
0
  6
K5LT32771
 62
    30
420
 16744448
100
AcDbLine
 10
165.319456369217
 20
75.95607288781555
 30
0.0
 11
160.5567561990605
 21
71.19337271765912
 31
0.0
  0
LINE
  5
1B9
330
1F
100
AcDbEntity
  8
0
  6
K5LT32771
 62
    30
420
 16744448
100
AcDbLine
 10
167.2929382321207
 20
73.98259102491186
 30
0.0
 11
162.5302380619642
 21
69.2198908547554
 31
0.0
  0
LINE
  5
1BA
330
1F
100
AcDbEntity
  8
0
  6
K5LT32771
 62
    30
420
 16744448
100
AcDbLine
 10
177.0287932474709
 20
74.1930456999492
 30
0.0
 11
174.0291202651808
 21
71.19337271765913
 31
0.0
  0
LINE
  5
1BB
330
1F
100
AcDbEntity
  8
0
  6
K5LT32771
 62
    30
420
 16744448
100
AcDbLine
 10
179.866919590613
 20
73.08420831728394
 30
0.0
 11
176.0026021280845
 21
69.21989085475542
 31
0.0
  0
LINE
  5
1BC
330
1F
100
AcDbEntity
  8
0
  6
K5LT32771
 62
    30
420
 16744448
100
AcDbLine
 10
140.3482100998801
 20
77.92955475071929
 30
0.0
 11
144.067794023757
 21
81.64913867459626
 31
0.0
  0
LINE
  5
1BD
330
1F
100
AcDbEntity
  8
0
  6
K5LT32771
 62
    30
420
 16744448
100
AcDbLine
 10
142.3216919627837
 20
75.95607288781558
 30
0.0
 11
145.1316647331213
 21
78.76604565815309
 31
0.0
  0
LINE
  5
1BE
330
1F
100
AcDbEntity
  8
0
  6
K5LT32771
 62
    30
420
 16744448
100
AcDbLine
 10
140.3482100998801
 20
64.457190684599
 30
0.0
 11
145.1109102700365
 21
69.21989085475542
 31
0.0
  0
LINE
  5
1BF
330
1F
100
AcDbEntity
  8
0
  6
K5LT32771
 62
    30
420
 16744448
100
AcDbLine
 10
142.3216919627838
 20
62.48370882169527
 30
0.0
 11
147.0843921329403
 21
67.2464089918517
 31
0.0
  0
LINE
  5
1C0
330
1F
100
AcDbEntity
  8
0
  6
K5LT32771
 62
    30
420
 16744448
100
AcDbLine
 10
144.3834177234885
 20
87.36671119323108
 30
0.0
 11
140.34821009988
 21
91.40191881683957
 31
0.0
  0
LINE
  5
1C1
330
1F
100
AcDbEntity
  8
0
  6
K5LT32771
 62
    30
420
 16744448
100
AcDbLine
 10
143.8542892823561
 20
83.94887590855612
 30
0.0
 11
140.3482100998801
 21
87.4549550910321
 31
0.0
  0
LINE
  5
1C2
330
1F
100
AcDbEntity
  8
0
  6
K5LT32771
 62
    30
420
 16744448
100
AcDbLine
 10
147.0843921329402
 20
71.19337271765913
 30
0.0
 11
142.3216919627838
 21
75.95607288781557
 31
0.0
  0
LINE
  5
1C3
330
1F
100
AcDbEntity
  8
0
  6
K5LT32771
 62
    30
420
 16744448
100
AcDbLine
 10
147.0843921329402
 20
71.19337271765914
 30
0.0
 11
150.3570111720852
 21
74.46599175680413
 31
0.0
  0
LINE
  5
1C4
330
1F
100
AcDbEntity
  8
0
  6
K5LT32771
 62
    30
420
 16744448
100
AcDbLine
 10
145.1109102700365
 20
69.21989085475542
 30
0.0
 11
140.34821009988
 21
73.98259102491188
 31
0.0
  0
LINE
  5
1C5
330
1F
100
AcDbEntity
  8
0
  6
K5LT32771
 62
    30
420
 16744448
100
AcDbLine
 10
149.0578739958439
 20
69.21989085475538
 30
0.0
 11
153.2138943237069
 21
73.37591118261837
 31
0.0
  0
LINE
  5
1C6
330
1F
100
AcDbEntity
  8
0
  6
K5LT32771
 62
    30
420
 16744448
100
AcDbLine
 10
151.8470923030967
 20
62.48370882169525
 30
0.0
 11
147.0843921329403
 21
57.72100865153882
 31
0.0
  0
LINE
  5
1C7
330
1F
100
AcDbEntity
  8
0
  6
K5LT32771
 62
    30
420
 16744448
100
AcDbLine
 10
153.8205741660004
 20
64.45719068459894
 30
0.0
 11
149.0578739958439
 21
69.2198908547554
 31
0.0
  0
LINE
  5
1C8
330
1F
100
AcDbEntity
  8
0
  6
K5LT32771
 62
    30
420
 16744448
100
AcDbLine
 10
153.8205741660004
 20
60.51022695879156
 30
0.0
 11
149.0578739958439
 21
55.74752678863513
 31
0.0
  0
LINE
  5
1C9
330
1F
100
AcDbEntity
  8
0
  6
K5LT32771
 62
    30
420
 16744448
100
AcDbLine
 10
151.8470923030967
 20
62.48370882169525
 30
0.0
 11
147.0843921329402
 21
67.24640899185171
 31
0.0
  0
LINE
  5
1CA
330
1F
100
AcDbEntity
  8
0
  6
K5LT32771
 62
    30
420
 16744448
100
AcDbLine
 10
147.0843921329403
 20
57.72100865153882
 30
0.0
 11
142.3216919627838
 21
62.48370882169526
 31
0.0
  0
LINE
  5
1CB
330
1F
100
AcDbEntity
  8
0
  6
K5LT32771
 62
    30
420
 16744448
100
AcDbLine
 10
144.1168488773414
 20
54.75346539594
 30
0.0
 11
140.3482100998801
 21
50.98482661847868
 31
0.0
  0
LINE
  5
1CC
330
1F
100
AcDbEntity
  8
0
  6
K5LT32771
 62
    30
420
 16744448
100
AcDbLine
 10
144.6090182399917
 20
56.24941881867996
 30
0.0
 11
140.3482100998801
 21
60.51022695879155
 31
0.0
  0
LINE
  5
1CD
330
1F
100
AcDbEntity
  8
0
  6
K5LT32771
 62
    30
420
 16744448
100
AcDbLine
 10
146.4770589654184
 20
53.16671175820957
 30
0.0
 11
142.3216919627838
 21
49.01134475557496
 31
0.0
  0
LINE
  5
1CE
330
1F
100
AcDbEntity
  8
0
  6
K5LT32771
 62
    30
420
 16744448
100
AcDbLine
 10
145.1109102700365
 20
42.27516272251483
 30
0.0
 11
140.34821009988
 21
37.51246255235839
 31
0.0
  0
LINE
  5
1CF
330
1F
100
AcDbEntity
  8
0
  6
K5LT32771
 62
    30
420
 16744448
100
AcDbLine
 10
147.0843921329402
 20
40.30168085961111
 30
0.0
 11
145.6076743518964
 21
38.82496307856734
 31
0.0
  0
LINE
  5
1D0
330
1F
100
AcDbEntity
  8
0
  6
K5LT32771
 62
    30
420
 16744448
100
AcDbLine
 10
147.0843921329402
 20
44.24864458541854
 30
0.0
 11
142.3216919627838
 21
49.01134475557497
 31
0.0
  0
LINE
  5
1D1
330
1F
100
AcDbEntity
  8
0
  6
K5LT32771
 62
    30
420
 16744448
100
AcDbLine
 10
145.1109102700365
 20
42.27516272251482
 30
0.0
 11
140.3482100998801
 21
47.03786289267124
 31
0.0
  0
LINE
  5
1D2
330
1F
100
AcDbEntity
  8
0
  6
K5LT32771
 62
    30
420
 16744448
100
AcDbLine
 10
151.0689008881637
 20
48.23315334064206
 30
0.0
 11
147.0843921329402
 21
44.24864458541853
 31
0.0
  0
LINE
  5
1D3
330
1F
100
AcDbEntity
  8
0
  6
K5LT32771
 62
    30
420
 16744448
100
AcDbLine
 10
152.5264883671011
 20
45.74377709377202
 30
0.0
 11
149.0578739958439
 21
42.27516272251482
 31
0.0
  0
LINE
  5
1D4
330
1F
100
AcDbEntity
  8
0
  6
K5LT32771
 62
    30
420
 16744448
100
AcDbLine
 10
149.5770644074974
 20
55.22833637698165
 30
0.0
 11
149.0578739958439
 21
55.74752678863513
 31
0.0
  0
LINE
  5
1D5
330
1F
100
AcDbEntity
  8
0
  6
K5LT32771
 62
    30
420
 16744448
100
AcDbLine
 10
158.5832743361568
 20
55.74752678863513
 30
0.0
 11
153.8205741660004
 21
60.51022695879156
 31
0.0
  0
LINE
  5
1D6
330
1F
100
AcDbEntity
  8
0
  6
K5LT32771
 62
    30
420
 16744448
100
AcDbLine
 10
158.5832743361568
 20
55.74752678863514
 30
0.0
 11
154.4401211843019
 21
51.60437363678027
 31
0.0
  0
LINE
  5
1D7
330
1F
100
AcDbEntity
  8
0
  6
K5LT32771
 62
    30
420
 16744448
100
AcDbLine
 10
160.5567561990605
 20
57.72100865153883
 30
0.0
 11
155.7940560289041
 21
62.48370882169525
 31
0.0
  0
LINE
  5
1D8
330
1F
100
AcDbEntity
  8
0
  6
K5LT32771
 62
    30
420
 16744448
100
AcDbLine
 10
160.5567561990605
 20
53.77404492573142
 30
0.0
 11
155.9773271823025
 21
49.19461590897335
 31
0.0
  0
LINE
  5
1D9
330
1F
100
AcDbEntity
  8
0
  6
K5LT32771
 62
    30
420
 16744448
100
AcDbLine
 10
165.3194563692169
 20
62.48370882169526
 30
0.0
 11
160.5567561990605
 21
57.72100865153883
 31
0.0
  0
LINE
  5
1DA
330
1F
100
AcDbEntity
  8
0
  6
K5LT32771
 62
    30
420
 16744448
100
AcDbLine
 10
165.3194563692169
 20
62.48370882169526
 30
0.0
 11
160.5567561990605
 21
67.2464089918517
 31
0.0
  0
LINE
  5
1DB
330
1F
100
AcDbEntity
  8
0
  6
K5LT32771
 62
    30
420
 16744448
100
AcDbLine
 10
167.2929382321207
 20
64.45719068459898
 30
0.0
 11
162.5302380619642
 21
69.21989085475542
 31
0.0
  0
LINE
  5
1DC
330
1F
100
AcDbEntity
  8
0
  6
K5LT32771
 62
    30
420
 16744448
100
AcDbLine
 10
167.2929382321207
 20
60.51022695879156
 30
0.0
 11
162.5302380619642
 21
55.74752678863512
 31
0.0
  0
LINE
  5
1DD
330
1F
100
AcDbEntity
  8
0
  6
K5LT32771
 62
    30
420
 16744448
100
AcDbLine
 10
165.5002732298255
 20
48.83052789496646
 30
0.0
 11
162.3806666389336
 21
45.71092130407462
 31
0.0
  0
LINE
  5
1DE
330
1F
100
AcDbEntity
  8
0
  6
K5LT32771
 62
    30
420
 16744448
100
AcDbLine
 10
167.4737550927292
 20
50.80400975787017
 30
0.0
 11
165.7963039526614
 21
52.48146089793802
 31
0.0
  0
LINE
  5
1DF
330
1F
100
AcDbEntity
  8
0
  6
K5LT32771
 62
    30
420
 16744448
100
AcDbLine
 10
165.5002732298255
 20
48.83052789496647
 30
0.0
 11
164.0342054755389
 21
50.29659564925304
 31
0.0
  0
LINE
  5
1E0
330
1F
100
AcDbEntity
  8
0
  6
K5LT32771
 62
    30
420
 16744448
100
AcDbLine
 10
172.2364552628856
 20
55.5667099280266
 30
0.0
 11
167.4737550927292
 21
50.80400975787018
 31
0.0
  0
LINE
  5
1E1
330
1F
100
AcDbEntity
  8
0
  6
K5LT32771
 62
    30
420
 16744448
100
AcDbLine
 10
174.2099371257893
 20
57.54019179093031
 30
0.0
 11
169.2664200950244
 21
62.48370882169529
 31
0.0
  0
LINE
  5
1E2
330
1F
100
AcDbEntity
  8
0
  6
K5LT32771
 62
    30
420
 16744448
100
AcDbLine
 10
174.2099371257893
 20
53.59322806512288
 30
0.0
 11
169.4472369556329
 21
48.83052789496646
 31
0.0
  0
LINE
  5
1E3
330
1F
100
AcDbEntity
  8
0
  6
K5LT32771
 62
    30
420
 16744448
100
AcDbLine
 10
172.2364552628856
 20
55.5667099280266
 30
0.0
 11
167.2929382321207
 21
60.51022695879156
 31
0.0
  0
LINE
  5
1E4
330
1F
100
AcDbEntity
  8
0
  6
K5LT32771
 62
    30
420
 16744448
100
AcDbLine
 10
155.4554475274462
 20
38.78570219258711
 30
0.0
 11
154.1089056406139
 21
37.43916030575487
 31
0.0
  0
LINE
  5
1E5
330
1F
100
AcDbEntity
  8
0
  6
K5LT32771
 62
    30
420
 16744448
100
AcDbLine
 10
153.7839432895009
 20
37.54909342885782
 30
0.0
 11
149.0578739958439
 21
42.27516272251481
 31
0.0
  0
LINE
  5
1E6
330
1F
100
AcDbEntity
  8
0
  6
K5LT32771
 62
    30
420
 16744448
100
AcDbLine
 10
148.7218392211181
 20
38.66423377143326
 30
0.0
 11
147.0843921329402
 21
40.30168085961112
 31
0.0
  0
LINE
  5
1E7
330
1F
100
AcDbEntity
  8
0
  6
K5LT32771
 62
    30
420
 16744448
100
AcDbLine
 10
167.4737550927291
 20
23.85928162562961
 30
0.0
 11
164.7093049756729
 21
26.62373174268583
 31
0.0
  0
LINE
  5
1E8
330
1F
100
AcDbEntity
  8
0
  6
K5LT32771
 62
    30
420
 16744448
100
AcDbLine
 10
178.9726372959457
 20
21.88579976272593
 30
0.0
 11
174.2099371257893
 21
26.64849993288236
 31
0.0
  0
LINE
  5
1E9
330
1F
100
AcDbEntity
  8
0
  6
K5LT32771
 62
    30
420
 16744448
100
AcDbLine
 10
178.9726372959457
 20
21.88579976272593
 30
0.0
 11
175.1211414357717
 21
18.03430390255188
 31
0.0
  0
LINE
  5
1EA
330
1F
100
AcDbEntity
  8
0
  6
K5LT32771
 62
    30
420
 16744448
100
AcDbLine
 10
180.9461191588494
 20
23.85928162562964
 30
0.0
 11
176.183418988693
 21
28.62198179578605
 31
0.0
  0
LINE
  5
1EB
330
1F
100
AcDbEntity
  8
0
  6
K5LT32771
 62
    30
420
 16744448
100
AcDbLine
 10
180.9461191588494
 20
19.9123178998222
 30
0.0
 11
178.6318590948044
 21
17.59805783577722
 31
0.0
  0
LINE
  5
1EC
330
1F
100
AcDbEntity
  8
0
  6
K5LT32771
 62
    30
420
 16744448
100
AcDbLine
 10
174.2099371257893
 20
26.64849993288235
 30
0.0
 11
169.4472369556329
 21
21.8857997627259
 31
0.0
  0
LINE
  5
1ED
330
1F
100
AcDbEntity
  8
0
  6
K5LT32771
 62
    30
420
 16744448
100
AcDbLine
 10
174.2099371257893
 20
30.59546365868977
 30
0.0
 11
169.4472369556329
 21
35.35816382884619
 31
0.0
  0
LINE
  5
1EE
330
1F
100
AcDbEntity
  8
0
  6
K5LT32771
 62
    30
420
 16744448
100
AcDbLine
 10
172.2364552628856
 20
28.62198179578606
 30
0.0
 11
167.4737550927291
 21
23.85928162562961
 31
0.0
  0
LINE
  5
1EF
330
1F
100
AcDbEntity
  8
0
  6
K5LT32771
 62
    30
420
 16744448
100
AcDbLine
 10
172.2364552628856
 20
28.62198179578606
 30
0.0
 11
167.4737550927292
 21
33.38468196594249
 31
0.0
  0
LINE
  5
1F0
330
1F
100
AcDbEntity
  8
0
  6
K5LT32771
 62
    30
420
 16744448
100
AcDbLine
 10
167.4737550927292
 20
33.38468196594248
 30
0.0
 11
163.4052654651081
 21
29.31619233832141
 31
0.0
  0
LINE
  5
1F1
330
1F
100
AcDbEntity
  8
0
  6
K5LT32771
 62
    30
420
 16744448
100
AcDbLine
 10
165.5002732298254
 20
35.35816382884619
 30
0.0
 11
162.4469833914192
 21
32.30487399043989
 31
0.0
  0
LINE
  5
1F2
330
1F
100
AcDbEntity
  8
0
  6
K5LT32771
 62
    30
420
 16744448
100
AcDbLine
 10
167.4737550927292
 20
37.33164569174991
 30
0.0
 11
164.011516578349
 21
40.79388420613007
 31
0.0
  0
LINE
  5
1F3
330
1F
100
AcDbEntity
  8
0
  6
K5LT32771
 62
    30
420
 16744448
100
AcDbLine
 10
165.5002732298254
 20
35.3581638288462
 30
0.0
 11
162.728731047182
 21
38.12970601148967
 31
0.0
  0
LINE
  5
1F4
330
1F
100
AcDbEntity
  8
0
  6
K5LT32771
 62
    30
420
 16744448
100
AcDbLine
 10
192.445001362066
 20
21.88579976272592
 30
0.0
 11
188.1694188828772
 21
17.61021728353705
 31
0.0
  0
LINE
  5
1F5
330
1F
100
AcDbEntity
  8
0
  6
K5LT32771
 62
    30
420
 16744448
100
AcDbLine
 10
187.6823011919096
 20
30.59546365868978
 30
0.0
 11
184.850702536127
 21
33.4270623144723
 31
0.0
  0
LINE
  5
1F6
330
1F
100
AcDbEntity
  8
0
  6
K5LT32771
 62
    30
420
 16744448
100
AcDbLine
 10
187.6823011919096
 20
26.64849993288235
 30
0.0
 11
182.9196010217532
 21
21.88579976272592
 31
0.0
  0
LINE
  5
1F7
330
1F
100
AcDbEntity
  8
0
  6
K5LT32771
 62
    30
420
 16744448
100
AcDbLine
 10
185.7088193290059
 20
28.62198179578607
 30
0.0
 11
182.9233033115459
 21
31.40749781324607
 31
0.0
  0
LINE
  5
1F8
330
1F
100
AcDbEntity
  8
0
  6
K5LT32771
 62
    30
420
 16744448
100
AcDbLine
 10
185.7088193290058
 20
28.62198179578607
 30
0.0
 11
180.9461191588494
 21
23.85928162562963
 31
0.0
  0
LINE
  5
1F9
330
1F
100
AcDbEntity
  8
0
  6
K5LT32771
 62
    30
420
 16744448
100
AcDbLine
 10
178.2519682999815
 20
30.69053110707451
 30
0.0
 11
176.183418988693
 21
28.62198179578606
 31
0.0
  0
LINE
  5
1FA
330
1F
100
AcDbEntity
  8
0
  6
K5LT32771
 62
    30
420
 16744448
100
AcDbLine
 10
180.9461191588495
 20
37.33164569174991
 30
0.0
 11
180.8815308008213
 21
37.39623404977809
 31
0.0
  0
LINE
  5
1FB
330
1F
100
AcDbEntity
  8
0
  6
K5LT32771
 62
    30
420
 16744448
100
AcDbLine
 10
176.2107551571367
 20
32.59628169003715
 30
0.0
 11
174.2099371257893
 21
30.59546365868977
 31
0.0
  0
LINE
  5
1FC
330
1F
100
AcDbEntity
  8
0
  6
K5LT32771
 62
    30
420
 16744448
100
AcDbLine
 10
176.2110794791523
 20
38.1197216456396
 30
0.0
 11
174.2099371257893
 21
40.12086399900262
 31
0.0
  0
LINE
  5
1FD
330
1F
100
AcDbEntity
  8
0
  6
K5LT32771
 62
    30
420
 16744448
100
AcDbLine
 10
174.2099371257893
 20
40.12086399900263
 30
0.0
 11
169.4472369556329
 21
35.35816382884619
 31
0.0
  0
LINE
  5
1FE
330
1F
100
AcDbEntity
  8
0
  6
K5LT32771
 62
    30
420
 16744448
100
AcDbLine
 10
174.2099371257893
 20
44.06782772481006
 30
0.0
 11
172.4872029347695
 21
45.79056191582987
 31
0.0
  0
LINE
  5
1FF
330
1F
100
AcDbEntity
  8
0
  6
K5LT32771
 62
    30
420
 16744448
100
AcDbLine
 10
172.2364552628856
 20
42.09434586190633
 30
0.0
 11
169.2276206482129
 21
45.103180476579
 31
0.0
  0
LINE
  5
200
330
1F
100
AcDbEntity
  8
0
  6
K5LT32771
 62
    30
420
 16744448
100
AcDbLine
 10
172.2364552628856
 20
42.09434586190634
 30
0.0
 11
167.4737550927292
 21
37.33164569174991
 31
0.0
  0
LINE
  5
201
330
1F
100
AcDbEntity
  8
0
  6
K5LT32771
 62
    30
420
 16744448
100
AcDbLine
 10
199.1811833951261
 20
28.62198179578606
 30
0.0
 11
194.4184832249697
 21
23.85928162562962
 31
0.0
  0
LINE
  5
202
330
1F
100
AcDbEntity
  8
0
  6
K5LT32771
 62
    30
420
 16744448
100
AcDbLine
 10
194.4184832249697
 20
33.38468196594249
 30
0.0
 11
189.6557830548133
 21
28.62198179578606
 31
0.0
  0
LINE
  5
203
330
1F
100
AcDbEntity
  8
0
  6
K5LT32771
 62
    30
420
 16744448
100
AcDbLine
 10
194.4184832249697
 20
37.33164569174993
 30
0.0
 11
189.6557830548133
 21
42.09434586190633
 31
0.0
  0
LINE
  5
204
330
1F
100
AcDbEntity
  8
0
  6
K5LT32771
 62
    30
420
 16744448
100
AcDbLine
 10
192.445001362066
 20
35.35816382884622
 30
0.0
 11
187.6823011919096
 21
30.59546365868978
 31
0.0
  0
LINE
  5
205
330
1F
100
AcDbEntity
  8
0
  6
K5LT32771
 62
    30
420
 16744448
100
AcDbLine
 10
192.445001362066
 20
35.3581638288462
 30
0.0
 11
187.6823011919096
 21
40.12086399900263
 31
0.0
  0
LINE
  5
206
330
1F
100
AcDbEntity
  8
0
  6
K5LT32771
 62
    30
420
 16744448
100
AcDbLine
 10
199.1811833951261
 20
42.09434586190635
 30
0.0
 11
194.4184832249697
 21
37.33164569174993
 31
0.0
  0
LINE
  5
207
330
1F
100
AcDbEntity
  8
0
  6
K5LT32771
 62
    30
420
 16744448
100
AcDbLine
 10
199.1811833951261
 20
42.09434586190636
 30
0.0
 11
194.4184832249697
 21
46.85704603206276
 31
0.0
  0
LINE
  5
208
330
1F
100
AcDbEntity
  8
0
  6
K5LT32771
 62
    30
420
 16744448
100
AcDbLine
 10
194.4184832249697
 20
46.85704603206277
 30
0.0
 11
189.6557830548133
 21
42.09434586190633
 31
0.0
  0
LINE
  5
209
330
1F
100
AcDbEntity
  8
0
  6
K5LT32771
 62
    30
420
 16744448
100
AcDbLine
 10
194.4184832249697
 20
50.8040097578702
 30
0.0
 11
189.6557830548133
 21
55.56670992802663
 31
0.0
  0
LINE
  5
20A
330
1F
100
AcDbEntity
  8
0
  6
K5LT32771
 62
    30
420
 16744448
100
AcDbLine
 10
192.445001362066
 20
48.83052789496648
 30
0.0
 11
187.6823011919096
 21
44.06782772481006
 31
0.0
  0
LINE
  5
20B
330
1F
100
AcDbEntity
  8
0
  6
K5LT32771
 62
    30
420
 16744448
100
AcDbLine
 10
192.445001362066
 20
48.83052789496648
 30
0.0
 11
187.6823011919096
 21
53.59322806512291
 31
0.0
  0
LINE
  5
20C
330
1F
100
AcDbEntity
  8
0
  6
K5LT32771
 62
    30
420
 16744448
100
AcDbLine
 10
187.6823011919096
 20
44.06782772481005
 30
0.0
 11
182.9196010217532
 21
48.83052789496648
 31
0.0
  0
LINE
  5
20D
330
1F
100
AcDbEntity
  8
0
  6
K5LT32771
 62
    30
420
 16744448
100
AcDbLine
 10
185.7088193290059
 20
42.09434586190634
 30
0.0
 11
184.4347542812437
 21
40.82028081414413
 31
0.0
  0
LINE
  5
20E
330
1F
100
AcDbEntity
  8
0
  6
K5LT32771
 62
    30
420
 16744448
100
AcDbLine
 10
185.7088193290059
 20
42.09434586190633
 30
0.0
 11
180.9461191588495
 21
46.85704603206277
 31
0.0
  0
LINE
  5
20F
330
1F
100
AcDbEntity
  8
0
  6
K5LT32771
 62
    30
420
 16744448
100
AcDbLine
 10
187.6823011919096
 20
40.12086399900263
 30
0.0
 11
185.3009511068313
 21
37.73951391392438
 31
0.0
  0
LINE
  5
210
330
1F
100
AcDbEntity
  8
0
  6
K5LT32771
 62
    30
420
 16744448
100
AcDbLine
 10
180.9461191588495
 20
46.85704603206277
 30
0.0
 11
180.2558706414317
 21
46.16679751464501
 31
0.0
  0
LINE
  5
211
330
1F
100
AcDbEntity
  8
0
  6
K5LT32771
 62
    30
420
 16744448
100
AcDbLine
 10
180.9461191588495
 20
50.80400975787018
 30
0.0
 11
176.183418988693
 21
55.56670992802659
 31
0.0
  0
LINE
  5
212
330
1F
100
AcDbEntity
  8
0
  6
K5LT32771
 62
    30
420
 16744448
100
AcDbLine
 10
178.9726372959458
 20
48.83052789496648
 30
0.0
 11
177.8422167366034
 21
47.70010733562409
 31
0.0
  0
LINE
  5
213
330
1F
100
AcDbEntity
  8
0
  6
K5LT32771
 62
    30
420
 16744448
100
AcDbLine
 10
178.9726372959458
 20
48.83052789496648
 30
0.0
 11
174.2099371257893
 21
53.59322806512289
 31
0.0
  0
LINE
  5
214
330
1F
100
AcDbEntity
  8
0
  6
K5LT32771
 62
    30
420
 16744448
100
AcDbLine
 10
185.7088193290059
 20
55.56670992802661
 30
0.0
 11
180.9461191588495
 21
60.32941009818303
 31
0.0
  0
LINE
  5
215
330
1F
100
AcDbEntity
  8
0
  6
K5LT32771
 62
    30
420
 16744448
100
AcDbLine
 10
187.6823011919096
 20
53.59322806512291
 30
0.0
 11
182.9196010217532
 21
48.83052789496647
 31
0.0
  0
LINE
  5
216
330
1F
100
AcDbEntity
  8
0
  6
K5LT32771
 62
    30
420
 16744448
100
AcDbLine
 10
187.6823011919096
 20
57.54019179093034
 30
0.0
 11
182.9196010217532
 21
62.30289196108676
 31
0.0
  0
LINE
  5
217
330
1F
100
AcDbEntity
  8
0
  6
K5LT32771
 62
    30
420
 16744448
100
AcDbLine
 10
185.7088193290059
 20
55.56670992802662
 30
0.0
 11
180.9461191588495
 21
50.80400975787018
 31
0.0
  0
LINE
  5
218
330
1F
100
AcDbEntity
  8
0
  6
K5LT32771
 62
    30
420
 16744448
100
AcDbLine
 10
180.9461191588495
 20
60.32941009818303
 30
0.0
 11
176.183418988693
 21
55.56670992802658
 31
0.0
  0
LINE
  5
219
330
1F
100
AcDbEntity
  8
0
  6
K5LT32771
 62
    30
420
 16744448
100
AcDbLine
 10
180.9461191588495
 20
64.27637382399045
 30
0.0
 11
176.0026021280845
 21
69.21989085475542
 31
0.0
  0
LINE
  5
21A
330
1F
100
AcDbEntity
  8
0
  6
K5LT32771
 62
    30
420
 16744448
100
AcDbLine
 10
178.9726372959458
 20
62.30289196108674
 30
0.0
 11
174.2099371257893
 21
57.54019179093032
 31
0.0
  0
LINE
  5
21B
330
1F
100
AcDbEntity
  8
0
  6
K5LT32771
 62
    30
420
 16744448
100
AcDbLine
 10
178.9726372959458
 20
62.30289196108676
 30
0.0
 11
174.0291202651808
 21
67.24640899185172
 31
0.0
  0
LINE
  5
21C
330
1F
100
AcDbEntity
  8
0
  6
K5LT32771
 62
    30
420
 16744448
100
AcDbLine
 10
174.0291202651808
 20
67.24640899185172
 30
0.0
 11
169.2664200950244
 21
62.48370882169527
 31
0.0
  0
LINE
  5
21D
330
1F
100
AcDbEntity
  8
0
  6
K5LT32771
 62
    30
420
 16744448
100
AcDbLine
 10
172.0556384022771
 20
69.21989085475542
 30
0.0
 11
167.2929382321207
 21
64.457190684599
 31
0.0
  0
LINE
  5
21E
330
1F
100
AcDbEntity
  8
0
  6
K5LT32771
 62
    30
420
 16744448
100
AcDbLine
 10
174.0291202651808
 20
71.19337271765913
 30
0.0
 11
162.5302380619642
 21
82.69225492087571
 31
0.0
  0
LINE
  5
21F
330
1F
100
AcDbEntity
  8
0
  6
K5LT32771
 62
    30
420
 16744448
100
AcDbLine
 10
172.0556384022771
 20
69.21989085475542
 30
0.0
 11
167.2929382321207
 21
73.98259102491187
 31
0.0
  0
LINE
  5
220
330
1F
100
AcDbEntity
  8
0
  6
K5LT32771
 62
    30
420
 16744448
100
AcDbLine
 10
165.319456369217
 20
75.95607288781557
 30
0.0
 11
160.5885594019275
 21
80.68696985510498
 31
0.0
  0
LINE
  5
221
330
1F
100
AcDbEntity
  8
0
  6
K5LT32771
 62
    30
420
 16744448
100
AcDbLine
 10
158.5832743361568
 20
69.21989085475539
 30
0.0
 11
153.8205741660004
 21
64.45719068459894
 31
0.0
  0
LINE
  5
222
330
1F
100
AcDbEntity
  8
0
  6
K5LT32771
 62
    30
420
 16744448
100
AcDbLine
 10
160.5567561990605
 20
71.19337271765912
 30
0.0
 11
157.7537367238185
 21
73.99639219290113
 31
0.0
  0
LINE
  5
223
330
1F
100
AcDbEntity
  8
0
  6
K5LT32771
 62
    30
420
 16744448
100
AcDbLine
 10
160.5567561990605
 20
67.2464089918517
 30
0.0
 11
155.7940560289041
 21
62.48370882169527
 31
0.0
  0
LINE
  5
224
330
1F
100
AcDbEntity
  8
0
  6
K5LT32771
 62
    30
420
 16744448
100
AcDbLine
 10
158.5832743361568
 20
69.21989085475538
 30
0.0
 11
154.4910985184642
 21
73.31206667244801
 31
0.0
  0
LINE
  5
225
330
1F
100
AcDbEntity
  8
0
  6
K5LT32771
 62
    30
420
 16744448
100
AcDbLine
 10
162.5302380619642
 20
82.69225492087571
 30
0.0
 11
164.8592065891168
 21
85.02122344802821
 31
0.0
  0
LINE
  5
226
330
1F
100
AcDbEntity
  8
0
  6
K5LT32771
 62
    30
420
 16744448
100
AcDbLine
 10
160.5567561990605
 20
84.66573678377944
 30
0.0
 11
155.5990053107363
 21
89.62348767210361
 31
0.0
  0
LINE
  5
227
330
1F
100
AcDbEntity
  8
0
  6
K5LT32771
 62
    30
420
 16744448
100
AcDbLine
 10
160.5567561990605
 20
84.66573678377944
 30
0.0
 11
162.8246328162091
 21
86.93361340092807
 31
0.0
  0
LINE
  5
228
330
1F
100
AcDbEntity
  8
0
  6
K5LT32771
 62
    30
420
 16744448
100
AcDbLine
 10
157.7168923011157
 20
83.55863695591687
 30
0.0
 11
152.3540369733873
 21
88.9214922836453
 31
0.0
  0
ARC
  5
229
330
1F
100
AcDbEntity
  8
0
  6
K5LT32771
 62
    30
420
 16744448
100
AcDbCircle
 10
140.34821009988
 20
-5.015933933027043
 30
0.0
 40
35.6452517967993
100
AcDbArc
 50
270.0
 51
90.0
  0
SPLINE
  5
22A
330
1F
100
AcDbEntity
  8
0
  6
K5LT32771
 62
    30
420
 16744448
100
AcDbSpline
210
0.0
220
0.0
230
1.0
 70
     8
 71
     3
 72
    17
 73
    13
 74
     0
 42
0.0
 43
0.0
 12
1.0
 22
0.0
 32
0.0
 13
1.0
 23
0.0
 33
0.0
 40
0.0
 40
0.0
 40
0.0
 40
0.0
 40
1.0
 40
1.0
 40
1.0
 40
2.0
 40
2.0
 40
2.0
 40
3.0
 40
3.0
 40
3.0
 40
4.0
 40
4.0
 40
4.0
 40
4.0
 10
140.34821009988
 20
-63.96197311524128
 30
0.0
 10
141.7725022846964
 20
-60.42728590514485
 30
0.0
 10
143.7286574864798
 20
-57.54751295877597
 30
0.0
 10
146.21667570523
 20
-55.32265427613463
 30
0.0
 10
149.6401196286502
 20
-52.26131056082101
 30
0.0
 10
154.8975480619103
 20
-50.60126091106673
 30
0.0
 10
159.5079354577018
 20
-49.85846971122956
 30
0.0
 10
163.898227880535
 20
-49.15113857038681
 30
0.0
 10
169.0567956024426
 20
-49.0873347715705
 30
0.0
 10
173.1683968699645
 20
-50.6707133627695
 30
0.0
 10
176.1588597841453
 20
-51.82234131694184
 30
0.0
 10
178.9155655105839
 20
-53.66834961589625
 30
0.0
 10
181.4385140492802
 20
-56.20873825963274
 30
0.0
  0
SPLINE
  5
22B
330
1F
100
AcDbEntity
  8
0
  6
K5LT32771
 62
    30
420
 16744448
100
AcDbSpline
210
0.0
220
0.0
230
1.0
 70
     8
 71
     3
 72
    11
 73
     7
 74
     0
 42
0.0
 43
0.0
 12
1.0
 22
0.0
 32
0.0
 13
1.0
 23
0.0
 33
0.0
 40
0.0
 40
0.0
 40
0.0
 40
0.0
 40
1.0
 40
1.0
 40
1.0
 40
2.0
 40
2.0
 40
2.0
 40
2.0
 10
181.4385140492802
 20
-56.20873825963274
 30
0.0
 10
180.9693437215713
 20
-53.30440177053791
 30
0.0
 10
179.8692601986684
 20
-51.05910816859605
 30
0.0
 10
178.1382634805715
 20
-49.47285745380717
 30
0.0
 10
176.6015028830478
 20
-48.06460082871011
 30
0.0
 10
174.567475381961
 20
-47.1757820887394
 30
0.0
 10
172.036180977311
 20
-46.80640123389503
 30
0.0
  0
SPLINE
  5
22C
330
1F
100
AcDbEntity
  8
0
  6
K5LT32771
 62
    30
420
 16744448
100
AcDbSpline
210
0.0
220
0.0
230
1.0
 70
     8
 71
     3
 72
    11
 73
     7
 74
     0
 42
0.0
 43
0.0
 12
1.0
 22
0.0
 32
0.0
 13
1.0
 23
0.0
 33
0.0
 40
0.0
 40
0.0
 40
0.0
 40
0.0
 40
1.0
 40
1.0
 40
1.0
 40
2.0
 40
2.0
 40
2.0
 40
2.0
 10
175.6769192775756
 20
-38.65319856147138
 30
0.0
 10
175.9168272355684
 20
-40.49237343413965
 30
0.0
 10
175.6946225505757
 20
-42.11617690139384
 30
0.0
 10
175.0103052225976
 20
-43.52460896323394
 30
0.0
 10
174.3938880896431
 20
-44.79329180674149
 30
0.0
 10
173.4025133412142
 20
-45.88722256362851
 30
0.0
 10
172.036180977311
 20
-46.80640123389503
 30
0.0
  0
SPLINE
  5
22D
330
1F
100
AcDbEntity
  8
0
  6
K5LT32771
 62
    30
420
 16744448
100
AcDbSpline
210
0.0
220
0.0
230
1.0
 70
     8
 71
     3
 72
    17
 73
    13
 74
     0
 42
0.0
 43
0.0
 12
1.0
 22
0.0
 32
0.0
 13
1.0
 23
0.0
 33
0.0
 40
0.0
 40
0.0
 40
0.0
 40
0.0
 40
1.0
 40
1.0
 40
1.0
 40
2.0
 40
2.0
 40
2.0
 40
3.0
 40
3.0
 40
3.0
 40
4.0
 40
4.0
 40
4.0
 40
4.0
 10
171.7797909561656
 20
-39.52492463336574
 30
0.0
 10
171.9104495054671
 20
-40.72357920565825
 30
0.0
 10
171.7908008289326
 20
-41.7662319583162
 30
0.0
 10
171.4208449265621
 20
-42.65288289133959
 30
0.0
 10
170.6620387157089
 20
-44.47146783761541
 30
0.0
 10
167.923737945425
 20
-45.34469296106002
 30
0.0
 10
165.9853764782796
 20
-46.13978717891699
 30
0.0
 10
162.8472301629524
 20
-47.42701973713559
 30
0.0
 10
158.8962504758221
 20
-46.26139436072922
 30
0.0
 10
155.5759416197765
 20
-47.1140692592695
 30
0.0
 10
151.2352870014944
 20
-48.22877496789749
 30
0.0
 10
147.1501393312444
 20
-50.24570980090795
 30
0.0
 10
143.3204986090265
 20
-53.16487375830089
 30
0.0
  0
SPLINE
  5
22E
330
1F
100
AcDbEntity
  8
0
  6
K5LT32771
 62
    30
420
 16744448
100
AcDbSpline
210
0.0
220
0.0
230
1.0
 70
     8
 71
     3
 72
    17
 73
    13
 74
     0
 42
0.0
 43
0.0
 12
1.0
 22
0.0
 32
0.0
 13
1.0
 23
0.0
 33
0.0
 40
0.0
 40
0.0
 40
0.0
 40
0.0
 40
1.0
 40
1.0
 40
1.0
 40
2.0
 40
2.0
 40
2.0
 40
3.0
 40
3.0
 40
3.0
 40
4.0
 40
4.0
 40
4.0
 40
4.0
 10
169.2158907447116
 20
-31.8845020032329
 30
0.0
 10
166.7643490171496
 20
-35.80123277759242
 30
0.0
 10
163.7731321037867
 20
-38.92919103556627
 30
0.0
 10
160.2422400046227
 20
-41.26837677715444
 30
0.0
 10
157.178695703378
 20
-43.2979486096928
 30
0.0
 10
152.8128382190809
 20
-43.36872639581437
 30
0.0
 10
149.8328051461196
 20
-45.57572913239711
 30
0.0
 10
148.5845730273571
 20
-46.50016575257924
 30
0.0
 10
147.3804733735381
 20
-47.5840018988925
 30
0.0
 10
146.3459008585422
 20
-48.75496539460005
 30
0.0
 10
145.1733678539742
 20
-50.08207714941688
 30
0.0
 10
144.1649004374689
 20
-51.55204660398381
 30
0.0
 10
143.3204986090265
 20
-53.16487375830089
 30
0.0
  0
SPLINE
  5
22F
330
1F
100
AcDbEntity
  8
0
  6
K5LT32771
 62
    30
420
 16744448
100
AcDbSpline
210
0.0
220
0.0
230
1.0
 70
     8
 71
     3
 72
    32
 73
    28
 74
     0
 42
0.0
 43
0.0
 12
1.0
 22
0.0
 32
0.0
 13
1.0
 23
0.0
 33
0.0
 40
0.0
 40
0.0
 40
0.0
 40
0.0
 40
1.0
 40
1.0
 40
1.0
 40
2.0
 40
2.0
 40
2.0
 40
3.0
 40
3.0
 40
3.0
 40
4.0
 40
4.0
 40
4.0
 40
5.0
 40
5.0
 40
5.0
 40
6.0
 40
6.0
 40
6.0
 40
7.0
 40
7.0
 40
7.0
 40
8.0
 40
8.0
 40
8.0
 40
9.0
 40
9.0
 40
9.0
 40
9.0
 10
175.6769192775756
 20
-38.65319856147138
 30
0.0
 10
176.9595643558793
 20
-39.18008444870323
 30
0.0
 10
178.1332613680357
 20
-39.32822056123621
 30
0.0
 10
179.198010314045
 20
-39.09760689907036
 30
0.0
 10
180.6556616029477
 20
-38.78189463360671
 30
0.0
 10
182.3147745667925
 20
-37.33547711697226
 30
0.0
 10
182.9583971414198
 20
-36.02092676758187
 30
0.0
 10
183.637674036281
 20
-34.63355517019873
 30
0.0
 10
183.6503597728157
 20
-32.31262578753252
 30
0.0
 10
182.9583971414198
 20
-30.89312654843439
 30
0.0
 10
182.4323930085074
 20
-29.81407627526374
 30
0.0
 10
181.3089412040487
 20
-28.55735992105248
 30
0.0
 10
180.1808386893816
 20
-28.15829976488907
 30
0.0
 10
179.2282663191078
 20
-27.82133244685186
 30
0.0
 10
177.7486677326083
 20
-27.76423954557639
 30
0.0
 10
176.8905002154287
 20
-28.24376310187486
 30
0.0
 10
176.1082271858538
 20
-28.68087862725727
 30
0.0
 10
175.3007863396482
 20
-29.77703995514122
 30
0.0
 10
175.1385018072199
 20
-30.67946820596991
 30
0.0
 10
174.9993439687101
 20
-31.45329404701867
 30
0.0
 10
175.2037664405577
 20
-32.56188942566381
 30
0.0
 10
175.6512818291347
 20
-33.20063664705076
 30
0.0
 10
176.1371521987731
 20
-33.89412866203512
 30
0.0
 10
177.2748261303859
 20
-34.59754278313956
 30
0.0
 10
178.0869869332297
 20
-34.56805003882342
 30
0.0
 10
178.7989822765277
 20
-34.54219469522564
 30
0.0
 10
179.5111767514093
 20
-34.14336578929195
 30
0.0
 10
180.2235703578745
 20
-33.37156332102234
 30
0.0
  0
SPLINE
  5
230
330
1F
100
AcDbEntity
  8
0
  6
K5LT32771
 62
    30
420
 16744448
100
AcDbSpline
210
0.0
220
0.0
230
1.0
 70
     8
 71
     3
 72
    32
 73
    28
 74
     0
 42
0.0
 43
0.0
 12
1.0
 22
0.0
 32
0.0
 13
1.0
 23
0.0
 33
0.0
 40
0.0
 40
0.0
 40
0.0
 40
0.0
 40
1.0
 40
1.0
 40
1.0
 40
2.0
 40
2.0
 40
2.0
 40
3.0
 40
3.0
 40
3.0
 40
4.0
 40
4.0
 40
4.0
 40
5.0
 40
5.0
 40
5.0
 40
6.0
 40
6.0
 40
6.0
 40
7.0
 40
7.0
 40
7.0
 40
8.0
 40
8.0
 40
8.0
 40
9.0
 40
9.0
 40
9.0
 40
9.0
 10
180.2235703578745
 20
-33.37156332102234
 30
0.0
 10
180.0258828685009
 20
-34.37736656654521
 30
0.0
 10
179.6412978520648
 20
-35.1322927099197
 30
0.0
 10
179.0698153085663
 20
-35.63634175114581
 30
0.0
 10
178.2689025527895
 20
-36.34274881685196
 30
0.0
 10
176.5459749309659
 20
-36.62907879216726
 30
0.0
 10
175.5658184921489
 20
-36.27731677853924
 30
0.0
 10
174.6672717685736
 20
-35.95484314850812
 30
0.0
 10
173.7788126257934
 20
-34.79473687132098
 30
0.0
 10
173.3437717305183
 20
-33.88434334293709
 30
0.0
 10
172.6600465550902
 20
-32.45353768382925
 30
0.0
 10
173.2426952360879
 20
-30.38912319647858
 30
0.0
 10
173.5574300729828
 20
-28.75654312378961
 30
0.0
 10
174.3410696826078
 20
-24.691678797154
 30
0.0
 10
178.5302200825591
 20
-21.77826108121388
 30
0.0
 10
180.437228700339
 20
-17.98816266357991
 30
0.0
 10
181.8642462814001
 20
-15.15202599094546
 30
0.0
 10
183.5488696627872
 20
-12.17376834087516
 30
0.0
 10
184.0694205222351
 20
-9.142707285550514
 30
0.0
 10
184.8247976712619
 20
-4.744300834112589
 30
0.0
 10
183.8176098529266
 20
0.4210105211330557
 30
0.0
 10
181.9755687660833
 20
4.574158300668985
 30
0.0
 10
181.0435123396706
 20
6.675614183171314
 30
0.0
 10
179.7630294904382
 20
8.754890634867177
 30
0.0
 10
178.3006452756942
 20
10.55659188967437
 30
0.0
 10
176.8526326660864
 20
12.34058689550382
 30
0.0
 10
175.1718537053658
 20
13.93590251923859
 30
0.0
 10
173.2583083935325
 20
15.34253876087869
 30
0.0
  0
SPLINE
  5
231
330
1F
100
AcDbEntity
  8
0
  6
K5LT32771
 62
    30
420
 16744448
100
AcDbSpline
210
0.0
220
0.0
230
1.0
 70
     8
 71
     3
 72
    11
 73
     7
 74
     0
 42
0.0
 43
0.0
 12
1.0
 22
0.0
 32
0.0
 13
1.0
 23
0.0
 33
0.0
 40
0.0
 40
0.0
 40
0.0
 40
0.0
 40
1.0
 40
1.0
 40
1.0
 40
2.0
 40
2.0
 40
2.0
 40
2.0
 10
169.2158907447116
 20
-31.8845020032329
 30
0.0
 10
169.189601963984
 20
-32.68061145827615
 30
0.0
 10
169.3048839933182
 20
-33.42635614031681
 30
0.0
 10
169.5617368327143
 20
-34.12173604935487
 30
0.0
 10
169.7880977071758
 20
-34.73456479854396
 30
0.0
 10
170.1244117380309
 20
-35.30827696882625
 30
0.0
 10
170.5706789252797
 20
-35.84287256020174
 30
0.0
  0
SPLINE
  5
232
330
1F
100
AcDbEntity
  8
0
  6
K5LT32771
 62
    30
420
 16744448
100
AcDbSpline
210
0.0
220
0.0
230
1.0
 70
     8
 71
     3
 72
    23
 73
    19
 74
     0
 42
0.0
 43
0.0
 12
1.0
 22
0.0
 32
0.0
 13
1.0
 23
0.0
 33
0.0
 40
0.0
 40
0.0
 40
0.0
 40
0.0
 40
1.0
 40
1.0
 40
1.0
 40
2.0
 40
2.0
 40
2.0
 40
3.0
 40
3.0
 40
3.0
 40
4.0
 40
4.0
 40
4.0
 40
5.0
 40
5.0
 40
5.0
 40
6.0
 40
6.0
 40
6.0
 40
6.0
 10
170.5706789252797
 20
-35.84287256020174
 30
0.0
 10
169.7503142409993
 20
-35.78344958787069
 30
0.0
 10
168.9985534661466
 20
-35.89225706844147
 30
0.0
 10
168.3153966007218
 20
-36.16929500191408
 30
0.0
 10
167.6214354403184
 20
-36.45071435890002
 30
0.0
 10
166.8192368218464
 20
-36.94483272890152
 30
0.0
 10
166.4458862527329
 20
-37.53433430362023
 30
0.0
 10
165.9427707896722
 20
-38.32872805114772
 30
0.0
 10
165.8418125493343
 20
-39.85008316129391
 30
0.0
 10
166.2975124155909
 20
-40.65018488360164
 30
0.0
 10
166.6382513132746
 20
-41.24844219961402
 30
0.0
 10
167.4667335846335
 20
-41.88261054723343
 30
0.0
 10
168.1670227635798
 20
-42.04489895273618
 30
0.0
 10
168.7970197409097
 20
-42.19089750304401
 30
0.0
 10
169.6807605403382
 20
-42.05539966638759
 30
0.0
 10
170.2442564835674
 20
-41.74815127845223
 30
0.0
 10
170.9698574107013
 20
-41.35251450799259
 30
0.0
 10
171.4817022349007
 20
-40.61143895963043
 30
0.0
 10
171.7797909561656
 20
-39.52492463336574
 30
0.0
  0
SPLINE
  5
233
330
1F
100
AcDbEntity
  8
0
  6
K5LT32771
 62
    30
420
 16744448
100
AcDbSpline
210
0.0
220
0.0
230
1.0
 70
     8
 71
     3
 72
    26
 73
    22
 74
     0
 42
0.0
 43
0.0
 12
1.0
 22
0.0
 32
0.0
 13
1.0
 23
0.0
 33
0.0
 40
0.0
 40
0.0
 40
0.0
 40
0.0
 40
1.0
 40
1.0
 40
1.0
 40
2.0
 40
2.0
 40
2.0
 40
3.0
 40
3.0
 40
3.0
 40
4.0
 40
4.0
 40
4.0
 40
5.0
 40
5.0
 40
5.0
 40
6.0
 40
6.0
 40
6.0
 40
7.0
 40
7.0
 40
7.0
 40
7.0
 10
173.2583083935325
 20
15.34253876087869
 30
0.0
 10
177.0398582995308
 20
13.90396479340289
 30
0.0
 10
180.7402399657153
 20
13.28453221496288
 30
0.0
 10
184.359453392086
 20
13.48424102555865
 30
0.0
 10
189.3692983079537
 20
13.7606851175614
 30
0.0
 10
195.223705406313
 20
15.77749601189118
 30
0.0
 10
198.9224065931446
 20
19.02226548229924
 30
0.0
 10
202.0270255699929
 20
21.74586286540015
 30
0.0
 10
204.740195485667
 20
26.15422936802794
 30
0.0
 10
205.7936591598412
 20
30.1495924000095
 30
0.0
 10
207.0554595662456
 20
34.93509267028567
 30
0.0
 10
205.6911396706524
 20
40.83416343483603
 30
0.0
 10
204.2553190329688
 20
45.73810568564966
 30
0.0
 10
202.4894083699803
 20
51.76944670702057
 30
0.0
 10
198.6657584033194
 20
57.46554134796052
 30
0.0
 10
194.7688882505891
 20
62.50601306855864
 30
0.0
 10
191.7687501399145
 20
66.38659176686325
 30
0.0
 10
187.9450028643585
 20
69.66312642044646
 30
0.0
 10
184.4620094005442
 20
73.17183794820718
 30
0.0
 10
183.5083708991134
 20
74.13251801782236
 30
0.0
 10
182.5511814868372
 20
75.08970743009851
 30
0.0
 10
181.5904411637157
 20
76.04340618503564
 30
0.0
  0
SPLINE
  5
234
330
1F
100
AcDbEntity
  8
0
  6
K5LT32771
 62
    30
420
 16744448
100
AcDbSpline
210
0.0
220
0.0
230
1.0
 70
     8
 71
     3
 72
    14
 73
    10
 74
     0
 42
0.0
 43
0.0
 12
1.0
 22
0.0
 32
0.0
 13
1.0
 23
0.0
 33
0.0
 40
0.0
 40
0.0
 40
0.0
 40
0.0
 40
1.0
 40
1.0
 40
1.0
 40
2.0
 40
2.0
 40
2.0
 40
3.0
 40
3.0
 40
3.0
 40
3.0
 10
181.839910866696
 20
38.22543740525123
 30
0.0
 10
181.9498266267356
 20
39.00077012108841
 30
0.0
 10
181.8934771930705
 20
39.71909580274096
 30
0.0
 10
181.6708625657006
 20
40.3804144502089
 30
0.0
 10
181.2781793699653
 20
41.5469537875164
 30
0.0
 10
179.9781299897362
 20
42.52828579966022
 30
0.0
 10
178.9407839622883
 20
43.34789119304834
 30
0.0
 10
178.6651209574879
 20
43.56569208061507
 30
0.0
 10
178.3758638612864
 20
43.78046339039465
 30
0.0
 10
178.0758212495991
 20
43.98674812281237
 30
0.0
  0
SPLINE
  5
235
330
1F
100
AcDbEntity
  8
0
  6
K5LT32771
 62
    30
420
 16744448
100
AcDbSpline
210
0.0
220
0.0
230
1.0
 70
     8
 71
     3
 72
    23
 73
    19
 74
     0
 42
0.0
 43
0.0
 12
1.0
 22
0.0
 32
0.0
 13
1.0
 23
0.0
 33
0.0
 40
0.0
 40
0.0
 40
0.0
 40
0.0
 40
1.0
 40
1.0
 40
1.0
 40
2.0
 40
2.0
 40
2.0
 40
3.0
 40
3.0
 40
3.0
 40
4.0
 40
4.0
 40
4.0
 40
5.0
 40
5.0
 40
5.0
 40
6.0
 40
6.0
 40
6.0
 40
6.0
 10
181.5904411637157
 20
76.04340618503564
 30
0.0
 10
182.3969430124421
 20
78.48785811041287
 30
0.0
 10
182.4198313210028
 20
80.5917537561374
 30
0.0
 10
181.659106089398
 20
82.35509312220917
 30
0.0
 10
180.889207284656
 20
84.13969656888214
 30
0.0
 10
178.6958251492875
 20
85.49585901776393
 30
0.0
 10
176.9415297003227
 20
86.66244547745185
 30
0.0
 10
175.3480495069179
 20
87.72209162685266
 30
0.0
 10
173.3560128298839
 20
88.17935656397387
 30
0.0
 10
171.7111732689566
 20
89.17506768467675
 30
0.0
 10
169.6203660215914
 20
90.44074737581575
 30
0.0
 10
167.2819369599509
 20
91.82998946547397
 30
0.0
 10
165.9167587910706
 20
93.73881006106481
 30
0.0
 10
164.3585966608152
 20
95.91746485741335
 30
0.0
 10
163.8408049105552
 20
99.03743599404697
 30
0.0
 10
163.4554145880748
 20
101.7894567250303
 30
0.0
 10
163.1525565190685
 20
103.9521256760475
 30
0.0
 10
163.1183711829158
 20
106.1570798578979
 30
0.0
 10
163.3528585796166
 20
108.4043192705816
 30
0.0
  0
SPLINE
  5
236
330
1F
100
AcDbEntity
  8
0
  6
K5LT32771
 62
    30
420
 16744448
100
AcDbSpline
210
0.0
220
0.0
230
1.0
 70
     8
 71
     3
 72
    11
 73
     7
 74
     0
 42
0.0
 43
0.0
 12
1.0
 22
0.0
 32
0.0
 13
1.0
 23
0.0
 33
0.0
 40
0.0
 40
0.0
 40
0.0
 40
0.0
 40
1.0
 40
1.0
 40
1.0
 40
2.0
 40
2.0
 40
2.0
 40
2.0
 10
163.3528585796166
 20
108.4043192705816
 30
0.0
 10
162.1668902636298
 20
107.2999874524428
 30
0.0
 10
161.3122568598118
 20
106.0864080190213
 30
0.0
 10
160.7889583681626
 20
104.7635809703169
 30
0.0
 10
160.0174080903381
 20
102.813207343737
 30
0.0
 10
159.966130086109
 20
100.625345829963
 30
0.0
 10
160.6351243554754
 20
98.19999642899474
 30
0.0
  0
SPLINE
  5
237
330
1F
100
AcDbEntity
  8
0
  6
K5LT32771
 62
    30
420
 16744448
100
AcDbSpline
210
0.0
220
0.0
230
1.0
 70
     8
 71
     3
 72
    14
 73
    10
 74
     0
 42
0.0
 43
0.0
 12
1.0
 22
0.0
 32
0.0
 13
1.0
 23
0.0
 33
0.0
 40
0.0
 40
0.0
 40
0.0
 40
0.0
 40
1.0
 40
1.0
 40
1.0
 40
2.0
 40
2.0
 40
2.0
 40
3.0
 40
3.0
 40
3.0
 40
3.0
 10
160.6351243554754
 20
98.19999642899474
 30
0.0
 10
158.976108964011
 20
100.1708370854295
 30
0.0
 10
157.6599735221313
 20
102.2903279268981
 30
0.0
 10
156.6867180298363
 20
104.5584689534006
 30
0.0
 10
155.761542749357
 20
106.7145605726865
 30
0.0
 10
154.9996573093848
 20
109.0996334034286
 30
0.0
 10
154.8407098775894
 20
111.4297215200972
 30
0.0
 10
154.7118974300521
 20
113.318046168665
 30
0.0
 10
154.8828241108157
 20
115.2324249932173
 30
0.0
 10
155.3534899198802
 20
117.1728579937541
 30
0.0
  0
SPLINE
  5
238
330
1F
100
AcDbEntity
  8
0
  6
K5LT32771
 62
    30
420
 16744448
100
AcDbSpline
210
0.0
220
0.0
230
1.0
 70
     8
 71
     3
 72
    11
 73
     7
 74
     0
 42
0.0
 43
0.0
 12
1.0
 22
0.0
 32
0.0
 13
1.0
 23
0.0
 33
0.0
 40
0.0
 40
0.0
 40
0.0
 40
0.0
 40
1.0
 40
1.0
 40
1.0
 40
2.0
 40
2.0
 40
2.0
 40
2.0
 10
155.3534899198802
 20
117.1728579937541
 30
0.0
 10
153.7699398653457
 20
115.7411735325034
 30
0.0
 10
152.641823772306
 20
114.1686480694783
 30
0.0
 10
151.969141640761
 20
112.4552816046788
 30
0.0
 10
150.9113612538322
 20
109.7610440783697
 30
0.0
 10
150.9797319261377
 20
106.7185491607776
 30
0.0
 10
152.1742536576773
 20
103.3277968519027
 30
0.0
  0
SPLINE
  5
239
330
1F
100
AcDbEntity
  8
0
  6
K5LT32771
 62
    30
420
 16744448
100
AcDbSpline
210
0.0
220
0.0
230
1.0
 70
     8
 71
     3
 72
    11
 73
     7
 74
     0
 42
0.0
 43
0.0
 12
1.0
 22
0.0
 32
0.0
 13
1.0
 23
0.0
 33
0.0
 40
0.0
 40
0.0
 40
0.0
 40
0.0
 40
1.0
 40
1.0
 40
1.0
 40
2.0
 40
2.0
 40
2.0
 40
2.0
 10
152.1742536576773
 20
103.3277968519027
 30
0.0
 10
150.5640761640943
 20
104.2993453670676
 30
0.0
 10
148.9773073175767
 20
104.7665451320872
 30
0.0
 10
147.4139471181246
 20
104.7293961469614
 30
0.0
 10
145.6315201281782
 20
104.6870416378978
 30
0.0
 10
143.8795217199695
 20
103.9890910525139
 30
0.0
 10
142.1579518934984
 20
102.6355443908095
 30
0.0
  0
SPLINE
  5
23A
330
1F
100
AcDbEntity
  8
0
  6
K5LT32771
 62
    30
420
 16744448
100
AcDbSpline
210
0.0
220
0.0
230
1.0
 70
     8
 71
     3
 72
    11
 73
     7
 74
     0
 42
0.0
 43
0.0
 12
1.0
 22
0.0
 32
0.0
 13
1.0
 23
0.0
 33
0.0
 40
0.0
 40
0.0
 40
0.0
 40
0.0
 40
1.0
 40
1.0
 40
1.0
 40
2.0
 40
2.0
 40
2.0
 40
2.0
 10
142.1579518934984
 20
102.6355443908095
 30
0.0
 10
144.6633898634549
 20
102.216944286123
 30
0.0
 10
146.9708999620712
 20
101.4477742532508
 30
0.0
 10
149.0804821893475
 20
100.3280342921932
 30
0.0
 10
151.8408168256408
 20
98.8628830607383
 30
0.0
 10
154.2622780402383
 20
96.79751908358169
 30
0.0
 10
156.3448658331398
 20
94.13194236072329
 30
0.0
  0
SPLINE
  5
23B
330
1F
100
AcDbEntity
  8
0
  6
K5LT32771
 62
    30
420
 16744448
100
AcDbSpline
210
0.0
220
0.0
230
1.0
 70
     8
 71
     3
 72
    17
 73
    13
 74
     0
 42
0.0
 43
0.0
 12
1.0
 22
0.0
 32
0.0
 13
1.0
 23
0.0
 33
0.0
 40
0.0
 40
0.0
 40
0.0
 40
0.0
 40
1.0
 40
1.0
 40
1.0
 40
2.0
 40
2.0
 40
2.0
 40
3.0
 40
3.0
 40
3.0
 40
4.0
 40
4.0
 40
4.0
 40
4.0
 10
156.3448658331398
 20
94.13194236072329
 30
0.0
 10
154.7291839367226
 20
94.29605499197564
 30
0.0
 10
153.205087760476
 20
94.1536160969993
 30
0.0
 10
151.7725773044
 20
93.70462567579433
 30
0.0
 10
150.520350583075
 20
93.31214141805853
 30
0.0
 10
149.3147379456674
 20
92.58458355759731
 30
0.0
 10
148.2258488194896
 20
91.82443226210692
 30
0.0
 10
147.1178785261978
 20
91.05096044246719
 30
0.0
 10
145.9126397735181
 20
90.17772502493938
 30
0.0
 10
145.191900356494
 20
89.08960547856161
 30
0.0
 10
144.8535731787112
 20
88.57882390269558
 30
0.0
 10
144.5867923740985
 20
87.99061806364875
 30
0.0
 10
144.3834177234889
 20
87.36671119323074
 30
0.0
  0
SPLINE
  5
23C
330
1F
100
AcDbEntity
  8
0
  6
K5LT32771
 62
    30
420
 16744448
100
AcDbSpline
210
0.0
220
0.0
230
1.0
 70
     8
 71
     3
 72
    20
 73
    16
 74
     0
 42
0.0
 43
0.0
 12
1.0
 22
0.0
 32
0.0
 13
1.0
 23
0.0
 33
0.0
 40
0.0
 40
0.0
 40
0.0
 40
0.0
 40
1.0
 40
1.0
 40
1.0
 40
2.0
 40
2.0
 40
2.0
 40
3.0
 40
3.0
 40
3.0
 40
4.0
 40
4.0
 40
4.0
 40
5.0
 40
5.0
 40
5.0
 40
5.0
 10
157.6366220127261
 20
77.79863887163762
 30
0.0
 10
157.0976270695934
 20
77.36448489810707
 30
0.0
 10
156.5388466709192
 20
77.05438803742567
 30
0.0
 10
155.9602808167037
 20
76.86834828959343
 30
0.0
 10
154.5288133856326
 20
76.4080552426288
 30
0.0
 10
152.5818041783241
 20
77.03300698233801
 30
0.0
 10
151.3025289509781
 20
77.76571332794424
 30
0.0
 10
149.7121014516484
 20
78.67663249223004
 30
0.0
 10
147.9525592541577
 20
80.79165778867298
 30
0.0
 10
147.7985321345607
 20
82.50892853065565
 30
0.0
 10
147.6673764978745
 20
83.97120178562876
 30
0.0
 10
148.5500041806594
 20
86.03746172958246
 30
0.0
 10
149.6106648126486
 20
87.19200946348784
 30
0.0
 10
150.2936364746536
 20
87.9354361175069
 30
0.0
 10
151.3065546530428
 20
88.51567361049466
 30
0.0
 10
152.3540369733885
 20
88.92149228364272
 30
0.0
  0
SPLINE
  5
23D
330
1F
100
AcDbEntity
  8
0
  6
K5LT32771
 62
    30
420
 16744448
100
AcDbSpline
210
0.0
220
0.0
230
1.0
 70
    11
 71
     3
 72
    26
 73
    22
 74
     0
 42
0.0
 43
0.0
 12
1.0
 22
0.0
 32
0.0
 13
1.0
 23
0.0
 33
0.0
 40
0.0
 40
0.0
 40
0.0
 40
0.0
 40
1.0
 40
1.0
 40
1.0
 40
2.0
 40
2.0
 40
2.0
 40
3.0
 40
3.0
 40
3.0
 40
4.0
 40
4.0
 40
4.0
 40
5.0
 40
5.0
 40
5.0
 40
6.0
 40
6.0
 40
6.0
 40
7.0
 40
7.0
 40
7.0
 40
7.0
 10
164.2502245043255
 20
89.34599548951897
 30
0.0
 10
166.9022535183656
 20
88.45397422223985
 30
0.0
 10
169.4376658489441
 20
87.34295084142458
 30
0.0
 10
171.8564614960609
 20
86.01292534707312
 30
0.0
 10
173.5517981852634
 20
85.08070892736997
 30
0.0
 10
175.837256525423
 20
84.46502462601474
 30
0.0
 10
176.7706033727439
 20
82.89351354709174
 30
0.0
 10
177.2779371810601
 20
82.03929659358755
 30
0.0
 10
177.9377159267725
 20
80.77240338140759
 30
0.0
 10
177.6679684110947
 20
79.85956508409615
 30
0.0
 10
177.5010936411706
 20
79.29485300339722
 30
0.0
 10
176.9616271521386
 20
78.51060915469031
 30
0.0
 10
176.5142133617865
 20
78.278493349859
 30
0.0
 10
175.6697454131668
 20
77.84038803935017
 30
0.0
 10
174.2941012481954
 20
79.3927486079516
 30
0.0
 10
173.3093382248194
 20
80.11595509505352
 30
0.0
 10
172.1010513776121
 20
81.00331668909924
 30
0.0
 10
171.1311428914767
 20
82.21103439975441
 30
0.0
 10
170.0617314193593
 20
83.27809856352779
 30
0.0
 10
168.0794701214903
 20
85.25600889022621
 30
0.0
 10
166.1423011498124
 20
87.27864119888993
 30
0.0
 10
164.2502245043255
 20
89.34599548951897
 30
0.0
  0
SPLINE
  5
23E
330
1F
100
AcDbEntity
  8
0
  6
K5LT32771
 62
    30
420
 16744448
100
AcDbSpline
210
0.0
220
0.0
230
1.0
 70
     8
 71
     3
 72
     8
 73
     4
 74
     0
 42
0.0
 43
0.0
 12
1.0
 22
0.0
 32
0.0
 13
1.0
 23
0.0
 33
0.0
 40
0.0
 40
0.0
 40
0.0
 40
0.0
 40
1.0
 40
1.0
 40
1.0
 40
1.0
 10
180.8815308008212
 20
37.3962340497782
 30
0.0
 10
180.5880652469077
 20
37.85810272582379
 30
0.0
 10
180.2428779170056
 20
38.20329005572584
 30
0.0
 10
179.845968811115
 20
38.43179603948434
 30
0.0
  0
SPLINE
  5
23F
330
1F
100
AcDbEntity
  8
0
  6
K5LT32771
 62
    30
420
 16744448
100
AcDbSpline
210
0.0
220
0.0
230
1.0
 70
     8
 71
     3
 72
    11
 73
     7
 74
     0
 42
0.0
 43
0.0
 12
1.0
 22
0.0
 32
0.0
 13
1.0
 23
0.0
 33
0.0
 40
0.0
 40
0.0
 40
0.0
 40
0.0
 40
1.0
 40
1.0
 40
1.0
 40
2.0
 40
2.0
 40
2.0
 40
2.0
 10
162.3806666389331
 20
45.71092130407087
 30
0.0
 10
162.5307281766519
 20
46.79531487742137
 30
0.0
 10
162.8148089403509
 20
47.81857769524492
 30
0.0
 10
163.2329089300299
 20
48.78070975754151
 30
0.0
 10
163.4603489039777
 20
49.30409482471429
 30
0.0
 10
163.7274477524808
 20
49.8093901219516
 30
0.0
 10
164.0342054755392
 20
50.29659564925342
 30
0.0
  0
SPLINE
  5
240
330
1F
100
AcDbEntity
  8
0
  6
K5LT32771
 62
    30
420
 16744448
100
AcDbSpline
210
0.0
220
0.0
230
1.0
 70
     8
 71
     3
 72
     8
 73
     4
 74
     0
 42
0.0
 43
0.0
 12
1.0
 22
0.0
 32
0.0
 13
1.0
 23
0.0
 33
0.0
 40
0.0
 40
0.0
 40
0.0
 40
0.0
 40
1.0
 40
1.0
 40
1.0
 40
1.0
 10
167.8992073148762
 20
54.21617820582394
 30
0.0
 10
166.7899957850634
 20
54.07406476718935
 30
0.0
 10
165.7611793693976
 20
53.8236742928185
 30
0.0
 10
164.8127580678786
 20
53.46500678271142
 30
0.0
  0
SPLINE
  5
241
330
1F
100
AcDbEntity
  8
0
  6
K5LT32771
 62
    30
420
 16744448
100
AcDbSpline
210
0.0
220
0.0
230
1.0
 70
     8
 71
     3
 72
     8
 73
     4
 74
     0
 42
0.0
 43
0.0
 12
1.0
 22
0.0
 32
0.0
 13
1.0
 23
0.0
 33
0.0
 40
0.0
 40
0.0
 40
0.0
 40
0.0
 40
1.0
 40
1.0
 40
1.0
 40
1.0
 10
157.5410504606021
 20
44.88358143613146
 30
0.0
 10
157.1439787677617
 20
46.49065062568027
 30
0.0
 10
156.6227376749951
 20
47.92766211662753
 30
0.0
 10
155.9773271823024
 20
49.19461590897329
 30
0.0
  0
SPLINE
  5
242
330
1F
100
AcDbEntity
  8
0
  6
K5LT32771
 62
    30
420
 16744448
100
AcDbSpline
210
0.0
220
0.0
230
1.0
 70
     8
 71
     3
 72
     8
 73
     4
 74
     0
 42
0.0
 43
0.0
 12
1.0
 22
0.0
 32
0.0
 13
1.0
 23
0.0
 33
0.0
 40
0.0
 40
0.0
 40
0.0
 40
0.0
 40
1.0
 40
1.0
 40
1.0
 40
1.0
 10
141.337201124213
 20
56.16474236652896
 30
0.0
 10
142.3116375834799
 20
55.74056478178976
 30
0.0
 10
143.238186833105
 20
55.27013912576042
 30
0.0
 10
144.1168488730883
 20
54.75346539844096
 30
0.0
  0
SPLINE
  5
243
330
1F
100
AcDbEntity
  8
0
  6
K5LT32771
 62
    30
420
 16744448
100
AcDbSpline
210
0.0
220
0.0
230
1.0
 70
     8
 71
     3
 72
     8
 73
     4
 74
     0
 42
0.0
 43
0.0
 12
1.0
 22
0.0
 32
0.0
 13
1.0
 23
0.0
 33
0.0
 40
0.0
 40
0.0
 40
0.0
 40
0.0
 40
1.0
 40
1.0
 40
1.0
 40
1.0
 10
154.1089056406103
 20
37.43916030573435
 30
0.0
 10
154.0007157420328
 20
37.47656113635449
 30
0.0
 10
153.8923949583296
 20
37.51320551072898
 30
0.0
 10
153.7839432895009
 20
37.54909342885784
 30
0.0
  0
SPLINE
  5
244
330
1F
100
AcDbEntity
  8
0
  6
K5LT32771
 62
    30
420
 16744448
100
AcDbSpline
210
0.0
220
0.0
230
1.0
 70
    24
 71
     3
 72
     8
 73
     4
 74
     0
 42
0.0
 43
0.0
 12
1.0
 22
0.0
 32
0.0
 13
1.0
 23
0.0
 33
0.0
 40
0.0
 40
0.0
 40
0.0
 40
0.0
 40
1.0
 40
1.0
 40
1.0
 40
1.0
 10
156.874436405624
 20
33.60242050573398
 30
0.0
 10
157.9341818263584
 20
31.34618831965449
 30
0.0
 10
157.4043091159912
 20
32.47430441269423
 30
0.0
 10
158.4640545367255
 20
30.21807222661474
 30
0.0
  0
SPLINE
  5
245
330
1F
100
AcDbEntity
  8
0
  6
K5LT32771
 62
    30
420
 16744448
100
AcDbSpline
210
0.0
220
0.0
230
1.0
 70
     8
 71
     3
 72
    11
 73
     7
 74
     0
 42
0.0
 43
0.0
 12
1.0
 22
0.0
 32
0.0
 13
1.0
 23
0.0
 33
0.0
 40
0.0
 40
0.0
 40
0.0
 40
0.0
 40
1.0
 40
1.0
 40
1.0
 40
2.0
 40
2.0
 40
2.0
 40
2.0
 10
156.874436405624
 20
33.60242050573398
 30
0.0
 10
154.2689556106902
 20
34.68444798652524
 30
0.0
 10
151.6195920588544
 20
35.36815470957963
 30
0.0
 10
148.9263457501167
 20
35.65354067489716
 30
0.0
 10
146.3844423460613
 20
35.92288980733884
 30
0.0
 10
143.8034494665309
 20
35.83742646695704
 30
0.0
 10
141.1833671115257
 20
35.39715065375177
 30
0.0
  0
SPLINE
  5
246
330
1F
100
AcDbEntity
  8
0
  6
K5LT32771
 62
    30
420
 16744448
100
AcDbSpline
210
0.0
220
0.0
230
1.0
 70
     8
 71
     3
 72
    11
 73
     7
 74
     0
 42
0.0
 43
0.0
 12
1.0
 22
0.0
 32
0.0
 13
1.0
 23
0.0
 33
0.0
 40
0.0
 40
0.0
 40
0.0
 40
0.0
 40
1.0
 40
1.0
 40
1.0
 40
2.0
 40
2.0
 40
2.0
 40
2.0
 10
158.4640545367255
 20
30.21807222661474
 30
0.0
 10
155.2215590694971
 20
32.12402106684096
 30
0.0
 10
151.8372107903778
 20
33.5085271810261
 30
0.0
 10
148.3110096993678
 20
34.37159056917017
 30
0.0
 10
145.9962558836957
 20
34.93814341721012
 30
0.0
 10
143.6203750210817
 20
35.27999677873732
 30
0.0
 10
141.1833671115257
 20
35.39715065375177
 30
0.0
  0
SPLINE
  5
247
330
1F
100
AcDbEntity
  8
0
  6
K5LT32771
 62
    30
420
 16744448
100
AcDbSpline
210
0.0
220
0.0
230
1.0
 70
     8
 71
     3
 72
     8
 73
     4
 74
     0
 42
0.0
 43
0.0
 12
1.0
 22
0.0
 32
0.0
 13
1.0
 23
0.0
 33
0.0
 40
0.0
 40
0.0
 40
0.0
 40
0.0
 40
1.0
 40
1.0
 40
1.0
 40
1.0
 10
178.6318590948046
 20
17.59805783577729
 30
0.0
 10
180.3024188088165
 20
17.36879015095951
 30
0.0
 10
182.0151408731316
 20
17.17313033720327
 30
0.0
 10
183.6973001922191
 20
17.16113686645256
 30
0.0
  0
SPLINE
  5
248
330
1F
100
AcDbEntity
  8
0
  6
K5LT32771
 62
    30
420
 16744448
100
AcDbSpline
210
0.0
220
0.0
230
1.0
 70
     8
 71
     3
 72
     8
 73
     4
 74
     0
 42
0.0
 43
0.0
 12
1.0
 22
0.0
 32
0.0
 13
1.0
 23
0.0
 33
0.0
 40
0.0
 40
0.0
 40
0.0
 40
0.0
 40
1.0
 40
1.0
 40
1.0
 40
1.0
 10
187.3434219086814
 20
17.46197887716447
 30
0.0
 10
187.6181388516724
 20
17.50690998271805
 30
0.0
 10
187.8936503678256
 20
17.55629924097319
 30
0.0
 10
188.1694189048674
 20
17.6102173055277
 30
0.0
  0
SPLINE
  5
249
330
1F
100
AcDbEntity
  8
0
  6
K5LT32771
 62
    30
420
 16744448
100
AcDbSpline
210
0.0
220
0.0
230
1.0
 70
     8
 71
     3
 72
    14
 73
    10
 74
     0
 42
0.0
 43
0.0
 12
1.0
 22
0.0
 32
0.0
 13
1.0
 23
0.0
 33
0.0
 40
0.0
 40
0.0
 40
0.0
 40
0.0
 40
1.0
 40
1.0
 40
1.0
 40
2.0
 40
2.0
 40
2.0
 40
3.0
 40
3.0
 40
3.0
 40
3.0
 10
194.0564779409079
 20
19.55031261576038
 30
0.0
 10
194.9140466619662
 20
19.97449492092768
 30
0.0
 10
195.7285814269678
 20
20.45771206265297
 30
0.0
 10
196.4785715124694
 20
21.00279131946736
 30
0.0
 10
197.9907497846521
 20
22.10181519285774
 30
0.0
 10
199.5329205216091
 20
23.48519162763824
 30
0.0
 10
200.5736894175878
 20
25.0088849223006
 30
0.0
 10
201.0327591901891
 20
25.68096643530258
 30
0.0
 10
201.4110381318552
 20
26.42598180501247
 30
0.0
 10
201.7221545275333
 20
27.21598920238598
 30
0.0
  0
LINE
  5
24A
330
1F
100
AcDbEntity
  8
0
  6
K5LT32771
 62
    30
420
 16744448
100
AcDbLine
 10
201.7221545275334
 20
27.21598920238591
 30
0.0
 11
194.056477940103
 21
19.55031261495553
 31
0.0
  0
SPLINE
  5
24B
330
1F
100
AcDbEntity
  8
0
  6
K5LT32771
 62
    30
420
 16744448
100
AcDbSpline
210
0.0
220
0.0
230
1.0
 70
     8
 71
     3
 72
    11
 73
     7
 74
     0
 42
0.0
 43
0.0
 12
1.0
 22
0.0
 32
0.0
 13
1.0
 23
0.0
 33
0.0
 40
0.0
 40
0.0
 40
0.0
 40
0.0
 40
1.0
 40
1.0
 40
1.0
 40
2.0
 40
2.0
 40
2.0
 40
2.0
 10
202.8995230363253
 20
32.34032143698519
 30
0.0
 10
202.9820941243895
 20
33.08665471355329
 30
0.0
 10
203.0347158005479
 20
33.82418107629434
 30
0.0
 10
203.0663698815729
 20
34.5344852668152
 30
0.0
 10
203.1250126174362
 20
35.85040345740922
 30
0.0
 10
202.9972354504884
 20
37.18851963715802
 30
0.0
 10
202.7464115582124
 20
38.52911769799655
 30
0.0
  0
SPLINE
  5
24C
330
1F
100
AcDbEntity
  8
0
  6
K5LT32771
 62
    30
420
 16744448
100
AcDbSpline
210
0.0
220
0.0
230
1.0
 70
     8
 71
     3
 72
    11
 73
     7
 74
     0
 42
0.0
 43
0.0
 12
1.0
 22
0.0
 32
0.0
 13
1.0
 23
0.0
 33
0.0
 40
0.0
 40
0.0
 40
0.0
 40
0.0
 40
1.0
 40
1.0
 40
1.0
 40
2.0
 40
2.0
 40
2.0
 40
2.0
 10
201.1546652580299
 20
44.06782772481007
 30
0.0
 10
200.7709750764892
 20
45.17441249049709
 30
0.0
 10
200.3597015018669
 20
46.26979818085427
 30
0.0
 10
199.9208445341631
 20
47.35398479588159
 30
0.0
 10
199.4456184745708
 20
48.52802046316975
 30
0.0
 10
198.9567655850295
 20
49.6901701702875
 30
0.0
 10
198.3981324653146
 20
50.8366952724076
 30
0.0
  0
SPLINE
  5
24D
330
1F
100
AcDbEntity
  8
0
  6
K5LT32771
 62
    30
420
 16744448
100
AcDbSpline
210
0.0
220
0.0
230
1.0
 70
     8
 71
     3
 72
     8
 73
     4
 74
     0
 42
0.0
 43
0.0
 12
1.0
 22
0.0
 32
0.0
 13
1.0
 23
0.0
 33
0.0
 40
0.0
 40
0.0
 40
0.0
 40
0.0
 40
1.0
 40
1.0
 40
1.0
 40
1.0
 10
197.041705747445
 20
53.42723228034991
 30
0.0
 10
195.9197939870026
 20
55.43172011802544
 30
0.0
 10
194.6647442178596
 20
57.3760364784525
 30
0.0
 10
193.3261548184613
 20
59.23708169167462
 30
0.0
  0
SPLINE
  5
24E
330
1F
100
AcDbEntity
  8
0
  6
K5LT32771
 62
    30
420
 16744448
100
AcDbSpline
210
0.0
220
0.0
230
1.0
 70
     8
 71
     3
 72
    11
 73
     7
 74
     0
 42
0.0
 43
0.0
 12
1.0
 22
0.0
 32
0.0
 13
1.0
 23
0.0
 33
0.0
 40
0.0
 40
0.0
 40
0.0
 40
0.0
 40
1.0
 40
1.0
 40
1.0
 40
2.0
 40
2.0
 40
2.0
 40
2.0
 10
191.6338311711569
 20
61.49172177017682
 30
0.0
 10
191.3714538616078
 20
61.82716763717646
 30
0.0
 10
191.1068563028551
 20
62.15934990562673
 30
0.0
 10
190.8403657010744
 20
62.48811618436274
 30
0.0
 10
189.6916425682156
 20
63.90528222010428
 30
0.0
 10
188.4798258242853
 20
65.27197897341684
 30
0.0
 10
187.2049154692833
 20
66.58820644430043
 30
0.0
  0
SPLINE
  5
24F
330
1F
100
AcDbEntity
  8
0
  6
K5LT32771
 62
    30
420
 16744448
100
AcDbSpline
210
0.0
220
0.0
230
1.0
 70
     8
 71
     3
 72
     8
 73
     4
 74
     0
 42
0.0
 43
0.0
 12
1.0
 22
0.0
 32
0.0
 13
1.0
 23
0.0
 33
0.0
 40
0.0
 40
0.0
 40
0.0
 40
0.0
 40
1.0
 40
1.0
 40
1.0
 40
1.0
 10
185.2191235881487
 20
68.54937825328973
 30
0.0
 10
183.5349028518125
 20
70.14085721257797
 30
0.0
 10
181.7508348526339
 20
71.65246723390939
 30
0.0
 10
179.866919590613
 20
73.08420831728395
 30
0.0
  0
SPLINE
  5
250
330
1F
100
AcDbEntity
  8
0
  6
K5LT32771
 62
    30
420
 16744448
100
AcDbSpline
210
0.0
220
0.0
230
1.0
 70
     8
 71
     3
 72
    17
 73
    13
 74
     0
 42
0.0
 43
0.0
 12
1.0
 22
0.0
 32
0.0
 13
1.0
 23
0.0
 33
0.0
 40
0.0
 40
0.0
 40
0.0
 40
0.0
 40
1.0
 40
1.0
 40
1.0
 40
2.0
 40
2.0
 40
2.0
 40
3.0
 40
3.0
 40
3.0
 40
4.0
 40
4.0
 40
4.0
 40
4.0
 10
164.8592065574501
 20
85.02122348392815
 30
0.0
 10
165.2797322651826
 20
84.54448020521261
 30
0.0
 10
165.6639935820687
 20
84.04582356534826
 30
0.0
 10
166.0022229125342
 20
83.53448857448515
 30
0.0
 10
166.8902768665475
 20
82.19192889807773
 30
0.0
 10
167.0097803346131
 20
80.28474630132288
 30
0.0
 10
167.9678796632074
 20
79.00493171423821
 30
0.0
 10
168.9818285486003
 20
77.6505141341863
 30
0.0
 10
170.5278195772129
 20
76.5153633839709
 30
0.0
 10
172.0273881700325
 20
75.71459324028527
 30
0.0
 10
173.544649192368
 20
74.90437533316057
 30
0.0
 10
175.2117842184723
 20
74.39719282002352
 30
0.0
 10
177.0287932483455
 20
74.19304570087417
 30
0.0
  0
SPLINE
  5
251
330
1F
100
AcDbEntity
  8
0
  6
K5LT32771
 62
    30
420
 16744448
100
AcDbSpline
210
0.0
220
0.0
230
1.0
 70
     8
 71
     3
 72
    14
 73
    10
 74
     0
 42
0.0
 43
0.0
 12
1.0
 22
0.0
 32
0.0
 13
1.0
 23
0.0
 33
0.0
 40
0.0
 40
0.0
 40
0.0
 40
0.0
 40
1.0
 40
1.0
 40
1.0
 40
2.0
 40
2.0
 40
2.0
 40
3.0
 40
3.0
 40
3.0
 40
3.0
 10
155.5990053107364
 20
89.62348767208273
 30
0.0
 10
156.1409171753983
 20
89.64940740041428
 30
0.0
 10
156.6828873523954
 20
89.63011960825494
 30
0.0
 10
157.1994992029977
 20
89.55965383198344
 30
0.0
 10
158.4193035598055
 20
89.39327270696353
 30
0.0
 10
159.6505182450294
 20
88.84921713004698
 30
0.0
 10
160.746227687908
 20
88.27770377719656
 30
0.0
 10
161.4622605033299
 20
87.90422674115169
 30
0.0
 10
162.1623898896273
 20
87.44926848590404
 30
0.0
 10
162.8246328162091
 20
86.93361340092805
 30
0.0
  0
SPLINE
  5
252
330
1F
100
AcDbEntity
  8
0
  6
K5LT32771
 62
    30
420
 16744448
100
AcDbSpline
210
0.0
220
0.0
230
1.0
 70
     8
 71
     3
 72
    20
 73
    16
 74
     0
 42
0.0
 43
0.0
 12
1.0
 22
0.0
 32
0.0
 13
1.0
 23
0.0
 33
0.0
 40
0.0
 40
0.0
 40
0.0
 40
0.0
 40
1.0
 40
1.0
 40
1.0
 40
2.0
 40
2.0
 40
2.0
 40
3.0
 40
3.0
 40
3.0
 40
4.0
 40
4.0
 40
4.0
 40
5.0
 40
5.0
 40
5.0
 40
5.0
 10
157.7168923011156
 20
83.55863695591685
 30
0.0
 10
157.2393626840789
 20
83.67528296726974
 30
0.0
 10
156.7707111677352
 20
83.70859407076853
 30
0.0
 10
156.3875975016327
 20
83.61995191147095
 30
0.0
 10
155.5763036456458
 20
83.43224041594756
 30
0.0
 10
154.490607505189
 20
82.68688113829108
 30
0.0
 10
154.1228190715092
 20
81.91068517175512
 30
0.0
 10
153.8232541526518
 20
81.27847094085504
 30
0.0
 10
153.7331812563046
 20
80.2672269088878
 30
0.0
 10
153.9946240660305
 20
79.60317507313876
 30
0.0
 10
154.2069937014747
 20
79.06376667853826
 30
0.0
 10
154.7317759294999
 20
78.50257162007154
 30
0.0
 10
155.2338424523245
 20
78.19303001287321
 30
0.0
 10
155.8850502640237
 20
77.7915375741433
 30
0.0
 10
156.6859767841576
 20
77.66007386039811
 30
0.0
 10
157.6366220127261
 20
77.79863887163762
 30
0.0
  0
SPLINE
  5
253
330
1F
100
AcDbEntity
  8
0
  6
K5LT32771
 62
    30
420
 16744448
100
AcDbSpline
210
0.0
220
0.0
230
1.0
 70
     8
 71
     3
 72
    14
 73
    10
 74
     0
 42
0.0
 43
0.0
 12
1.0
 22
0.0
 32
0.0
 13
1.0
 23
0.0
 33
0.0
 40
0.0
 40
0.0
 40
0.0
 40
0.0
 40
1.0
 40
1.0
 40
1.0
 40
2.0
 40
2.0
 40
2.0
 40
3.0
 40
3.0
 40
3.0
 40
3.0
 10
157.7537367238185
 20
73.99639219290114
 30
0.0
 10
158.2008441330358
 20
74.20418518732016
 30
0.0
 10
158.5968744659181
 20
74.46219582375144
 30
0.0
 10
158.9087659427135
 20
74.77449653344155
 30
0.0
 10
159.7182690743477
 20
75.58506181436324
 30
0.0
 10
160.3306586399484
 20
77.00069297739581
 30
0.0
 10
160.5325693454436
 20
78.19303001287321
 30
0.0
 10
160.657545352142
 20
78.93104695440763
 30
0.0
 10
160.7071033242187
 20
79.8575889942065
 30
0.0
 10
160.5885594019275
 20
80.68696985510502
 30
0.0
  0
SPLINE
  5
254
330
1F
100
AcDbEntity
  8
0
  6
K5LT32771
 62
    30
420
 16744448
100
AcDbSpline
210
0.0
220
0.0
230
1.0
 70
     8
 71
     3
 72
     8
 73
     4
 74
     0
 42
0.0
 43
0.0
 12
1.0
 22
0.0
 32
0.0
 13
1.0
 23
0.0
 33
0.0
 40
0.0
 40
0.0
 40
0.0
 40
0.0
 40
1.0
 40
1.0
 40
1.0
 40
1.0
 10
153.2138943237115
 20
73.37591118262291
 30
0.0
 10
153.609801340835
 20
73.32488824865132
 30
0.0
 10
154.0428481748549
 20
73.30270606687118
 30
0.0
 10
154.4910985209392
 20
73.3120666724997
 30
0.0
  0
SPLINE
  5
255
330
1F
100
AcDbEntity
  8
0
  6
K5LT32771
 62
    30
420
 16744448
100
AcDbSpline
210
0.0
220
0.0
230
1.0
 70
     8
 71
     3
 72
    11
 73
     7
 74
     0
 42
0.0
 43
0.0
 12
1.0
 22
0.0
 32
0.0
 13
1.0
 23
0.0
 33
0.0
 40
0.0
 40
0.0
 40
0.0
 40
0.0
 40
1.0
 40
1.0
 40
1.0
 40
2.0
 40
2.0
 40
2.0
 40
2.0
 10
145.1316647331262
 20
78.76604565815512
 30
0.0
 10
145.9237933063004
 20
77.48790454760545
 30
0.0
 10
147.3276921520074
 20
76.46396525565619
 30
0.0
 10
148.6104338359257
 20
75.58639823480657
 30
0.0
 10
149.1614263937173
 20
75.20944556887733
 30
0.0
 10
149.7491868368274
 20
74.81617123322032
 30
0.0
 10
150.3570111882963
 20
74.46599177301525
 30
0.0
  0
SPLINE
  5
256
330
1F
100
AcDbEntity
  8
0
  6
K5LT32771
 62
    30
420
 16744448
100
AcDbSpline
210
0.0
220
0.0
230
1.0
 70
     8
 71
     3
 72
     8
 73
     4
 74
     0
 42
0.0
 43
0.0
 12
1.0
 22
0.0
 32
0.0
 13
1.0
 23
0.0
 33
0.0
 40
0.0
 40
0.0
 40
0.0
 40
0.0
 40
1.0
 40
1.0
 40
1.0
 40
1.0
 10
143.8542892823562
 20
83.94887590855602
 30
0.0
 10
143.8490801387645
 20
83.21236012452238
 30
0.0
 10
143.9176487542135
 20
82.42376022245085
 30
0.0
 10
144.0677940240264
 20
81.6491386746424
 30
0.0
  0
SPLINE
  5
257
330
1F
100
AcDbEntity
  8
0
  6
K5LT32771
 62
    30
420
 16744448
100
AcDbSpline
210
0.0
220
0.0
230
1.0
 70
     8
 71
     3
 72
     8
 73
     4
 74
     0
 42
0.0
 43
0.0
 12
1.0
 22
0.0
 32
0.0
 13
1.0
 23
0.0
 33
0.0
 40
0.0
 40
0.0
 40
0.0
 40
0.0
 40
1.0
 40
1.0
 40
1.0
 40
1.0
 10
172.84642476172
 20
18.48661195663876
 30
0.0
 10
173.5734715793541
 20
18.27544174819793
 30
0.0
 10
174.3425011866683
 20
18.14023411898427
 30
0.0
 10
175.1211414357768
 20
18.03430390256764
 30
0.0
  0
SPLINE
  5
258
330
1F
100
AcDbEntity
  8
0
  6
K5LT32771
 62
    30
420
 16744448
100
AcDbSpline
210
0.0
220
0.0
230
1.0
 70
     8
 71
     3
 72
    11
 73
     7
 74
     0
 42
0.0
 43
0.0
 12
1.0
 22
0.0
 32
0.0
 13
1.0
 23
0.0
 33
0.0
 40
0.0
 40
0.0
 40
0.0
 40
0.0
 40
1.0
 40
1.0
 40
1.0
 40
2.0
 40
2.0
 40
2.0
 40
2.0
 10
178.2519682967193
 20
30.69053110905912
 30
0.0
 10
178.6462122401331
 20
30.45068729519265
 30
0.0
 10
179.0358739334257
 20
30.28249707472753
 30
0.0
 10
179.38548026219
 20
30.21807222661474
 30
0.0
 10
180.3522326909302
 20
30.03992076521412
 30
0.0
 10
181.7513787483329
 20
30.58712350401739
 30
0.0
 10
182.9233033115454
 20
31.40749781324663
 30
0.0
  0
SPLINE
  5
259
330
1F
100
AcDbEntity
  8
0
  6
K5LT32771
 62
    30
420
 16744448
100
AcDbSpline
210
0.0
220
0.0
230
1.0
 70
     8
 71
     3
 72
     8
 73
     4
 74
     0
 42
0.0
 43
0.0
 12
1.0
 22
0.0
 32
0.0
 13
1.0
 23
0.0
 33
0.0
 40
0.0
 40
0.0
 40
0.0
 40
0.0
 40
1.0
 40
1.0
 40
1.0
 40
1.0
 10
184.850702536127
 20
33.42706231447232
 30
0.0
 10
185.4461116749407
 20
34.57788025429677
 30
0.0
 10
185.431927836865
 20
36.35451093215224
 30
0.0
 10
185.3009511068314
 20
37.73951391392441
 30
0.0
  0
LINE
  5
25A
330
1F
100
AcDbEntity
  8
0
  6
K5LT32771
 62
    30
420
 16744448
100
AcDbLine
 10
181.8399108753011
 20
38.22543740820161
 30
0.0
 11
180.9461191588495
 21
37.33164569174992
 31
0.0
  0
LINE
  5
25B
330
1F
100
AcDbEntity
  8
0
  6
K5LT32771
 62
    30
420
 16744448
100
AcDbLine
 10
179.8459688050103
 20
38.43179604558908
 30
0.0
 11
176.183418988693
 21
42.09434586190633
 31
0.0
  0
SPLINE
  5
25C
330
1F
100
AcDbEntity
  8
0
  6
K5LT32771
 62
    30
420
 16744448
100
AcDbSpline
210
0.0
220
0.0
230
1.0
 70
     8
 71
     3
 72
    11
 73
     7
 74
     0
 42
0.0
 43
0.0
 12
1.0
 22
0.0
 32
0.0
 13
1.0
 23
0.0
 33
0.0
 40
0.0
 40
0.0
 40
0.0
 40
0.0
 40
1.0
 40
1.0
 40
1.0
 40
2.0
 40
2.0
 40
2.0
 40
2.0
 10
176.2110794791523
 20
38.11972164563959
 30
0.0
 10
175.3450029383193
 20
37.40712553436547
 30
0.0
 10
175.2085448475327
 20
35.12705778512287
 30
0.0
 10
175.539629945009
 20
33.91008853110846
 30
0.0
 10
175.6545512800437
 20
33.4876722628028
 30
0.0
 10
175.8943686242793
 20
33.03515414810273
 30
0.0
 10
176.2107551571445
 20
32.59628169002625
 30
0.0
  0
SPLINE
  5
25D
330
1F
100
AcDbEntity
  8
0
  6
K5LT32771
 62
    30
420
 16744448
100
AcDbSpline
210
0.0
220
0.0
230
1.0
 70
     8
 71
     3
 72
    11
 73
     7
 74
     0
 42
0.0
 43
0.0
 12
1.0
 22
0.0
 32
0.0
 13
1.0
 23
0.0
 33
0.0
 40
0.0
 40
0.0
 40
0.0
 40
0.0
 40
1.0
 40
1.0
 40
1.0
 40
2.0
 40
2.0
 40
2.0
 40
2.0
 10
177.8422167366033
 20
47.70010733562408
 30
0.0
 10
176.1485651166348
 20
48.57173102538282
 30
0.0
 10
174.3017056184847
 20
49.12952157734811
 30
0.0
 10
172.6680617081805
 20
49.08837778291598
 30
0.0
 10
171.7403675639374
 20
49.06501353754655
 30
0.0
 10
170.7379536612478
 20
48.86301828917974
 30
0.0
 10
169.7452055598803
 20
48.53255929065896
 30
0.0
  0
SPLINE
  5
25E
330
1F
100
AcDbEntity
  8
0
  6
K5LT32771
 62
    30
420
 16744448
100
AcDbSpline
210
0.0
220
0.0
230
1.0
 70
     8
 71
     3
 72
    11
 73
     7
 74
     0
 42
0.0
 43
0.0
 12
1.0
 22
0.0
 32
0.0
 13
1.0
 23
0.0
 33
0.0
 40
0.0
 40
0.0
 40
0.0
 40
0.0
 40
1.0
 40
1.0
 40
1.0
 40
2.0
 40
2.0
 40
2.0
 40
2.0
 10
175.4956810958736
 20
45.35357169243257
 30
0.0
 10
175.074584228369
 20
45.50584271400069
 30
0.0
 10
174.6483725940593
 20
45.62224766906463
 30
0.0
 10
174.2224959411736
 20
45.6921978198915
 30
0.0
 10
173.6688929237997
 20
45.78312699927035
 30
0.0
 10
173.0789485483819
 20
45.8131831019541
 30
0.0
 10
172.4872029347546
 20
45.79056191539353
 30
0.0
  0
LINE
  5
25F
330
1F
100
AcDbEntity
  8
0
  6
K5LT32771
 62
    30
420
 16744448
100
AcDbLine
 10
178.0758212495991
 20
43.98674812281239
 30
0.0
 11
176.183418988693
 21
42.09434586190633
 31
0.0
  0
LINE
  5
260
330
1F
100
AcDbEntity
  8
0
  6
K5LT32771
 62
    30
420
 16744448
100
AcDbLine
 10
175.4956810940656
 20
45.35357169308635
 30
0.0
 11
174.2099371257893
 21
44.06782772481006
 31
0.0
  0
LINE
  5
261
330
1F
100
AcDbEntity
  8
0
  6
K5LT32771
 62
    30
420
 16744448
100
AcDbLine
 10
169.7452055598754
 20
48.53255929072396
 30
0.0
 11
169.4472369556329
 21
48.83052789496645
 31
0.0
  0
SPLINE
  5
262
330
1F
100
AcDbEntity
  8
0
  6
K5LT32771
 62
    30
420
 16744448
100
AcDbSpline
210
0.0
220
0.0
230
1.0
 70
     8
 71
     3
 72
    11
 73
     7
 74
     0
 42
0.0
 43
0.0
 12
1.0
 22
0.0
 32
0.0
 13
1.0
 23
0.0
 33
0.0
 40
0.0
 40
0.0
 40
0.0
 40
0.0
 40
1.0
 40
1.0
 40
1.0
 40
2.0
 40
2.0
 40
2.0
 40
2.0
 10
169.2276206482148
 20
45.10318047656995
 30
0.0
 10
168.1564971559105
 20
44.66521630174321
 30
0.0
 10
167.1271960221079
 20
44.02657647233833
 30
0.0
 10
166.2696582703639
 20
43.31821642561995
 30
0.0
 10
165.4293884519857
 20
42.62412037376463
 30
0.0
 10
164.6467451186003
 20
41.74879389346136
 30
0.0
 10
164.011516578349
 20
40.79388420613006
 30
0.0
  0
SPLINE
  5
263
330
1F
100
AcDbEntity
  8
0
  6
K5LT32771
 62
    30
420
 16744448
100
AcDbSpline
210
0.0
220
0.0
230
1.0
 70
     8
 71
     3
 72
    11
 73
     7
 74
     0
 42
0.0
 43
0.0
 12
1.0
 22
0.0
 32
0.0
 13
1.0
 23
0.0
 33
0.0
 40
0.0
 40
0.0
 40
0.0
 40
0.0
 40
1.0
 40
1.0
 40
1.0
 40
2.0
 40
2.0
 40
2.0
 40
2.0
 10
162.728731047182
 20
38.12970601148968
 30
0.0
 10
162.4130568710296
 20
37.09714108657172
 30
0.0
 10
162.2485812697948
 20
35.97010745753823
 30
0.0
 10
162.2042151326738
 20
34.92025724338433
 30
0.0
 10
162.1677667163865
 20
34.05776661138407
 30
0.0
 10
162.2609289876315
 20
33.17989695473391
 30
0.0
 10
162.4469833914361
 20
32.30487399036024
 30
0.0
  0
SPLINE
  5
264
330
1F
100
AcDbEntity
  8
0
  6
K5LT32771
 62
    30
420
 16744448
100
AcDbSpline
210
0.0
220
0.0
230
1.0
 70
     8
 71
     3
 72
     8
 73
     4
 74
     0
 42
0.0
 43
0.0
 12
1.0
 22
0.0
 32
0.0
 13
1.0
 23
0.0
 33
0.0
 40
0.0
 40
0.0
 40
0.0
 40
0.0
 40
1.0
 40
1.0
 40
1.0
 40
1.0
 10
163.4052654659343
 20
29.31619233871167
 30
0.0
 10
163.7945795518152
 20
28.38116893174784
 30
0.0
 10
164.2458892155895
 20
27.47542764234974
 30
0.0
 10
164.7093049757768
 20
26.62373174259451
 30
0.0
  0
SPLINE
  5
265
330
1F
100
AcDbEntity
  8
0
  6
K5LT32771
 62
    30
420
 16744448
100
AcDbSpline
210
0.0
220
0.0
230
1.0
 70
     8
 71
     3
 72
     8
 73
     4
 74
     0
 42
0.0
 43
0.0
 12
1.0
 22
0.0
 32
0.0
 13
1.0
 23
0.0
 33
0.0
 40
0.0
 40
0.0
 40
0.0
 40
0.0
 40
1.0
 40
1.0
 40
1.0
 40
1.0
 10
148.7218391974295
 20
38.66423377412062
 30
0.0
 10
147.6947041995959
 20
38.7809225362894
 30
0.0
 10
146.6566492510769
 20
38.83449897105885
 30
0.0
 10
145.6076743518724
 20
38.82496307842899
 30
0.0
  0
SPLINE
  5
266
330
1F
100
AcDbEntity
  8
0
  6
K5LT32771
 62
    30
420
 16744448
100
AcDbSpline
210
0.0
220
0.0
230
1.0
 70
     8
 71
     3
 72
    11
 73
     7
 74
     0
 42
0.0
 43
0.0
 12
1.0
 22
0.0
 32
0.0
 13
1.0
 23
0.0
 33
0.0
 40
0.0
 40
0.0
 40
0.0
 40
0.0
 40
1.0
 40
1.0
 40
1.0
 40
2.0
 40
2.0
 40
2.0
 40
2.0
 10
152.5264883671011
 20
45.74377709377202
 30
0.0
 10
153.1880242873372
 20
44.48518521212637
 30
0.0
 10
153.7752731433657
 20
43.18647165112976
 30
0.0
 10
154.3105361941701
 20
41.90945719084485
 30
0.0
 10
154.7380286329514
 20
40.88955860982796
 30
0.0
 10
155.1196657440434
 20
39.84830694374205
 30
0.0
 10
155.4554475274461
 20
38.78570219258711
 30
0.0
  0
SPLINE
  5
267
330
1F
100
AcDbEntity
  8
0
  6
K5LT32771
 62
    30
420
 16744448
100
AcDbSpline
210
0.0
220
0.0
230
1.0
 70
     8
 71
     3
 72
    11
 73
     7
 74
     0
 42
0.0
 43
0.0
 12
1.0
 22
0.0
 32
0.0
 13
1.0
 23
0.0
 33
0.0
 40
0.0
 40
0.0
 40
0.0
 40
0.0
 40
1.0
 40
1.0
 40
1.0
 40
2.0
 40
2.0
 40
2.0
 40
2.0
 10
154.4401211843019
 20
51.60437363678027
 30
0.0
 10
153.8188295303996
 20
52.38477641059481
 30
0.0
 10
153.1261131467873
 20
53.06735858476939
 30
0.0
 10
152.3619720334651
 20
53.65212015930405
 30
0.0
 10
151.5203192527229
 20
54.29619779980487
 30
0.0
 10
150.5920167053785
 20
54.8216032078434
 30
0.0
 10
149.5770643914319
 20
55.22833638341963
 30
0.0
  0
SPLINE
  5
268
330
1F
100
AcDbEntity
  8
0
  6
K5LT32771
 62
    30
420
 16744448
100
AcDbSpline
210
0.0
220
0.0
230
1.0
 70
     8
 71
     3
 72
     8
 73
     4
 74
     0
 42
0.0
 43
0.0
 12
1.0
 22
0.0
 32
0.0
 13
1.0
 23
0.0
 33
0.0
 40
0.0
 40
0.0
 40
0.0
 40
0.0
 40
1.0
 40
1.0
 40
1.0
 40
1.0
 10
162.2422277616314
 20
52.08857336316048
 30
0.0
 10
160.0636175209878
 20
50.51055327897585
 30
0.0
 10
158.4965584206447
 20
48.1088893032995
 30
0.0
 10
157.5410504606021
 20
44.88358143613146
 30
0.0
  0
SPLINE
  5
269
330
1F
100
AcDbEntity
  8
0
  6
K5LT32771
 62
    30
420
 16744448
100
AcDbSpline
210
0.0
220
0.0
230
1.0
 70
     8
 71
     3
 72
     8
 73
     4
 74
     0
 42
0.0
 43
0.0
 12
1.0
 22
0.0
 32
0.0
 13
1.0
 23
0.0
 33
0.0
 40
0.0
 40
0.0
 40
0.0
 40
0.0
 40
1.0
 40
1.0
 40
1.0
 40
1.0
 10
165.7963039526614
 20
52.48146089793803
 30
0.0
 10
166.4159595419557
 20
53.09678927688284
 30
0.0
 10
167.1169273293606
 20
53.67502837951149
 30
0.0
 10
167.8992073148762
 20
54.21617820582394
 30
0.0
  0
LINE
  5
26A
330
1F
100
AcDbEntity
  8
0
  6
K5LT32771
 62
    30
420
 16744448
100
AcDbLine
 10
164.8127580678854
 20
53.46500678271398
 30
0.0
 11
162.5302380619642
 21
55.74752678863512
 31
0.0
  0
LINE
  5
26B
330
1F
100
AcDbEntity
  8
0
  6
K5LT32771
 62
    30
420
 16744448
100
AcDbLine
 10
162.2422277616315
 20
52.08857336316049
 30
0.0
 11
160.5567561990605
 21
53.77404492573142
 31
0.0
  0
SPLINE
  5
26C
330
1F
100
AcDbEntity
  8
0
  6
K5LT32771
 62
    30
420
 16744448
100
AcDbSpline
210
0.0
220
0.0
230
1.0
 70
     8
 71
     3
 72
     8
 73
     4
 74
     0
 42
0.0
 43
0.0
 12
1.0
 22
0.0
 32
0.0
 13
1.0
 23
0.0
 33
0.0
 40
0.0
 40
0.0
 40
0.0
 40
0.0
 40
1.0
 40
1.0
 40
1.0
 40
1.0
 10
144.609018217399
 20
56.24941881978914
 30
0.0
 10
143.576050532481
 20
56.30013217067297
 30
0.0
 10
142.4854448347523
 20
56.27190668625293
 30
0.0
 10
141.337201124213
 20
56.16474236652896
 30
0.0
  0
SPLINE
  5
26D
330
1F
100
AcDbEntity
  8
0
  6
K5LT32771
 62
    30
420
 16744448
100
AcDbSpline
210
0.0
220
0.0
230
1.0
 70
     8
 71
     3
 72
    11
 73
     7
 74
     0
 42
0.0
 43
0.0
 12
1.0
 22
0.0
 32
0.0
 13
1.0
 23
0.0
 33
0.0
 40
0.0
 40
0.0
 40
0.0
 40
0.0
 40
1.0
 40
1.0
 40
1.0
 40
2.0
 40
2.0
 40
2.0
 40
2.0
 10
146.4770589654184
 20
53.16671175820957
 30
0.0
 10
147.1774615372202
 20
52.63004336371282
 30
0.0
 10
147.8400564527657
 20
52.05686143679419
 30
0.0
 10
148.464843712055
 20
51.44716597745364
 30
0.0
 10
149.4368027415688
 20
50.49868471739448
 30
0.0
 10
150.2974239637371
 20
49.4068398082518
 30
0.0
 10
151.0689008881637
 20
48.2331533406421
 30
0.0
  0
SPLINE
  5
26E
330
1F
100
AcDbEntity
  8
0
  6
K5LT32771
 62
    30
420
 16744448
100
AcDbSpline
210
0.0
220
0.0
230
1.0
 70
     8
 71
     3
 72
    11
 73
     7
 74
     0
 42
0.0
 43
0.0
 12
1.0
 22
0.0
 32
0.0
 13
1.0
 23
0.0
 33
0.0
 40
0.0
 40
0.0
 40
0.0
 40
0.0
 40
1.0
 40
1.0
 40
1.0
 40
2.0
 40
2.0
 40
2.0
 40
2.0
 10
96.26166591887412
 20
40.8202808137958
 30
0.0
 10
96.9687691377674
 20
42.3921970050674
 30
0.0
 10
98.01460251584408
 20
43.87000383019429
 30
0.0
 10
99.10598575571973
 20
44.98613744458962
 30
0.0
 10
99.50253749678788
 20
45.39168218073894
 30
0.0
 10
99.9521231149347
 20
45.78891657553633
 30
0.0
 10
100.4405495583284
 20
46.16679751464503
 30
0.0
  0
SPLINE
  5
26F
330
1F
100
AcDbEntity
  8
0
  6
K5LT32771
 62
    30
420
 16744448
100
AcDbSpline
210
0.0
220
0.0
230
1.0
 70
     8
 71
     3
 72
    11
 73
     7
 74
     0
 42
0.0
 43
0.0
 12
1.0
 22
0.0
 32
0.0
 13
1.0
 23
0.0
 33
0.0
 40
0.0
 40
0.0
 40
0.0
 40
0.0
 40
1.0
 40
1.0
 40
1.0
 40
2.0
 40
2.0
 40
2.0
 40
2.0
 10
184.434754280886
 20
40.82028081379578
 30
0.0
 10
183.7276510619927
 20
42.39219700506739
 30
0.0
 10
182.681817683916
 20
43.87000383019428
 30
0.0
 10
181.5904344440404
 20
44.98613744458962
 30
0.0
 10
181.1938827029722
 20
45.39168218073894
 30
0.0
 10
180.7442970848254
 20
45.78891657553633
 30
0.0
 10
180.2558706414317
 20
46.16679751464503
 30
0.0
  0
ENDSEC
  0
SECTION
  2
OBJECTS
  0
DICTIONARY
  5
C
330
0
100
AcDbDictionary
281
     1
  3
ACAD_GROUP
350
D
  3
ACAD_LAYOUT
350
1A
  3
ACAD_MATERIAL
350
3B
  3
ACAD_MLEADERSTYLE
350
2B5
  3
ACAD_MLINESTYLE
350
17
  3
ACAD_PLOTSETTINGS
350
19
  3
ACAD_PLOTSTYLENAME
350
E
  3
ACAD_SCALELIST
350
270
  3
ACAD_TABLESTYLE
350
2B4
  3
ACAD_VISUALSTYLE
350
2A
  3
AcDbVariableDictionary
350
292
  0
DICTIONARY
  5
D
102
{ACAD_REACTORS
330
C
102
}
330
C
100
AcDbDictionary
281
     1
  0
DICTIONARY
  5
1A
102
{ACAD_REACTORS
330
C
102
}
330
C
100
AcDbDictionary
281
     1
  3
Layout1
350
1E
  3
Layout2
350
26
  3
Model
350
22
  0
DICTIONARY
  5
3B
102
{ACAD_REACTORS
330
C
102
}
330
C
100
AcDbDictionary
281
     1
  3
ByBlock
350
3D
  3
ByLayer
350
3C
  3
Global
350
3E
  0
DICTIONARY
  5
2B5
102
{ACAD_REACTORS
330
C
102
}
330
C
100
AcDbDictionary
281
     1
  0
DICTIONARY
  5
17
102
{ACAD_REACTORS
330
C
102
}
330
C
100
AcDbDictionary
281
     1
  3
Standard
350
18
  0
DICTIONARY
  5
19
102
{ACAD_REACTORS
330
C
102
}
330
C
100
AcDbDictionary
281
     1
  0
ACDBDICTIONARYWDFLT
  5
E
102
{ACAD_REACTORS
330
C
102
}
330
C
100
AcDbDictionary
281
     1
  3
Normal
350
F
100
AcDbDictionaryWithDefault
340
F
  0
DICTIONARY
  5
270
102
{ACAD_REACTORS
330
C
102
}
330
C
100
AcDbDictionary
281
     1
  3
A0
350
271
  3
A1
350
272
  3
A2
350
273
  3
A3
350
274
  3
A4
350
275
  3
A5
350
276
  3
A6
350
277
  3
A7
350
278
  3
A8
350
279
  3
A9
350
27A
  3
B0
350
27B
  3
B1
350
27C
  3
B2
350
27D
  3
B3
350
27E
  3
B4
350
27F
  3
B5
350
280
  3
B6
350
281
  3
B7
350
282
  3
B8
350
283
  3
B9
350
284
  3
C0
350
285
  3
C1
350
286
  3
C2
350
287
  3
C3
350
288
  3
C4
350
289
  3
C5
350
28A
  3
C6
350
28B
  3
C7
350
28C
  3
C8
350
28D
  3
C9
350
28E
  3
D0
350
28F
  3
D1
350
290
  3
D2
350
291
  0
DICTIONARY
  5
2B4
102
{ACAD_REACTORS
330
C
102
}
330
C
100
AcDbDictionary
281
     1
  0
DICTIONARY
  5
2A
102
{ACAD_REACTORS
330
C
102
}
330
C
100
AcDbDictionary
281
     1
  3
2dWireframe
350
2F
  3
3D Hidden
350
31
  3
3dWireframe
350
30
  3
Basic
350
32
  3
Brighten
350
36
  3
ColorChange
350
3A
  3
Conceptual
350
34
  3
Dim
350
35
  3
Facepattern
350
39
  3
Flat
350
2B
  3
FlatWithEdges
350
2C
  3
Gouraud
350
2D
  3
GouraudWithEdges
350
2E
  3
Linepattern
350
38
  3
Realistic
350
33
  3
Thicken
350
37
  0
DICTIONARY
  5
292
102
{ACAD_REACTORS
330
C
102
}
330
C
100
AcDbDictionary
281
     1
  3
CANNOSCALE
350
293
  0
LAYOUT
  5
1E
102
{ACAD_REACTORS
330
1A
102
}
330
1A
100
AcDbPlotSettings
  1

  2
none_device
  4

  6

 40
0.0
 41
0.0
 42
0.0
 43
0.0
 44
0.0
 45
0.0
 46
0.0
 47
0.0
 48
0.0
 49
0.0
140
0.0
141
0.0
142
1.0
143
1.0
 70
   688
 72
     0
 73
     0
 74
     5
  7

 75
    16
 76
     0
 77
     2
 78
   300
147
1.0
148
0.0
149
0.0
100
AcDbLayout
  1
Layout1
 70
     1
 71
     1
 10
0.0
 20
0.0
 11
420.0
 21
297.0
 12
0.0
 22
0.0
 32
0.0
 14
1.000000000000000E+20
 24
1.000000000000000E+20
 34
1.000000000000000E+20
 15
-1.000000000000000E+20
 25
-1.000000000000000E+20
 35
-1.000000000000000E+20
146
0.0
 13
0.0
 23
0.0
 33
0.0
 16
1.0
 26
0.0
 36
0.0
 17
0.0
 27
1.0
 37
0.0
 76
     0
330
1B
  0
LAYOUT
  5
26
102
{ACAD_REACTORS
330
1A
102
}
330
1A
100
AcDbPlotSettings
  1

  2
none_device
  4

  6

 40
0.0
 41
0.0
 42
0.0
 43
0.0
 44
0.0
 45
0.0
 46
0.0
 47
0.0
 48
0.0
 49
0.0
140
0.0
141
0.0
142
1.0
143
1.0
 70
   688
 72
     0
 73
     0
 74
     5
  7

 75
    16
 76
     0
 77
     2
 78
   300
147
1.0
148
0.0
149
0.0
100
AcDbLayout
  1
Layout2
 70
     1
 71
     2
 10
0.0
 20
0.0
 11
0.0
 21
0.0
 12
0.0
 22
0.0
 32
0.0
 14
0.0
 24
0.0
 34
0.0
 15
0.0
 25
0.0
 35
0.0
146
0.0
 13
0.0
 23
0.0
 33
0.0
 16
1.0
 26
0.0
 36
0.0
 17
0.0
 27
1.0
 37
0.0
 76
     0
330
23
  0
LAYOUT
  5
22
102
{ACAD_REACTORS
330
1A
102
}
330
1A
100
AcDbPlotSettings
  1

  2
none_device
  4

  6

 40
0.0
 41
0.0
 42
0.0
 43
0.0
 44
0.0
 45
0.0
 46
0.0
 47
0.0
 48
0.0
 49
0.0
140
0.0
141
0.0
142
1.0
143
1.0
 70
  1712
 72
     0
 73
     0
 74
     0
  7

 75
     0
 76
     0
 77
     2
 78
   300
147
1.0
148
0.0
149
0.0
100
AcDbLayout
  1
Model
 70
     1
 71
     0
 10
0.0
 20
0.0
 11
420.0
 21
297.0
 12
0.0
 22
0.0
 32
0.0
 14
1.000000000000000E+20
 24
1.000000000000000E+20
 34
1.000000000000000E+20
 15
-1.000000000000000E+20
 25
-1.000000000000000E+20
 35
-1.000000000000000E+20
146
0.0
 13
0.0
 23
0.0
 33
0.0
 16
1.0
 26
0.0
 36
0.0
 17
0.0
 27
1.0
 37
0.0
 76
     0
330
1F
331
29
  0
MATERIAL
  5
3D
102
{ACAD_REACTORS
330
3B
102
}
330
3B
100
AcDbMaterial
  1
ByBlock
 72
     1
 94
      127
  0
MATERIAL
  5
3C
102
{ACAD_REACTORS
330
3B
102
}
330
3B
100
AcDbMaterial
  1
ByLayer
 72
     1
 94
      127
  0
MATERIAL
  5
3E
102
{ACAD_REACTORS
330
3B
102
}
330
3B
100
AcDbMaterial
  1
Global
 72
     1
 94
      127
  0
MLINESTYLE
  5
18
102
{ACAD_REACTORS
330
17
102
}
330
17
100
AcDbMlineStyle
  2
Standard
 70
     0
  3

 62
   256
 51
90.0
 52
90.0
 71
     2
 49
0.5
 62
   256
  6
BYLAYER
 49
-0.5
 62
   256
  6
BYLAYER
  0
ACDBPLACEHOLDER
  5
F
102
{ACAD_REACTORS
330
E
102
}
330
E
  0
SCALE
  5
271
102
{ACAD_REACTORS
330
270
102
}
330
270
100
AcDbScale
 70
     0
300
1:1
140
1.0
141
1.0
290
     1
  0
SCALE
  5
272
102
{ACAD_REACTORS
330
270
102
}
330
270
100
AcDbScale
 70
     0
300
1:2
140
1.0
141
2.0
290
     0
  0
SCALE
  5
273
102
{ACAD_REACTORS
330
270
102
}
330
270
100
AcDbScale
 70
     0
300
1:4
140
1.0
141
4.0
290
     0
  0
SCALE
  5
274
102
{ACAD_REACTORS
330
270
102
}
330
270
100
AcDbScale
 70
     0
300
1:5
140
1.0
141
5.0
290
     0
  0
SCALE
  5
275
102
{ACAD_REACTORS
330
270
102
}
330
270
100
AcDbScale
 70
     0
300
1:8
140
1.0
141
8.0
290
     0
  0
SCALE
  5
276
102
{ACAD_REACTORS
330
270
102
}
330
270
100
AcDbScale
 70
     0
300
1:10
140
1.0
141
10.0
290
     0
  0
SCALE
  5
277
102
{ACAD_REACTORS
330
270
102
}
330
270
100
AcDbScale
 70
     0
300
1:16
140
1.0
141
16.0
290
     0
  0
SCALE
  5
278
102
{ACAD_REACTORS
330
270
102
}
330
270
100
AcDbScale
 70
     0
300
1:20
140
1.0
141
20.0
290
     0
  0
SCALE
  5
279
102
{ACAD_REACTORS
330
270
102
}
330
270
100
AcDbScale
 70
     0
300
1:30
140
1.0
141
30.0
290
     0
  0
SCALE
  5
27A
102
{ACAD_REACTORS
330
270
102
}
330
270
100
AcDbScale
 70
     0
300
1:40
140
1.0
141
40.0
290
     0
  0
SCALE
  5
27B
102
{ACAD_REACTORS
330
270
102
}
330
270
100
AcDbScale
 70
     0
300
1:50
140
1.0
141
50.0
290
     0
  0
SCALE
  5
27C
102
{ACAD_REACTORS
330
270
102
}
330
270
100
AcDbScale
 70
     0
300
1:100
140
1.0
141
100.0
290
     0
  0
SCALE
  5
27D
102
{ACAD_REACTORS
330
270
102
}
330
270
100
AcDbScale
 70
     0
300
2:1
140
2.0
141
1.0
290
     0
  0
SCALE
  5
27E
102
{ACAD_REACTORS
330
270
102
}
330
270
100
AcDbScale
 70
     0
300
4:1
140
4.0
141
1.0
290
     0
  0
SCALE
  5
27F
102
{ACAD_REACTORS
330
270
102
}
330
270
100
AcDbScale
 70
     0
300
8:1
140
8.0
141
1.0
290
     0
  0
SCALE
  5
280
102
{ACAD_REACTORS
330
270
102
}
330
270
100
AcDbScale
 70
     0
300
10:1
140
10.0
141
1.0
290
     0
  0
SCALE
  5
281
102
{ACAD_REACTORS
330
270
102
}
330
270
100
AcDbScale
 70
     0
300
100:1
140
100.0
141
1.0
290
     0
  0
SCALE
  5
282
102
{ACAD_REACTORS
330
270
102
}
330
270
100
AcDbScale
 70
     0
300
1/128" = 1'-0"
140
0.0078125
141
12.0
290
     0
  0
SCALE
  5
283
102
{ACAD_REACTORS
330
270
102
}
330
270
100
AcDbScale
 70
     0
300
1/64" = 1'-0"
140
0.015625
141
12.0
290
     0
  0
SCALE
  5
284
102
{ACAD_REACTORS
330
270
102
}
330
270
100
AcDbScale
 70
     0
300
1/32" = 1'-0"
140
0.03125
141
12.0
290
     0
  0
SCALE
  5
285
102
{ACAD_REACTORS
330
270
102
}
330
270
100
AcDbScale
 70
     0
300
1/16" = 1'-0"
140
0.0625
141
12.0
290
     0
  0
SCALE
  5
286
102
{ACAD_REACTORS
330
270
102
}
330
270
100
AcDbScale
 70
     0
300
3/32" = 1'-0"
140
0.09375
141
12.0
290
     0
  0
SCALE
  5
287
102
{ACAD_REACTORS
330
270
102
}
330
270
100
AcDbScale
 70
     0
300
1/8" = 1'-0"
140
0.125
141
12.0
290
     0
  0
SCALE
  5
288
102
{ACAD_REACTORS
330
270
102
}
330
270
100
AcDbScale
 70
     0
300
3/16" = 1'-0"
140
0.1875
141
12.0
290
     0
  0
SCALE
  5
289
102
{ACAD_REACTORS
330
270
102
}
330
270
100
AcDbScale
 70
     0
300
1/4" = 1'-0"
140
0.25
141
12.0
290
     0
  0
SCALE
  5
28A
102
{ACAD_REACTORS
330
270
102
}
330
270
100
AcDbScale
 70
     0
300
3/8" = 1'-0"
140
0.375
141
12.0
290
     0
  0
SCALE
  5
28B
102
{ACAD_REACTORS
330
270
102
}
330
270
100
AcDbScale
 70
     0
300
1/2" = 1'-0"
140
0.5
141
12.0
290
     0
  0
SCALE
  5
28C
102
{ACAD_REACTORS
330
270
102
}
330
270
100
AcDbScale
 70
     0
300
3/4" = 1'-0"
140
0.75
141
12.0
290
     0
  0
SCALE
  5
28D
102
{ACAD_REACTORS
330
270
102
}
330
270
100
AcDbScale
 70
     0
300
1" = 1'-0"
140
1.0
141
12.0
290
     0
  0
SCALE
  5
28E
102
{ACAD_REACTORS
330
270
102
}
330
270
100
AcDbScale
 70
     0
300
1-1/2" = 1'-0"
140
1.5
141
12.0
290
     0
  0
SCALE
  5
28F
102
{ACAD_REACTORS
330
270
102
}
330
270
100
AcDbScale
 70
     0
300
3" = 1'-0"
140
3.0
141
12.0
290
     0
  0
SCALE
  5
290
102
{ACAD_REACTORS
330
270
102
}
330
270
100
AcDbScale
 70
     0
300
6" = 1'-0"
140
6.0
141
12.0
290
     0
  0
SCALE
  5
291
102
{ACAD_REACTORS
330
270
102
}
330
270
100
AcDbScale
 70
     0
300
1'-0" = 1'-0"
140
12.0
141
12.0
290
     0
  0
VISUALSTYLE
  5
2F
102
{ACAD_REACTORS
330
2A
102
}
102
{ACAD_XDICTIONARY
360
29C
102
}
330
2A
100
AcDbVisualStyle
  2
2dWireframe
 70
     4
 71
     0
 72
     2
 73
     0
 90
        0
 40
-0.6
 41
-30.0
 62
     5
 63
     7
421
 16777215
 74
     1
 91
        4
 64
     7
 65
   257
 75
     1
175
     1
 42
1.0
 92
        0
 66
   257
 43
1.0
 76
     1
 77
     6
 78
     2
 67
     7
 79
     5
170
     0
171
     0
290
     0
174
     0
 93
        1
 44
0.0
173
     0
291
     0
 45
0.0
  0
VISUALSTYLE
  5
31
102
{ACAD_REACTORS
330
2A
102
}
102
{ACAD_XDICTIONARY
360
2A0
102
}
330
2A
100
AcDbVisualStyle
  2
3D Hidden
 70
     6
 71
     1
 72
     2
 73
     2
 90
        0
 40
-0.6
 41
-30.0
 62
     5
 63
     7
421
 16777215
 74
     2
 91
        2
 64
     7
 65
   257
 75
     2
175
     1
 42
40.0
 92
        0
 66
   257
 43
1.0
 76
     1
 77
     6
 78
     2
 67
     7
 79
     3
170
     0
171
     0
290
     0
174
     0
 93
        1
 44
0.0
173
     0
291
     0
 45
0.0
  0
VISUALSTYLE
  5
30
102
{ACAD_REACTORS
330
2A
102
}
102
{ACAD_XDICTIONARY
360
29E
102
}
330
2A
100
AcDbVisualStyle
  2
3dWireframe
 70
     5
 71
     0
 72
     2
 73
     0
 90
        0
 40
-0.6
 41
-30.0
 62
     5
 63
     7
421
 16777215
 74
     1
 91
        4
 64
     7
 65
   257
 75
     1
175
     1
 42
1.0
 92
        0
 66
   257
 43
1.0
 76
     1
 77
     6
 78
     2
 67
     7
 79
     5
170
     0
171
     0
290
     0
174
     0
 93
        1
 44
0.0
173
     0
291
     0
 45
0.0
  0
VISUALSTYLE
  5
32
102
{ACAD_REACTORS
330
2A
102
}
102
{ACAD_XDICTIONARY
360
2A2
102
}
330
2A
100
AcDbVisualStyle
  2
Basic
 70
     7
 71
     1
 72
     0
 73
     1
 90
        0
 40
-0.6
 41
-30.0
 62
     5
 63
     7
421
 16777215
 74
     0
 91
        4
 64
     7
 65
   257
 75
     1
175
     1
 42
1.0
 92
        8
 66
     7
 43
1.0
 76
     1
 77
     6
 78
     2
 67
     7
 79
     5
170
     0
171
     0
290
     0
174
     0
 93
        1
 44
0.0
173
     0
291
     1
 45
0.0
  0
VISUALSTYLE
  5
36
102
{ACAD_REACTORS
330
2A
102
}
102
{ACAD_XDICTIONARY
360
2AA
102
}
330
2A
100
AcDbVisualStyle
  2
Brighten
 70
    12
 71
     2
 72
     2
 73
     0
 90
        0
 40
-0.6
 41
-30.0
 62
     5
 63
     7
421
 16777215
 74
     1
 91
        4
 64
     7
 65
   257
 75
     1
175
     1
 42
1.0
 92
        8
 66
     7
 43
1.0
 76
     1
 77
     6
 78
     2
 67
     7
 79
     5
170
     0
171
     0
290
     0
174
     0
 93
        1
 44
50.0
173
     0
291
     1
 45
0.0
  0
VISUALSTYLE
  5
3A
102
{ACAD_REACTORS
330
2A
102
}
102
{ACAD_XDICTIONARY
360
2B2
102
}
330
2A
100
AcDbVisualStyle
  2
ColorChange
 70
    16
 71
     2
 72
     2
 73
     3
 90
        0
 40
-0.6
 41
-30.0
 62
     5
 63
     8
421
  8421504
 74
     1
 91
        4
 64
     7
 65
   257
 75
     1
175
     1
 42
1.0
 92
        8
 66
     8
424
  8421504
 43
1.0
 76
     1
 77
     6
 78
     2
 67
     7
 79
     5
170
     0
171
     0
290
     0
174
     0
 93
        1
 44
0.0
173
     0
291
     1
 45
0.0
  0
VISUALSTYLE
  5
34
102
{ACAD_REACTORS
330
2A
102
}
102
{ACAD_XDICTIONARY
360
2A6
102
}
330
2A
100
AcDbVisualStyle
  2
Conceptual
 70
     9
 71
     3
 72
     2
 73
     0
 90
        0
 40
-0.6
 41
-30.0
 62
     5
 63
     7
421
 16777215
 74
     2
 91
        2
 64
     7
 65
   257
 75
     1
175
     1
 42
40.0
 92
        8
 66
     7
 43
1.0
 76
     1
 77
     6
 78
     2
 67
     7
 79
     3
170
     0
171
     0
290
     0
174
     0
 93
        1
 44
0.0
173
     0
291
     0
 45
0.0
  0
VISUALSTYLE
  5
35
102
{ACAD_REACTORS
330
2A
102
}
102
{ACAD_XDICTIONARY
360
2A8
102
}
330
2A
100
AcDbVisualStyle
  2
Dim
 70
    11
 71
     2
 72
     2
 73
     0
 90
        0
 40
-0.6
 41
-30.0
 62
     5
 63
     7
421
 16777215
 74
     1
 91
        4
 64
     7
 65
   257
 75
     1
175
     1
 42
1.0
 92
        8
 66
     7
 43
1.0
 76
     1
 77
     6
 78
     2
 67
     7
 79
     5
170
     0
171
     0
290
     0
174
     0
 93
        1
 44
-50.0
173
     0
291
     1
 45
0.0
  0
VISUALSTYLE
  5
39
102
{ACAD_REACTORS
330
2A
102
}
102
{ACAD_XDICTIONARY
360
2B0
102
}
330
2A
100
AcDbVisualStyle
  2
Facepattern
 70
    15
 71
     2
 72
     2
 73
     0
 90
        0
 40
-0.6
 41
-30.0
 62
     5
 63
     7
421
 16777215
 74
     1
 91
        4
 64
     7
 65
   257
 75
     1
175
     1
 42
1.0
 92
        8
 66
     7
 43
1.0
 76
     1
 77
     6
 78
     2
 67
     7
 79
     5
170
     0
171
     0
290
     0
174
     0
 93
        1
 44
0.0
173
     0
291
     1
 45
0.0
  0
VISUALSTYLE
  5
2B
102
{ACAD_REACTORS
330
2A
102
}
102
{ACAD_XDICTIONARY
360
294
102
}
330
2A
100
AcDbVisualStyle
  2
Flat
 70
     0
 71
     2
 72
     1
 73
     1
 90
        2
 40
-0.6
 41
30.0
 62
     5
 63
     7
421
 16777215
 74
     0
 91
        4
 64
     7
 65
   257
 75
     1
175
     1
 42
1.0
 92
        8
 66
     7
 43
1.0
 76
     1
 77
     6
 78
     2
 67
     7
 79
     5
170
     0
171
     0
290
     0
174
     0
 93
       13
 44
0.0
173
     0
291
     1
 45
0.0
  0
VISUALSTYLE
  5
2C
102
{ACAD_REACTORS
330
2A
102
}
102
{ACAD_XDICTIONARY
360
296
102
}
330
2A
100
AcDbVisualStyle
  2
FlatWithEdges
 70
     1
 71
     2
 72
     1
 73
     1
 90
        2
 40
-0.6
 41
30.0
 62
     5
 63
     7
421
 16777215
 74
     1
 91
        4
 64
     7
 65
   257
 75
     1
175
     1
 42
1.0
 92
        0
 66
   257
 43
1.0
 76
     1
 77
     6
 78
     2
 67
     7
 79
     5
170
     0
171
     0
290
     0
174
     0
 93
       13
 44
0.0
173
     0
291
     1
 45
0.0
  0
VISUALSTYLE
  5
2D
102
{ACAD_REACTORS
330
2A
102
}
102
{ACAD_XDICTIONARY
360
298
102
}
330
2A
100
AcDbVisualStyle
  2
Gouraud
 70
     2
 71
     2
 72
     2
 73
     1
 90
        2
 40
-0.6
 41
30.0
 62
     5
 63
     7
421
 16777215
 74
     0
 91
        4
 64
     7
 65
   257
 75
     1
175
     1
 42
1.0
 92
        0
 66
     7
 43
1.0
 76
     1
 77
     6
 78
     2
 67
     7
 79
     5
170
     0
171
     0
290
     0
174
     0
 93
       13
 44
0.0
173
     0
291
     1
 45
0.0
  0
VISUALSTYLE
  5
2E
102
{ACAD_REACTORS
330
2A
102
}
102
{ACAD_XDICTIONARY
360
29A
102
}
330
2A
100
AcDbVisualStyle
  2
GouraudWithEdges
 70
     3
 71
     2
 72
     2
 73
     1
 90
        2
 40
-0.6
 41
30.0
 62
     5
 63
     7
421
 16777215
 74
     1
 91
        4
 64
     7
 65
   257
 75
     1
175
     1
 42
1.0
 92
        0
 66
   257
 43
1.0
 76
     1
 77
     6
 78
     2
 67
     7
 79
     5
170
     0
171
     0
290
     0
174
     0
 93
       13
 44
0.0
173
     0
291
     1
 45
0.0
  0
VISUALSTYLE
  5
38
102
{ACAD_REACTORS
330
2A
102
}
102
{ACAD_XDICTIONARY
360
2AE
102
}
330
2A
100
AcDbVisualStyle
  2
Linepattern
 70
    14
 71
     2
 72
     2
 73
     0
 90
        0
 40
-0.6
 41
-30.0
 62
     5
 63
     7
421
 16777215
 74
     1
 91
        4
 64
     7
 65
   257
 75
     7
175
     7
 42
1.0
 92
        8
 66
     7
 43
1.0
 76
     1
 77
     6
 78
     2
 67
     7
 79
     5
170
     0
171
     0
290
     0
174
     0
 93
        1
 44
0.0
173
     0
291
     1
 45
0.0
  0
VISUALSTYLE
  5
33
102
{ACAD_REACTORS
330
2A
102
}
102
{ACAD_XDICTIONARY
360
2A4
102
}
330
2A
100
AcDbVisualStyle
  2
Realistic
 70
     8
 71
     2
 72
     2
 73
     0
 90
        0
 40
-0.6
 41
-30.0
 62
     5
 63
     7
421
 16777215
 74
     1
 91
        0
 64
     7
 65
   257
 75
     1
175
     1
 42
1.0
 92
        8
 66
     8
424
  7895160
 43
1.0
 76
     1
 77
     6
 78
     2
 67
     7
 79
     5
170
     0
171
     0
290
     0
174
     0
 93
       13
 44
0.0
173
     0
291
     0
 45
0.0
  0
VISUALSTYLE
  5
37
102
{ACAD_REACTORS
330
2A
102
}
102
{ACAD_XDICTIONARY
360
2AC
102
}
330
2A
100
AcDbVisualStyle
  2
Thicken
 70
    13
 71
     2
 72
     2
 73
     0
 90
        0
 40
-0.6
 41
-30.0
 62
     5
 63
     7
421
 16777215
 74
     1
 91
        4
 64
     7
 65
   257
 75
     1
175
     1
 42
1.0
 92
       12
 66
     7
 43
1.0
 76
     1
 77
     6
 78
     2
 67
     7
 79
     5
170
     0
171
     0
290
     0
174
     0
 93
        1
 44
0.0
173
     0
291
     1
 45
0.0
  0
DICTIONARYVAR
  5
293
102
{ACAD_REACTORS
330
292
102
}
330
292
100
DictionaryVariables
280
     0
  1
1:1
  0
DICTIONARY
  5
29C
330
2F
100
AcDbDictionary
280
     1
281
     1
  3
ACAD_XREC_ROUNDTRIP
360
29D
  0
DICTIONARY
  5
2A0
330
31
100
AcDbDictionary
280
     1
281
     1
  3
ACAD_XREC_ROUNDTRIP
360
2A1
  0
DICTIONARY
  5
29E
330
30
100
AcDbDictionary
280
     1
281
     1
  3
ACAD_XREC_ROUNDTRIP
360
29F
  0
DICTIONARY
  5
2A2
330
32
100
AcDbDictionary
280
     1
281
     1
  3
ACAD_XREC_ROUNDTRIP
360
2A3
  0
DICTIONARY
  5
2AA
330
36
100
AcDbDictionary
280
     1
281
     1
  3
ACAD_XREC_ROUNDTRIP
360
2AB
  0
DICTIONARY
  5
2B2
330
3A
100
AcDbDictionary
280
     1
281
     1
  3
ACAD_XREC_ROUNDTRIP
360
2B3
  0
DICTIONARY
  5
2A6
330
34
100
AcDbDictionary
280
     1
281
     1
  3
ACAD_XREC_ROUNDTRIP
360
2A7
  0
DICTIONARY
  5
2A8
330
35
100
AcDbDictionary
280
     1
281
     1
  3
ACAD_XREC_ROUNDTRIP
360
2A9
  0
DICTIONARY
  5
2B0
330
39
100
AcDbDictionary
280
     1
281
     1
  3
ACAD_XREC_ROUNDTRIP
360
2B1
  0
DICTIONARY
  5
294
330
2B
100
AcDbDictionary
280
     1
281
     1
  3
ACAD_XREC_ROUNDTRIP
360
295
  0
DICTIONARY
  5
296
330
2C
100
AcDbDictionary
280
     1
281
     1
  3
ACAD_XREC_ROUNDTRIP
360
297
  0
DICTIONARY
  5
298
330
2D
100
AcDbDictionary
280
     1
281
     1
  3
ACAD_XREC_ROUNDTRIP
360
299
  0
DICTIONARY
  5
29A
330
2E
100
AcDbDictionary
280
     1
281
     1
  3
ACAD_XREC_ROUNDTRIP
360
29B
  0
DICTIONARY
  5
2AE
330
38
100
AcDbDictionary
280
     1
281
     1
  3
ACAD_XREC_ROUNDTRIP
360
2AF
  0
DICTIONARY
  5
2A4
330
33
100
AcDbDictionary
280
     1
281
     1
  3
ACAD_XREC_ROUNDTRIP
360
2A5
  0
DICTIONARY
  5
2AC
330
37
100
AcDbDictionary
280
     1
281
     1
  3
ACAD_XREC_ROUNDTRIP
360
2AD
  0
XRECORD
  5
29D
102
{ACAD_REACTORS
330
29C
102
}
330
29C
100
AcDbXrecord
280
     1
102
RTVSPropertyOp0
 70
     1
102
RTVSPropertyOp1
 70
     1
102
RTVSPropertyOp2
 70
     1
102
RTVSPropertyOp3
 70
     1
102
RTVSPropertyOp4
 70
     1
102
RTVSPropertyOp5
 70
     1
102
RTVSPropertyOp6
 70
     1
102
RTVSPropertyOp7
 70
     1
102
RTVSPropertyOp8
 70
     1
102
RTVSPropertyOp9
 70
     1
102
RTVSPropertyOp10
 70
     1
102
RTVSPropertyOp11
 70
     1
102
RTVSPropertyOp12
 70
     1
102
RTVSPropertyOp13
 70
     1
102
RTVSPropertyOp14
 70
     1
102
RTVSPropertyOp15
 70
     1
102
RTVSPropertyOp16
 70
     1
102
RTVSPropertyOp17
 70
     1
102
RTVSPropertyOp18
 70
     1
102
RTVSPropertyOp19
 70
     1
102
RTVSPropertyOp20
 70
     1
102
RTVSPropertyOp21
 70
     1
102
RTVSPropertyOp22
 70
     1
102
RTVSPropertyOp23
 70
     1
102
RTVSPropertyOp24
 70
     1
102
RTVSPropertyOp25
 70
     1
102
RTVSPropertyOp26
 70
     1
102
RTVSPropertyOp27
 70
     1
102
RTVSPropertyOp28
 70
     1
102
RTVSPropertyOp29
 70
     1
102
RTVSPropertyOp30
 70
     1
102
RTVSPropertyOp31
 70
     1
102
RTVSPropertyOp32
 70
     1
  0
XRECORD
  5
2A1
102
{ACAD_REACTORS
330
2A0
102
}
330
2A0
100
AcDbXrecord
280
     1
102
RTVSPropertyOp0
 70
     1
102
RTVSPropertyOp1
 70
     1
102
RTVSPropertyOp2
 70
     1
102
RTVSPropertyOp3
 70
     1
102
RTVSPropertyOp4
 70
     1
102
RTVSPropertyOp5
 70
     1
102
RTVSPropertyOp6
 70
     1
102
RTVSPropertyOp7
 70
     1
102
RTVSPropertyOp8
 70
     1
102
RTVSPropertyOp9
 70
     1
102
RTVSPropertyOp10
 70
     1
102
RTVSPropertyOp11
 70
     1
102
RTVSPropertyOp12
 70
     1
102
RTVSPropertyOp13
 70
     1
102
RTVSPropertyOp14
 70
     1
102
RTVSPropertyOp15
 70
     1
102
RTVSPropertyOp16
 70
     1
102
RTVSPropertyOp17
 70
     1
102
RTVSPropertyOp18
 70
     1
102
RTVSPropertyOp19
 70
     1
102
RTVSPropertyOp20
 70
     1
102
RTVSPropertyOp21
 70
     1
102
RTVSPropertyOp22
 70
     1
102
RTVSPropertyOp23
 70
     1
102
RTVSPropertyOp24
 70
     1
102
RTVSPropertyOp25
 70
     1
102
RTVSPropertyOp26
 70
     1
102
RTVSPropertyOp27
 70
     1
102
RTVSPropertyOp28
 70
     1
102
RTVSPropertyOp29
 70
     1
102
RTVSPropertyOp30
 70
     1
102
RTVSPropertyOp31
 70
     1
102
RTVSPropertyOp32
 70
     1
  0
XRECORD
  5
29F
102
{ACAD_REACTORS
330
29E
102
}
330
29E
100
AcDbXrecord
280
     1
102
RTVSPropertyOp0
 70
     1
102
RTVSPropertyOp1
 70
     1
102
RTVSPropertyOp2
 70
     1
102
RTVSPropertyOp3
 70
     1
102
RTVSPropertyOp4
 70
     1
102
RTVSPropertyOp5
 70
     1
102
RTVSPropertyOp6
 70
     1
102
RTVSPropertyOp7
 70
     1
102
RTVSPropertyOp8
 70
     1
102
RTVSPropertyOp9
 70
     1
102
RTVSPropertyOp10
 70
     1
102
RTVSPropertyOp11
 70
     1
102
RTVSPropertyOp12
 70
     1
102
RTVSPropertyOp13
 70
     1
102
RTVSPropertyOp14
 70
     1
102
RTVSPropertyOp15
 70
     1
102
RTVSPropertyOp16
 70
     1
102
RTVSPropertyOp17
 70
     1
102
RTVSPropertyOp18
 70
     1
102
RTVSPropertyOp19
 70
     1
102
RTVSPropertyOp20
 70
     1
102
RTVSPropertyOp21
 70
     1
102
RTVSPropertyOp22
 70
     1
102
RTVSPropertyOp23
 70
     1
102
RTVSPropertyOp24
 70
     1
102
RTVSPropertyOp25
 70
     1
102
RTVSPropertyOp26
 70
     1
102
RTVSPropertyOp27
 70
     1
102
RTVSPropertyOp28
 70
     1
102
RTVSPropertyOp29
 70
     1
102
RTVSPropertyOp30
 70
     1
102
RTVSPropertyOp31
 70
     1
102
RTVSPropertyOp32
 70
     1
  0
XRECORD
  5
2A3
102
{ACAD_REACTORS
330
2A2
102
}
330
2A2
100
AcDbXrecord
280
     1
102
RTVSPropertyOp0
 70
     1
102
RTVSPropertyOp1
 70
     1
102
RTVSPropertyOp2
 70
     1
102
RTVSPropertyOp3
 70
     1
102
RTVSPropertyOp4
 70
     1
102
RTVSPropertyOp5
 70
     1
102
RTVSPropertyOp6
 70
     1
102
RTVSPropertyOp7
 70
     1
102
RTVSPropertyOp8
 70
     1
102
RTVSPropertyOp9
 70
     1
102
RTVSPropertyOp10
 70
     1
102
RTVSPropertyOp11
 70
     1
102
RTVSPropertyOp12
 70
     1
102
RTVSPropertyOp13
 70
     1
102
RTVSPropertyOp14
 70
     1
102
RTVSPropertyOp15
 70
     1
102
RTVSPropertyOp16
 70
     1
102
RTVSPropertyOp17
 70
     1
102
RTVSPropertyOp18
 70
     1
102
RTVSPropertyOp19
 70
     1
102
RTVSPropertyOp20
 70
     1
102
RTVSPropertyOp21
 70
     1
102
RTVSPropertyOp22
 70
     1
102
RTVSPropertyOp23
 70
     1
102
RTVSPropertyOp24
 70
     1
102
RTVSPropertyOp25
 70
     1
102
RTVSPropertyOp26
 70
     1
102
RTVSPropertyOp27
 70
     1
102
RTVSPropertyOp28
 70
     1
102
RTVSPropertyOp29
 70
     1
102
RTVSPropertyOp30
 70
     1
102
RTVSPropertyOp31
 70
     1
102
RTVSPropertyOp32
 70
     1
  0
XRECORD
  5
2AB
102
{ACAD_REACTORS
330
2AA
102
}
330
2AA
100
AcDbXrecord
280
     1
102
RTVSPropertyOp0
 70
     1
102
RTVSPropertyOp1
 70
     1
102
RTVSPropertyOp2
 70
     1
102
RTVSPropertyOp3
 70
     1
102
RTVSPropertyOp4
 70
     1
102
RTVSPropertyOp5
 70
     1
102
RTVSPropertyOp6
 70
     1
102
RTVSPropertyOp7
 70
     1
102
RTVSPropertyOp8
 70
     1
102
RTVSPropertyOp9
 70
     1
102
RTVSPropertyOp10
 70
     1
102
RTVSPropertyOp11
 70
     1
102
RTVSPropertyOp12
 70
     1
102
RTVSPropertyOp13
 70
     1
102
RTVSPropertyOp14
 70
     1
102
RTVSPropertyOp15
 70
     1
102
RTVSPropertyOp16
 70
     1
102
RTVSPropertyOp17
 70
     1
102
RTVSPropertyOp18
 70
     1
102
RTVSPropertyOp19
 70
     1
102
RTVSPropertyOp20
 70
     1
102
RTVSPropertyOp21
 70
     1
102
RTVSPropertyOp22
 70
     1
102
RTVSPropertyOp23
 70
     1
102
RTVSPropertyOp24
 70
     1
102
RTVSPropertyOp25
 70
     1
102
RTVSPropertyOp26
 70
     1
102
RTVSPropertyOp27
 70
     1
102
RTVSPropertyOp28
 70
     1
102
RTVSPropertyOp29
 70
     1
102
RTVSPropertyOp30
 70
     1
102
RTVSPropertyOp31
 70
     1
102
RTVSPropertyOp32
 70
     1
  0
XRECORD
  5
2B3
102
{ACAD_REACTORS
330
2B2
102
}
330
2B2
100
AcDbXrecord
280
     1
102
RTVSPropertyOp0
 70
     1
102
RTVSPropertyOp1
 70
     1
102
RTVSPropertyOp2
 70
     1
102
RTVSPropertyOp3
 70
     1
102
RTVSPropertyOp4
 70
     1
102
RTVSPropertyOp5
 70
     1
102
RTVSPropertyOp6
 70
     1
102
RTVSPropertyOp7
 70
     1
102
RTVSPropertyOp8
 70
     1
102
RTVSPropertyOp9
 70
     1
102
RTVSPropertyOp10
 70
     1
102
RTVSPropertyOp11
 70
     1
102
RTVSPropertyOp12
 70
     1
102
RTVSPropertyOp13
 70
     1
102
RTVSPropertyOp14
 70
     1
102
RTVSPropertyOp15
 70
     1
102
RTVSPropertyOp16
 70
     1
102
RTVSPropertyOp17
 70
     1
102
RTVSPropertyOp18
 70
     1
102
RTVSPropertyOp19
 70
     1
102
RTVSPropertyOp20
 70
     1
102
RTVSPropertyOp21
 70
     1
102
RTVSPropertyOp22
 70
     1
102
RTVSPropertyOp23
 70
     1
102
RTVSPropertyOp24
 70
     1
102
RTVSPropertyOp25
 70
     1
102
RTVSPropertyOp26
 70
     1
102
RTVSPropertyOp27
 70
     1
102
RTVSPropertyOp28
 70
     1
102
RTVSPropertyOp29
 70
     1
102
RTVSPropertyOp30
 70
     1
102
RTVSPropertyOp31
 70
     1
102
RTVSPropertyOp32
 70
     1
  0
XRECORD
  5
2A7
102
{ACAD_REACTORS
330
2A6
102
}
330
2A6
100
AcDbXrecord
280
     1
102
RTVSPropertyOp0
 70
     1
102
RTVSPropertyOp1
 70
     1
102
RTVSPropertyOp2
 70
     1
102
RTVSPropertyOp3
 70
     1
102
RTVSPropertyOp4
 70
     1
102
RTVSPropertyOp5
 70
     1
102
RTVSPropertyOp6
 70
     1
102
RTVSPropertyOp7
 70
     1
102
RTVSPropertyOp8
 70
     1
102
RTVSPropertyOp9
 70
     1
102
RTVSPropertyOp10
 70
     1
102
RTVSPropertyOp11
 70
     1
102
RTVSPropertyOp12
 70
     1
102
RTVSPropertyOp13
 70
     1
102
RTVSPropertyOp14
 70
     1
102
RTVSPropertyOp15
 70
     1
102
RTVSPropertyOp16
 70
     1
102
RTVSPropertyOp17
 70
     1
102
RTVSPropertyOp18
 70
     1
102
RTVSPropertyOp19
 70
     1
102
RTVSPropertyOp20
 70
     1
102
RTVSPropertyOp21
 70
     1
102
RTVSPropertyOp22
 70
     1
102
RTVSPropertyOp23
 70
     1
102
RTVSPropertyOp24
 70
     1
102
RTVSPropertyOp25
 70
     1
102
RTVSPropertyOp26
 70
     1
102
RTVSPropertyOp27
 70
     1
102
RTVSPropertyOp28
 70
     1
102
RTVSPropertyOp29
 70
     1
102
RTVSPropertyOp30
 70
     1
102
RTVSPropertyOp31
 70
     1
102
RTVSPropertyOp32
 70
     1
  0
XRECORD
  5
2A9
102
{ACAD_REACTORS
330
2A8
102
}
330
2A8
100
AcDbXrecord
280
     1
102
RTVSPropertyOp0
 70
     1
102
RTVSPropertyOp1
 70
     1
102
RTVSPropertyOp2
 70
     1
102
RTVSPropertyOp3
 70
     1
102
RTVSPropertyOp4
 70
     1
102
RTVSPropertyOp5
 70
     1
102
RTVSPropertyOp6
 70
     1
102
RTVSPropertyOp7
 70
     1
102
RTVSPropertyOp8
 70
     1
102
RTVSPropertyOp9
 70
     1
102
RTVSPropertyOp10
 70
     1
102
RTVSPropertyOp11
 70
     1
102
RTVSPropertyOp12
 70
     1
102
RTVSPropertyOp13
 70
     1
102
RTVSPropertyOp14
 70
     1
102
RTVSPropertyOp15
 70
     1
102
RTVSPropertyOp16
 70
     1
102
RTVSPropertyOp17
 70
     1
102
RTVSPropertyOp18
 70
     1
102
RTVSPropertyOp19
 70
     1
102
RTVSPropertyOp20
 70
     1
102
RTVSPropertyOp21
 70
     1
102
RTVSPropertyOp22
 70
     1
102
RTVSPropertyOp23
 70
     1
102
RTVSPropertyOp24
 70
     1
102
RTVSPropertyOp25
 70
     1
102
RTVSPropertyOp26
 70
     1
102
RTVSPropertyOp27
 70
     1
102
RTVSPropertyOp28
 70
     1
102
RTVSPropertyOp29
 70
     1
102
RTVSPropertyOp30
 70
     1
102
RTVSPropertyOp31
 70
     1
102
RTVSPropertyOp32
 70
     1
  0
XRECORD
  5
2B1
102
{ACAD_REACTORS
330
2B0
102
}
330
2B0
100
AcDbXrecord
280
     1
102
RTVSPropertyOp0
 70
     1
102
RTVSPropertyOp1
 70
     1
102
RTVSPropertyOp2
 70
     1
102
RTVSPropertyOp3
 70
     1
102
RTVSPropertyOp4
 70
     1
102
RTVSPropertyOp5
 70
     1
102
RTVSPropertyOp6
 70
     1
102
RTVSPropertyOp7
 70
     1
102
RTVSPropertyOp8
 70
     1
102
RTVSPropertyOp9
 70
     1
102
RTVSPropertyOp10
 70
     1
102
RTVSPropertyOp11
 70
     1
102
RTVSPropertyOp12
 70
     1
102
RTVSPropertyOp13
 70
     1
102
RTVSPropertyOp14
 70
     1
102
RTVSPropertyOp15
 70
     1
102
RTVSPropertyOp16
 70
     1
102
RTVSPropertyOp17
 70
     1
102
RTVSPropertyOp18
 70
     1
102
RTVSPropertyOp19
 70
     1
102
RTVSPropertyOp20
 70
     1
102
RTVSPropertyOp21
 70
     1
102
RTVSPropertyOp22
 70
     1
102
RTVSPropertyOp23
 70
     1
102
RTVSPropertyOp24
 70
     1
102
RTVSPropertyOp25
 70
     1
102
RTVSPropertyOp26
 70
     1
102
RTVSPropertyOp27
 70
     1
102
RTVSPropertyOp28
 70
     1
102
RTVSPropertyOp29
 70
     1
102
RTVSPropertyOp30
 70
     1
102
RTVSPropertyOp31
 70
     1
102
RTVSPropertyOp32
 70
     1
  0
XRECORD
  5
295
102
{ACAD_REACTORS
330
294
102
}
330
294
100
AcDbXrecord
280
     1
102
RTVSPropertyOp0
 70
     1
102
RTVSPropertyOp1
 70
     1
102
RTVSPropertyOp2
 70
     1
102
RTVSPropertyOp3
 70
     1
102
RTVSPropertyOp4
 70
     1
102
RTVSPropertyOp5
 70
     1
102
RTVSPropertyOp6
 70
     1
102
RTVSPropertyOp7
 70
     1
102
RTVSPropertyOp8
 70
     1
102
RTVSPropertyOp9
 70
     1
102
RTVSPropertyOp10
 70
     1
102
RTVSPropertyOp11
 70
     1
102
RTVSPropertyOp12
 70
     1
102
RTVSPropertyOp13
 70
     1
102
RTVSPropertyOp14
 70
     1
102
RTVSPropertyOp15
 70
     1
102
RTVSPropertyOp16
 70
     1
102
RTVSPropertyOp17
 70
     1
102
RTVSPropertyOp18
 70
     1
102
RTVSPropertyOp19
 70
     1
102
RTVSPropertyOp20
 70
     1
102
RTVSPropertyOp21
 70
     1
102
RTVSPropertyOp22
 70
     1
102
RTVSPropertyOp23
 70
     1
102
RTVSPropertyOp24
 70
     1
102
RTVSPropertyOp25
 70
     1
102
RTVSPropertyOp26
 70
     1
102
RTVSPropertyOp27
 70
     1
102
RTVSPropertyOp28
 70
     1
102
RTVSPropertyOp29
 70
     1
102
RTVSPropertyOp30
 70
     1
102
RTVSPropertyOp31
 70
     1
102
RTVSPropertyOp32
 70
     1
  0
XRECORD
  5
297
102
{ACAD_REACTORS
330
296
102
}
330
296
100
AcDbXrecord
280
     1
102
RTVSPropertyOp0
 70
     1
102
RTVSPropertyOp1
 70
     1
102
RTVSPropertyOp2
 70
     1
102
RTVSPropertyOp3
 70
     1
102
RTVSPropertyOp4
 70
     1
102
RTVSPropertyOp5
 70
     1
102
RTVSPropertyOp6
 70
     1
102
RTVSPropertyOp7
 70
     1
102
RTVSPropertyOp8
 70
     1
102
RTVSPropertyOp9
 70
     1
102
RTVSPropertyOp10
 70
     1
102
RTVSPropertyOp11
 70
     1
102
RTVSPropertyOp12
 70
     1
102
RTVSPropertyOp13
 70
     1
102
RTVSPropertyOp14
 70
     1
102
RTVSPropertyOp15
 70
     1
102
RTVSPropertyOp16
 70
     1
102
RTVSPropertyOp17
 70
     1
102
RTVSPropertyOp18
 70
     1
102
RTVSPropertyOp19
 70
     1
102
RTVSPropertyOp20
 70
     1
102
RTVSPropertyOp21
 70
     1
102
RTVSPropertyOp22
 70
     1
102
RTVSPropertyOp23
 70
     1
102
RTVSPropertyOp24
 70
     1
102
RTVSPropertyOp25
 70
     1
102
RTVSPropertyOp26
 70
     1
102
RTVSPropertyOp27
 70
     1
102
RTVSPropertyOp28
 70
     1
102
RTVSPropertyOp29
 70
     1
102
RTVSPropertyOp30
 70
     1
102
RTVSPropertyOp31
 70
     1
102
RTVSPropertyOp32
 70
     1
  0
XRECORD
  5
299
102
{ACAD_REACTORS
330
298
102
}
330
298
100
AcDbXrecord
280
     1
102
RTVSPropertyOp0
 70
     1
102
RTVSPropertyOp1
 70
     1
102
RTVSPropertyOp2
 70
     1
102
RTVSPropertyOp3
 70
     1
102
RTVSPropertyOp4
 70
     1
102
RTVSPropertyOp5
 70
     1
102
RTVSPropertyOp6
 70
     1
102
RTVSPropertyOp7
 70
     1
102
RTVSPropertyOp8
 70
     1
102
RTVSPropertyOp9
 70
     1
102
RTVSPropertyOp10
 70
     1
102
RTVSPropertyOp11
 70
     1
102
RTVSPropertyOp12
 70
     1
102
RTVSPropertyOp13
 70
     1
102
RTVSPropertyOp14
 70
     1
102
RTVSPropertyOp15
 70
     1
102
RTVSPropertyOp16
 70
     1
102
RTVSPropertyOp17
 70
     1
102
RTVSPropertyOp18
 70
     1
102
RTVSPropertyOp19
 70
     1
102
RTVSPropertyOp20
 70
     1
102
RTVSPropertyOp21
 70
     1
102
RTVSPropertyOp22
 70
     1
102
RTVSPropertyOp23
 70
     1
102
RTVSPropertyOp24
 70
     1
102
RTVSPropertyOp25
 70
     1
102
RTVSPropertyOp26
 70
     1
102
RTVSPropertyOp27
 70
     1
102
RTVSPropertyOp28
 70
     1
102
RTVSPropertyOp29
 70
     1
102
RTVSPropertyOp30
 70
     1
102
RTVSPropertyOp31
 70
     1
102
RTVSPropertyOp32
 70
     1
  0
XRECORD
  5
29B
102
{ACAD_REACTORS
330
29A
102
}
330
29A
100
AcDbXrecord
280
     1
102
RTVSPropertyOp0
 70
     1
102
RTVSPropertyOp1
 70
     1
102
RTVSPropertyOp2
 70
     1
102
RTVSPropertyOp3
 70
     1
102
RTVSPropertyOp4
 70
     1
102
RTVSPropertyOp5
 70
     1
102
RTVSPropertyOp6
 70
     1
102
RTVSPropertyOp7
 70
     1
102
RTVSPropertyOp8
 70
     1
102
RTVSPropertyOp9
 70
     1
102
RTVSPropertyOp10
 70
     1
102
RTVSPropertyOp11
 70
     1
102
RTVSPropertyOp12
 70
     1
102
RTVSPropertyOp13
 70
     1
102
RTVSPropertyOp14
 70
     1
102
RTVSPropertyOp15
 70
     1
102
RTVSPropertyOp16
 70
     1
102
RTVSPropertyOp17
 70
     1
102
RTVSPropertyOp18
 70
     1
102
RTVSPropertyOp19
 70
     1
102
RTVSPropertyOp20
 70
     1
102
RTVSPropertyOp21
 70
     1
102
RTVSPropertyOp22
 70
     1
102
RTVSPropertyOp23
 70
     1
102
RTVSPropertyOp24
 70
     1
102
RTVSPropertyOp25
 70
     1
102
RTVSPropertyOp26
 70
     1
102
RTVSPropertyOp27
 70
     1
102
RTVSPropertyOp28
 70
     1
102
RTVSPropertyOp29
 70
     1
102
RTVSPropertyOp30
 70
     1
102
RTVSPropertyOp31
 70
     1
102
RTVSPropertyOp32
 70
     1
  0
XRECORD
  5
2AF
102
{ACAD_REACTORS
330
2AE
102
}
330
2AE
100
AcDbXrecord
280
     1
102
RTVSPropertyOp0
 70
     1
102
RTVSPropertyOp1
 70
     1
102
RTVSPropertyOp2
 70
     1
102
RTVSPropertyOp3
 70
     1
102
RTVSPropertyOp4
 70
     1
102
RTVSPropertyOp5
 70
     1
102
RTVSPropertyOp6
 70
     1
102
RTVSPropertyOp7
 70
     1
102
RTVSPropertyOp8
 70
     1
102
RTVSPropertyOp9
 70
     1
102
RTVSPropertyOp10
 70
     1
102
RTVSPropertyOp11
 70
     1
102
RTVSPropertyOp12
 70
     1
102
RTVSPropertyOp13
 70
     1
102
RTVSPropertyOp14
 70
     1
102
RTVSPropertyOp15
 70
     1
102
RTVSPropertyOp16
 70
     1
102
RTVSPropertyOp17
 70
     1
102
RTVSPropertyOp18
 70
     1
102
RTVSPropertyOp19
 70
     1
102
RTVSPropertyOp20
 70
     1
102
RTVSPropertyOp21
 70
     1
102
RTVSPropertyOp22
 70
     1
102
RTVSPropertyOp23
 70
     1
102
RTVSPropertyOp24
 70
     1
102
RTVSPropertyOp25
 70
     1
102
RTVSPropertyOp26
 70
     1
102
RTVSPropertyOp27
 70
     1
102
RTVSPropertyOp28
 70
     1
102
RTVSPropertyOp29
 70
     1
102
RTVSPropertyOp30
 70
     1
102
RTVSPropertyOp31
 70
     1
102
RTVSPropertyOp32
 70
     1
  0
XRECORD
  5
2A5
102
{ACAD_REACTORS
330
2A4
102
}
330
2A4
100
AcDbXrecord
280
     1
102
RTVSPropertyOp0
 70
     1
102
RTVSPropertyOp1
 70
     1
102
RTVSPropertyOp2
 70
     1
102
RTVSPropertyOp3
 70
     1
102
RTVSPropertyOp4
 70
     1
102
RTVSPropertyOp5
 70
     1
102
RTVSPropertyOp6
 70
     1
102
RTVSPropertyOp7
 70
     1
102
RTVSPropertyOp8
 70
     1
102
RTVSPropertyOp9
 70
     1
102
RTVSPropertyOp10
 70
     1
102
RTVSPropertyOp11
 70
     1
102
RTVSPropertyOp12
 70
     1
102
RTVSPropertyOp13
 70
     1
102
RTVSPropertyOp14
 70
     1
102
RTVSPropertyOp15
 70
     1
102
RTVSPropertyOp16
 70
     1
102
RTVSPropertyOp17
 70
     1
102
RTVSPropertyOp18
 70
     1
102
RTVSPropertyOp19
 70
     1
102
RTVSPropertyOp20
 70
     1
102
RTVSPropertyOp21
 70
     1
102
RTVSPropertyOp22
 70
     1
102
RTVSPropertyOp23
 70
     1
102
RTVSPropertyOp24
 70
     1
102
RTVSPropertyOp25
 70
     1
102
RTVSPropertyOp26
 70
     1
102
RTVSPropertyOp27
 70
     1
102
RTVSPropertyOp28
 70
     1
102
RTVSPropertyOp29
 70
     1
102
RTVSPropertyOp30
 70
     1
102
RTVSPropertyOp31
 70
     1
102
RTVSPropertyOp32
 70
     1
  0
XRECORD
  5
2AD
102
{ACAD_REACTORS
330
2AC
102
}
330
2AC
100
AcDbXrecord
280
     1
102
RTVSPropertyOp0
 70
     1
102
RTVSPropertyOp1
 70
     1
102
RTVSPropertyOp2
 70
     1
102
RTVSPropertyOp3
 70
     1
102
RTVSPropertyOp4
 70
     1
102
RTVSPropertyOp5
 70
     1
102
RTVSPropertyOp6
 70
     1
102
RTVSPropertyOp7
 70
     1
102
RTVSPropertyOp8
 70
     1
102
RTVSPropertyOp9
 70
     1
102
RTVSPropertyOp10
 70
     1
102
RTVSPropertyOp11
 70
     1
102
RTVSPropertyOp12
 70
     1
102
RTVSPropertyOp13
 70
     1
102
RTVSPropertyOp14
 70
     1
102
RTVSPropertyOp15
 70
     1
102
RTVSPropertyOp16
 70
     1
102
RTVSPropertyOp17
 70
     1
102
RTVSPropertyOp18
 70
     1
102
RTVSPropertyOp19
 70
     1
102
RTVSPropertyOp20
 70
     1
102
RTVSPropertyOp21
 70
     1
102
RTVSPropertyOp22
 70
     1
102
RTVSPropertyOp23
 70
     1
102
RTVSPropertyOp24
 70
     1
102
RTVSPropertyOp25
 70
     1
102
RTVSPropertyOp26
 70
     1
102
RTVSPropertyOp27
 70
     1
102
RTVSPropertyOp28
 70
     1
102
RTVSPropertyOp29
 70
     1
102
RTVSPropertyOp30
 70
     1
102
RTVSPropertyOp31
 70
     1
102
RTVSPropertyOp32
 70
     1
  0
ENDSEC
  0
SECTION
  2
THUMBNAILIMAGE
 90
    16364
310
28000000B40000005500000001000800000000000000000000000000000000000000000000000000FFFFFF00FF000000FFFF000000FF000000FFFF000000FF00FF00FF000000000080808000C0C0C000FF000000FF7F7F00A5000000A55252007F0000007F3F3F004C0000004C2626002600000026131300FF3F0000FF9F7F
310
00A5290000A56752007F1F00007F4F3F004C1300004C2F26002609000026171300FF7F0000FFBF7F00A5520000A57C52007F3F00007F5F3F004C2600004C39260026130000261C1300FFBF0000FFDF7F00A57C0000A59152007F5F00007F6F3F004C3900004C422600261C000026211300FFFF0000FFFF7F00A5A50000A5A5
310
52007F7F00007F7F3F004C4C00004C4C26002626000026261300BFFF0000DFFF7F007CA5000091A552005F7F00006F7F3F00394C0000424C26001C260000212613007FFF0000BFFF7F0052A500007CA552003F7F00005F7F3F00264C0000394C2600132600001C2613003FFF00009FFF7F0029A5000067A552001F7F00004F
310
7F3F00134C00002F4C2600092600001726130000FF00007FFF7F0000A5000052A55200007F00003F7F3F00004C0000264C2600002600001326130000FF3F007FFF9F0000A5290052A56700007F1F003F7F4F00004C1300264C2F00002609001326170000FF7F007FFFBF0000A5520052A57C00007F3F003F7F5F00004C2600
310
264C39000026130013261C0000FFBF007FFFDF0000A57C0052A59100007F5F003F7F6F00004C3900264C420000261C001326210000FFFF007FFFFF0000A5A50052A5A500007F7F003F7F7F00004C4C00264C4C00002626001326260000BFFF007FDFFF00007CA5005291A500005F7F003F6F7F0000394C0026424C00001C26
310
0013212600007FFF007FBFFF000052A500527CA500003F7F003F5F7F0000264C0026394C0000132600131C2600003FFF007F9FFF000029A5005267A500001F7F003F4F7F0000134C00262F4C0000092600131726000000FF007F7FFF000000A5005252A50000007F003F3F7F0000004C0026264C0000002600131326003F00
310
FF009F7FFF002900A5006752A5001F007F004F3F7F0013004C002F264C0009002600171326007F00FF00BF7FFF005200A5007C52A5003F007F005F3F7F0026004C0039264C00130026001C132600BF00FF00DF7FFF007C00A5009152A5005F007F006F3F7F0039004C0042264C001C00260021132600FF00FF00FF7FFF00A5
310
00A500A552A5007F007F007F3F7F004C004C004C264C002600260026132600FF00BF00FF7FDF00A5007C00A55291007F005F007F3F6F004C0039004C26420026001C0026132100FF007F00FF7FBF00A5005200A5527C007F003F007F3F5F004C0026004C2639002600130026131C00FF003F00FF7F9F00A5002900A5526700
310
7F001F007F3F4F004C0013004C262F002600090026131700000000002D2D2D005B5B5B0089898900B7B7B700B3B3B30000000000000000000000000000000000000000000000000000000000000000000000000000000000000000000000000000000000000000000000000000000000000000000000000000000000000000
310
00000000000000000000000000000000000000000000000000000000000000000000000000000000000000000000000000000000000000000000000000000000000000000000000000000000000000000000000000000000000000000000000000000000000000000000000000000000000000000000000000000000000000
310
00000000000000000000000000000000000000000000000000000000000000000000009696000000000000000000000000000000000000000000000000000000000000000000000000000000000000000000000000000000000000000000000000000000000000000000000000000000000000000000000000000000000000
310
00000000000000000000000000000000000000000000000000000000000000000000000000000000000000000000000000000000000000000000000000000000000000000000000000000000000000000000000000000096969696000000000000000000000000000000000000000000000000000000000000000000000000
310
00000000000000000000000000000000000000000000000000000000000000000000000000000000000000000000000000000000000000000000000000000000000000000000000000000000000000000000000000000000000000000000000000000000000000000000000000000000000000000000000000000000000000
310
00000000000000000000969696960000969696960000000000000000000000000000000000000000000000000000000000000000000000000000000000000000000000000000000000000000000000000000000000000000000000000000000000000000000000000000000000000000000000000000000000000000000000
310
00000000000000000000000000000000000000000000000000000000000000000000000000000000000000000000000000000000000000000000000000009696000000000000000000969600000000000000000000000000000000000000000000000000000000000000000000000000000000000000000000000000000000
310
00000000000000000000000000000000000000000000000000000000000000000000000000000000000000000000000000000000000000000000000000000000000000000000000000000000000000000000000000000000000000000000000000000000000000000000000000000000000096960000009600009696000000
310
96960000000000000000000000000000000000000000000000000000000000000000000000000000000000000000000000000000000000000000000000000000000000000000000000000000000000000000000000000000000000000000000000000000000000000000000000000000000000000000000000000000000000
310
00000000000000000000000000000000000000000000000000000000000000000000000000000096960000969696000000969696000096000000000000000000000000000000000000000000000000000000000000000000000000000000000000000000000000000000000000000000000000000000000000000000000000
310
00000000000000000000000000000000000000000000000000000000000000000000000000000000000000000000000000000000000000000000000000000000000000000000000000000000000000000000000000000000000000009600969696960000000000969696000096000000000000000000000000000000000000
310
00000000000000000000000000000000000000000000000000000000000000000000000000000000000000000000000000000000000000000000000000000000000000000000000000000000000000000000000000000000000000000000000000000000000000000000000000000000000000000000000000000000000000
310
00000000000000000000000000000000000096969600960000000000000096009600960000000000000000000000000000000000000000000000000000000000000000000000000000000000000000000000000000000000000000000000000000000000000000000000000000000000000000000000000000000000000000
310
00000000000000000000000000000000000000000000000000000000000000000000000000000000000000000000000000000000000000000000000000000000000000969696969696009696000000000000009600969696969696000000000000000000000000000000000000000000000000000000000000000000000000
310
00000000000000000000000000000000000000000000000000000000000000000000000000000000000000000000000000000000000000000000000000000000000000000000000000000000000000000000000000000000000000000000000000000000000000000000000000000000000000000000000096009600969600
310
96960000000000000096000096969600009600000000000000000000000000000000000000000000000000000000000000000000000000000000000000000000000000000096000000000000000000000000000000000000000000000000000000000000000000000000000000000000000000000000000000000000000000
310
00000000000000000000000000000000000000000000000000000000000000000000000000000000000000000000960096960096969696000000000000009696009600960000960000000000000000000000000000000000000000000000000000000000000000000000000000000000000000000000000000969696000000
310
00000000000000000000000000000000000000000000000000000000000000000000000000000000000000000000000000000000000000000000000000000000000000000000000000000000000000000000000000000000000000000000000000000096009696969696000000000000000000000096969696969696000000
310
00000000000000000000000000000000000000000000000000000000000000000000000000000000000000000000969600960000000000000000000000000000000000000000000000000000000000000000000000000000000000000000000000000000000000000000000000000000000000000000000000000000000000
310
00000000000000000000000000000000000000000000009696969696969696969600960000000000960096969696969696969696000000000000000000000000000000000000000000000000000000000000000000009696000000000000000000009696000000969600000000000000000000969600000000000000000000
310
00000000000000000000000000000000000000000000000000000000000000000000000000000000000000000000000000000000000000000000000000000000000000000000000000969696960000009696969600969696000000000096969600969696000000009696969600000000000000000000000000000000000000
310
00000000000000000000000096969600000000000000969696969600969696969600000000000000969696000000000000000000000000000000000000000000000000000000000000000000000000000000000000000000000000000000000000000000000000000000000000000000000000000000000000000000969600
310
00000000009696969696969696000000000000969696969696969696000000000096969600000000000000000000000000000000000000000000000000000000000096969696969696969696969696000000969696969696969696969696960000000000000000000000000000000000000000000000000000000000000000
310
00000000000000000000000000000000000000000000000000000000000000000000000000000000000000000000000000969600009600000000000000000000000000000000000000000000000000000000000096960000969600000000000000000000000000000000000000000000000000000000000096960000969696
310
96969696000000009696969696969696009696960000000000000000000000000000000000000000000000000000000000000000000000000000000000000000000000000000000000000000000000000000000000000000000000000000000000000000009696000096960000000000000000000000000000000000000000
310
00000000000000000000009696000096960000000000000000000000000000000000000000000000000000000000969696960000009696960000000000009696969600000096969696000000000000000000000000000000000000000000000000000000000000000000000000000000000000000000000000000000000000
310
00000000000000000000000000000000000000000000000000000096000096960000000000000000000000000000000000000000000000000000000000000000969696000096000000000000000000000000000000000000000000000000000000000096969696969696960000000096969600000000969696969696009600
310
00000000000000000000000000000000000000000000000000000000000000000000000000000000000000000000000000000000000000000000000000000000000000000000000000000000000000960000969696000000000000000000000000000000000000000000000000000000000000000000969696009696000000
310
00000000000000000000000000000000000000000000009696969696969696000096969696000000969696000000969600960096969600000000000000000000000000000000000000000000000000000000000000000000000000000000000000000000000000000000000000000000000000000000000000000000000000
310
00000000009600009696000000000000000000000000000000000000000000000000000000000000000000009696960000960000000000000000000000000000000000000000000000000096969696969696960096960000000000000000000096960000969696969696969600000000000000000000000000000000000000
310
00000000000000000000000000000000000000000000000000000000000000000000000000000000000000000000000000000000000000000096000096009600000000000000000000000000000000000000000000000000000000000000000000009696000096000000000000000000000000000000000000000000000000
310
00969696969696960096000000000000000000000000000096000096969696960096000000000000000000000000000000000000000000000000000000000000000000000000000000000000000000000000000000000000000000000000000000000000000000000000000000009600009696960000000000000000000000
310
00000000000000000000000000000000000000000000000096009600009600000000000000000000000000000000000000000000000096960096969600960000000000000000000000000000000096009600969600969600000000000000000000000000000000000000000000000000000000000000000000000000000000
310
00000000000000000000000000000000000000000000000000000000000000000000000096000096960000000000000000000000000000000000000000000000000000000000000000000000009600960000960000000000000000000000000000000000000000000000000096969696000096000000000000000000000000
310
00000000009600009696969600000000000000000000000000000000000000000000000000000000000000000000000000000000000000000000000000000000000000000000000000000000000000000000000000000000009600009696000000000000000000000000000000000000000000000000000000000000000000
310
00000000969600009600000000000000000000000000000000000000000000000000000096000096000000000000000000000000000000000000009600969600000000000000000000000000000000000000000000000000000000000000000000000000000000000000000000000000000000000000000000000000000000
310
00000000000000000000000000000096000096960000000000000000000000000000000000000000000000000000000000000000000000000096960000960000000000000000000000000000000000000000000000000000969600960000000000000000000000000000000000000000009600960000000000000000000000
310
00000000000000000000000000000000000000000000000000000000000000000000000000000000000000000000000000000000000000000000000000000000000000009600009696000000000000000000000000000000000000000000000000000000000000000000000000009696009696000000000000000000000000
310
00000000000000000000000000969600009600000000000000000000000000000000000000000096000096000000000000000000000000000000000000000000000000000000000000000000000000000000000000000000000000000000000000000000000000000000000000000000000000000000000000009600969600
310
00000000000000000000000000000000000000000000000000000000000000000000009600960096000000000000000000000000000000000000000000000000000096000096000000000000000000000000000000000000000000000096000096000000000000000000000000000000000000000000000000000000000000
310
00000000000000000000000000000000000000000000000000000000000000000000000000000000000000009696969696009696000000000000000000000000000000000000000000000000000000000000000000000000960096009696969600000000000000000000000000000000000000000000009600009600000000
310
00000000000000000000000000000000000000960000960000000000000000000000000000000000000000000000000000000000000000000000000000000000000000000000000000000000000000000000000000000000000000000000000000960000969600960096000000000000000000000000000000000000000000
310
00000000000000000000000000009600969696000000960000000000000000000000000000000000000000009600000096000000000000000000000000000000000000000000000096000096960000000000000000000000000000000000000000000000000000000000000000000000000000000000000000000000000000
310
00000000000000000000000000000000000000000000960000000096969600960000000000000000000000000000000000000000000000000000000000000000000000960096969600000096000000000000000000000000000000000000000000960000960000000000000000000000000000000000000000000000000096
310
00009600000000000000000000000000000000000000000000000000000000000000000000000000000000000000000000000000000000000000000000000000000000000000000000000096009696969696000096000000000000000000000000000000000000000000000000000000000000000000000096000096969696
310
96960000000000000000000000000000000000000000009600009600000000000000000000000000000000000000000000000000960000960000000000000000000000000000000000000000000000000000000000000000000000000000000000000000000000000000000000000000000000000000000000000000000000
310
00969696969696960000960000000000000000000000000000000000000000000000000000000000000000000000960000969696960096000000000000000000000000000000000000000000960000960000000000000000000000000000000000000000000000000096000096000000000000000000000000000000000000
310
00000000000000000000000000000000000000000000000000000000000000000000000000000000000000000000000000000000000000969696009696969696000000000000000000000000000000000000000000000000000000000000000000000096969696960096969600000000000000000000000000000000000000
310
00009600000096000000000000000000000000000000000000000000000096000000960000000000000000000000000000000000000000000000000000000000000000000000000000000000000000000000000000000000000000000000000000000000000000000000000096960000009696009600000000000000000000
310
00000000000000000000000000000000000000000000000000969696960000009600000000000000000000000000000000000000000000969600009600000000000000000000000000000000000000000000009600009696000000000000000000000000000000000000000000000000000000000000000000000000000000
310
00000000000000000000000000000000000000000000000000000000000000009696960000969696960096000000000000000000000000000000000000000000000000000000000000000000009600009696969600009696000000000000000000000000000000000000000000960000960000000000000000000000000000
310
00000000000000000096000096000000000000000000000000000000000000000000000000000000000000000000000000000000000000000000000000000000000000000000000000000000000000000000000096960000969600009600000000000000000000000000000000000000000000000000000000000000000000
310
00000000000000960096960000009600000000000000000000000000000000000000009696009600000000000000000000000000000000000000000000009600969600000000000000000000000000000000000000000000000000000000000000000000000000000000000000000000000000000000000000000000000000
310
00000000000000000000960000969600000096960000000000000000000000000000000000000000000000000000000000000000000000000000009696000000960000969600000000000000000000000000000000000000009696009600000000000000000000000000000000000000000096009696000000000000000000
310
00000000000000000000000000000000000000000000000000000000000000000000000000000000000000000000000000000000000000000000000000009600000096009696969696000000000000000000000000000000000000000000000000000000000000000000000000000096969696969696960000969600000000
310
00000000000000000000009696969696960096000000000000000000000000000000000000000000969696969696969600000000000000000000000000000000000000000000000000000000000000000000000000000000000000000000000000000000000000000000000000000000000000960000969696960000000000
310
00000000000000000000000000000000000000000000000000000000000000000000000000000000000096969696000096000000000000000000000000969696009696969696960096000000000000000000000000000000000000009600960096969696969696000000000000000000000000000000000000000000000000
310
00000000000000000000000000000000000000000000000000000000000000000000000000000000960000009696000000000000000000000000000000000000000000000000000000000000000000000000000000000000000000000000000096969600009600000000000000000000009696960000960096969696000096
310
00000000000000000000000000000000009600009696969696960096969696000000000000000000000000000000000000000000000000000000000000000000000000000000000000000000000000000000000000000000000000000096000096960000000000000000000000000000000000000000000000000000000000
310
00000000000000000000000000000000000000000000009696000000960000000000000000009696969696960096009600009600960000000000000000000000000000000096000096000096960000969696969600000000000000000000000000000000000000000000000000000000000000000000000000000000000000
310
00000000000000000000000000000000000000960000969600000000000000000000000000000000000000000000000000000000000000000000000000000000000000000000000000000000009600000096000000000000000000969696960096960096009696009600960000000000000000000000000000960000960096
310
96009696009600969696960000000000000000000000000000000000000000000000000000000000000000000000000000000000000000000000000000000000000000000000009600000096000000000000000000000000000000000000000000000000000000000000000000000000000000000000000000000000000000
310
00000096000000960000000000000000969696960096009696009600969600960096969696000000000000969696960000960096960096009696009600969696000000000000000000000000000000000000000000000000000000000000000000000000000000000000000000000000000000000000000000000000960000
310
00960000000000000000000000000000000000000000000000000000000000000000000000000000000000000000000000000000000000009600000096000000000000000096009696000096960096969696960096969696000096969696969600000096969600009696969696969696000096960096000000000000000000
310
00000000000000000000000000000000000000000000000000000000000000000000000000000000000000000000000000009600000000000000000000000000000000000000000000000000000000000000000000000000000000000000000000000000000000000000000000000000000096000000000000009696009696
310
96960096000096960096969600969696960000000000969696960096969600969600969600969696960096960000000000000000000000000000000000000000000000000000000000000000000000000000000000000000000000000000000000000000000000960000000000000000000000000000000000000000000000
310
00000000000000000000000000000000000000000000000000000000000000000000000000000000960000000000000096960000969600009600009600960096960000969696969696969696969600009696009600960000960000969600009696000000000000000000000000000000000000000000000000000000000000
310
00000000000000000000000000000000000000000000000000000000009600000000000000000000000000000000000000000000000000000000000000000000000000000000000000000000000000000000000000000000000000000096000000000000009696009696969600969696969600960096009696009696009600
310
96960096000096009600969696969600969696960096960000000000000000000000000000000000000000000000000000000000000000000000000000000000000000000000000000000000000000000000960000009600000000000000000000000000000000000000000000000000000000000000000000000000000000
310
00000000000000000000000000000096000096960000000000000096009696000096969696009696960096000000969696009600969600969600000096009696960096969696000096960096000000000000000000000000000000000000000000000000000000000000000000000000000000000000000000000000000000
310
00000000000000009600000096000000000000000000000000000000000000000000000000000000000000000000000000000000000000000000000000000000000000969600009600000000000000009600969600960096969696009600969600009696009696960096969600969600009696969600969696960096009696
310
96000000000000000000000000000000000000000000000000000000000000000000000000000000000000000000000000000000000000000000000000960000009696000000000000000000000000000000000000000000000000000000000000000000000000000000000000000000000000000000000096000000960000
310
00000000000000969696960096960096969696960000969696969600960096009696960096969600960096969696960096009696969600000000000000000000000000000000000000000000000000000000000000000000000000000000000000000000000000000000000000000000000000960000009600000000000000
310
00000000000000000000000000000000000000000000000000000000000000000000000000000000000000000096960000009600000000000000000096009696960000960096969696009696969600960000960096009696009696969600969696969600000096969600960000000000000000000000000000000000000000
310
00000000000000000000000000000000000000000000000000000000000000000000000000000000009600000096960000000000000000000000000000000000000000000000000000000000000000000000000000000000000000000000000000009696000000960000000000000000009696969696969600969696960096
310
96969600960096960096009696969600969696960096969696960096969696960000000000000000000000000000000000000000000000000000000000000000000000000000000000000000000000000000000000000000000000000000960000009696960000000000000000000000000000000000000000000000000000
310
00000000000000000000000000000000000000000000009696000000960000000000000000000000969696009696960000969696969696969600969600960096009696009696969696969696000096969600969696000000000000000000000000000000000000000000000000000000000000000000000000000000000000
310
00000000000000000000000000000000000000000096000000969600000000000000000000000000000000000000000000000000000000000000000000000000000000000000000000000096009600000096000000000000000000000000969696009696009600969600960096960096969696969696009600969600960096
310
96009600969600969696000000000000000000000000000000000000000000000000000000000000000000000000000000000000000000000000000000000000000000000000000000009696000096009600000000000000000000000000000000000000000000000000000000000000000000000000000000000000000000
310
00969696000096000000000000000000000000000096969696009600969600960096960096960096009600969600960096960096960096009696009696960000000000000000000000000000000000000000000000000000000000000000000000000000000000000000000000000000000000000000000000000000000000
310
00960000009696000000000000000000000000000000000000000000000000000000000000000000000000000000000000000000009696960000009600000000000000000000000000009696960096009600009600960000960096000096009600009600960000969600000096960000969696000000000000000000000000
310
00000000000000000000000000000000000000000000000000000000000000000000000000000000000000000000000000000000000096960000960096000000000000000000000000000000000000000000000000000000000000000000000000000000000000000000969600000096000000000000000000000000000000
310
00969696009696969600969696960096960096969696009696960096969696960096969696969696000000000000000000000000000000000000000000000000000000000000000000000000000000000000000000000000000000000000000000000000000000000000000096960096969600000000000000000000000000
310
00000000000000000000000000000000000000000000000000000000000000009696000096000000000000000000000000000000000000960096000096969600009696960000969600000096960000969696000096969600009600960000000000000000000000000000000000000000000000000000000000000000000000
310
00000000000000000000000000000000000000000000000000000000000000000000009696009600969600000000000000000000000000000000000000000000000000000000000000000000000000000000009696969600969600000000000000000000000000000000000000960096960096960096009696009696009600
310
96969696009696009600969600969696960000000000000000000000000000000000000000000000000000000000000000000000000000000000000000000000000000000000000000000000000000000000000000000000009696969600960000000000000000000000000000000000000000000000000000000000000000
310
00000000000000000096009600969600000000000000000000000000000000000000000096009696969696009696969696969600960096969696969696009696969696009600000000000000000000000000000000000000000000000000000000000000000000000000000000000000000000000000000000000000000000
310
00000000000000000000000000969696969696009696000000000000000000000000000000000000000000000000000000000000000000000000000000960096969696969696000000000000000000000000000000000000000096000096969696969696969696969696969696969696969696969696000096000000000000
310
00000000000000000000000000000000000000000000000000000000000000000000000000000000000000000000000000000000000000000000000000000000009696000096969600009600000000000000000000000000000000000000000000000000000000000000000000000000009696009600960000009600000000
310
00000000000000000000000000000000969696960096960096969696969600960096969696009600969600969696960000000000000000000000000000000000000000000000000000000000000000000000000000000000000000000000000000000000000000000000000000000000000000000000969600009696969696
310
96969696000000000000000000000000000000000000000000000000000000000000000096960096009696009600000096000000000000000000000000000000000000000096969696969696960096960096009600960096009696009696969696960096000000000000000000000000000000000000000000000000000000
310
00000000000000000000000000000000000000000000000000000000000000000000000000000000000000000096000096009696969696969600000000000000000000000000000000000000000000000000000000000000009696969696969600960000969600000000000000000000000000000000000000009696969600
310
96960096969600960096009600960096969600969696969696960000000000000000000000000000000000000000000000000000000000000000000000000000000000000000000000000000000000000000000000000000000000000000000000009696969600009600969600000000000000000000000000000000000000
310
00000000000000000000000000000000009696960096009696969600000000000000000000000000000000000000000000009696969696969600009696969696969696960096969696969696960000000000000000000000000000000000000000000000000000000000000000000000000000000000000000000000000000
310
00000000000000000000000000000000000000000000000000000096000096969696000000000000000000000000000000000000000000000000000000000000000000000000009696969600969600000000000000000000000000000000000000000000000000000096969600969600009696009600960000969696009696
310
96000000000000000000000000000000000000000000000000000000000000000000000000000000000000000000000000000000000000000000000000000000000000000000000000000000000000009600969696960000000000000000000000000000000000000000000000000000000000000000000000000000969696
310
96960096000000000000000000000000000000000000000000000000000000009696000096969696000000000096969696000096960000000000000000000000000000000000000000000000000000000000000000000000000000000000000000000000000000000000000000000000000000000000000000000000000000
310
00000000000096009696969696969696000000000000000000000000000000000000000000000000000000000000009696009696969600009600000000000000000000000000000000000000000000000000000000009600009696000000000000000000960000009600000000000000000000000000000000000000000000
310
00000000000000000000000000000000000000000000000000000000000000000000000000000000000000000000000000000000000000000000009600969600009696009696960000000000000000000000000000000000000000000000000000009696960096960000960096960000000000000000000000000000000000
310
00000000000000000000000096009600969600000000000096969600969696000000000000000000000000000000000000000000000000000000000000000000000000000000000000000000000000000000000000000000000000000000000000000000000000000000000000000000969600969600000096960096960000
310
00000000000000000000000000000000000000000000969600969600000000969600960000000000000000000000000000000000000000000000000000000000009696969600009696960096969600009696960000000000000000000000000000000000000000000000000000000000000000000000000000000000000000
310
00000000000000000000000000000000000000000000000000000000000000000000000000000096000096960000969696000096000000000000000000000000000000000000000000009696000096009600969696009696000000000000000000000000000000000000000000000000000000000000009696960096969696
310
00969696960096969600000000000000000000000000000000000000000000000000000000000000000000000000000000000000000000000000000000000000000000000000000000000000000000000000000000000000000000000096960000969696009600000096000000000000000000000000000000000000000096
310
96000000969696969600009696000000000000000000000000000000000000000000000000000000000000000096009600960000000000000096969600960000000000000000000000000000000000000000000000000000000000000000000000000000000000000000000000000000000000000000000000000000000000
310
00000000000000000000000000000000000000009696000000000096969600969600000000000000000000000000000000000000960096969696000000009696960000000000000000000000000000000000000000000000000000000000000000009600969696000000000000009696000096000000000000000000000000
310
00000000000000000000000000000000000000000000000000000000000000000000000000000000000000000000000000000000000000000000000000000000000000000000000000000096969600969696009600960000000000000000000000000000000000000096969600969696969696960000000000000000000000
310
00000000000000000000000000000000000000000000000000000096960000000000000096960000000000000000000000000000000000000000000000000000000000000000000000000000000000000000000000000000000000000000000000000000000000000000000000000000000000000000000000000000000000
310
00000096009696969600960096000000000000000000000000000000000096009600960096960096000000000000000000000000000000000000000000000000000000000000000000000000000000009600000000000000009696000000000000000000000000000000000000000000000000000000000000000000000000
310
00000000000000000000000000000000000000000000000000000000000000000000000000000000000000000000000000000000000000009600009600969696969696000000000000000000000000000000960096009600969600969600000000000000000000000000000000000000000000000000000000000000000000
310
00000000009696000000000000000000960000000000000000000000000000000000000000000000000000000000000000000000000000000000000000000000000000000000000000000000000000000000000000000000000000000000000000000000000000000000000000969696960000969696969696000000000000
310
00000000000000969696009600000096969600000000000000000000000000000000000000000000000000000000000000000000000000000000000000000000000000000000000000000000000000000000000000000000000000000000000000000000000000000000000000000000000000000000000000000000000000
310
00000000000000000000000000000000000000000000000000000000000000000000000000000000000096009696969600000000000000000000009696960000960000000000000000000000000000000000000000000000000000000000000000000000000000000000000000000000000000000000000000000000000000
310
00000000000000000000000000000000000000000000000000000000000000000000000000000000000000000000000000000000000000000000000000000000000000000000000000000000000000000000000000000000000000000000009696000096969600000096960000009696969600009600000000000000000000
310
00000000000000000000000000000000000000000000000000000000000000000000000000000000000000000000000000000000000000000000000000000000000000000000000000000000000000000000000000000000000000000000000000000000000000000000000000000000000000000000000000000000000000
310
00000000000000000000000000000000000000000000960000000096969600969600009696960000009696000000000000000000000000000000000000000000000000000000000000000000000000000000000000000000000000000000000000000000000000000000000000000000000000000000000000000000000000
310
00000000000000000000000000000000000000000000000000000000000000000000000000000000000000000000000000000000000000000000000000000000000000000000000000000000960000000000000000000000000000000096960000000000000000000000000000000000000000000000000000000000000000
310
00000000000000000000000000000000000000000000000000000000000000000000000000000000000000000000000000000000000000000000000000000000000000000000000000000000000000000000000000000000000000000000000000000000000000000000000000000000000000000000000000000000000000
310
00009696960000000000000000000000000096960000000000000000000000000000000000000000000000000000000000000000000000000000000000000000000000000000000000000000000000000000000000000000000000000000000000000000000000000000000000000000000000000000000000000000000000
310
00000000000000000000000000000000000000000000000000000000000000000000000000000000000000000000000000000000000000000096969600000000000000009696960000000000000000000000000000000000000000000000000000000000000000000000000000000000000000000000000000000000000000
310
00000000000000000000000000000000000000000000000000000000000000000000000000000000000000000000000000000000000000000000000000000000000000000000000000000000000000000000000000000000000000000000000000000000000000000000000000000000009696969696969696960000000000
310
000000000000000000000000000000000000000000000000000000000000000000000000000000000000000000000000000000000000000000000000000000000000000000000000000000000000000000000000000000000000000000000000000000000000000000000000
  0
ENDSEC
  0
EOF
