  0
SECTION
  2
HEADER
  9
$ACADVER
  1
AC1014
  9
$HANDSEED
  5
FFFF
  9
$MEASUREMENT
 70
     1
  0
ENDSEC
  0
SECTION
  2
TABLES
  0
TABLE
  2
VPORT
  5
8
330
0
100
AcDbSymbolTable
 70
     4
  0
VPORT
  5
2E
330
8
100
AcDbSymbolTableRecord
100
AcDbViewportTableRecord
  2
*ACTIVE
 70
     0
 10
0.0
 20
0.0
 11
1.0
 21
1.0
 12
210.0
 22
148.5
 13
0.0
 23
0.0
 14
10.0
 24
10.0
 15
10.0
 25
10.0
 16
0.0
 26
0.0
 36
1.0
 17
0.0
 27
0.0
 37
0.0
 40
341.0
 41
1.24
 42
50.0
 43
0.0
 44
0.0
 50
0.0
 51
0.0
 71
     0
 72
   100
 73
     1
 74
     3
 75
     0
 76
     0
 77
     0
 78
     0
  0
ENDTAB
  0
TABLE
  2
LTYPE
  5
5
330
0
100
AcDbSymbolTable
 70
     1
  0
LTYPE
  5
14
330
5
100
AcDbSymbolTableRecord
100
AcDbLinetypeTableRecord
  2
BYBLOCK
 70
     0
  3

 72
    65
 73
     0
 40
0.0
  0
LTYPE
  5
15
330
5
100
AcDbSymbolTableRecord
100
AcDbLinetypeTableRecord
  2
BYLAYER
 70
     0
  3

 72
    65
 73
     0
 40
0.0
  0
LTYPE
  5
16
330
5
100
AcDbSymbolTableRecord
100
AcDbLinetypeTableRecord
  2
CONTINUOUS
 70
     0
  3
Solid line
 72
    65
 73
     0
 40
0.0
  0
ENDTAB
  0
TABLE
  2
LAYER
  5
2
100
AcDbSymbolTable
 70
1
  0
LAYER
  5
50
100
AcDbSymbolTableRecord
100
AcDbLayerTableRecord
  2
0
 70
0
  6
CONTINUOUS
  0
ENDTAB
  0
TABLE
  2
STYLE
  5
3
330
0
100
AcDbSymbolTable
 70
     1
  0
STYLE
  5
11
330
3
100
AcDbSymbolTableRecord
100
AcDbTextStyleTableRecord
  2
STANDARD
 70
     0
 40
0.0
 41
1.0
 50
0.0
 71
     0
 42
2.5
  3
txt
  4

  0
ENDTAB
  0
TABLE
  2
VIEW
  5
6
330
0
100
AcDbSymbolTable
 70
     0
  0
ENDTAB
  0
TABLE
  2
UCS
  5
7
330
0
100
AcDbSymbolTable
 70
     0
  0
ENDTAB
  0
TABLE
  2
APPID
  5
9
330
0
100
AcDbSymbolTable
 70
     2
  0
APPID
  5
12
330
9
100
AcDbSymbolTableRecord
100
AcDbRegAppTableRecord
  2
ACAD
 70
     0
  0
ENDTAB
  0
TABLE
  2
DIMSTYLE
  5
A
330
0
100
AcDbSymbolTable
 70
     1
  0
DIMSTYLE
105
27
330
A
100
AcDbSymbolTableRecord
100
AcDbDimStyleTableRecord
  2
ISO-25
 70
     0
  3

  4

  5

  6

  7

 40
1.0
 41
2.5
 42
0.625
 43
3.75
 44
1.25
 45
0.0
 46
0.0
 47
0.0
 48
0.0
140
2.5
141
2.5
142
0.0
143
0.03937007874016
144
1.0
145
0.0
146
1.0
147
0.625
 71
     0
 72
     0
 73
     0
 74
     0
 75
     0
 76
     0
 77
     1
 78
     8
170
     0
171
     3
172
     1
173
     0
174
     0
175
     0
176
     0
177
     0
178
     0
270
     2
271
     2
272
     2
273
     2
274
     3
340
11
275
     0
280
     0
281
     0
282
     0
283
     0
284
     8
285
     0
286
     0
287
     3
288
     0
  0
ENDTAB
  0
TABLE
  2
BLOCK_RECORD
  5
1
330
0
100
AcDbSymbolTable
 70
     1
  0
BLOCK_RECORD
  5
1F
330
1
100
AcDbSymbolTableRecord
100
AcDbBlockTableRecord
  2
*MODEL_SPACE
  0
BLOCK_RECORD
  5
1B
330
1
100
AcDbSymbolTableRecord
100
AcDbBlockTableRecord
  2
*PAPER_SPACE
  0
ENDTAB
  0
ENDSEC
  0
SECTION
  2
BLOCKS
  0
BLOCK
  5
20
330
1F
100
AcDbEntity
  8
0
100
AcDbBlockBegin
  2
*MODEL_SPACE
 70
     0
 10
0.0
 20
0.0
 30
0.0
  3
*MODEL_SPACE
  1

  0
ENDBLK
  5
21
330
1F
100
AcDbEntity
  8
0
100
AcDbBlockEnd
  0
BLOCK
  5
1C
330
1B
100
AcDbEntity
 67
     1
  8
0
100
AcDbBlockBegin
  2
*PAPER_SPACE
  1

  0
ENDBLK
  5
1D
330
1B
100
AcDbEntity
 67
     1
  8
0
100
AcDbBlockEnd
  0
ENDSEC
  0
SECTION
  2
ENTITIES
  0
SPLINE
  5
100
100
AcDbEntity
  8
0
 62
7
100
AcDbSpline
 70
8
 71
3
 72
8
 73
4
 74
0
 40
0
 40
0
 40
0
 40
0
 40
1
 40
1
 40
1
 40
1
 10
120.871993
 20
54.514143
 30
0.0
 10
121.366193
 20
54.739314
 30
0.0
 10
121.759376
 20
55.175878
 30
0.0
 10
121.745739
 20
55.484282
 30
0.0
  0
SPLINE
  5
101
100
AcDbEntity
  8
0
 62
7
100
AcDbSpline
 70
8
 71
3
 72
8
 73
4
 74
0
 40
0
 40
0
 40
0
 40
0
 40
1
 40
1
 40
1
 40
1
 10
121.745739
 20
55.484282
 30
0.0
 10
121.713529
 20
56.212540
 30
0.0
 10
121.122240
 20
57.592496
 30
0.0
 10
121.089776
 20
57.015154
 30
0.0
  0
SPLINE
  5
102
100
AcDbEntity
  8
0
 62
7
100
AcDbSpline
 70
8
 71
3
 72
8
 73
4
 74
0
 40
0
 40
0
 40
0
 40
0
 40
1
 40
1
 40
1
 40
1
 10
121.089776
 20
57.015154
 30
0.0
 10
121.055344
 20
56.402718
 30
0.0
 10
120.006646
 20
56.457887
 30
0.0
 10
120.006646
 20
57.072135
 30
0.0
  0
SPLINE
  5
103
100
AcDbEntity
  8
0
 62
7
100
AcDbSpline
 70
8
 71
3
 72
8
 73
4
 74
0
 40
0
 40
0
 40
0
 40
0
 40
1
 40
1
 40
1
 40
1
 10
120.006646
 20
57.072135
 30
0.0
 10
120.006646
 20
57.557701
 30
0.0
 10
119.189511
 20
57.638527
 30
0.0
 10
118.747644
 20
57.196663
 30
0.0
  0
SPLINE
  5
104
100
AcDbEntity
  8
0
 62
7
100
AcDbSpline
 70
8
 71
3
 72
8
 73
4
 74
0
 40
0
 40
0
 40
0
 40
0
 40
1
 40
1
 40
1
 40
1
 10
118.747644
 20
57.196663
 30
0.0
 10
118.626046
 20
57.075062
 30
0.0
 10
118.320010
 20
57.054832
 30
0.0
 10
118.067562
 20
57.151705
 30
0.0
  0
SPLINE
  5
105
100
AcDbEntity
  8
0
 62
7
100
AcDbSpline
 70
8
 71
3
 72
8
 73
4
 74
0
 40
0
 40
0
 40
0
 40
0
 40
1
 40
1
 40
1
 40
1
 10
118.067562
 20
57.151705
 30
0.0
 10
117.815117
 20
57.248577
 30
0.0
 10
117.503770
 20
57.158280
 30
0.0
 10
117.375675
 20
56.951008
 30
0.0
  0
SPLINE
  5
106
100
AcDbEntity
  8
0
 62
7
100
AcDbSpline
 70
8
 71
3
 72
8
 73
4
 74
0
 40
0
 40
0
 40
0
 40
0
 40
1
 40
1
 40
1
 40
1
 10
117.375675
 20
56.951008
 30
0.0
 10
117.030130
 20
56.391900
 30
0.0
 10
115.781698
 20
56.494626
 30
0.0
 10
115.548887
 20
57.101322
 30
0.0
  0
SPLINE
  5
107
100
AcDbEntity
  8
0
 62
7
100
AcDbSpline
 70
8
 71
3
 72
8
 73
4
 74
0
 40
0
 40
0
 40
0
 40
0
 40
1
 40
1
 40
1
 40
1
 10
115.548887
 20
57.101322
 30
0.0
 10
115.214273
 20
57.973313
 30
0.0
 10
114.714980
 20
57.321588
 30
0.0
 10
114.714980
 20
56.012828
 30
0.0
  0
SPLINE
  5
108
100
AcDbEntity
  8
0
 62
7
100
AcDbSpline
 70
8
 71
3
 72
8
 73
4
 74
0
 40
0
 40
0
 40
0
 40
0
 40
1
 40
1
 40
1
 40
1
 10
114.714980
 20
56.012828
 30
0.0
 10
114.714980
 20
55.071896
 30
0.0
 10
114.899178
 20
54.713519
 30
0.0
 10
115.508730
 20
54.468508
 30
0.0
  0
SPLINE
  5
109
100
AcDbEntity
  8
0
 62
7
100
AcDbSpline
 70
8
 71
3
 72
8
 73
4
 74
0
 40
0
 40
0
 40
0
 40
0
 40
1
 40
1
 40
1
 40
1
 10
115.508730
 20
54.468508
 30
0.0
 10
116.652974
 20
54.008576
 30
0.0
 10
119.821568
 20
54.035537
 30
0.0
 10
120.871993
 20
54.514143
 30
0.0
  0
LINE
  5
10a
100
AcDbEntity
  8
0
 62
7
100
AcDbLine
 10
120.871993
 20
54.514143
 30
0.0
 11
120.871993
 21
54.514143
 31
0.0
  0
SPLINE
  5
10b
100
AcDbEntity
  8
0
 62
7
100
AcDbSpline
 70
8
 71
3
 72
8
 73
4
 74
0
 40
0
 40
0
 40
0
 40
0
 40
1
 40
1
 40
1
 40
1
 10
112.913631
 20
54.779680
 30
0.0
 10
113.377020
 20
55.073101
 30
0.0
 10
114.460249
 20
57.632515
 30
0.0
 10
114.121051
 20
57.632515
 30
0.0
  0
SPLINE
  5
10c
100
AcDbEntity
  8
0
 62
7
100
AcDbSpline
 70
8
 71
3
 72
8
 73
4
 74
0
 40
0
 40
0
 40
0
 40
0
 40
1
 40
1
 40
1
 40
1
 10
114.121051
 20
57.632515
 30
0.0
 10
114.034144
 20
57.632515
 30
0.0
 10
113.616288
 20
57.441711
 30
0.0
 10
113.192481
 20
57.208507
 30
0.0
  0
SPLINE
  5
10d
100
AcDbEntity
  8
0
 62
7
100
AcDbSpline
 70
8
 71
3
 72
8
 73
4
 74
0
 40
0
 40
0
 40
0
 40
0
 40
1
 40
1
 40
1
 40
1
 10
113.192481
 20
57.208507
 30
0.0
 10
111.907024
 20
56.501174
 30
0.0
 10
111.541681
 20
56.580938
 30
0.0
 10
111.511326
 20
57.575535
 30
0.0
  0
LINE
  5
10e
100
AcDbEntity
  8
0
 62
7
100
AcDbLine
 10
111.511326
 20
57.575535
 30
0.0
 11
111.482680
 21
58.514460
 31
0.0
  0
LINE
  5
10f
100
AcDbEntity
  8
0
 62
7
100
AcDbLine
 10
111.482680
 20
58.514460
 30
0.0
 11
111.013706
 21
57.456126
 31
0.0
  0
LINE
  5
110
100
AcDbEntity
  8
0
 62
7
100
AcDbLine
 10
111.013706
 20
57.456126
 30
0.0
 11
110.544729
 21
56.397793
 31
0.0
  0
LINE
  5
111
100
AcDbEntity
  8
0
 62
7
100
AcDbLine
 10
110.544729
 20
56.397793
 30
0.0
 11
110.283334
 21
57.428590
 31
0.0
  0
LINE
  5
112
100
AcDbEntity
  8
0
 62
7
100
AcDbLine
 10
110.283334
 20
57.428590
 30
0.0
 11
110.021940
 21
58.459384
 31
0.0
  0
LINE
  5
113
100
AcDbEntity
  8
0
 62
7
100
AcDbLine
 10
110.021940
 20
58.459384
 30
0.0
 11
109.369852
 21
57.654091
 31
0.0
  0
SPLINE
  5
114
100
AcDbEntity
  8
0
 62
7
100
AcDbSpline
 70
8
 71
3
 72
8
 73
4
 74
0
 40
0
 40
0
 40
0
 40
0
 40
1
 40
1
 40
1
 40
1
 10
109.369852
 20
57.654091
 30
0.0
 10
108.359581
 20
56.406460
 30
0.0
 10
108.551229
 20
55.660386
 30
0.0
 10
110.040680
 20
55.042590
 30
0.0
  0
SPLINE
  5
115
100
AcDbEntity
  8
0
 62
7
100
AcDbSpline
 70
8
 71
3
 72
8
 73
4
 74
0
 40
0
 40
0
 40
0
 40
0
 40
1
 40
1
 40
1
 40
1
 10
110.040680
 20
55.042590
 30
0.0
 10
111.574157
 20
54.406535
 30
0.0
 10
112.229629
 20
54.346554
 30
0.0
 10
112.913640
 20
54.779680
 30
0.0
  0
LINE
  5
116
100
AcDbEntity
  8
0
 62
7
100
AcDbLine
 10
112.913640
 20
54.779680
 30
0.0
 11
112.913631
 21
54.779680
 31
0.0
  0
SPLINE
  5
117
100
AcDbEntity
  8
0
 62
7
100
AcDbSpline
 70
8
 71
3
 72
8
 73
4
 74
0
 40
0
 40
0
 40
0
 40
0
 40
1
 40
1
 40
1
 40
1
 10
126.148521
 20
54.950687
 30
0.0
 10
126.797700
 20
55.221931
 30
0.0
 10
127.434089
 20
55.614144
 30
0.0
 10
127.562720
 20
55.822271
 30
0.0
  0
SPLINE
  5
118
100
AcDbEntity
  8
0
 62
7
100
AcDbSpline
 70
8
 71
3
 72
8
 73
4
 74
0
 40
0
 40
0
 40
0
 40
0
 40
1
 40
1
 40
1
 40
1
 10
127.562720
 20
55.822271
 30
0.0
 10
127.862259
 20
56.306934
 30
0.0
 10
127.011371
 20
57.958056
 30
0.0
 10
125.993102
 20
58.868070
 30
0.0
  0
LINE
  5
119
100
AcDbEntity
  8
0
 62
7
100
AcDbLine
 10
125.993102
 20
58.868070
 30
0.0
 11
125.204545
 21
59.572793
 31
0.0
  0
LINE
  5
11a
100
AcDbEntity
  8
0
 62
7
100
AcDbLine
 10
125.204545
 20
59.572793
 30
0.0
 11
125.451591
 21
58.779043
 31
0.0
  0
SPLINE
  5
11b
100
AcDbEntity
  8
0
 62
7
100
AcDbSpline
 70
8
 71
3
 72
8
 73
4
 74
0
 40
0
 40
0
 40
0
 40
0
 40
1
 40
1
 40
1
 40
1
 10
125.451591
 20
58.779043
 30
0.0
 10
125.608176
 20
58.275937
 30
0.0
 10
125.551528
 20
57.985293
 30
0.0
 10
125.296888
 20
57.985293
 30
0.0
  0
SPLINE
  5
11c
100
AcDbEntity
  8
0
 62
7
100
AcDbSpline
 70
8
 71
3
 72
8
 73
4
 74
0
 40
0
 40
0
 40
0
 40
0
 40
1
 40
1
 40
1
 40
1
 10
125.296888
 20
57.985293
 30
0.0
 10
125.075925
 20
57.985293
 30
0.0
 10
124.657011
 20
57.747168
 30
0.0
 10
124.365969
 20
57.456126
 30
0.0
  0
SPLINE
  5
11d
100
AcDbEntity
  8
0
 62
7
100
AcDbSpline
 70
8
 71
3
 72
8
 73
4
 74
0
 40
0
 40
0
 40
0
 40
0
 40
1
 40
1
 40
1
 40
1
 10
124.365969
 20
57.456126
 30
0.0
 10
123.624216
 20
56.714367
 30
0.0
 10
122.917444
 20
56.797682
 30
0.0
 10
122.644041
 20
57.659101
 30
0.0
  0
SPLINE
  5
11e
100
AcDbEntity
  8
0
 62
7
100
AcDbSpline
 70
8
 71
3
 72
8
 73
4
 74
0
 40
0
 40
0
 40
0
 40
0
 40
1
 40
1
 40
1
 40
1
 10
122.644041
 20
57.659101
 30
0.0
 10
122.190820
 20
59.087072
 30
0.0
 10
122.033019
 20
57.980289
 30
0.0
 10
122.468217
 20
56.425919
 30
0.0
  0
SPLINE
  5
11f
100
AcDbEntity
  8
0
 62
7
100
AcDbSpline
 70
8
 71
3
 72
8
 73
4
 74
0
 40
0
 40
0
 40
0
 40
0
 40
1
 40
1
 40
1
 40
1
 10
122.468217
 20
56.425919
 30
0.0
 10
123.021584
 20
54.449478
 30
0.0
 10
124.005267
 20
54.055177
 30
0.0
 10
126.148521
 20
54.950687
 30
0.0
  0
LINE
  5
120
100
AcDbEntity
  8
0
 62
7
100
AcDbLine
 10
126.148521
 20
54.950687
 30
0.0
 11
126.148521
 21
54.950687
 31
0.0
  0
SPLINE
  5
121
100
AcDbEntity
  8
0
 62
7
100
AcDbSpline
 70
8
 71
3
 72
8
 73
4
 74
0
 40
0
 40
0
 40
0
 40
0
 40
1
 40
1
 40
1
 40
1
 10
108.183855
 20
56.793652
 30
0.0
 10
108.884977
 20
58.471675
 30
0.0
 10
108.861033
 20
58.573230
 30
0.0
 10
107.952382
 20
57.775388
 30
0.0
  0
SPLINE
  5
122
100
AcDbEntity
  8
0
 62
7
100
AcDbSpline
 70
8
 71
3
 72
8
 73
4
 74
0
 40
0
 40
0
 40
0
 40
0
 40
1
 40
1
 40
1
 40
1
 10
107.952382
 20
57.775388
 30
0.0
 10
107.217111
 20
57.129779
 30
0.0
 10
107.196455
 20
57.129175
 30
0.0
 10
107.427217
 20
57.759978
 30
0.0
  0
SPLINE
  5
123
100
AcDbEntity
  8
0
 62
7
100
AcDbSpline
 70
8
 71
3
 72
8
 73
4
 74
0
 40
0
 40
0
 40
0
 40
0
 40
1
 40
1
 40
1
 40
1
 10
107.427217
 20
57.759978
 30
0.0
 10
107.613010
 20
58.267871
 30
0.0
 10
107.537747
 20
58.366855
 30
0.0
 10
107.094980
 20
58.196951
 30
0.0
  0
SPLINE
  5
124
100
AcDbEntity
  8
0
 62
7
100
AcDbSpline
 70
8
 71
3
 72
8
 73
4
 74
0
 40
0
 40
0
 40
0
 40
0
 40
1
 40
1
 40
1
 40
1
 10
107.094980
 20
58.196951
 30
0.0
 10
106.705671
 20
58.047560
 30
0.0
 10
106.581087
 20
58.129873
 30
0.0
 10
106.705561
 20
58.454245
 30
0.0
  0
SPLINE
  5
125
100
AcDbEntity
  8
0
 62
7
100
AcDbSpline
 70
8
 71
3
 72
8
 73
4
 74
0
 40
0
 40
0
 40
0
 40
0
 40
1
 40
1
 40
1
 40
1
 10
106.705561
 20
58.454245
 30
0.0
 10
106.806227
 20
58.716579
 30
0.0
 10
106.758602
 20
59.141538
 30
0.0
 10
106.599725
 20
59.398603
 30
0.0
  0
SPLINE
  5
126
100
AcDbEntity
  8
0
 62
7
100
AcDbSpline
 70
8
 71
3
 72
8
 73
4
 74
0
 40
0
 40
0
 40
0
 40
0
 40
1
 40
1
 40
1
 40
1
 10
106.599725
 20
59.398603
 30
0.0
 10
106.203056
 20
60.040427
 30
0.0
 10
104.048292
 20
57.907434
 30
0.0
 10
104.335978
 20
57.157727
 30
0.0
  0
SPLINE
  5
127
100
AcDbEntity
  8
0
 62
7
100
AcDbSpline
 70
8
 71
3
 72
8
 73
4
 74
0
 40
0
 40
0
 40
0
 40
0
 40
1
 40
1
 40
1
 40
1
 10
104.335978
 20
57.157727
 30
0.0
 10
104.510422
 20
56.703132
 30
0.0
 10
106.606343
 20
55.588848
 30
0.0
 10
107.390105
 20
55.534018
 30
0.0
  0
SPLINE
  5
128
100
AcDbEntity
  8
0
 62
7
100
AcDbSpline
 70
8
 71
3
 72
8
 73
4
 74
0
 40
0
 40
0
 40
0
 40
0
 40
1
 40
1
 40
1
 40
1
 10
107.390105
 20
55.534018
 30
0.0
 10
107.533025
 20
55.524027
 30
0.0
 10
107.890211
 20
56.090854
 30
0.0
 10
108.183855
 20
56.793644
 30
0.0
  0
LINE
  5
129
100
AcDbEntity
  8
0
 62
7
100
AcDbLine
 10
108.183855
 20
56.793644
 30
0.0
 11
108.183855
 21
56.793652
 31
0.0
  0
SPLINE
  5
12a
100
AcDbEntity
  8
0
 62
7
100
AcDbSpline
 70
8
 71
3
 72
8
 73
4
 74
0
 40
0
 40
0
 40
0
 40
0
 40
1
 40
1
 40
1
 40
1
 10
131.207341
 20
56.447896
 30
0.0
 10
132.350242
 20
57.161108
 30
0.0
 10
132.201491
 20
57.710713
 30
0.0
 10
130.421470
 20
59.351474
 30
0.0
  0
SPLINE
  5
12b
100
AcDbEntity
  8
0
 62
7
100
AcDbSpline
 70
8
 71
3
 72
8
 73
4
 74
0
 40
0
 40
0
 40
0
 40
0
 40
1
 40
1
 40
1
 40
1
 10
130.421470
 20
59.351474
 30
0.0
 10
128.691155
 20
60.946428
 30
0.0
 10
127.858362
 20
61.331187
 30
0.0
 10
129.178868
 20
59.925571
 30
0.0
  0
SPLINE
  5
12c
100
AcDbEntity
  8
0
 62
7
100
AcDbSpline
 70
8
 71
3
 72
8
 73
4
 74
0
 40
0
 40
0
 40
0
 40
0
 40
1
 40
1
 40
1
 40
1
 10
129.178868
 20
59.925571
 30
0.0
 10
129.634570
 20
59.440501
 30
0.0
 10
129.940053
 20
59.030574
 30
0.0
 10
129.857723
 20
59.014617
 30
0.0
  0
SPLINE
  5
12d
100
AcDbEntity
  8
0
 62
7
100
AcDbSpline
 70
8
 71
3
 72
8
 73
4
 74
0
 40
0
 40
0
 40
0
 40
0
 40
1
 40
1
 40
1
 40
1
 10
129.857723
 20
59.014617
 30
0.0
 10
128.023437
 20
58.659141
 30
0.0
 10
127.608370
 20
58.717598
 30
0.0
 10
126.839766
 20
59.439663
 30
0.0
  0
SPLINE
  5
12e
100
AcDbEntity
  8
0
 62
7
100
AcDbSpline
 70
8
 71
3
 72
8
 73
4
 74
0
 40
0
 40
0
 40
0
 40
0
 40
1
 40
1
 40
1
 40
1
 10
126.839766
 20
59.439663
 30
0.0
 10
125.692151
 20
60.517794
 30
0.0
 10
125.791891
 20
60.112938
 30
0.0
 10
127.070175
 20
58.504430
 30
0.0
  0
SPLINE
  5
12f
100
AcDbEntity
  8
0
 62
7
100
AcDbSpline
 70
8
 71
3
 72
8
 73
4
 74
0
 40
0
 40
0
 40
0
 40
0
 40
1
 40
1
 40
1
 40
1
 10
127.070175
 20
58.504430
 30
0.0
 10
127.656638
 20
57.766455
 30
0.0
 10
128.229168
 20
56.793344
 30
0.0
 10
128.342461
 20
56.341964
 30
0.0
  0
SPLINE
  5
130
100
AcDbEntity
  8
0
 62
7
100
AcDbSpline
 70
8
 71
3
 72
8
 73
4
 74
0
 40
0
 40
0
 40
0
 40
0
 40
1
 40
1
 40
1
 40
1
 10
128.342461
 20
56.341964
 30
0.0
 10
128.512796
 20
55.663296
 30
0.0
 10
128.709835
 20
55.558586
 30
0.0
 10
129.481016
 20
55.736913
 30
0.0
  0
SPLINE
  5
131
100
AcDbEntity
  8
0
 62
7
100
AcDbSpline
 70
8
 71
3
 72
8
 73
4
 74
0
 40
0
 40
0
 40
0
 40
0
 40
1
 40
1
 40
1
 40
1
 10
129.481016
 20
55.736913
 30
0.0
 10
129.993932
 20
55.855520
 30
0.0
 10
130.770777
 20
56.175461
 30
0.0
 10
131.207341
 20
56.447896
 30
0.0
  0
LINE
  5
132
100
AcDbEntity
  8
0
 62
7
100
AcDbLine
 10
131.207341
 20
56.447896
 30
0.0
 11
131.207341
 21
56.447896
 31
0.0
  0
LINE
  5
133
100
AcDbEntity
  8
0
 62
7
100
AcDbLine
 10
104.484424
 20
58.867238
 30
0.0
 11
105.312969
 21
59.749182
 31
0.0
  0
LINE
  5
134
100
AcDbEntity
  8
0
 62
7
100
AcDbLine
 10
105.312969
 20
59.749182
 30
0.0
 11
104.369529
 21
59.749182
 31
0.0
  0
SPLINE
  5
135
100
AcDbEntity
  8
0
 62
7
100
AcDbSpline
 70
8
 71
3
 72
8
 73
4
 74
0
 40
0
 40
0
 40
0
 40
0
 40
1
 40
1
 40
1
 40
1
 10
104.369529
 20
59.749182
 30
0.0
 10
103.850638
 20
59.749182
 30
0.0
 10
103.422944
 20
59.868246
 30
0.0
 10
103.419094
 20
60.013765
 30
0.0
  0
SPLINE
  5
136
100
AcDbEntity
  8
0
 62
7
100
AcDbSpline
 70
8
 71
3
 72
8
 73
4
 74
0
 40
0
 40
0
 40
0
 40
0
 40
1
 40
1
 40
1
 40
1
 10
103.419094
 20
60.013765
 30
0.0
 10
103.415256
 20
60.159288
 30
0.0
 10
104.248684
 20
61.035963
 30
0.0
 10
105.271178
 20
61.961937
 30
0.0
  0
LINE
  5
137
100
AcDbEntity
  8
0
 62
7
100
AcDbLine
 10
105.271178
 20
61.961937
 30
0.0
 11
107.130257
 21
63.645528
 31
0.0
  0
LINE
  5
138
100
AcDbEntity
  8
0
 62
7
100
AcDbLine
 10
107.130257
 20
63.645528
 30
0.0
 11
104.131646
 21
61.845963
 31
0.0
  0
SPLINE
  5
139
100
AcDbEntity
  8
0
 62
7
100
AcDbSpline
 70
8
 71
3
 72
8
 73
4
 74
0
 40
0
 40
0
 40
0
 40
0
 40
1
 40
1
 40
1
 40
1
 10
104.131646
 20
61.845963
 30
0.0
 10
100.190438
 20
59.480707
 30
0.0
 10
99.864331
 20
59.156445
 30
0.0
 10
100.759489
 20
58.492898
 30
0.0
  0
SPLINE
  5
13a
100
AcDbEntity
  8
0
 62
7
100
AcDbSpline
 70
8
 71
3
 72
8
 73
4
 74
0
 40
0
 40
0
 40
0
 40
0
 40
1
 40
1
 40
1
 40
1
 10
100.759489
 20
58.492898
 30
0.0
 10
101.842835
 20
57.689860
 30
0.0
 10
103.538415
 20
57.860257
 30
0.0
 10
104.484424
 20
58.867238
 30
0.0
  0
LINE
  5
13b
100
AcDbEntity
  8
0
 62
7
100
AcDbLine
 10
104.484424
 20
58.867238
 30
0.0
 11
104.484424
 21
58.867238
 31
0.0
  0
SPLINE
  5
13c
100
AcDbEntity
  8
0
 62
7
100
AcDbSpline
 70
8
 71
3
 72
8
 73
4
 74
0
 40
0
 40
0
 40
0
 40
0
 40
1
 40
1
 40
1
 40
1
 10
118.129733
 20
59.679657
 30
0.0
 10
119.313590
 20
59.766426
 30
0.0
 10
119.701581
 20
59.633770
 30
0.0
 10
120.193364
 20
58.974101
 30
0.0
  0
SPLINE
  5
13d
100
AcDbEntity
  8
0
 62
7
100
AcDbSpline
 70
8
 71
3
 72
8
 73
4
 74
0
 40
0
 40
0
 40
0
 40
0
 40
1
 40
1
 40
1
 40
1
 10
120.193364
 20
58.974101
 30
0.0
 10
120.701774
 20
58.292122
 30
0.0
 10
120.756979
 20
58.274963
 30
0.0
 10
120.537199
 20
58.867238
 30
0.0
  0
SPLINE
  5
13e
100
AcDbEntity
  8
0
 62
7
100
AcDbSpline
 70
8
 71
3
 72
8
 73
4
 74
0
 40
0
 40
0
 40
0
 40
0
 40
1
 40
1
 40
1
 40
1
 10
120.537199
 20
58.867238
 30
0.0
 10
120.393203
 20
59.255293
 30
0.0
 10
120.286218
 20
59.810918
 30
0.0
 10
120.299463
 20
60.101960
 30
0.0
  0
SPLINE
  5
13f
100
AcDbEntity
  8
0
 62
7
100
AcDbSpline
 70
8
 71
3
 72
8
 73
4
 74
0
 40
0
 40
0
 40
0
 40
0
 40
1
 40
1
 40
1
 40
1
 10
120.299463
 20
60.101960
 30
0.0
 10
120.312699
 20
60.393001
 30
0.0
 10
120.147043
 20
61.227676
 30
0.0
 10
119.931327
 20
61.956795
 30
0.0
  0
SPLINE
  5
140
100
AcDbEntity
  8
0
 62
7
100
AcDbSpline
 70
8
 71
3
 72
8
 73
4
 74
0
 40
0
 40
0
 40
0
 40
0
 40
1
 40
1
 40
1
 40
1
 10
119.931327
 20
61.956795
 30
0.0
 10
119.558743
 20
63.216144
 30
0.0
 10
119.506622
 20
63.253056
 30
0.0
 10
118.889503
 20
62.694572
 30
0.0
  0
SPLINE
  5
141
100
AcDbEntity
  8
0
 62
7
100
AcDbSpline
 70
8
 71
3
 72
8
 73
4
 74
0
 40
0
 40
0
 40
0
 40
0
 40
1
 40
1
 40
1
 40
1
 10
118.889503
 20
62.694572
 30
0.0
 10
118.363907
 20
62.218911
 30
0.0
 10
118.074200
 20
62.182175
 30
0.0
 10
117.371978
 20
62.502130
 30
0.0
  0
SPLINE
  5
142
100
AcDbEntity
  8
0
 62
7
100
AcDbSpline
 70
8
 71
3
 72
8
 73
4
 74
0
 40
0
 40
0
 40
0
 40
0
 40
1
 40
1
 40
1
 40
1
 10
117.371978
 20
62.502130
 30
0.0
 10
116.733117
 20
62.793214
 30
0.0
 10
116.439806
 20
62.793598
 30
0.0
 10
116.260570
 20
62.503541
 30
0.0
  0
SPLINE
  5
143
100
AcDbEntity
  8
0
 62
7
100
AcDbSpline
 70
8
 71
3
 72
8
 73
4
 74
0
 40
0
 40
0
 40
0
 40
0
 40
1
 40
1
 40
1
 40
1
 10
116.260570
 20
62.503541
 30
0.0
 10
116.108886
 20
62.258112
 30
0.0
 10
116.177582
 20
62.208754
 30
0.0
 10
116.442761
 20
62.372646
 30
0.0
  0
SPLINE
  5
144
100
AcDbEntity
  8
0
 62
7
100
AcDbSpline
 70
8
 71
3
 72
8
 73
4
 74
0
 40
0
 40
0
 40
0
 40
0
 40
1
 40
1
 40
1
 40
1
 10
116.442761
 20
62.372646
 30
0.0
 10
116.744541
 20
62.559159
 30
0.0
 10
116.837418
 20
62.344001
 30
0.0
 10
116.761850
 20
61.633405
 30
0.0
  0
SPLINE
  5
145
100
AcDbEntity
  8
0
 62
7
100
AcDbSpline
 70
8
 71
3
 72
8
 73
4
 74
0
 40
0
 40
0
 40
0
 40
0
 40
1
 40
1
 40
1
 40
1
 10
116.761850
 20
61.633405
 30
0.0
 10
116.692076
 20
60.977306
 30
0.0
 10
116.807584
 20
60.661539
 30
0.0
 10
117.096230
 20
60.719267
 30
0.0
  0
SPLINE
  5
146
100
AcDbEntity
  8
0
 62
7
100
AcDbSpline
 70
8
 71
3
 72
8
 73
4
 74
0
 40
0
 40
0
 40
0
 40
0
 40
1
 40
1
 40
1
 40
1
 10
117.096230
 20
60.719267
 30
0.0
 10
117.338766
 20
60.767776
 30
0.0
 10
117.537202
 20
60.648712
 30
0.0
 10
117.537202
 20
60.454684
 30
0.0
  0
SPLINE
  5
147
100
AcDbEntity
  8
0
 62
7
100
AcDbSpline
 70
8
 71
3
 72
8
 73
4
 74
0
 40
0
 40
0
 40
0
 40
0
 40
1
 40
1
 40
1
 40
1
 10
117.537202
 20
60.454684
 30
0.0
 10
117.537202
 20
60.260656
 30
0.0
 10
117.356266
 20
60.101906
 30
0.0
 10
117.135120
 20
60.101906
 30
0.0
  0
SPLINE
  5
148
100
AcDbEntity
  8
0
 62
7
100
AcDbSpline
 70
8
 71
3
 72
8
 73
4
 74
0
 40
0
 40
0
 40
0
 40
0
 40
1
 40
1
 40
1
 40
1
 10
117.135120
 20
60.101906
 30
0.0
 10
116.619274
 20
60.101906
 30
0.0
 10
115.797542
 20
59.024562
 30
0.0
 10
115.789735
 20
58.338017
 30
0.0
  0
SPLINE
  5
149
100
AcDbEntity
  8
0
 62
7
100
AcDbSpline
 70
8
 71
3
 72
8
 73
4
 74
0
 40
0
 40
0
 40
0
 40
0
 40
1
 40
1
 40
1
 40
1
 10
115.789735
 20
58.338017
 30
0.0
 10
115.786546
 20
58.046976
 30
0.0
 10
115.983523
 20
58.205726
 30
0.0
 10
116.227736
 20
58.690795
 30
0.0
  0
SPLINE
  5
14a
100
AcDbEntity
  8
0
 62
7
100
AcDbSpline
 70
8
 71
3
 72
8
 73
4
 74
0
 40
0
 40
0
 40
0
 40
0
 40
1
 40
1
 40
1
 40
1
 10
116.227736
 20
58.690795
 30
0.0
 10
116.576004
 20
59.382541
 30
0.0
 10
116.986183
 20
59.595789
 30
0.0
 10
118.129733
 20
59.679603
 30
0.0
  0
LINE
  5
14b
100
AcDbEntity
  8
0
 62
7
100
AcDbLine
 10
118.129733
 20
59.679603
 30
0.0
 11
118.129733
 21
59.679657
 31
0.0
  0
SPLINE
  5
14c
100
AcDbEntity
  8
0
 62
7
100
AcDbSpline
 70
8
 71
3
 72
8
 73
4
 74
0
 40
0
 40
0
 40
0
 40
0
 40
1
 40
1
 40
1
 40
1
 10
118.595535
 20
60.454738
 30
0.0
 10
118.125167
 20
60.758716
 30
0.0
 10
118.125167
 20
60.796709
 30
0.0
 10
118.595535
 20
60.796709
 30
0.0
  0
SPLINE
  5
14d
100
AcDbEntity
  8
0
 62
7
100
AcDbSpline
 70
8
 71
3
 72
8
 73
4
 74
0
 40
0
 40
0
 40
0
 40
0
 40
1
 40
1
 40
1
 40
1
 10
118.595535
 20
60.796709
 30
0.0
 10
118.886577
 20
60.796709
 30
0.0
 10
119.362827
 20
60.642825
 30
0.0
 10
119.653868
 20
60.454738
 30
0.0
  0
SPLINE
  5
14e
100
AcDbEntity
  8
0
 62
7
100
AcDbSpline
 70
8
 71
3
 72
8
 73
4
 74
0
 40
0
 40
0
 40
0
 40
0
 40
1
 40
1
 40
1
 40
1
 10
119.653868
 20
60.454738
 30
0.0
 10
120.124237
 20
60.150759
 30
0.0
 10
120.124237
 20
60.112766
 30
0.0
 10
119.653868
 20
60.112766
 30
0.0
  0
SPLINE
  5
14f
100
AcDbEntity
  8
0
 62
7
100
AcDbSpline
 70
8
 71
3
 72
8
 73
4
 74
0
 40
0
 40
0
 40
0
 40
0
 40
1
 40
1
 40
1
 40
1
 10
119.653868
 20
60.112766
 30
0.0
 10
119.362827
 20
60.112766
 30
0.0
 10
118.886577
 20
60.266651
 30
0.0
 10
118.595535
 20
60.454738
 30
0.0
  0
LINE
  5
150
100
AcDbEntity
  8
0
 62
7
100
AcDbLine
 10
118.595535
 20
60.454738
 30
0.0
 11
118.595535
 21
60.454738
 31
0.0
  0
SPLINE
  5
151
100
AcDbEntity
  8
0
 62
7
100
AcDbSpline
 70
8
 71
3
 72
8
 73
4
 74
0
 40
0
 40
0
 40
0
 40
0
 40
1
 40
1
 40
1
 40
1
 10
135.199281
 20
58.350483
 30
0.0
 10
136.548828
 20
59.072738
 30
0.0
 10
136.038706
 20
59.576547
 30
0.0
 10
130.589980
 20
62.902778
 30
0.0
  0
SPLINE
  5
152
100
AcDbEntity
  8
0
 62
7
100
AcDbSpline
 70
8
 71
3
 72
8
 73
4
 74
0
 40
0
 40
0
 40
0
 40
0
 40
1
 40
1
 40
1
 40
1
 10
130.589980
 20
62.902778
 30
0.0
 10
129.736695
 20
63.423673
 30
0.0
 10
129.724717
 20
63.418441
 30
0.0
 10
130.221465
 20
62.741706
 30
0.0
  0
SPLINE
  5
153
100
AcDbEntity
  8
0
 62
7
100
AcDbSpline
 70
8
 71
3
 72
8
 73
4
 74
0
 40
0
 40
0
 40
0
 40
0
 40
1
 40
1
 40
1
 40
1
 10
130.221465
 20
62.741706
 30
0.0
 10
130.503854
 20
62.356997
 30
0.0
 10
130.971911
 20
61.756809
 30
0.0
 10
131.261598
 20
61.407954
 30
0.0
  0
SPLINE
  5
154
100
AcDbEntity
  8
0
 62
7
100
AcDbSpline
 70
8
 71
3
 72
8
 73
4
 74
0
 40
0
 40
0
 40
0
 40
0
 40
1
 40
1
 40
1
 40
1
 10
131.261598
 20
61.407954
 30
0.0
 10
131.772982
 20
60.792114
 30
0.0
 10
132.099598
 20
59.749182
 30
0.0
 10
131.781073
 20
59.749182
 30
0.0
  0
SPLINE
  5
155
100
AcDbEntity
  8
0
 62
7
100
AcDbSpline
 70
8
 71
3
 72
8
 73
4
 74
0
 40
0
 40
0
 40
0
 40
0
 40
1
 40
1
 40
1
 40
1
 10
131.781073
 20
59.749182
 30
0.0
 10
131.694403
 20
59.749182
 30
0.0
 10
131.192513
 20
60.011268
 30
0.0
 10
130.665765
 20
60.331598
 30
0.0
  0
SPLINE
  5
156
100
AcDbEntity
  8
0
 62
7
100
AcDbSpline
 70
8
 71
3
 72
8
 73
4
 74
0
 40
0
 40
0
 40
0
 40
0
 40
1
 40
1
 40
1
 40
1
 10
130.665765
 20
60.331598
 30
0.0
 10
129.915141
 20
60.788067
 30
0.0
 10
130.013185
 20
60.601095
 30
0.0
 10
131.119146
 20
59.466960
 30
0.0
  0
SPLINE
  5
157
100
AcDbEntity
  8
0
 62
7
100
AcDbSpline
 70
8
 71
3
 72
8
 73
4
 74
0
 40
0
 40
0
 40
0
 40
0
 40
1
 40
1
 40
1
 40
1
 10
131.119146
 20
59.466960
 30
0.0
 10
132.589222
 20
57.959442
 30
0.0
 10
133.832783
 20
57.619155
 30
0.0
 10
135.199284
 20
58.350480
 30
0.0
  0
LINE
  5
158
100
AcDbEntity
  8
0
 62
7
100
AcDbLine
 10
135.199284
 20
58.350480
 30
0.0
 11
135.199281
 21
58.350483
 31
0.0
  0
SPLINE
  5
159
100
AcDbEntity
  8
0
 62
7
100
AcDbSpline
 70
8
 71
3
 72
8
 73
4
 74
0
 40
0
 40
0
 40
0
 40
0
 40
1
 40
1
 40
1
 40
1
 10
114.301267
 20
60.454738
 30
0.0
 10
114.954445
 20
60.454738
 30
0.0
 10
115.640877
 20
61.410319
 30
0.0
 10
115.260755
 20
61.790447
 30
0.0
  0
SPLINE
  5
15a
100
AcDbEntity
  8
0
 62
7
100
AcDbSpline
 70
8
 71
3
 72
8
 73
4
 74
0
 40
0
 40
0
 40
0
 40
0
 40
1
 40
1
 40
1
 40
1
 10
115.260755
 20
61.790447
 30
0.0
 10
115.163741
 20
61.887461
 30
0.0
 10
114.984268
 20
61.705987
 30
0.0
 10
114.861930
 20
61.387174
 30
0.0
  0
SPLINE
  5
15b
100
AcDbEntity
  8
0
 62
7
100
AcDbSpline
 70
8
 71
3
 72
8
 73
4
 74
0
 40
0
 40
0
 40
0
 40
0
 40
1
 40
1
 40
1
 40
1
 10
114.861930
 20
61.387174
 30
0.0
 10
114.739589
 20
61.068362
 30
0.0
 10
114.393746
 20
60.807515
 30
0.0
 10
114.093391
 20
60.807515
 30
0.0
  0
SPLINE
  5
15c
100
AcDbEntity
  8
0
 62
7
100
AcDbSpline
 70
8
 71
3
 72
8
 73
4
 74
0
 40
0
 40
0
 40
0
 40
0
 40
1
 40
1
 40
1
 40
1
 10
114.093391
 20
60.807515
 30
0.0
 10
113.631808
 20
60.807515
 30
0.0
 10
113.646416
 20
60.917043
 30
0.0
 10
114.187772
 20
61.515233
 30
0.0
  0
SPLINE
  5
15d
100
AcDbEntity
  8
0
 62
7
100
AcDbSpline
 70
8
 71
3
 72
8
 73
4
 74
0
 40
0
 40
0
 40
0
 40
0
 40
1
 40
1
 40
1
 40
1
 10
114.187772
 20
61.515233
 30
0.0
 10
114.540033
 20
61.904476
 30
0.0
 10
114.711172
 20
62.340027
 30
0.0
 10
114.568083
 20
62.483117
 30
0.0
  0
SPLINE
  5
15e
100
AcDbEntity
  8
0
 62
7
100
AcDbSpline
 70
8
 71
3
 72
8
 73
4
 74
0
 40
0
 40
0
 40
0
 40
0
 40
1
 40
1
 40
1
 40
1
 10
114.568083
 20
62.483117
 30
0.0
 10
114.313674
 20
62.737523
 30
0.0
 10
112.273783
 20
60.548847
 30
0.0
 10
112.255026
 20
60.001353
 30
0.0
  0
SPLINE
  5
15f
100
AcDbEntity
  8
0
 62
7
100
AcDbSpline
 70
8
 71
3
 72
8
 73
4
 74
0
 40
0
 40
0
 40
0
 40
0
 40
1
 40
1
 40
1
 40
1
 10
112.255026
 20
60.001353
 30
0.0
 10
112.249805
 20
59.849007
 30
0.0
 10
112.552601
 20
59.888696
 30
0.0
 10
112.927898
 20
60.089548
 30
0.0
  0
SPLINE
  5
160
100
AcDbEntity
  8
0
 62
7
100
AcDbSpline
 70
8
 71
3
 72
8
 73
4
 74
0
 40
0
 40
0
 40
0
 40
0
 40
1
 40
1
 40
1
 40
1
 10
112.927898
 20
60.089548
 30
0.0
 10
113.303200
 20
60.290402
 30
0.0
 10
113.921215
 20
60.454738
 30
0.0
 10
114.301267
 20
60.454738
 30
0.0
  0
LINE
  5
161
100
AcDbEntity
  8
0
 62
7
100
AcDbLine
 10
114.301267
 20
60.454738
 30
0.0
 11
114.301267
 21
60.454738
 31
0.0
  0
SPLINE
  5
162
100
AcDbEntity
  8
0
 62
7
100
AcDbSpline
 70
8
 71
3
 72
8
 73
4
 74
0
 40
0
 40
0
 40
0
 40
0
 40
1
 40
1
 40
1
 40
1
 10
124.592757
 20
59.900453
 30
0.0
 10
124.592757
 20
60.347778
 30
0.0
 10
122.087149
 20
62.618146
 30
0.0
 10
121.726240
 20
62.497843
 30
0.0
  0
SPLINE
  5
163
100
AcDbEntity
  8
0
 62
7
100
AcDbSpline
 70
8
 71
3
 72
8
 73
4
 74
0
 40
0
 40
0
 40
0
 40
0
 40
1
 40
1
 40
1
 40
1
 10
121.726240
 20
62.497843
 30
0.0
 10
121.436297
 20
62.401196
 30
0.0
 10
121.498165
 20
62.193421
 30
0.0
 10
121.920251
 20
61.846313
 30
0.0
  0
SPLINE
  5
164
100
AcDbEntity
  8
0
 62
7
100
AcDbSpline
 70
8
 71
3
 72
8
 73
4
 74
0
 40
0
 40
0
 40
0
 40
0
 40
1
 40
1
 40
1
 40
1
 10
121.920251
 20
61.846313
 30
0.0
 10
122.261091
 20
61.566016
 30
0.0
 10
122.882781
 20
60.996257
 30
0.0
 10
123.301777
 20
60.580183
 30
0.0
  0
SPLINE
  5
165
100
AcDbEntity
  8
0
 62
7
100
AcDbSpline
 70
8
 71
3
 72
8
 73
4
 74
0
 40
0
 40
0
 40
0
 40
0
 40
1
 40
1
 40
1
 40
1
 10
123.301777
 20
60.580183
 30
0.0
 10
124.021438
 20
59.865542
 30
0.0
 10
124.592757
 20
59.564730
 30
0.0
 10
124.592757
 20
59.900453
 30
0.0
  0
LINE
  5
166
100
AcDbEntity
  8
0
 62
7
100
AcDbLine
 10
124.592757
 20
59.900453
 30
0.0
 11
124.592757
 21
59.900453
 31
0.0
  0
SPLINE
  5
167
100
AcDbEntity
  8
0
 62
7
100
AcDbSpline
 70
8
 71
3
 72
8
 73
4
 74
0
 40
0
 40
0
 40
0
 40
0
 40
1
 40
1
 40
1
 40
1
 10
122.564285
 20
60.688375
 30
0.0
 10
122.321749
 20
60.786239
 30
0.0
 10
121.924874
 20
60.786239
 30
0.0
 10
121.682341
 20
60.688375
 30
0.0
  0
SPLINE
  5
168
100
AcDbEntity
  8
0
 62
7
100
AcDbSpline
 70
8
 71
3
 72
8
 73
4
 74
0
 40
0
 40
0
 40
0
 40
0
 40
1
 40
1
 40
1
 40
1
 10
121.682341
 20
60.688375
 30
0.0
 10
121.439805
 20
60.590512
 30
0.0
 10
121.638243
 20
60.510437
 30
0.0
 10
122.123313
 20
60.510437
 30
0.0
  0
SPLINE
  5
169
100
AcDbEntity
  8
0
 62
7
100
AcDbSpline
 70
8
 71
3
 72
8
 73
4
 74
0
 40
0
 40
0
 40
0
 40
0
 40
1
 40
1
 40
1
 40
1
 10
122.123313
 20
60.510437
 30
0.0
 10
122.608382
 20
60.510437
 30
0.0
 10
122.806818
 20
60.590512
 30
0.0
 10
122.564285
 20
60.688375
 30
0.0
  0
LINE
  5
16a
100
AcDbEntity
  8
0
 62
7
100
AcDbLine
 10
122.564285
 20
60.688375
 30
0.0
 11
122.564285
 21
60.688375
 31
0.0
  0
SPLINE
  5
16b
100
AcDbEntity
  8
0
 62
7
100
AcDbSpline
 70
8
 71
3
 72
8
 73
4
 74
0
 40
0
 40
0
 40
0
 40
0
 40
1
 40
1
 40
1
 40
1
 10
96.671542
 20
61.120833
 30
0.0
 10
97.043906
 20
61.356790
 30
0.0
 10
97.060580
 20
61.588438
 30
0.0
 10
96.747324
 20
62.173764
 30
0.0
  0
SPLINE
  5
16c
100
AcDbEntity
  8
0
 62
7
100
AcDbSpline
 70
8
 71
3
 72
8
 73
4
 74
0
 40
0
 40
0
 40
0
 40
0
 40
1
 40
1
 40
1
 40
1
 10
96.747324
 20
62.173764
 30
0.0
 10
96.210515
 20
63.176799
 30
0.0
 10
96.084954
 20
63.119243
 30
0.0
 10
96.268001
 20
61.954043
 30
0.0
  0
LINE
  5
16d
100
AcDbEntity
  8
0
 62
7
100
AcDbLine
 10
96.268001
 20
61.954043
 30
0.0
 11
96.420404
 21
60.983904
 31
0.0
  0
LINE
  5
16e
100
AcDbEntity
  8
0
 62
7
100
AcDbLine
 10
96.420404
 20
60.983904
 30
0.0
 11
95.513525
 21
61.973714
 31
0.0
  0
SPLINE
  5
16f
100
AcDbEntity
  8
0
 62
7
100
AcDbSpline
 70
8
 71
3
 72
8
 73
4
 74
0
 40
0
 40
0
 40
0
 40
0
 40
1
 40
1
 40
1
 40
1
 10
95.513525
 20
61.973714
 30
0.0
 10
94.484269
 20
63.097097
 30
0.0
 10
94.333097
 20
62.964071
 30
0.0
 10
95.176385
 20
61.677050
 30
0.0
  0
SPLINE
  5
170
100
AcDbEntity
  8
0
 62
7
100
AcDbSpline
 70
8
 71
3
 72
8
 73
4
 74
0
 40
0
 40
0
 40
0
 40
0
 40
1
 40
1
 40
1
 40
1
 10
95.176385
 20
61.677050
 30
0.0
 10
95.798304
 20
60.727881
 30
0.0
 10
95.957794
 20
60.668549
 30
0.0
 10
96.671542
 20
61.120833
 30
0.0
  0
LINE
  5
171
100
AcDbEntity
  8
0
 62
7
100
AcDbLine
 10
96.671542
 20
61.120833
 30
0.0
 11
96.671542
 21
61.120833
 31
0.0
  0
SPLINE
  5
172
100
AcDbEntity
  8
0
 62
7
100
AcDbSpline
 70
8
 71
3
 72
8
 73
4
 74
0
 40
0
 40
0
 40
0
 40
0
 40
1
 40
1
 40
1
 40
1
 10
110.607639
 20
61.689460
 30
0.0
 10
110.898678
 20
61.980501
 30
0.0
 10
111.338645
 20
62.218626
 30
0.0
 10
111.585335
 20
62.218626
 30
0.0
  0
SPLINE
  5
173
100
AcDbEntity
  8
0
 62
7
100
AcDbSpline
 70
8
 71
3
 72
8
 73
4
 74
0
 40
0
 40
0
 40
0
 40
0
 40
1
 40
1
 40
1
 40
1
 10
111.585335
 20
62.218626
 30
0.0
 10
111.927409
 20
62.218626
 30
0.0
 10
111.936053
 20
62.316442
 30
0.0
 10
111.621762
 20
62.630736
 30
0.0
  0
SPLINE
  5
174
100
AcDbEntity
  8
0
 62
7
100
AcDbSpline
 70
8
 71
3
 72
8
 73
4
 74
0
 40
0
 40
0
 40
0
 40
0
 40
1
 40
1
 40
1
 40
1
 10
111.621762
 20
62.630736
 30
0.0
 10
111.307468
 20
62.945027
 30
0.0
 10
110.986234
 20
62.819430
 30
0.0
 10
110.268374
 20
62.101569
 30
0.0
  0
SPLINE
  5
175
100
AcDbEntity
  8
0
 62
7
100
AcDbSpline
 70
8
 71
3
 72
8
 73
4
 74
0
 40
0
 40
0
 40
0
 40
0
 40
1
 40
1
 40
1
 40
1
 10
110.268374
 20
62.101569
 30
0.0
 10
109.750674
 20
61.583866
 30
0.0
 10
109.496157
 20
61.160293
 30
0.0
 10
109.702786
 20
61.160293
 30
0.0
  0
SPLINE
  5
176
100
AcDbEntity
  8
0
 62
7
100
AcDbSpline
 70
8
 71
3
 72
8
 73
4
 74
0
 40
0
 40
0
 40
0
 40
0
 40
1
 40
1
 40
1
 40
1
 10
109.702786
 20
61.160293
 30
0.0
 10
109.909412
 20
61.160293
 30
0.0
 10
110.316597
 20
61.398418
 30
0.0
 10
110.607639
 20
61.689460
 30
0.0
  0
LINE
  5
177
100
AcDbEntity
  8
0
 62
7
100
AcDbLine
 10
110.607639
 20
61.689460
 30
0.0
 11
110.607639
 21
61.689460
 31
0.0
  0
SPLINE
  5
178
100
AcDbEntity
  8
0
 62
7
100
AcDbSpline
 70
8
 71
3
 72
8
 73
4
 74
0
 40
0
 40
0
 40
0
 40
0
 40
1
 40
1
 40
1
 40
1
 10
126.142773
 20
62.197798
 30
0.0
 10
125.604194
 20
62.768424
 30
0.0
 10
125.035110
 20
63.155932
 30
0.0
 10
124.878143
 20
63.058921
 30
0.0
  0
SPLINE
  5
179
100
AcDbEntity
  8
0
 62
7
100
AcDbSpline
 70
8
 71
3
 72
8
 73
4
 74
0
 40
0
 40
0
 40
0
 40
0
 40
1
 40
1
 40
1
 40
1
 10
124.878143
 20
63.058921
 30
0.0
 10
124.463833
 20
62.802860
 30
0.0
 10
124.528207
 20
62.218626
 30
0.0
 10
124.970735
 20
62.218626
 30
0.0
  0
SPLINE
  5
17a
100
AcDbEntity
  8
0
 62
7
100
AcDbSpline
 70
8
 71
3
 72
8
 73
4
 74
0
 40
0
 40
0
 40
0
 40
0
 40
1
 40
1
 40
1
 40
1
 10
124.970735
 20
62.218626
 30
0.0
 10
125.178620
 20
62.218626
 30
0.0
 10
125.586837
 20
61.980501
 30
0.0
 10
125.877879
 20
61.689460
 30
0.0
  0
SPLINE
  5
17b
100
AcDbEntity
  8
0
 62
7
100
AcDbSpline
 70
8
 71
3
 72
8
 73
4
 74
0
 40
0
 40
0
 40
0
 40
0
 40
1
 40
1
 40
1
 40
1
 10
125.877879
 20
61.689460
 30
0.0
 10
126.877112
 20
60.690224
 30
0.0
 10
127.122047
 20
61.160254
 30
0.0
 10
126.142773
 20
62.197798
 30
0.0
  0
LINE
  5
17c
100
AcDbEntity
  8
0
 62
7
100
AcDbLine
 10
126.142773
 20
62.197798
 30
0.0
 11
126.142773
 21
62.197798
 31
0.0
  0
SPLINE
  5
17d
100
AcDbEntity
  8
0
 62
7
100
AcDbSpline
 70
8
 71
3
 72
8
 73
4
 74
0
 40
0
 40
0
 40
0
 40
0
 40
1
 40
1
 40
1
 40
1
 10
112.745035
 20
62.092134
 30
0.0
 10
112.938489
 20
62.596268
 30
0.0
 10
112.886309
 20
62.609188
 30
0.0
 10
112.341804
 20
62.191959
 30
0.0
  0
SPLINE
  5
17e
100
AcDbEntity
  8
0
 62
7
100
AcDbSpline
 70
8
 71
3
 72
8
 73
4
 74
0
 40
0
 40
0
 40
0
 40
0
 40
1
 40
1
 40
1
 40
1
 10
112.341804
 20
62.191959
 30
0.0
 10
111.997815
 20
61.928378
 30
0.0
 10
111.650221
 20
61.667799
 30
0.0
 10
111.569376
 20
61.612896
 30
0.0
  0
SPLINE
  5
17f
100
AcDbEntity
  8
0
 62
7
100
AcDbSpline
 70
8
 71
3
 72
8
 73
4
 74
0
 40
0
 40
0
 40
0
 40
0
 40
1
 40
1
 40
1
 40
1
 10
111.569376
 20
61.612896
 30
0.0
 10
111.488533
 20
61.557995
 30
0.0
 10
111.669985
 20
61.513071
 30
0.0
 10
111.972606
 20
61.513071
 30
0.0
  0
SPLINE
  5
180
100
AcDbEntity
  8
0
 62
7
100
AcDbSpline
 70
8
 71
3
 72
8
 73
4
 74
0
 40
0
 40
0
 40
0
 40
0
 40
1
 40
1
 40
1
 40
1
 10
111.972606
 20
61.513071
 30
0.0
 10
112.275228
 20
61.513071
 30
0.0
 10
112.622821
 20
61.773649
 30
0.0
 10
112.745035
 20
62.092134
 30
0.0
  0
LINE
  5
181
100
AcDbEntity
  8
0
 62
7
100
AcDbLine
 10
112.745035
 20
62.092134
 30
0.0
 11
112.745035
 21
62.092134
 31
0.0
  0
SPLINE
  5
182
100
AcDbEntity
  8
0
 62
7
100
AcDbSpline
 70
8
 71
3
 72
8
 73
4
 74
0
 40
0
 40
0
 40
0
 40
0
 40
1
 40
1
 40
1
 40
1
 10
124.367555
 20
62.042238
 30
0.0
 10
124.255869
 20
62.333279
 30
0.0
 10
124.003291
 20
62.571404
 30
0.0
 10
123.806263
 20
62.571404
 30
0.0
  0
SPLINE
  5
183
100
AcDbEntity
  8
0
 62
7
100
AcDbSpline
 70
8
 71
3
 72
8
 73
4
 74
0
 40
0
 40
0
 40
0
 40
0
 40
1
 40
1
 40
1
 40
1
 10
123.806263
 20
62.571404
 30
0.0
 10
123.599778
 20
62.571404
 30
0.0
 10
123.634065
 20
62.347246
 30
0.0
 10
123.887202
 20
62.042238
 30
0.0
  0
SPLINE
  5
184
100
AcDbEntity
  8
0
 62
7
100
AcDbSpline
 70
8
 71
3
 72
8
 73
4
 74
0
 40
0
 40
0
 40
0
 40
0
 40
1
 40
1
 40
1
 40
1
 10
123.887202
 20
62.042238
 30
0.0
 10
124.128744
 20
61.751196
 30
0.0
 10
124.381328
 20
61.513071
 30
0.0
 10
124.448491
 20
61.513071
 30
0.0
  0
SPLINE
  5
185
100
AcDbEntity
  8
0
 62
7
100
AcDbSpline
 70
8
 71
3
 72
8
 73
4
 74
0
 40
0
 40
0
 40
0
 40
0
 40
1
 40
1
 40
1
 40
1
 10
124.448491
 20
61.513071
 30
0.0
 10
124.515657
 20
61.513071
 30
0.0
 10
124.479219
 20
61.751196
 30
0.0
 10
124.367555
 20
62.042238
 30
0.0
  0
LINE
  5
186
100
AcDbEntity
  8
0
 62
7
100
AcDbLine
 10
124.367555
 20
62.042238
 30
0.0
 11
124.367555
 21
62.042238
 31
0.0
  0
SPLINE
  5
187
100
AcDbEntity
  8
0
 62
7
100
AcDbSpline
 70
8
 71
3
 72
8
 73
4
 74
0
 40
0
 40
0
 40
0
 40
0
 40
1
 40
1
 40
1
 40
1
 10
85.568988
 20
63.791801
 30
0.0
 10
85.976251
 20
64.413367
 30
0.0
 10
86.024000
 20
64.688071
 30
0.0
 10
85.724777
 20
64.688071
 30
0.0
  0
SPLINE
  5
188
100
AcDbEntity
  8
0
 62
7
100
AcDbSpline
 70
8
 71
3
 72
8
 73
4
 74
0
 40
0
 40
0
 40
0
 40
0
 40
1
 40
1
 40
1
 40
1
 10
85.724777
 20
64.688071
 30
0.0
 10
85.448428
 20
64.688071
 30
0.0
 10
85.415349
 20
64.810107
 30
0.0
 10
85.632761
 20
65.027519
 30
0.0
  0
SPLINE
  5
189
100
AcDbEntity
  8
0
 62
7
100
AcDbSpline
 70
8
 71
3
 72
8
 73
4
 74
0
 40
0
 40
0
 40
0
 40
0
 40
1
 40
1
 40
1
 40
1
 10
85.632761
 20
65.027519
 30
0.0
 10
85.819463
 20
65.214221
 30
0.0
 10
87.387111
 20
65.527747
 30
0.0
 10
89.116428
 20
65.724241
 30
0.0
  0
SPLINE
  5
18a
100
AcDbEntity
  8
0
 62
7
100
AcDbSpline
 70
8
 71
3
 72
8
 73
4
 74
0
 40
0
 40
0
 40
0
 40
0
 40
1
 40
1
 40
1
 40
1
 10
89.116428
 20
65.724241
 30
0.0
 10
93.008585
 20
66.166498
 30
0.0
 10
93.962048
 20
66.808446
 30
0.0
 10
90.708452
 20
66.796113
 30
0.0
  0
SPLINE
  5
18b
100
AcDbEntity
  8
0
 62
7
100
AcDbSpline
 70
8
 71
3
 72
8
 73
4
 74
0
 40
0
 40
0
 40
0
 40
0
 40
1
 40
1
 40
1
 40
1
 10
90.708452
 20
66.796113
 30
0.0
 10
89.456971
 20
66.791372
 30
0.0
 10
87.718660
 20
66.616086
 30
0.0
 10
86.845535
 20
66.406593
 30
0.0
  0
SPLINE
  5
18c
100
AcDbEntity
  8
0
 62
7
100
AcDbSpline
 70
8
 71
3
 72
8
 73
4
 74
0
 40
0
 40
0
 40
0
 40
0
 40
1
 40
1
 40
1
 40
1
 10
86.845535
 20
66.406593
 30
0.0
 10
85.972410
 20
66.197099
 30
0.0
 10
84.783741
 20
66.032682
 30
0.0
 10
84.204040
 20
66.041228
 30
0.0
  0
SPLINE
  5
18d
100
AcDbEntity
  8
0
 62
7
100
AcDbSpline
 70
8
 71
3
 72
8
 73
4
 74
0
 40
0
 40
0
 40
0
 40
0
 40
1
 40
1
 40
1
 40
1
 10
84.204040
 20
66.041228
 30
0.0
 10
82.912783
 20
66.060249
 30
0.0
 10
81.906646
 20
65.211957
 30
0.0
 10
81.906646
 20
64.104226
 30
0.0
  0
SPLINE
  5
18e
100
AcDbEntity
  8
0
 62
7
100
AcDbSpline
 70
8
 71
3
 72
8
 73
4
 74
0
 40
0
 40
0
 40
0
 40
0
 40
1
 40
1
 40
1
 40
1
 10
81.906646
 20
64.104226
 30
0.0
 10
81.906646
 20
63.202459
 30
0.0
 10
82.557640
 20
63.034133
 30
0.0
 10
83.693725
 20
63.642147
 30
0.0
  0
SPLINE
  5
18f
100
AcDbEntity
  8
0
 62
7
100
AcDbSpline
 70
8
 71
3
 72
8
 73
4
 74
0
 40
0
 40
0
 40
0
 40
0
 40
1
 40
1
 40
1
 40
1
 10
83.693725
 20
63.642147
 30
0.0
 10
84.230625
 20
63.929489
 30
0.0
 10
84.376091
 20
63.891885
 30
0.0
 10
84.376091
 20
63.465758
 30
0.0
  0
SPLINE
  5
190
100
AcDbEntity
  8
0
 62
7
100
AcDbSpline
 70
8
 71
3
 72
8
 73
4
 74
0
 40
0
 40
0
 40
0
 40
0
 40
1
 40
1
 40
1
 40
1
 10
84.376091
 20
63.465758
 30
0.0
 10
84.376091
 20
63.116141
 30
0.0
 10
84.032228
 20
62.915394
 30
0.0
 10
83.405952
 20
62.899386
 30
0.0
  0
SPLINE
  5
191
100
AcDbEntity
  8
0
 62
7
100
AcDbSpline
 70
8
 71
3
 72
8
 73
4
 74
0
 40
0
 40
0
 40
0
 40
0
 40
1
 40
1
 40
1
 40
1
 10
83.405952
 20
62.899386
 30
0.0
 10
82.559144
 20
62.877711
 30
0.0
 10
82.525509
 20
62.838530
 30
0.0
 10
83.141368
 20
62.590931
 30
0.0
  0
SPLINE
  5
192
100
AcDbEntity
  8
0
 62
7
100
AcDbSpline
 70
8
 71
3
 72
8
 73
4
 74
0
 40
0
 40
0
 40
0
 40
0
 40
1
 40
1
 40
1
 40
1
 10
83.141368
 20
62.590931
 30
0.0
 10
84.018360
 20
62.238340
 30
0.0
 10
84.806607
 20
62.628264
 30
0.0
 10
85.568988
 20
63.791801
 30
0.0
  0
LINE
  5
193
100
AcDbEntity
  8
0
 62
7
100
AcDbLine
 10
85.568988
 20
63.791801
 30
0.0
 11
85.568988
 21
63.791801
 31
0.0
  0
SPLINE
  5
194
100
AcDbEntity
  8
0
 62
7
100
AcDbSpline
 70
8
 71
3
 72
8
 73
4
 74
0
 40
0
 40
0
 40
0
 40
0
 40
1
 40
1
 40
1
 40
1
 10
108.213296
 20
62.531430
 30
0.0
 10
108.106964
 20
62.703473
 30
0.0
 10
108.256349
 20
63.040412
 30
0.0
 10
108.545252
 20
63.280186
 30
0.0
  0
SPLINE
  5
195
100
AcDbEntity
  8
0
 62
7
100
AcDbSpline
 70
8
 71
3
 72
8
 73
4
 74
0
 40
0
 40
0
 40
0
 40
0
 40
1
 40
1
 40
1
 40
1
 10
108.545252
 20
63.280186
 30
0.0
 10
108.909903
 20
63.582815
 30
0.0
 10
109.070535
 20
63.595038
 30
0.0
 10
109.070535
 20
63.320154
 30
0.0
  0
SPLINE
  5
196
100
AcDbEntity
  8
0
 62
7
100
AcDbSpline
 70
8
 71
3
 72
8
 73
4
 74
0
 40
0
 40
0
 40
0
 40
0
 40
1
 40
1
 40
1
 40
1
 10
109.070535
 20
63.320154
 30
0.0
 10
109.070535
 20
62.809532
 30
0.0
 10
109.872780
 20
62.809205
 30
0.0
 10
110.383193
 20
63.319589
 30
0.0
  0
SPLINE
  5
197
100
AcDbEntity
  8
0
 62
7
100
AcDbSpline
 70
8
 71
3
 72
8
 73
4
 74
0
 40
0
 40
0
 40
0
 40
0
 40
1
 40
1
 40
1
 40
1
 10
110.383193
 20
63.319589
 30
0.0
 10
110.675256
 20
63.611656
 30
0.0
 10
110.592167
 20
64.072759
 30
0.0
 10
110.065352
 20
65.083478
 30
0.0
  0
SPLINE
  5
198
100
AcDbEntity
  8
0
 62
7
100
AcDbSpline
 70
8
 71
3
 72
8
 73
4
 74
0
 40
0
 40
0
 40
0
 40
0
 40
1
 40
1
 40
1
 40
1
 10
110.065352
 20
65.083478
 30
0.0
 10
109.673051
 20
65.836295
 30
0.0
 10
109.278033
 20
66.452101
 30
0.0
 10
109.187533
 20
66.452101
 30
0.0
  0
SPLINE
  5
199
100
AcDbEntity
  8
0
 62
7
100
AcDbSpline
 70
8
 71
3
 72
8
 73
4
 74
0
 40
0
 40
0
 40
0
 40
0
 40
1
 40
1
 40
1
 40
1
 10
109.187533
 20
66.452101
 30
0.0
 10
108.882888
 20
66.452101
 30
0.0
 10
109.501807
 20
64.870248
 30
0.0
 10
110.051221
 20
64.244657
 30
0.0
  0
SPLINE
  5
19a
100
AcDbEntity
  8
0
 62
7
100
AcDbSpline
 70
8
 71
3
 72
8
 73
4
 74
0
 40
0
 40
0
 40
0
 40
0
 40
1
 40
1
 40
1
 40
1
 10
110.051221
 20
64.244657
 30
0.0
 10
110.558326
 20
63.667239
 30
0.0
 10
110.525111
 20
63.638825
 30
0.0
 10
109.566967
 20
63.830454
 30
0.0
  0
SPLINE
  5
19b
100
AcDbEntity
  8
0
 62
7
100
AcDbSpline
 70
8
 71
3
 72
8
 73
4
 74
0
 40
0
 40
0
 40
0
 40
0
 40
1
 40
1
 40
1
 40
1
 10
109.566967
 20
63.830454
 30
0.0
 10
108.758649
 20
63.992119
 30
0.0
 10
108.355373
 20
63.841545
 30
0.0
 10
107.684573
 20
63.127481
 30
0.0
  0
LINE
  5
19c
100
AcDbEntity
  8
0
 62
7
100
AcDbLine
 10
107.684573
 20
63.127481
 30
0.0
 11
106.830879
 21
62.218768
 31
0.0
  0
LINE
  5
19d
100
AcDbEntity
  8
0
 62
7
100
AcDbLine
 10
106.830879
 20
62.218768
 30
0.0
 11
107.618750
 21
62.218768
 31
0.0
  0
SPLINE
  5
19e
100
AcDbEntity
  8
0
 62
7
100
AcDbSpline
 70
8
 71
3
 72
8
 73
4
 74
0
 40
0
 40
0
 40
0
 40
0
 40
1
 40
1
 40
1
 40
1
 10
107.618750
 20
62.218768
 30
0.0
 10
108.052080
 20
62.218768
 30
0.0
 10
108.319624
 20
62.359529
 30
0.0
 10
108.213296
 20
62.531571
 30
0.0
  0
LINE
  5
19f
100
AcDbEntity
  8
0
 62
7
100
AcDbLine
 10
108.213296
 20
62.531571
 30
0.0
 11
108.213296
 21
62.531430
 31
0.0
  0
SPLINE
  5
1a0
100
AcDbEntity
  8
0
 62
7
100
AcDbSpline
 70
8
 71
3
 72
8
 73
4
 74
0
 40
0
 40
0
 40
0
 40
0
 40
1
 40
1
 40
1
 40
1
 10
109.776091
 20
62.357271
 30
0.0
 10
109.776091
 20
62.433527
 30
0.0
 10
109.537966
 20
62.587293
 30
0.0
 10
109.246924
 20
62.698980
 30
0.0
  0
SPLINE
  5
1a1
100
AcDbEntity
  8
0
 62
7
100
AcDbSpline
 70
8
 71
3
 72
8
 73
4
 74
0
 40
0
 40
0
 40
0
 40
0
 40
1
 40
1
 40
1
 40
1
 10
109.246924
 20
62.698980
 30
0.0
 10
108.955882
 20
62.810661
 30
0.0
 10
108.717757
 20
62.748270
 30
0.0
 10
108.717757
 20
62.560335
 30
0.0
  0
SPLINE
  5
1a2
100
AcDbEntity
  8
0
 62
7
100
AcDbSpline
 70
8
 71
3
 72
8
 73
4
 74
0
 40
0
 40
0
 40
0
 40
0
 40
1
 40
1
 40
1
 40
1
 10
108.717757
 20
62.560335
 30
0.0
 10
108.717757
 20
62.372395
 30
0.0
 10
108.955882
 20
62.218626
 30
0.0
 10
109.246924
 20
62.218626
 30
0.0
  0
SPLINE
  5
1a3
100
AcDbEntity
  8
0
 62
7
100
AcDbSpline
 70
8
 71
3
 72
8
 73
4
 74
0
 40
0
 40
0
 40
0
 40
0
 40
1
 40
1
 40
1
 40
1
 10
109.246924
 20
62.218626
 30
0.0
 10
109.537966
 20
62.218626
 30
0.0
 10
109.776091
 20
62.281017
 30
0.0
 10
109.776091
 20
62.357271
 30
0.0
  0
LINE
  5
1a4
100
AcDbEntity
  8
0
 62
7
100
AcDbLine
 10
109.776091
 20
62.357271
 30
0.0
 11
109.776091
 21
62.357271
 31
0.0
  0
SPLINE
  5
1a5
100
AcDbEntity
  8
0
 62
7
100
AcDbSpline
 70
8
 71
3
 72
8
 73
4
 74
0
 40
0
 40
0
 40
0
 40
0
 40
1
 40
1
 40
1
 40
1
 10
128.628942
 20
63.342509
 30
0.0
 10
127.318073
 20
64.493467
 30
0.0
 10
126.412687
 20
64.461153
 30
0.0
 10
126.086204
 20
63.251757
 30
0.0
  0
SPLINE
  5
1a6
100
AcDbEntity
  8
0
 62
7
100
AcDbSpline
 70
8
 71
3
 72
8
 73
4
 74
0
 40
0
 40
0
 40
0
 40
0
 40
1
 40
1
 40
1
 40
1
 10
126.086204
 20
63.251757
 30
0.0
 10
125.992946
 20
62.906315
 30
0.0
 10
126.041853
 20
62.875945
 30
0.0
 10
126.241669
 20
63.155198
 30
0.0
  0
SPLINE
  5
1a7
100
AcDbEntity
  8
0
 62
7
100
AcDbSpline
 70
8
 71
3
 72
8
 73
4
 74
0
 40
0
 40
0
 40
0
 40
0
 40
1
 40
1
 40
1
 40
1
 10
126.241669
 20
63.155198
 30
0.0
 10
126.455057
 20
63.453419
 30
0.0
 10
126.864070
 20
63.386473
 30
0.0
 10
127.767831
 20
62.905403
 30
0.0
  0
SPLINE
  5
1a8
100
AcDbEntity
  8
0
 62
7
100
AcDbSpline
 70
8
 71
3
 72
8
 73
4
 74
0
 40
0
 40
0
 40
0
 40
0
 40
1
 40
1
 40
1
 40
1
 10
127.767831
 20
62.905403
 30
0.0
 10
129.660297
 20
61.898045
 30
0.0
 10
130.049239
 20
62.095476
 30
0.0
 10
128.628942
 20
63.342509
 30
0.0
  0
LINE
  5
1a9
100
AcDbEntity
  8
0
 62
7
100
AcDbLine
 10
128.628942
 20
63.342509
 30
0.0
 11
128.628942
 21
63.342509
 31
0.0
  0
SPLINE
  5
1aa
100
AcDbEntity
  8
0
 62
7
100
AcDbSpline
 70
8
 71
3
 72
8
 73
4
 74
0
 40
0
 40
0
 40
0
 40
0
 40
1
 40
1
 40
1
 40
1
 10
95.519776
 20
64.245315
 30
0.0
 10
95.134402
 20
64.630689
 30
0.0
 10
94.870143
 20
64.017821
 30
0.0
 10
95.146825
 20
63.380369
 30
0.0
  0
SPLINE
  5
1ab
100
AcDbEntity
  8
0
 62
7
100
AcDbSpline
 70
8
 71
3
 72
8
 73
4
 74
0
 40
0
 40
0
 40
0
 40
0
 40
1
 40
1
 40
1
 40
1
 10
95.146825
 20
63.380369
 30
0.0
 10
95.409179
 20
62.775931
 30
0.0
 10
95.428198
 20
62.776481
 30
0.0
 10
95.574372
 20
63.392758
 30
0.0
  0
SPLINE
  5
1ac
100
AcDbEntity
  8
0
 62
7
100
AcDbSpline
 70
8
 71
3
 72
8
 73
4
 74
0
 40
0
 40
0
 40
0
 40
0
 40
1
 40
1
 40
1
 40
1
 10
95.574372
 20
63.392758
 30
0.0
 10
95.658508
 20
63.747495
 30
0.0
 10
95.633941
 20
64.131139
 30
0.0
 10
95.519776
 20
64.245307
 30
0.0
  0
LINE
  5
1ad
100
AcDbEntity
  8
0
 62
7
100
AcDbLine
 10
95.519776
 20
64.245307
 30
0.0
 11
95.519776
 21
64.245315
 31
0.0
  0
SPLINE
  5
1ae
100
AcDbEntity
  8
0
 62
7
100
AcDbSpline
 70
8
 71
3
 72
8
 73
4
 74
0
 40
0
 40
0
 40
0
 40
0
 40
1
 40
1
 40
1
 40
1
 10
118.419146
 20
63.629738
 30
0.0
 10
118.299230
 20
63.823765
 30
0.0
 10
118.051735
 20
63.982515
 30
0.0
 10
117.869160
 20
63.982515
 30
0.0
  0
SPLINE
  5
1af
100
AcDbEntity
  8
0
 62
7
100
AcDbSpline
 70
8
 71
3
 72
8
 73
4
 74
0
 40
0
 40
0
 40
0
 40
0
 40
1
 40
1
 40
1
 40
1
 10
117.869160
 20
63.982515
 30
0.0
 10
117.686582
 20
63.982515
 30
0.0
 10
117.537202
 20
63.823765
 30
0.0
 10
117.537202
 20
63.629738
 30
0.0
  0
SPLINE
  5
1b0
100
AcDbEntity
  8
0
 62
7
100
AcDbSpline
 70
8
 71
3
 72
8
 73
4
 74
0
 40
0
 40
0
 40
0
 40
0
 40
1
 40
1
 40
1
 40
1
 10
117.537202
 20
63.629738
 30
0.0
 10
117.537202
 20
63.435710
 30
0.0
 10
117.784697
 20
63.276960
 30
0.0
 10
118.087188
 20
63.276960
 30
0.0
  0
SPLINE
  5
1b1
100
AcDbEntity
  8
0
 62
7
100
AcDbSpline
 70
8
 71
3
 72
8
 73
4
 74
0
 40
0
 40
0
 40
0
 40
0
 40
1
 40
1
 40
1
 40
1
 10
118.087188
 20
63.276960
 30
0.0
 10
118.389682
 20
63.276960
 30
0.0
 10
118.539062
 20
63.435710
 30
0.0
 10
118.419146
 20
63.629738
 30
0.0
  0
LINE
  5
1b2
100
AcDbEntity
  8
0
 62
7
100
AcDbLine
 10
118.419146
 20
63.629738
 30
0.0
 11
118.419146
 21
63.629738
 31
0.0
  0
SPLINE
  5
1b3
100
AcDbEntity
  8
0
 62
7
100
AcDbSpline
 70
8
 71
3
 72
8
 73
4
 74
0
 40
0
 40
0
 40
0
 40
0
 40
1
 40
1
 40
1
 40
1
 10
97.688250
 20
65.068707
 30
0.0
 10
98.069092
 20
65.815131
 30
0.0
 10
98.303574
 20
65.759367
 30
0.0
 10
98.176199
 20
64.952654
 30
0.0
  0
SPLINE
  5
1b4
100
AcDbEntity
  8
0
 62
7
100
AcDbSpline
 70
8
 71
3
 72
8
 73
4
 74
0
 40
0
 40
0
 40
0
 40
0
 40
1
 40
1
 40
1
 40
1
 10
98.176199
 20
64.952654
 30
0.0
 10
98.153226
 20
64.807135
 30
0.0
 10
100.514678
 20
64.688071
 30
0.0
 10
103.423878
 20
64.688071
 30
0.0
  0
SPLINE
  5
1b5
100
AcDbEntity
  8
0
 62
7
100
AcDbSpline
 70
8
 71
3
 72
8
 73
4
 74
0
 40
0
 40
0
 40
0
 40
0
 40
1
 40
1
 40
1
 40
1
 10
103.423878
 20
64.688071
 30
0.0
 10
108.710044
 20
64.688071
 30
0.0
 10
108.713256
 20
64.688353
 30
0.0
 10
108.591844
 20
65.481821
 30
0.0
  0
SPLINE
  5
1b6
100
AcDbEntity
  8
0
 62
7
100
AcDbSpline
 70
8
 71
3
 72
8
 73
4
 74
0
 40
0
 40
0
 40
0
 40
0
 40
1
 40
1
 40
1
 40
1
 10
108.591844
 20
65.481821
 30
0.0
 10
108.472475
 20
66.261728
 30
0.0
 10
108.376593
 20
66.276652
 30
0.0
 10
103.094567
 20
66.337536
 30
0.0
  0
SPLINE
  5
1b7
100
AcDbEntity
  8
0
 62
7
100
AcDbSpline
 70
8
 71
3
 72
8
 73
4
 74
0
 40
0
 40
0
 40
0
 40
0
 40
1
 40
1
 40
1
 40
1
 10
103.094567
 20
66.337536
 30
0.0
 10
98.551619
 20
66.389902
 30
0.0
 10
97.614336
 20
66.494019
 30
0.0
 10
97.044654
 20
67.009574
 30
0.0
  0
SPLINE
  5
1b8
100
AcDbEntity
  8
0
 62
7
100
AcDbSpline
 70
8
 71
3
 72
8
 73
4
 74
0
 40
0
 40
0
 40
0
 40
0
 40
1
 40
1
 40
1
 40
1
 10
97.044654
 20
67.009574
 30
0.0
 10
96.218050
 20
67.757644
 30
0.0
 10
96.148565
 20
67.281958
 30
0.0
 10
96.954380
 20
66.391542
 30
0.0
  0
SPLINE
  5
1b9
100
AcDbEntity
  8
0
 62
7
100
AcDbSpline
 70
8
 71
3
 72
8
 73
4
 74
0
 40
0
 40
0
 40
0
 40
0
 40
1
 40
1
 40
1
 40
1
 10
96.954380
 20
66.391542
 30
0.0
 10
97.497649
 20
65.791235
 30
0.0
 10
97.497649
 20
65.701573
 30
0.0
 10
96.954380
 20
65.101264
 30
0.0
  0
SPLINE
  5
1ba
100
AcDbEntity
  8
0
 62
7
100
AcDbSpline
 70
8
 71
3
 72
8
 73
4
 74
0
 40
0
 40
0
 40
0
 40
0
 40
1
 40
1
 40
1
 40
1
 10
96.954380
 20
65.101264
 30
0.0
 10
96.261654
 20
64.335812
 30
0.0
 10
96.196669
 20
63.866370
 30
0.0
 10
96.811507
 20
64.069172
 30
0.0
  0
SPLINE
  5
1bb
100
AcDbEntity
  8
0
 62
7
100
AcDbSpline
 70
8
 71
3
 72
8
 73
4
 74
0
 40
0
 40
0
 40
0
 40
0
 40
1
 40
1
 40
1
 40
1
 10
96.811507
 20
64.069172
 30
0.0
 10
97.054041
 20
64.149168
 30
0.0
 10
97.448579
 20
64.598959
 30
0.0
 10
97.688250
 20
65.068707
 30
0.0
  0
LINE
  5
1bc
100
AcDbEntity
  8
0
 62
7
100
AcDbLine
 10
97.688250
 20
65.068707
 30
0.0
 11
97.688250
 21
65.068707
 31
0.0
  0
SPLINE
  5
1bd
100
AcDbEntity
  8
0
 62
7
100
AcDbSpline
 70
8
 71
3
 72
8
 73
4
 74
0
 40
0
 40
0
 40
0
 40
0
 40
1
 40
1
 40
1
 40
1
 10
126.729637
 20
65.431399
 30
0.0
 10
126.913598
 20
65.775126
 30
0.0
 10
126.931093
 20
66.138572
 30
0.0
 10
126.768510
 20
66.239051
 30
0.0
  0
SPLINE
  5
1be
100
AcDbEntity
  8
0
 62
7
100
AcDbSpline
 70
8
 71
3
 72
8
 73
4
 74
0
 40
0
 40
0
 40
0
 40
0
 40
1
 40
1
 40
1
 40
1
 10
126.768510
 20
66.239051
 30
0.0
 10
126.605933
 20
66.339534
 30
0.0
 10
126.197541
 20
65.844276
 30
0.0
 10
125.860968
 20
65.138481
 30
0.0
  0
SPLINE
  5
1bf
100
AcDbEntity
  8
0
 62
7
100
AcDbSpline
 70
8
 71
3
 72
8
 73
4
 74
0
 40
0
 40
0
 40
0
 40
0
 40
1
 40
1
 40
1
 40
1
 10
125.860968
 20
65.138481
 30
0.0
 10
125.319223
 20
64.002423
 30
0.0
 10
125.314758
 20
63.909775
 30
0.0
 10
125.822095
 20
64.330823
 30
0.0
  0
SPLINE
  5
1c0
100
AcDbEntity
  8
0
 62
7
100
AcDbSpline
 70
8
 71
3
 72
8
 73
4
 74
0
 40
0
 40
0
 40
0
 40
0
 40
1
 40
1
 40
1
 40
1
 10
125.822095
 20
64.330823
 30
0.0
 10
126.137286
 20
64.592409
 30
0.0
 10
126.545679
 20
65.087667
 30
0.0
 10
126.729637
 20
65.431399
 30
0.0
  0
LINE
  5
1c1
100
AcDbEntity
  8
0
 62
7
100
AcDbLine
 10
126.729637
 20
65.431399
 30
0.0
 11
126.729637
 21
65.431399
 31
0.0
  0
SPLINE
  5
1c2
100
AcDbEntity
  8
0
 62
7
100
AcDbSpline
 70
8
 71
3
 72
8
 73
4
 74
0
 40
0
 40
0
 40
0
 40
0
 40
1
 40
1
 40
1
 40
1
 10
110.827992
 20
66.463977
 30
0.0
 10
110.203093
 20
67.631609
 30
0.0
 10
110.005001
 20
67.006910
 30
0.0
 10
110.524047
 20
65.505457
 30
0.0
  0
SPLINE
  5
1c3
100
AcDbEntity
  8
0
 62
7
100
AcDbSpline
 70
8
 71
3
 72
8
 73
4
 74
0
 40
0
 40
0
 40
0
 40
0
 40
1
 40
1
 40
1
 40
1
 10
110.524047
 20
65.505457
 30
0.0
 10
110.902846
 20
64.409701
 30
0.0
 10
111.012077
 20
64.303348
 30
0.0
 10
111.110525
 20
64.934457
 30
0.0
  0
SPLINE
  5
1c4
100
AcDbEntity
  8
0
 62
7
100
AcDbSpline
 70
8
 71
3
 72
8
 73
4
 74
0
 40
0
 40
0
 40
0
 40
0
 40
1
 40
1
 40
1
 40
1
 10
111.110525
 20
64.934457
 30
0.0
 10
111.177062
 20
65.361007
 30
0.0
 10
111.049926
 20
66.049291
 30
0.0
 10
110.827992
 20
66.463977
 30
0.0
  0
LINE
  5
1c5
100
AcDbEntity
  8
0
 62
7
100
AcDbLine
 10
110.827992
 20
66.463977
 30
0.0
 11
110.827992
 21
66.463977
 31
0.0
  0
SPLINE
  5
1c6
100
AcDbEntity
  8
0
 62
7
100
AcDbSpline
 70
8
 71
3
 72
8
 73
4
 74
0
 40
0
 40
0
 40
0
 40
0
 40
1
 40
1
 40
1
 40
1
 10
125.651091
 20
66.237163
 30
0.0
 10
125.651091
 20
67.212535
 30
0.0
 10
125.092528
 20
66.535783
 30
0.0
 10
124.809281
 20
65.217238
 30
0.0
  0
SPLINE
  5
1c7
100
AcDbEntity
  8
0
 62
7
100
AcDbSpline
 70
8
 71
3
 72
8
 73
4
 74
0
 40
0
 40
0
 40
0
 40
0
 40
1
 40
1
 40
1
 40
1
 10
124.809281
 20
65.217238
 30
0.0
 10
124.594916
 20
64.219339
 30
0.0
 10
124.612459
 20
64.198006
 30
0.0
 10
125.116511
 20
64.843691
 30
0.0
  0
SPLINE
  5
1c8
100
AcDbEntity
  8
0
 62
7
100
AcDbSpline
 70
8
 71
3
 72
8
 73
4
 74
0
 40
0
 40
0
 40
0
 40
0
 40
1
 40
1
 40
1
 40
1
 10
125.116511
 20
64.843691
 30
0.0
 10
125.410530
 20
65.220325
 30
0.0
 10
125.651091
 20
65.847386
 30
0.0
 10
125.651091
 20
66.237163
 30
0.0
  0
LINE
  5
1c9
100
AcDbEntity
  8
0
 62
7
100
AcDbLine
 10
125.651091
 20
66.237163
 30
0.0
 11
125.651091
 21
66.237163
 31
0.0
  0
SPLINE
  5
1ca
100
AcDbEntity
  8
0
 62
7
100
AcDbSpline
 70
8
 71
3
 72
8
 73
4
 74
0
 40
0
 40
0
 40
0
 40
0
 40
1
 40
1
 40
1
 40
1
 10
89.138591
 20
65.040849
 30
0.0
 10
89.390790
 20
65.448917
 30
0.0
 10
88.472507
 20
65.448917
 30
0.0
 10
87.198313
 20
65.040849
 30
0.0
  0
SPLINE
  5
1cb
100
AcDbEntity
  8
0
 62
7
100
AcDbSpline
 70
8
 71
3
 72
8
 73
4
 74
0
 40
0
 40
0
 40
0
 40
0
 40
1
 40
1
 40
1
 40
1
 10
87.198313
 20
65.040849
 30
0.0
 10
86.406118
 20
64.787145
 30
0.0
 10
86.448875
 20
64.754825
 30
0.0
 10
87.618466
 20
64.723236
 30
0.0
  0
SPLINE
  5
1cc
100
AcDbEntity
  8
0
 62
7
100
AcDbSpline
 70
8
 71
3
 72
8
 73
4
 74
0
 40
0
 40
0
 40
0
 40
0
 40
1
 40
1
 40
1
 40
1
 10
87.618466
 20
64.723236
 30
0.0
 10
88.334616
 20
64.703904
 30
0.0
 10
89.018674
 20
64.846821
 30
0.0
 10
89.138591
 20
65.040849
 30
0.0
  0
LINE
  5
1cd
100
AcDbEntity
  8
0
 62
7
100
AcDbLine
 10
89.138591
 20
65.040849
 30
0.0
 11
89.138591
 21
65.040849
 31
0.0
  0
SPLINE
  5
1ce
100
AcDbEntity
  8
0
 62
7
100
AcDbSpline
 70
8
 71
3
 72
8
 73
4
 74
0
 40
0
 40
0
 40
0
 40
0
 40
1
 40
1
 40
1
 40
1
 10
91.608035
 20
65.040849
 30
0.0
 10
91.488119
 20
65.234876
 30
0.0
 10
91.091244
 20
65.393626
 30
0.0
 10
90.726091
 20
65.393626
 30
0.0
  0
SPLINE
  5
1cf
100
AcDbEntity
  8
0
 62
7
100
AcDbSpline
 70
8
 71
3
 72
8
 73
4
 74
0
 40
0
 40
0
 40
0
 40
0
 40
1
 40
1
 40
1
 40
1
 10
90.726091
 20
65.393626
 30
0.0
 10
90.360937
 20
65.393626
 30
0.0
 10
89.964062
 20
65.234876
 30
0.0
 10
89.844146
 20
65.040849
 30
0.0
  0
SPLINE
  5
1d0
100
AcDbEntity
  8
0
 62
7
100
AcDbSpline
 70
8
 71
3
 72
8
 73
4
 74
0
 40
0
 40
0
 40
0
 40
0
 40
1
 40
1
 40
1
 40
1
 10
89.844146
 20
65.040849
 30
0.0
 10
89.716599
 20
64.834474
 30
0.0
 10
90.082607
 20
64.688071
 30
0.0
 10
90.726091
 20
64.688071
 30
0.0
  0
SPLINE
  5
1d1
100
AcDbEntity
  8
0
 62
7
100
AcDbSpline
 70
8
 71
3
 72
8
 73
4
 74
0
 40
0
 40
0
 40
0
 40
0
 40
1
 40
1
 40
1
 40
1
 10
90.726091
 20
64.688071
 30
0.0
 10
91.369574
 20
64.688071
 30
0.0
 10
91.735583
 20
64.834474
 30
0.0
 10
91.608035
 20
65.040849
 30
0.0
  0
LINE
  5
1d2
100
AcDbEntity
  8
0
 62
7
100
AcDbLine
 10
91.608035
 20
65.040849
 30
0.0
 11
91.608035
 21
65.040849
 31
0.0
  0
SPLINE
  5
1d3
100
AcDbEntity
  8
0
 62
7
100
AcDbSpline
 70
8
 71
3
 72
8
 73
4
 74
0
 40
0
 40
0
 40
0
 40
0
 40
1
 40
1
 40
1
 40
1
 10
96.385228
 20
65.234944
 30
0.0
 10
96.758136
 20
65.684270
 30
0.0
 10
96.745552
 20
65.875357
 30
0.0
 10
96.314669
 20
66.306237
 30
0.0
  0
SPLINE
  5
1d4
100
AcDbEntity
  8
0
 62
7
100
AcDbSpline
 70
8
 71
3
 72
8
 73
4
 74
0
 40
0
 40
0
 40
0
 40
0
 40
1
 40
1
 40
1
 40
1
 10
96.314669
 20
66.306237
 30
0.0
 10
96.021409
 20
66.599503
 30
0.0
 10
95.529383
 20
66.730561
 30
0.0
 10
95.198444
 20
66.603570
 30
0.0
  0
SPLINE
  5
1d5
100
AcDbEntity
  8
0
 62
7
100
AcDbSpline
 70
8
 71
3
 72
8
 73
4
 74
0
 40
0
 40
0
 40
0
 40
0
 40
1
 40
1
 40
1
 40
1
 10
95.198444
 20
66.603570
 30
0.0
 10
94.510510
 20
66.339582
 30
0.0
 10
94.399357
 20
65.801765
 30
0.0
 10
95.047618
 20
65.873797
 30
0.0
  0
SPLINE
  5
1d6
100
AcDbEntity
  8
0
 62
7
100
AcDbSpline
 70
8
 71
3
 72
8
 73
4
 74
0
 40
0
 40
0
 40
0
 40
0
 40
1
 40
1
 40
1
 40
1
 10
95.047618
 20
65.873797
 30
0.0
 10
95.290152
 20
65.900749
 30
0.0
 10
95.488591
 20
65.764043
 30
0.0
 10
95.488591
 20
65.570015
 30
0.0
  0
SPLINE
  5
1d7
100
AcDbEntity
  8
0
 62
7
100
AcDbSpline
 70
8
 71
3
 72
8
 73
4
 74
0
 40
0
 40
0
 40
0
 40
0
 40
1
 40
1
 40
1
 40
1
 10
95.488591
 20
65.570015
 30
0.0
 10
95.488591
 20
65.375988
 30
0.0
 10
95.290152
 20
65.239288
 30
0.0
 10
95.047618
 20
65.266234
 30
0.0
  0
SPLINE
  5
1d8
100
AcDbEntity
  8
0
 62
7
100
AcDbSpline
 70
8
 71
3
 72
8
 73
4
 74
0
 40
0
 40
0
 40
0
 40
0
 40
1
 40
1
 40
1
 40
1
 10
95.047618
 20
65.266234
 30
0.0
 10
94.805082
 20
65.293186
 30
0.0
 10
94.606646
 20
65.174120
 30
0.0
 10
94.606646
 20
65.001651
 30
0.0
  0
SPLINE
  5
1d9
100
AcDbEntity
  8
0
 62
7
100
AcDbSpline
 70
8
 71
3
 72
8
 73
4
 74
0
 40
0
 40
0
 40
0
 40
0
 40
1
 40
1
 40
1
 40
1
 10
94.606646
 20
65.001651
 30
0.0
 10
94.606646
 20
64.480353
 30
0.0
 10
95.899738
 20
64.649962
 30
0.0
 10
96.385228
 20
65.234944
 30
0.0
  0
LINE
  5
1da
100
AcDbEntity
  8
0
 62
7
100
AcDbLine
 10
96.385228
 20
65.234944
 30
0.0
 11
96.385228
 21
65.234944
 31
0.0
  0
SPLINE
  5
1db
100
AcDbEntity
  8
0
 62
7
100
AcDbSpline
 70
8
 71
3
 72
8
 73
4
 74
0
 40
0
 40
0
 40
0
 40
0
 40
1
 40
1
 40
1
 40
1
 10
112.699092
 20
65.399124
 30
0.0
 10
112.501499
 20
66.154721
 30
0.0
 10
111.965689
 20
66.642485
 30
0.0
 10
111.664315
 20
66.341109
 30
0.0
  0
SPLINE
  5
1dc
100
AcDbEntity
  8
0
 62
7
100
AcDbSpline
 70
8
 71
3
 72
8
 73
4
 74
0
 40
0
 40
0
 40
0
 40
0
 40
1
 40
1
 40
1
 40
1
 10
111.664315
 20
66.341109
 30
0.0
 10
111.417286
 20
66.094082
 30
0.0
 10
112.194173
 20
64.688071
 30
0.0
 10
112.577697
 20
64.688071
 30
0.0
  0
SPLINE
  5
1dd
100
AcDbEntity
  8
0
 62
7
100
AcDbSpline
 70
8
 71
3
 72
8
 73
4
 74
0
 40
0
 40
0
 40
0
 40
0
 40
1
 40
1
 40
1
 40
1
 10
112.577697
 20
64.688071
 30
0.0
 10
112.746734
 20
64.688071
 30
0.0
 10
112.801360
 20
65.008043
 30
0.0
 10
112.699092
 20
65.399124
 30
0.0
  0
LINE
  5
1de
100
AcDbEntity
  8
0
 62
7
100
AcDbLine
 10
112.699092
 20
65.399124
 30
0.0
 11
112.699092
 21
65.399124
 31
0.0
  0
SPLINE
  5
1df
100
AcDbEntity
  8
0
 62
7
100
AcDbSpline
 70
8
 71
3
 72
8
 73
4
 74
0
 40
0
 40
0
 40
0
 40
0
 40
1
 40
1
 40
1
 40
1
 10
121.770535
 20
65.080967
 30
0.0
 10
121.770535
 20
65.221191
 30
0.0
 10
121.866894
 20
65.587031
 30
0.0
 10
121.984668
 20
65.893939
 30
0.0
  0
SPLINE
  5
1e0
100
AcDbEntity
  8
0
 62
7
100
AcDbSpline
 70
8
 71
3
 72
8
 73
4
 74
0
 40
0
 40
0
 40
0
 40
0
 40
1
 40
1
 40
1
 40
1
 10
121.984668
 20
65.893939
 30
0.0
 10
122.172349
 20
66.383030
 30
0.0
 10
121.692995
 20
66.451960
 30
0.0
 10
118.104113
 20
66.451960
 30
0.0
  0
SPLINE
  5
1e1
100
AcDbEntity
  8
0
 62
7
100
AcDbSpline
 70
8
 71
3
 72
8
 73
4
 74
0
 40
0
 40
0
 40
0
 40
0
 40
1
 40
1
 40
1
 40
1
 10
118.104113
 20
66.451960
 30
0.0
 10
114.244611
 20
66.451960
 30
0.0
 10
114.009424
 20
66.411435
 30
0.0
 10
114.009424
 20
65.746404
 30
0.0
  0
SPLINE
  5
1e2
100
AcDbEntity
  8
0
 62
7
100
AcDbSpline
 70
8
 71
3
 72
8
 73
4
 74
0
 40
0
 40
0
 40
0
 40
0
 40
1
 40
1
 40
1
 40
1
 10
114.009424
 20
65.746404
 30
0.0
 10
114.009424
 20
65.201114
 30
0.0
 10
114.244611
 20
65.040849
 30
0.0
 10
115.044793
 20
65.040849
 30
0.0
  0
SPLINE
  5
1e3
100
AcDbEntity
  8
0
 62
7
100
AcDbSpline
 70
8
 71
3
 72
8
 73
4
 74
0
 40
0
 40
0
 40
0
 40
0
 40
1
 40
1
 40
1
 40
1
 10
115.044793
 20
65.040849
 30
0.0
 10
115.614244
 20
65.040849
 30
0.0
 10
116.487372
 20
65.195670
 30
0.0
 10
116.985071
 20
65.384894
 30
0.0
  0
SPLINE
  5
1e4
100
AcDbEntity
  8
0
 62
7
100
AcDbSpline
 70
8
 71
3
 72
8
 73
4
 74
0
 40
0
 40
0
 40
0
 40
0
 40
1
 40
1
 40
1
 40
1
 10
116.985071
 20
65.384894
 30
0.0
 10
117.503626
 20
65.582049
 30
0.0
 10
117.889980
 20
65.593095
 30
0.0
 10
117.889980
 20
65.410746
 30
0.0
  0
SPLINE
  5
1e5
100
AcDbEntity
  8
0
 62
7
100
AcDbSpline
 70
8
 71
3
 72
8
 73
4
 74
0
 40
0
 40
0
 40
0
 40
0
 40
1
 40
1
 40
1
 40
1
 10
117.889980
 20
65.410746
 30
0.0
 10
117.889980
 20
65.235746
 30
0.0
 10
118.167791
 20
65.017921
 30
0.0
 10
118.507341
 20
64.926687
 30
0.0
  0
SPLINE
  5
1e6
100
AcDbEntity
  8
0
 62
7
100
AcDbSpline
 70
8
 71
3
 72
8
 73
4
 74
0
 40
0
 40
0
 40
0
 40
0
 40
1
 40
1
 40
1
 40
1
 10
118.507341
 20
64.926687
 30
0.0
 10
119.431641
 20
64.678337
 30
0.0
 10
121.770535
 20
64.788903
 30
0.0
 10
121.770535
 20
65.080950
 30
0.0
  0
LINE
  5
1e7
100
AcDbEntity
  8
0
 62
7
100
AcDbLine
 10
121.770535
 20
65.080950
 30
0.0
 11
121.770535
 21
65.080967
 31
0.0
  0
SPLINE
  5
1e8
100
AcDbEntity
  8
0
 62
7
100
AcDbSpline
 70
8
 71
3
 72
8
 73
4
 74
0
 40
0
 40
0
 40
0
 40
0
 40
1
 40
1
 40
1
 40
1
 10
124.227567
 20
65.370436
 30
0.0
 10
124.715290
 20
66.281760
 30
0.0
 10
124.689489
 20
66.451960
 30
0.0
 10
124.063591
 20
66.451960
 30
0.0
  0
SPLINE
  5
1e9
100
AcDbEntity
  8
0
 62
7
100
AcDbSpline
 70
8
 71
3
 72
8
 73
4
 74
0
 40
0
 40
0
 40
0
 40
0
 40
1
 40
1
 40
1
 40
1
 10
124.063591
 20
66.451960
 30
0.0
 10
123.772549
 20
66.451960
 30
0.0
 10
123.534424
 20
66.306192
 30
0.0
 10
123.534424
 20
66.128036
 30
0.0
  0
SPLINE
  5
1ea
100
AcDbEntity
  8
0
 62
7
100
AcDbSpline
 70
8
 71
3
 72
8
 73
4
 74
0
 40
0
 40
0
 40
0
 40
0
 40
1
 40
1
 40
1
 40
1
 10
123.534424
 20
66.128036
 30
0.0
 10
123.534424
 20
65.949875
 30
0.0
 10
123.438065
 20
65.553000
 30
0.0
 10
123.320291
 20
65.246092
 30
0.0
  0
SPLINE
  5
1eb
100
AcDbEntity
  8
0
 62
7
100
AcDbSpline
 70
8
 71
3
 72
8
 73
4
 74
0
 40
0
 40
0
 40
0
 40
0
 40
1
 40
1
 40
1
 40
1
 10
123.320291
 20
65.246092
 30
0.0
 10
123.014026
 20
64.447973
 30
0.0
 10
123.790862
 20
64.554441
 30
0.0
 10
124.227570
 20
65.370436
 30
0.0
  0
LINE
  5
1ec
100
AcDbEntity
  8
0
 62
7
100
AcDbLine
 10
124.227570
 20
65.370436
 30
0.0
 11
124.227567
 21
65.370436
 31
0.0
  0
SPLINE
  5
1ed
100
AcDbEntity
  8
0
 62
7
100
AcDbSpline
 70
8
 71
3
 72
8
 73
4
 74
0
 40
0
 40
0
 40
0
 40
0
 40
1
 40
1
 40
1
 40
1
 10
141.306849
 20
65.239237
 30
0.0
 10
144.854845
 20
65.435666
 30
0.0
 10
152.162324
 20
66.601859
 30
0.0
 10
153.086709
 20
67.119173
 30
0.0
  0
SPLINE
  5
1ee
100
AcDbEntity
  8
0
 62
7
100
AcDbSpline
 70
8
 71
3
 72
8
 73
4
 74
0
 40
0
 40
0
 40
0
 40
0
 40
1
 40
1
 40
1
 40
1
 10
153.086709
 20
67.119173
 30
0.0
 10
154.142863
 20
67.710222
 30
0.0
 10
149.639294
 20
67.859845
 30
0.0
 10
145.866191
 20
67.359062
 30
0.0
  0
SPLINE
  5
1ef
100
AcDbEntity
  8
0
 62
7
100
AcDbSpline
 70
8
 71
3
 72
8
 73
4
 74
0
 40
0
 40
0
 40
0
 40
0
 40
1
 40
1
 40
1
 40
1
 10
145.866191
 20
67.359062
 30
0.0
 10
140.975997
 20
66.710007
 30
0.0
 10
137.552766
 20
66.448265
 30
0.0
 10
133.588591
 20
66.420323
 30
0.0
  0
SPLINE
  5
1f0
100
AcDbEntity
  8
0
 62
7
100
AcDbSpline
 70
8
 71
3
 72
8
 73
4
 74
0
 40
0
 40
0
 40
0
 40
0
 40
1
 40
1
 40
1
 40
1
 10
133.588591
 20
66.420323
 30
0.0
 10
129.310841
 20
66.390162
 30
0.0
 10
127.414980
 20
66.124689
 30
0.0
 10
127.414980
 20
65.555828
 30
0.0
  0
SPLINE
  5
1f1
100
AcDbEntity
  8
0
 62
7
100
AcDbSpline
 70
8
 71
3
 72
8
 73
4
 74
0
 40
0
 40
0
 40
0
 40
0
 40
1
 40
1
 40
1
 40
1
 10
127.414980
 20
65.555828
 30
0.0
 10
127.414980
 20
65.301043
 30
0.0
 10
127.692791
 20
65.019132
 30
0.0
 10
128.032341
 20
64.929360
 30
0.0
  0
SPLINE
  5
1f2
100
AcDbEntity
  8
0
 62
7
100
AcDbSpline
 70
8
 71
3
 72
8
 73
4
 74
0
 40
0
 40
0
 40
0
 40
0
 40
1
 40
1
 40
1
 40
1
 10
128.032341
 20
64.929360
 30
0.0
 10
128.684006
 20
64.757071
 30
0.0
 10
135.450964
 20
64.915051
 30
0.0
 10
141.306849
 20
65.239237
 30
0.0
  0
LINE
  5
1f3
100
AcDbEntity
  8
0
 62
7
100
AcDbLine
 10
141.306849
 20
65.239237
 30
0.0
 11
141.306849
 21
65.239237
 31
0.0
  0
SPLINE
  5
1f4
100
AcDbEntity
  8
0
 62
7
100
AcDbSpline
 70
8
 71
3
 72
8
 73
4
 74
0
 40
0
 40
0
 40
0
 40
0
 40
1
 40
1
 40
1
 40
1
 10
93.765565
 20
66.352299
 30
0.0
 10
93.655456
 20
66.462413
 30
0.0
 10
93.315889
 20
66.345469
 30
0.0
 10
93.010973
 20
66.092397
 30
0.0
  0
SPLINE
  5
1f5
100
AcDbEntity
  8
0
 62
7
100
AcDbSpline
 70
8
 71
3
 72
8
 73
4
 74
0
 40
0
 40
0
 40
0
 40
0
 40
1
 40
1
 40
1
 40
1
 10
93.010973
 20
66.092397
 30
0.0
 10
92.573816
 20
65.729592
 30
0.0
 10
92.552291
 20
65.573145
 30
0.0
 10
92.909184
 20
65.352574
 30
0.0
  0
SPLINE
  5
1f6
100
AcDbEntity
  8
0
 62
7
100
AcDbSpline
 70
8
 71
3
 72
8
 73
4
 74
0
 40
0
 40
0
 40
0
 40
0
 40
1
 40
1
 40
1
 40
1
 10
92.909184
 20
65.352574
 30
0.0
 10
93.373143
 20
65.065828
 30
0.0
 10
94.147759
 20
65.970108
 30
0.0
 10
93.765565
 20
66.352299
 30
0.0
  0
LINE
  5
1f7
100
AcDbEntity
  8
0
 62
7
100
AcDbLine
 10
93.765565
 20
66.352299
 30
0.0
 11
93.765565
 21
66.352299
 31
0.0
  0
SPLINE
  5
1f8
100
AcDbEntity
  8
0
 62
7
100
AcDbSpline
 70
8
 71
3
 72
8
 73
4
 74
0
 40
0
 40
0
 40
0
 40
0
 40
1
 40
1
 40
1
 40
1
 10
113.651244
 20
65.658210
 30
0.0
 10
113.644528
 20
66.422197
 30
0.0
 10
113.063548
 20
67.387566
 30
0.0
 10
112.780674
 20
67.104695
 30
0.0
  0
SPLINE
  5
1f9
100
AcDbEntity
  8
0
 62
7
100
AcDbSpline
 70
8
 71
3
 72
8
 73
4
 74
0
 40
0
 40
0
 40
0
 40
0
 40
1
 40
1
 40
1
 40
1
 10
112.780674
 20
67.104695
 30
0.0
 10
112.586493
 20
66.910512
 30
0.0
 10
113.271554
 20
65.040849
 30
0.0
 10
113.536885
 20
65.040849
 30
0.0
  0
SPLINE
  5
1fa
100
AcDbEntity
  8
0
 62
7
100
AcDbSpline
 70
8
 71
3
 72
8
 73
4
 74
0
 40
0
 40
0
 40
0
 40
0
 40
1
 40
1
 40
1
 40
1
 10
113.536885
 20
65.040849
 30
0.0
 10
113.602753
 20
65.040849
 30
0.0
 10
113.654216
 20
65.318660
 30
0.0
 10
113.651244
 20
65.658210
 30
0.0
  0
LINE
  5
1fb
100
AcDbEntity
  8
0
 62
7
100
AcDbLine
 10
113.651244
 20
65.658210
 30
0.0
 11
113.651244
 21
65.658210
 31
0.0
  0
SPLINE
  5
1fc
100
AcDbEntity
  8
0
 62
7
100
AcDbSpline
 70
8
 71
3
 72
8
 73
4
 74
0
 40
0
 40
0
 40
0
 40
0
 40
1
 40
1
 40
1
 40
1
 10
123.325427
 20
67.128119
 30
0.0
 10
123.096968
 20
67.361675
 30
0.0
 10
122.943428
 20
67.057702
 30
0.0
 10
122.716600
 20
65.922793
 30
0.0
  0
LINE
  5
1fd
100
AcDbEntity
  8
0
 62
7
100
AcDbLine
 10
122.716600
 20
65.922793
 30
0.0
 11
122.505081
 21
64.864460
 31
0.0
  0
LINE
  5
1fe
100
AcDbEntity
  8
0
 62
7
100
AcDbLine
 10
122.505081
 20
64.864460
 30
0.0
 11
122.987144
 21
65.922793
 31
0.0
  0
SPLINE
  5
1ff
100
AcDbEntity
  8
0
 62
7
100
AcDbSpline
 70
8
 71
3
 72
8
 73
4
 74
0
 40
0
 40
0
 40
0
 40
0
 40
1
 40
1
 40
1
 40
1
 10
122.987144
 20
65.922793
 30
0.0
 10
123.252278
 20
66.504876
 30
0.0
 10
123.404506
 20
67.047271
 30
0.0
 10
123.325427
 20
67.128119
 30
0.0
  0
LINE
  5
200
100
AcDbEntity
  8
0
 62
7
100
AcDbLine
 10
123.325427
 20
67.128119
 30
0.0
 11
123.325427
 21
67.128119
 31
0.0
  0
SPLINE
  5
201
100
AcDbEntity
  8
0
 62
7
100
AcDbSpline
 70
8
 71
3
 72
8
 73
4
 74
0
 40
0
 40
0
 40
0
 40
0
 40
1
 40
1
 40
1
 40
1
 10
109.224095
 20
68.179879
 30
0.0
 10
109.002661
 20
68.401314
 30
0.0
 10
108.372955
 20
67.505332
 30
0.0
 10
108.381602
 20
66.981126
 30
0.0
  0
SPLINE
  5
202
100
AcDbEntity
  8
0
 62
7
100
AcDbSpline
 70
8
 71
3
 72
8
 73
4
 74
0
 40
0
 40
0
 40
0
 40
0
 40
1
 40
1
 40
1
 40
1
 10
108.381602
 20
66.981126
 30
0.0
 10
108.384792
 20
66.787099
 30
0.0
 10
108.618855
 20
66.934261
 30
0.0
 10
108.901721
 20
67.308151
 30
0.0
  0
SPLINE
  5
203
100
AcDbEntity
  8
0
 62
7
100
AcDbSpline
 70
8
 71
3
 72
8
 73
4
 74
0
 40
0
 40
0
 40
0
 40
0
 40
1
 40
1
 40
1
 40
1
 10
108.901721
 20
67.308151
 30
0.0
 10
109.184587
 20
67.682042
 30
0.0
 10
109.329657
 20
68.074320
 30
0.0
 10
109.224095
 20
68.179879
 30
0.0
  0
LINE
  5
204
100
AcDbEntity
  8
0
 62
7
100
AcDbLine
 10
109.224095
 20
68.179879
 30
0.0
 11
109.224095
 21
68.179879
 31
0.0
  0
SPLINE
  5
205
100
AcDbEntity
  8
0
 62
7
100
AcDbSpline
 70
8
 71
3
 72
8
 73
4
 74
0
 40
0
 40
0
 40
0
 40
0
 40
1
 40
1
 40
1
 40
1
 10
120.600411
 20
67.576438
 30
0.0
 10
120.487796
 20
67.857861
 30
0.0
 10
120.404201
 20
67.774270
 30
0.0
 10
120.387277
 20
67.363300
 30
0.0
  0
SPLINE
  5
206
100
AcDbEntity
  8
0
 62
7
100
AcDbSpline
 70
8
 71
3
 72
8
 73
4
 74
0
 40
0
 40
0
 40
0
 40
0
 40
1
 40
1
 40
1
 40
1
 10
120.387277
 20
67.363300
 30
0.0
 10
120.371980
 20
66.991416
 30
0.0
 10
120.455337
 20
66.783054
 30
0.0
 10
120.572561
 20
66.900281
 30
0.0
  0
SPLINE
  5
207
100
AcDbEntity
  8
0
 62
7
100
AcDbSpline
 70
8
 71
3
 72
8
 73
4
 74
0
 40
0
 40
0
 40
0
 40
0
 40
1
 40
1
 40
1
 40
1
 10
120.572561
 20
66.900281
 30
0.0
 10
120.689785
 20
67.017508
 30
0.0
 10
120.702316
 20
67.321780
 30
0.0
 10
120.600388
 20
67.576438
 30
0.0
  0
LINE
  5
208
100
AcDbEntity
  8
0
 62
7
100
AcDbLine
 10
120.600388
 20
67.576438
 30
0.0
 11
120.600411
 21
67.576438
 31
0.0
  0
SPLINE
  5
209
100
AcDbEntity
  8
0
 62
7
100
AcDbSpline
 70
8
 71
3
 72
8
 73
4
 74
0
 40
0
 40
0
 40
0
 40
0
 40
1
 40
1
 40
1
 40
1
 10
127.126876
 20
67.586739
 30
0.0
 10
126.873737
 20
67.839875
 30
0.0
 10
126.709424
 20
67.860706
 30
0.0
 10
126.709424
 20
67.639655
 30
0.0
  0
SPLINE
  5
20a
100
AcDbEntity
  8
0
 62
7
100
AcDbSpline
 70
8
 71
3
 72
8
 73
4
 74
0
 40
0
 40
0
 40
0
 40
0
 40
1
 40
1
 40
1
 40
1
 10
126.709424
 20
67.639655
 30
0.0
 10
126.709424
 20
67.168773
 30
0.0
 10
127.126622
 20
66.751575
 30
0.0
 10
127.362063
 20
66.987016
 30
0.0
  0
SPLINE
  5
20b
100
AcDbEntity
  8
0
 62
7
100
AcDbSpline
 70
8
 71
3
 72
8
 73
4
 74
0
 40
0
 40
0
 40
0
 40
0
 40
1
 40
1
 40
1
 40
1
 10
127.362063
 20
66.987016
 30
0.0
 10
127.462311
 20
67.087262
 30
0.0
 10
127.356503
 20
67.357134
 30
0.0
 10
127.126876
 20
67.586739
 30
0.0
  0
LINE
  5
20c
100
AcDbEntity
  8
0
 62
7
100
AcDbLine
 10
127.126876
 20
67.586739
 30
0.0
 11
127.126876
 21
67.586739
 31
0.0
  0
SPLINE
  5
20d
100
AcDbEntity
  8
0
 62
7
100
AcDbSpline
 70
8
 71
3
 72
8
 73
4
 74
0
 40
0
 40
0
 40
0
 40
0
 40
1
 40
1
 40
1
 40
1
 10
95.793331
 20
67.684664
 30
0.0
 10
95.682074
 20
67.974591
 30
0.0
 10
95.448930
 20
68.123971
 30
0.0
 10
95.275236
 20
68.016622
 30
0.0
  0
SPLINE
  5
20e
100
AcDbEntity
  8
0
 62
7
100
AcDbSpline
 70
8
 71
3
 72
8
 73
4
 74
0
 40
0
 40
0
 40
0
 40
0
 40
1
 40
1
 40
1
 40
1
 10
95.275236
 20
68.016622
 30
0.0
 10
94.777139
 20
67.708780
 30
0.0
 10
94.906942
 20
67.157524
 30
0.0
 10
95.477519
 20
67.157524
 30
0.0
  0
SPLINE
  5
20f
100
AcDbEntity
  8
0
 62
7
100
AcDbSpline
 70
8
 71
3
 72
8
 73
4
 74
0
 40
0
 40
0
 40
0
 40
0
 40
1
 40
1
 40
1
 40
1
 10
95.477519
 20
67.157524
 30
0.0
 10
95.792225
 20
67.157524
 30
0.0
 10
95.916202
 20
67.364463
 30
0.0
 10
95.793331
 20
67.684664
 30
0.0
  0
LINE
  5
210
100
AcDbEntity
  8
0
 62
7
100
AcDbLine
 10
95.793331
 20
67.684664
 30
0.0
 11
95.793331
 21
67.684664
 31
0.0
  0
SPLINE
  5
211
100
AcDbEntity
  8
0
 62
7
100
AcDbSpline
 70
8
 71
3
 72
8
 73
4
 74
0
 40
0
 40
0
 40
0
 40
0
 40
1
 40
1
 40
1
 40
1
 10
111.034841
 20
68.176975
 30
0.0
 10
110.912182
 20
68.375443
 30
0.0
 10
110.550706
 20
68.437619
 30
0.0
 10
110.231558
 20
68.315149
 30
0.0
  0
SPLINE
  5
212
100
AcDbEntity
  8
0
 62
7
100
AcDbSpline
 70
8
 71
3
 72
8
 73
4
 74
0
 40
0
 40
0
 40
0
 40
0
 40
1
 40
1
 40
1
 40
1
 10
110.231558
 20
68.315149
 30
0.0
 10
109.721455
 20
68.119405
 30
0.0
 10
109.733486
 20
68.062636
 30
0.0
 10
110.331050
 20
67.845672
 30
0.0
  0
SPLINE
  5
213
100
AcDbEntity
  8
0
 62
7
100
AcDbSpline
 70
8
 71
3
 72
8
 73
4
 74
0
 40
0
 40
0
 40
0
 40
0
 40
1
 40
1
 40
1
 40
1
 10
110.331050
 20
67.845672
 30
0.0
 10
111.119776
 20
67.559307
 30
0.0
 10
111.349694
 20
67.667536
 30
0.0
 10
111.034841
 20
68.176975
 30
0.0
  0
LINE
  5
214
100
AcDbEntity
  8
0
 62
7
100
AcDbLine
 10
111.034841
 20
68.176975
 30
0.0
 11
111.034841
 21
68.176975
 31
0.0
  0
SPLINE
  5
215
100
AcDbEntity
  8
0
 62
7
100
AcDbSpline
 70
8
 71
3
 72
8
 73
4
 74
0
 40
0
 40
0
 40
0
 40
0
 40
1
 40
1
 40
1
 40
1
 10
126.120917
 20
67.868478
 30
0.0
 10
126.357363
 20
67.871667
 30
0.0
 10
126.307466
 20
68.019656
 30
0.0
 10
126.003868
 20
68.215857
 30
0.0
  0
SPLINE
  5
216
100
AcDbEntity
  8
0
 62
7
100
AcDbSpline
 70
8
 71
3
 72
8
 73
4
 74
0
 40
0
 40
0
 40
0
 40
0
 40
1
 40
1
 40
1
 40
1
 10
126.003868
 20
68.215857
 30
0.0
 10
125.266777
 20
68.692200
 30
0.0
 10
125.053759
 20
68.653951
 30
0.0
 10
124.802889
 20
68.000189
 30
0.0
  0
SPLINE
  5
217
100
AcDbEntity
  8
0
 62
7
100
AcDbSpline
 70
8
 71
3
 72
8
 73
4
 74
0
 40
0
 40
0
 40
0
 40
0
 40
1
 40
1
 40
1
 40
1
 10
124.802889
 20
68.000189
 30
0.0
 10
124.643233
 20
67.584134
 30
0.0
 10
124.735423
 20
67.489561
 30
0.0
 10
125.146776
 20
67.647411
 30
0.0
  0
SPLINE
  5
218
100
AcDbEntity
  8
0
 62
7
100
AcDbSpline
 70
8
 71
3
 72
8
 73
4
 74
0
 40
0
 40
0
 40
0
 40
0
 40
1
 40
1
 40
1
 40
1
 10
125.146776
 20
67.647411
 30
0.0
 10
125.455889
 20
67.766029
 30
0.0
 10
125.894251
 20
67.865509
 30
0.0
 10
126.120917
 20
67.868478
 30
0.0
  0
LINE
  5
219
100
AcDbEntity
  8
0
 62
7
100
AcDbLine
 10
126.120917
 20
67.868478
 30
0.0
 11
126.120917
 21
67.868478
 31
0.0
  0
SPLINE
  5
21a
100
AcDbEntity
  8
0
 62
7
100
AcDbSpline
 70
8
 71
3
 72
8
 73
4
 74
0
 40
0
 40
0
 40
0
 40
0
 40
1
 40
1
 40
1
 40
1
 10
119.653868
 20
68.589449
 30
0.0
 10
119.653868
 20
68.772024
 30
0.0
 10
119.495118
 20
68.921404
 30
0.0
 10
119.301091
 20
68.921404
 30
0.0
  0
SPLINE
  5
21b
100
AcDbEntity
  8
0
 62
7
100
AcDbSpline
 70
8
 71
3
 72
8
 73
4
 74
0
 40
0
 40
0
 40
0
 40
0
 40
1
 40
1
 40
1
 40
1
 10
119.301091
 20
68.921404
 30
0.0
 10
119.107063
 20
68.921404
 30
0.0
 10
118.948313
 20
68.673909
 30
0.0
 10
118.948313
 20
68.371418
 30
0.0
  0
SPLINE
  5
21c
100
AcDbEntity
  8
0
 62
7
100
AcDbSpline
 70
8
 71
3
 72
8
 73
4
 74
0
 40
0
 40
0
 40
0
 40
0
 40
1
 40
1
 40
1
 40
1
 10
118.948313
 20
68.371418
 30
0.0
 10
118.948313
 20
68.068924
 30
0.0
 10
119.107063
 20
67.919544
 30
0.0
 10
119.301091
 20
68.039460
 30
0.0
  0
SPLINE
  5
21d
100
AcDbEntity
  8
0
 62
7
100
AcDbSpline
 70
8
 71
3
 72
8
 73
4
 74
0
 40
0
 40
0
 40
0
 40
0
 40
1
 40
1
 40
1
 40
1
 10
119.301091
 20
68.039460
 30
0.0
 10
119.495118
 20
68.159376
 30
0.0
 10
119.653868
 20
68.406871
 30
0.0
 10
119.653868
 20
68.589449
 30
0.0
  0
LINE
  5
21e
100
AcDbEntity
  8
0
 62
7
100
AcDbLine
 10
119.653868
 20
68.589449
 30
0.0
 11
119.653868
 21
68.589449
 31
0.0
  0
SPLINE
  5
21f
100
AcDbEntity
  8
0
 62
7
100
AcDbSpline
 70
8
 71
3
 72
8
 73
4
 74
0
 40
0
 40
0
 40
0
 40
0
 40
1
 40
1
 40
1
 40
1
 10
96.061533
 20
69.626960
 30
0.0
 10
96.266220
 20
69.626960
 30
0.0
 10
96.317285
 20
69.288883
 30
0.0
 10
96.181432
 20
68.833210
 30
0.0
  0
SPLINE
  5
220
100
AcDbEntity
  8
0
 62
7
100
AcDbSpline
 70
8
 71
3
 72
8
 73
4
 74
0
 40
0
 40
0
 40
0
 40
0
 40
1
 40
1
 40
1
 40
1
 10
96.181432
 20
68.833210
 30
0.0
 10
95.948635
 20
68.052371
 30
0.0
 10
95.953803
 20
68.050935
 30
0.0
 10
96.499217
 20
68.745015
 30
0.0
  0
SPLINE
  5
221
100
AcDbEntity
  8
0
 62
7
100
AcDbSpline
 70
8
 71
3
 72
8
 73
4
 74
0
 40
0
 40
0
 40
0
 40
0
 40
1
 40
1
 40
1
 40
1
 10
96.499217
 20
68.745015
 30
0.0
 10
97.014637
 20
69.400922
 30
0.0
 10
97.266585
 20
70.332515
 30
0.0
 10
96.928556
 20
70.332515
 30
0.0
  0
SPLINE
  5
222
100
AcDbEntity
  8
0
 62
7
100
AcDbSpline
 70
8
 71
3
 72
8
 73
4
 74
0
 40
0
 40
0
 40
0
 40
0
 40
1
 40
1
 40
1
 40
1
 10
96.928556
 20
70.332515
 30
0.0
 10
96.847409
 20
70.332515
 30
0.0
 10
96.540642
 20
70.424757
 30
0.0
 10
96.246846
 20
70.537496
 30
0.0
  0
SPLINE
  5
223
100
AcDbEntity
  8
0
 62
7
100
AcDbSpline
 70
8
 71
3
 72
8
 73
4
 74
0
 40
0
 40
0
 40
0
 40
0
 40
1
 40
1
 40
1
 40
1
 10
96.246846
 20
70.537496
 30
0.0
 10
95.892747
 20
70.673375
 30
0.0
 10
95.526245
 20
70.381972
 30
0.0
 10
95.159658
 20
69.673072
 30
0.0
  0
SPLINE
  5
224
100
AcDbEntity
  8
0
 62
7
100
AcDbSpline
 70
8
 71
3
 72
8
 73
4
 74
0
 40
0
 40
0
 40
0
 40
0
 40
1
 40
1
 40
1
 40
1
 10
95.159658
 20
69.673072
 30
0.0
 10
94.449355
 20
68.299502
 30
0.0
 10
94.447191
 20
67.831205
 30
0.0
 10
95.155820
 20
68.842907
 30
0.0
  0
SPLINE
  5
225
100
AcDbEntity
  8
0
 62
7
100
AcDbSpline
 70
8
 71
3
 72
8
 73
4
 74
0
 40
0
 40
0
 40
0
 40
0
 40
1
 40
1
 40
1
 40
1
 10
95.155820
 20
68.842907
 30
0.0
 10
95.457859
 20
69.274137
 30
0.0
 10
95.865436
 20
69.626960
 30
0.0
 10
96.061533
 20
69.626960
 30
0.0
  0
LINE
  5
226
100
AcDbEntity
  8
0
 62
7
100
AcDbLine
 10
96.061533
 20
69.626960
 30
0.0
 11
96.061533
 21
69.626960
 31
0.0
  0
SPLINE
  5
227
100
AcDbEntity
  8
0
 62
7
100
AcDbSpline
 70
8
 71
3
 72
8
 73
4
 74
0
 40
0
 40
0
 40
0
 40
0
 40
1
 40
1
 40
1
 40
1
 10
113.223105
 20
68.855500
 30
0.0
 10
113.309033
 20
69.113290
 30
0.0
 10
113.147754
 20
69.192134
 30
0.0
 10
112.804180
 20
69.060289
 30
0.0
  0
SPLINE
  5
228
100
AcDbEntity
  8
0
 62
7
100
AcDbSpline
 70
8
 71
3
 72
8
 73
4
 74
0
 40
0
 40
0
 40
0
 40
0
 40
1
 40
1
 40
1
 40
1
 10
112.804180
 20
69.060289
 30
0.0
 10
112.496925
 20
68.942385
 30
0.0
 10
112.245535
 20
68.690925
 30
0.0
 10
112.245535
 20
68.501486
 30
0.0
  0
SPLINE
  5
229
100
AcDbEntity
  8
0
 62
7
100
AcDbSpline
 70
8
 71
3
 72
8
 73
4
 74
0
 40
0
 40
0
 40
0
 40
0
 40
1
 40
1
 40
1
 40
1
 10
112.245535
 20
68.501486
 30
0.0
 10
112.245535
 20
68.037797
 30
0.0
 10
113.047323
 20
68.328151
 30
0.0
 10
113.223105
 20
68.855500
 30
0.0
  0
LINE
  5
22a
100
AcDbEntity
  8
0
 62
7
100
AcDbLine
 10
113.223105
 20
68.855500
 30
0.0
 11
113.223105
 21
68.855500
 31
0.0
  0
SPLINE
  5
22b
100
AcDbEntity
  8
0
 62
7
100
AcDbSpline
 70
8
 71
3
 72
8
 73
4
 74
0
 40
0
 40
0
 40
0
 40
0
 40
1
 40
1
 40
1
 40
1
 10
123.710813
 20
68.568626
 30
0.0
 10
123.590897
 20
68.762654
 30
0.0
 10
123.343402
 20
68.921404
 30
0.0
 10
123.160827
 20
68.921404
 30
0.0
  0
SPLINE
  5
22c
100
AcDbEntity
  8
0
 62
7
100
AcDbSpline
 70
8
 71
3
 72
8
 73
4
 74
0
 40
0
 40
0
 40
0
 40
0
 40
1
 40
1
 40
1
 40
1
 10
123.160827
 20
68.921404
 30
0.0
 10
122.978249
 20
68.921404
 30
0.0
 10
122.828868
 20
68.762654
 30
0.0
 10
122.828868
 20
68.568626
 30
0.0
  0
SPLINE
  5
22d
100
AcDbEntity
  8
0
 62
7
100
AcDbSpline
 70
8
 71
3
 72
8
 73
4
 74
0
 40
0
 40
0
 40
0
 40
0
 40
1
 40
1
 40
1
 40
1
 10
122.828868
 20
68.568626
 30
0.0
 10
122.828868
 20
68.374599
 30
0.0
 10
123.076363
 20
68.215849
 30
0.0
 10
123.378855
 20
68.215849
 30
0.0
  0
SPLINE
  5
22e
100
AcDbEntity
  8
0
 62
7
100
AcDbSpline
 70
8
 71
3
 72
8
 73
4
 74
0
 40
0
 40
0
 40
0
 40
0
 40
1
 40
1
 40
1
 40
1
 10
123.378855
 20
68.215849
 30
0.0
 10
123.681349
 20
68.215849
 30
0.0
 10
123.830729
 20
68.374599
 30
0.0
 10
123.710813
 20
68.568626
 30
0.0
  0
LINE
  5
22f
100
AcDbEntity
  8
0
 62
7
100
AcDbLine
 10
123.710813
 20
68.568626
 30
0.0
 11
123.710813
 21
68.568626
 31
0.0
  0
SPLINE
  5
230
100
AcDbEntity
  8
0
 62
7
100
AcDbSpline
 70
8
 71
3
 72
8
 73
4
 74
0
 40
0
 40
0
 40
0
 40
0
 40
1
 40
1
 40
1
 40
1
 10
121.887626
 20
69.683836
 30
0.0
 10
122.066445
 20
70.367638
 30
0.0
 10
122.045784
 20
70.371705
 30
0.0
 10
121.393221
 20
69.781146
 30
0.0
  0
SPLINE
  5
231
100
AcDbEntity
  8
0
 62
7
100
AcDbSpline
 70
8
 71
3
 72
8
 73
4
 74
0
 40
0
 40
0
 40
0
 40
0
 40
1
 40
1
 40
1
 40
1
 10
121.393221
 20
69.781146
 30
0.0
 10
120.598325
 20
69.061773
 30
0.0
 10
120.494936
 20
68.507398
 30
0.0
 10
121.206604
 20
68.780491
 30
0.0
  0
SPLINE
  5
232
100
AcDbEntity
  8
0
 62
7
100
AcDbSpline
 70
8
 71
3
 72
8
 73
4
 74
0
 40
0
 40
0
 40
0
 40
0
 40
1
 40
1
 40
1
 40
1
 10
121.206604
 20
68.780491
 30
0.0
 10
121.478525
 20
68.884837
 30
0.0
 10
121.784985
 20
69.291341
 30
0.0
 10
121.887626
 20
69.683836
 30
0.0
  0
LINE
  5
233
100
AcDbEntity
  8
0
 62
7
100
AcDbLine
 10
121.887626
 20
69.683836
 30
0.0
 11
121.887626
 21
69.683836
 31
0.0
  0
SPLINE
  5
234
100
AcDbEntity
  8
0
 62
7
100
AcDbSpline
 70
8
 71
3
 72
8
 73
4
 74
0
 40
0
 40
0
 40
0
 40
0
 40
1
 40
1
 40
1
 40
1
 10
114.426876
 20
69.703422
 30
0.0
 10
114.173737
 20
69.956561
 30
0.0
 10
114.009424
 20
69.977389
 30
0.0
 10
114.009424
 20
69.756339
 30
0.0
  0
SPLINE
  5
235
100
AcDbEntity
  8
0
 62
7
100
AcDbSpline
 70
8
 71
3
 72
8
 73
4
 74
0
 40
0
 40
0
 40
0
 40
0
 40
1
 40
1
 40
1
 40
1
 10
114.009424
 20
69.756339
 30
0.0
 10
114.009424
 20
69.285460
 30
0.0
 10
114.426622
 20
68.868259
 30
0.0
 10
114.662063
 20
69.103700
 30
0.0
  0
SPLINE
  5
236
100
AcDbEntity
  8
0
 62
7
100
AcDbSpline
 70
8
 71
3
 72
8
 73
4
 74
0
 40
0
 40
0
 40
0
 40
0
 40
1
 40
1
 40
1
 40
1
 10
114.662063
 20
69.103700
 30
0.0
 10
114.762311
 20
69.203945
 30
0.0
 10
114.656503
 20
69.473820
 30
0.0
 10
114.426876
 20
69.703422
 30
0.0
  0
LINE
  5
237
100
AcDbEntity
  8
0
 62
7
100
AcDbLine
 10
114.426876
 20
69.703422
 30
0.0
 11
114.426876
 21
69.703422
 31
0.0
  0
SPLINE
  5
238
100
AcDbEntity
  8
0
 62
7
100
AcDbSpline
 70
8
 71
3
 72
8
 73
4
 74
0
 40
0
 40
0
 40
0
 40
0
 40
1
 40
1
 40
1
 40
1
 10
118.541030
 20
69.785041
 30
0.0
 10
118.618993
 20
70.187213
 30
0.0
 10
118.491864
 20
70.356840
 30
0.0
 10
118.188252
 20
70.255742
 30
0.0
  0
SPLINE
  5
239
100
AcDbEntity
  8
0
 62
7
100
AcDbSpline
 70
8
 71
3
 72
8
 73
4
 74
0
 40
0
 40
0
 40
0
 40
0
 40
1
 40
1
 40
1
 40
1
 10
118.188252
 20
70.255742
 30
0.0
 10
117.927191
 20
70.168810
 30
0.0
 10
117.658741
 20
69.814745
 30
0.0
 10
117.591707
 20
69.468932
 30
0.0
  0
SPLINE
  5
23a
100
AcDbEntity
  8
0
 62
7
100
AcDbSpline
 70
8
 71
3
 72
8
 73
4
 74
0
 40
0
 40
0
 40
0
 40
0
 40
1
 40
1
 40
1
 40
1
 10
117.591707
 20
69.468932
 30
0.0
 10
117.513743
 20
69.066757
 30
0.0
 10
117.640873
 20
68.897130
 30
0.0
 10
117.944485
 20
68.998231
 30
0.0
  0
SPLINE
  5
23b
100
AcDbEntity
  8
0
 62
7
100
AcDbSpline
 70
8
 71
3
 72
8
 73
4
 74
0
 40
0
 40
0
 40
0
 40
0
 40
1
 40
1
 40
1
 40
1
 10
117.944485
 20
68.998231
 30
0.0
 10
118.205546
 20
69.085161
 30
0.0
 10
118.473996
 20
69.439226
 30
0.0
 10
118.541030
 20
69.785041
 30
0.0
  0
LINE
  5
23c
100
AcDbEntity
  8
0
 62
7
100
AcDbLine
 10
118.541030
 20
69.785041
 30
0.0
 11
118.541030
 21
69.785041
 31
0.0
  0
SPLINE
  5
23d
100
AcDbEntity
  8
0
 62
7
100
AcDbSpline
 70
8
 71
3
 72
8
 73
4
 74
0
 40
0
 40
0
 40
0
 40
0
 40
1
 40
1
 40
1
 40
1
 10
116.247827
 20
70.171369
 30
0.0
 10
116.132932
 20
70.470776
 30
0.0
 10
115.963265
 20
70.640090
 30
0.0
 10
115.870795
 20
70.547617
 30
0.0
  0
SPLINE
  5
23e
100
AcDbEntity
  8
0
 62
7
100
AcDbSpline
 70
8
 71
3
 72
8
 73
4
 74
0
 40
0
 40
0
 40
0
 40
0
 40
1
 40
1
 40
1
 40
1
 10
115.870795
 20
70.547617
 30
0.0
 10
115.778322
 20
70.455144
 30
0.0
 10
115.807304
 20
70.210169
 30
0.0
 10
115.935196
 20
70.003235
 30
0.0
  0
SPLINE
  5
23f
100
AcDbEntity
  8
0
 62
7
100
AcDbSpline
 70
8
 71
3
 72
8
 73
4
 74
0
 40
0
 40
0
 40
0
 40
0
 40
1
 40
1
 40
1
 40
1
 10
115.935196
 20
70.003235
 30
0.0
 10
116.283051
 20
69.440391
 30
0.0
 10
116.486367
 20
69.549735
 30
0.0
 10
116.247827
 20
70.171369
 30
0.0
  0
LINE
  5
240
100
AcDbEntity
  8
0
 62
7
100
AcDbLine
 10
116.247827
 20
70.171369
 30
0.0
 11
116.247827
 21
70.171369
 31
0.0
  0
SPLINE
  5
241
100
AcDbEntity
  8
0
 62
7
100
AcDbSpline
 70
8
 71
3
 72
8
 73
4
 74
0
 40
0
 40
0
 40
0
 40
0
 40
1
 40
1
 40
1
 40
1
 10
120.359424
 20
70.374154
 30
0.0
 10
120.359424
 20
70.568182
 30
0.0
 10
120.200674
 20
70.628820
 30
0.0
 10
120.006646
 20
70.508904
 30
0.0
  0
SPLINE
  5
242
100
AcDbEntity
  8
0
 62
7
100
AcDbSpline
 70
8
 71
3
 72
8
 73
4
 74
0
 40
0
 40
0
 40
0
 40
0
 40
1
 40
1
 40
1
 40
1
 10
120.006646
 20
70.508904
 30
0.0
 10
119.812618
 20
70.388988
 30
0.0
 10
119.653868
 20
70.132126
 30
0.0
 10
119.653868
 20
69.938098
 30
0.0
  0
SPLINE
  5
243
100
AcDbEntity
  8
0
 62
7
100
AcDbSpline
 70
8
 71
3
 72
8
 73
4
 74
0
 40
0
 40
0
 40
0
 40
0
 40
1
 40
1
 40
1
 40
1
 10
119.653868
 20
69.938098
 30
0.0
 10
119.653868
 20
69.744071
 30
0.0
 10
119.812618
 20
69.683432
 30
0.0
 10
120.006646
 20
69.803349
 30
0.0
  0
SPLINE
  5
244
100
AcDbEntity
  8
0
 62
7
100
AcDbSpline
 70
8
 71
3
 72
8
 73
4
 74
0
 40
0
 40
0
 40
0
 40
0
 40
1
 40
1
 40
1
 40
1
 10
120.006646
 20
69.803349
 30
0.0
 10
120.200674
 20
69.923265
 30
0.0
 10
120.359424
 20
70.180127
 30
0.0
 10
120.359424
 20
70.374154
 30
0.0
  0
LINE
  5
245
100
AcDbEntity
  8
0
 62
7
100
AcDbLine
 10
120.359424
 20
70.374154
 30
0.0
 11
120.359424
 21
70.374154
 31
0.0
  0
SPLINE
  5
246
100
AcDbEntity
  8
0
 62
7
100
AcDbSpline
 70
8
 71
3
 72
8
 73
4
 74
0
 40
0
 40
0
 40
0
 40
0
 40
1
 40
1
 40
1
 40
1
 10
112.951091
 20
70.550049
 30
0.0
 10
112.951091
 20
70.624432
 30
0.0
 10
112.633591
 20
70.685293
 30
0.0
 10
112.245535
 20
70.685293
 30
0.0
  0
SPLINE
  5
247
100
AcDbEntity
  8
0
 62
7
100
AcDbSpline
 70
8
 71
3
 72
8
 73
4
 74
0
 40
0
 40
0
 40
0
 40
0
 40
1
 40
1
 40
1
 40
1
 10
112.245535
 20
70.685293
 30
0.0
 10
111.857480
 20
70.685293
 30
0.0
 10
111.539980
 20
70.541405
 30
0.0
 10
111.539980
 20
70.365544
 30
0.0
  0
SPLINE
  5
248
100
AcDbEntity
  8
0
 62
7
100
AcDbSpline
 70
8
 71
3
 72
8
 73
4
 74
0
 40
0
 40
0
 40
0
 40
0
 40
1
 40
1
 40
1
 40
1
 10
111.539980
 20
70.365544
 30
0.0
 10
111.539980
 20
70.189680
 30
0.0
 10
111.857480
 20
70.128819
 30
0.0
 10
112.245535
 20
70.230297
 30
0.0
  0
SPLINE
  5
249
100
AcDbEntity
  8
0
 62
7
100
AcDbSpline
 70
8
 71
3
 72
8
 73
4
 74
0
 40
0
 40
0
 40
0
 40
0
 40
1
 40
1
 40
1
 40
1
 10
112.245535
 20
70.230297
 30
0.0
 10
112.633591
 20
70.331779
 30
0.0
 10
112.951091
 20
70.475664
 30
0.0
 10
112.951091
 20
70.550049
 30
0.0
  0
LINE
  5
24a
100
AcDbEntity
  8
0
 62
7
100
AcDbLine
 10
112.951091
 20
70.550049
 30
0.0
 11
112.951091
 21
70.550049
 31
0.0
  0
SPLINE
  5
24b
100
AcDbEntity
  8
0
 62
7
100
AcDbSpline
 70
8
 71
3
 72
8
 73
4
 74
0
 40
0
 40
0
 40
0
 40
0
 40
1
 40
1
 40
1
 40
1
 10
124.592757
 20
70.332515
 30
0.0
 10
124.592757
 20
70.526543
 30
0.0
 10
124.156193
 20
70.674134
 30
0.0
 10
123.622618
 20
70.660497
 30
0.0
  0
SPLINE
  5
24c
100
AcDbEntity
  8
0
 62
7
100
AcDbSpline
 70
8
 71
3
 72
8
 73
4
 74
0
 40
0
 40
0
 40
0
 40
0
 40
1
 40
1
 40
1
 40
1
 10
123.622618
 20
70.660497
 30
0.0
 10
122.762955
 20
70.638512
 30
0.0
 10
122.732825
 20
70.601177
 30
0.0
 10
123.358035
 20
70.332515
 30
0.0
  0
SPLINE
  5
24d
100
AcDbEntity
  8
0
 62
7
100
AcDbSpline
 70
8
 71
3
 72
8
 73
4
 74
0
 40
0
 40
0
 40
0
 40
0
 40
1
 40
1
 40
1
 40
1
 10
123.358035
 20
70.332515
 30
0.0
 10
124.321604
 20
69.918456
 30
0.0
 10
124.592757
 20
69.918456
 30
0.0
 10
124.592757
 20
70.332515
 30
0.0
  0
LINE
  5
24e
100
AcDbEntity
  8
0
 62
7
100
AcDbLine
 10
124.592757
 20
70.332515
 30
0.0
 11
124.592757
 21
70.332515
 31
0.0
  0
SPLINE
  5
24f
100
AcDbEntity
  8
0
 62
7
100
AcDbSpline
 70
8
 71
3
 72
8
 73
4
 74
0
 40
0
 40
0
 40
0
 40
0
 40
1
 40
1
 40
1
 40
1
 10
114.758044
 20
71.628974
 30
0.0
 10
114.450580
 20
72.157706
 30
0.0
 10
114.381740
 20
72.172946
 30
0.0
 10
114.372929
 20
71.714230
 30
0.0
  0
SPLINE
  5
250
100
AcDbEntity
  8
0
 62
7
100
AcDbSpline
 70
8
 71
3
 72
8
 73
4
 74
0
 40
0
 40
0
 40
0
 40
0
 40
1
 40
1
 40
1
 40
1
 10
114.372929
 20
71.714230
 30
0.0
 10
114.361527
 20
71.120124
 30
0.0
 10
114.732477
 20
70.585200
 30
0.0
 10
114.982501
 20
70.835224
 30
0.0
  0
SPLINE
  5
251
100
AcDbEntity
  8
0
 62
7
100
AcDbSpline
 70
8
 71
3
 72
8
 73
4
 74
0
 40
0
 40
0
 40
0
 40
0
 40
1
 40
1
 40
1
 40
1
 10
114.982501
 20
70.835224
 30
0.0
 10
115.064963
 20
70.917686
 30
0.0
 10
114.963959
 20
71.274872
 30
0.0
 10
114.758044
 20
71.628974
 30
0.0
  0
LINE
  5
252
100
AcDbEntity
  8
0
 62
7
100
AcDbLine
 10
114.758044
 20
71.628974
 30
0.0
 11
114.758044
 21
71.628974
 31
0.0
  0
SPLINE
  5
253
100
AcDbEntity
  8
0
 62
7
100
AcDbSpline
 70
8
 71
3
 72
8
 73
4
 74
0
 40
0
 40
0
 40
0
 40
0
 40
1
 40
1
 40
1
 40
1
 10
117.022541
 20
71.367379
 30
0.0
 10
116.894647
 20
71.574316
 30
0.0
 10
116.621185
 20
71.743626
 30
0.0
 10
116.414852
 20
71.743626
 30
0.0
  0
SPLINE
  5
254
100
AcDbEntity
  8
0
 62
7
100
AcDbSpline
 70
8
 71
3
 72
8
 73
4
 74
0
 40
0
 40
0
 40
0
 40
0
 40
1
 40
1
 40
1
 40
1
 10
116.414852
 20
71.743626
 30
0.0
 10
116.180926
 20
71.743626
 30
0.0
 10
116.207692
 20
71.541211
 30
0.0
 10
116.485947
 20
71.205934
 30
0.0
  0
SPLINE
  5
255
100
AcDbEntity
  8
0
 62
7
100
AcDbSpline
 70
8
 71
3
 72
8
 73
4
 74
0
 40
0
 40
0
 40
0
 40
0
 40
1
 40
1
 40
1
 40
1
 10
116.485947
 20
71.205934
 30
0.0
 10
116.969794
 20
70.622933
 30
0.0
 10
117.402226
 20
70.753038
 30
0.0
 10
117.022541
 20
71.367379
 30
0.0
  0
LINE
  5
256
100
AcDbEntity
  8
0
 62
7
100
AcDbLine
 10
117.022541
 20
71.367379
 30
0.0
 11
117.022541
 21
71.367379
 31
0.0
  0
SPLINE
  5
257
100
AcDbEntity
  8
0
 62
7
100
AcDbSpline
 70
8
 71
3
 72
8
 73
4
 74
0
 40
0
 40
0
 40
0
 40
0
 40
1
 40
1
 40
1
 40
1
 10
120.243163
 20
72.362283
 30
0.0
 10
120.610111
 20
73.240516
 30
0.0
 10
120.650917
 20
73.709911
 30
0.0
 10
120.383554
 20
73.977274
 30
0.0
  0
SPLINE
  5
258
100
AcDbEntity
  8
0
 62
7
100
AcDbSpline
 70
8
 71
3
 72
8
 73
4
 74
0
 40
0
 40
0
 40
0
 40
0
 40
1
 40
1
 40
1
 40
1
 10
120.383554
 20
73.977274
 30
0.0
 10
120.021536
 20
74.339292
 30
0.0
 10
119.862936
 20
73.855131
 30
0.0
 10
119.911873
 20
72.537376
 30
0.0
  0
SPLINE
  5
259
100
AcDbEntity
  8
0
 62
7
100
AcDbSpline
 70
8
 71
3
 72
8
 73
4
 74
0
 40
0
 40
0
 40
0
 40
0
 40
1
 40
1
 40
1
 40
1
 10
119.911873
 20
72.537376
 30
0.0
 10
119.920876
 20
72.294843
 30
0.0
 10
119.717137
 20
72.096404
 30
0.0
 10
119.459104
 20
72.096404
 30
0.0
  0
SPLINE
  5
25a
100
AcDbEntity
  8
0
 62
7
100
AcDbSpline
 70
8
 71
3
 72
8
 73
4
 74
0
 40
0
 40
0
 40
0
 40
0
 40
1
 40
1
 40
1
 40
1
 10
119.459104
 20
72.096404
 30
0.0
 10
118.866353
 20
72.096404
 30
0.0
 10
118.484848
 20
71.502575
 30
0.0
 10
118.775480
 20
71.032316
 30
0.0
  0
SPLINE
  5
25b
100
AcDbEntity
  8
0
 62
7
100
AcDbSpline
 70
8
 71
3
 72
8
 73
4
 74
0
 40
0
 40
0
 40
0
 40
0
 40
1
 40
1
 40
1
 40
1
 10
118.775480
 20
71.032316
 30
0.0
 10
119.113156
 20
70.485945
 30
0.0
 10
119.670020
 20
70.990556
 30
0.0
 10
120.243163
 20
72.362283
 30
0.0
  0
LINE
  5
25c
100
AcDbEntity
  8
0
 62
7
100
AcDbLine
 10
120.243163
 20
72.362283
 30
0.0
 11
120.243163
 21
72.362283
 31
0.0
  0
SPLINE
  5
25d
100
AcDbEntity
  8
0
 62
7
100
AcDbSpline
 70
8
 71
3
 72
8
 73
4
 74
0
 40
0
 40
0
 40
0
 40
0
 40
1
 40
1
 40
1
 40
1
 10
121.759729
 20
72.096404
 30
0.0
 10
121.759729
 20
72.566773
 30
0.0
 10
121.721736
 20
72.566773
 30
0.0
 10
121.417757
 20
72.096404
 30
0.0
  0
SPLINE
  5
25e
100
AcDbEntity
  8
0
 62
7
100
AcDbSpline
 70
8
 71
3
 72
8
 73
4
 74
0
 40
0
 40
0
 40
0
 40
0
 40
1
 40
1
 40
1
 40
1
 10
121.417757
 20
72.096404
 30
0.0
 10
121.229670
 20
71.805363
 30
0.0
 10
121.075786
 20
71.329113
 30
0.0
 10
121.075786
 20
71.038071
 30
0.0
  0
SPLINE
  5
25f
100
AcDbEntity
  8
0
 62
7
100
AcDbSpline
 70
8
 71
3
 72
8
 73
4
 74
0
 40
0
 40
0
 40
0
 40
0
 40
1
 40
1
 40
1
 40
1
 10
121.075786
 20
71.038071
 30
0.0
 10
121.075786
 20
70.567702
 30
0.0
 10
121.113779
 20
70.567702
 30
0.0
 10
121.417757
 20
71.038071
 30
0.0
  0
SPLINE
  5
260
100
AcDbEntity
  8
0
 62
7
100
AcDbSpline
 70
8
 71
3
 72
8
 73
4
 74
0
 40
0
 40
0
 40
0
 40
0
 40
1
 40
1
 40
1
 40
1
 10
121.417757
 20
71.038071
 30
0.0
 10
121.605844
 20
71.329113
 30
0.0
 10
121.759729
 20
71.805363
 30
0.0
 10
121.759729
 20
72.096404
 30
0.0
  0
LINE
  5
261
100
AcDbEntity
  8
0
 62
7
100
AcDbLine
 10
121.759729
 20
72.096404
 30
0.0
 11
121.759729
 21
72.096404
 31
0.0
  0
SPLINE
  5
262
100
AcDbEntity
  8
0
 62
7
100
AcDbSpline
 70
8
 71
3
 72
8
 73
4
 74
0
 40
0
 40
0
 40
0
 40
0
 40
1
 40
1
 40
1
 40
1
 10
112.240133
 20
72.537376
 30
0.0
 10
112.235759
 20
73.179234
 30
0.0
 10
112.169290
 20
73.229865
 30
0.0
 10
111.892757
 20
72.801960
 30
0.0
  0
SPLINE
  5
263
100
AcDbEntity
  8
0
 62
7
100
AcDbSpline
 70
8
 71
3
 72
8
 73
4
 74
0
 40
0
 40
0
 40
0
 40
0
 40
1
 40
1
 40
1
 40
1
 10
111.892757
 20
72.801960
 30
0.0
 10
111.450755
 20
72.118008
 30
0.0
 10
111.450755
 20
71.743626
 30
0.0
 10
111.892757
 20
71.743626
 30
0.0
  0
SPLINE
  5
264
100
AcDbEntity
  8
0
 62
7
100
AcDbSpline
 70
8
 71
3
 72
8
 73
4
 74
0
 40
0
 40
0
 40
0
 40
0
 40
1
 40
1
 40
1
 40
1
 10
111.892757
 20
71.743626
 30
0.0
 10
112.086785
 20
71.743626
 30
0.0
 10
112.243105
 20
72.100815
 30
0.0
 10
112.240133
 20
72.537376
 30
0.0
  0
LINE
  5
265
100
AcDbEntity
  8
0
 62
7
100
AcDbLine
 10
112.240133
 20
72.537376
 30
0.0
 11
112.240133
 21
72.537376
 31
0.0
  0
SPLINE
  5
266
100
AcDbEntity
  8
0
 62
7
100
AcDbSpline
 70
8
 71
3
 72
8
 73
4
 74
0
 40
0
 40
0
 40
0
 40
0
 40
1
 40
1
 40
1
 40
1
 10
124.239980
 20
72.251974
 30
0.0
 10
124.239980
 20
72.531563
 30
0.0
 10
124.081230
 20
72.858432
 30
0.0
 10
123.887202
 20
72.978349
 30
0.0
  0
SPLINE
  5
267
100
AcDbEntity
  8
0
 62
7
100
AcDbSpline
 70
8
 71
3
 72
8
 73
4
 74
0
 40
0
 40
0
 40
0
 40
0
 40
1
 40
1
 40
1
 40
1
 10
123.887202
 20
72.978349
 30
0.0
 10
123.693174
 20
73.098265
 30
0.0
 10
123.534424
 20
72.869510
 30
0.0
 10
123.534424
 20
72.470004
 30
0.0
  0
SPLINE
  5
268
100
AcDbEntity
  8
0
 62
7
100
AcDbSpline
 70
8
 71
3
 72
8
 73
4
 74
0
 40
0
 40
0
 40
0
 40
0
 40
1
 40
1
 40
1
 40
1
 10
123.534424
 20
72.470004
 30
0.0
 10
123.534424
 20
72.070496
 30
0.0
 10
123.693174
 20
71.743626
 30
0.0
 10
123.887202
 20
71.743626
 30
0.0
  0
SPLINE
  5
269
100
AcDbEntity
  8
0
 62
7
100
AcDbSpline
 70
8
 71
3
 72
8
 73
4
 74
0
 40
0
 40
0
 40
0
 40
0
 40
1
 40
1
 40
1
 40
1
 10
123.887202
 20
71.743626
 30
0.0
 10
124.081230
 20
71.743626
 30
0.0
 10
124.239980
 20
71.972382
 30
0.0
 10
124.239980
 20
72.251974
 30
0.0
  0
LINE
  5
26a
100
AcDbEntity
  8
0
 62
7
100
AcDbLine
 10
124.239980
 20
72.251974
 30
0.0
 11
124.239980
 21
72.251974
 31
0.0
  0
SPLINE
  5
26b
100
AcDbEntity
  8
0
 62
7
100
AcDbSpline
 70
8
 71
3
 72
8
 73
4
 74
0
 40
0
 40
0
 40
0
 40
0
 40
1
 40
1
 40
1
 40
1
 10
113.703930
 20
73.385322
 30
0.0
 10
113.372025
 20
73.956336
 30
0.0
 10
113.324002
 20
73.908310
 30
0.0
 10
113.314596
 20
72.995988
 30
0.0
  0
SPLINE
  5
26c
100
AcDbEntity
  8
0
 62
7
100
AcDbSpline
 70
8
 71
3
 72
8
 73
4
 74
0
 40
0
 40
0
 40
0
 40
0
 40
1
 40
1
 40
1
 40
1
 10
113.314596
 20
72.995988
 30
0.0
 10
113.306778
 20
72.237047
 30
0.0
 10
113.409276
 20
72.060700
 30
0.0
 10
113.693202
 20
72.344624
 30
0.0
  0
SPLINE
  5
26d
100
AcDbEntity
  8
0
 62
7
100
AcDbSpline
 70
8
 71
3
 72
8
 73
4
 74
0
 40
0
 40
0
 40
0
 40
0
 40
1
 40
1
 40
1
 40
1
 10
113.693202
 20
72.344624
 30
0.0
 10
113.972230
 20
72.623655
 30
0.0
 10
113.975272
 20
72.918503
 30
0.0
 10
113.703927
 20
73.385319
 30
0.0
  0
LINE
  5
26e
100
AcDbEntity
  8
0
 62
7
100
AcDbLine
 10
113.703927
 20
73.385319
 30
0.0
 11
113.703930
 21
73.385322
 31
0.0
  0
SPLINE
  5
26f
100
AcDbEntity
  8
0
 62
7
100
AcDbSpline
 70
8
 71
3
 72
8
 73
4
 74
0
 40
0
 40
0
 40
0
 40
0
 40
1
 40
1
 40
1
 40
1
 10
116.133502
 20
73.322197
 30
0.0
 10
115.938766
 20
73.556839
 30
0.0
 10
115.883890
 20
73.853277
 30
0.0
 10
116.011556
 20
73.980946
 30
0.0
  0
SPLINE
  5
270
100
AcDbEntity
  8
0
 62
7
100
AcDbSpline
 70
8
 71
3
 72
8
 73
4
 74
0
 40
0
 40
0
 40
0
 40
0
 40
1
 40
1
 40
1
 40
1
 10
116.011556
 20
73.980946
 30
0.0
 10
116.139228
 20
74.108615
 30
0.0
 10
116.058473
 20
74.213071
 30
0.0
 10
115.832111
 20
74.213071
 30
0.0
  0
SPLINE
  5
271
100
AcDbEntity
  8
0
 62
7
100
AcDbSpline
 70
8
 71
3
 72
8
 73
4
 74
0
 40
0
 40
0
 40
0
 40
0
 40
1
 40
1
 40
1
 40
1
 10
115.832111
 20
74.213071
 30
0.0
 10
115.605743
 20
74.213071
 30
0.0
 10
115.420535
 20
73.717384
 30
0.0
 10
115.420535
 20
73.111543
 30
0.0
  0
SPLINE
  5
272
100
AcDbEntity
  8
0
 62
7
100
AcDbSpline
 70
8
 71
3
 72
8
 73
4
 74
0
 40
0
 40
0
 40
0
 40
0
 40
1
 40
1
 40
1
 40
1
 10
115.420535
 20
73.111543
 30
0.0
 10
115.420535
 20
72.168413
 30
0.0
 10
115.497254
 20
72.073685
 30
0.0
 10
115.954051
 20
72.452792
 30
0.0
  0
SPLINE
  5
273
100
AcDbEntity
  8
0
 62
7
100
AcDbSpline
 70
8
 71
3
 72
8
 73
4
 74
0
 40
0
 40
0
 40
0
 40
0
 40
1
 40
1
 40
1
 40
1
 10
115.954051
 20
72.452792
 30
0.0
 10
116.323028
 20
72.759017
 30
0.0
 10
116.378372
 20
73.027145
 30
0.0
 10
116.133502
 20
73.322197
 30
0.0
  0
LINE
  5
274
100
AcDbEntity
  8
0
 62
7
100
AcDbLine
 10
116.133502
 20
73.322197
 30
0.0
 11
116.133502
 21
73.322197
 31
0.0
  0
SPLINE
  5
275
100
AcDbEntity
  8
0
 62
7
100
AcDbSpline
 70
8
 71
3
 72
8
 73
4
 74
0
 40
0
 40
0
 40
0
 40
0
 40
1
 40
1
 40
1
 40
1
 10
118.724618
 20
73.936835
 30
0.0
 10
118.635633
 20
74.080819
 30
0.0
 10
118.263814
 20
74.011889
 30
0.0
 10
117.898362
 20
73.783656
 30
0.0
  0
SPLINE
  5
276
100
AcDbEntity
  8
0
 62
7
100
AcDbSpline
 70
8
 71
3
 72
8
 73
4
 74
0
 40
0
 40
0
 40
0
 40
0
 40
1
 40
1
 40
1
 40
1
 10
117.898362
 20
73.783656
 30
0.0
 10
117.367979
 20
73.452426
 30
0.0
 10
117.308991
 20
73.228381
 30
0.0
 10
117.606036
 20
72.673343
 30
0.0
  0
SPLINE
  5
277
100
AcDbEntity
  8
0
 62
7
100
AcDbSpline
 70
8
 71
3
 72
8
 73
4
 74
0
 40
0
 40
0
 40
0
 40
0
 40
1
 40
1
 40
1
 40
1
 10
117.606036
 20
72.673343
 30
0.0
 10
117.966487
 20
71.999833
 30
0.0
 10
117.992438
 20
72.004645
 30
0.0
 10
118.432292
 20
72.826524
 30
0.0
  0
SPLINE
  5
278
100
AcDbEntity
  8
0
 62
7
100
AcDbSpline
 70
8
 71
3
 72
8
 73
4
 74
0
 40
0
 40
0
 40
0
 40
0
 40
1
 40
1
 40
1
 40
1
 10
118.432292
 20
72.826524
 30
0.0
 10
118.682059
 20
73.293213
 30
0.0
 10
118.813605
 20
73.792853
 30
0.0
 10
118.724618
 20
73.936835
 30
0.0
  0
LINE
  5
279
100
AcDbEntity
  8
0
 62
7
100
AcDbLine
 10
118.724618
 20
73.936835
 30
0.0
 11
118.724618
 21
73.936835
 31
0.0
  0
SPLINE
  5
27a
100
AcDbEntity
  8
0
 62
7
100
AcDbSpline
 70
8
 71
3
 72
8
 73
4
 74
0
 40
0
 40
0
 40
0
 40
0
 40
1
 40
1
 40
1
 40
1
 10
122.828868
 20
72.978349
 30
0.0
 10
122.828868
 20
74.127654
 30
0.0
 10
122.315148
 20
74.127433
 30
0.0
 10
122.248828
 20
72.978097
 30
0.0
  0
SPLINE
  5
27b
100
AcDbEntity
  8
0
 62
7
100
AcDbSpline
 70
8
 71
3
 72
8
 73
4
 74
0
 40
0
 40
0
 40
0
 40
0
 40
1
 40
1
 40
1
 40
1
 10
122.248828
 20
72.978097
 30
0.0
 10
122.220860
 20
72.493166
 30
0.0
 10
122.339907
 20
72.096404
 30
0.0
 10
122.513412
 20
72.096404
 30
0.0
  0
SPLINE
  5
27c
100
AcDbEntity
  8
0
 62
7
100
AcDbSpline
 70
8
 71
3
 72
8
 73
4
 74
0
 40
0
 40
0
 40
0
 40
0
 40
1
 40
1
 40
1
 40
1
 10
122.513412
 20
72.096404
 30
0.0
 10
122.686911
 20
72.096404
 30
0.0
 10
122.828868
 20
72.493279
 30
0.0
 10
122.828868
 20
72.978349
 30
0.0
  0
LINE
  5
27d
100
AcDbEntity
  8
0
 62
7
100
AcDbLine
 10
122.828868
 20
72.978349
 30
0.0
 11
122.828868
 21
72.978349
 31
0.0
  0
SPLINE
  5
27e
100
AcDbEntity
  8
0
 62
7
100
AcDbSpline
 70
8
 71
3
 72
8
 73
4
 74
0
 40
0
 40
0
 40
0
 40
0
 40
1
 40
1
 40
1
 40
1
 10
111.112328
 20
74.261300
 30
0.0
 10
111.024258
 20
74.525513
 30
0.0
 10
110.864345
 20
74.365598
 30
0.0
 10
110.739600
 20
73.888572
 30
0.0
  0
SPLINE
  5
27f
100
AcDbEntity
  8
0
 62
7
100
AcDbSpline
 70
8
 71
3
 72
8
 73
4
 74
0
 40
0
 40
0
 40
0
 40
0
 40
1
 40
1
 40
1
 40
1
 10
110.739600
 20
73.888572
 30
0.0
 10
110.586153
 20
73.301778
 30
0.0
 10
110.632062
 20
73.164045
 30
0.0
 10
110.893849
 20
73.425829
 30
0.0
  0
SPLINE
  5
280
100
AcDbEntity
  8
0
 62
7
100
AcDbSpline
 70
8
 71
3
 72
8
 73
4
 74
0
 40
0
 40
0
 40
0
 40
0
 40
1
 40
1
 40
1
 40
1
 10
110.893849
 20
73.425829
 30
0.0
 10
111.098849
 20
73.630830
 30
0.0
 10
111.197164
 20
74.006792
 30
0.0
 10
111.112328
 20
74.261300
 30
0.0
  0
LINE
  5
281
100
AcDbEntity
  8
0
 62
7
100
AcDbLine
 10
111.112328
 20
74.261300
 30
0.0
 11
111.112328
 21
74.261300
 31
0.0
  0
SPLINE
  5
282
100
AcDbEntity
  8
0
 62
7
100
AcDbSpline
 70
8
 71
3
 72
8
 73
4
 74
0
 40
0
 40
0
 40
0
 40
0
 40
1
 40
1
 40
1
 40
1
 10
125.004960
 20
74.294743
 30
0.0
 10
124.743173
 20
74.556530
 30
0.0
 10
124.697264
 20
74.418794
 30
0.0
 10
124.850711
 20
73.832000
 30
0.0
  0
SPLINE
  5
283
100
AcDbEntity
  8
0
 62
7
100
AcDbSpline
 70
8
 71
3
 72
8
 73
4
 74
0
 40
0
 40
0
 40
0
 40
0
 40
1
 40
1
 40
1
 40
1
 10
124.850711
 20
73.832000
 30
0.0
 10
124.975459
 20
73.354974
 30
0.0
 10
125.135369
 20
73.195061
 30
0.0
 10
125.223439
 20
73.459272
 30
0.0
  0
SPLINE
  5
284
100
AcDbEntity
  8
0
 62
7
100
AcDbSpline
 70
8
 71
3
 72
8
 73
4
 74
0
 40
0
 40
0
 40
0
 40
0
 40
1
 40
1
 40
1
 40
1
 10
125.223439
 20
73.459272
 30
0.0
 10
125.308275
 20
73.713780
 30
0.0
 10
125.209977
 20
74.089743
 30
0.0
 10
125.004960
 20
74.294743
 30
0.0
  0
LINE
  5
285
100
AcDbEntity
  8
0
 62
7
100
AcDbLine
 10
125.004960
 20
74.294743
 30
0.0
 11
125.004960
 21
74.294743
 31
0.0
  0
SPLINE
  5
286
100
AcDbEntity
  8
0
 62
7
100
AcDbSpline
 70
8
 71
3
 72
8
 73
4
 74
0
 40
0
 40
0
 40
0
 40
0
 40
1
 40
1
 40
1
 40
1
 10
103.357897
 20
74.946465
 30
0.0
 10
103.842634
 20
74.969071
 30
0.0
 10
103.855489
 20
75.010998
 30
0.0
 10
103.426091
 20
75.168887
 30
0.0
  0
SPLINE
  5
287
100
AcDbEntity
  8
0
 62
7
100
AcDbSpline
 70
8
 71
3
 72
8
 73
4
 74
0
 40
0
 40
0
 40
0
 40
0
 40
1
 40
1
 40
1
 40
1
 10
103.426091
 20
75.168887
 30
0.0
 10
103.135049
 20
75.275897
 30
0.0
 10
102.624639
 20
75.600470
 30
0.0
 10
102.291848
 20
75.890148
 30
0.0
  0
SPLINE
  5
288
100
AcDbEntity
  8
0
 62
7
100
AcDbSpline
 70
8
 71
3
 72
8
 73
4
 74
0
 40
0
 40
0
 40
0
 40
0
 40
1
 40
1
 40
1
 40
1
 10
102.291848
 20
75.890148
 30
0.0
 10
101.744628
 20
76.366480
 30
0.0
 10
101.646903
 20
76.329345
 30
0.0
 10
101.269842
 20
75.501785
 30
0.0
  0
SPLINE
  5
289
100
AcDbEntity
  8
0
 62
7
100
AcDbSpline
 70
8
 71
3
 72
8
 73
4
 74
0
 40
0
 40
0
 40
0
 40
0
 40
1
 40
1
 40
1
 40
1
 10
101.269842
 20
75.501785
 30
0.0
 10
100.942335
 20
74.782988
 30
0.0
 10
100.950336
 20
74.469343
 30
0.0
 10
101.307146
 20
74.039417
 30
0.0
  0
SPLINE
  5
28a
100
AcDbEntity
  8
0
 62
7
100
AcDbSpline
 70
8
 71
3
 72
8
 73
4
 74
0
 40
0
 40
0
 40
0
 40
0
 40
1
 40
1
 40
1
 40
1
 10
101.307146
 20
74.039417
 30
0.0
 10
101.712553
 20
73.550927
 30
0.0
 10
101.815070
 20
73.568766
 30
0.0
 10
102.260956
 20
74.205355
 30
0.0
  0
SPLINE
  5
28b
100
AcDbEntity
  8
0
 62
7
100
AcDbSpline
 70
8
 71
3
 72
8
 73
4
 74
0
 40
0
 40
0
 40
0
 40
0
 40
1
 40
1
 40
1
 40
1
 10
102.260956
 20
74.205355
 30
0.0
 10
102.535730
 20
74.597649
 30
0.0
 10
103.029354
 20
74.931146
 30
0.0
 10
103.357900
 20
74.946465
 30
0.0
  0
LINE
  5
28c
100
AcDbEntity
  8
0
 62
7
100
AcDbLine
 10
103.357900
 20
74.946465
 30
0.0
 11
103.357897
 21
74.946465
 31
0.0
  0
SPLINE
  5
28d
100
AcDbEntity
  8
0
 62
7
100
AcDbSpline
 70
8
 71
3
 72
8
 73
4
 74
0
 40
0
 40
0
 40
0
 40
0
 40
1
 40
1
 40
1
 40
1
 10
124.010440
 20
74.400746
 30
0.0
 10
123.901141
 20
74.685584
 30
0.0
 10
123.512752
 20
74.918626
 30
0.0
 10
123.147356
 20
74.918626
 30
0.0
  0
SPLINE
  5
28e
100
AcDbEntity
  8
0
 62
7
100
AcDbSpline
 70
8
 71
3
 72
8
 73
4
 74
0
 40
0
 40
0
 40
0
 40
0
 40
1
 40
1
 40
1
 40
1
 10
123.147356
 20
74.918626
 30
0.0
 10
122.522632
 20
74.918626
 30
0.0
 10
122.518114
 20
74.877611
 30
0.0
 10
123.071639
 20
74.231144
 30
0.0
  0
SPLINE
  5
28f
100
AcDbEntity
  8
0
 62
7
100
AcDbSpline
 70
8
 71
3
 72
8
 73
4
 74
0
 40
0
 40
0
 40
0
 40
0
 40
1
 40
1
 40
1
 40
1
 10
123.071639
 20
74.231144
 30
0.0
 10
123.719703
 20
73.474255
 30
0.0
 10
124.324070
 20
73.583447
 30
0.0
 10
124.010443
 20
74.400760
 30
0.0
  0
LINE
  5
290
100
AcDbEntity
  8
0
 62
7
100
AcDbLine
 10
124.010443
 20
74.400760
 30
0.0
 11
124.010440
 21
74.400746
 31
0.0
  0
SPLINE
  5
291
100
AcDbEntity
  8
0
 62
7
100
AcDbSpline
 70
8
 71
3
 72
8
 73
4
 74
0
 40
0
 40
0
 40
0
 40
0
 40
1
 40
1
 40
1
 40
1
 10
112.855547
 20
74.073416
 30
0.0
 10
112.738323
 20
74.190640
 30
0.0
 10
112.434048
 20
74.203171
 30
0.0
 10
112.179388
 20
74.101243
 30
0.0
  0
SPLINE
  5
292
100
AcDbEntity
  8
0
 62
7
100
AcDbSpline
 70
8
 71
3
 72
8
 73
4
 74
0
 40
0
 40
0
 40
0
 40
0
 40
1
 40
1
 40
1
 40
1
 10
112.179388
 20
74.101243
 30
0.0
 10
111.897967
 20
73.988628
 30
0.0
 10
111.981559
 20
73.905034
 30
0.0
 10
112.392528
 20
73.888109
 30
0.0
  0
SPLINE
  5
293
100
AcDbEntity
  8
0
 62
7
100
AcDbSpline
 70
8
 71
3
 72
8
 73
4
 74
0
 40
0
 40
0
 40
0
 40
0
 40
1
 40
1
 40
1
 40
1
 10
112.392528
 20
73.888109
 30
0.0
 10
112.764412
 20
73.872784
 30
0.0
 10
112.972771
 20
73.956170
 30
0.0
 10
112.855547
 20
74.073393
 30
0.0
  0
LINE
  5
294
100
AcDbEntity
  8
0
 62
7
100
AcDbLine
 10
112.855547
 20
74.073393
 30
0.0
 11
112.855547
 21
74.073416
 31
0.0
  0
SPLINE
  5
295
100
AcDbEntity
  8
0
 62
7
100
AcDbSpline
 70
8
 71
3
 72
8
 73
4
 74
0
 40
0
 40
0
 40
0
 40
0
 40
1
 40
1
 40
1
 40
1
 10
121.625332
 20
75.181409
 30
0.0
 10
121.239957
 20
75.566784
 30
0.0
 10
120.975699
 20
74.953918
 30
0.0
 10
121.252381
 20
74.316466
 30
0.0
  0
SPLINE
  5
296
100
AcDbEntity
  8
0
 62
7
100
AcDbSpline
 70
8
 71
3
 72
8
 73
4
 74
0
 40
0
 40
0
 40
0
 40
0
 40
1
 40
1
 40
1
 40
1
 10
121.252381
 20
74.316466
 30
0.0
 10
121.514735
 20
73.712028
 30
0.0
 10
121.533753
 20
73.712578
 30
0.0
 10
121.679928
 20
74.328855
 30
0.0
  0
SPLINE
  5
297
100
AcDbEntity
  8
0
 62
7
100
AcDbSpline
 70
8
 71
3
 72
8
 73
4
 74
0
 40
0
 40
0
 40
0
 40
0
 40
1
 40
1
 40
1
 40
1
 10
121.679928
 20
74.328855
 30
0.0
 10
121.764064
 20
74.683589
 30
0.0
 10
121.739496
 20
75.067236
 30
0.0
 10
121.625332
 20
75.181401
 30
0.0
  0
LINE
  5
298
100
AcDbEntity
  8
0
 62
7
100
AcDbLine
 10
121.625332
 20
75.181401
 30
0.0
 11
121.625332
 21
75.181409
 31
0.0
  0
SPLINE
  5
299
100
AcDbEntity
  8
0
 62
7
100
AcDbSpline
 70
8
 71
3
 72
8
 73
4
 74
0
 40
0
 40
0
 40
0
 40
0
 40
1
 40
1
 40
1
 40
1
 10
133.057798
 20
77.213629
 30
0.0
 10
132.820695
 20
77.499320
 30
0.0
 10
132.512099
 20
77.662238
 30
0.0
 10
132.372029
 20
77.575670
 30
0.0
  0
SPLINE
  5
29a
100
AcDbEntity
  8
0
 62
7
100
AcDbSpline
 70
8
 71
3
 72
8
 73
4
 74
0
 40
0
 40
0
 40
0
 40
0
 40
1
 40
1
 40
1
 40
1
 10
132.372029
 20
77.575670
 30
0.0
 10
132.231960
 20
77.489104
 30
0.0
 10
131.846269
 20
77.986755
 30
0.0
 10
131.514937
 20
78.681563
 30
0.0
  0
SPLINE
  5
29b
100
AcDbEntity
  8
0
 62
7
100
AcDbSpline
 70
8
 71
3
 72
8
 73
4
 74
0
 40
0
 40
0
 40
0
 40
0
 40
1
 40
1
 40
1
 40
1
 10
131.514937
 20
78.681563
 30
0.0
 10
130.716824
 20
80.355228
 30
0.0
 10
130.515103
 20
80.053798
 30
0.0
 10
131.116400
 20
78.086035
 30
0.0
  0
SPLINE
  5
29c
100
AcDbEntity
  8
0
 62
7
100
AcDbSpline
 70
8
 71
3
 72
8
 73
4
 74
0
 40
0
 40
0
 40
0
 40
0
 40
1
 40
1
 40
1
 40
1
 10
131.116400
 20
78.086035
 30
0.0
 10
131.381935
 20
77.217075
 30
0.0
 10
131.700736
 20
76.037288
 30
0.0
 10
131.824854
 20
75.464278
 30
0.0
  0
LINE
  5
29d
100
AcDbEntity
  8
0
 62
7
100
AcDbLine
 10
131.824854
 20
75.464278
 30
0.0
 11
132.050522
 21
74.422446
 31
0.0
  0
LINE
  5
29e
100
AcDbEntity
  8
0
 62
7
100
AcDbLine
 10
132.050522
 20
74.422446
 30
0.0
 11
132.769706
 21
75.558317
 31
0.0
  0
SPLINE
  5
29f
100
AcDbEntity
  8
0
 62
7
100
AcDbSpline
 70
8
 71
3
 72
8
 73
4
 74
0
 40
0
 40
0
 40
0
 40
0
 40
1
 40
1
 40
1
 40
1
 10
132.769706
 20
75.558317
 30
0.0
 10
133.347833
 20
76.471405
 30
0.0
 10
133.404339
 20
76.796070
 30
0.0
 10
133.057798
 20
77.213629
 30
0.0
  0
LINE
  5
2a0
100
AcDbEntity
  8
0
 62
7
100
AcDbLine
 10
133.057798
 20
77.213629
 30
0.0
 11
133.057798
 21
77.213629
 31
0.0
  0
SPLINE
  5
2a1
100
AcDbEntity
  8
0
 62
7
100
AcDbSpline
 70
8
 71
3
 72
8
 73
4
 74
0
 40
0
 40
0
 40
0
 40
0
 40
1
 40
1
 40
1
 40
1
 10
103.017986
 20
80.347580
 30
0.0
 10
103.098758
 20
80.520105
 30
0.0
 10
102.989764
 20
80.553052
 30
0.0
 10
102.775741
 20
80.420789
 30
0.0
  0
SPLINE
  5
2a2
100
AcDbEntity
  8
0
 62
7
100
AcDbSpline
 70
8
 71
3
 72
8
 73
4
 74
0
 40
0
 40
0
 40
0
 40
0
 40
1
 40
1
 40
1
 40
1
 10
102.775741
 20
80.420789
 30
0.0
 10
102.561734
 20
80.288525
 30
0.0
 10
102.144212
 20
79.669434
 30
0.0
 10
101.847918
 20
79.045040
 30
0.0
  0
SPLINE
  5
2a3
100
AcDbEntity
  8
0
 62
7
100
AcDbSpline
 70
8
 71
3
 72
8
 73
4
 74
0
 40
0
 40
0
 40
0
 40
0
 40
1
 40
1
 40
1
 40
1
 10
101.847918
 20
79.045040
 30
0.0
 10
101.551619
 20
78.420640
 30
0.0
 10
100.899079
 20
77.467477
 30
0.0
 10
100.397829
 20
76.926897
 30
0.0
  0
SPLINE
  5
2a4
100
AcDbEntity
  8
0
 62
7
100
AcDbSpline
 70
8
 71
3
 72
8
 73
4
 74
0
 40
0
 40
0
 40
0
 40
0
 40
1
 40
1
 40
1
 40
1
 10
100.397829
 20
76.926897
 30
0.0
 10
99.666225
 20
76.137894
 30
0.0
 10
99.569679
 20
75.843762
 30
0.0
 10
99.908360
 20
75.435674
 30
0.0
  0
SPLINE
  5
2a5
100
AcDbEntity
  8
0
 62
7
100
AcDbSpline
 70
8
 71
3
 72
8
 73
4
 74
0
 40
0
 40
0
 40
0
 40
0
 40
1
 40
1
 40
1
 40
1
 10
99.908360
 20
75.435674
 30
0.0
 10
100.302918
 20
74.960257
 30
0.0
 10
101.043492
 20
76.130051
 30
0.0
 10
103.017986
 20
80.347580
 30
0.0
  0
LINE
  5
2a6
100
AcDbEntity
  8
0
 62
7
100
AcDbLine
 10
103.017986
 20
80.347580
 30
0.0
 11
103.017986
 21
80.347580
 31
0.0
  0
SPLINE
  5
2a7
100
AcDbEntity
  8
0
 62
7
100
AcDbSpline
 70
8
 71
3
 72
8
 73
4
 74
0
 40
0
 40
0
 40
0
 40
0
 40
1
 40
1
 40
1
 40
1
 10
127.863611
 20
76.400211
 30
0.0
 10
127.658622
 20
76.652487
 30
0.0
 10
127.412860
 20
77.176390
 30
0.0
 10
127.317475
 20
77.564446
 30
0.0
  0
SPLINE
  5
2a8
100
AcDbEntity
  8
0
 62
7
100
AcDbSpline
 70
8
 71
3
 72
8
 73
4
 74
0
 40
0
 40
0
 40
0
 40
0
 40
1
 40
1
 40
1
 40
1
 10
127.317475
 20
77.564446
 30
0.0
 10
127.222092
 20
77.952501
 30
0.0
 10
127.125631
 20
77.481921
 30
0.0
 10
127.103124
 20
76.518711
 30
0.0
  0
SPLINE
  5
2a9
100
AcDbEntity
  8
0
 62
7
100
AcDbSpline
 70
8
 71
3
 72
8
 73
4
 74
0
 40
0
 40
0
 40
0
 40
0
 40
1
 40
1
 40
1
 40
1
 10
127.103124
 20
76.518711
 30
0.0
 10
127.064956
 20
74.885256
 30
0.0
 10
127.101713
 20
74.806923
 30
0.0
 10
127.649258
 20
75.354479
 30
0.0
  0
SPLINE
  5
2aa
100
AcDbEntity
  8
0
 62
7
100
AcDbSpline
 70
8
 71
3
 72
8
 73
4
 74
0
 40
0
 40
0
 40
0
 40
0
 40
1
 40
1
 40
1
 40
1
 10
127.649258
 20
75.354479
 30
0.0
 10
128.075540
 20
75.780762
 30
0.0
 10
128.134243
 20
76.067150
 30
0.0
 10
127.863611
 20
76.400211
 30
0.0
  0
LINE
  5
2ab
100
AcDbEntity
  8
0
 62
7
100
AcDbLine
 10
127.863611
 20
76.400211
 30
0.0
 11
127.863611
 21
76.400211
 31
0.0
  0
SPLINE
  5
2ac
100
AcDbEntity
  8
0
 62
7
100
AcDbSpline
 70
8
 71
3
 72
8
 73
4
 74
0
 40
0
 40
0
 40
0
 40
0
 40
1
 40
1
 40
1
 40
1
 10
96.616715
 20
79.184604
 30
0.0
 10
97.662828
 20
81.076792
 30
0.0
 10
97.734682
 20
81.330069
 30
0.0
 10
97.057822
 20
80.739446
 30
0.0
  0
SPLINE
  5
2ad
100
AcDbEntity
  8
0
 62
7
100
AcDbSpline
 70
8
 71
3
 72
8
 73
4
 74
0
 40
0
 40
0
 40
0
 40
0
 40
1
 40
1
 40
1
 40
1
 10
97.057822
 20
80.739446
 30
0.0
 10
96.127841
 20
79.927947
 30
0.0
 10
96.435683
 20
80.646479
 30
0.0
 10
97.569545
 20
81.933852
 30
0.0
  0
LINE
  5
2ae
100
AcDbEntity
  8
0
 62
7
100
AcDbLine
 10
97.569545
 20
81.933852
 30
0.0
 11
98.310813
 21
82.775479
 31
0.0
  0
LINE
  5
2af
100
AcDbEntity
  8
0
 62
7
100
AcDbLine
 10
98.310813
 20
82.775479
 30
0.0
 11
97.548438
 21
82.379202
 31
0.0
  0
SPLINE
  5
2b0
100
AcDbEntity
  8
0
 62
7
100
AcDbSpline
 70
8
 71
3
 72
8
 73
4
 74
0
 40
0
 40
0
 40
0
 40
0
 40
1
 40
1
 40
1
 40
1
 10
97.548438
 20
82.379202
 30
0.0
 10
97.129134
 20
82.161253
 30
0.0
 10
95.998634
 20
80.931467
 30
0.0
 10
95.036219
 20
79.646348
 30
0.0
  0
SPLINE
  5
2b1
100
AcDbEntity
  8
0
 62
7
100
AcDbSpline
 70
8
 71
3
 72
8
 73
4
 74
0
 40
0
 40
0
 40
0
 40
0
 40
1
 40
1
 40
1
 40
1
 10
95.036219
 20
79.646348
 30
0.0
 10
93.408333
 20
77.472627
 30
0.0
 10
93.313941
 20
77.236295
 30
0.0
 10
93.681928
 20
76.255561
 30
0.0
  0
LINE
  5
2b2
100
AcDbEntity
  8
0
 62
7
100
AcDbLine
 10
93.681928
 20
76.255561
 30
0.0
 11
94.077480
 21
75.201354
 31
0.0
  0
LINE
  5
2b3
100
AcDbEntity
  8
0
 62
7
100
AcDbLine
 10
94.077480
 20
75.201354
 30
0.0
 11
94.722259
 21
76.062784
 31
0.0
  0
SPLINE
  5
2b4
100
AcDbEntity
  8
0
 62
7
100
AcDbSpline
 70
8
 71
3
 72
8
 73
4
 74
0
 40
0
 40
0
 40
0
 40
0
 40
1
 40
1
 40
1
 40
1
 10
94.722259
 20
76.062784
 30
0.0
 10
95.076888
 20
76.536567
 30
0.0
 10
95.929394
 20
77.941387
 30
0.0
 10
96.616715
 20
79.184604
 30
0.0
  0
LINE
  5
2b5
100
AcDbEntity
  8
0
 62
7
100
AcDbLine
 10
96.616715
 20
79.184604
 30
0.0
 11
96.616715
 21
79.184604
 31
0.0
  0
SPLINE
  5
2b6
100
AcDbEntity
  8
0
 62
7
100
AcDbSpline
 70
8
 71
3
 72
8
 73
4
 74
0
 40
0
 40
0
 40
0
 40
0
 40
1
 40
1
 40
1
 40
1
 10
98.378236
 20
77.211668
 30
0.0
 10
98.908416
 20
78.194735
 30
0.0
 10
98.907498
 20
78.235570
 30
0.0
 10
98.365338
 20
77.785835
 30
0.0
  0
SPLINE
  5
2b7
100
AcDbEntity
  8
0
 62
7
100
AcDbSpline
 70
8
 71
3
 72
8
 73
4
 74
0
 40
0
 40
0
 40
0
 40
0
 40
1
 40
1
 40
1
 40
1
 10
98.365338
 20
77.785835
 30
0.0
 10
97.607323
 20
77.157058
 30
0.0
 10
97.613922
 20
77.654729
 30
0.0
 10
98.376063
 20
78.595000
 30
0.0
  0
SPLINE
  5
2b8
100
AcDbEntity
  8
0
 62
7
100
AcDbSpline
 70
8
 71
3
 72
8
 73
4
 74
0
 40
0
 40
0
 40
0
 40
0
 40
1
 40
1
 40
1
 40
1
 10
98.376063
 20
78.595000
 30
0.0
 10
98.702986
 20
78.998335
 30
0.0
 10
98.384953
 20
78.723594
 30
0.0
 10
97.669305
 20
77.984474
 30
0.0
  0
SPLINE
  5
2b9
100
AcDbEntity
  8
0
 62
7
100
AcDbSpline
 70
8
 71
3
 72
8
 73
4
 74
0
 40
0
 40
0
 40
0
 40
0
 40
1
 40
1
 40
1
 40
1
 10
97.669305
 20
77.984474
 30
0.0
 10
96.551922
 20
76.830425
 30
0.0
 10
96.423494
 20
76.537182
 30
0.0
 10
96.760041
 20
75.908340
 30
0.0
  0
SPLINE
  5
2ba
100
AcDbEntity
  8
0
 62
7
100
AcDbSpline
 70
8
 71
3
 72
8
 73
4
 74
0
 40
0
 40
0
 40
0
 40
0
 40
1
 40
1
 40
1
 40
1
 10
96.760041
 20
75.908340
 30
0.0
 10
97.189547
 20
75.105799
 30
0.0
 10
97.283205
 20
75.181234
 30
0.0
 10
98.378247
 20
77.211668
 30
0.0
  0
LINE
  5
2bb
100
AcDbEntity
  8
0
 62
7
100
AcDbLine
 10
98.378247
 20
77.211668
 30
0.0
 11
98.378236
 21
77.211668
 31
0.0
  0
SPLINE
  5
2bc
100
AcDbEntity
  8
0
 62
7
100
AcDbSpline
 70
8
 71
3
 72
8
 73
4
 74
0
 40
0
 40
0
 40
0
 40
0
 40
1
 40
1
 40
1
 40
1
 10
108.717757
 20
75.800571
 30
0.0
 10
108.717757
 20
76.091613
 30
0.0
 10
108.540494
 20
76.329738
 30
0.0
 10
108.323834
 20
76.329738
 30
0.0
  0
SPLINE
  5
2bd
100
AcDbEntity
  8
0
 62
7
100
AcDbSpline
 70
8
 71
3
 72
8
 73
4
 74
0
 40
0
 40
0
 40
0
 40
0
 40
1
 40
1
 40
1
 40
1
 10
108.323834
 20
76.329738
 30
0.0
 10
108.103597
 20
76.329738
 30
0.0
 10
108.011262
 20
76.640820
 30
0.0
 10
108.114420
 20
77.035293
 30
0.0
  0
SPLINE
  5
2be
100
AcDbEntity
  8
0
 62
7
100
AcDbSpline
 70
8
 71
3
 72
8
 73
4
 74
0
 40
0
 40
0
 40
0
 40
0
 40
1
 40
1
 40
1
 40
1
 10
108.114420
 20
77.035293
 30
0.0
 10
108.352728
 20
77.946586
 30
0.0
 10
108.141683
 20
77.936398
 30
0.0
 10
107.647356
 20
77.012744
 30
0.0
  0
SPLINE
  5
2bf
100
AcDbEntity
  8
0
 62
7
100
AcDbSpline
 70
8
 71
3
 72
8
 73
4
 74
0
 40
0
 40
0
 40
0
 40
0
 40
1
 40
1
 40
1
 40
1
 10
107.647356
 20
77.012744
 30
0.0
 10
107.358112
 20
76.472294
 30
0.0
 10
107.366048
 20
76.154068
 30
0.0
 10
107.678152
 20
75.778021
 30
0.0
  0
SPLINE
  5
2c0
100
AcDbEntity
  8
0
 62
7
100
AcDbSpline
 70
8
 71
3
 72
8
 73
4
 74
0
 40
0
 40
0
 40
0
 40
0
 40
1
 40
1
 40
1
 40
1
 10
107.678152
 20
75.778021
 30
0.0
 10
108.224024
 20
75.120266
 30
0.0
 10
108.717757
 20
75.130976
 30
0.0
 10
108.717757
 20
75.800571
 30
0.0
  0
LINE
  5
2c1
100
AcDbEntity
  8
0
 62
7
100
AcDbLine
 10
108.717757
 20
75.800571
 30
0.0
 11
108.717757
 21
75.800571
 31
0.0
  0
SPLINE
  5
2c2
100
AcDbEntity
  8
0
 62
7
100
AcDbSpline
 70
8
 71
3
 72
8
 73
4
 74
0
 40
0
 40
0
 40
0
 40
0
 40
1
 40
1
 40
1
 40
1
 10
111.539980
 20
75.624182
 30
0.0
 10
111.539980
 20
75.818210
 30
0.0
 10
111.469974
 20
75.976960
 30
0.0
 10
111.384410
 20
75.976960
 30
0.0
  0
SPLINE
  5
2c3
100
AcDbEntity
  8
0
 62
7
100
AcDbSpline
 70
8
 71
3
 72
8
 73
4
 74
0
 40
0
 40
0
 40
0
 40
0
 40
1
 40
1
 40
1
 40
1
 10
111.384410
 20
75.976960
 30
0.0
 10
111.298849
 20
75.976960
 30
0.0
 10
111.130729
 20
75.818210
 30
0.0
 10
111.010813
 20
75.624182
 30
0.0
  0
SPLINE
  5
2c4
100
AcDbEntity
  8
0
 62
7
100
AcDbSpline
 70
8
 71
3
 72
8
 73
4
 74
0
 40
0
 40
0
 40
0
 40
0
 40
1
 40
1
 40
1
 40
1
 10
111.010813
 20
75.624182
 30
0.0
 10
110.890897
 20
75.430154
 30
0.0
 10
110.960902
 20
75.271404
 30
0.0
 10
111.166382
 20
75.271404
 30
0.0
  0
SPLINE
  5
2c5
100
AcDbEntity
  8
0
 62
7
100
AcDbSpline
 70
8
 71
3
 72
8
 73
4
 74
0
 40
0
 40
0
 40
0
 40
0
 40
1
 40
1
 40
1
 40
1
 10
111.166382
 20
75.271404
 30
0.0
 10
111.371860
 20
75.271404
 30
0.0
 10
111.539980
 20
75.430154
 30
0.0
 10
111.539980
 20
75.624182
 30
0.0
  0
LINE
  5
2c6
100
AcDbEntity
  8
0
 62
7
100
AcDbLine
 10
111.539980
 20
75.624182
 30
0.0
 11
111.539980
 21
75.624182
 31
0.0
  0
SPLINE
  5
2c7
100
AcDbEntity
  8
0
 62
7
100
AcDbSpline
 70
8
 71
3
 72
8
 73
4
 74
0
 40
0
 40
0
 40
0
 40
0
 40
1
 40
1
 40
1
 40
1
 10
117.092318
 20
75.765347
 30
0.0
 10
116.539758
 20
76.184704
 30
0.0
 10
116.530484
 20
76.286185
 30
0.0
 10
117.008473
 20
76.682879
 30
0.0
  0
SPLINE
  5
2c8
100
AcDbEntity
  8
0
 62
7
100
AcDbSpline
 70
8
 71
3
 72
8
 73
4
 74
0
 40
0
 40
0
 40
0
 40
0
 40
1
 40
1
 40
1
 40
1
 10
117.008473
 20
76.682879
 30
0.0
 10
117.417424
 20
77.022280
 30
0.0
 10
117.450201
 20
77.244219
 30
0.0
 10
117.145579
 20
77.611266
 30
0.0
  0
SPLINE
  5
2c9
100
AcDbEntity
  8
0
 62
7
100
AcDbSpline
 70
8
 71
3
 72
8
 73
4
 74
0
 40
0
 40
0
 40
0
 40
0
 40
1
 40
1
 40
1
 40
1
 10
117.145579
 20
77.611266
 30
0.0
 10
116.584389
 20
78.287457
 30
0.0
 10
115.285277
 20
78.249393
 30
0.0
 10
115.548111
 20
77.564460
 30
0.0
  0
SPLINE
  5
2ca
100
AcDbEntity
  8
0
 62
7
100
AcDbSpline
 70
8
 71
3
 72
8
 73
4
 74
0
 40
0
 40
0
 40
0
 40
0
 40
1
 40
1
 40
1
 40
1
 10
115.548111
 20
77.564460
 30
0.0
 10
115.659792
 20
77.273418
 30
0.0
 10
115.588548
 20
77.035293
 30
0.0
 10
115.389790
 20
77.035293
 30
0.0
  0
SPLINE
  5
2cb
100
AcDbEntity
  8
0
 62
7
100
AcDbSpline
 70
8
 71
3
 72
8
 73
4
 74
0
 40
0
 40
0
 40
0
 40
0
 40
1
 40
1
 40
1
 40
1
 10
115.389790
 20
77.035293
 30
0.0
 10
115.191032
 20
77.035293
 30
0.0
 10
115.473830
 20
76.643433
 30
0.0
 10
116.018225
 20
76.164496
 30
0.0
  0
SPLINE
  5
2cc
100
AcDbEntity
  8
0
 62
7
100
AcDbSpline
 70
8
 71
3
 72
8
 73
4
 74
0
 40
0
 40
0
 40
0
 40
0
 40
1
 40
1
 40
1
 40
1
 10
116.018225
 20
76.164496
 30
0.0
 10
116.562621
 20
75.685557
 30
0.0
 10
117.166785
 20
75.293731
 30
0.0
 10
117.360813
 20
75.293770
 30
0.0
  0
SPLINE
  5
2cd
100
AcDbEntity
  8
0
 62
7
100
AcDbSpline
 70
8
 71
3
 72
8
 73
4
 74
0
 40
0
 40
0
 40
0
 40
0
 40
1
 40
1
 40
1
 40
1
 10
117.360813
 20
75.293770
 30
0.0
 10
117.554841
 20
75.293813
 30
0.0
 10
117.434019
 20
75.506018
 30
0.0
 10
117.092318
 20
75.765347
 30
0.0
  0
LINE
  5
2ce
100
AcDbEntity
  8
0
 62
7
100
AcDbLine
 10
117.092318
 20
75.765347
 30
0.0
 11
117.092318
 21
75.765347
 31
0.0
  0
SPLINE
  5
2cf
100
AcDbEntity
  8
0
 62
7
100
AcDbSpline
 70
8
 71
3
 72
8
 73
4
 74
0
 40
0
 40
0
 40
0
 40
0
 40
1
 40
1
 40
1
 40
1
 10
119.066426
 20
76.945140
 30
0.0
 10
118.356626
 20
77.464158
 30
0.0
 10
117.759692
 20
77.531508
 30
0.0
 10
118.051301
 20
77.059669
 30
0.0
  0
SPLINE
  5
2d0
100
AcDbEntity
  8
0
 62
7
100
AcDbSpline
 70
8
 71
3
 72
8
 73
4
 74
0
 40
0
 40
0
 40
0
 40
0
 40
1
 40
1
 40
1
 40
1
 10
118.051301
 20
77.059669
 30
0.0
 10
118.162934
 20
76.879049
 30
0.0
 10
118.085204
 20
76.626791
 30
0.0
 10
117.878603
 20
76.499096
 30
0.0
  0
SPLINE
  5
2d1
100
AcDbEntity
  8
0
 62
7
100
AcDbSpline
 70
8
 71
3
 72
8
 73
4
 74
0
 40
0
 40
0
 40
0
 40
0
 40
1
 40
1
 40
1
 40
1
 10
117.878603
 20
76.499096
 30
0.0
 10
117.615137
 20
76.336265
 30
0.0
 10
117.620460
 20
76.125321
 30
0.0
 10
117.896411
 20
75.792801
 30
0.0
  0
SPLINE
  5
2d2
100
AcDbEntity
  8
0
 62
7
100
AcDbSpline
 70
8
 71
3
 72
8
 73
4
 74
0
 40
0
 40
0
 40
0
 40
0
 40
1
 40
1
 40
1
 40
1
 10
117.896411
 20
75.792801
 30
0.0
 10
118.222570
 20
75.399810
 30
0.0
 10
118.408154
 20
75.419938
 30
0.0
 10
118.981028
 20
75.910446
 30
0.0
  0
SPLINE
  5
2d3
100
AcDbEntity
  8
0
 62
7
100
AcDbSpline
 70
8
 71
3
 72
8
 73
4
 74
0
 40
0
 40
0
 40
0
 40
0
 40
1
 40
1
 40
1
 40
1
 10
118.981028
 20
75.910446
 30
0.0
 10
119.628581
 20
76.464899
 30
0.0
 10
119.633966
 20
76.530135
 30
0.0
 10
119.066414
 20
76.945140
 30
0.0
  0
LINE
  5
2d4
100
AcDbEntity
  8
0
 62
7
100
AcDbLine
 10
119.066414
 20
76.945140
 30
0.0
 11
119.066426
 21
76.945140
 31
0.0
  0
SPLINE
  5
2d5
100
AcDbEntity
  8
0
 62
7
100
AcDbSpline
 70
8
 71
3
 72
8
 73
4
 74
0
 40
0
 40
0
 40
0
 40
0
 40
1
 40
1
 40
1
 40
1
 10
124.864690
 20
75.690329
 30
0.0
 10
124.787889
 20
75.920738
 30
0.0
 10
124.536426
 20
76.172128
 30
0.0
 10
124.305884
 20
76.248971
 30
0.0
  0
SPLINE
  5
2d6
100
AcDbEntity
  8
0
 62
7
100
AcDbSpline
 70
8
 71
3
 72
8
 73
4
 74
0
 40
0
 40
0
 40
0
 40
0
 40
1
 40
1
 40
1
 40
1
 10
124.305884
 20
76.248971
 30
0.0
 10
124.048094
 20
76.334902
 30
0.0
 10
123.969249
 20
76.173624
 30
0.0
 10
124.101095
 20
75.830049
 30
0.0
  0
SPLINE
  5
2d7
100
AcDbEntity
  8
0
 62
7
100
AcDbSpline
 70
8
 71
3
 72
8
 73
4
 74
0
 40
0
 40
0
 40
0
 40
0
 40
1
 40
1
 40
1
 40
1
 10
124.101095
 20
75.830049
 30
0.0
 10
124.347165
 20
75.188801
 30
0.0
 10
125.076342
 20
75.055377
 30
0.0
 10
124.864690
 20
75.690329
 30
0.0
  0
LINE
  5
2d8
100
AcDbEntity
  8
0
 62
7
100
AcDbLine
 10
124.864690
 20
75.690329
 30
0.0
 11
124.864690
 21
75.690329
 31
0.0
  0
SPLINE
  5
2d9
100
AcDbEntity
  8
0
 62
7
100
AcDbSpline
 70
8
 71
3
 72
8
 73
4
 74
0
 40
0
 40
0
 40
0
 40
0
 40
1
 40
1
 40
1
 40
1
 10
130.942757
 20
76.590988
 30
0.0
 10
130.942757
 20
76.835356
 30
0.0
 10
130.795212
 20
76.995607
 30
0.0
 10
130.614880
 20
76.947099
 30
0.0
  0
SPLINE
  5
2da
100
AcDbEntity
  8
0
 62
7
100
AcDbSpline
 70
8
 71
3
 72
8
 73
4
 74
0
 40
0
 40
0
 40
0
 40
0
 40
1
 40
1
 40
1
 40
1
 10
130.614880
 20
76.947099
 30
0.0
 10
130.434546
 20
76.898593
 30
0.0
 10
130.025888
 20
77.176404
 30
0.0
 10
129.706751
 20
77.564460
 30
0.0
  0
SPLINE
  5
2db
100
AcDbEntity
  8
0
 62
7
100
AcDbSpline
 70
8
 71
3
 72
8
 73
4
 74
0
 40
0
 40
0
 40
0
 40
0
 40
1
 40
1
 40
1
 40
1
 10
129.706751
 20
77.564460
 30
0.0
 10
129.137989
 20
78.256048
 30
0.0
 10
129.130417
 20
78.252560
 30
0.0
 10
129.324258
 20
77.388071
 30
0.0
  0
SPLINE
  5
2dc
100
AcDbEntity
  8
0
 62
7
100
AcDbSpline
 70
8
 71
3
 72
8
 73
4
 74
0
 40
0
 40
0
 40
0
 40
0
 40
1
 40
1
 40
1
 40
1
 10
129.324258
 20
77.388071
 30
0.0
 10
129.433024
 20
76.903001
 30
0.0
 10
129.524181
 20
76.226969
 30
0.0
 10
129.526832
 20
75.885777
 30
0.0
  0
SPLINE
  5
2dd
100
AcDbEntity
  8
0
 62
7
100
AcDbSpline
 70
8
 71
3
 72
8
 73
4
 74
0
 40
0
 40
0
 40
0
 40
0
 40
1
 40
1
 40
1
 40
1
 10
129.526832
 20
75.885777
 30
0.0
 10
129.530952
 20
75.353909
 30
0.0
 10
129.632284
 20
75.328275
 30
0.0
 10
130.237202
 20
75.706052
 30
0.0
  0
SPLINE
  5
2de
100
AcDbEntity
  8
0
 62
7
100
AcDbSpline
 70
8
 71
3
 72
8
 73
4
 74
0
 40
0
 40
0
 40
0
 40
0
 40
1
 40
1
 40
1
 40
1
 10
130.237202
 20
75.706052
 30
0.0
 10
130.625257
 20
75.948396
 30
0.0
 10
130.942757
 20
76.346617
 30
0.0
 10
130.942757
 20
76.590988
 30
0.0
  0
LINE
  5
2df
100
AcDbEntity
  8
0
 62
7
100
AcDbLine
 10
130.942757
 20
76.590988
 30
0.0
 11
130.942757
 21
76.590988
 31
0.0
  0
SPLINE
  5
2e0
100
AcDbEntity
  8
0
 62
7
100
AcDbSpline
 70
8
 71
3
 72
8
 73
4
 74
0
 40
0
 40
0
 40
0
 40
0
 40
1
 40
1
 40
1
 40
1
 10
136.308166
 20
77.077054
 30
0.0
 10
135.944777
 20
77.211482
 30
0.0
 10
134.960639
 20
78.090516
 30
0.0
 10
134.121189
 20
79.030463
 30
0.0
  0
LINE
  5
2e1
100
AcDbEntity
  8
0
 62
7
100
AcDbLine
 10
134.121189
 20
79.030463
 30
0.0
 11
132.594917
 21
80.739460
 31
0.0
  0
LINE
  5
2e2
100
AcDbEntity
  8
0
 62
7
100
AcDbLine
 10
132.594917
 20
80.739460
 30
0.0
 11
133.333515
 21
79.328349
 31
0.0
  0
SPLINE
  5
2e3
100
AcDbEntity
  8
0
 62
7
100
AcDbSpline
 70
8
 71
3
 72
8
 73
4
 74
0
 40
0
 40
0
 40
0
 40
0
 40
1
 40
1
 40
1
 40
1
 10
133.333515
 20
79.328349
 30
0.0
 10
133.739746
 20
78.552238
 30
0.0
 10
134.342104
 20
77.314538
 30
0.0
 10
134.672087
 20
76.577907
 30
0.0
  0
LINE
  5
2e4
100
AcDbEntity
  8
0
 62
7
100
AcDbLine
 10
134.672087
 20
76.577907
 30
0.0
 11
135.272060
 21
75.238576
 31
0.0
  0
LINE
  5
2e5
100
AcDbEntity
  8
0
 62
7
100
AcDbLine
 10
135.272060
 20
75.238576
 30
0.0
 11
136.120465
 21
76.035608
 31
0.0
  0
SPLINE
  5
2e6
100
AcDbEntity
  8
0
 62
7
100
AcDbSpline
 70
8
 71
3
 72
8
 73
4
 74
0
 40
0
 40
0
 40
0
 40
0
 40
1
 40
1
 40
1
 40
1
 10
136.120465
 20
76.035608
 30
0.0
 10
136.917520
 20
76.784406
 30
0.0
 10
136.928880
 20
76.847435
 30
0.0
 10
136.308166
 20
77.077056
 30
0.0
  0
LINE
  5
2e7
100
AcDbEntity
  8
0
 62
7
100
AcDbLine
 10
136.308166
 20
77.077056
 30
0.0
 11
136.308166
 21
77.077054
 31
0.0
  0
SPLINE
  5
2e8
100
AcDbEntity
  8
0
 62
7
100
AcDbSpline
 70
8
 71
3
 72
8
 73
4
 74
0
 40
0
 40
0
 40
0
 40
0
 40
1
 40
1
 40
1
 40
1
 10
139.056646
 20
76.174171
 30
0.0
 10
139.056646
 20
76.453760
 30
0.0
 10
139.215396
 20
76.682515
 30
0.0
 10
139.409424
 20
76.682515
 30
0.0
  0
SPLINE
  5
2e9
100
AcDbEntity
  8
0
 62
7
100
AcDbSpline
 70
8
 71
3
 72
8
 73
4
 74
0
 40
0
 40
0
 40
0
 40
0
 40
1
 40
1
 40
1
 40
1
 10
139.409424
 20
76.682515
 30
0.0
 10
140.001859
 20
76.682515
 30
0.0
 10
139.801829
 20
77.396320
 30
0.0
 10
139.144841
 20
77.626676
 30
0.0
  0
SPLINE
  5
2ea
100
AcDbEntity
  8
0
 62
7
100
AcDbSpline
 70
8
 71
3
 72
8
 73
4
 74
0
 40
0
 40
0
 40
0
 40
0
 40
1
 40
1
 40
1
 40
1
 10
139.144841
 20
77.626676
 30
0.0
 10
138.805291
 20
77.745731
 30
0.0
 10
138.235890
 20
78.177311
 30
0.0
 10
137.879503
 20
78.585743
 30
0.0
  0
SPLINE
  5
2eb
100
AcDbEntity
  8
0
 62
7
100
AcDbSpline
 70
8
 71
3
 72
8
 73
4
 74
0
 40
0
 40
0
 40
0
 40
0
 40
1
 40
1
 40
1
 40
1
 10
137.879503
 20
78.585743
 30
0.0
 10
137.523121
 20
78.994178
 30
0.0
 10
137.337490
 20
79.090224
 30
0.0
 10
137.466993
 20
78.799182
 30
0.0
  0
SPLINE
  5
2ec
100
AcDbEntity
  8
0
 62
7
100
AcDbSpline
 70
8
 71
3
 72
8
 73
4
 74
0
 40
0
 40
0
 40
0
 40
0
 40
1
 40
1
 40
1
 40
1
 10
137.466993
 20
78.799182
 30
0.0
 10
137.757989
 20
78.145205
 30
0.0
 10
136.269764
 20
79.738590
 30
0.0
 10
135.479237
 20
80.927392
 30
0.0
  0
SPLINE
  5
2ed
100
AcDbEntity
  8
0
 62
7
100
AcDbSpline
 70
8
 71
3
 72
8
 73
4
 74
0
 40
0
 40
0
 40
0
 40
0
 40
1
 40
1
 40
1
 40
1
 10
135.479237
 20
80.927392
 30
0.0
 10
135.160896
 20
81.406111
 30
0.0
 10
134.789395
 20
81.690876
 30
0.0
 10
134.653680
 20
81.560202
 30
0.0
  0
SPLINE
  5
2ee
100
AcDbEntity
  8
0
 62
7
100
AcDbSpline
 70
8
 71
3
 72
8
 73
4
 74
0
 40
0
 40
0
 40
0
 40
0
 40
1
 40
1
 40
1
 40
1
 10
134.653680
 20
81.560202
 30
0.0
 10
134.517963
 20
81.429524
 30
0.0
 10
135.033766
 20
80.477024
 30
0.0
 10
135.799903
 20
79.443535
 30
0.0
  0
SPLINE
  5
2ef
100
AcDbEntity
  8
0
 62
7
100
AcDbSpline
 70
8
 71
3
 72
8
 73
4
 74
0
 40
0
 40
0
 40
0
 40
0
 40
1
 40
1
 40
1
 40
1
 10
135.799903
 20
79.443535
 30
0.0
 10
136.566046
 20
78.410043
 30
0.0
 10
137.482611
 20
77.057154
 30
0.0
 10
137.836718
 20
76.437117
 30
0.0
  0
SPLINE
  5
2f0
100
AcDbEntity
  8
0
 62
7
100
AcDbSpline
 70
8
 71
3
 72
8
 73
4
 74
0
 40
0
 40
0
 40
0
 40
0
 40
1
 40
1
 40
1
 40
1
 10
137.836718
 20
76.437117
 30
0.0
 10
138.474681
 20
75.320045
 30
0.0
 10
139.056646
 20
75.194606
 30
0.0
 10
139.056646
 20
76.174171
 30
0.0
  0
LINE
  5
2f1
100
AcDbEntity
  8
0
 62
7
100
AcDbLine
 10
139.056646
 20
76.174171
 30
0.0
 11
139.056646
 21
76.174171
 31
0.0
  0
SPLINE
  5
2f2
100
AcDbEntity
  8
0
 62
7
100
AcDbSpline
 70
8
 71
3
 72
8
 73
4
 74
0
 40
0
 40
0
 40
0
 40
0
 40
1
 40
1
 40
1
 40
1
 10
141.498503
 20
79.302153
 30
0.0
 10
140.661015
 20
80.146370
 30
0.0
 10
140.180833
 20
80.455812
 30
0.0
 10
140.334819
 20
80.052065
 30
0.0
  0
SPLINE
  5
2f3
100
AcDbEntity
  8
0
 62
7
100
AcDbSpline
 70
8
 71
3
 72
8
 73
4
 74
0
 40
0
 40
0
 40
0
 40
0
 40
1
 40
1
 40
1
 40
1
 10
140.334819
 20
80.052065
 30
0.0
 10
140.578276
 20
79.413743
 30
0.0
 10
140.517276
 20
79.421434
 30
0.0
 10
139.480383
 20
80.159764
 30
0.0
  0
SPLINE
  5
2f4
100
AcDbEntity
  8
0
 62
7
100
AcDbSpline
 70
8
 71
3
 72
8
 73
4
 74
0
 40
0
 40
0
 40
0
 40
0
 40
1
 40
1
 40
1
 40
1
 10
139.480383
 20
80.159764
 30
0.0
 10
138.866245
 20
80.597067
 30
0.0
 10
138.162482
 20
81.233614
 30
0.0
 10
137.916457
 20
81.574310
 30
0.0
  0
SPLINE
  5
2f5
100
AcDbEntity
  8
0
 62
7
100
AcDbSpline
 70
8
 71
3
 72
8
 73
4
 74
0
 40
0
 40
0
 40
0
 40
0
 40
1
 40
1
 40
1
 40
1
 10
137.916457
 20
81.574310
 30
0.0
 10
137.670438
 20
81.915003
 30
0.0
 10
137.231021
 20
82.334210
 30
0.0
 10
136.939980
 20
82.505875
 30
0.0
  0
SPLINE
  5
2f6
100
AcDbEntity
  8
0
 62
7
100
AcDbSpline
 70
8
 71
3
 72
8
 73
4
 74
0
 40
0
 40
0
 40
0
 40
0
 40
1
 40
1
 40
1
 40
1
 10
136.939980
 20
82.505875
 30
0.0
 10
136.648938
 20
82.677539
 30
0.0
 10
136.925756
 20
82.226850
 30
0.0
 10
137.555173
 20
81.504336
 30
0.0
  0
SPLINE
  5
2f7
100
AcDbEntity
  8
0
 62
7
100
AcDbSpline
 70
8
 71
3
 72
8
 73
4
 74
0
 40
0
 40
0
 40
0
 40
0
 40
1
 40
1
 40
1
 40
1
 10
137.555173
 20
81.504336
 30
0.0
 10
138.184571
 20
80.781821
 30
0.0
 10
139.038742
 20
79.520401
 30
0.0
 10
139.453326
 20
78.701180
 30
0.0
  0
SPLINE
  5
2f8
100
AcDbEntity
  8
0
 62
7
100
AcDbSpline
 70
8
 71
3
 72
8
 73
4
 74
0
 40
0
 40
0
 40
0
 40
0
 40
1
 40
1
 40
1
 40
1
 10
139.453326
 20
78.701180
 30
0.0
 10
139.867908
 20
77.881957
 30
0.0
 10
140.518365
 20
76.769962
 30
0.0
 10
140.898787
 20
76.230082
 30
0.0
  0
LINE
  5
2f9
100
AcDbEntity
  8
0
 62
7
100
AcDbLine
 10
140.898787
 20
76.230082
 30
0.0
 11
141.590457
 21
75.248476
 31
0.0
  0
LINE
  5
2fa
100
AcDbEntity
  8
0
 62
7
100
AcDbLine
 10
141.590457
 20
75.248476
 30
0.0
 11
142.257410
 21
76.556661
 31
0.0
  0
LINE
  5
2fb
100
AcDbEntity
  8
0
 62
7
100
AcDbLine
 10
142.257410
 20
76.556661
 30
0.0
 11
142.924361
 21
77.864843
 31
0.0
  0
LINE
  5
2fc
100
AcDbEntity
  8
0
 62
7
100
AcDbLine
 10
142.924361
 20
77.864843
 30
0.0
 11
141.498503
 21
79.302153
 31
0.0
  0
LINE
  5
2fd
100
AcDbEntity
  8
0
 62
7
100
AcDbLine
 10
141.498503
 20
79.302153
 30
0.0
 11
141.498503
 21
79.302153
 31
0.0
  0
SPLINE
  5
2fe
100
AcDbEntity
  8
0
 62
7
100
AcDbSpline
 70
8
 71
3
 72
8
 73
4
 74
0
 40
0
 40
0
 40
0
 40
0
 40
1
 40
1
 40
1
 40
1
 10
93.843181
 20
80.386682
 30
0.0
 10
94.156220
 20
80.774738
 30
0.0
 10
93.741680
 20
80.464705
 30
0.0
 10
92.921991
 20
79.697724
 30
0.0
  0
SPLINE
  5
2ff
100
AcDbEntity
  8
0
 62
7
100
AcDbSpline
 70
8
 71
3
 72
8
 73
4
 74
0
 40
0
 40
0
 40
0
 40
0
 40
1
 40
1
 40
1
 40
1
 10
92.921991
 20
79.697724
 30
0.0
 10
91.575893
 20
78.438186
 30
0.0
 10
90.793011
 20
78.294670
 30
0.0
 10
91.872618
 20
79.505361
 30
0.0
  0
SPLINE
  5
300
100
AcDbEntity
  8
0
 62
7
100
AcDbSpline
 70
8
 71
3
 72
8
 73
4
 74
0
 40
0
 40
0
 40
0
 40
0
 40
1
 40
1
 40
1
 40
1
 10
91.872618
 20
79.505361
 30
0.0
 10
92.222582
 20
79.897817
 30
0.0
 10
92.168263
 20
79.894176
 30
0.0
 10
91.609421
 20
79.487722
 30
0.0
  0
SPLINE
  5
301
100
AcDbEntity
  8
0
 62
7
100
AcDbSpline
 70
8
 71
3
 72
8
 73
4
 74
0
 40
0
 40
0
 40
0
 40
0
 40
1
 40
1
 40
1
 40
1
 10
91.609421
 20
79.487722
 30
0.0
 10
90.274479
 20
78.516805
 30
0.0
 10
90.142653
 20
78.261162
 30
0.0
 10
90.296659
 20
76.941999
 30
0.0
  0
LINE
  5
302
100
AcDbEntity
  8
0
 62
7
100
AcDbLine
 10
90.296659
 20
76.941999
 30
0.0
 11
90.451181
 21
75.618377
 31
0.0
  0
LINE
  5
303
100
AcDbEntity
  8
0
 62
7
100
AcDbLine
 10
90.451181
 20
75.618377
 30
0.0
 11
91.862602
 21
77.649750
 31
0.0
  0
SPLINE
  5
304
100
AcDbEntity
  8
0
 62
7
100
AcDbSpline
 70
8
 71
3
 72
8
 73
4
 74
0
 40
0
 40
0
 40
0
 40
0
 40
1
 40
1
 40
1
 40
1
 10
91.862602
 20
77.649750
 30
0.0
 10
92.638886
 20
78.767009
 30
0.0
 10
93.530149
 20
79.998626
 30
0.0
 10
93.843181
 20
80.386682
 30
0.0
  0
LINE
  5
305
100
AcDbEntity
  8
0
 62
7
100
AcDbLine
 10
93.843181
 20
80.386682
 30
0.0
 11
93.843181
 21
80.386682
 31
0.0
  0
SPLINE
  5
306
100
AcDbEntity
  8
0
 62
7
100
AcDbSpline
 70
8
 71
3
 72
8
 73
4
 74
0
 40
0
 40
0
 40
0
 40
0
 40
1
 40
1
 40
1
 40
1
 10
122.690224
 20
76.182203
 30
0.0
 10
122.572450
 20
76.489111
 30
0.0
 10
122.476091
 20
76.806611
 30
0.0
 10
122.476091
 20
76.887759
 30
0.0
  0
SPLINE
  5
307
100
AcDbEntity
  8
0
 62
7
100
AcDbSpline
 70
8
 71
3
 72
8
 73
4
 74
0
 40
0
 40
0
 40
0
 40
0
 40
1
 40
1
 40
1
 40
1
 10
122.476091
 20
76.887759
 30
0.0
 10
122.476091
 20
76.968900
 30
0.0
 10
122.331387
 20
77.035293
 30
0.0
 10
122.154527
 20
77.035293
 30
0.0
  0
SPLINE
  5
308
100
AcDbEntity
  8
0
 62
7
100
AcDbSpline
 70
8
 71
3
 72
8
 73
4
 74
0
 40
0
 40
0
 40
0
 40
0
 40
1
 40
1
 40
1
 40
1
 10
122.154527
 20
77.035293
 30
0.0
 10
121.899008
 20
77.035293
 30
0.0
 10
121.872917
 20
76.442341
 30
0.0
 10
122.096321
 20
75.712376
 30
0.0
  0
SPLINE
  5
309
100
AcDbEntity
  8
0
 62
7
100
AcDbSpline
 70
8
 71
3
 72
8
 73
4
 74
0
 40
0
 40
0
 40
0
 40
0
 40
1
 40
1
 40
1
 40
1
 10
122.096321
 20
75.712376
 30
0.0
 10
122.111166
 20
75.663871
 30
0.0
 10
122.299047
 20
75.624182
 30
0.0
 10
122.513835
 20
75.624182
 30
0.0
  0
SPLINE
  5
30a
100
AcDbEntity
  8
0
 62
7
100
AcDbSpline
 70
8
 71
3
 72
8
 73
4
 74
0
 40
0
 40
0
 40
0
 40
0
 40
1
 40
1
 40
1
 40
1
 10
122.513835
 20
75.624182
 30
0.0
 10
122.728620
 20
75.624182
 30
0.0
 10
122.807995
 20
75.875289
 30
0.0
 10
122.690224
 20
76.182203
 30
0.0
  0
LINE
  5
30b
100
AcDbEntity
  8
0
 62
7
100
AcDbLine
 10
122.690224
 20
76.182203
 30
0.0
 11
122.690224
 21
76.182203
 31
0.0
  0
SPLINE
  5
30c
100
AcDbEntity
  8
0
 62
7
100
AcDbSpline
 70
8
 71
3
 72
8
 73
4
 74
0
 40
0
 40
0
 40
0
 40
0
 40
1
 40
1
 40
1
 40
1
 10
145.392067
 20
79.661526
 30
0.0
 10
145.022810
 20
80.038804
 30
0.0
 10
144.618004
 20
80.244803
 30
0.0
 10
144.492503
 20
80.119299
 30
0.0
  0
SPLINE
  5
30d
100
AcDbEntity
  8
0
 62
7
100
AcDbSpline
 70
8
 71
3
 72
8
 73
4
 74
0
 40
0
 40
0
 40
0
 40
0
 40
1
 40
1
 40
1
 40
1
 10
144.492503
 20
80.119299
 30
0.0
 10
144.367004
 20
79.993798
 30
0.0
 10
144.521326
 20
79.634091
 30
0.0
 10
144.835482
 20
79.319950
 30
0.0
  0
SPLINE
  5
30e
100
AcDbEntity
  8
0
 62
7
100
AcDbSpline
 70
8
 71
3
 72
8
 73
4
 74
0
 40
0
 40
0
 40
0
 40
0
 40
1
 40
1
 40
1
 40
1
 10
144.835482
 20
79.319950
 30
0.0
 10
145.545669
 20
78.609766
 30
0.0
 10
145.544650
 20
78.563995
 30
0.0
 10
144.818690
 20
78.563995
 30
0.0
  0
SPLINE
  5
30f
100
AcDbEntity
  8
0
 62
7
100
AcDbSpline
 70
8
 71
3
 72
8
 73
4
 74
0
 40
0
 40
0
 40
0
 40
0
 40
1
 40
1
 40
1
 40
1
 10
144.818690
 20
78.563995
 30
0.0
 10
144.495311
 20
78.563995
 30
0.0
 10
143.622186
 20
79.172537
 30
0.0
 10
142.878412
 20
79.916314
 30
0.0
  0
SPLINE
  5
310
100
AcDbEntity
  8
0
 62
7
100
AcDbSpline
 70
8
 71
3
 72
8
 73
4
 74
0
 40
0
 40
0
 40
0
 40
0
 40
1
 40
1
 40
1
 40
1
 10
142.878412
 20
79.916314
 30
0.0
 10
142.134632
 20
80.660085
 30
0.0
 10
141.526091
 20
81.177356
 30
0.0
 10
141.526091
 20
81.065805
 30
0.0
  0
SPLINE
  5
311
100
AcDbEntity
  8
0
 62
7
100
AcDbSpline
 70
8
 71
3
 72
8
 73
4
 74
0
 40
0
 40
0
 40
0
 40
0
 40
1
 40
1
 40
1
 40
1
 10
141.526091
 20
81.065805
 30
0.0
 10
141.526091
 20
80.954253
 30
0.0
 10
142.356812
 20
79.703052
 30
0.0
 10
143.372134
 20
78.285357
 30
0.0
  0
LINE
  5
312
100
AcDbEntity
  8
0
 62
7
100
AcDbLine
 10
143.372134
 20
78.285357
 30
0.0
 11
145.218178
 21
75.707731
 31
0.0
  0
LINE
  5
313
100
AcDbEntity
  8
0
 62
7
100
AcDbLine
 10
145.218178
 20
75.707731
 30
0.0
 11
145.640809
 21
77.341648
 31
0.0
  0
SPLINE
  5
314
100
AcDbEntity
  8
0
 62
7
100
AcDbSpline
 70
8
 71
3
 72
8
 73
4
 74
0
 40
0
 40
0
 40
0
 40
0
 40
1
 40
1
 40
1
 40
1
 10
145.640809
 20
77.341648
 30
0.0
 10
146.020226
 20
78.808504
 30
0.0
 10
145.994789
 20
79.045712
 30
0.0
 10
145.392067
 20
79.661526
 30
0.0
  0
LINE
  5
315
100
AcDbEntity
  8
0
 62
7
100
AcDbLine
 10
145.392067
 20
79.661526
 30
0.0
 11
145.392067
 21
79.661526
 31
0.0
  0
SPLINE
  5
316
100
AcDbEntity
  8
0
 62
7
100
AcDbSpline
 70
8
 71
3
 72
8
 73
4
 74
0
 40
0
 40
0
 40
0
 40
0
 40
1
 40
1
 40
1
 40
1
 10
106.071924
 20
76.290116
 30
0.0
 10
106.704915
 20
76.320280
 30
0.0
 10
106.960515
 20
76.448446
 30
0.0
 10
106.707909
 20
76.609036
 30
0.0
  0
SPLINE
  5
317
100
AcDbEntity
  8
0
 62
7
100
AcDbSpline
 70
8
 71
3
 72
8
 73
4
 74
0
 40
0
 40
0
 40
0
 40
0
 40
1
 40
1
 40
1
 40
1
 10
106.707909
 20
76.609036
 30
0.0
 10
106.204162
 20
76.929271
 30
0.0
 10
106.536792
 20
77.527122
 30
0.0
 10
107.394841
 20
77.843705
 30
0.0
  0
SPLINE
  5
318
100
AcDbEntity
  8
0
 62
7
100
AcDbSpline
 70
8
 71
3
 72
8
 73
4
 74
0
 40
0
 40
0
 40
0
 40
0
 40
1
 40
1
 40
1
 40
1
 10
107.394841
 20
77.843705
 30
0.0
 10
108.284625
 20
78.171994
 30
0.0
 10
108.154495
 20
78.799182
 30
0.0
 10
107.196599
 20
78.799182
 30
0.0
  0
SPLINE
  5
319
100
AcDbEntity
  8
0
 62
7
100
AcDbSpline
 70
8
 71
3
 72
8
 73
4
 74
0
 40
0
 40
0
 40
0
 40
0
 40
1
 40
1
 40
1
 40
1
 10
107.196599
 20
78.799182
 30
0.0
 10
106.699442
 20
78.799182
 30
0.0
 10
106.075494
 20
78.385966
 30
0.0
 10
105.598539
 20
77.740849
 30
0.0
  0
SPLINE
  5
31a
100
AcDbEntity
  8
0
 62
7
100
AcDbSpline
 70
8
 71
3
 72
8
 73
4
 74
0
 40
0
 40
0
 40
0
 40
0
 40
1
 40
1
 40
1
 40
1
 10
105.598539
 20
77.740849
 30
0.0
 10
105.087888
 20
77.050155
 30
0.0
 10
104.506147
 20
76.682515
 30
0.0
 10
103.923877
 20
76.682515
 30
0.0
  0
SPLINE
  5
31b
100
AcDbEntity
  8
0
 62
7
100
AcDbSpline
 70
8
 71
3
 72
8
 73
4
 74
0
 40
0
 40
0
 40
0
 40
0
 40
1
 40
1
 40
1
 40
1
 10
103.923877
 20
76.682515
 30
0.0
 10
103.433163
 20
76.682515
 30
0.0
 10
103.116507
 20
76.545254
 30
0.0
 10
103.220193
 20
76.377487
 30
0.0
  0
SPLINE
  5
31c
100
AcDbEntity
  8
0
 62
7
100
AcDbSpline
 70
8
 71
3
 72
8
 73
4
 74
0
 40
0
 40
0
 40
0
 40
0
 40
1
 40
1
 40
1
 40
1
 10
103.220193
 20
76.377487
 30
0.0
 10
103.323875
 20
76.209723
 30
0.0
 10
103.769806
 20
76.110087
 30
0.0
 10
104.211148
 20
76.156075
 30
0.0
  0
SPLINE
  5
31d
100
AcDbEntity
  8
0
 62
7
100
AcDbSpline
 70
8
 71
3
 72
8
 73
4
 74
0
 40
0
 40
0
 40
0
 40
0
 40
1
 40
1
 40
1
 40
1
 10
104.211148
 20
76.156075
 30
0.0
 10
104.652490
 20
76.202063
 30
0.0
 10
105.489841
 20
76.262382
 30
0.0
 10
106.071924
 20
76.290116
 30
0.0
  0
LINE
  5
31e
100
AcDbEntity
  8
0
 62
7
100
AcDbLine
 10
106.071924
 20
76.290116
 30
0.0
 11
106.071924
 21
76.290116
 31
0.0
  0
SPLINE
  5
31f
100
AcDbEntity
  8
0
 62
7
100
AcDbSpline
 70
8
 71
3
 72
8
 73
4
 74
0
 40
0
 40
0
 40
0
 40
0
 40
1
 40
1
 40
1
 40
1
 10
120.712202
 20
77.002132
 30
0.0
 10
120.712202
 20
77.358706
 30
0.0
 10
117.512530
 20
78.539323
 30
0.0
 10
117.252061
 20
78.278855
 30
0.0
  0
SPLINE
  5
320
100
AcDbEntity
  8
0
 62
7
100
AcDbSpline
 70
8
 71
3
 72
8
 73
4
 74
0
 40
0
 40
0
 40
0
 40
0
 40
1
 40
1
 40
1
 40
1
 10
117.252061
 20
78.278855
 30
0.0
 10
117.054458
 20
78.081251
 30
0.0
 10
118.787872
 20
77.388071
 30
0.0
 10
119.479624
 20
77.388071
 30
0.0
  0
SPLINE
  5
321
100
AcDbEntity
  8
0
 62
7
100
AcDbSpline
 70
8
 71
3
 72
8
 73
4
 74
0
 40
0
 40
0
 40
0
 40
0
 40
1
 40
1
 40
1
 40
1
 10
119.479624
 20
77.388071
 30
0.0
 10
119.746584
 20
77.388071
 30
0.0
 10
120.063119
 20
77.229321
 30
0.0
 10
120.183035
 20
77.035293
 30
0.0
  0
SPLINE
  5
322
100
AcDbEntity
  8
0
 62
7
100
AcDbSpline
 70
8
 71
3
 72
8
 73
4
 74
0
 40
0
 40
0
 40
0
 40
0
 40
1
 40
1
 40
1
 40
1
 10
120.183035
 20
77.035293
 30
0.0
 10
120.454646
 20
76.595819
 30
0.0
 10
120.712202
 20
76.579676
 30
0.0
 10
120.712202
 20
77.002132
 30
0.0
  0
LINE
  5
323
100
AcDbEntity
  8
0
 62
7
100
AcDbLine
 10
120.712202
 20
77.002132
 30
0.0
 11
120.712202
 21
77.002132
 31
0.0
  0
SPLINE
  5
324
100
AcDbEntity
  8
0
 62
7
100
AcDbSpline
 70
8
 71
3
 72
8
 73
4
 74
0
 40
0
 40
0
 40
0
 40
0
 40
1
 40
1
 40
1
 40
1
 10
123.221332
 20
77.842274
 30
0.0
 10
122.933231
 20
78.130375
 30
0.0
 10
122.828868
 20
78.090895
 30
0.0
 10
122.828868
 20
77.693814
 30
0.0
  0
SPLINE
  5
325
100
AcDbEntity
  8
0
 62
7
100
AcDbSpline
 70
8
 71
3
 72
8
 73
4
 74
0
 40
0
 40
0
 40
0
 40
0
 40
1
 40
1
 40
1
 40
1
 10
122.828868
 20
77.693814
 30
0.0
 10
122.828868
 20
76.992539
 30
0.0
 10
123.303250
 20
76.518160
 30
0.0
 10
123.478569
 20
77.044113
 30
0.0
  0
SPLINE
  5
326
100
AcDbEntity
  8
0
 62
7
100
AcDbSpline
 70
8
 71
3
 72
8
 73
4
 74
0
 40
0
 40
0
 40
0
 40
0
 40
1
 40
1
 40
1
 40
1
 10
123.478569
 20
77.044113
 30
0.0
 10
123.552943
 20
77.267243
 30
0.0
 10
123.437187
 20
77.626419
 30
0.0
 10
123.221332
 20
77.842274
 30
0.0
  0
LINE
  5
327
100
AcDbEntity
  8
0
 62
7
100
AcDbLine
 10
123.221332
 20
77.842274
 30
0.0
 11
123.221332
 21
77.842274
 31
0.0
  0
SPLINE
  5
328
100
AcDbEntity
  8
0
 62
7
100
AcDbSpline
 70
8
 71
3
 72
8
 73
4
 74
0
 40
0
 40
0
 40
0
 40
0
 40
1
 40
1
 40
1
 40
1
 10
102.720535
 20
77.388071
 30
0.0
 10
102.720535
 20
77.582099
 30
0.0
 10
102.650530
 20
77.740849
 30
0.0
 10
102.564966
 20
77.740849
 30
0.0
  0
SPLINE
  5
329
100
AcDbEntity
  8
0
 62
7
100
AcDbSpline
 70
8
 71
3
 72
8
 73
4
 74
0
 40
0
 40
0
 40
0
 40
0
 40
1
 40
1
 40
1
 40
1
 10
102.564966
 20
77.740849
 30
0.0
 10
102.479404
 20
77.740849
 30
0.0
 10
102.311285
 20
77.582099
 30
0.0
 10
102.191368
 20
77.388071
 30
0.0
  0
SPLINE
  5
32a
100
AcDbEntity
  8
0
 62
7
100
AcDbSpline
 70
8
 71
3
 72
8
 73
4
 74
0
 40
0
 40
0
 40
0
 40
0
 40
1
 40
1
 40
1
 40
1
 10
102.191368
 20
77.388071
 30
0.0
 10
102.071452
 20
77.194043
 30
0.0
 10
102.141457
 20
77.035293
 30
0.0
 10
102.346938
 20
77.035293
 30
0.0
  0
SPLINE
  5
32b
100
AcDbEntity
  8
0
 62
7
100
AcDbSpline
 70
8
 71
3
 72
8
 73
4
 74
0
 40
0
 40
0
 40
0
 40
0
 40
1
 40
1
 40
1
 40
1
 10
102.346938
 20
77.035293
 30
0.0
 10
102.552415
 20
77.035293
 30
0.0
 10
102.720535
 20
77.194043
 30
0.0
 10
102.720535
 20
77.388071
 30
0.0
  0
LINE
  5
32c
100
AcDbEntity
  8
0
 62
7
100
AcDbLine
 10
102.720535
 20
77.388071
 30
0.0
 11
102.720535
 21
77.388071
 31
0.0
  0
SPLINE
  5
32d
100
AcDbEntity
  8
0
 62
7
100
AcDbSpline
 70
8
 71
3
 72
8
 73
4
 74
0
 40
0
 40
0
 40
0
 40
0
 40
1
 40
1
 40
1
 40
1
 10
125.555547
 20
77.248430
 30
0.0
 10
125.438323
 20
77.365654
 30
0.0
 10
125.134048
 20
77.378185
 30
0.0
 10
124.879388
 20
77.276257
 30
0.0
  0
SPLINE
  5
32e
100
AcDbEntity
  8
0
 62
7
100
AcDbSpline
 70
8
 71
3
 72
8
 73
4
 74
0
 40
0
 40
0
 40
0
 40
0
 40
1
 40
1
 40
1
 40
1
 10
124.879388
 20
77.276257
 30
0.0
 10
124.597967
 20
77.163642
 30
0.0
 10
124.681559
 20
77.080048
 30
0.0
 10
125.092528
 20
77.063123
 30
0.0
  0
SPLINE
  5
32f
100
AcDbEntity
  8
0
 62
7
100
AcDbSpline
 70
8
 71
3
 72
8
 73
4
 74
0
 40
0
 40
0
 40
0
 40
0
 40
1
 40
1
 40
1
 40
1
 10
125.092528
 20
77.063123
 30
0.0
 10
125.464412
 20
77.047827
 30
0.0
 10
125.672771
 20
77.131184
 30
0.0
 10
125.555547
 20
77.248408
 30
0.0
  0
LINE
  5
330
100
AcDbEntity
  8
0
 62
7
100
AcDbLine
 10
125.555547
 20
77.248408
 30
0.0
 11
125.555547
 21
77.248430
 31
0.0
  0
SPLINE
  5
331
100
AcDbEntity
  8
0
 62
7
100
AcDbSpline
 70
8
 71
3
 72
8
 73
4
 74
0
 40
0
 40
0
 40
0
 40
0
 40
1
 40
1
 40
1
 40
1
 10
114.853497
 20
77.802128
 30
0.0
 10
114.607238
 20
78.200583
 30
0.0
 10
109.866865
 20
78.173126
 30
0.0
 10
109.618834
 20
77.771823
 30
0.0
  0
SPLINE
  5
332
100
AcDbEntity
  8
0
 62
7
100
AcDbSpline
 70
8
 71
3
 72
8
 73
4
 74
0
 40
0
 40
0
 40
0
 40
0
 40
1
 40
1
 40
1
 40
1
 10
109.618834
 20
77.771823
 30
0.0
 10
109.504799
 20
77.587306
 30
0.0
 10
110.617471
 20
77.462936
 30
0.0
 10
112.226796
 20
77.480321
 30
0.0
  0
SPLINE
  5
333
100
AcDbEntity
  8
0
 62
7
100
AcDbSpline
 70
8
 71
3
 72
8
 73
4
 74
0
 40
0
 40
0
 40
0
 40
0
 40
1
 40
1
 40
1
 40
1
 10
112.226796
 20
77.480321
 30
0.0
 10
113.770568
 20
77.497000
 30
0.0
 10
114.952585
 20
77.641817
 30
0.0
 10
114.853497
 20
77.802145
 30
0.0
  0
LINE
  5
334
100
AcDbEntity
  8
0
 62
7
100
AcDbLine
 10
114.853497
 20
77.802145
 30
0.0
 11
114.853497
 21
77.802128
 31
0.0
  0
SPLINE
  5
335
100
AcDbEntity
  8
0
 62
7
100
AcDbSpline
 70
8
 71
3
 72
8
 73
4
 74
0
 40
0
 40
0
 40
0
 40
0
 40
1
 40
1
 40
1
 40
1
 10
91.196654
 20
81.576404
 30
0.0
 10
91.519925
 20
81.842697
 30
0.0
 10
91.784424
 20
82.284900
 30
0.0
 10
91.784424
 20
82.559082
 30
0.0
  0
SPLINE
  5
336
100
AcDbEntity
  8
0
 62
7
100
AcDbSpline
 70
8
 71
3
 72
8
 73
4
 74
0
 40
0
 40
0
 40
0
 40
0
 40
1
 40
1
 40
1
 40
1
 10
91.784424
 20
82.559082
 30
0.0
 10
91.784424
 20
82.833261
 30
0.0
 10
92.498799
 20
83.363805
 30
0.0
 10
93.371924
 20
83.738071
 30
0.0
  0
SPLINE
  5
337
100
AcDbEntity
  8
0
 62
7
100
AcDbSpline
 70
8
 71
3
 72
8
 73
4
 74
0
 40
0
 40
0
 40
0
 40
0
 40
1
 40
1
 40
1
 40
1
 10
93.371924
 20
83.738071
 30
0.0
 10
95.198754
 20
84.521142
 30
0.0
 10
95.464486
 20
84.892004
 30
0.0
 10
93.871361
 20
84.435101
 30
0.0
  0
SPLINE
  5
338
100
AcDbEntity
  8
0
 62
7
100
AcDbSpline
 70
8
 71
3
 72
8
 73
4
 74
0
 40
0
 40
0
 40
0
 40
0
 40
1
 40
1
 40
1
 40
1
 10
93.871361
 20
84.435101
 30
0.0
 10
92.268754
 20
83.975479
 30
0.0
 10
89.997455
 20
82.549605
 30
0.0
 10
88.734776
 20
81.210458
 30
0.0
  0
SPLINE
  5
339
100
AcDbEntity
  8
0
 62
7
100
AcDbSpline
 70
8
 71
3
 72
8
 73
4
 74
0
 40
0
 40
0
 40
0
 40
0
 40
1
 40
1
 40
1
 40
1
 10
88.734776
 20
81.210458
 30
0.0
 10
87.833609
 20
80.254715
 30
0.0
 10
87.658609
 20
79.821730
 30
0.0
 10
87.802328
 20
78.903381
 30
0.0
  0
LINE
  5
33a
100
AcDbEntity
  8
0
 62
7
100
AcDbLine
 10
87.802328
 20
78.903381
 30
0.0
 11
87.979250
 21
77.772855
 31
0.0
  0
LINE
  5
33b
100
AcDbEntity
  8
0
 62
7
100
AcDbLine
 10
87.979250
 20
77.772855
 30
0.0
 11
89.294067
 21
79.432548
 31
0.0
  0
SPLINE
  5
33c
100
AcDbEntity
  8
0
 62
7
100
AcDbSpline
 70
8
 71
3
 72
8
 73
4
 74
0
 40
0
 40
0
 40
0
 40
0
 40
1
 40
1
 40
1
 40
1
 10
89.294067
 20
79.432548
 30
0.0
 10
90.017216
 20
80.345376
 30
0.0
 10
90.873380
 20
81.310113
 30
0.0
 10
91.196654
 20
81.576404
 30
0.0
  0
LINE
  5
33d
100
AcDbEntity
  8
0
 62
7
100
AcDbLine
 10
91.196654
 20
81.576404
 30
0.0
 11
91.196654
 21
81.576404
 31
0.0
  0
SPLINE
  5
33e
100
AcDbEntity
  8
0
 62
7
100
AcDbSpline
 70
8
 71
3
 72
8
 73
4
 74
0
 40
0
 40
0
 40
0
 40
0
 40
1
 40
1
 40
1
 40
1
 10
147.965990
 20
78.887376
 30
0.0
 10
148.060672
 20
79.323940
 30
0.0
 10
148.229458
 20
79.919251
 30
0.0
 10
148.341072
 20
80.210293
 30
0.0
  0
SPLINE
  5
33f
100
AcDbEntity
  8
0
 62
7
100
AcDbSpline
 70
8
 71
3
 72
8
 73
4
 74
0
 40
0
 40
0
 40
0
 40
0
 40
1
 40
1
 40
1
 40
1
 10
148.341072
 20
80.210293
 30
0.0
 10
148.468560
 20
80.542723
 30
0.0
 10
148.124743
 20
81.057710
 30
0.0
 10
147.416297
 20
81.595468
 30
0.0
  0
SPLINE
  5
340
100
AcDbEntity
  8
0
 62
7
100
AcDbSpline
 70
8
 71
3
 72
8
 73
4
 74
0
 40
0
 40
0
 40
0
 40
0
 40
1
 40
1
 40
1
 40
1
 10
147.416297
 20
81.595468
 30
0.0
 10
146.796057
 20
82.066274
 30
0.0
 10
146.487027
 20
82.232963
 30
0.0
 10
146.729563
 20
81.965885
 30
0.0
  0
SPLINE
  5
341
100
AcDbEntity
  8
0
 62
7
100
AcDbSpline
 70
8
 71
3
 72
8
 73
4
 74
0
 40
0
 40
0
 40
0
 40
0
 40
1
 40
1
 40
1
 40
1
 10
146.729563
 20
81.965885
 30
0.0
 10
147.653931
 20
80.947980
 30
0.0
 10
147.114528
 20
80.927011
 30
0.0
 10
145.847618
 20
81.931595
 30
0.0
  0
SPLINE
  5
342
100
AcDbEntity
  8
0
 62
7
100
AcDbSpline
 70
8
 71
3
 72
8
 73
4
 74
0
 40
0
 40
0
 40
0
 40
0
 40
1
 40
1
 40
1
 40
1
 10
145.847618
 20
81.931595
 30
0.0
 10
144.399779
 20
83.079649
 30
0.0
 10
141.143115
 20
84.883797
 30
0.0
 10
140.920481
 20
84.661161
 30
0.0
  0
SPLINE
  5
343
100
AcDbEntity
  8
0
 62
7
100
AcDbSpline
 70
8
 71
3
 72
8
 73
4
 74
0
 40
0
 40
0
 40
0
 40
0
 40
1
 40
1
 40
1
 40
1
 10
140.920481
 20
84.661161
 30
0.0
 10
140.701787
 20
84.442467
 30
0.0
 10
145.124207
 20
81.080511
 30
0.0
 10
145.487644
 20
81.189170
 30
0.0
  0
SPLINE
  5
344
100
AcDbEntity
  8
0
 62
7
100
AcDbSpline
 70
8
 71
3
 72
8
 73
4
 74
0
 40
0
 40
0
 40
0
 40
0
 40
1
 40
1
 40
1
 40
1
 10
145.487644
 20
81.189170
 30
0.0
 10
145.665966
 20
81.242481
 30
0.0
 10
145.708726
 20
81.119218
 30
0.0
 10
145.582668
 20
80.915250
 30
0.0
  0
SPLINE
  5
345
100
AcDbEntity
  8
0
 62
7
100
AcDbSpline
 70
8
 71
3
 72
8
 73
4
 74
0
 40
0
 40
0
 40
0
 40
0
 40
1
 40
1
 40
1
 40
1
 10
145.582668
 20
80.915250
 30
0.0
 10
145.369715
 20
80.570688
 30
0.0
 10
147.072119
 20
78.175883
 30
0.0
 10
147.570382
 20
78.119094
 30
0.0
  0
SPLINE
  5
346
100
AcDbEntity
  8
0
 62
7
100
AcDbSpline
 70
8
 71
3
 72
8
 73
4
 74
0
 40
0
 40
0
 40
0
 40
0
 40
1
 40
1
 40
1
 40
1
 10
147.570382
 20
78.119094
 30
0.0
 10
147.693284
 20
78.105096
 30
0.0
 10
147.871307
 20
78.450810
 30
0.0
 10
147.965990
 20
78.887374
 30
0.0
  0
LINE
  5
347
100
AcDbEntity
  8
0
 62
7
100
AcDbLine
 10
147.965990
 20
78.887374
 30
0.0
 11
147.965990
 21
78.887376
 31
0.0
  0
SPLINE
  5
348
100
AcDbEntity
  8
0
 62
7
100
AcDbSpline
 70
8
 71
3
 72
8
 73
4
 74
0
 40
0
 40
0
 40
0
 40
0
 40
1
 40
1
 40
1
 40
1
 10
151.579848
 20
79.694631
 30
0.0
 10
151.306064
 20
80.463317
 30
0.0
 10
151.075091
 20
81.411236
 30
0.0
 10
151.066573
 20
81.801126
 30
0.0
  0
SPLINE
  5
349
100
AcDbEntity
  8
0
 62
7
100
AcDbSpline
 70
8
 71
3
 72
8
 73
4
 74
0
 40
0
 40
0
 40
0
 40
0
 40
1
 40
1
 40
1
 40
1
 10
151.066573
 20
81.801126
 30
0.0
 10
151.058078
 20
82.191016
 30
0.0
 10
150.716979
 20
82.718673
 30
0.0
 10
150.308620
 20
82.973700
 30
0.0
  0
SPLINE
  5
34a
100
AcDbEntity
  8
0
 62
7
100
AcDbSpline
 70
8
 71
3
 72
8
 73
4
 74
0
 40
0
 40
0
 40
0
 40
0
 40
1
 40
1
 40
1
 40
1
 10
150.308620
 20
82.973700
 30
0.0
 10
149.774278
 20
83.307400
 30
0.0
 10
149.640575
 20
83.316953
 30
0.0
 10
149.831659
 20
83.007779
 30
0.0
  0
SPLINE
  5
34b
100
AcDbEntity
  8
0
 62
7
100
AcDbSpline
 70
8
 71
3
 72
8
 73
4
 74
0
 40
0
 40
0
 40
0
 40
0
 40
1
 40
1
 40
1
 40
1
 10
149.831659
 20
83.007779
 30
0.0
 10
150.109304
 20
82.558540
 30
0.0
 10
148.133675
 20
83.557054
 30
0.0
 10
147.104568
 20
84.386093
 30
0.0
  0
SPLINE
  5
34c
100
AcDbEntity
  8
0
 62
7
100
AcDbSpline
 70
8
 71
3
 72
8
 73
4
 74
0
 40
0
 40
0
 40
0
 40
0
 40
1
 40
1
 40
1
 40
1
 10
147.104568
 20
84.386093
 30
0.0
 10
146.777247
 20
84.649778
 30
0.0
 10
146.351653
 20
84.768010
 30
0.0
 10
146.158808
 20
84.648822
 30
0.0
  0
SPLINE
  5
34d
100
AcDbEntity
  8
0
 62
7
100
AcDbSpline
 70
8
 71
3
 72
8
 73
4
 74
0
 40
0
 40
0
 40
0
 40
0
 40
1
 40
1
 40
1
 40
1
 10
146.158808
 20
84.648822
 30
0.0
 10
145.965963
 20
84.529636
 30
0.0
 10
145.693302
 20
84.617989
 30
0.0
 10
145.552905
 20
84.845161
 30
0.0
  0
SPLINE
  5
34e
100
AcDbEntity
  8
0
 62
7
100
AcDbSpline
 70
8
 71
3
 72
8
 73
4
 74
0
 40
0
 40
0
 40
0
 40
0
 40
1
 40
1
 40
1
 40
1
 10
145.552905
 20
84.845161
 30
0.0
 10
145.382725
 20
85.120520
 30
0.0
 10
145.451562
 20
85.163065
 30
0.0
 10
145.759424
 20
84.972796
 30
0.0
  0
SPLINE
  5
34f
100
AcDbEntity
  8
0
 62
7
100
AcDbSpline
 70
8
 71
3
 72
8
 73
4
 74
0
 40
0
 40
0
 40
0
 40
0
 40
1
 40
1
 40
1
 40
1
 10
145.759424
 20
84.972796
 30
0.0
 10
146.045978
 20
84.795696
 30
0.0
 10
146.135578
 20
84.825964
 30
0.0
 10
145.995534
 20
85.052555
 30
0.0
  0
SPLINE
  5
350
100
AcDbEntity
  8
0
 62
7
100
AcDbSpline
 70
8
 71
3
 72
8
 73
4
 74
0
 40
0
 40
0
 40
0
 40
0
 40
1
 40
1
 40
1
 40
1
 10
145.995534
 20
85.052555
 30
0.0
 10
145.871407
 20
85.253395
 30
0.0
 10
145.365428
 20
85.495028
 30
0.0
 10
144.871132
 20
85.589519
 30
0.0
  0
SPLINE
  5
351
100
AcDbEntity
  8
0
 62
7
100
AcDbSpline
 70
8
 71
3
 72
8
 73
4
 74
0
 40
0
 40
0
 40
0
 40
0
 40
1
 40
1
 40
1
 40
1
 10
144.871132
 20
85.589519
 30
0.0
 10
144.192679
 20
85.719214
 30
0.0
 10
144.947925
 20
84.831541
 30
0.0
 10
147.952728
 20
81.967592
 30
0.0
  0
SPLINE
  5
352
100
AcDbEntity
  8
0
 62
7
100
AcDbSpline
 70
8
 71
3
 72
8
 73
4
 74
0
 40
0
 40
0
 40
0
 40
0
 40
1
 40
1
 40
1
 40
1
 10
147.952728
 20
81.967592
 30
0.0
 10
150.141898
 20
79.881041
 30
0.0
 10
151.965573
 20
78.201576
 30
0.0
 10
152.005338
 20
78.235446
 30
0.0
  0
SPLINE
  5
353
100
AcDbEntity
  8
0
 62
7
100
AcDbSpline
 70
8
 71
3
 72
8
 73
4
 74
0
 40
0
 40
0
 40
0
 40
0
 40
1
 40
1
 40
1
 40
1
 10
152.005338
 20
78.235446
 30
0.0
 10
152.045103
 20
78.269313
 30
0.0
 10
151.853632
 20
78.925953
 30
0.0
 10
151.579848
 20
79.694634
 30
0.0
  0
LINE
  5
354
100
AcDbEntity
  8
0
 62
7
100
AcDbLine
 10
151.579848
 20
79.694634
 30
0.0
 11
151.579848
 21
79.694631
 31
0.0
  0
SPLINE
  5
355
100
AcDbEntity
  8
0
 62
7
100
AcDbSpline
 70
8
 71
3
 72
8
 73
4
 74
0
 40
0
 40
0
 40
0
 40
0
 40
1
 40
1
 40
1
 40
1
 10
91.247440
 20
85.075943
 30
0.0
 10
93.331538
 20
86.756494
 30
0.0
 10
91.923243
 20
86.557747
 30
0.0
 10
88.018239
 20
84.620213
 30
0.0
  0
SPLINE
  5
356
100
AcDbEntity
  8
0
 62
7
100
AcDbSpline
 70
8
 71
3
 72
8
 73
4
 74
0
 40
0
 40
0
 40
0
 40
0
 40
1
 40
1
 40
1
 40
1
 10
88.018239
 20
84.620213
 30
0.0
 10
84.863641
 20
83.055006
 30
0.0
 10
84.815790
 20
83.012032
 30
0.0
 10
84.580730
 20
81.533407
 30
0.0
  0
SPLINE
  5
357
100
AcDbEntity
  8
0
 62
7
100
AcDbSpline
 70
8
 71
3
 72
8
 73
4
 74
0
 40
0
 40
0
 40
0
 40
0
 40
1
 40
1
 40
1
 40
1
 10
84.580730
 20
81.533407
 30
0.0
 10
84.449624
 20
80.708681
 30
0.0
 10
84.248642
 20
79.637029
 30
0.0
 10
84.134111
 20
79.151960
 30
0.0
  0
SPLINE
  5
358
100
AcDbEntity
  8
0
 62
7
100
AcDbSpline
 70
8
 71
3
 72
8
 73
4
 74
0
 40
0
 40
0
 40
0
 40
0
 40
1
 40
1
 40
1
 40
1
 10
84.134111
 20
79.151960
 30
0.0
 10
83.970616
 20
78.459519
 30
0.0
 10
84.561703
 20
78.879644
 30
0.0
 10
86.885007
 20
81.107193
 30
0.0
  0
SPLINE
  5
359
100
AcDbEntity
  8
0
 62
7
100
AcDbSpline
 70
8
 71
3
 72
8
 73
4
 74
0
 40
0
 40
0
 40
0
 40
0
 40
1
 40
1
 40
1
 40
1
 10
86.885007
 20
81.107193
 30
0.0
 10
88.512534
 20
82.667636
 30
0.0
 10
90.475630
 20
84.453575
 30
0.0
 10
91.247440
 20
85.075943
 30
0.0
  0
LINE
  5
35a
100
AcDbEntity
  8
0
 62
7
100
AcDbLine
 10
91.247440
 20
85.075943
 30
0.0
 11
91.247440
 21
85.075943
 31
0.0
  0
SPLINE
  5
35b
100
AcDbEntity
  8
0
 62
7
100
AcDbSpline
 70
8
 71
3
 72
8
 73
4
 74
0
 40
0
 40
0
 40
0
 40
0
 40
1
 40
1
 40
1
 40
1
 10
85.439826
 20
81.322077
 30
0.0
 10
85.445894
 20
81.856665
 30
0.0
 10
86.126139
 20
83.039413
 30
0.0
 10
86.134578
 20
82.530050
 30
0.0
  0
SPLINE
  5
35c
100
AcDbEntity
  8
0
 62
7
100
AcDbSpline
 70
8
 71
3
 72
8
 73
4
 74
0
 40
0
 40
0
 40
0
 40
0
 40
1
 40
1
 40
1
 40
1
 10
86.134578
 20
82.530050
 30
0.0
 10
86.137400
 20
82.350706
 30
0.0
 10
86.497166
 20
82.525534
 30
0.0
 10
86.933730
 20
82.918540
 30
0.0
  0
SPLINE
  5
35d
100
AcDbEntity
  8
0
 62
7
100
AcDbSpline
 70
8
 71
3
 72
8
 73
4
 74
0
 40
0
 40
0
 40
0
 40
0
 40
1
 40
1
 40
1
 40
1
 10
86.933730
 20
82.918540
 30
0.0
 10
87.370291
 20
83.311551
 30
0.0
 10
87.965605
 20
83.747870
 30
0.0
 10
88.256646
 20
83.888140
 30
0.0
  0
SPLINE
  5
35e
100
AcDbEntity
  8
0
 62
7
100
AcDbSpline
 70
8
 71
3
 72
8
 73
4
 74
0
 40
0
 40
0
 40
0
 40
0
 40
1
 40
1
 40
1
 40
1
 10
88.256646
 20
83.888140
 30
0.0
 10
88.587834
 20
84.047756
 30
0.0
 10
88.556888
 20
83.955351
 30
0.0
 10
88.173933
 20
83.641156
 30
0.0
  0
SPLINE
  5
35f
100
AcDbEntity
  8
0
 62
7
100
AcDbSpline
 70
8
 71
3
 72
8
 73
4
 74
0
 40
0
 40
0
 40
0
 40
0
 40
1
 40
1
 40
1
 40
1
 10
88.173933
 20
83.641156
 30
0.0
 10
87.837402
 20
83.365046
 30
0.0
 10
87.614269
 20
83.075461
 30
0.0
 10
87.678082
 20
82.997633
 30
0.0
  0
SPLINE
  5
360
100
AcDbEntity
  8
0
 62
7
100
AcDbSpline
 70
8
 71
3
 72
8
 73
4
 74
0
 40
0
 40
0
 40
0
 40
0
 40
1
 40
1
 40
1
 40
1
 10
87.678082
 20
82.997633
 30
0.0
 10
87.741898
 20
82.919807
 30
0.0
 10
87.263179
 20
82.403927
 30
0.0
 10
86.614265
 20
81.851243
 30
0.0
  0
SPLINE
  5
361
100
AcDbEntity
  8
0
 62
7
100
AcDbSpline
 70
8
 71
3
 72
8
 73
4
 74
0
 40
0
 40
0
 40
0
 40
0
 40
1
 40
1
 40
1
 40
1
 10
86.614265
 20
81.851243
 30
0.0
 10
85.891596
 20
81.235736
 30
0.0
 10
85.436515
 20
81.030691
 30
0.0
 10
85.439826
 20
81.322077
 30
0.0
  0
LINE
  5
362
100
AcDbEntity
  8
0
 62
7
100
AcDbLine
 10
85.439826
 20
81.322077
 30
0.0
 11
85.439826
 21
81.322077
 31
0.0
  0
SPLINE
  5
363
100
AcDbEntity
  8
0
 62
7
100
AcDbSpline
 70
8
 71
3
 72
8
 73
4
 74
0
 40
0
 40
0
 40
0
 40
0
 40
1
 40
1
 40
1
 40
1
 10
104.703112
 20
79.015977
 30
0.0
 10
105.452861
 20
79.329243
 30
0.0
 10
106.623189
 20
79.589514
 30
0.0
 10
107.303832
 20
79.594354
 30
0.0
  0
SPLINE
  5
364
100
AcDbEntity
  8
0
 62
7
100
AcDbSpline
 70
8
 71
3
 72
8
 73
4
 74
0
 40
0
 40
0
 40
0
 40
0
 40
1
 40
1
 40
1
 40
1
 10
107.303832
 20
79.594354
 30
0.0
 10
108.321142
 20
79.601579
 30
0.0
 10
108.792484
 20
79.885757
 30
0.0
 10
109.952480
 20
81.191224
 30
0.0
  0
SPLINE
  5
365
100
AcDbEntity
  8
0
 62
7
100
AcDbSpline
 70
8
 71
3
 72
8
 73
4
 74
0
 40
0
 40
0
 40
0
 40
0
 40
1
 40
1
 40
1
 40
1
 10
109.952480
 20
81.191224
 30
0.0
 10
111.233291
 20
82.632654
 30
0.0
 10
111.282155
 20
82.754470
 30
0.0
 10
110.481646
 20
82.510478
 30
0.0
  0
SPLINE
  5
366
100
AcDbEntity
  8
0
 62
7
100
AcDbSpline
 70
8
 71
3
 72
8
 73
4
 74
0
 40
0
 40
0
 40
0
 40
0
 40
1
 40
1
 40
1
 40
1
 10
110.481646
 20
82.510478
 30
0.0
 10
108.306331
 20
81.847447
 30
0.0
 10
102.205398
 20
78.486581
 30
0.0
 10
103.118426
 20
78.454250
 30
0.0
  0
SPLINE
  5
367
100
AcDbEntity
  8
0
 62
7
100
AcDbSpline
 70
8
 71
3
 72
8
 73
4
 74
0
 40
0
 40
0
 40
0
 40
0
 40
1
 40
1
 40
1
 40
1
 10
103.118426
 20
78.454250
 30
0.0
 10
103.240250
 20
78.449932
 30
0.0
 10
103.953358
 20
78.702710
 30
0.0
 10
104.703112
 20
79.015977
 30
0.0
  0
LINE
  5
368
100
AcDbEntity
  8
0
 62
7
100
AcDbLine
 10
104.703112
 20
79.015977
 30
0.0
 11
104.703112
 21
79.015977
 31
0.0
  0
SPLINE
  5
369
100
AcDbEntity
  8
0
 62
7
100
AcDbSpline
 70
8
 71
3
 72
8
 73
4
 74
0
 40
0
 40
0
 40
0
 40
0
 40
1
 40
1
 40
1
 40
1
 10
107.688820
 20
79.949469
 30
0.0
 10
107.769668
 20
80.000043
 30
0.0
 10
108.232688
 20
80.357232
 30
0.0
 10
108.717757
 20
80.743219
 30
0.0
  0
LINE
  5
36a
100
AcDbEntity
  8
0
 62
7
100
AcDbLine
 10
108.717757
 20
80.743219
 30
0.0
 11
109.599702
 21
81.445015
 31
0.0
  0
LINE
  5
36b
100
AcDbEntity
  8
0
 62
7
100
AcDbLine
 10
109.599702
 20
81.445015
 30
0.0
 11
108.927663
 21
80.651265
 31
0.0
  0
SPLINE
  5
36c
100
AcDbEntity
  8
0
 62
7
100
AcDbSpline
 70
8
 71
3
 72
8
 73
4
 74
0
 40
0
 40
0
 40
0
 40
0
 40
1
 40
1
 40
1
 40
1
 10
108.927663
 20
80.651265
 30
0.0
 10
108.558045
 20
80.214701
 30
0.0
 10
108.095023
 20
79.857515
 30
0.0
 10
107.898732
 20
79.857515
 30
0.0
  0
SPLINE
  5
36d
100
AcDbEntity
  8
0
 62
7
100
AcDbSpline
 70
8
 71
3
 72
8
 73
4
 74
0
 40
0
 40
0
 40
0
 40
0
 40
1
 40
1
 40
1
 40
1
 10
107.898732
 20
79.857515
 30
0.0
 10
107.702435
 20
79.857515
 30
0.0
 10
107.607978
 20
79.898895
 30
0.0
 10
107.688820
 20
79.949469
 30
0.0
  0
LINE
  5
36e
100
AcDbEntity
  8
0
 62
7
100
AcDbLine
 10
107.688820
 20
79.949469
 30
0.0
 11
107.688820
 21
79.949469
 31
0.0
  0
SPLINE
  5
36f
100
AcDbEntity
  8
0
 62
7
100
AcDbSpline
 70
8
 71
3
 72
8
 73
4
 74
0
 40
0
 40
0
 40
0
 40
0
 40
1
 40
1
 40
1
 40
1
 10
121.970557
 20
80.870146
 30
0.0
 10
121.656551
 20
81.477366
 30
0.0
 10
121.170573
 20
81.974182
 30
0.0
 10
120.890600
 20
81.974182
 30
0.0
  0
SPLINE
  5
370
100
AcDbEntity
  8
0
 62
7
100
AcDbSpline
 70
8
 71
3
 72
8
 73
4
 74
0
 40
0
 40
0
 40
0
 40
0
 40
1
 40
1
 40
1
 40
1
 10
120.890600
 20
81.974182
 30
0.0
 10
120.589396
 20
81.974182
 30
0.0
 10
120.462218
 20
82.184347
 30
0.0
 10
120.579097
 20
82.488941
 30
0.0
  0
SPLINE
  5
371
100
AcDbEntity
  8
0
 62
7
100
AcDbSpline
 70
8
 71
3
 72
8
 73
4
 74
0
 40
0
 40
0
 40
0
 40
0
 40
1
 40
1
 40
1
 40
1
 10
120.579097
 20
82.488941
 30
0.0
 10
120.704669
 20
82.816175
 30
0.0
 10
120.347209
 20
83.271100
 30
0.0
 10
119.597890
 20
83.737693
 30
0.0
  0
SPLINE
  5
372
100
AcDbEntity
  8
0
 62
7
100
AcDbSpline
 70
8
 71
3
 72
8
 73
4
 74
0
 40
0
 40
0
 40
0
 40
0
 40
1
 40
1
 40
1
 40
1
 10
119.597890
 20
83.737693
 30
0.0
 10
118.664993
 20
84.318596
 30
0.0
 10
118.088046
 20
84.425914
 30
0.0
 10
116.831646
 20
84.252246
 30
0.0
  0
SPLINE
  5
373
100
AcDbEntity
  8
0
 62
7
100
AcDbSpline
 70
8
 71
3
 72
8
 73
4
 74
0
 40
0
 40
0
 40
0
 40
0
 40
1
 40
1
 40
1
 40
1
 10
116.831646
 20
84.252246
 30
0.0
 10
115.958521
 20
84.131554
 30
0.0
 10
115.093332
 20
83.887115
 30
0.0
 10
114.909007
 20
83.709047
 30
0.0
  0
SPLINE
  5
374
100
AcDbEntity
  8
0
 62
7
100
AcDbSpline
 70
8
 71
3
 72
8
 73
4
 74
0
 40
0
 40
0
 40
0
 40
0
 40
1
 40
1
 40
1
 40
1
 10
114.909007
 20
83.709047
 30
0.0
 10
114.724682
 20
83.530985
 30
0.0
 10
114.315790
 20
83.385293
 30
0.0
 10
114.000362
 20
83.385293
 30
0.0
  0
SPLINE
  5
375
100
AcDbEntity
  8
0
 62
7
100
AcDbSpline
 70
8
 71
3
 72
8
 73
4
 74
0
 40
0
 40
0
 40
0
 40
0
 40
1
 40
1
 40
1
 40
1
 10
114.000362
 20
83.385293
 30
0.0
 10
113.684936
 20
83.385293
 30
0.0
 10
113.054014
 20
82.988418
 30
0.0
 10
112.598313
 20
82.503349
 30
0.0
  0
SPLINE
  5
376
100
AcDbEntity
  8
0
 62
7
100
AcDbSpline
 70
8
 71
3
 72
8
 73
4
 74
0
 40
0
 40
0
 40
0
 40
0
 40
1
 40
1
 40
1
 40
1
 10
112.598313
 20
82.503349
 30
0.0
 10
111.568230
 20
81.406876
 30
0.0
 10
111.791180
 20
81.400548
 30
0.0
 10
113.994974
 20
82.463694
 30
0.0
  0
SPLINE
  5
377
100
AcDbEntity
  8
0
 62
7
100
AcDbSpline
 70
8
 71
3
 72
8
 73
4
 74
0
 40
0
 40
0
 40
0
 40
0
 40
1
 40
1
 40
1
 40
1
 10
113.994974
 20
82.463694
 30
0.0
 10
115.175998
 20
83.033435
 30
0.0
 10
115.795930
 20
83.176124
 30
0.0
 10
115.910854
 20
82.904666
 30
0.0
  0
SPLINE
  5
378
100
AcDbEntity
  8
0
 62
7
100
AcDbSpline
 70
8
 71
3
 72
8
 73
4
 74
0
 40
0
 40
0
 40
0
 40
0
 40
1
 40
1
 40
1
 40
1
 10
115.910854
 20
82.904666
 30
0.0
 10
116.014898
 20
82.658907
 30
0.0
 10
116.363030
 20
82.826171
 30
0.0
 10
116.808981
 20
83.336178
 30
0.0
  0
SPLINE
  5
379
100
AcDbEntity
  8
0
 62
7
100
AcDbSpline
 70
8
 71
3
 72
8
 73
4
 74
0
 40
0
 40
0
 40
0
 40
0
 40
1
 40
1
 40
1
 40
1
 10
116.808981
 20
83.336178
 30
0.0
 10
117.209502
 20
83.794239
 30
0.0
 10
117.557463
 20
84.032364
 30
0.0
 10
117.582222
 20
83.865345
 30
0.0
  0
SPLINE
  5
37a
100
AcDbEntity
  8
0
 62
7
100
AcDbSpline
 70
8
 71
3
 72
8
 73
4
 74
0
 40
0
 40
0
 40
0
 40
0
 40
1
 40
1
 40
1
 40
1
 10
117.582222
 20
83.865345
 30
0.0
 10
117.810861
 20
82.323246
 30
0.0
 10
117.745084
 20
81.973002
 30
0.0
 10
117.224449
 20
81.960373
 30
0.0
  0
SPLINE
  5
37b
100
AcDbEntity
  8
0
 62
7
100
AcDbSpline
 70
8
 71
3
 72
8
 73
4
 74
0
 40
0
 40
0
 40
0
 40
0
 40
1
 40
1
 40
1
 40
1
 10
117.224449
 20
81.960373
 30
0.0
 10
116.911394
 20
81.952781
 30
0.0
 10
117.171193
 20
81.722316
 30
0.0
 10
117.801785
 20
81.448235
 30
0.0
  0
SPLINE
  5
37c
100
AcDbEntity
  8
0
 62
7
100
AcDbSpline
 70
8
 71
3
 72
8
 73
4
 74
0
 40
0
 40
0
 40
0
 40
0
 40
1
 40
1
 40
1
 40
1
 10
117.801785
 20
81.448235
 30
0.0
 10
118.432374
 20
81.174155
 30
0.0
 10
118.948313
 20
80.870973
 30
0.0
 10
118.948313
 20
80.774489
 30
0.0
  0
SPLINE
  5
37d
100
AcDbEntity
  8
0
 62
7
100
AcDbSpline
 70
8
 71
3
 72
8
 73
4
 74
0
 40
0
 40
0
 40
0
 40
0
 40
1
 40
1
 40
1
 40
1
 10
118.948313
 20
80.774489
 30
0.0
 10
118.948313
 20
80.678009
 30
0.0
 10
118.397785
 20
80.829096
 30
0.0
 10
117.724922
 20
81.110241
 30
0.0
  0
SPLINE
  5
37e
100
AcDbEntity
  8
0
 62
7
100
AcDbSpline
 70
8
 71
3
 72
8
 73
4
 74
0
 40
0
 40
0
 40
0
 40
0
 40
1
 40
1
 40
1
 40
1
 10
117.724922
 20
81.110241
 30
0.0
 10
117.052053
 20
81.391379
 30
0.0
 10
116.233702
 20
81.621404
 30
0.0
 10
115.906355
 20
81.621404
 30
0.0
  0
SPLINE
  5
37f
100
AcDbEntity
  8
0
 62
7
100
AcDbSpline
 70
8
 71
3
 72
8
 73
4
 74
0
 40
0
 40
0
 40
0
 40
0
 40
1
 40
1
 40
1
 40
1
 10
115.906355
 20
81.621404
 30
0.0
 10
115.362426
 20
81.621404
 30
0.0
 10
115.366157
 20
81.560659
 30
0.0
 10
115.949702
 20
80.915849
 30
0.0
  0
SPLINE
  5
380
100
AcDbEntity
  8
0
 62
7
100
AcDbSpline
 70
8
 71
3
 72
8
 73
4
 74
0
 40
0
 40
0
 40
0
 40
0
 40
1
 40
1
 40
1
 40
1
 10
115.949702
 20
80.915849
 30
0.0
 10
116.300888
 20
80.527793
 30
0.0
 10
116.841428
 20
80.200232
 30
0.0
 10
117.150907
 20
80.187930
 30
0.0
  0
SPLINE
  5
381
100
AcDbEntity
  8
0
 62
7
100
AcDbSpline
 70
8
 71
3
 72
8
 73
4
 74
0
 40
0
 40
0
 40
0
 40
0
 40
1
 40
1
 40
1
 40
1
 10
117.150907
 20
80.187930
 30
0.0
 10
117.488250
 20
80.174524
 30
0.0
 10
117.360392
 20
80.017135
 30
0.0
 10
116.831646
 20
79.794913
 30
0.0
  0
SPLINE
  5
382
100
AcDbEntity
  8
0
 62
7
100
AcDbSpline
 70
8
 71
3
 72
8
 73
4
 74
0
 40
0
 40
0
 40
0
 40
0
 40
1
 40
1
 40
1
 40
1
 10
116.831646
 20
79.794913
 30
0.0
 10
116.346577
 20
79.591052
 30
0.0
 10
116.139338
 20
79.352693
 30
0.0
 10
116.371116
 20
79.265230
 30
0.0
  0
SPLINE
  5
383
100
AcDbEntity
  8
0
 62
7
100
AcDbSpline
 70
8
 71
3
 72
8
 73
4
 74
0
 40
0
 40
0
 40
0
 40
0
 40
1
 40
1
 40
1
 40
1
 10
116.371116
 20
79.265230
 30
0.0
 10
116.602894
 20
79.177761
 30
0.0
 10
117.108396
 20
79.275249
 30
0.0
 10
117.494451
 20
79.481861
 30
0.0
  0
SPLINE
  5
384
100
AcDbEntity
  8
0
 62
7
100
AcDbSpline
 70
8
 71
3
 72
8
 73
4
 74
0
 40
0
 40
0
 40
0
 40
0
 40
1
 40
1
 40
1
 40
1
 10
117.494451
 20
79.481861
 30
0.0
 10
118.373977
 20
79.952565
 30
0.0
 10
118.700920
 20
79.960653
 30
0.0
 10
118.419146
 20
79.504749
 30
0.0
  0
SPLINE
  5
385
100
AcDbEntity
  8
0
 62
7
100
AcDbSpline
 70
8
 71
3
 72
8
 73
4
 74
0
 40
0
 40
0
 40
0
 40
0
 40
1
 40
1
 40
1
 40
1
 10
118.419146
 20
79.504749
 30
0.0
 10
118.299230
 20
79.310721
 30
0.0
 10
118.515003
 20
79.151971
 30
0.0
 10
118.898642
 20
79.151971
 30
0.0
  0
SPLINE
  5
386
100
AcDbEntity
  8
0
 62
7
100
AcDbSpline
 70
8
 71
3
 72
8
 73
4
 74
0
 40
0
 40
0
 40
0
 40
0
 40
1
 40
1
 40
1
 40
1
 10
118.898642
 20
79.151971
 30
0.0
 10
119.282278
 20
79.151971
 30
0.0
 10
119.847273
 20
79.055615
 30
0.0
 10
120.154181
 20
78.937841
 30
0.0
  0
SPLINE
  5
387
100
AcDbEntity
  8
0
 62
7
100
AcDbSpline
 70
8
 71
3
 72
8
 73
4
 74
0
 40
0
 40
0
 40
0
 40
0
 40
1
 40
1
 40
1
 40
1
 10
120.154181
 20
78.937841
 30
0.0
 10
120.461095
 20
78.820066
 30
0.0
 10
120.712202
 20
78.888898
 30
0.0
 10
120.712202
 20
79.090797
 30
0.0
  0
SPLINE
  5
388
100
AcDbEntity
  8
0
 62
7
100
AcDbSpline
 70
8
 71
3
 72
8
 73
4
 74
0
 40
0
 40
0
 40
0
 40
0
 40
1
 40
1
 40
1
 40
1
 10
120.712202
 20
79.090797
 30
0.0
 10
120.712202
 20
79.292696
 30
0.0
 10
120.275638
 20
79.524019
 30
0.0
 10
119.742063
 20
79.604850
 30
0.0
  0
SPLINE
  5
389
100
AcDbEntity
  8
0
 62
7
100
AcDbSpline
 70
8
 71
3
 72
8
 73
4
 74
0
 40
0
 40
0
 40
0
 40
0
 40
1
 40
1
 40
1
 40
1
 10
119.742063
 20
79.604850
 30
0.0
 10
118.943095
 20
79.725881
 30
0.0
 10
119.000154
 20
79.761136
 30
0.0
 10
120.065444
 20
79.804672
 30
0.0
  0
SPLINE
  5
38a
100
AcDbEntity
  8
0
 62
7
100
AcDbSpline
 70
8
 71
3
 72
8
 73
4
 74
0
 40
0
 40
0
 40
0
 40
0
 40
1
 40
1
 40
1
 40
1
 10
120.065444
 20
79.804672
 30
0.0
 10
120.776876
 20
79.833741
 30
0.0
 10
121.439034
 20
80.055966
 30
0.0
 10
121.536897
 20
80.298499
 30
0.0
  0
SPLINE
  5
38b
100
AcDbEntity
  8
0
 62
7
100
AcDbSpline
 70
8
 71
3
 72
8
 73
4
 74
0
 40
0
 40
0
 40
0
 40
0
 40
1
 40
1
 40
1
 40
1
 10
121.536897
 20
80.298499
 30
0.0
 10
121.634761
 20
80.541035
 30
0.0
 10
121.727366
 20
80.414035
 30
0.0
 10
121.742683
 20
80.016277
 30
0.0
  0
SPLINE
  5
38c
100
AcDbEntity
  8
0
 62
7
100
AcDbSpline
 70
8
 71
3
 72
8
 73
4
 74
0
 40
0
 40
0
 40
0
 40
0
 40
1
 40
1
 40
1
 40
1
 10
121.742683
 20
80.016277
 30
0.0
 10
121.757979
 20
79.618521
 30
0.0
 10
121.612666
 20
79.101702
 30
0.0
 10
121.419719
 20
78.867787
 30
0.0
  0
SPLINE
  5
38d
100
AcDbEntity
  8
0
 62
7
100
AcDbSpline
 70
8
 71
3
 72
8
 73
4
 74
0
 40
0
 40
0
 40
0
 40
0
 40
1
 40
1
 40
1
 40
1
 10
121.419719
 20
78.867787
 30
0.0
 10
121.226766
 20
78.633879
 30
0.0
 10
121.400217
 20
78.740310
 30
0.0
 10
121.805189
 20
79.104307
 30
0.0
  0
SPLINE
  5
38e
100
AcDbEntity
  8
0
 62
7
100
AcDbSpline
 70
8
 71
3
 72
8
 73
4
 74
0
 40
0
 40
0
 40
0
 40
0
 40
1
 40
1
 40
1
 40
1
 10
121.805189
 20
79.104307
 30
0.0
 10
122.506054
 20
79.734283
 30
0.0
 10
122.514010
 20
79.819238
 30
0.0
 10
121.970557
 20
80.870157
 30
0.0
  0
LINE
  5
38f
100
AcDbEntity
  8
0
 62
7
100
AcDbLine
 10
121.970557
 20
80.870157
 30
0.0
 11
121.970557
 21
80.870146
 31
0.0
  0
LINE
  5
390
100
AcDbEntity
  8
0
 62
7
100
AcDbLine
 10
113.127480
 20
79.193585
 30
0.0
 11
114.538591
 21
79.244839
 31
0.0
  0
LINE
  5
391
100
AcDbEntity
  8
0
 62
7
100
AcDbLine
 10
114.538591
 20
79.244839
 30
0.0
 11
113.303868
 21
79.504738
 31
0.0
  0
LINE
  5
392
100
AcDbEntity
  8
0
 62
7
100
AcDbLine
 10
113.303868
 20
79.504738
 30
0.0
 11
112.069146
 21
79.764636
 31
0.0
  0
LINE
  5
393
100
AcDbEntity
  8
0
 62
7
100
AcDbLine
 10
112.069146
 20
79.764636
 30
0.0
 11
113.127480
 21
79.856099
 31
0.0
  0
SPLINE
  5
394
100
AcDbEntity
  8
0
 62
7
100
AcDbSpline
 70
8
 71
3
 72
8
 73
4
 74
0
 40
0
 40
0
 40
0
 40
0
 40
1
 40
1
 40
1
 40
1
 10
113.127480
 20
79.856099
 30
0.0
 10
115.369611
 20
80.049867
 30
0.0
 10
115.802819
 20
80.122206
 30
0.0
 10
116.019665
 20
80.339051
 30
0.0
  0
SPLINE
  5
395
100
AcDbEntity
  8
0
 62
7
100
AcDbSpline
 70
8
 71
3
 72
8
 73
4
 74
0
 40
0
 40
0
 40
0
 40
0
 40
1
 40
1
 40
1
 40
1
 10
116.019665
 20
80.339051
 30
0.0
 10
116.588582
 20
80.907972
 30
0.0
 10
112.789095
 20
80.494767
 30
0.0
 10
111.525925
 20
79.850347
 30
0.0
  0
SPLINE
  5
396
100
AcDbEntity
  8
0
 62
7
100
AcDbSpline
 70
8
 71
3
 72
8
 73
4
 74
0
 40
0
 40
0
 40
0
 40
0
 40
1
 40
1
 40
1
 40
1
 10
111.525925
 20
79.850347
 30
0.0
 10
109.989233
 20
79.066384
 30
0.0
 10
109.681713
 20
78.597057
 30
0.0
 10
110.922618
 20
78.929608
 30
0.0
  0
SPLINE
  5
397
100
AcDbEntity
  8
0
 62
7
100
AcDbSpline
 70
8
 71
3
 72
8
 73
4
 74
0
 40
0
 40
0
 40
0
 40
0
 40
1
 40
1
 40
1
 40
1
 10
110.922618
 20
78.929608
 30
0.0
 10
111.359182
 20
79.046603
 30
0.0
 10
112.351368
 20
79.165391
 30
0.0
 10
113.127480
 20
79.193585
 30
0.0
  0
LINE
  5
398
100
AcDbEntity
  8
0
 62
7
100
AcDbLine
 10
113.127480
 20
79.193585
 30
0.0
 11
113.127480
 21
79.193585
 31
0.0
  0
SPLINE
  5
399
100
AcDbEntity
  8
0
 62
7
100
AcDbSpline
 70
8
 71
3
 72
8
 73
4
 74
0
 40
0
 40
0
 40
0
 40
0
 40
1
 40
1
 40
1
 40
1
 10
104.176647
 20
80.122099
 30
0.0
 10
104.615457
 20
80.681627
 30
0.0
 10
104.602980
 20
80.694104
 30
0.0
 10
104.043452
 20
80.255293
 30
0.0
  0
SPLINE
  5
39a
100
AcDbEntity
  8
0
 62
7
100
AcDbSpline
 70
8
 71
3
 72
8
 73
4
 74
0
 40
0
 40
0
 40
0
 40
0
 40
1
 40
1
 40
1
 40
1
 10
104.043452
 20
80.255293
 30
0.0
 10
103.455811
 20
79.794436
 30
0.0
 10
103.268935
 20
79.504738
 30
0.0
 10
103.559285
 20
79.504738
 30
0.0
  0
SPLINE
  5
39b
100
AcDbEntity
  8
0
 62
7
100
AcDbSpline
 70
8
 71
3
 72
8
 73
4
 74
0
 40
0
 40
0
 40
0
 40
0
 40
1
 40
1
 40
1
 40
1
 10
103.559285
 20
79.504738
 30
0.0
 10
103.632539
 20
79.504738
 30
0.0
 10
103.910353
 20
79.782551
 30
0.0
 10
104.176647
 20
80.122099
 30
0.0
  0
LINE
  5
39c
100
AcDbEntity
  8
0
 62
7
100
AcDbLine
 10
104.176647
 20
80.122099
 30
0.0
 11
104.176647
 21
80.122099
 31
0.0
  0
SPLINE
  5
39d
100
AcDbEntity
  8
0
 62
7
100
AcDbSpline
 70
8
 71
3
 72
8
 73
4
 74
0
 40
0
 40
0
 40
0
 40
0
 40
1
 40
1
 40
1
 40
1
 10
123.917332
 20
80.368058
 30
0.0
 10
124.094788
 20
80.258387
 30
0.0
 10
124.239980
 20
80.319790
 30
0.0
 10
124.239980
 20
80.504507
 30
0.0
  0
SPLINE
  5
39e
100
AcDbEntity
  8
0
 62
7
100
AcDbSpline
 70
8
 71
3
 72
8
 73
4
 74
0
 40
0
 40
0
 40
0
 40
0
 40
1
 40
1
 40
1
 40
1
 10
124.239980
 20
80.504507
 30
0.0
 10
124.239980
 20
80.689227
 30
0.0
 10
124.001855
 20
80.931738
 30
0.0
 10
123.710813
 20
81.043424
 30
0.0
  0
SPLINE
  5
39f
100
AcDbEntity
  8
0
 62
7
100
AcDbSpline
 70
8
 71
3
 72
8
 73
4
 74
0
 40
0
 40
0
 40
0
 40
0
 40
1
 40
1
 40
1
 40
1
 10
123.710813
 20
81.043424
 30
0.0
 10
123.334563
 20
81.187804
 30
0.0
 10
123.189692
 20
81.020310
 30
0.0
 10
123.209499
 20
80.463805
 30
0.0
  0
SPLINE
  5
3a0
100
AcDbEntity
  8
0
 62
7
100
AcDbSpline
 70
8
 71
3
 72
8
 73
4
 74
0
 40
0
 40
0
 40
0
 40
0
 40
1
 40
1
 40
1
 40
1
 10
123.209499
 20
80.463805
 30
0.0
 10
123.224823
 20
80.033334
 30
0.0
 10
123.317748
 20
79.880550
 30
0.0
 10
123.416018
 20
80.124297
 30
0.0
  0
SPLINE
  5
3a1
100
AcDbEntity
  8
0
 62
7
100
AcDbSpline
 70
8
 71
3
 72
8
 73
4
 74
0
 40
0
 40
0
 40
0
 40
0
 40
1
 40
1
 40
1
 40
1
 10
123.416018
 20
80.124297
 30
0.0
 10
123.514285
 20
80.368041
 30
0.0
 10
123.739879
 20
80.477735
 30
0.0
 10
123.917332
 20
80.368058
 30
0.0
  0
LINE
  5
3a2
100
AcDbEntity
  8
0
 62
7
100
AcDbLine
 10
123.917332
 20
80.368058
 30
0.0
 11
123.917332
 21
80.368058
 31
0.0
  0
SPLINE
  5
3a3
100
AcDbEntity
  8
0
 62
7
100
AcDbSpline
 70
8
 71
3
 72
8
 73
4
 74
0
 40
0
 40
0
 40
0
 40
0
 40
1
 40
1
 40
1
 40
1
 10
159.610481
 20
81.004043
 30
0.0
 10
159.003272
 20
81.634635
 30
0.0
 10
157.979943
 20
83.085576
 30
0.0
 10
157.336417
 20
84.228361
 30
0.0
  0
SPLINE
  5
3a4
100
AcDbEntity
  8
0
 62
7
100
AcDbSpline
 70
8
 71
3
 72
8
 73
4
 74
0
 40
0
 40
0
 40
0
 40
0
 40
1
 40
1
 40
1
 40
1
 10
157.336417
 20
84.228361
 30
0.0
 10
156.692891
 20
85.371150
 30
0.0
 10
155.829025
 20
86.528275
 30
0.0
 10
155.416716
 20
86.799753
 30
0.0
  0
SPLINE
  5
3a5
100
AcDbEntity
  8
0
 62
7
100
AcDbSpline
 70
8
 71
3
 72
8
 73
4
 74
0
 40
0
 40
0
 40
0
 40
0
 40
1
 40
1
 40
1
 40
1
 10
155.416716
 20
86.799753
 30
0.0
 10
154.713288
 20
87.262914
 30
0.0
 10
154.667495
 20
87.232682
 30
0.0
 10
154.674025
 20
86.309462
 30
0.0
  0
SPLINE
  5
3a6
100
AcDbEntity
  8
0
 62
7
100
AcDbSpline
 70
8
 71
3
 72
8
 73
4
 74
0
 40
0
 40
0
 40
0
 40
0
 40
1
 40
1
 40
1
 40
1
 10
154.674025
 20
86.309462
 30
0.0
 10
154.677864
 20
85.768321
 30
0.0
 10
154.750948
 20
85.524998
 30
0.0
 10
154.836450
 20
85.768742
 30
0.0
  0
SPLINE
  5
3a7
100
AcDbEntity
  8
0
 62
7
100
AcDbSpline
 70
8
 71
3
 72
8
 73
4
 74
0
 40
0
 40
0
 40
0
 40
0
 40
1
 40
1
 40
1
 40
1
 10
154.836450
 20
85.768742
 30
0.0
 10
154.921952
 20
86.012486
 30
0.0
 10
155.154049
 20
86.111704
 30
0.0
 10
155.352217
 20
85.989228
 30
0.0
  0
SPLINE
  5
3a8
100
AcDbEntity
  8
0
 62
7
100
AcDbSpline
 70
8
 71
3
 72
8
 73
4
 74
0
 40
0
 40
0
 40
0
 40
0
 40
1
 40
1
 40
1
 40
1
 10
155.352217
 20
85.989228
 30
0.0
 10
155.976151
 20
85.603616
 30
0.0
 10
154.843381
 20
85.171593
 30
0.0
 10
154.163048
 20
85.535697
 30
0.0
  0
SPLINE
  5
3a9
100
AcDbEntity
  8
0
 62
7
100
AcDbSpline
 70
8
 71
3
 72
8
 73
4
 74
0
 40
0
 40
0
 40
0
 40
0
 40
1
 40
1
 40
1
 40
1
 10
154.163048
 20
85.535697
 30
0.0
 10
153.816428
 20
85.721204
 30
0.0
 10
152.670722
 20
86.742002
 30
0.0
 10
151.617037
 20
87.804140
 30
0.0
  0
SPLINE
  5
3aa
100
AcDbEntity
  8
0
 62
7
100
AcDbSpline
 70
8
 71
3
 72
8
 73
4
 74
0
 40
0
 40
0
 40
0
 40
0
 40
1
 40
1
 40
1
 40
1
 10
151.617037
 20
87.804140
 30
0.0
 10
150.563354
 20
88.866274
 30
0.0
 10
149.423837
 20
89.735293
 30
0.0
 10
149.084775
 20
89.735293
 30
0.0
  0
SPLINE
  5
3ab
100
AcDbEntity
  8
0
 62
7
100
AcDbSpline
 70
8
 71
3
 72
8
 73
4
 74
0
 40
0
 40
0
 40
0
 40
0
 40
1
 40
1
 40
1
 40
1
 10
149.084775
 20
89.735293
 30
0.0
 10
148.671263
 20
89.735293
 30
0.0
 10
149.163303
 20
89.067445
 30
0.0
 10
150.579257
 20
87.706821
 30
0.0
  0
SPLINE
  5
3ac
100
AcDbEntity
  8
0
 62
7
100
AcDbSpline
 70
8
 71
3
 72
8
 73
4
 74
0
 40
0
 40
0
 40
0
 40
0
 40
1
 40
1
 40
1
 40
1
 10
150.579257
 20
87.706821
 30
0.0
 10
151.740289
 20
86.591163
 30
0.0
 10
153.075479
 20
85.202099
 30
0.0
 10
153.546353
 20
84.620015
 30
0.0
  0
SPLINE
  5
3ad
100
AcDbEntity
  8
0
 62
7
100
AcDbSpline
 70
8
 71
3
 72
8
 73
4
 74
0
 40
0
 40
0
 40
0
 40
0
 40
1
 40
1
 40
1
 40
1
 10
153.546353
 20
84.620015
 30
0.0
 10
155.159115
 20
82.626341
 30
0.0
 10
158.949415
 20
80.061367
 30
0.0
 10
160.557100
 20
79.875693
 30
0.0
  0
SPLINE
  5
3ae
100
AcDbEntity
  8
0
 62
7
100
AcDbSpline
 70
8
 71
3
 72
8
 73
4
 74
0
 40
0
 40
0
 40
0
 40
0
 40
1
 40
1
 40
1
 40
1
 10
160.557100
 20
79.875693
 30
0.0
 10
160.643669
 20
79.865703
 30
0.0
 10
160.217691
 20
80.373454
 30
0.0
 10
159.610481
 20
81.004043
 30
0.0
  0
LINE
  5
3af
100
AcDbEntity
  8
0
 62
7
100
AcDbLine
 10
159.610481
 20
81.004043
 30
0.0
 11
159.610481
 21
81.004043
 31
0.0
  0
SPLINE
  5
3b0
100
AcDbEntity
  8
0
 62
7
100
AcDbSpline
 70
8
 71
3
 72
8
 73
4
 74
0
 40
0
 40
0
 40
0
 40
0
 40
1
 40
1
 40
1
 40
1
 10
78.203727
 20
81.229414
 30
0.0
 10
79.174554
 20
81.786293
 30
0.0
 10
80.603304
 20
82.935278
 30
0.0
 10
81.378727
 20
83.782718
 30
0.0
  0
SPLINE
  5
3b1
100
AcDbEntity
  8
0
 62
7
100
AcDbSpline
 70
8
 71
3
 72
8
 73
4
 74
0
 40
0
 40
0
 40
0
 40
0
 40
1
 40
1
 40
1
 40
1
 10
81.378727
 20
83.782718
 30
0.0
 10
82.154152
 20
84.630158
 30
0.0
 10
83.783813
 20
86.298016
 30
0.0
 10
85.000194
 20
87.489075
 30
0.0
  0
SPLINE
  5
3b2
100
AcDbEntity
  8
0
 62
7
100
AcDbSpline
 70
8
 71
3
 72
8
 73
4
 74
0
 40
0
 40
0
 40
0
 40
0
 40
1
 40
1
 40
1
 40
1
 10
85.000194
 20
87.489075
 30
0.0
 10
87.569353
 20
90.004748
 30
0.0
 10
87.292928
 20
90.612194
 30
0.0
 10
84.348252
 20
88.921717
 30
0.0
  0
SPLINE
  5
3b3
100
AcDbEntity
  8
0
 62
7
100
AcDbSpline
 70
8
 71
3
 72
8
 73
4
 74
0
 40
0
 40
0
 40
0
 40
0
 40
1
 40
1
 40
1
 40
1
 10
84.348252
 20
88.921717
 30
0.0
 10
81.651340
 20
87.373477
 30
0.0
 10
74.748686
 20
80.205154
 30
0.0
 10
75.962874
 20
80.213601
 30
0.0
  0
SPLINE
  5
3b4
100
AcDbEntity
  8
0
 62
7
100
AcDbSpline
 70
8
 71
3
 72
8
 73
4
 74
0
 40
0
 40
0
 40
0
 40
0
 40
1
 40
1
 40
1
 40
1
 10
75.962874
 20
80.213601
 30
0.0
 10
76.224517
 20
80.215294
 30
0.0
 10
77.232902
 20
80.672542
 30
0.0
 10
78.203730
 20
81.229414
 30
0.0
  0
LINE
  5
3b5
100
AcDbEntity
  8
0
 62
7
100
AcDbLine
 10
78.203730
 20
81.229414
 30
0.0
 11
78.203727
 21
81.229414
 31
0.0
  0
SPLINE
  5
3b6
100
AcDbEntity
  8
0
 62
7
100
AcDbSpline
 70
8
 71
3
 72
8
 73
4
 74
0
 40
0
 40
0
 40
0
 40
0
 40
1
 40
1
 40
1
 40
1
 10
80.542240
 20
84.796404
 30
0.0
 10
81.252483
 20
86.094737
 30
0.0
 10
81.984754
 20
86.930397
 30
0.0
 10
82.784642
 20
87.355415
 30
0.0
  0
SPLINE
  5
3b7
100
AcDbEntity
  8
0
 62
7
100
AcDbSpline
 70
8
 71
3
 72
8
 73
4
 74
0
 40
0
 40
0
 40
0
 40
0
 40
1
 40
1
 40
1
 40
1
 10
82.784642
 20
87.355415
 30
0.0
 10
83.206649
 20
87.579649
 30
0.0
 10
82.937962
 20
87.101830
 30
0.0
 10
82.121558
 20
86.176214
 30
0.0
  0
SPLINE
  5
3b8
100
AcDbEntity
  8
0
 62
7
100
AcDbSpline
 70
8
 71
3
 72
8
 73
4
 74
0
 40
0
 40
0
 40
0
 40
0
 40
1
 40
1
 40
1
 40
1
 10
82.121558
 20
86.176214
 30
0.0
 10
80.149861
 20
83.940766
 30
0.0
 10
80.004869
 20
83.814090
 30
0.0
 10
80.542240
 20
84.796404
 30
0.0
  0
LINE
  5
3b9
100
AcDbEntity
  8
0
 62
7
100
AcDbLine
 10
80.542240
 20
84.796404
 30
0.0
 11
80.542240
 21
84.796404
 31
0.0
  0
SPLINE
  5
3ba
100
AcDbEntity
  8
0
 62
7
100
AcDbSpline
 70
8
 71
3
 72
8
 73
4
 74
0
 40
0
 40
0
 40
0
 40
0
 40
1
 40
1
 40
1
 40
1
 10
100.956646
 20
80.915849
 30
0.0
 10
100.956646
 20
81.109876
 30
0.0
 10
100.886641
 20
81.268626
 30
0.0
 10
100.801077
 20
81.268626
 30
0.0
  0
SPLINE
  5
3bb
100
AcDbEntity
  8
0
 62
7
100
AcDbSpline
 70
8
 71
3
 72
8
 73
4
 74
0
 40
0
 40
0
 40
0
 40
0
 40
1
 40
1
 40
1
 40
1
 10
100.801077
 20
81.268626
 30
0.0
 10
100.715516
 20
81.268626
 30
0.0
 10
100.547396
 20
81.109876
 30
0.0
 10
100.427480
 20
80.915849
 30
0.0
  0
SPLINE
  5
3bc
100
AcDbEntity
  8
0
 62
7
100
AcDbSpline
 70
8
 71
3
 72
8
 73
4
 74
0
 40
0
 40
0
 40
0
 40
0
 40
1
 40
1
 40
1
 40
1
 10
100.427480
 20
80.915849
 30
0.0
 10
100.307563
 20
80.721821
 30
0.0
 10
100.377569
 20
80.563071
 30
0.0
 10
100.583049
 20
80.563071
 30
0.0
  0
SPLINE
  5
3bd
100
AcDbEntity
  8
0
 62
7
100
AcDbSpline
 70
8
 71
3
 72
8
 73
4
 74
0
 40
0
 40
0
 40
0
 40
0
 40
1
 40
1
 40
1
 40
1
 10
100.583049
 20
80.563071
 30
0.0
 10
100.788526
 20
80.563071
 30
0.0
 10
100.956646
 20
80.721821
 30
0.0
 10
100.956646
 20
80.915849
 30
0.0
  0
LINE
  5
3be
100
AcDbEntity
  8
0
 62
7
100
AcDbLine
 10
100.956646
 20
80.915849
 30
0.0
 11
100.956646
 21
80.915849
 31
0.0
  0
SPLINE
  5
3bf
100
AcDbEntity
  8
0
 62
7
100
AcDbSpline
 70
8
 71
3
 72
8
 73
4
 74
0
 40
0
 40
0
 40
0
 40
0
 40
1
 40
1
 40
1
 40
1
 10
127.774835
 20
81.100763
 30
0.0
 10
128.020267
 20
81.396496
 30
0.0
 10
128.158771
 20
81.682663
 30
0.0
 10
128.082610
 20
81.736703
 30
0.0
  0
SPLINE
  5
3c0
100
AcDbEntity
  8
0
 62
7
100
AcDbSpline
 70
8
 71
3
 72
8
 73
4
 74
0
 40
0
 40
0
 40
0
 40
0
 40
1
 40
1
 40
1
 40
1
 10
128.082610
 20
81.736703
 30
0.0
 10
126.968600
 20
82.527137
 30
0.0
 10
125.898966
 20
83.045210
 30
0.0
 10
125.729960
 20
82.876201
 30
0.0
  0
SPLINE
  5
3c1
100
AcDbEntity
  8
0
 62
7
100
AcDbSpline
 70
8
 71
3
 72
8
 73
4
 74
0
 40
0
 40
0
 40
0
 40
0
 40
1
 40
1
 40
1
 40
1
 10
125.729960
 20
82.876201
 30
0.0
 10
125.612979
 20
82.759220
 30
0.0
 10
125.864880
 20
82.420034
 30
0.0
 10
126.289734
 20
82.122456
 30
0.0
  0
SPLINE
  5
3c2
100
AcDbEntity
  8
0
 62
7
100
AcDbSpline
 70
8
 71
3
 72
8
 73
4
 74
0
 40
0
 40
0
 40
0
 40
0
 40
1
 40
1
 40
1
 40
1
 10
126.289734
 20
82.122456
 30
0.0
 10
127.214320
 20
81.474849
 30
0.0
 10
127.311393
 20
80.857832
 30
0.0
 10
126.444841
 20
81.136589
 30
0.0
  0
SPLINE
  5
3c3
100
AcDbEntity
  8
0
 62
7
100
AcDbSpline
 70
8
 71
3
 72
8
 73
4
 74
0
 40
0
 40
0
 40
0
 40
0
 40
1
 40
1
 40
1
 40
1
 10
126.444841
 20
81.136589
 30
0.0
 10
125.923737
 20
81.304217
 30
0.0
 10
125.909987
 20
81.275832
 30
0.0
 10
126.356646
 20
80.954530
 30
0.0
  0
SPLINE
  5
3c4
100
AcDbEntity
  8
0
 62
7
100
AcDbSpline
 70
8
 71
3
 72
8
 73
4
 74
0
 40
0
 40
0
 40
0
 40
0
 40
1
 40
1
 40
1
 40
1
 10
126.356646
 20
80.954530
 30
0.0
 10
127.061821
 20
80.447264
 30
0.0
 10
127.248452
 20
80.466509
 30
0.0
 10
127.774835
 20
81.100763
 30
0.0
  0
LINE
  5
3c5
100
AcDbEntity
  8
0
 62
7
100
AcDbLine
 10
127.774835
 20
81.100763
 30
0.0
 11
127.774835
 21
81.100763
 31
0.0
  0
SPLINE
  5
3c6
100
AcDbEntity
  8
0
 62
7
100
AcDbSpline
 70
8
 71
3
 72
8
 73
4
 74
0
 40
0
 40
0
 40
0
 40
0
 40
1
 40
1
 40
1
 40
1
 10
154.022961
 20
81.885988
 30
0.0
 10
153.756278
 20
83.386617
 30
0.0
 10
152.274366
 20
85.190333
 30
0.0
 10
151.539756
 20
84.908435
 30
0.0
  0
SPLINE
  5
3c7
100
AcDbEntity
  8
0
 62
7
100
AcDbSpline
 70
8
 71
3
 72
8
 73
4
 74
0
 40
0
 40
0
 40
0
 40
0
 40
1
 40
1
 40
1
 40
1
 10
151.539756
 20
84.908435
 30
0.0
 10
151.270987
 20
84.805303
 30
0.0
 10
151.051091
 20
84.898473
 30
0.0
 10
151.051091
 20
85.115485
 30
0.0
  0
SPLINE
  5
3c8
100
AcDbEntity
  8
0
 62
7
100
AcDbSpline
 70
8
 71
3
 72
8
 73
4
 74
0
 40
0
 40
0
 40
0
 40
0
 40
1
 40
1
 40
1
 40
1
 10
151.051091
 20
85.115485
 30
0.0
 10
151.051091
 20
85.558983
 30
0.0
 10
146.486039
 20
87.757279
 30
0.0
 10
146.186694
 20
87.457932
 30
0.0
  0
SPLINE
  5
3c9
100
AcDbEntity
  8
0
 62
7
100
AcDbSpline
 70
8
 71
3
 72
8
 73
4
 74
0
 40
0
 40
0
 40
0
 40
0
 40
1
 40
1
 40
1
 40
1
 10
146.186694
 20
87.457932
 30
0.0
 10
145.954171
 20
87.225409
 30
0.0
 10
145.831207
 20
87.326744
 30
0.0
 10
148.322705
 20
85.697602
 30
0.0
  0
SPLINE
  5
3ca
100
AcDbEntity
  8
0
 62
7
100
AcDbSpline
 70
8
 71
3
 72
8
 73
4
 74
0
 40
0
 40
0
 40
0
 40
0
 40
1
 40
1
 40
1
 40
1
 10
148.322705
 20
85.697602
 30
0.0
 10
149.441464
 20
84.966065
 30
0.0
 10
151.187714
 20
83.512519
 30
0.0
 10
152.203260
 20
82.467498
 30
0.0
  0
SPLINE
  5
3cb
100
AcDbEntity
  8
0
 62
7
100
AcDbSpline
 70
8
 71
3
 72
8
 73
4
 74
0
 40
0
 40
0
 40
0
 40
0
 40
1
 40
1
 40
1
 40
1
 10
152.203260
 20
82.467498
 30
0.0
 10
153.218800
 20
81.422483
 30
0.0
 10
154.096582
 20
80.566477
 30
0.0
 10
154.153881
 20
80.565269
 30
0.0
  0
SPLINE
  5
3cc
100
AcDbEntity
  8
0
 62
7
100
AcDbSpline
 70
8
 71
3
 72
8
 73
4
 74
0
 40
0
 40
0
 40
0
 40
0
 40
1
 40
1
 40
1
 40
1
 10
154.153881
 20
80.565269
 30
0.0
 10
154.211181
 20
80.564141
 30
0.0
 10
154.152188
 20
81.158382
 30
0.0
 10
154.022961
 20
81.885988
 30
0.0
  0
LINE
  5
3cd
100
AcDbEntity
  8
0
 62
7
100
AcDbLine
 10
154.022961
 20
81.885988
 30
0.0
 11
154.022961
 21
81.885988
 31
0.0
  0
SPLINE
  5
3ce
100
AcDbEntity
  8
0
 62
7
100
AcDbSpline
 70
8
 71
3
 72
8
 73
4
 74
0
 40
0
 40
0
 40
0
 40
0
 40
1
 40
1
 40
1
 40
1
 10
84.199702
 20
83.138103
 30
0.0
 10
84.975813
 20
83.880777
 30
0.0
 10
86.594865
 20
85.141664
 30
0.0
 10
87.797598
 20
85.940070
 30
0.0
  0
SPLINE
  5
3cf
100
AcDbEntity
  8
0
 62
7
100
AcDbSpline
 70
8
 71
3
 72
8
 73
4
 74
0
 40
0
 40
0
 40
0
 40
0
 40
1
 40
1
 40
1
 40
1
 10
87.797598
 20
85.940070
 30
0.0
 10
90.008896
 20
87.407996
 30
0.0
 10
90.291683
 20
87.971404
 30
0.0
 10
88.817165
 20
87.971404
 30
0.0
  0
SPLINE
  5
3d0
100
AcDbEntity
  8
0
 62
7
100
AcDbSpline
 70
8
 71
3
 72
8
 73
4
 74
0
 40
0
 40
0
 40
0
 40
0
 40
1
 40
1
 40
1
 40
1
 10
88.817165
 20
87.971404
 30
0.0
 10
87.757322
 20
87.971404
 30
0.0
 10
85.577810
 20
86.453365
 30
0.0
 10
85.728404
 20
85.820078
 30
0.0
  0
SPLINE
  5
3d1
100
AcDbEntity
  8
0
 62
7
100
AcDbSpline
 70
8
 71
3
 72
8
 73
4
 74
0
 40
0
 40
0
 40
0
 40
0
 40
1
 40
1
 40
1
 40
1
 10
85.728404
 20
85.820078
 30
0.0
 10
85.793083
 20
85.548100
 30
0.0
 10
85.725581
 20
85.446085
 30
0.0
 10
85.578188
 20
85.593383
 30
0.0
  0
SPLINE
  5
3d2
100
AcDbEntity
  8
0
 62
7
100
AcDbSpline
 70
8
 71
3
 72
8
 73
4
 74
0
 40
0
 40
0
 40
0
 40
0
 40
1
 40
1
 40
1
 40
1
 10
85.578188
 20
85.593383
 30
0.0
 10
85.251462
 20
85.920106
 30
0.0
 10
83.621205
 20
84.456070
 30
0.0
 10
83.867679
 20
84.057267
 30
0.0
  0
SPLINE
  5
3d3
100
AcDbEntity
  8
0
 62
7
100
AcDbSpline
 70
8
 71
3
 72
8
 73
4
 74
0
 40
0
 40
0
 40
0
 40
0
 40
1
 40
1
 40
1
 40
1
 10
83.867679
 20
84.057267
 30
0.0
 10
84.089804
 20
83.697857
 30
0.0
 10
82.702699
 20
82.934943
 30
0.0
 10
82.290398
 20
83.189758
 30
0.0
  0
SPLINE
  5
3d4
100
AcDbEntity
  8
0
 62
7
100
AcDbSpline
 70
8
 71
3
 72
8
 73
4
 74
0
 40
0
 40
0
 40
0
 40
0
 40
1
 40
1
 40
1
 40
1
 10
82.290398
 20
83.189758
 30
0.0
 10
82.121429
 20
83.294192
 30
0.0
 10
81.919366
 20
82.833052
 30
0.0
 10
81.841374
 20
82.165009
 30
0.0
  0
SPLINE
  5
3d5
100
AcDbEntity
  8
0
 62
7
100
AcDbSpline
 70
8
 71
3
 72
8
 73
4
 74
0
 40
0
 40
0
 40
0
 40
0
 40
1
 40
1
 40
1
 40
1
 10
81.841374
 20
82.165009
 30
0.0
 10
81.679344
 20
80.777086
 30
0.0
 10
81.772619
 20
80.815575
 30
0.0
 10
84.199702
 20
83.138103
 30
0.0
  0
LINE
  5
3d6
100
AcDbEntity
  8
0
 62
7
100
AcDbLine
 10
84.199702
 20
83.138103
 30
0.0
 11
84.199702
 21
83.138103
 31
0.0
  0
SPLINE
  5
3d7
100
AcDbEntity
  8
0
 62
7
100
AcDbSpline
 70
8
 71
3
 72
8
 73
4
 74
0
 40
0
 40
0
 40
0
 40
0
 40
1
 40
1
 40
1
 40
1
 10
139.409424
 20
81.037560
 30
0.0
 10
139.409424
 20
81.104503
 30
0.0
 10
139.052235
 20
81.461692
 30
0.0
 10
138.615674
 20
81.831310
 30
0.0
  0
LINE
  5
3d8
100
AcDbEntity
  8
0
 62
7
100
AcDbLine
 10
138.615674
 20
81.831310
 30
0.0
 11
137.821924
 21
82.503349
 31
0.0
  0
LINE
  5
3d9
100
AcDbEntity
  8
0
 62
7
100
AcDbLine
 10
137.821924
 20
82.503349
 30
0.0
 11
138.493963
 21
81.709599
 31
0.0
  0
SPLINE
  5
3da
100
AcDbEntity
  8
0
 62
7
100
AcDbSpline
 70
8
 71
3
 72
8
 73
4
 74
0
 40
0
 40
0
 40
0
 40
0
 40
1
 40
1
 40
1
 40
1
 10
138.493963
 20
81.709599
 30
0.0
 10
139.125511
 20
80.963671
 30
0.0
 10
139.409424
 20
80.755250
 30
0.0
 10
139.409424
 20
81.037560
 30
0.0
  0
LINE
  5
3db
100
AcDbEntity
  8
0
 62
7
100
AcDbLine
 10
139.409424
 20
81.037560
 30
0.0
 11
139.409424
 21
81.037560
 31
0.0
  0
SPLINE
  5
3dc
100
AcDbEntity
  8
0
 62
7
100
AcDbSpline
 70
8
 71
3
 72
8
 73
4
 74
0
 40
0
 40
0
 40
0
 40
0
 40
1
 40
1
 40
1
 40
1
 10
105.895535
 20
81.809161
 30
0.0
 10
105.895535
 20
81.912429
 30
0.0
 10
105.538346
 20
82.140487
 30
0.0
 10
105.101785
 20
82.315967
 30
0.0
  0
SPLINE
  5
3dd
100
AcDbEntity
  8
0
 62
7
100
AcDbSpline
 70
8
 71
3
 72
8
 73
4
 74
0
 40
0
 40
0
 40
0
 40
0
 40
1
 40
1
 40
1
 40
1
 10
105.101785
 20
82.315967
 30
0.0
 10
104.396441
 20
82.599482
 30
0.0
 10
104.445554
 20
82.638378
 30
0.0
 10
105.542757
 20
82.665220
 30
0.0
  0
SPLINE
  5
3de
100
AcDbEntity
  8
0
 62
7
100
AcDbSpline
 70
8
 71
3
 72
8
 73
4
 74
0
 40
0
 40
0
 40
0
 40
0
 40
1
 40
1
 40
1
 40
1
 10
105.542757
 20
82.665220
 30
0.0
 10
106.741979
 20
82.694571
 30
0.0
 10
108.740504
 20
83.832920
 30
0.0
 10
108.324001
 20
84.249418
 30
0.0
  0
SPLINE
  5
3df
100
AcDbEntity
  8
0
 62
7
100
AcDbSpline
 70
8
 71
3
 72
8
 73
4
 74
0
 40
0
 40
0
 40
0
 40
0
 40
1
 40
1
 40
1
 40
1
 10
108.324001
 20
84.249418
 30
0.0
 10
108.210248
 20
84.363176
 30
0.0
 10
107.656994
 20
84.216153
 30
0.0
 10
107.094551
 20
83.922675
 30
0.0
  0
SPLINE
  5
3e0
100
AcDbEntity
  8
0
 62
7
100
AcDbSpline
 70
8
 71
3
 72
8
 73
4
 74
0
 40
0
 40
0
 40
0
 40
0
 40
1
 40
1
 40
1
 40
1
 10
107.094551
 20
83.922675
 30
0.0
 10
106.532104
 20
83.629215
 30
0.0
 10
105.548622
 20
83.289826
 30
0.0
 10
104.909030
 20
83.168479
 30
0.0
  0
SPLINE
  5
3e1
100
AcDbEntity
  8
0
 62
7
100
AcDbSpline
 70
8
 71
3
 72
8
 73
4
 74
0
 40
0
 40
0
 40
0
 40
0
 40
1
 40
1
 40
1
 40
1
 10
104.909030
 20
83.168479
 30
0.0
 10
103.796293
 20
82.957371
 30
0.0
 10
103.772022
 20
82.919248
 30
0.0
 10
104.346344
 20
82.284629
 30
0.0
  0
SPLINE
  5
3e2
100
AcDbEntity
  8
0
 62
7
100
AcDbSpline
 70
8
 71
3
 72
8
 73
4
 74
0
 40
0
 40
0
 40
0
 40
0
 40
1
 40
1
 40
1
 40
1
 10
104.346344
 20
82.284629
 30
0.0
 10
104.898599
 20
81.674394
 30
0.0
 10
105.895535
 20
81.368420
 30
0.0
 10
105.895535
 20
81.809161
 30
0.0
  0
LINE
  5
3e3
100
AcDbEntity
  8
0
 62
7
100
AcDbLine
 10
105.895535
 20
81.809161
 30
0.0
 11
105.895535
 21
81.809161
 31
0.0
  0
SPLINE
  5
3e4
100
AcDbEntity
  8
0
 62
7
100
AcDbSpline
 70
8
 71
3
 72
8
 73
4
 74
0
 40
0
 40
0
 40
0
 40
0
 40
1
 40
1
 40
1
 40
1
 10
131.435108
 20
82.286277
 30
0.0
 10
132.011632
 20
82.923332
 30
0.0
 10
131.988083
 20
82.958912
 30
0.0
 10
130.872425
 20
83.136599
 30
0.0
  0
SPLINE
  5
3e5
100
AcDbEntity
  8
0
 62
7
100
AcDbSpline
 70
8
 71
3
 72
8
 73
4
 74
0
 40
0
 40
0
 40
0
 40
0
 40
1
 40
1
 40
1
 40
1
 10
130.872425
 20
83.136599
 30
0.0
 10
130.232009
 20
83.238594
 30
0.0
 10
129.390535
 20
83.403505
 30
0.0
 10
129.002480
 20
83.503064
 30
0.0
  0
SPLINE
  5
3e6
100
AcDbEntity
  8
0
 62
7
100
AcDbSpline
 70
8
 71
3
 72
8
 73
4
 74
0
 40
0
 40
0
 40
0
 40
0
 40
1
 40
1
 40
1
 40
1
 10
129.002480
 20
83.503064
 30
0.0
 10
128.614424
 20
83.602630
 30
0.0
 10
128.168493
 20
83.696234
 30
0.0
 10
128.011521
 20
83.711079
 30
0.0
  0
SPLINE
  5
3e7
100
AcDbEntity
  8
0
 62
7
100
AcDbSpline
 70
8
 71
3
 72
8
 73
4
 74
0
 40
0
 40
0
 40
0
 40
0
 40
1
 40
1
 40
1
 40
1
 10
128.011521
 20
83.711079
 30
0.0
 10
127.854549
 20
83.725924
 30
0.0
 10
127.838152
 20
83.936510
 30
0.0
 10
127.975081
 20
84.179043
 30
0.0
  0
SPLINE
  5
3e8
100
AcDbEntity
  8
0
 62
7
100
AcDbSpline
 70
8
 71
3
 72
8
 73
4
 74
0
 40
0
 40
0
 40
0
 40
0
 40
1
 40
1
 40
1
 40
1
 10
127.975081
 20
84.179043
 30
0.0
 10
128.165897
 20
84.517027
 30
0.0
 10
128.120264
 20
84.524204
 30
0.0
 10
127.779695
 20
84.209771
 30
0.0
  0
SPLINE
  5
3e9
100
AcDbEntity
  8
0
 62
7
100
AcDbSpline
 70
8
 71
3
 72
8
 73
4
 74
0
 40
0
 40
0
 40
0
 40
0
 40
1
 40
1
 40
1
 40
1
 10
127.779695
 20
84.209771
 30
0.0
 10
127.535302
 20
83.984143
 30
0.0
 10
127.438373
 20
83.632833
 30
0.0
 10
127.564301
 20
83.429083
 30
0.0
  0
SPLINE
  5
3ea
100
AcDbEntity
  8
0
 62
7
100
AcDbSpline
 70
8
 71
3
 72
8
 73
4
 74
0
 40
0
 40
0
 40
0
 40
0
 40
1
 40
1
 40
1
 40
1
 10
127.564301
 20
83.429083
 30
0.0
 10
127.883395
 20
82.912777
 30
0.0
 10
130.166090
 20
82.325924
 30
0.0
 10
130.880880
 20
82.576430
 30
0.0
  0
SPLINE
  5
3eb
100
AcDbEntity
  8
0
 62
7
100
AcDbSpline
 70
8
 71
3
 72
8
 73
4
 74
0
 40
0
 40
0
 40
0
 40
0
 40
1
 40
1
 40
1
 40
1
 10
130.880880
 20
82.576430
 30
0.0
 10
131.286284
 20
82.718512
 30
0.0
 10
131.361124
 20
82.667215
 30
0.0
 10
131.119146
 20
82.413111
 30
0.0
  0
SPLINE
  5
3ec
100
AcDbEntity
  8
0
 62
7
100
AcDbSpline
 70
8
 71
3
 72
8
 73
4
 74
0
 40
0
 40
0
 40
0
 40
0
 40
1
 40
1
 40
1
 40
1
 10
131.119146
 20
82.413111
 30
0.0
 10
130.925118
 20
82.209361
 30
0.0
 10
130.448868
 20
81.966288
 30
0.0
 10
130.060813
 20
81.872949
 30
0.0
  0
SPLINE
  5
3ed
100
AcDbEntity
  8
0
 62
7
100
AcDbSpline
 70
8
 71
3
 72
8
 73
4
 74
0
 40
0
 40
0
 40
0
 40
0
 40
1
 40
1
 40
1
 40
1
 10
130.060813
 20
81.872949
 30
0.0
 10
129.382633
 20
81.709824
 30
0.0
 10
129.383934
 20
81.701651
 30
0.0
 10
130.094327
 20
81.662315
 30
0.0
  0
SPLINE
  5
3ee
100
AcDbEntity
  8
0
 62
7
100
AcDbSpline
 70
8
 71
3
 72
8
 73
4
 74
0
 40
0
 40
0
 40
0
 40
0
 40
1
 40
1
 40
1
 40
1
 10
130.094327
 20
81.662315
 30
0.0
 10
130.500820
 20
81.639822
 30
0.0
 10
131.104169
 20
81.920588
 30
0.0
 10
131.435105
 20
82.286266
 30
0.0
  0
LINE
  5
3ef
100
AcDbEntity
  8
0
 62
7
100
AcDbLine
 10
131.435105
 20
82.286266
 30
0.0
 11
131.435108
 21
82.286277
 31
0.0
  0
LINE
  5
3f0
100
AcDbEntity
  8
0
 62
7
100
AcDbLine
 10
140.141046
 20
82.777734
 30
0.0
 11
139.324365
 21
83.561682
 31
0.0
  0
LINE
  5
3f1
100
AcDbEntity
  8
0
 62
7
100
AcDbLine
 10
139.324365
 20
83.561682
 30
0.0
 11
139.943848
 21
82.580534
 31
0.0
  0
SPLINE
  5
3f2
100
AcDbEntity
  8
0
 62
7
100
AcDbSpline
 70
8
 71
3
 72
8
 73
4
 74
0
 40
0
 40
0
 40
0
 40
0
 40
1
 40
1
 40
1
 40
1
 10
139.943848
 20
82.580534
 30
0.0
 10
140.284564
 20
82.040902
 30
0.0
 10
140.652071
 20
81.688124
 30
0.0
 10
140.760526
 20
81.796582
 30
0.0
  0
SPLINE
  5
3f3
100
AcDbEntity
  8
0
 62
7
100
AcDbSpline
 70
8
 71
3
 72
8
 73
4
 74
0
 40
0
 40
0
 40
0
 40
0
 40
1
 40
1
 40
1
 40
1
 10
140.760526
 20
81.796582
 30
0.0
 10
140.868990
 20
81.905040
 30
0.0
 10
140.590222
 20
82.346560
 30
0.0
 10
140.141046
 20
82.777734
 30
0.0
  0
LINE
  5
3f4
100
AcDbEntity
  8
0
 62
7
100
AcDbLine
 10
140.141046
 20
82.777734
 30
0.0
 11
140.141046
 21
82.777734
 31
0.0
  0
SPLINE
  5
3f5
100
AcDbEntity
  8
0
 62
7
100
AcDbSpline
 70
8
 71
3
 72
8
 73
4
 74
0
 40
0
 40
0
 40
0
 40
0
 40
1
 40
1
 40
1
 40
1
 10
95.382021
 20
82.492328
 30
0.0
 10
95.471443
 20
82.402906
 30
0.0
 10
95.918799
 20
82.728054
 30
0.0
 10
96.376151
 20
83.214885
 30
0.0
  0
LINE
  5
3f6
100
AcDbEntity
  8
0
 62
7
100
AcDbLine
 10
96.376151
 20
83.214885
 30
0.0
 11
97.207702
 21
84.100024
 31
0.0
  0
LINE
  5
3f7
100
AcDbEntity
  8
0
 62
7
100
AcDbLine
 10
97.207702
 20
84.100024
 30
0.0
 11
96.117811
 21
83.720091
 31
0.0
  0
SPLINE
  5
3f8
100
AcDbEntity
  8
0
 62
7
100
AcDbSpline
 70
8
 71
3
 72
8
 73
4
 74
0
 40
0
 40
0
 40
0
 40
0
 40
1
 40
1
 40
1
 40
1
 10
96.117811
 20
83.720091
 30
0.0
 10
95.518371
 20
83.511122
 30
0.0
 10
94.734696
 20
83.009709
 30
0.0
 10
94.376313
 20
82.605835
 30
0.0
  0
SPLINE
  5
3f9
100
AcDbEntity
  8
0
 62
7
100
AcDbSpline
 70
8
 71
3
 72
8
 73
4
 74
0
 40
0
 40
0
 40
0
 40
0
 40
1
 40
1
 40
1
 40
1
 10
94.376313
 20
82.605835
 30
0.0
 10
93.736341
 20
81.884633
 30
0.0
 10
93.738048
 20
81.878511
 30
0.0
 10
94.472069
 20
82.263217
 30
0.0
  0
SPLINE
  5
3fa
100
AcDbEntity
  8
0
 62
7
100
AcDbSpline
 70
8
 71
3
 72
8
 73
4
 74
0
 40
0
 40
0
 40
0
 40
0
 40
1
 40
1
 40
1
 40
1
 10
94.472069
 20
82.263217
 30
0.0
 10
94.883117
 20
82.478651
 30
0.0
 10
95.292599
 20
82.581750
 30
0.0
 10
95.382021
 20
82.492328
 30
0.0
  0
LINE
  5
3fb
100
AcDbEntity
  8
0
 62
7
100
AcDbLine
 10
95.382021
 20
82.492328
 30
0.0
 11
95.382021
 21
82.492328
 31
0.0
  0
SPLINE
  5
3fc
100
AcDbEntity
  8
0
 62
7
100
AcDbSpline
 70
8
 71
3
 72
8
 73
4
 74
0
 40
0
 40
0
 40
0
 40
0
 40
1
 40
1
 40
1
 40
1
 10
107.815479
 20
82.294061
 30
0.0
 10
107.924211
 20
82.469993
 30
0.0
 10
107.695455
 20
82.530851
 30
0.0
 10
107.307132
 20
82.429305
 30
0.0
  0
SPLINE
  5
3fd
100
AcDbEntity
  8
0
 62
7
100
AcDbSpline
 70
8
 71
3
 72
8
 73
4
 74
0
 40
0
 40
0
 40
0
 40
0
 40
1
 40
1
 40
1
 40
1
 10
107.307132
 20
82.429305
 30
0.0
 10
106.483401
 20
82.213896
 30
0.0
 10
106.379275
 20
81.974182
 30
0.0
 10
107.109435
 20
81.974182
 30
0.0
  0
SPLINE
  5
3fe
100
AcDbEntity
  8
0
 62
7
100
AcDbSpline
 70
8
 71
3
 72
8
 73
4
 74
0
 40
0
 40
0
 40
0
 40
0
 40
1
 40
1
 40
1
 40
1
 10
107.109435
 20
81.974182
 30
0.0
 10
107.389027
 20
81.974182
 30
0.0
 10
107.706744
 20
82.118127
 30
0.0
 10
107.815479
 20
82.294061
 30
0.0
  0
LINE
  5
3ff
100
AcDbEntity
  8
0
 62
7
100
AcDbLine
 10
107.815479
 20
82.294061
 30
0.0
 11
107.815479
 21
82.294061
 31
0.0
  0
SPLINE
  5
400
100
AcDbEntity
  8
0
 62
7
100
AcDbSpline
 70
8
 71
3
 72
8
 73
4
 74
0
 40
0
 40
0
 40
0
 40
0
 40
1
 40
1
 40
1
 40
1
 10
122.828868
 20
82.129751
 30
0.0
 10
122.828868
 20
82.215313
 30
0.0
 10
122.670118
 20
82.383432
 30
0.0
 10
122.476091
 20
82.503349
 30
0.0
  0
SPLINE
  5
401
100
AcDbEntity
  8
0
 62
7
100
AcDbSpline
 70
8
 71
3
 72
8
 73
4
 74
0
 40
0
 40
0
 40
0
 40
0
 40
1
 40
1
 40
1
 40
1
 10
122.476091
 20
82.503349
 30
0.0
 10
122.282063
 20
82.623265
 30
0.0
 10
122.123313
 20
82.553260
 30
0.0
 10
122.123313
 20
82.347782
 30
0.0
  0
SPLINE
  5
402
100
AcDbEntity
  8
0
 62
7
100
AcDbSpline
 70
8
 71
3
 72
8
 73
4
 74
0
 40
0
 40
0
 40
0
 40
0
 40
1
 40
1
 40
1
 40
1
 10
122.123313
 20
82.347782
 30
0.0
 10
122.123313
 20
82.142302
 30
0.0
 10
122.282063
 20
81.974182
 30
0.0
 10
122.476091
 20
81.974182
 30
0.0
  0
SPLINE
  5
403
100
AcDbEntity
  8
0
 62
7
100
AcDbSpline
 70
8
 71
3
 72
8
 73
4
 74
0
 40
0
 40
0
 40
0
 40
0
 40
1
 40
1
 40
1
 40
1
 10
122.476091
 20
81.974182
 30
0.0
 10
122.670118
 20
81.974182
 30
0.0
 10
122.828868
 20
82.044187
 30
0.0
 10
122.828868
 20
82.129751
 30
0.0
  0
LINE
  5
404
100
AcDbEntity
  8
0
 62
7
100
AcDbLine
 10
122.828868
 20
82.129751
 30
0.0
 11
122.828868
 21
82.129751
 31
0.0
  0
SPLINE
  5
405
100
AcDbEntity
  8
0
 62
7
100
AcDbSpline
 70
8
 71
3
 72
8
 73
4
 74
0
 40
0
 40
0
 40
0
 40
0
 40
1
 40
1
 40
1
 40
1
 10
128.826091
 20
82.326960
 30
0.0
 10
128.535049
 20
82.515047
 30
0.0
 10
128.138174
 20
82.668931
 30
0.0
 10
127.944146
 20
82.668931
 30
0.0
  0
SPLINE
  5
406
100
AcDbEntity
  8
0
 62
7
100
AcDbSpline
 70
8
 71
3
 72
8
 73
4
 74
0
 40
0
 40
0
 40
0
 40
0
 40
1
 40
1
 40
1
 40
1
 10
127.944146
 20
82.668931
 30
0.0
 10
127.750118
 20
82.668931
 30
0.0
 10
127.829493
 20
82.515047
 30
0.0
 10
128.120535
 20
82.326960
 30
0.0
  0
SPLINE
  5
407
100
AcDbEntity
  8
0
 62
7
100
AcDbSpline
 70
8
 71
3
 72
8
 73
4
 74
0
 40
0
 40
0
 40
0
 40
0
 40
1
 40
1
 40
1
 40
1
 10
128.120535
 20
82.326960
 30
0.0
 10
128.411577
 20
82.138873
 30
0.0
 10
128.808452
 20
81.984988
 30
0.0
 10
129.002480
 20
81.984988
 30
0.0
  0
SPLINE
  5
408
100
AcDbEntity
  8
0
 62
7
100
AcDbSpline
 70
8
 71
3
 72
8
 73
4
 74
0
 40
0
 40
0
 40
0
 40
0
 40
1
 40
1
 40
1
 40
1
 10
129.002480
 20
81.984988
 30
0.0
 10
129.196507
 20
81.984988
 30
0.0
 10
129.117132
 20
82.138873
 30
0.0
 10
128.826091
 20
82.326960
 30
0.0
  0
LINE
  5
409
100
AcDbEntity
  8
0
 62
7
100
AcDbLine
 10
128.826091
 20
82.326960
 30
0.0
 11
128.826091
 21
82.326960
 31
0.0
  0
SPLINE
  5
40a
100
AcDbEntity
  8
0
 62
7
100
AcDbSpline
 70
8
 71
3
 72
8
 73
4
 74
0
 40
0
 40
0
 40
0
 40
0
 40
1
 40
1
 40
1
 40
1
 10
124.493435
 20
82.767932
 30
0.0
 10
124.406474
 20
83.010468
 30
0.0
 10
124.478195
 20
83.486718
 30
0.0
 10
124.652840
 20
83.826265
 30
0.0
  0
SPLINE
  5
40b
100
AcDbEntity
  8
0
 62
7
100
AcDbSpline
 70
8
 71
3
 72
8
 73
4
 74
0
 40
0
 40
0
 40
0
 40
0
 40
1
 40
1
 40
1
 40
1
 10
124.652840
 20
83.826265
 30
0.0
 10
124.992203
 20
84.486101
 30
0.0
 10
124.454751
 20
84.723760
 30
0.0
 10
124.061641
 20
84.087691
 30
0.0
  0
SPLINE
  5
40c
100
AcDbEntity
  8
0
 62
7
100
AcDbSpline
 70
8
 71
3
 72
8
 73
4
 74
0
 40
0
 40
0
 40
0
 40
0
 40
1
 40
1
 40
1
 40
1
 10
124.061641
 20
84.087691
 30
0.0
 10
123.831802
 20
83.715806
 30
0.0
 10
124.153549
 20
82.326960
 30
0.0
 10
124.469539
 20
82.326960
 30
0.0
  0
SPLINE
  5
40d
100
AcDbEntity
  8
0
 62
7
100
AcDbSpline
 70
8
 71
3
 72
8
 73
4
 74
0
 40
0
 40
0
 40
0
 40
0
 40
1
 40
1
 40
1
 40
1
 10
124.469539
 20
82.326960
 30
0.0
 10
124.569646
 20
82.326960
 30
0.0
 10
124.580399
 20
82.525399
 30
0.0
 10
124.493415
 20
82.767932
 30
0.0
  0
LINE
  5
40e
100
AcDbEntity
  8
0
 62
7
100
AcDbLine
 10
124.493415
 20
82.767932
 30
0.0
 11
124.493435
 21
82.767932
 31
0.0
  0
SPLINE
  5
40f
100
AcDbEntity
  8
0
 62
7
100
AcDbSpline
 70
8
 71
3
 72
8
 73
4
 74
0
 40
0
 40
0
 40
0
 40
0
 40
1
 40
1
 40
1
 40
1
 10
110.493838
 20
83.408071
 30
0.0
 10
110.805598
 20
83.990601
 30
0.0
 10
110.984637
 20
84.052577
 30
0.0
 10
111.388192
 20
83.717652
 30
0.0
  0
SPLINE
  5
410
100
AcDbEntity
  8
0
 62
7
100
AcDbSpline
 70
8
 71
3
 72
8
 73
4
 74
0
 40
0
 40
0
 40
0
 40
0
 40
1
 40
1
 40
1
 40
1
 10
111.388192
 20
83.717652
 30
0.0
 10
111.712711
 20
83.448327
 30
0.0
 10
111.892757
 20
83.431719
 30
0.0
 10
111.892757
 20
83.671102
 30
0.0
  0
SPLINE
  5
411
100
AcDbEntity
  8
0
 62
7
100
AcDbSpline
 70
8
 71
3
 72
8
 73
4
 74
0
 40
0
 40
0
 40
0
 40
0
 40
1
 40
1
 40
1
 40
1
 10
111.892757
 20
83.671102
 30
0.0
 10
111.892757
 20
84.012879
 30
0.0
 10
110.507867
 20
84.663207
 30
0.0
 10
110.366866
 20
84.387645
 30
0.0
  0
SPLINE
  5
412
100
AcDbEntity
  8
0
 62
7
100
AcDbSpline
 70
8
 71
3
 72
8
 73
4
 74
0
 40
0
 40
0
 40
0
 40
0
 40
1
 40
1
 40
1
 40
1
 10
110.366866
 20
84.387645
 30
0.0
 10
110.333000
 20
84.321421
 30
0.0
 10
110.105475
 20
83.910051
 30
0.0
 10
109.861296
 20
83.473488
 30
0.0
  0
SPLINE
  5
413
100
AcDbEntity
  8
0
 62
7
100
AcDbSpline
 70
8
 71
3
 72
8
 73
4
 74
0
 40
0
 40
0
 40
0
 40
0
 40
1
 40
1
 40
1
 40
1
 10
109.861296
 20
83.473488
 30
0.0
 10
109.611990
 20
83.027754
 30
0.0
 10
109.567878
 20
82.679738
 30
0.0
 10
109.760687
 20
82.679738
 30
0.0
  0
SPLINE
  5
414
100
AcDbEntity
  8
0
 62
7
100
AcDbSpline
 70
8
 71
3
 72
8
 73
4
 74
0
 40
0
 40
0
 40
0
 40
0
 40
1
 40
1
 40
1
 40
1
 10
109.760687
 20
82.679738
 30
0.0
 10
109.949533
 20
82.679738
 30
0.0
 10
110.279451
 20
83.007485
 30
0.0
 10
110.493838
 20
83.408071
 30
0.0
  0
LINE
  5
415
100
AcDbEntity
  8
0
 62
7
100
AcDbLine
 10
110.493838
 20
83.408071
 30
0.0
 11
110.493838
 21
83.408071
 31
0.0
  0
SPLINE
  5
416
100
AcDbEntity
  8
0
 62
7
100
AcDbSpline
 70
8
 71
3
 72
8
 73
4
 74
0
 40
0
 40
0
 40
0
 40
0
 40
1
 40
1
 40
1
 40
1
 10
102.103174
 20
83.266153
 30
0.0
 10
101.201344
 20
83.630050
 30
0.0
 10
101.705735
 20
84.090849
 30
0.0
 10
103.005887
 20
84.090849
 30
0.0
  0
SPLINE
  5
417
100
AcDbEntity
  8
0
 62
7
100
AcDbSpline
 70
8
 71
3
 72
8
 73
4
 74
0
 40
0
 40
0
 40
0
 40
0
 40
1
 40
1
 40
1
 40
1
 10
103.005887
 20
84.090849
 30
0.0
 10
104.580380
 20
84.090849
 30
0.0
 10
105.644704
 20
84.756069
 30
0.0
 10
105.720701
 20
85.787651
 30
0.0
  0
SPLINE
  5
418
100
AcDbEntity
  8
0
 62
7
100
AcDbSpline
 70
8
 71
3
 72
8
 73
4
 74
0
 40
0
 40
0
 40
0
 40
0
 40
1
 40
1
 40
1
 40
1
 10
105.720701
 20
85.787651
 30
0.0
 10
105.773830
 20
86.508830
 30
0.0
 10
105.758237
 20
86.507484
 30
0.0
 10
104.809211
 20
85.708936
 30
0.0
  0
SPLINE
  5
419
100
AcDbEntity
  8
0
 62
7
100
AcDbSpline
 70
8
 71
3
 72
8
 73
4
 74
0
 40
0
 40
0
 40
0
 40
0
 40
1
 40
1
 40
1
 40
1
 10
104.809211
 20
85.708936
 30
0.0
 10
104.278165
 20
85.262085
 30
0.0
 10
103.114715
 20
84.712931
 30
0.0
 10
102.223768
 20
84.488584
 30
0.0
  0
SPLINE
  5
41a
100
AcDbEntity
  8
0
 62
7
100
AcDbSpline
 70
8
 71
3
 72
8
 73
4
 74
0
 40
0
 40
0
 40
0
 40
0
 40
1
 40
1
 40
1
 40
1
 10
102.223768
 20
84.488584
 30
0.0
 10
101.332823
 20
84.264243
 30
0.0
 10
100.603868
 20
83.950683
 30
0.0
 10
100.603868
 20
83.791789
 30
0.0
  0
SPLINE
  5
41b
100
AcDbEntity
  8
0
 62
7
100
AcDbSpline
 70
8
 71
3
 72
8
 73
4
 74
0
 40
0
 40
0
 40
0
 40
0
 40
1
 40
1
 40
1
 40
1
 10
100.603868
 20
83.791789
 30
0.0
 10
100.603868
 20
83.298281
 30
0.0
 10
101.043729
 20
83.031358
 30
0.0
 10
101.809194
 20
83.060368
 30
0.0
  0
SPLINE
  5
41c
100
AcDbEntity
  8
0
 62
7
100
AcDbSpline
 70
8
 71
3
 72
8
 73
4
 74
0
 40
0
 40
0
 40
0
 40
0
 40
1
 40
1
 40
1
 40
1
 10
101.809194
 20
83.060368
 30
0.0
 10
102.213416
 20
83.075664
 30
0.0
 10
102.345707
 20
83.168290
 30
0.0
 10
102.103174
 20
83.266153
 30
0.0
  0
LINE
  5
41d
100
AcDbEntity
  8
0
 62
7
100
AcDbLine
 10
102.103174
 20
83.266153
 30
0.0
 11
102.103174
 21
83.266153
 31
0.0
  0
SPLINE
  5
41e
100
AcDbEntity
  8
0
 62
7
100
AcDbSpline
 70
8
 71
3
 72
8
 73
4
 74
0
 40
0
 40
0
 40
0
 40
0
 40
1
 40
1
 40
1
 40
1
 10
122.456699
 20
83.738071
 30
0.0
 10
122.483539
 20
83.267702
 30
0.0
 10
122.524890
 20
83.267702
 30
0.0
 10
122.828868
 20
83.738071
 30
0.0
  0
SPLINE
  5
41f
100
AcDbEntity
  8
0
 62
7
100
AcDbSpline
 70
8
 71
3
 72
8
 73
4
 74
0
 40
0
 40
0
 40
0
 40
0
 40
1
 40
1
 40
1
 40
1
 10
122.828868
 20
83.738071
 30
0.0
 10
123.016955
 20
84.029113
 30
0.0
 10
123.173276
 20
84.386301
 30
0.0
 10
123.176244
 20
84.531821
 30
0.0
  0
SPLINE
  5
420
100
AcDbEntity
  8
0
 62
7
100
AcDbSpline
 70
8
 71
3
 72
8
 73
4
 74
0
 40
0
 40
0
 40
0
 40
0
 40
1
 40
1
 40
1
 40
1
 10
123.176244
 20
84.531821
 30
0.0
 10
123.183723
 20
84.897629
 30
0.0
 10
122.055444
 20
84.854271
 30
0.0
 10
121.440440
 20
84.465112
 30
0.0
  0
SPLINE
  5
421
100
AcDbEntity
  8
0
 62
7
100
AcDbSpline
 70
8
 71
3
 72
8
 73
4
 74
0
 40
0
 40
0
 40
0
 40
0
 40
1
 40
1
 40
1
 40
1
 10
121.440440
 20
84.465112
 30
0.0
 10
121.007403
 20
84.191097
 30
0.0
 10
121.004993
 20
84.059031
 30
0.0
 10
121.423817
 20
83.554370
 30
0.0
  0
SPLINE
  5
422
100
AcDbEntity
  8
0
 62
7
100
AcDbSpline
 70
8
 71
3
 72
8
 73
4
 74
0
 40
0
 40
0
 40
0
 40
0
 40
1
 40
1
 40
1
 40
1
 10
121.423817
 20
83.554370
 30
0.0
 10
121.879236
 20
83.005622
 30
0.0
 10
121.931715
 20
83.009935
 30
0.0
 10
122.170086
 20
83.615674
 30
0.0
  0
SPLINE
  5
423
100
AcDbEntity
  8
0
 62
7
100
AcDbSpline
 70
8
 71
3
 72
8
 73
4
 74
0
 40
0
 40
0
 40
0
 40
0
 40
1
 40
1
 40
1
 40
1
 10
122.170086
 20
83.615674
 30
0.0
 10
122.353203
 20
84.081002
 30
0.0
 10
122.435120
 20
84.115986
 30
0.0
 10
122.456688
 20
83.738071
 30
0.0
  0
LINE
  5
424
100
AcDbEntity
  8
0
 62
7
100
AcDbLine
 10
122.456688
 20
83.738071
 30
0.0
 11
122.456699
 21
83.738071
 31
0.0
  0
SPLINE
  5
425
100
AcDbEntity
  8
0
 62
7
100
AcDbSpline
 70
8
 71
3
 72
8
 73
4
 74
0
 40
0
 40
0
 40
0
 40
0
 40
1
 40
1
 40
1
 40
1
 10
134.025595
 20
83.606606
 30
0.0
 10
134.951445
 20
83.854756
 30
0.0
 10
134.743557
 20
84.443626
 30
0.0
 10
133.730103
 20
84.443626
 30
0.0
  0
SPLINE
  5
426
100
AcDbEntity
  8
0
 62
7
100
AcDbSpline
 70
8
 71
3
 72
8
 73
4
 74
0
 40
0
 40
0
 40
0
 40
0
 40
1
 40
1
 40
1
 40
1
 10
133.730103
 20
84.443626
 30
0.0
 10
133.345769
 20
84.443626
 30
0.0
 10
132.381106
 20
84.775339
 30
0.0
 10
131.586405
 20
85.180765
 30
0.0
  0
SPLINE
  5
427
100
AcDbEntity
  8
0
 62
7
100
AcDbSpline
 70
8
 71
3
 72
8
 73
4
 74
0
 40
0
 40
0
 40
0
 40
0
 40
1
 40
1
 40
1
 40
1
 10
131.586405
 20
85.180765
 30
0.0
 10
130.422396
 20
85.774601
 30
0.0
 10
130.085070
 20
85.826611
 30
0.0
 10
129.851260
 20
85.448298
 30
0.0
  0
SPLINE
  5
428
100
AcDbEntity
  8
0
 62
7
100
AcDbSpline
 70
8
 71
3
 72
8
 73
4
 74
0
 40
0
 40
0
 40
0
 40
0
 40
1
 40
1
 40
1
 40
1
 10
129.851260
 20
85.448298
 30
0.0
 10
129.475117
 20
84.839691
 30
0.0
 10
129.840253
 20
84.500855
 30
0.0
 10
131.515948
 20
83.903560
 30
0.0
  0
SPLINE
  5
429
100
AcDbEntity
  8
0
 62
7
100
AcDbSpline
 70
8
 71
3
 72
8
 73
4
 74
0
 40
0
 40
0
 40
0
 40
0
 40
1
 40
1
 40
1
 40
1
 10
131.515948
 20
83.903560
 30
0.0
 10
133.134013
 20
83.326803
 30
0.0
 10
133.028301
 20
83.339308
 30
0.0
 10
134.025595
 20
83.606606
 30
0.0
  0
LINE
  5
42a
100
AcDbEntity
  8
0
 62
7
100
AcDbLine
 10
134.025595
 20
83.606606
 30
0.0
 11
134.025595
 21
83.606606
 31
0.0
  0
SPLINE
  5
42b
100
AcDbEntity
  8
0
 62
7
100
AcDbSpline
 70
8
 71
3
 72
8
 73
4
 74
0
 40
0
 40
0
 40
0
 40
0
 40
1
 40
1
 40
1
 40
1
 10
113.899180
 20
84.538749
 30
0.0
 10
112.866782
 20
84.883317
 30
0.0
 10
112.381707
 20
84.726726
 30
0.0
 10
112.730957
 20
84.161630
 30
0.0
  0
SPLINE
  5
42c
100
AcDbEntity
  8
0
 62
7
100
AcDbSpline
 70
8
 71
3
 72
8
 73
4
 74
0
 40
0
 40
0
 40
0
 40
0
 40
1
 40
1
 40
1
 40
1
 10
112.730957
 20
84.161630
 30
0.0
 10
112.842765
 20
83.980714
 30
0.0
 10
113.374605
 20
83.917045
 30
0.0
 10
113.912808
 20
84.020149
 30
0.0
  0
LINE
  5
42d
100
AcDbEntity
  8
0
 62
7
100
AcDbLine
 10
113.912808
 20
84.020149
 30
0.0
 11
114.891368
 21
84.207601
 31
0.0
  0
LINE
  5
42e
100
AcDbEntity
  8
0
 62
7
100
AcDbLine
 10
114.891368
 20
84.207601
 30
0.0
 11
113.899180
 21
84.538749
 31
0.0
  0
LINE
  5
42f
100
AcDbEntity
  8
0
 62
7
100
AcDbLine
 10
113.899180
 20
84.538749
 30
0.0
 11
113.899180
 21
84.538749
 31
0.0
  0
SPLINE
  5
430
100
AcDbEntity
  8
0
 62
7
100
AcDbSpline
 70
8
 71
3
 72
8
 73
4
 74
0
 40
0
 40
0
 40
0
 40
0
 40
1
 40
1
 40
1
 40
1
 10
101.618105
 20
84.801806
 30
0.0
 10
102.061165
 20
84.805983
 30
0.0
 10
102.085803
 20
84.874145
 30
0.0
 10
101.726588
 20
85.101924
 30
0.0
  0
SPLINE
  5
431
100
AcDbEntity
  8
0
 62
7
100
AcDbSpline
 70
8
 71
3
 72
8
 73
4
 74
0
 40
0
 40
0
 40
0
 40
0
 40
1
 40
1
 40
1
 40
1
 10
101.726588
 20
85.101924
 30
0.0
 10
101.388898
 20
85.316049
 30
0.0
 10
101.557712
 20
85.519206
 30
0.0
 10
102.343949
 20
85.844877
 30
0.0
  0
SPLINE
  5
432
100
AcDbEntity
  8
0
 62
7
100
AcDbSpline
 70
8
 71
3
 72
8
 73
4
 74
0
 40
0
 40
0
 40
0
 40
0
 40
1
 40
1
 40
1
 40
1
 10
102.343949
 20
85.844877
 30
0.0
 10
102.939128
 20
86.091406
 30
0.0
 10
103.426091
 20
86.414088
 30
0.0
 10
103.426091
 20
86.561947
 30
0.0
  0
SPLINE
  5
433
100
AcDbEntity
  8
0
 62
7
100
AcDbSpline
 70
8
 71
3
 72
8
 73
4
 74
0
 40
0
 40
0
 40
0
 40
0
 40
1
 40
1
 40
1
 40
1
 10
103.426091
 20
86.561947
 30
0.0
 10
103.426091
 20
86.950804
 30
0.0
 10
102.127637
 20
87.232202
 30
0.0
 10
101.780145
 20
86.918650
 30
0.0
  0
SPLINE
  5
434
100
AcDbEntity
  8
0
 62
7
100
AcDbSpline
 70
8
 71
3
 72
8
 73
4
 74
0
 40
0
 40
0
 40
0
 40
0
 40
1
 40
1
 40
1
 40
1
 10
101.780145
 20
86.918650
 30
0.0
 10
101.618263
 20
86.772581
 30
0.0
 10
100.730583
 20
86.372054
 30
0.0
 10
99.807522
 20
86.028598
 30
0.0
  0
SPLINE
  5
435
100
AcDbEntity
  8
0
 62
7
100
AcDbSpline
 70
8
 71
3
 72
8
 73
4
 74
0
 40
0
 40
0
 40
0
 40
0
 40
1
 40
1
 40
1
 40
1
 10
99.807522
 20
86.028598
 30
0.0
 10
98.410677
 20
85.508846
 30
0.0
 10
98.200303
 20
85.318484
 30
0.0
 10
98.553041
 20
84.893463
 30
0.0
  0
SPLINE
  5
436
100
AcDbEntity
  8
0
 62
7
100
AcDbSpline
 70
8
 71
3
 72
8
 73
4
 74
0
 40
0
 40
0
 40
0
 40
0
 40
1
 40
1
 40
1
 40
1
 10
98.553041
 20
84.893463
 30
0.0
 10
98.832910
 20
84.556242
 30
0.0
 10
99.328024
 20
84.453041
 30
0.0
 10
100.010846
 20
84.589606
 30
0.0
  0
SPLINE
  5
437
100
AcDbEntity
  8
0
 62
7
100
AcDbSpline
 70
8
 71
3
 72
8
 73
4
 74
0
 40
0
 40
0
 40
0
 40
0
 40
1
 40
1
 40
1
 40
1
 10
100.010846
 20
84.589606
 30
0.0
 10
100.579541
 20
84.703344
 30
0.0
 10
101.302809
 20
84.798834
 30
0.0
 10
101.618105
 20
84.801806
 30
0.0
  0
LINE
  5
438
100
AcDbEntity
  8
0
 62
7
100
AcDbLine
 10
101.618105
 20
84.801806
 30
0.0
 11
101.618105
 21
84.801806
 31
0.0
  0
SPLINE
  5
439
100
AcDbEntity
  8
0
 62
7
100
AcDbSpline
 70
8
 71
3
 72
8
 73
4
 74
0
 40
0
 40
0
 40
0
 40
0
 40
1
 40
1
 40
1
 40
1
 10
129.178868
 20
85.219738
 30
0.0
 10
129.178868
 20
85.789623
 30
0.0
 10
129.074548
 20
85.891528
 30
0.0
 10
128.786272
 20
85.603252
 30
0.0
  0
SPLINE
  5
43a
100
AcDbEntity
  8
0
 62
7
100
AcDbSpline
 70
8
 71
3
 72
8
 73
4
 74
0
 40
0
 40
0
 40
0
 40
0
 40
1
 40
1
 40
1
 40
1
 10
128.786272
 20
85.603252
 30
0.0
 10
128.570347
 20
85.387330
 30
0.0
 10
128.500338
 20
85.038080
 30
0.0
 10
128.630705
 20
84.827141
 30
0.0
  0
SPLINE
  5
43b
100
AcDbEntity
  8
0
 62
7
100
AcDbSpline
 70
8
 71
3
 72
8
 73
4
 74
0
 40
0
 40
0
 40
0
 40
0
 40
1
 40
1
 40
1
 40
1
 10
128.630705
 20
84.827141
 30
0.0
 10
128.995616
 20
84.236704
 30
0.0
 10
129.178868
 20
84.367951
 30
0.0
 10
129.178868
 20
85.219738
 30
0.0
  0
LINE
  5
43c
100
AcDbEntity
  8
0
 62
7
100
AcDbLine
 10
129.178868
 20
85.219738
 30
0.0
 11
129.178868
 21
85.219738
 31
0.0
  0
SPLINE
  5
43d
100
AcDbEntity
  8
0
 62
7
100
AcDbSpline
 70
8
 71
3
 72
8
 73
4
 74
0
 40
0
 40
0
 40
0
 40
0
 40
1
 40
1
 40
1
 40
1
 10
137.252160
 20
84.923873
 30
0.0
 10
137.571703
 20
85.308903
 30
0.0
 10
137.317971
 20
85.527938
 30
0.0
 10
135.972437
 20
86.028598
 30
0.0
  0
SPLINE
  5
43e
100
AcDbEntity
  8
0
 62
7
100
AcDbSpline
 70
8
 71
3
 72
8
 73
4
 74
0
 40
0
 40
0
 40
0
 40
0
 40
1
 40
1
 40
1
 40
1
 10
135.972437
 20
86.028598
 30
0.0
 10
135.049376
 20
86.372054
 30
0.0
 10
134.161697
 20
86.772581
 30
0.0
 10
133.999814
 20
86.918650
 30
0.0
  0
SPLINE
  5
43f
100
AcDbEntity
  8
0
 62
7
100
AcDbSpline
 70
8
 71
3
 72
8
 73
4
 74
0
 40
0
 40
0
 40
0
 40
0
 40
1
 40
1
 40
1
 40
1
 10
133.999814
 20
86.918650
 30
0.0
 10
133.650143
 20
87.234166
 30
0.0
 10
132.353868
 20
86.949695
 30
0.0
 10
132.353868
 20
86.557454
 30
0.0
  0
SPLINE
  5
440
100
AcDbEntity
  8
0
 62
7
100
AcDbSpline
 70
8
 71
3
 72
8
 73
4
 74
0
 40
0
 40
0
 40
0
 40
0
 40
1
 40
1
 40
1
 40
1
 10
132.353868
 20
86.557454
 30
0.0
 10
132.353868
 20
86.194722
 30
0.0
 10
134.980508
 20
85.155797
 30
0.0
 10
135.976981
 20
85.124386
 30
0.0
  0
SPLINE
  5
441
100
AcDbEntity
  8
0
 62
7
100
AcDbSpline
 70
8
 71
3
 72
8
 73
4
 74
0
 40
0
 40
0
 40
0
 40
0
 40
1
 40
1
 40
1
 40
1
 10
135.976981
 20
85.124386
 30
0.0
 10
136.730181
 20
85.100651
 30
0.0
 10
136.733624
 20
85.086715
 30
0.0
 10
136.058035
 20
84.796404
 30
0.0
  0
SPLINE
  5
442
100
AcDbEntity
  8
0
 62
7
100
AcDbSpline
 70
8
 71
3
 72
8
 73
4
 74
0
 40
0
 40
0
 40
0
 40
0
 40
1
 40
1
 40
1
 40
1
 10
136.058035
 20
84.796404
 30
0.0
 10
135.369856
 20
84.500683
 30
0.0
 10
135.370965
 20
84.492606
 30
0.0
 10
136.103035
 20
84.468422
 30
0.0
  0
SPLINE
  5
443
100
AcDbEntity
  8
0
 62
7
100
AcDbSpline
 70
8
 71
3
 72
8
 73
4
 74
0
 40
0
 40
0
 40
0
 40
0
 40
1
 40
1
 40
1
 40
1
 10
136.103035
 20
84.468422
 30
0.0
 10
136.515839
 20
84.454763
 30
0.0
 10
137.032944
 20
84.659738
 30
0.0
 10
137.252160
 20
84.923873
 30
0.0
  0
LINE
  5
444
100
AcDbEntity
  8
0
 62
7
100
AcDbLine
 10
137.252160
 20
84.923873
 30
0.0
 11
137.252160
 21
84.923873
 31
0.0
  0
SPLINE
  5
445
100
AcDbEntity
  8
0
 62
7
100
AcDbSpline
 70
8
 71
3
 72
8
 73
4
 74
0
 40
0
 40
0
 40
0
 40
0
 40
1
 40
1
 40
1
 40
1
 10
76.564278
 20
85.307681
 30
0.0
 10
77.727017
 20
85.717919
 30
0.0
 10
82.544104
 20
89.231174
 30
0.0
 10
84.199702
 20
90.876436
 30
0.0
  0
SPLINE
  5
446
100
AcDbEntity
  8
0
 62
7
100
AcDbSpline
 70
8
 71
3
 72
8
 73
4
 74
0
 40
0
 40
0
 40
0
 40
0
 40
1
 40
1
 40
1
 40
1
 10
84.199702
 20
90.876436
 30
0.0
 10
85.101300
 20
91.772404
 30
0.0
 10
81.958363
 20
89.850973
 30
0.0
 10
80.261305
 20
88.468700
 30
0.0
  0
SPLINE
  5
447
100
AcDbEntity
  8
0
 62
7
100
AcDbSpline
 70
8
 71
3
 72
8
 73
4
 74
0
 40
0
 40
0
 40
0
 40
0
 40
1
 40
1
 40
1
 40
1
 10
80.261305
 20
88.468700
 30
0.0
 10
78.483615
 20
87.020753
 30
0.0
 10
77.346799
 20
86.452134
 30
0.0
 10
77.846665
 20
87.260935
 30
0.0
  0
SPLINE
  5
448
100
AcDbEntity
  8
0
 62
7
100
AcDbSpline
 70
8
 71
3
 72
8
 73
4
 74
0
 40
0
 40
0
 40
0
 40
0
 40
1
 40
1
 40
1
 40
1
 10
77.846665
 20
87.260935
 30
0.0
 10
77.964908
 20
87.452259
 30
0.0
 10
77.326117
 20
87.293495
 30
0.0
 10
76.427127
 20
86.908157
 30
0.0
  0
SPLINE
  5
449
100
AcDbEntity
  8
0
 62
7
100
AcDbSpline
 70
8
 71
3
 72
8
 73
4
 74
0
 40
0
 40
0
 40
0
 40
0
 40
1
 40
1
 40
1
 40
1
 10
76.427127
 20
86.908157
 30
0.0
 10
74.365513
 20
86.024443
 30
0.0
 10
74.094185
 20
86.034558
 30
0.0
 10
75.203868
 20
86.953753
 30
0.0
  0
SPLINE
  5
44a
100
AcDbEntity
  8
0
 62
7
100
AcDbSpline
 70
8
 71
3
 72
8
 73
4
 74
0
 40
0
 40
0
 40
0
 40
0
 40
1
 40
1
 40
1
 40
1
 10
75.203868
 20
86.953753
 30
0.0
 10
75.925790
 20
87.551751
 30
0.0
 10
75.957794
 20
87.641151
 30
0.0
 10
75.380257
 20
87.446482
 30
0.0
  0
SPLINE
  5
44b
100
AcDbEntity
  8
0
 62
7
100
AcDbSpline
 70
8
 71
3
 72
8
 73
4
 74
0
 40
0
 40
0
 40
0
 40
0
 40
1
 40
1
 40
1
 40
1
 10
75.380257
 20
87.446482
 30
0.0
 10
74.992202
 20
87.315675
 30
0.0
 10
73.722202
 20
87.056759
 30
0.0
 10
72.558035
 20
86.871102
 30
0.0
  0
SPLINE
  5
44c
100
AcDbEntity
  8
0
 62
7
100
AcDbSpline
 70
8
 71
3
 72
8
 73
4
 74
0
 40
0
 40
0
 40
0
 40
0
 40
1
 40
1
 40
1
 40
1
 10
72.558035
 20
86.871102
 30
0.0
 10
68.778399
 20
86.268343
 30
0.0
 10
68.446814
 20
85.921096
 30
0.0
 10
70.970535
 20
85.208615
 30
0.0
  0
SPLINE
  5
44d
100
AcDbEntity
  8
0
 62
7
100
AcDbSpline
 70
8
 71
3
 72
8
 73
4
 74
0
 40
0
 40
0
 40
0
 40
0
 40
1
 40
1
 40
1
 40
1
 10
70.970535
 20
85.208615
 30
0.0
 10
72.797783
 20
84.692758
 30
0.0
 10
74.928349
 20
84.730491
 30
0.0
 10
76.564278
 20
85.307681
 30
0.0
  0
LINE
  5
44e
100
AcDbEntity
  8
0
 62
7
100
AcDbLine
 10
76.564278
 20
85.307681
 30
0.0
 11
76.564278
 21
85.307681
 31
0.0
  0
SPLINE
  5
44f
100
AcDbEntity
  8
0
 62
7
100
AcDbSpline
 70
8
 71
3
 72
8
 73
4
 74
0
 40
0
 40
0
 40
0
 40
0
 40
1
 40
1
 40
1
 40
1
 10
134.727769
 20
85.009541
 30
0.0
 10
134.610546
 20
85.126765
 30
0.0
 10
134.306270
 20
85.139296
 30
0.0
 10
134.051613
 20
85.037368
 30
0.0
  0
SPLINE
  5
450
100
AcDbEntity
  8
0
 62
7
100
AcDbSpline
 70
8
 71
3
 72
8
 73
4
 74
0
 40
0
 40
0
 40
0
 40
0
 40
1
 40
1
 40
1
 40
1
 10
134.051613
 20
85.037368
 30
0.0
 10
133.770189
 20
84.924753
 30
0.0
 10
133.853781
 20
84.841159
 30
0.0
 10
134.264750
 20
84.824234
 30
0.0
  0
SPLINE
  5
451
100
AcDbEntity
  8
0
 62
7
100
AcDbSpline
 70
8
 71
3
 72
8
 73
4
 74
0
 40
0
 40
0
 40
0
 40
0
 40
1
 40
1
 40
1
 40
1
 10
134.264750
 20
84.824234
 30
0.0
 10
134.636634
 20
84.808938
 30
0.0
 10
134.844996
 20
84.892295
 30
0.0
 10
134.727769
 20
85.009519
 30
0.0
  0
LINE
  5
452
100
AcDbEntity
  8
0
 62
7
100
AcDbLine
 10
134.727769
 20
85.009519
 30
0.0
 11
134.727769
 21
85.009541
 31
0.0
  0
LINE
  5
453
100
AcDbEntity
  8
0
 62
7
100
AcDbLine
 10
165.691778
 20
85.693247
 30
0.0
 11
167.102480
 21
86.320133
 31
0.0
  0
LINE
  5
454
100
AcDbEntity
  8
0
 62
7
100
AcDbLine
 10
167.102480
 20
86.320133
 30
0.0
 11
165.338591
 21
86.573126
 31
0.0
  0
SPLINE
  5
455
100
AcDbEntity
  8
0
 62
7
100
AcDbSpline
 70
8
 71
3
 72
8
 73
4
 74
0
 40
0
 40
0
 40
0
 40
0
 40
1
 40
1
 40
1
 40
1
 10
165.338591
 20
86.573126
 30
0.0
 10
162.292182
 20
87.010071
 30
0.0
 10
160.796162
 20
87.583504
 30
0.0
 10
159.395617
 20
88.851097
 30
0.0
  0
SPLINE
  5
456
100
AcDbEntity
  8
0
 62
7
100
AcDbSpline
 70
8
 71
3
 72
8
 73
4
 74
0
 40
0
 40
0
 40
0
 40
0
 40
1
 40
1
 40
1
 40
1
 10
159.395617
 20
88.851097
 30
0.0
 10
158.078878
 20
90.042845
 30
0.0
 10
155.660031
 20
91.004266
 30
0.0
 10
154.817231
 20
90.670877
 30
0.0
  0
SPLINE
  5
457
100
AcDbEntity
  8
0
 62
7
100
AcDbSpline
 70
8
 71
3
 72
8
 73
4
 74
0
 40
0
 40
0
 40
0
 40
0
 40
1
 40
1
 40
1
 40
1
 10
154.817231
 20
90.670877
 30
0.0
 10
154.589116
 20
90.580642
 30
0.0
 10
154.892666
 20
90.397903
 30
0.0
 10
155.491775
 20
90.264793
 30
0.0
  0
SPLINE
  5
458
100
AcDbEntity
  8
0
 62
7
100
AcDbSpline
 70
8
 71
3
 72
8
 73
4
 74
0
 40
0
 40
0
 40
0
 40
0
 40
1
 40
1
 40
1
 40
1
 10
155.491775
 20
90.264793
 30
0.0
 10
156.090891
 20
90.131677
 30
0.0
 10
157.514008
 20
89.324965
 30
0.0
 10
158.654256
 20
88.472095
 30
0.0
  0
SPLINE
  5
459
100
AcDbEntity
  8
0
 62
7
100
AcDbSpline
 70
8
 71
3
 72
8
 73
4
 74
0
 40
0
 40
0
 40
0
 40
0
 40
1
 40
1
 40
1
 40
1
 10
158.654256
 20
88.472095
 30
0.0
 10
159.794507
 20
87.619222
 30
0.0
 10
160.875949
 20
86.871917
 30
0.0
 10
161.057460
 20
86.811412
 30
0.0
  0
SPLINE
  5
45a
100
AcDbEntity
  8
0
 62
7
100
AcDbSpline
 70
8
 71
3
 72
8
 73
4
 74
0
 40
0
 40
0
 40
0
 40
0
 40
1
 40
1
 40
1
 40
1
 10
161.057460
 20
86.811412
 30
0.0
 10
161.238971
 20
86.750906
 30
0.0
 10
161.323980
 20
86.513966
 30
0.0
 10
161.246368
 20
86.284875
 30
0.0
  0
SPLINE
  5
45b
100
AcDbEntity
  8
0
 62
7
100
AcDbSpline
 70
8
 71
3
 72
8
 73
4
 74
0
 40
0
 40
0
 40
0
 40
0
 40
1
 40
1
 40
1
 40
1
 10
161.246368
 20
86.284875
 30
0.0
 10
161.063864
 20
85.746161
 30
0.0
 10
157.845235
 20
87.217532
 30
0.0
 10
156.912970
 20
88.265861
 30
0.0
  0
SPLINE
  5
45c
100
AcDbEntity
  8
0
 62
7
100
AcDbSpline
 70
8
 71
3
 72
8
 73
4
 74
0
 40
0
 40
0
 40
0
 40
0
 40
1
 40
1
 40
1
 40
1
 10
156.912970
 20
88.265861
 30
0.0
 10
156.547493
 20
88.676844
 30
0.0
 10
156.086401
 20
88.912940
 30
0.0
 10
155.888323
 20
88.790523
 30
0.0
  0
SPLINE
  5
45d
100
AcDbEntity
  8
0
 62
7
100
AcDbSpline
 70
8
 71
3
 72
8
 73
4
 74
0
 40
0
 40
0
 40
0
 40
0
 40
1
 40
1
 40
1
 40
1
 10
155.888323
 20
88.790523
 30
0.0
 10
155.687861
 20
88.666628
 30
0.0
 10
155.634941
 20
88.740674
 30
0.0
 10
155.768963
 20
88.957531
 30
0.0
  0
SPLINE
  5
45e
100
AcDbEntity
  8
0
 62
7
100
AcDbSpline
 70
8
 71
3
 72
8
 73
4
 74
0
 40
0
 40
0
 40
0
 40
0
 40
1
 40
1
 40
1
 40
1
 10
155.768963
 20
88.957531
 30
0.0
 10
155.902319
 20
89.173301
 30
0.0
 10
155.651197
 20
89.535384
 30
0.0
 10
155.206110
 20
89.769092
 30
0.0
  0
SPLINE
  5
45f
100
AcDbEntity
  8
0
 62
7
100
AcDbSpline
 70
8
 71
3
 72
8
 73
4
 74
0
 40
0
 40
0
 40
0
 40
0
 40
1
 40
1
 40
1
 40
1
 10
155.206110
 20
89.769092
 30
0.0
 10
154.764113
 20
90.001183
 30
0.0
 10
154.275528
 20
90.406022
 30
0.0
 10
154.120367
 20
90.668737
 30
0.0
  0
SPLINE
  5
460
100
AcDbEntity
  8
0
 62
7
100
AcDbSpline
 70
8
 71
3
 72
8
 73
4
 74
0
 40
0
 40
0
 40
0
 40
0
 40
1
 40
1
 40
1
 40
1
 10
154.120367
 20
90.668737
 30
0.0
 10
153.956004
 20
90.947031
 30
0.0
 10
153.233899
 20
91.146404
 30
0.0
 10
152.390303
 20
91.146404
 30
0.0
  0
LINE
  5
461
100
AcDbEntity
  8
0
 62
7
100
AcDbLine
 10
152.390303
 20
91.146404
 30
0.0
 11
150.942353
 21
91.146404
 31
0.0
  0
LINE
  5
462
100
AcDbEntity
  8
0
 62
7
100
AcDbLine
 10
150.942353
 20
91.146404
 30
0.0
 11
152.727417
 21
89.823488
 31
0.0
  0
SPLINE
  5
463
100
AcDbEntity
  8
0
 62
7
100
AcDbSpline
 70
8
 71
3
 72
8
 73
4
 74
0
 40
0
 40
0
 40
0
 40
0
 40
1
 40
1
 40
1
 40
1
 10
152.727417
 20
89.823488
 30
0.0
 10
153.709203
 20
89.095885
 30
0.0
 10
155.218946
 20
87.904859
 30
0.0
 10
156.082396
 20
87.176768
 30
0.0
  0
SPLINE
  5
464
100
AcDbEntity
  8
0
 62
7
100
AcDbSpline
 70
8
 71
3
 72
8
 73
4
 74
0
 40
0
 40
0
 40
0
 40
0
 40
1
 40
1
 40
1
 40
1
 10
156.082396
 20
87.176768
 30
0.0
 10
156.945849
 20
86.448674
 30
0.0
 10
158.270473
 20
85.616765
 30
0.0
 10
159.026005
 20
85.328071
 30
0.0
  0
SPLINE
  5
465
100
AcDbEntity
  8
0
 62
7
100
AcDbSpline
 70
8
 71
3
 72
8
 73
4
 74
0
 40
0
 40
0
 40
0
 40
0
 40
1
 40
1
 40
1
 40
1
 10
159.026005
 20
85.328071
 30
0.0
 10
160.734629
 20
84.675207
 30
0.0
 10
163.775779
 20
84.841811
 30
0.0
 10
165.691778
 20
85.693247
 30
0.0
  0
LINE
  5
466
100
AcDbEntity
  8
0
 62
7
100
AcDbLine
 10
165.691778
 20
85.693247
 30
0.0
 11
165.691778
 21
85.693247
 31
0.0
  0
SPLINE
  5
467
100
AcDbEntity
  8
0
 62
7
100
AcDbSpline
 70
8
 71
3
 72
8
 73
4
 74
0
 40
0
 40
0
 40
0
 40
0
 40
1
 40
1
 40
1
 40
1
 10
104.053149
 20
85.698355
 30
0.0
 10
104.484379
 20
86.000401
 30
0.0
 10
104.834772
 20
86.436962
 30
0.0
 10
104.831800
 20
86.668494
 30
0.0
  0
SPLINE
  5
468
100
AcDbEntity
  8
0
 62
7
100
AcDbSpline
 70
8
 71
3
 72
8
 73
4
 74
0
 40
0
 40
0
 40
0
 40
0
 40
1
 40
1
 40
1
 40
1
 10
104.831800
 20
86.668494
 30
0.0
 10
104.828272
 20
86.938694
 30
0.0
 10
104.713385
 20
86.910926
 30
0.0
 10
104.510843
 20
86.590968
 30
0.0
  0
SPLINE
  5
469
100
AcDbEntity
  8
0
 62
7
100
AcDbSpline
 70
8
 71
3
 72
8
 73
4
 74
0
 40
0
 40
0
 40
0
 40
0
 40
1
 40
1
 40
1
 40
1
 10
104.510843
 20
86.590968
 30
0.0
 10
104.337290
 20
86.316797
 30
0.0
 10
103.744409
 20
85.893128
 30
0.0
 10
103.193331
 20
85.649483
 30
0.0
  0
SPLINE
  5
46a
100
AcDbEntity
  8
0
 62
7
100
AcDbSpline
 70
8
 71
3
 72
8
 73
4
 74
0
 40
0
 40
0
 40
0
 40
0
 40
1
 40
1
 40
1
 40
1
 10
103.193331
 20
85.649483
 30
0.0
 10
102.642249
 20
85.405835
 30
0.0
 10
102.433857
 20
85.193598
 30
0.0
 10
102.730232
 20
85.177839
 30
0.0
  0
SPLINE
  5
46b
100
AcDbEntity
  8
0
 62
7
100
AcDbSpline
 70
8
 71
3
 72
8
 73
4
 74
0
 40
0
 40
0
 40
0
 40
0
 40
1
 40
1
 40
1
 40
1
 10
102.730232
 20
85.177839
 30
0.0
 10
103.026611
 20
85.162063
 30
0.0
 10
103.621925
 20
85.396316
 30
0.0
 10
104.053149
 20
85.698355
 30
0.0
  0
LINE
  5
46c
100
AcDbEntity
  8
0
 62
7
100
AcDbLine
 10
104.053149
 20
85.698355
 30
0.0
 11
104.053149
 21
85.698355
 31
0.0
  0
SPLINE
  5
46d
100
AcDbEntity
  8
0
 62
7
100
AcDbSpline
 70
8
 71
3
 72
8
 73
4
 74
0
 40
0
 40
0
 40
0
 40
0
 40
1
 40
1
 40
1
 40
1
 10
112.575475
 20
85.705863
 30
0.0
 10
111.677001
 20
86.788453
 30
0.0
 10
108.485500
 20
88.091986
 30
0.0
 10
103.899310
 20
89.249549
 30
0.0
  0
SPLINE
  5
46e
100
AcDbEntity
  8
0
 62
7
100
AcDbSpline
 70
8
 71
3
 72
8
 73
4
 74
0
 40
0
 40
0
 40
0
 40
0
 40
1
 40
1
 40
1
 40
1
 10
103.899310
 20
89.249549
 30
0.0
 10
98.076275
 20
90.719298
 30
0.0
 10
94.000111
 20
92.544067
 30
0.0
 10
92.555839
 20
94.327667
 30
0.0
  0
SPLINE
  5
46f
100
AcDbEntity
  8
0
 62
7
100
AcDbSpline
 70
8
 71
3
 72
8
 73
4
 74
0
 40
0
 40
0
 40
0
 40
0
 40
1
 40
1
 40
1
 40
1
 10
92.555839
 20
94.327667
 30
0.0
 10
92.195718
 20
94.772398
 30
0.0
 10
91.597014
 20
95.166713
 30
0.0
 10
91.225387
 20
95.203916
 30
0.0
  0
SPLINE
  5
470
100
AcDbEntity
  8
0
 62
7
100
AcDbSpline
 70
8
 71
3
 72
8
 73
4
 74
0
 40
0
 40
0
 40
0
 40
0
 40
1
 40
1
 40
1
 40
1
 10
91.225387
 20
95.203916
 30
0.0
 10
89.999004
 20
95.326700
 30
0.0
 10
88.786578
 20
96.106420
 30
0.0
 10
88.180810
 20
97.161906
 30
0.0
  0
SPLINE
  5
471
100
AcDbEntity
  8
0
 62
7
100
AcDbSpline
 70
8
 71
3
 72
8
 73
4
 74
0
 40
0
 40
0
 40
0
 40
0
 40
1
 40
1
 40
1
 40
1
 10
88.180810
 20
97.161906
 30
0.0
 10
87.643137
 20
98.098748
 30
0.0
 10
86.529601
 20
98.603026
 30
0.0
 10
86.468452
 20
97.937368
 30
0.0
  0
SPLINE
  5
472
100
AcDbEntity
  8
0
 62
7
100
AcDbSpline
 70
8
 71
3
 72
8
 73
4
 74
0
 40
0
 40
0
 40
0
 40
0
 40
1
 40
1
 40
1
 40
1
 10
86.468452
 20
97.937368
 30
0.0
 10
86.425123
 20
97.465710
 30
0.0
 10
86.205054
 20
95.918596
 30
0.0
 10
86.129732
 20
95.556118
 30
0.0
  0
SPLINE
  5
473
100
AcDbEntity
  8
0
 62
7
100
AcDbSpline
 70
8
 71
3
 72
8
 73
4
 74
0
 40
0
 40
0
 40
0
 40
0
 40
1
 40
1
 40
1
 40
1
 10
86.129732
 20
95.556118
 30
0.0
 10
85.985604
 20
94.862509
 30
0.0
 10
86.150504
 20
94.403139
 30
0.0
 10
86.873783
 20
93.483667
 30
0.0
  0
SPLINE
  5
474
100
AcDbEntity
  8
0
 62
7
100
AcDbSpline
 70
8
 71
3
 72
8
 73
4
 74
0
 40
0
 40
0
 40
0
 40
0
 40
1
 40
1
 40
1
 40
1
 10
86.873783
 20
93.483667
 30
0.0
 10
87.632760
 20
92.518786
 30
0.0
 10
88.385579
 20
92.516585
 30
0.0
 10
88.015755
 20
93.480506
 30
0.0
  0
SPLINE
  5
475
100
AcDbEntity
  8
0
 62
7
100
AcDbSpline
 70
8
 71
3
 72
8
 73
4
 74
0
 40
0
 40
0
 40
0
 40
0
 40
1
 40
1
 40
1
 40
1
 10
88.015755
 20
93.480506
 30
0.0
 10
87.865156
 20
93.872967
 30
0.0
 10
87.732830
 20
93.910079
 30
0.0
 10
87.548362
 20
93.611598
 30
0.0
  0
SPLINE
  5
476
100
AcDbEntity
  8
0
 62
7
100
AcDbSpline
 70
8
 71
3
 72
8
 73
4
 74
0
 40
0
 40
0
 40
0
 40
0
 40
1
 40
1
 40
1
 40
1
 10
87.548362
 20
93.611598
 30
0.0
 10
87.103910
 20
92.892459
 30
0.0
 10
86.475880
 20
95.289582
 30
0.0
 10
86.850556
 20
96.275051
 30
0.0
  0
SPLINE
  5
477
100
AcDbEntity
  8
0
 62
7
100
AcDbSpline
 70
8
 71
3
 72
8
 73
4
 74
0
 40
0
 40
0
 40
0
 40
0
 40
1
 40
1
 40
1
 40
1
 10
86.850556
 20
96.275051
 30
0.0
 10
87.238335
 20
97.294996
 30
0.0
 10
87.919557
 20
97.456371
 30
0.0
 10
87.660830
 20
96.466999
 30
0.0
  0
SPLINE
  5
478
100
AcDbEntity
  8
0
 62
7
100
AcDbSpline
 70
8
 71
3
 72
8
 73
4
 74
0
 40
0
 40
0
 40
0
 40
0
 40
1
 40
1
 40
1
 40
1
 10
87.660830
 20
96.466999
 30
0.0
 10
87.563489
 20
96.094762
 30
0.0
 10
87.652900
 20
95.499448
 30
0.0
 10
87.859517
 20
95.144082
 30
0.0
  0
SPLINE
  5
479
100
AcDbEntity
  8
0
 62
7
100
AcDbSpline
 70
8
 71
3
 72
8
 73
4
 74
0
 40
0
 40
0
 40
0
 40
0
 40
1
 40
1
 40
1
 40
1
 10
87.859517
 20
95.144082
 30
0.0
 10
88.103831
 20
94.723887
 30
0.0
 10
88.238945
 20
94.667259
 30
0.0
 10
88.245919
 20
94.982129
 30
0.0
  0
SPLINE
  5
47a
100
AcDbEntity
  8
0
 62
7
100
AcDbSpline
 70
8
 71
3
 72
8
 73
4
 74
0
 40
0
 40
0
 40
0
 40
0
 40
1
 40
1
 40
1
 40
1
 10
88.245919
 20
94.982129
 30
0.0
 10
88.254555
 20
95.372428
 30
0.0
 10
88.359242
 20
95.381151
 30
0.0
 10
88.785813
 20
95.027129
 30
0.0
  0
SPLINE
  5
47b
100
AcDbEntity
  8
0
 62
7
100
AcDbSpline
 70
8
 71
3
 72
8
 73
4
 74
0
 40
0
 40
0
 40
0
 40
0
 40
1
 40
1
 40
1
 40
1
 10
88.785813
 20
95.027129
 30
0.0
 10
89.076855
 20
94.785586
 30
0.0
 10
89.314980
 20
94.419191
 30
0.0
 10
89.314980
 20
94.212921
 30
0.0
  0
SPLINE
  5
47c
100
AcDbEntity
  8
0
 62
7
100
AcDbSpline
 70
8
 71
3
 72
8
 73
4
 74
0
 40
0
 40
0
 40
0
 40
0
 40
1
 40
1
 40
1
 40
1
 10
89.314980
 20
94.212921
 30
0.0
 10
89.314980
 20
93.684468
 30
0.0
 10
90.762133
 20
92.204907
 30
0.0
 10
91.279009
 20
92.204907
 30
0.0
  0
SPLINE
  5
47d
100
AcDbEntity
  8
0
 62
7
100
AcDbSpline
 70
8
 71
3
 72
8
 73
4
 74
0
 40
0
 40
0
 40
0
 40
0
 40
1
 40
1
 40
1
 40
1
 10
91.279009
 20
92.204907
 30
0.0
 10
91.807640
 20
92.204907
 30
0.0
 10
92.217573
 20
93.179183
 30
0.0
 10
91.923243
 20
93.736047
 30
0.0
  0
SPLINE
  5
47e
100
AcDbEntity
  8
0
 62
7
100
AcDbSpline
 70
8
 71
3
 72
8
 73
4
 74
0
 40
0
 40
0
 40
0
 40
0
 40
1
 40
1
 40
1
 40
1
 10
91.923243
 20
93.736047
 30
0.0
 10
91.804304
 20
93.961074
 30
0.0
 10
92.081601
 20
93.709518
 30
0.0
 10
92.539456
 20
93.176996
 30
0.0
  0
SPLINE
  5
47f
100
AcDbEntity
  8
0
 62
7
100
AcDbSpline
 70
8
 71
3
 72
8
 73
4
 74
0
 40
0
 40
0
 40
0
 40
0
 40
1
 40
1
 40
1
 40
1
 10
92.539456
 20
93.176996
 30
0.0
 10
93.611302
 20
91.930401
 30
0.0
 10
98.897990
 20
89.660293
 30
0.0
 10
102.544146
 20
88.880975
 30
0.0
  0
SPLINE
  5
480
100
AcDbEntity
  8
0
 62
7
100
AcDbSpline
 70
8
 71
3
 72
8
 73
4
 74
0
 40
0
 40
0
 40
0
 40
0
 40
1
 40
1
 40
1
 40
1
 10
102.544146
 20
88.880975
 30
0.0
 10
106.177512
 20
88.104393
 30
0.0
 10
107.406807
 20
87.717444
 30
0.0
 10
109.760916
 20
86.609332
 30
0.0
  0
SPLINE
  5
481
100
AcDbEntity
  8
0
 62
7
100
AcDbSpline
 70
8
 71
3
 72
8
 73
4
 74
0
 40
0
 40
0
 40
0
 40
0
 40
1
 40
1
 40
1
 40
1
 10
109.760916
 20
86.609332
 30
0.0
 10
111.529125
 20
85.777014
 30
0.0
 10
111.615375
 20
85.683460
 30
0.0
 10
110.819249
 20
85.461421
 30
0.0
  0
SPLINE
  5
482
100
AcDbEntity
  8
0
 62
7
100
AcDbSpline
 70
8
 71
3
 72
8
 73
4
 74
0
 40
0
 40
0
 40
0
 40
0
 40
1
 40
1
 40
1
 40
1
 10
110.819249
 20
85.461421
 30
0.0
 10
110.144997
 20
85.273374
 30
0.0
 10
110.295083
 20
85.211869
 30
0.0
 10
111.494979
 20
85.184516
 30
0.0
  0
SPLINE
  5
483
100
AcDbEntity
  8
0
 62
7
100
AcDbSpline
 70
8
 71
3
 72
8
 73
4
 74
0
 40
0
 40
0
 40
0
 40
0
 40
1
 40
1
 40
1
 40
1
 10
111.494979
 20
85.184516
 30
0.0
 10
112.861790
 20
85.153365
 30
0.0
 10
112.984859
 20
85.212772
 30
0.0
 10
112.575475
 20
85.706037
 30
0.0
  0
LINE
  5
484
100
AcDbEntity
  8
0
 62
7
100
AcDbLine
 10
112.575475
 20
85.706037
 30
0.0
 11
112.575475
 21
85.705863
 31
0.0
  0
SPLINE
  5
485
100
AcDbEntity
  8
0
 62
7
100
AcDbSpline
 70
8
 71
3
 72
8
 73
4
 74
0
 40
0
 40
0
 40
0
 40
0
 40
1
 40
1
 40
1
 40
1
 10
128.343479
 20
85.883502
 30
0.0
 10
128.996968
 20
86.287376
 30
0.0
 10
129.531646
 20
86.679267
 30
0.0
 10
129.531646
 20
86.754366
 30
0.0
  0
SPLINE
  5
486
100
AcDbEntity
  8
0
 62
7
100
AcDbSpline
 70
8
 71
3
 72
8
 73
4
 74
0
 40
0
 40
0
 40
0
 40
0
 40
1
 40
1
 40
1
 40
1
 10
129.531646
 20
86.754366
 30
0.0
 10
129.531646
 20
86.948064
 30
0.0
 10
128.376677
 20
86.512169
 30
0.0
 10
127.883358
 20
86.132289
 30
0.0
  0
SPLINE
  5
487
100
AcDbEntity
  8
0
 62
7
100
AcDbSpline
 70
8
 71
3
 72
8
 73
4
 74
0
 40
0
 40
0
 40
0
 40
0
 40
1
 40
1
 40
1
 40
1
 10
127.883358
 20
86.132289
 30
0.0
 10
127.655901
 20
85.957136
 30
0.0
 10
126.703401
 20
85.862719
 30
0.0
 10
125.766692
 20
85.922471
 30
0.0
  0
LINE
  5
488
100
AcDbEntity
  8
0
 62
7
100
AcDbLine
 10
125.766692
 20
85.922471
 30
0.0
 11
124.063591
 21
86.031112
 31
0.0
  0
LINE
  5
489
100
AcDbEntity
  8
0
 62
7
100
AcDbLine
 10
124.063591
 20
86.031112
 30
0.0
 11
125.121924
 21
86.603781
 31
0.0
  0
SPLINE
  5
48a
100
AcDbEntity
  8
0
 62
7
100
AcDbSpline
 70
8
 71
3
 72
8
 73
4
 74
0
 40
0
 40
0
 40
0
 40
0
 40
1
 40
1
 40
1
 40
1
 10
125.121924
 20
86.603781
 30
0.0
 10
125.704007
 20
86.918752
 30
0.0
 10
126.577132
 20
87.292358
 30
0.0
 10
127.062202
 20
87.434019
 30
0.0
  0
SPLINE
  5
48b
100
AcDbEntity
  8
0
 62
7
100
AcDbSpline
 70
8
 71
3
 72
8
 73
4
 74
0
 40
0
 40
0
 40
0
 40
0
 40
1
 40
1
 40
1
 40
1
 10
127.062202
 20
87.434019
 30
0.0
 10
127.919706
 20
87.684449
 30
0.0
 10
127.924591
 20
87.676098
 30
0.0
 10
127.238591
 20
87.132705
 30
0.0
  0
SPLINE
  5
48c
100
AcDbEntity
  8
0
 62
7
100
AcDbSpline
 70
8
 71
3
 72
8
 73
4
 74
0
 40
0
 40
0
 40
0
 40
0
 40
1
 40
1
 40
1
 40
1
 10
127.238591
 20
87.132705
 30
0.0
 10
126.728612
 20
86.728740
 30
0.0
 10
127.241413
 20
86.810384
 30
0.0
 10
129.088487
 20
87.427235
 30
0.0
  0
SPLINE
  5
48d
100
AcDbEntity
  8
0
 62
7
100
AcDbSpline
 70
8
 71
3
 72
8
 73
4
 74
0
 40
0
 40
0
 40
0
 40
0
 40
1
 40
1
 40
1
 40
1
 10
129.088487
 20
87.427235
 30
0.0
 10
130.493984
 20
87.896613
 30
0.0
 10
131.922734
 20
88.277559
 30
0.0
 10
132.263487
 20
88.273786
 30
0.0
  0
SPLINE
  5
48e
100
AcDbEntity
  8
0
 62
7
100
AcDbSpline
 70
8
 71
3
 72
8
 73
4
 74
0
 40
0
 40
0
 40
0
 40
0
 40
1
 40
1
 40
1
 40
1
 10
132.263487
 20
88.273786
 30
0.0
 10
133.582427
 20
88.259166
 30
0.0
 10
142.937202
 20
92.231012
 30
0.0
 10
142.937202
 20
92.805620
 30
0.0
  0
SPLINE
  5
48f
100
AcDbEntity
  8
0
 62
7
100
AcDbSpline
 70
8
 71
3
 72
8
 73
4
 74
0
 40
0
 40
0
 40
0
 40
0
 40
1
 40
1
 40
1
 40
1
 10
142.937202
 20
92.805620
 30
0.0
 10
142.937202
 20
93.234044
 30
0.0
 10
144.673297
 20
95.026946
 30
0.0
 10
145.088147
 20
95.026946
 30
0.0
  0
SPLINE
  5
490
100
AcDbEntity
  8
0
 62
7
100
AcDbSpline
 70
8
 71
3
 72
8
 73
4
 74
0
 40
0
 40
0
 40
0
 40
0
 40
1
 40
1
 40
1
 40
1
 10
145.088147
 20
95.026946
 30
0.0
 10
145.285325
 20
95.026946
 30
0.0
 10
145.199526
 20
94.674123
 30
0.0
 10
144.897481
 20
94.242893
 30
0.0
  0
SPLINE
  5
491
100
AcDbEntity
  8
0
 62
7
100
AcDbSpline
 70
8
 71
3
 72
8
 73
4
 74
0
 40
0
 40
0
 40
0
 40
0
 40
1
 40
1
 40
1
 40
1
 10
144.897481
 20
94.242893
 30
0.0
 10
144.115082
 20
93.125857
 30
0.0
 10
144.214026
 20
92.876686
 30
0.0
 10
145.279183
 20
93.281658
 30
0.0
  0
SPLINE
  5
492
100
AcDbEntity
  8
0
 62
7
100
AcDbSpline
 70
8
 71
3
 72
8
 73
4
 74
0
 40
0
 40
0
 40
0
 40
0
 40
1
 40
1
 40
1
 40
1
 10
145.279183
 20
93.281658
 30
0.0
 10
146.572650
 20
93.773436
 30
0.0
 10
146.738786
 20
93.432853
 30
0.0
 10
145.526029
 20
92.775625
 30
0.0
  0
SPLINE
  5
493
100
AcDbEntity
  8
0
 62
7
100
AcDbSpline
 70
8
 71
3
 72
8
 73
4
 74
0
 40
0
 40
0
 40
0
 40
0
 40
1
 40
1
 40
1
 40
1
 10
145.526029
 20
92.775625
 30
0.0
 10
144.243112
 20
92.080371
 30
0.0
 10
145.109043
 20
92.032709
 30
0.0
 10
146.447595
 20
92.724899
 30
0.0
  0
SPLINE
  5
494
100
AcDbEntity
  8
0
 62
7
100
AcDbSpline
 70
8
 71
3
 72
8
 73
4
 74
0
 40
0
 40
0
 40
0
 40
0
 40
1
 40
1
 40
1
 40
1
 10
146.447595
 20
92.724899
 30
0.0
 10
147.214929
 20
93.121706
 30
0.0
 10
147.561314
 20
93.665740
 30
0.0
 10
147.908078
 20
95.018736
 30
0.0
  0
SPLINE
  5
495
100
AcDbEntity
  8
0
 62
7
100
AcDbSpline
 70
8
 71
3
 72
8
 73
4
 74
0
 40
0
 40
0
 40
0
 40
0
 40
1
 40
1
 40
1
 40
1
 10
147.908078
 20
95.018736
 30
0.0
 10
148.197722
 20
96.148872
 30
0.0
 10
148.464417
 20
96.632116
 30
0.0
 10
148.643137
 20
96.350641
 30
0.0
  0
SPLINE
  5
496
100
AcDbEntity
  8
0
 62
7
100
AcDbSpline
 70
8
 71
3
 72
8
 73
4
 74
0
 40
0
 40
0
 40
0
 40
0
 40
1
 40
1
 40
1
 40
1
 10
148.643137
 20
96.350641
 30
0.0
 10
148.797402
 20
96.107682
 30
0.0
 10
148.937207
 20
96.067640
 30
0.0
 10
148.953815
 20
96.261668
 30
0.0
  0
SPLINE
  5
497
100
AcDbEntity
  8
0
 62
7
100
AcDbSpline
 70
8
 71
3
 72
8
 73
4
 74
0
 40
0
 40
0
 40
0
 40
0
 40
1
 40
1
 40
1
 40
1
 10
148.953815
 20
96.261668
 30
0.0
 10
148.970438
 20
96.455696
 30
0.0
 10
149.111662
 20
96.296946
 30
0.0
 10
149.267675
 20
95.908890
 30
0.0
  0
SPLINE
  5
498
100
AcDbEntity
  8
0
 62
7
100
AcDbSpline
 70
8
 71
3
 72
8
 73
4
 74
0
 40
0
 40
0
 40
0
 40
0
 40
1
 40
1
 40
1
 40
1
 10
149.267675
 20
95.908890
 30
0.0
 10
149.424562
 20
95.518670
 30
0.0
 10
149.397751
 20
94.908393
 30
0.0
 10
149.207686
 20
94.543400
 30
0.0
  0
SPLINE
  5
499
100
AcDbEntity
  8
0
 62
7
100
AcDbSpline
 70
8
 71
3
 72
8
 73
4
 74
0
 40
0
 40
0
 40
0
 40
0
 40
1
 40
1
 40
1
 40
1
 10
149.207686
 20
94.543400
 30
0.0
 10
148.969465
 20
94.085932
 30
0.0
 10
148.980076
 20
93.955190
 30
0.0
 10
149.242292
 20
94.117239
 30
0.0
  0
SPLINE
  5
49a
100
AcDbEntity
  8
0
 62
7
100
AcDbSpline
 70
8
 71
3
 72
8
 73
4
 74
0
 40
0
 40
0
 40
0
 40
0
 40
1
 40
1
 40
1
 40
1
 10
149.242292
 20
94.117239
 30
0.0
 10
149.776231
 20
94.447230
 30
0.0
 10
150.483782
 20
96.980090
 30
0.0
 10
150.228133
 20
97.646295
 30
0.0
  0
SPLINE
  5
49b
100
AcDbEntity
  8
0
 62
7
100
AcDbSpline
 70
8
 71
3
 72
8
 73
4
 74
0
 40
0
 40
0
 40
0
 40
0
 40
1
 40
1
 40
1
 40
1
 10
150.228133
 20
97.646295
 30
0.0
 10
149.883450
 20
98.544527
 30
0.0
 10
148.441895
 20
98.286796
 30
0.0
 10
147.020712
 20
97.072848
 30
0.0
  0
SPLINE
  5
49c
100
AcDbEntity
  8
0
 62
7
100
AcDbSpline
 70
8
 71
3
 72
8
 73
4
 74
0
 40
0
 40
0
 40
0
 40
0
 40
1
 40
1
 40
1
 40
1
 10
147.020712
 20
97.072848
 30
0.0
 10
146.293693
 20
96.451843
 30
0.0
 10
145.414086
 20
95.777157
 30
0.0
 10
145.066032
 20
95.573542
 30
0.0
  0
SPLINE
  5
49d
100
AcDbEntity
  8
0
 62
7
100
AcDbSpline
 70
8
 71
3
 72
8
 73
4
 74
0
 40
0
 40
0
 40
0
 40
0
 40
1
 40
1
 40
1
 40
1
 10
145.066032
 20
95.573542
 30
0.0
 10
144.717982
 20
95.369928
 30
0.0
 10
143.534392
 20
94.518765
 30
0.0
 10
142.435831
 20
93.682072
 30
0.0
  0
SPLINE
  5
49e
100
AcDbEntity
  8
0
 62
7
100
AcDbSpline
 70
8
 71
3
 72
8
 73
4
 74
0
 40
0
 40
0
 40
0
 40
0
 40
1
 40
1
 40
1
 40
1
 10
142.435831
 20
93.682072
 30
0.0
 10
139.807422
 20
91.680197
 30
0.0
 10
136.543161
 20
90.326498
 30
0.0
 10
131.717615
 20
89.237199
 30
0.0
  0
SPLINE
  5
49f
100
AcDbEntity
  8
0
 62
7
100
AcDbSpline
 70
8
 71
3
 72
8
 73
4
 74
0
 40
0
 40
0
 40
0
 40
0
 40
1
 40
1
 40
1
 40
1
 10
131.717615
 20
89.237199
 30
0.0
 10
127.176124
 20
88.212016
 30
0.0
 10
124.647294
 20
87.215698
 30
0.0
 10
123.507652
 20
86.002602
 30
0.0
  0
LINE
  5
4a0
100
AcDbEntity
  8
0
 62
7
100
AcDbLine
 10
123.507652
 20
86.002602
 30
0.0
 11
122.705879
 21
85.149182
 31
0.0
  0
LINE
  5
4a1
100
AcDbEntity
  8
0
 62
7
100
AcDbLine
 10
122.705879
 20
85.149182
 30
0.0
 11
124.930594
 21
85.149182
 31
0.0
  0
SPLINE
  5
4a2
100
AcDbEntity
  8
0
 62
7
100
AcDbSpline
 70
8
 71
3
 72
8
 73
4
 74
0
 40
0
 40
0
 40
0
 40
0
 40
1
 40
1
 40
1
 40
1
 10
124.930594
 20
85.149182
 30
0.0
 10
126.568643
 20
85.149182
 30
0.0
 10
127.468638
 20
85.342829
 30
0.0
 10
128.343479
 20
85.883510
 30
0.0
  0
LINE
  5
4a3
100
AcDbEntity
  8
0
 62
7
100
AcDbLine
 10
128.343479
 20
85.883510
 30
0.0
 11
128.343479
 21
85.883502
 31
0.0
  0
SPLINE
  5
4a4
100
AcDbEntity
  8
0
 62
7
100
AcDbSpline
 70
8
 71
3
 72
8
 73
4
 74
0
 40
0
 40
0
 40
0
 40
0
 40
1
 40
1
 40
1
 40
1
 10
132.417182
 20
85.685579
 30
0.0
 10
131.772911
 20
85.965414
 30
0.0
 10
131.345714
 20
86.356077
 30
0.0
 10
131.467863
 20
86.553717
 30
0.0
  0
SPLINE
  5
4a5
100
AcDbEntity
  8
0
 62
7
100
AcDbSpline
 70
8
 71
3
 72
8
 73
4
 74
0
 40
0
 40
0
 40
0
 40
0
 40
1
 40
1
 40
1
 40
1
 10
131.467863
 20
86.553717
 30
0.0
 10
131.590014
 20
86.751349
 30
0.0
 10
131.521835
 20
86.913057
 30
0.0
 10
131.316355
 20
86.913057
 30
0.0
  0
SPLINE
  5
4a6
100
AcDbEntity
  8
0
 62
7
100
AcDbSpline
 70
8
 71
3
 72
8
 73
4
 74
0
 40
0
 40
0
 40
0
 40
0
 40
1
 40
1
 40
1
 40
1
 10
131.316355
 20
86.913057
 30
0.0
 10
131.110877
 20
86.913057
 30
0.0
 10
130.942757
 20
86.699192
 30
0.0
 10
130.942757
 20
86.437797
 30
0.0
  0
SPLINE
  5
4a7
100
AcDbEntity
  8
0
 62
7
100
AcDbSpline
 70
8
 71
3
 72
8
 73
4
 74
0
 40
0
 40
0
 40
0
 40
0
 40
1
 40
1
 40
1
 40
1
 10
130.942757
 20
86.437797
 30
0.0
 10
130.942757
 20
85.932865
 30
0.0
 10
132.176627
 20
85.203648
 30
0.0
 10
133.059424
 20
85.186853
 30
0.0
  0
SPLINE
  5
4a8
100
AcDbEntity
  8
0
 62
7
100
AcDbSpline
 70
8
 71
3
 72
8
 73
4
 74
0
 40
0
 40
0
 40
0
 40
0
 40
1
 40
1
 40
1
 40
1
 10
133.059424
 20
85.186853
 30
0.0
 10
133.350466
 20
85.181321
 30
0.0
 10
133.061400
 20
85.405739
 30
0.0
 10
132.417182
 20
85.685574
 30
0.0
  0
LINE
  5
4a9
100
AcDbEntity
  8
0
 62
7
100
AcDbLine
 10
132.417182
 20
85.685574
 30
0.0
 11
132.417182
 21
85.685579
 31
0.0
  0
SPLINE
  5
4aa
100
AcDbEntity
  8
0
 62
7
100
AcDbSpline
 70
8
 71
3
 72
8
 73
4
 74
0
 40
0
 40
0
 40
0
 40
0
 40
1
 40
1
 40
1
 40
1
 10
98.279469
 20
86.610850
 30
0.0
 10
98.202377
 20
86.735672
 30
0.0
 10
98.535078
 20
86.937133
 30
0.0
 10
99.018807
 20
87.058542
 30
0.0
  0
SPLINE
  5
4ab
100
AcDbEntity
  8
0
 62
7
100
AcDbSpline
 70
8
 71
3
 72
8
 73
4
 74
0
 40
0
 40
0
 40
0
 40
0
 40
1
 40
1
 40
1
 40
1
 10
99.018807
 20
87.058542
 30
0.0
 10
99.502536
 20
87.179952
 30
0.0
 10
99.898313
 20
87.514385
 30
0.0
 10
99.898313
 20
87.801729
 30
0.0
  0
SPLINE
  5
4ac
100
AcDbEntity
  8
0
 62
7
100
AcDbSpline
 70
8
 71
3
 72
8
 73
4
 74
0
 40
0
 40
0
 40
0
 40
0
 40
1
 40
1
 40
1
 40
1
 10
99.898313
 20
87.801729
 30
0.0
 10
99.898313
 20
88.461904
 30
0.0
 10
99.217827
 20
88.454109
 30
0.0
 10
98.331582
 20
87.783808
 30
0.0
  0
SPLINE
  5
4ad
100
AcDbEntity
  8
0
 62
7
100
AcDbSpline
 70
8
 71
3
 72
8
 73
4
 74
0
 40
0
 40
0
 40
0
 40
0
 40
1
 40
1
 40
1
 40
1
 10
98.331582
 20
87.783808
 30
0.0
 10
97.954948
 20
87.498936
 30
0.0
 10
97.042137
 20
87.265860
 30
0.0
 10
96.303109
 20
87.265860
 30
0.0
  0
SPLINE
  5
4ae
100
AcDbEntity
  8
0
 62
7
100
AcDbSpline
 70
8
 71
3
 72
8
 73
4
 74
0
 40
0
 40
0
 40
0
 40
0
 40
1
 40
1
 40
1
 40
1
 10
96.303109
 20
87.265860
 30
0.0
 10
95.085614
 20
87.265860
 30
0.0
 10
94.655651
 20
86.981671
 30
0.0
 10
95.140142
 20
86.497180
 30
0.0
  0
SPLINE
  5
4af
100
AcDbEntity
  8
0
 62
7
100
AcDbSpline
 70
8
 71
3
 72
8
 73
4
 74
0
 40
0
 40
0
 40
0
 40
0
 40
1
 40
1
 40
1
 40
1
 10
95.140142
 20
86.497180
 30
0.0
 10
95.404505
 20
86.232814
 30
0.0
 10
98.444956
 20
86.342917
 30
0.0
 10
98.279469
 20
86.610867
 30
0.0
  0
LINE
  5
4b0
100
AcDbEntity
  8
0
 62
7
100
AcDbLine
 10
98.279469
 20
86.610867
 30
0.0
 11
98.279469
 21
86.610850
 31
0.0
  0
SPLINE
  5
4b1
100
AcDbEntity
  8
0
 62
7
100
AcDbSpline
 70
8
 71
3
 72
8
 73
4
 74
0
 40
0
 40
0
 40
0
 40
0
 40
1
 40
1
 40
1
 40
1
 10
140.752206
 20
86.884468
 30
0.0
 10
140.827698
 20
87.110934
 30
0.0
 10
140.360843
 20
87.265835
 30
0.0
 10
139.602800
 20
87.265835
 30
0.0
  0
SPLINE
  5
4b2
100
AcDbEntity
  8
0
 62
7
100
AcDbSpline
 70
8
 71
3
 72
8
 73
4
 74
0
 40
0
 40
0
 40
0
 40
0
 40
1
 40
1
 40
1
 40
1
 10
139.602800
 20
87.265835
 30
0.0
 10
138.900707
 20
87.265835
 30
0.0
 10
137.928474
 20
87.526478
 30
0.0
 10
137.442281
 20
87.845042
 30
0.0
  0
SPLINE
  5
4b3
100
AcDbEntity
  8
0
 62
7
100
AcDbSpline
 70
8
 71
3
 72
8
 73
4
 74
0
 40
0
 40
0
 40
0
 40
0
 40
1
 40
1
 40
1
 40
1
 10
137.442281
 20
87.845042
 30
0.0
 10
136.735989
 20
88.307827
 30
0.0
 10
136.383926
 20
88.344801
 30
0.0
 10
135.690808
 20
88.028994
 30
0.0
  0
SPLINE
  5
4b4
100
AcDbEntity
  8
0
 62
7
100
AcDbSpline
 70
8
 71
3
 72
8
 73
4
 74
0
 40
0
 40
0
 40
0
 40
0
 40
1
 40
1
 40
1
 40
1
 10
135.690808
 20
88.028994
 30
0.0
 10
135.036461
 20
87.730855
 30
0.0
 10
134.823313
 20
87.735898
 30
0.0
 10
134.823313
 20
88.049540
 30
0.0
  0
SPLINE
  5
4b5
100
AcDbEntity
  8
0
 62
7
100
AcDbSpline
 70
8
 71
3
 72
8
 73
4
 74
0
 40
0
 40
0
 40
0
 40
0
 40
1
 40
1
 40
1
 40
1
 10
134.823313
 20
88.049540
 30
0.0
 10
134.823313
 20
88.356767
 30
0.0
 10
134.708959
 20
88.350959
 30
0.0
 10
134.385290
 20
88.027273
 30
0.0
  0
SPLINE
  5
4b6
100
AcDbEntity
  8
0
 62
7
100
AcDbSpline
 70
8
 71
3
 72
8
 73
4
 74
0
 40
0
 40
0
 40
0
 40
0
 40
1
 40
1
 40
1
 40
1
 10
134.385290
 20
88.027273
 30
0.0
 10
134.036441
 20
87.678424
 30
0.0
 10
134.054398
 20
87.522719
 30
0.0
 10
134.473484
 20
87.262468
 30
0.0
  0
SPLINE
  5
4b7
100
AcDbEntity
  8
0
 62
7
100
AcDbSpline
 70
8
 71
3
 72
8
 73
4
 74
0
 40
0
 40
0
 40
0
 40
0
 40
1
 40
1
 40
1
 40
1
 10
134.473484
 20
87.262468
 30
0.0
 10
134.762903
 20
87.082734
 30
0.0
 10
135.047002
 20
87.072493
 30
0.0
 10
135.104813
 20
87.239721
 30
0.0
  0
SPLINE
  5
4b8
100
AcDbEntity
  8
0
 62
7
100
AcDbSpline
 70
8
 71
3
 72
8
 73
4
 74
0
 40
0
 40
0
 40
0
 40
0
 40
1
 40
1
 40
1
 40
1
 10
135.104813
 20
87.239721
 30
0.0
 10
135.162620
 20
87.406932
 30
0.0
 10
135.518023
 20
87.463170
 30
0.0
 10
135.894592
 20
87.364694
 30
0.0
  0
SPLINE
  5
4b9
100
AcDbEntity
  8
0
 62
7
100
AcDbSpline
 70
8
 71
3
 72
8
 73
4
 74
0
 40
0
 40
0
 40
0
 40
0
 40
1
 40
1
 40
1
 40
1
 10
135.894592
 20
87.364694
 30
0.0
 10
136.271161
 20
87.266221
 30
0.0
 10
136.506478
 20
87.067881
 30
0.0
 10
136.417518
 20
86.923942
 30
0.0
  0
SPLINE
  5
4ba
100
AcDbEntity
  8
0
 62
7
100
AcDbSpline
 70
8
 71
3
 72
8
 73
4
 74
0
 40
0
 40
0
 40
0
 40
0
 40
1
 40
1
 40
1
 40
1
 10
136.417518
 20
86.923942
 30
0.0
 10
136.328562
 20
86.780000
 30
0.0
 10
136.687535
 20
86.720872
 30
0.0
 10
137.215237
 20
86.792545
 30
0.0
  0
SPLINE
  5
4bb
100
AcDbEntity
  8
0
 62
7
100
AcDbSpline
 70
8
 71
3
 72
8
 73
4
 74
0
 40
0
 40
0
 40
0
 40
0
 40
1
 40
1
 40
1
 40
1
 10
137.215237
 20
86.792545
 30
0.0
 10
138.018054
 20
86.901584
 30
0.0
 10
138.059510
 20
86.872298
 30
0.0
 10
137.469146
 20
86.613153
 30
0.0
  0
SPLINE
  5
4bc
100
AcDbEntity
  8
0
 62
7
100
AcDbSpline
 70
8
 71
3
 72
8
 73
4
 74
0
 40
0
 40
0
 40
0
 40
0
 40
1
 40
1
 40
1
 40
1
 10
137.469146
 20
86.613153
 30
0.0
 10
136.979812
 20
86.398362
 30
0.0
 10
137.355281
 20
86.334044
 30
0.0
 10
138.694335
 20
86.403284
 30
0.0
  0
SPLINE
  5
4bd
100
AcDbEntity
  8
0
 62
7
100
AcDbSpline
 70
8
 71
3
 72
8
 73
4
 74
0
 40
0
 40
0
 40
0
 40
0
 40
1
 40
1
 40
1
 40
1
 10
138.694335
 20
86.403284
 30
0.0
 10
139.756247
 20
86.458191
 30
0.0
 10
140.682289
 20
86.674731
 30
0.0
 10
140.752206
 20
86.884490
 30
0.0
  0
LINE
  5
4be
100
AcDbEntity
  8
0
 62
7
100
AcDbLine
 10
140.752206
 20
86.884490
 30
0.0
 11
140.752206
 21
86.884468
 31
0.0
  0
SPLINE
  5
4bf
100
AcDbEntity
  8
0
 62
7
100
AcDbSpline
 70
8
 71
3
 72
8
 73
4
 74
0
 40
0
 40
0
 40
0
 40
0
 40
1
 40
1
 40
1
 40
1
 10
96.229972
 20
88.404686
 30
0.0
 10
97.091528
 20
88.797240
 30
0.0
 10
97.221853
 20
90.098273
 30
0.0
 10
96.426178
 20
90.363497
 30
0.0
  0
SPLINE
  5
4c0
100
AcDbEntity
  8
0
 62
7
100
AcDbSpline
 70
8
 71
3
 72
8
 73
4
 74
0
 40
0
 40
0
 40
0
 40
0
 40
1
 40
1
 40
1
 40
1
 10
96.426178
 20
90.363497
 30
0.0
 10
96.187593
 20
90.443025
 30
0.0
 10
96.100956
 20
90.281735
 30
0.0
 10
96.218177
 20
89.976260
 30
0.0
  0
SPLINE
  5
4c1
100
AcDbEntity
  8
0
 62
7
100
AcDbSpline
 70
8
 71
3
 72
8
 73
4
 74
0
 40
0
 40
0
 40
0
 40
0
 40
1
 40
1
 40
1
 40
1
 10
96.218177
 20
89.976260
 30
0.0
 10
96.475869
 20
89.304726
 30
0.0
 10
94.150719
 20
88.865936
 30
0.0
 10
92.137202
 20
89.206118
 30
0.0
  0
SPLINE
  5
4c2
100
AcDbEntity
  8
0
 62
7
100
AcDbSpline
 70
8
 71
3
 72
8
 73
4
 74
0
 40
0
 40
0
 40
0
 40
0
 40
1
 40
1
 40
1
 40
1
 10
92.137202
 20
89.206118
 30
0.0
 10
91.361091
 20
89.337244
 30
0.0
 10
90.728521
 20
89.311508
 30
0.0
 10
90.731492
 20
89.148934
 30
0.0
  0
SPLINE
  5
4c3
100
AcDbEntity
  8
0
 62
7
100
AcDbSpline
 70
8
 71
3
 72
8
 73
4
 74
0
 40
0
 40
0
 40
0
 40
0
 40
1
 40
1
 40
1
 40
1
 10
90.731492
 20
89.148934
 30
0.0
 10
90.740213
 20
88.673122
 30
0.0
 10
91.214123
 20
88.093908
 30
0.0
 10
91.784424
 20
87.862111
 30
0.0
  0
SPLINE
  5
4c4
100
AcDbEntity
  8
0
 62
7
100
AcDbSpline
 70
8
 71
3
 72
8
 73
4
 74
0
 40
0
 40
0
 40
0
 40
0
 40
1
 40
1
 40
1
 40
1
 10
91.784424
 20
87.862111
 30
0.0
 10
92.461873
 20
87.586761
 30
0.0
 10
95.156666
 20
87.915654
 30
0.0
 10
96.229972
 20
88.404686
 30
0.0
  0
LINE
  5
4c5
100
AcDbEntity
  8
0
 62
7
100
AcDbLine
 10
96.229972
 20
88.404686
 30
0.0
 11
96.229972
 21
88.404686
 31
0.0
  0
SPLINE
  5
4c6
100
AcDbEntity
  8
0
 62
7
100
AcDbSpline
 70
8
 71
3
 72
8
 73
4
 74
0
 40
0
 40
0
 40
0
 40
0
 40
1
 40
1
 40
1
 40
1
 10
144.701091
 20
88.324182
 30
0.0
 10
145.799319
 20
89.422410
 30
0.0
 10
145.555403
 20
89.672933
 30
0.0
 10
143.730952
 20
89.320582
 30
0.0
  0
SPLINE
  5
4c7
100
AcDbEntity
  8
0
 62
7
100
AcDbSpline
 70
8
 71
3
 72
8
 73
4
 74
0
 40
0
 40
0
 40
0
 40
0
 40
1
 40
1
 40
1
 40
1
 10
143.730952
 20
89.320582
 30
0.0
 10
142.809318
 20
89.142587
 30
0.0
 10
141.392870
 20
89.091595
 30
0.0
 10
140.583285
 20
89.207255
 30
0.0
  0
SPLINE
  5
4c8
100
AcDbEntity
  8
0
 62
7
100
AcDbSpline
 70
8
 71
3
 72
8
 73
4
 74
0
 40
0
 40
0
 40
0
 40
0
 40
1
 40
1
 40
1
 40
1
 10
140.583285
 20
89.207255
 30
0.0
 10
139.395635
 20
89.376930
 30
0.0
 10
139.039964
 20
89.294916
 30
0.0
 10
138.741929
 20
88.782669
 30
0.0
  0
SPLINE
  5
4c9
100
AcDbEntity
  8
0
 62
7
100
AcDbSpline
 70
8
 71
3
 72
8
 73
4
 74
0
 40
0
 40
0
 40
0
 40
0
 40
1
 40
1
 40
1
 40
1
 10
138.741929
 20
88.782669
 30
0.0
 10
138.449744
 20
88.280477
 30
0.0
 10
138.361572
 20
88.258385
 30
0.0
 10
138.320043
 20
88.676960
 30
0.0
  0
SPLINE
  5
4ca
100
AcDbEntity
  8
0
 62
7
100
AcDbSpline
 70
8
 71
3
 72
8
 73
4
 74
0
 40
0
 40
0
 40
0
 40
0
 40
1
 40
1
 40
1
 40
1
 10
138.320043
 20
88.676960
 30
0.0
 10
138.291149
 20
88.968001
 30
0.0
 10
138.286352
 20
89.325190
 30
0.0
 10
138.309319
 20
89.470710
 30
0.0
  0
SPLINE
  5
4cb
100
AcDbEntity
  8
0
 62
7
100
AcDbSpline
 70
8
 71
3
 72
8
 73
4
 74
0
 40
0
 40
0
 40
0
 40
0
 40
1
 40
1
 40
1
 40
1
 10
138.309319
 20
89.470710
 30
0.0
 10
138.332292
 20
89.616232
 30
0.0
 10
138.192341
 20
89.735293
 30
0.0
 10
137.998313
 20
89.735293
 30
0.0
  0
SPLINE
  5
4cc
100
AcDbEntity
  8
0
 62
7
100
AcDbSpline
 70
8
 71
3
 72
8
 73
4
 74
0
 40
0
 40
0
 40
0
 40
0
 40
1
 40
1
 40
1
 40
1
 10
137.998313
 20
89.735293
 30
0.0
 10
137.804285
 20
89.735293
 30
0.0
 10
137.645535
 20
89.412679
 30
0.0
 10
137.645535
 20
89.018372
 30
0.0
  0
SPLINE
  5
4cd
100
AcDbEntity
  8
0
 62
7
100
AcDbSpline
 70
8
 71
3
 72
8
 73
4
 74
0
 40
0
 40
0
 40
0
 40
0
 40
1
 40
1
 40
1
 40
1
 10
137.645535
 20
89.018372
 30
0.0
 10
137.645535
 20
88.050294
 30
0.0
 10
138.747319
 20
87.667911
 30
0.0
 10
141.614285
 20
87.640990
 30
0.0
  0
SPLINE
  5
4ce
100
AcDbEntity
  8
0
 62
7
100
AcDbSpline
 70
8
 71
3
 72
8
 73
4
 74
0
 40
0
 40
0
 40
0
 40
0
 40
1
 40
1
 40
1
 40
1
 10
141.614285
 20
87.640990
 30
0.0
 10
143.544310
 20
87.622871
 30
0.0
 10
144.129232
 20
87.752321
 30
0.0
 10
144.701091
 20
88.324182
 30
0.0
  0
LINE
  5
4cf
100
AcDbEntity
  8
0
 62
7
100
AcDbLine
 10
144.701091
 20
88.324182
 30
0.0
 11
144.701091
 21
88.324182
 31
0.0
  0
SPLINE
  5
4d0
100
AcDbEntity
  8
0
 62
7
100
AcDbSpline
 70
8
 71
3
 72
8
 73
4
 74
0
 40
0
 40
0
 40
0
 40
0
 40
1
 40
1
 40
1
 40
1
 10
139.642020
 20
88.235988
 30
0.0
 10
139.553019
 20
88.381510
 30
0.0
 10
140.615210
 20
88.520547
 30
0.0
 10
142.002451
 20
88.544953
 30
0.0
  0
SPLINE
  5
4d1
100
AcDbEntity
  8
0
 62
7
100
AcDbSpline
 70
8
 71
3
 72
8
 73
4
 74
0
 40
0
 40
0
 40
0
 40
0
 40
1
 40
1
 40
1
 40
1
 10
142.002451
 20
88.544953
 30
0.0
 10
143.585715
 20
88.572808
 30
0.0
 10
144.262038
 20
88.483547
 30
0.0
 10
143.819146
 20
88.305169
 30
0.0
  0
SPLINE
  5
4d2
100
AcDbEntity
  8
0
 62
7
100
AcDbSpline
 70
8
 71
3
 72
8
 73
4
 74
0
 40
0
 40
0
 40
0
 40
0
 40
1
 40
1
 40
1
 40
1
 10
143.819146
 20
88.305169
 30
0.0
 10
142.913128
 20
87.940255
 30
0.0
 10
139.853879
 20
87.889591
 30
0.0
 10
139.642020
 20
88.235988
 30
0.0
  0
LINE
  5
4d3
100
AcDbEntity
  8
0
 62
7
100
AcDbLine
 10
139.642020
 20
88.235988
 30
0.0
 11
139.642020
 21
88.235988
 31
0.0
  0
SPLINE
  5
4d4
100
AcDbEntity
  8
0
 62
7
100
AcDbSpline
 70
8
 71
3
 72
8
 73
4
 74
0
 40
0
 40
0
 40
0
 40
0
 40
1
 40
1
 40
1
 40
1
 10
73.087202
 20
89.412010
 30
0.0
 10
73.960327
 20
89.612778
 30
0.0
 10
75.865327
 20
90.312432
 30
0.0
 10
77.320535
 20
90.966795
 30
0.0
  0
SPLINE
  5
4d5
100
AcDbEntity
  8
0
 62
7
100
AcDbSpline
 70
8
 71
3
 72
8
 73
4
 74
0
 40
0
 40
0
 40
0
 40
0
 40
1
 40
1
 40
1
 40
1
 10
77.320535
 20
90.966795
 30
0.0
 10
78.887803
 20
91.671552
 30
0.0
 10
80.901122
 20
92.264261
 30
0.0
 10
82.259424
 20
92.420779
 30
0.0
  0
SPLINE
  5
4d6
100
AcDbEntity
  8
0
 62
7
100
AcDbSpline
 70
8
 71
3
 72
8
 73
4
 74
0
 40
0
 40
0
 40
0
 40
0
 40
1
 40
1
 40
1
 40
1
 10
82.259424
 20
92.420779
 30
0.0
 10
84.040520
 20
92.626011
 30
0.0
 10
84.355573
 20
92.741682
 30
0.0
 10
83.670535
 20
92.938871
 30
0.0
  0
SPLINE
  5
4d7
100
AcDbEntity
  8
0
 62
7
100
AcDbSpline
 70
8
 71
3
 72
8
 73
4
 74
0
 40
0
 40
0
 40
0
 40
0
 40
1
 40
1
 40
1
 40
1
 10
83.670535
 20
92.938871
 30
0.0
 10
81.606531
 20
93.533000
 30
0.0
 10
78.272445
 20
93.123684
 30
0.0
 10
75.092710
 20
91.885801
 30
0.0
  0
SPLINE
  5
4d8
100
AcDbEntity
  8
0
 62
7
100
AcDbSpline
 70
8
 71
3
 72
8
 73
4
 74
0
 40
0
 40
0
 40
0
 40
0
 40
1
 40
1
 40
1
 40
1
 10
75.092710
 20
91.885801
 30
0.0
 10
73.777746
 20
91.373884
 30
0.0
 10
73.621846
 20
91.397342
 30
0.0
 10
74.145535
 20
92.028349
 30
0.0
  0
SPLINE
  5
4d9
100
AcDbEntity
  8
0
 62
7
100
AcDbSpline
 70
8
 71
3
 72
8
 73
4
 74
0
 40
0
 40
0
 40
0
 40
0
 40
1
 40
1
 40
1
 40
1
 10
74.145535
 20
92.028349
 30
0.0
 10
74.697028
 20
92.692855
 30
0.0
 10
74.530529
 20
92.689144
 30
0.0
 10
72.100694
 20
91.982773
 30
0.0
  0
SPLINE
  5
4da
100
AcDbEntity
  8
0
 62
7
100
AcDbSpline
 70
8
 71
3
 72
8
 73
4
 74
0
 40
0
 40
0
 40
0
 40
0
 40
1
 40
1
 40
1
 40
1
 10
72.100694
 20
91.982773
 30
0.0
 10
70.682855
 20
91.570598
 30
0.0
 10
69.382002
 20
91.464124
 30
0.0
 10
67.501584
 20
91.606339
 30
0.0
  0
SPLINE
  5
4db
100
AcDbEntity
  8
0
 62
7
100
AcDbSpline
 70
8
 71
3
 72
8
 73
4
 74
0
 40
0
 40
0
 40
0
 40
0
 40
1
 40
1
 40
1
 40
1
 10
67.501584
 20
91.606339
 30
0.0
 10
64.500306
 20
91.833327
 30
0.0
 10
64.525926
 20
91.602811
 30
0.0
 10
67.672356
 20
90.070076
 30
0.0
  0
SPLINE
  5
4dc
100
AcDbEntity
  8
0
 62
7
100
AcDbSpline
 70
8
 71
3
 72
8
 73
4
 74
0
 40
0
 40
0
 40
0
 40
0
 40
1
 40
1
 40
1
 40
1
 10
67.672356
 20
90.070076
 30
0.0
 10
69.941623
 20
88.964632
 30
0.0
 10
70.726641
 20
88.869232
 30
0.0
 10
73.087202
 20
89.412010
 30
0.0
  0
LINE
  5
4dd
100
AcDbEntity
  8
0
 62
7
100
AcDbLine
 10
73.087202
 20
89.412010
 30
0.0
 11
73.087202
 21
89.412010
 31
0.0
  0
SPLINE
  5
4de
100
AcDbEntity
  8
0
 62
7
100
AcDbSpline
 70
8
 71
3
 72
8
 73
4
 74
0
 40
0
 40
0
 40
0
 40
0
 40
1
 40
1
 40
1
 40
1
 10
70.294376
 20
90.923217
 30
0.0
 10
70.710157
 20
91.289773
 30
0.0
 10
73.087202
 20
91.493340
 30
0.0
 10
73.087202
 20
91.162389
 30
0.0
  0
SPLINE
  5
4df
100
AcDbEntity
  8
0
 62
7
100
AcDbSpline
 70
8
 71
3
 72
8
 73
4
 74
0
 40
0
 40
0
 40
0
 40
0
 40
1
 40
1
 40
1
 40
1
 10
73.087202
 20
91.162389
 30
0.0
 10
73.087202
 20
90.959570
 30
0.0
 10
72.425743
 20
90.793626
 30
0.0
 10
71.617292
 20
90.793626
 30
0.0
  0
SPLINE
  5
4e0
100
AcDbEntity
  8
0
 62
7
100
AcDbSpline
 70
8
 71
3
 72
8
 73
4
 74
0
 40
0
 40
0
 40
0
 40
0
 40
1
 40
1
 40
1
 40
1
 10
71.617292
 20
90.793626
 30
0.0
 10
70.808847
 20
90.793626
 30
0.0
 10
70.213533
 20
90.851942
 30
0.0
 10
70.294376
 20
90.923217
 30
0.0
  0
LINE
  5
4e1
100
AcDbEntity
  8
0
 62
7
100
AcDbLine
 10
70.294376
 20
90.923217
 30
0.0
 11
70.294376
 21
90.923217
 31
0.0
  0
SPLINE
  5
4e2
100
AcDbEntity
  8
0
 62
7
100
AcDbSpline
 70
8
 71
3
 72
8
 73
4
 74
0
 40
0
 40
0
 40
0
 40
0
 40
1
 40
1
 40
1
 40
1
 10
80.893313
 20
89.616661
 30
0.0
 10
81.332338
 20
90.148862
 30
0.0
 10
81.303472
 20
90.164150
 30
0.0
 10
80.583730
 20
89.780638
 30
0.0
  0
SPLINE
  5
4e3
100
AcDbEntity
  8
0
 62
7
100
AcDbSpline
 70
8
 71
3
 72
8
 73
4
 74
0
 40
0
 40
0
 40
0
 40
0
 40
1
 40
1
 40
1
 40
1
 10
80.583730
 20
89.780638
 30
0.0
 10
79.762830
 20
89.343227
 30
0.0
 10
79.560699
 20
89.029738
 30
0.0
 10
80.099563
 20
89.029738
 30
0.0
  0
SPLINE
  5
4e4
100
AcDbEntity
  8
0
 62
7
100
AcDbSpline
 70
8
 71
3
 72
8
 73
4
 74
0
 40
0
 40
0
 40
0
 40
0
 40
1
 40
1
 40
1
 40
1
 10
80.099563
 20
89.029738
 30
0.0
 10
80.269831
 20
89.029738
 30
0.0
 10
80.627020
 20
89.293852
 30
0.0
 10
80.893313
 20
89.616661
 30
0.0
  0
LINE
  5
4e5
100
AcDbEntity
  8
0
 62
7
100
AcDbLine
 10
80.893313
 20
89.616661
 30
0.0
 11
80.893313
 21
89.616661
 31
0.0
  0
SPLINE
  5
4e6
100
AcDbEntity
  8
0
 62
7
100
AcDbSpline
 70
8
 71
3
 72
8
 73
4
 74
0
 40
0
 40
0
 40
0
 40
0
 40
1
 40
1
 40
1
 40
1
 10
167.675944
 20
89.880607
 30
0.0
 10
168.718735
 20
90.348587
 30
0.0
 10
169.889424
 20
90.990606
 30
0.0
 10
170.277480
 20
91.307319
 30
0.0
  0
SPLINE
  5
4e7
100
AcDbEntity
  8
0
 62
7
100
AcDbSpline
 70
8
 71
3
 72
8
 73
4
 74
0
 40
0
 40
0
 40
0
 40
0
 40
1
 40
1
 40
1
 40
1
 10
170.277480
 20
91.307319
 30
0.0
 10
170.939014
 20
91.847241
 30
0.0
 10
170.806135
 20
91.869308
 30
0.0
 10
168.147551
 20
91.661090
 30
0.0
  0
SPLINE
  5
4e8
100
AcDbEntity
  8
0
 62
7
100
AcDbSpline
 70
8
 71
3
 72
8
 73
4
 74
0
 40
0
 40
0
 40
0
 40
0
 40
1
 40
1
 40
1
 40
1
 10
168.147551
 20
91.661090
 30
0.0
 10
165.518857
 20
91.455209
 30
0.0
 10
165.025987
 20
91.533145
 30
0.0
 10
161.389218
 20
92.729767
 30
0.0
  0
SPLINE
  5
4e9
100
AcDbEntity
  8
0
 62
7
100
AcDbSpline
 70
8
 71
3
 72
8
 73
4
 74
0
 40
0
 40
0
 40
0
 40
0
 40
1
 40
1
 40
1
 40
1
 10
161.389218
 20
92.729767
 30
0.0
 10
157.645388
 20
93.961613
 30
0.0
 10
157.356209
 20
94.004268
 30
0.0
 10
155.052480
 20
93.664436
 30
0.0
  0
LINE
  5
4ea
100
AcDbEntity
  8
0
 62
7
100
AcDbLine
 10
155.052480
 20
93.664436
 30
0.0
 11
152.638591
 21
93.308356
 31
0.0
  0
LINE
  5
4eb
100
AcDbEntity
  8
0
 62
7
100
AcDbLine
 10
152.638591
 20
93.308356
 30
0.0
 11
155.170183
 21
93.383969
 31
0.0
  0
SPLINE
  5
4ec
100
AcDbEntity
  8
0
 62
7
100
AcDbSpline
 70
8
 71
3
 72
8
 73
4
 74
0
 40
0
 40
0
 40
0
 40
0
 40
1
 40
1
 40
1
 40
1
 10
155.170183
 20
93.383969
 30
0.0
 10
156.562563
 20
93.425555
 30
0.0
 10
157.673813
 20
93.316146
 30
0.0
 10
157.639628
 20
93.140840
 30
0.0
  0
SPLINE
  5
4ed
100
AcDbEntity
  8
0
 62
7
100
AcDbSpline
 70
8
 71
3
 72
8
 73
4
 74
0
 40
0
 40
0
 40
0
 40
0
 40
1
 40
1
 40
1
 40
1
 10
157.639628
 20
93.140840
 30
0.0
 10
157.605445
 20
92.965532
 30
0.0
 10
157.815605
 20
92.750482
 30
0.0
 10
158.106646
 20
92.662951
 30
0.0
  0
SPLINE
  5
4ee
100
AcDbEntity
  8
0
 62
7
100
AcDbSpline
 70
8
 71
3
 72
8
 73
4
 74
0
 40
0
 40
0
 40
0
 40
0
 40
1
 40
1
 40
1
 40
1
 10
158.106646
 20
92.662951
 30
0.0
 10
158.577015
 20
92.521484
 30
0.0
 10
158.577015
 20
92.545383
 30
0.0
 10
158.106646
 20
92.878035
 30
0.0
  0
SPLINE
  5
4ef
100
AcDbEntity
  8
0
 62
7
100
AcDbSpline
 70
8
 71
3
 72
8
 73
4
 74
0
 40
0
 40
0
 40
0
 40
0
 40
1
 40
1
 40
1
 40
1
 10
158.106646
 20
92.878035
 30
0.0
 10
157.517792
 20
93.294479
 30
0.0
 10
157.754532
 20
93.376044
 30
0.0
 10
158.604935
 20
93.049719
 30
0.0
  0
SPLINE
  5
4f0
100
AcDbEntity
  8
0
 62
7
100
AcDbSpline
 70
8
 71
3
 72
8
 73
4
 74
0
 40
0
 40
0
 40
0
 40
0
 40
1
 40
1
 40
1
 40
1
 10
158.604935
 20
93.049719
 30
0.0
 10
158.910728
 20
92.932371
 30
0.0
 10
159.057935
 20
92.669716
 30
0.0
 10
158.932059
 20
92.466044
 30
0.0
  0
SPLINE
  5
4f1
100
AcDbEntity
  8
0
 62
7
100
AcDbSpline
 70
8
 71
3
 72
8
 73
4
 74
0
 40
0
 40
0
 40
0
 40
0
 40
1
 40
1
 40
1
 40
1
 10
158.932059
 20
92.466044
 30
0.0
 10
158.799682
 20
92.251855
 30
0.0
 10
158.872270
 20
92.200222
 30
0.0
 10
159.104228
 20
92.343580
 30
0.0
  0
SPLINE
  5
4f2
100
AcDbEntity
  8
0
 62
7
100
AcDbSpline
 70
8
 71
3
 72
8
 73
4
 74
0
 40
0
 40
0
 40
0
 40
0
 40
1
 40
1
 40
1
 40
1
 10
159.104228
 20
92.343580
 30
0.0
 10
159.324802
 20
92.479901
 30
0.0
 10
160.100558
 20
92.186929
 30
0.0
 10
160.828129
 20
91.692532
 30
0.0
  0
SPLINE
  5
4f3
100
AcDbEntity
  8
0
 62
7
100
AcDbSpline
 70
8
 71
3
 72
8
 73
4
 74
0
 40
0
 40
0
 40
0
 40
0
 40
1
 40
1
 40
1
 40
1
 10
160.828129
 20
91.692532
 30
0.0
 10
162.466091
 20
90.579507
 30
0.0
 10
162.378988
 20
90.579688
 30
0.0
 10
159.138575
 20
91.696060
 30
0.0
  0
SPLINE
  5
4f4
100
AcDbEntity
  8
0
 62
7
100
AcDbSpline
 70
8
 71
3
 72
8
 73
4
 74
0
 40
0
 40
0
 40
0
 40
0
 40
1
 40
1
 40
1
 40
1
 10
159.138575
 20
91.696060
 30
0.0
 10
156.235849
 20
92.696089
 30
0.0
 10
151.870831
 20
93.332074
 30
0.0
 10
151.051091
 20
92.874409
 30
0.0
  0
SPLINE
  5
4f5
100
AcDbEntity
  8
0
 62
7
100
AcDbSpline
 70
8
 71
3
 72
8
 73
4
 74
0
 40
0
 40
0
 40
0
 40
0
 40
1
 40
1
 40
1
 40
1
 10
151.051091
 20
92.874409
 30
0.0
 10
150.702112
 20
92.679574
 30
0.0
 10
151.062492
 20
92.572386
 30
0.0
 10
152.109424
 20
92.559621
 30
0.0
  0
SPLINE
  5
4f6
100
AcDbEntity
  8
0
 62
7
100
AcDbSpline
 70
8
 71
3
 72
8
 73
4
 74
0
 40
0
 40
0
 40
0
 40
0
 40
1
 40
1
 40
1
 40
1
 10
152.109424
 20
92.559621
 30
0.0
 10
154.315981
 20
92.532725
 30
0.0
 10
156.237356
 20
92.040665
 30
0.0
 10
158.860024
 20
90.830809
 30
0.0
  0
SPLINE
  5
4f7
100
AcDbEntity
  8
0
 62
7
100
AcDbSpline
 70
8
 71
3
 72
8
 73
4
 74
0
 40
0
 40
0
 40
0
 40
0
 40
1
 40
1
 40
1
 40
1
 10
158.860024
 20
90.830809
 30
0.0
 10
163.227010
 20
88.816290
 30
0.0
 10
164.902038
 20
88.635750
 30
0.0
 10
167.675944
 20
89.880609
 30
0.0
  0
LINE
  5
4f8
100
AcDbEntity
  8
0
 62
7
100
AcDbLine
 10
167.675944
 20
89.880609
 30
0.0
 11
167.675944
 21
89.880607
 31
0.0
  0
SPLINE
  5
4f9
100
AcDbEntity
  8
0
 62
7
100
AcDbSpline
 70
8
 71
3
 72
8
 73
4
 74
0
 40
0
 40
0
 40
0
 40
0
 40
1
 40
1
 40
1
 40
1
 10
94.933358
 20
90.233051
 30
0.0
 10
95.215758
 20
90.573327
 30
0.0
 10
95.229426
 20
90.803143
 30
0.0
 10
94.976555
 20
90.959429
 30
0.0
  0
SPLINE
  5
4fa
100
AcDbEntity
  8
0
 62
7
100
AcDbSpline
 70
8
 71
3
 72
8
 73
4
 74
0
 40
0
 40
0
 40
0
 40
0
 40
1
 40
1
 40
1
 40
1
 10
94.976555
 20
90.959429
 30
0.0
 10
94.773104
 20
91.085165
 30
0.0
 10
94.606646
 20
90.952204
 30
0.0
 10
94.606646
 20
90.663923
 30
0.0
  0
SPLINE
  5
4fb
100
AcDbEntity
  8
0
 62
7
100
AcDbSpline
 70
8
 71
3
 72
8
 73
4
 74
0
 40
0
 40
0
 40
0
 40
0
 40
1
 40
1
 40
1
 40
1
 10
94.606646
 20
90.663923
 30
0.0
 10
94.606646
 20
90.375658
 30
0.0
 10
94.328832
 20
90.067203
 30
0.0
 10
93.989285
 20
89.978473
 30
0.0
  0
SPLINE
  5
4fc
100
AcDbEntity
  8
0
 62
7
100
AcDbSpline
 70
8
 71
3
 72
8
 73
4
 74
0
 40
0
 40
0
 40
0
 40
0
 40
1
 40
1
 40
1
 40
1
 10
93.989285
 20
89.978473
 30
0.0
 10
93.468424
 20
89.842357
 30
0.0
 10
93.461671
 20
89.810742
 30
0.0
 10
93.946091
 20
89.776215
 30
0.0
  0
SPLINE
  5
4fd
100
AcDbEntity
  8
0
 62
7
100
AcDbSpline
 70
8
 71
3
 72
8
 73
4
 74
0
 40
0
 40
0
 40
0
 40
0
 40
1
 40
1
 40
1
 40
1
 10
93.946091
 20
89.776215
 30
0.0
 10
94.261881
 20
89.753694
 30
0.0
 10
94.706149
 20
89.959284
 30
0.0
 10
94.933358
 20
90.233051
 30
0.0
  0
LINE
  5
4fe
100
AcDbEntity
  8
0
 62
7
100
AcDbLine
 10
94.933358
 20
90.233051
 30
0.0
 11
94.933358
 21
90.233051
 31
0.0
  0
SPLINE
  5
4ff
100
AcDbEntity
  8
0
 62
7
100
AcDbSpline
 70
8
 71
3
 72
8
 73
4
 74
0
 40
0
 40
0
 40
0
 40
0
 40
1
 40
1
 40
1
 40
1
 10
92.930952
 20
90.314501
 30
0.0
 10
94.465521
 20
90.568148
 30
0.0
 10
94.708681
 20
91.144443
 30
0.0
 10
93.283730
 20
91.150592
 30
0.0
  0
SPLINE
  5
500
100
AcDbEntity
  8
0
 62
7
100
AcDbSpline
 70
8
 71
3
 72
8
 73
4
 74
0
 40
0
 40
0
 40
0
 40
0
 40
1
 40
1
 40
1
 40
1
 10
93.283730
 20
91.150592
 30
0.0
 10
92.750152
 20
91.153132
 30
0.0
 10
91.443660
 20
91.386276
 30
0.0
 10
90.380414
 20
91.669221
 30
0.0
  0
SPLINE
  5
501
100
AcDbEntity
  8
0
 62
7
100
AcDbSpline
 70
8
 71
3
 72
8
 73
4
 74
0
 40
0
 40
0
 40
0
 40
0
 40
1
 40
1
 40
1
 40
1
 10
90.380414
 20
91.669221
 30
0.0
 10
88.479475
 20
92.175079
 30
0.0
 10
87.690492
 20
92.038802
 30
0.0
 10
88.183141
 20
91.289697
 30
0.0
  0
SPLINE
  5
502
100
AcDbEntity
  8
0
 62
7
100
AcDbSpline
 70
8
 71
3
 72
8
 73
4
 74
0
 40
0
 40
0
 40
0
 40
0
 40
1
 40
1
 40
1
 40
1
 10
88.183141
 20
91.289697
 30
0.0
 10
88.892874
 20
90.210499
 30
0.0
 10
90.412892
 20
89.898291
 30
0.0
 10
92.930952
 20
90.314501
 30
0.0
  0
LINE
  5
503
100
AcDbEntity
  8
0
 62
7
100
AcDbLine
 10
92.930952
 20
90.314501
 30
0.0
 11
92.930952
 21
90.314501
 31
0.0
  0
SPLINE
  5
504
100
AcDbEntity
  8
0
 62
7
100
AcDbSpline
 70
8
 71
3
 72
8
 73
4
 74
0
 40
0
 40
0
 40
0
 40
0
 40
1
 40
1
 40
1
 40
1
 10
146.835278
 20
90.626297
 30
0.0
 10
147.961779
 20
91.208835
 30
0.0
 10
148.089295
 20
91.497644
 30
0.0
 10
147.486246
 20
92.100694
 30
0.0
  0
SPLINE
  5
505
100
AcDbEntity
  8
0
 62
7
100
AcDbSpline
 70
8
 71
3
 72
8
 73
4
 74
0
 40
0
 40
0
 40
0
 40
0
 40
1
 40
1
 40
1
 40
1
 10
147.486246
 20
92.100694
 30
0.0
 10
147.201639
 20
92.385301
 30
0.0
 10
146.761429
 20
92.350579
 30
0.0
 10
145.855518
 20
91.972062
 30
0.0
  0
SPLINE
  5
506
100
AcDbEntity
  8
0
 62
7
100
AcDbSpline
 70
8
 71
3
 72
8
 73
4
 74
0
 40
0
 40
0
 40
0
 40
0
 40
1
 40
1
 40
1
 40
1
 10
145.855518
 20
91.972062
 30
0.0
 10
145.173034
 20
91.686902
 30
0.0
 10
144.038774
 20
91.400576
 30
0.0
 10
143.334946
 20
91.335787
 30
0.0
  0
SPLINE
  5
507
100
AcDbEntity
  8
0
 62
7
100
AcDbSpline
 70
8
 71
3
 72
8
 73
4
 74
0
 40
0
 40
0
 40
0
 40
0
 40
1
 40
1
 40
1
 40
1
 10
143.334946
 20
91.335787
 30
0.0
 10
142.631118
 20
91.270994
 30
0.0
 10
141.904446
 20
91.201878
 30
0.0
 10
141.720118
 20
91.182193
 30
0.0
  0
SPLINE
  5
508
100
AcDbEntity
  8
0
 62
7
100
AcDbSpline
 70
8
 71
3
 72
8
 73
4
 74
0
 40
0
 40
0
 40
0
 40
0
 40
1
 40
1
 40
1
 40
1
 10
141.720118
 20
91.182193
 30
0.0
 10
141.519749
 20
91.160772
 30
0.0
 10
141.528278
 20
91.003106
 30
0.0
 10
141.741313
 20
90.790056
 30
0.0
  0
SPLINE
  5
509
100
AcDbEntity
  8
0
 62
7
100
AcDbSpline
 70
8
 71
3
 72
8
 73
4
 74
0
 40
0
 40
0
 40
0
 40
0
 40
1
 40
1
 40
1
 40
1
 10
141.741313
 20
90.790056
 30
0.0
 10
141.981261
 20
90.550108
 30
0.0
 10
142.711447
 20
90.550108
 30
0.0
 10
143.976685
 20
90.790056
 30
0.0
  0
SPLINE
  5
50a
100
AcDbEntity
  8
0
 62
7
100
AcDbSpline
 70
8
 71
3
 72
8
 73
4
 74
0
 40
0
 40
0
 40
0
 40
0
 40
1
 40
1
 40
1
 40
1
 10
143.976685
 20
90.790056
 30
0.0
 10
146.454825
 20
91.260024
 30
0.0
 10
146.978844
 20
91.183655
 30
0.0
 10
145.230243
 20
90.607360
 30
0.0
  0
SPLINE
  5
50b
100
AcDbEntity
  8
0
 62
7
100
AcDbSpline
 70
8
 71
3
 72
8
 73
4
 74
0
 40
0
 40
0
 40
0
 40
0
 40
1
 40
1
 40
1
 40
1
 10
145.230243
 20
90.607360
 30
0.0
 10
143.959459
 20
90.188542
 30
0.0
 10
143.917348
 20
90.139599
 30
0.0
 10
144.806789
 20
90.115181
 30
0.0
  0
SPLINE
  5
50c
100
AcDbEntity
  8
0
 62
7
100
AcDbSpline
 70
8
 71
3
 72
8
 73
4
 74
0
 40
0
 40
0
 40
0
 40
0
 40
1
 40
1
 40
1
 40
1
 10
144.806789
 20
90.115181
 30
0.0
 10
145.349999
 20
90.100252
 30
0.0
 10
146.262812
 20
90.330274
 30
0.0
 10
146.835261
 20
90.626297
 30
0.0
  0
LINE
  5
50d
100
AcDbEntity
  8
0
 62
7
100
AcDbLine
 10
146.835261
 20
90.626297
 30
0.0
 11
146.835278
 21
90.626297
 31
0.0
  0
SPLINE
  5
50e
100
AcDbEntity
  8
0
 62
7
100
AcDbSpline
 70
8
 71
3
 72
8
 73
4
 74
0
 40
0
 40
0
 40
0
 40
0
 40
1
 40
1
 40
1
 40
1
 10
92.842757
 20
92.183918
 30
0.0
 10
92.842757
 20
92.366493
 30
0.0
 10
92.684007
 20
92.613988
 30
0.0
 10
92.489980
 20
92.733904
 30
0.0
  0
SPLINE
  5
50f
100
AcDbEntity
  8
0
 62
7
100
AcDbSpline
 70
8
 71
3
 72
8
 73
4
 74
0
 40
0
 40
0
 40
0
 40
0
 40
1
 40
1
 40
1
 40
1
 10
92.489980
 20
92.733904
 30
0.0
 10
92.295952
 20
92.853820
 30
0.0
 10
92.137202
 20
92.704449
 30
0.0
 10
92.137202
 20
92.401949
 30
0.0
  0
SPLINE
  5
510
100
AcDbEntity
  8
0
 62
7
100
AcDbSpline
 70
8
 71
3
 72
8
 73
4
 74
0
 40
0
 40
0
 40
0
 40
0
 40
1
 40
1
 40
1
 40
1
 10
92.137202
 20
92.401949
 30
0.0
 10
92.137202
 20
92.099455
 30
0.0
 10
92.295952
 20
91.851960
 30
0.0
 10
92.489980
 20
91.851960
 30
0.0
  0
SPLINE
  5
511
100
AcDbEntity
  8
0
 62
7
100
AcDbSpline
 70
8
 71
3
 72
8
 73
4
 74
0
 40
0
 40
0
 40
0
 40
0
 40
1
 40
1
 40
1
 40
1
 10
92.489980
 20
91.851960
 30
0.0
 10
92.684007
 20
91.851960
 30
0.0
 10
92.842757
 20
92.001340
 30
0.0
 10
92.842757
 20
92.183918
 30
0.0
  0
LINE
  5
512
100
AcDbEntity
  8
0
 62
7
100
AcDbLine
 10
92.842757
 20
92.183918
 30
0.0
 11
92.842757
 21
92.183918
 31
0.0
  0
SPLINE
  5
513
100
AcDbEntity
  8
0
 62
7
100
AcDbSpline
 70
8
 71
3
 72
8
 73
4
 74
0
 40
0
 40
0
 40
0
 40
0
 40
1
 40
1
 40
1
 40
1
 10
78.138621
 20
94.482528
 30
0.0
 10
80.417086
 20
94.765173
 30
0.0
 10
82.540529
 20
94.896948
 30
0.0
 10
82.857391
 20
94.775356
 30
0.0
  0
SPLINE
  5
514
100
AcDbEntity
  8
0
 62
7
100
AcDbSpline
 70
8
 71
3
 72
8
 73
4
 74
0
 40
0
 40
0
 40
0
 40
0
 40
1
 40
1
 40
1
 40
1
 10
82.857391
 20
94.775356
 30
0.0
 10
83.242571
 20
94.627548
 30
0.0
 10
83.348963
 20
94.691067
 30
0.0
 10
83.178421
 20
94.967010
 30
0.0
  0
SPLINE
  5
515
100
AcDbEntity
  8
0
 62
7
100
AcDbSpline
 70
8
 71
3
 72
8
 73
4
 74
0
 40
0
 40
0
 40
0
 40
0
 40
1
 40
1
 40
1
 40
1
 10
83.178421
 20
94.967010
 30
0.0
 10
82.886254
 20
95.439741
 30
0.0
 10
80.661437
 20
95.483491
 30
0.0
 10
78.470435
 20
95.059582
 30
0.0
  0
SPLINE
  5
516
100
AcDbEntity
  8
0
 62
7
100
AcDbSpline
 70
8
 71
3
 72
8
 73
4
 74
0
 40
0
 40
0
 40
0
 40
0
 40
1
 40
1
 40
1
 40
1
 10
78.470435
 20
95.059582
 30
0.0
 10
77.354794
 20
94.843730
 30
0.0
 10
76.872979
 20
94.892478
 30
0.0
 10
76.575155
 20
95.251335
 30
0.0
  0
SPLINE
  5
517
100
AcDbEntity
  8
0
 62
7
100
AcDbSpline
 70
8
 71
3
 72
8
 73
4
 74
0
 40
0
 40
0
 40
0
 40
0
 40
1
 40
1
 40
1
 40
1
 10
76.575155
 20
95.251335
 30
0.0
 10
76.355516
 20
95.515983
 30
0.0
 10
75.996811
 20
95.730085
 30
0.0
 10
75.778035
 20
95.727114
 30
0.0
  0
SPLINE
  5
518
100
AcDbEntity
  8
0
 62
7
100
AcDbSpline
 70
8
 71
3
 72
8
 73
4
 74
0
 40
0
 40
0
 40
0
 40
0
 40
1
 40
1
 40
1
 40
1
 10
75.778035
 20
95.727114
 30
0.0
 10
75.559257
 20
95.724291
 30
0.0
 10
75.618382
 20
95.552545
 30
0.0
 10
75.909424
 20
95.345783
 30
0.0
  0
SPLINE
  5
519
100
AcDbEntity
  8
0
 62
7
100
AcDbSpline
 70
8
 71
3
 72
8
 73
4
 74
0
 40
0
 40
0
 40
0
 40
0
 40
1
 40
1
 40
1
 40
1
 10
75.909424
 20
95.345783
 30
0.0
 10
76.786777
 20
94.722501
 30
0.0
 10
72.806139
 20
95.271435
 30
0.0
 10
70.612310
 20
96.076259
 30
0.0
  0
LINE
  5
51a
100
AcDbEntity
  8
0
 62
7
100
AcDbLine
 10
70.612310
 20
96.076259
 30
0.0
 11
68.677480
 21
96.786068
 31
0.0
  0
LINE
  5
51b
100
AcDbEntity
  8
0
 62
7
100
AcDbLine
 10
68.677480
 20
96.786068
 30
0.0
 11
70.617757
 21
96.625136
 31
0.0
  0
SPLINE
  5
51c
100
AcDbEntity
  8
0
 62
7
100
AcDbSpline
 70
8
 71
3
 72
8
 73
4
 74
0
 40
0
 40
0
 40
0
 40
0
 40
1
 40
1
 40
1
 40
1
 10
70.617757
 20
96.625136
 30
0.0
 10
72.950790
 20
96.431631
 30
0.0
 10
72.095323
 20
96.716740
 30
0.0
 10
67.089980
 20
97.800882
 30
0.0
  0
SPLINE
  5
51d
100
AcDbEntity
  8
0
 62
7
100
AcDbSpline
 70
8
 71
3
 72
8
 73
4
 74
0
 40
0
 40
0
 40
0
 40
0
 40
1
 40
1
 40
1
 40
1
 10
67.089980
 20
97.800882
 30
0.0
 10
65.246716
 20
98.200134
 30
0.0
 10
63.379042
 20
98.631584
 30
0.0
 10
62.939600
 20
98.759665
 30
0.0
  0
SPLINE
  5
51e
100
AcDbEntity
  8
0
 62
7
100
AcDbSpline
 70
8
 71
3
 72
8
 73
4
 74
0
 40
0
 40
0
 40
0
 40
0
 40
1
 40
1
 40
1
 40
1
 10
62.939600
 20
98.759665
 30
0.0
 10
61.643333
 20
99.137484
 30
0.0
 10
62.291197
 20
98.174559
 30
0.0
 10
64.217804
 20
96.859849
 30
0.0
  0
SPLINE
  5
51f
100
AcDbEntity
  8
0
 62
7
100
AcDbSpline
 70
8
 71
3
 72
8
 73
4
 74
0
 40
0
 40
0
 40
0
 40
0
 40
1
 40
1
 40
1
 40
1
 10
64.217804
 20
96.859849
 30
0.0
 10
66.144349
 20
95.545182
 30
0.0
 10
68.400930
 20
94.765978
 30
0.0
 10
71.499702
 20
94.345385
 30
0.0
  0
SPLINE
  5
520
100
AcDbEntity
  8
0
 62
7
100
AcDbSpline
 70
8
 71
3
 72
8
 73
4
 74
0
 40
0
 40
0
 40
0
 40
0
 40
1
 40
1
 40
1
 40
1
 10
71.499702
 20
94.345385
 30
0.0
 10
72.663868
 20
94.187377
 30
0.0
 10
73.701777
 20
94.037966
 30
0.0
 10
73.806166
 20
94.013359
 30
0.0
  0
SPLINE
  5
521
100
AcDbEntity
  8
0
 62
7
100
AcDbSpline
 70
8
 71
3
 72
8
 73
4
 74
0
 40
0
 40
0
 40
0
 40
0
 40
1
 40
1
 40
1
 40
1
 10
73.806166
 20
94.013359
 30
0.0
 10
73.910554
 20
93.988777
 30
0.0
 10
75.860159
 20
94.199882
 30
0.0
 10
78.138621
 20
94.482528
 30
0.0
  0
LINE
  5
522
100
AcDbEntity
  8
0
 62
7
100
AcDbLine
 10
78.138621
 20
94.482528
 30
0.0
 11
78.138621
 21
94.482528
 31
0.0
  0
SPLINE
  5
523
100
AcDbEntity
  8
0
 62
7
100
AcDbSpline
 70
8
 71
3
 72
8
 73
4
 74
0
 40
0
 40
0
 40
0
 40
0
 40
1
 40
1
 40
1
 40
1
 10
164.980250
 20
94.506686
 30
0.0
 10
168.364707
 20
95.096886
 30
0.0
 10
171.066161
 20
96.231010
 30
0.0
 10
172.835118
 20
97.804317
 30
0.0
  0
SPLINE
  5
524
100
AcDbEntity
  8
0
 62
7
100
AcDbSpline
 70
8
 71
3
 72
8
 73
4
 74
0
 40
0
 40
0
 40
0
 40
0
 40
1
 40
1
 40
1
 40
1
 10
172.835118
 20
97.804317
 30
0.0
 10
173.465707
 20
98.365163
 30
0.0
 10
173.981646
 20
98.898374
 30
0.0
 10
173.981646
 20
98.989227
 30
0.0
  0
SPLINE
  5
525
100
AcDbEntity
  8
0
 62
7
100
AcDbSpline
 70
8
 71
3
 72
8
 73
4
 74
0
 40
0
 40
0
 40
0
 40
0
 40
1
 40
1
 40
1
 40
1
 10
173.981646
 20
98.989227
 30
0.0
 10
173.981646
 20
99.080083
 30
0.0
 10
172.693096
 20
98.781201
 30
0.0
 10
171.118205
 20
98.325051
 30
0.0
  0
SPLINE
  5
526
100
AcDbEntity
  8
0
 62
7
100
AcDbSpline
 70
8
 71
3
 72
8
 73
4
 74
0
 40
0
 40
0
 40
0
 40
0
 40
1
 40
1
 40
1
 40
1
 10
171.118205
 20
98.325051
 30
0.0
 10
169.227740
 20
97.777492
 30
0.0
 10
166.500675
 20
97.370087
 30
0.0
 10
163.092511
 20
97.126061
 30
0.0
  0
SPLINE
  5
527
100
AcDbEntity
  8
0
 62
7
100
AcDbSpline
 70
8
 71
3
 72
8
 73
4
 74
0
 40
0
 40
0
 40
0
 40
0
 40
1
 40
1
 40
1
 40
1
 10
163.092511
 20
97.126061
 30
0.0
 10
160.253271
 20
96.922773
 30
0.0
 10
157.533382
 20
96.565748
 30
0.0
 10
157.048313
 20
96.332675
 30
0.0
  0
SPLINE
  5
528
100
AcDbEntity
  8
0
 62
7
100
AcDbSpline
 70
8
 71
3
 72
8
 73
4
 74
0
 40
0
 40
0
 40
0
 40
0
 40
1
 40
1
 40
1
 40
1
 10
157.048313
 20
96.332675
 30
0.0
 10
156.283739
 20
95.965298
 30
0.0
 10
156.659315
 20
95.885277
 30
0.0
 10
159.870535
 20
95.731375
 30
0.0
  0
SPLINE
  5
529
100
AcDbEntity
  8
0
 62
7
100
AcDbSpline
 70
8
 71
3
 72
8
 73
4
 74
0
 40
0
 40
0
 40
0
 40
0
 40
1
 40
1
 40
1
 40
1
 10
159.870535
 20
95.731375
 30
0.0
 10
163.332747
 20
95.565440
 30
0.0
 10
163.462135
 20
95.533551
 30
0.0
 10
161.851388
 20
95.243204
 30
0.0
  0
SPLINE
  5
52a
100
AcDbEntity
  8
0
 62
7
100
AcDbSpline
 70
8
 71
3
 72
8
 73
4
 74
0
 40
0
 40
0
 40
0
 40
0
 40
1
 40
1
 40
1
 40
1
 10
161.851388
 20
95.243204
 30
0.0
 10
160.903567
 20
95.072355
 30
0.0
 10
158.442942
 20
95.025173
 30
0.0
 10
156.383332
 20
95.138361
 30
0.0
  0
SPLINE
  5
52b
100
AcDbEntity
  8
0
 62
7
100
AcDbSpline
 70
8
 71
3
 72
8
 73
4
 74
0
 40
0
 40
0
 40
0
 40
0
 40
1
 40
1
 40
1
 40
1
 10
156.383332
 20
95.138361
 30
0.0
 10
154.226954
 20
95.256872
 30
0.0
 10
152.339322
 20
95.199333
 30
0.0
 10
151.933035
 20
95.002711
 30
0.0
  0
SPLINE
  5
52c
100
AcDbEntity
  8
0
 62
7
100
AcDbSpline
 70
8
 71
3
 72
8
 73
4
 74
0
 40
0
 40
0
 40
0
 40
0
 40
1
 40
1
 40
1
 40
1
 10
151.933035
 20
95.002711
 30
0.0
 10
151.366076
 20
94.728335
 30
0.0
 10
151.470021
 20
94.687610
 30
0.0
 10
152.462202
 20
94.795405
 30
0.0
  0
SPLINE
  5
52d
100
AcDbEntity
  8
0
 62
7
100
AcDbSpline
 70
8
 71
3
 72
8
 73
4
 74
0
 40
0
 40
0
 40
0
 40
0
 40
1
 40
1
 40
1
 40
1
 10
152.462202
 20
94.795405
 30
0.0
 10
153.141299
 20
94.869186
 30
0.0
 10
155.205049
 20
94.734894
 30
0.0
 10
157.048313
 20
94.496983
 30
0.0
  0
SPLINE
  5
52e
100
AcDbEntity
  8
0
 62
7
100
AcDbSpline
 70
8
 71
3
 72
8
 73
4
 74
0
 40
0
 40
0
 40
0
 40
0
 40
1
 40
1
 40
1
 40
1
 10
157.048313
 20
94.496983
 30
0.0
 10
161.650234
 20
93.903010
 30
0.0
 10
161.517573
 20
93.902846
 30
0.0
 10
164.980250
 20
94.506692
 30
0.0
  0
LINE
  5
52f
100
AcDbEntity
  8
0
 62
7
100
AcDbLine
 10
164.980250
 20
94.506692
 30
0.0
 11
164.980250
 21
94.506686
 31
0.0
  0
SPLINE
  5
530
100
AcDbEntity
  8
0
 62
7
100
AcDbSpline
 70
8
 71
3
 72
8
 73
4
 74
0
 40
0
 40
0
 40
0
 40
0
 40
1
 40
1
 40
1
 40
1
 10
82.083035
 20
97.371064
 30
0.0
 10
81.500952
 20
97.871946
 30
0.0
 10
80.608853
 20
98.643448
 30
0.0
 10
80.100596
 20
99.085510
 30
0.0
  0
SPLINE
  5
531
100
AcDbEntity
  8
0
 62
7
100
AcDbSpline
 70
8
 71
3
 72
8
 73
4
 74
0
 40
0
 40
0
 40
0
 40
0
 40
1
 40
1
 40
1
 40
1
 10
80.100596
 20
99.085510
 30
0.0
 10
78.308067
 20
100.644579
 30
0.0
 10
77.454337
 20
100.942665
 30
0.0
 10
73.087202
 20
101.534279
 30
0.0
  0
SPLINE
  5
532
100
AcDbEntity
  8
0
 62
7
100
AcDbSpline
 70
8
 71
3
 72
8
 73
4
 74
0
 40
0
 40
0
 40
0
 40
0
 40
1
 40
1
 40
1
 40
1
 10
73.087202
 20
101.534279
 30
0.0
 10
68.307320
 20
102.181804
 30
0.0
 10
64.282966
 20
103.101868
 30
0.0
 10
61.223263
 20
104.246649
 30
0.0
  0
SPLINE
  5
533
100
AcDbEntity
  8
0
 62
7
100
AcDbSpline
 70
8
 71
3
 72
8
 73
4
 74
0
 40
0
 40
0
 40
0
 40
0
 40
1
 40
1
 40
1
 40
1
 10
61.223263
 20
104.246649
 30
0.0
 10
60.154569
 20
104.646499
 30
0.0
 10
59.206429
 20
104.899895
 30
0.0
 10
59.116287
 20
104.809753
 30
0.0
  0
SPLINE
  5
534
100
AcDbEntity
  8
0
 62
7
100
AcDbSpline
 70
8
 71
3
 72
8
 73
4
 74
0
 40
0
 40
0
 40
0
 40
0
 40
1
 40
1
 40
1
 40
1
 10
59.116287
 20
104.809753
 30
0.0
 10
58.745924
 20
104.439384
 30
0.0
 10
61.525486
 20
102.456076
 30
0.0
 10
63.395428
 20
101.756439
 30
0.0
  0
SPLINE
  5
535
100
AcDbEntity
  8
0
 62
7
100
AcDbSpline
 70
8
 71
3
 72
8
 73
4
 74
0
 40
0
 40
0
 40
0
 40
0
 40
1
 40
1
 40
1
 40
1
 10
63.395428
 20
101.756439
 30
0.0
 10
64.986608
 20
101.161102
 30
0.0
 10
74.494458
 20
98.529535
 30
0.0
 10
81.377480
 20
96.779393
 30
0.0
  0
SPLINE
  5
536
100
AcDbEntity
  8
0
 62
7
100
AcDbSpline
 70
8
 71
3
 72
8
 73
4
 74
0
 40
0
 40
0
 40
0
 40
0
 40
1
 40
1
 40
1
 40
1
 10
81.377480
 20
96.779393
 30
0.0
 10
83.104792
 20
96.340193
 30
0.0
 10
83.194045
 20
96.415039
 30
0.0
 10
82.083035
 20
97.371064
 30
0.0
  0
LINE
  5
537
100
AcDbEntity
  8
0
 62
7
100
AcDbLine
 10
82.083035
 20
97.371064
 30
0.0
 11
82.083035
 21
97.371064
 31
0.0
  0
SPLINE
  5
538
100
AcDbEntity
  8
0
 62
7
100
AcDbSpline
 70
8
 71
3
 72
8
 73
4
 74
0
 40
0
 40
0
 40
0
 40
0
 40
1
 40
1
 40
1
 40
1
 10
72.434645
 20
100.362044
 30
0.0
 10
71.202612
 20
100.752179
 30
0.0
 10
70.266264
 20
101.143062
 30
0.0
 10
70.353871
 20
101.230667
 30
0.0
  0
SPLINE
  5
539
100
AcDbEntity
  8
0
 62
7
100
AcDbSpline
 70
8
 71
3
 72
8
 73
4
 74
0
 40
0
 40
0
 40
0
 40
0
 40
1
 40
1
 40
1
 40
1
 10
70.353871
 20
101.230667
 30
0.0
 10
70.441479
 20
101.318272
 30
0.0
 10
71.481710
 20
101.088503
 30
0.0
 10
72.665494
 20
100.720068
 30
0.0
  0
SPLINE
  5
53a
100
AcDbEntity
  8
0
 62
7
100
AcDbSpline
 70
8
 71
3
 72
8
 73
4
 74
0
 40
0
 40
0
 40
0
 40
0
 40
1
 40
1
 40
1
 40
1
 10
72.665494
 20
100.720068
 30
0.0
 10
73.849284
 20
100.351632
 30
0.0
 10
74.904693
 20
100.137042
 30
0.0
 10
75.010848
 20
100.243203
 30
0.0
  0
SPLINE
  5
53b
100
AcDbEntity
  8
0
 62
7
100
AcDbSpline
 70
8
 71
3
 72
8
 73
4
 74
0
 40
0
 40
0
 40
0
 40
0
 40
1
 40
1
 40
1
 40
1
 10
75.010848
 20
100.243203
 30
0.0
 10
75.117012
 20
100.349360
 30
0.0
 10
75.203868
 20
100.250992
 30
0.0
 10
75.203868
 20
100.024647
 30
0.0
  0
SPLINE
  5
53c
100
AcDbEntity
  8
0
 62
7
100
AcDbSpline
 70
8
 71
3
 72
8
 73
4
 74
0
 40
0
 40
0
 40
0
 40
0
 40
1
 40
1
 40
1
 40
1
 10
75.203868
 20
100.024647
 30
0.0
 10
75.203868
 20
99.501102
 30
0.0
 10
75.121894
 20
99.511090
 30
0.0
 10
72.434645
 20
100.362044
 30
0.0
  0
LINE
  5
53d
100
AcDbEntity
  8
0
 62
7
100
AcDbLine
 10
72.434645
 20
100.362044
 30
0.0
 11
72.434645
 21
100.362044
 31
0.0
  0
SPLINE
  5
53e
100
AcDbEntity
  8
0
 62
7
100
AcDbSpline
 70
8
 71
3
 72
8
 73
4
 74
0
 40
0
 40
0
 40
0
 40
0
 40
1
 40
1
 40
1
 40
1
 10
159.517757
 20
98.137274
 30
0.0
 10
161.749077
 20
98.743787
 30
0.0
 10
165.400327
 20
99.729039
 30
0.0
 10
167.631646
 20
100.326723
 30
0.0
  0
SPLINE
  5
53f
100
AcDbEntity
  8
0
 62
7
100
AcDbSpline
 70
8
 71
3
 72
8
 73
4
 74
0
 40
0
 40
0
 40
0
 40
0
 40
1
 40
1
 40
1
 40
1
 10
167.631646
 20
100.326723
 30
0.0
 10
172.046206
 20
101.509209
 30
0.0
 10
174.635719
 20
102.607593
 30
0.0
 10
176.260915
 20
103.986965
 30
0.0
  0
SPLINE
  5
540
100
AcDbEntity
  8
0
 62
7
100
AcDbSpline
 70
8
 71
3
 72
8
 73
4
 74
0
 40
0
 40
0
 40
0
 40
0
 40
1
 40
1
 40
1
 40
1
 10
176.260915
 20
103.986965
 30
0.0
 10
177.679940
 20
105.191348
 30
0.0
 10
177.257755
 20
105.418619
 30
0.0
 10
175.250684
 20
104.530793
 30
0.0
  0
SPLINE
  5
541
100
AcDbEntity
  8
0
 62
7
100
AcDbSpline
 70
8
 71
3
 72
8
 73
4
 74
0
 40
0
 40
0
 40
0
 40
0
 40
1
 40
1
 40
1
 40
1
 10
175.250684
 20
104.530793
 30
0.0
 10
172.798235
 20
103.445959
 30
0.0
 10
167.689626
 20
102.230733
 30
0.0
 10
162.691741
 20
101.543296
 30
0.0
  0
SPLINE
  5
542
100
AcDbEntity
  8
0
 62
7
100
AcDbSpline
 70
8
 71
3
 72
8
 73
4
 74
0
 40
0
 40
0
 40
0
 40
0
 40
1
 40
1
 40
1
 40
1
 10
162.691741
 20
101.543296
 30
0.0
 10
158.561896
 20
100.975253
 30
0.0
 10
156.695535
 20
100.379979
 30
0.0
 10
156.695535
 20
99.630806
 30
0.0
  0
SPLINE
  5
543
100
AcDbEntity
  8
0
 62
7
100
AcDbSpline
 70
8
 71
3
 72
8
 73
4
 74
0
 40
0
 40
0
 40
0
 40
0
 40
1
 40
1
 40
1
 40
1
 10
156.695535
 20
99.630806
 30
0.0
 10
156.695535
 20
99.158637
 30
0.0
 10
157.813081
 20
98.993681
 30
0.0
 10
158.754341
 20
99.326920
 30
0.0
  0
SPLINE
  5
544
100
AcDbEntity
  8
0
 62
7
100
AcDbSpline
 70
8
 71
3
 72
8
 73
4
 74
0
 40
0
 40
0
 40
0
 40
0
 40
1
 40
1
 40
1
 40
1
 10
158.754341
 20
99.326920
 30
0.0
 10
159.352082
 20
99.538539
 30
0.0
 10
159.538218
 20
99.498068
 30
0.0
 10
159.432052
 20
99.179566
 30
0.0
  0
SPLINE
  5
545
100
AcDbEntity
  8
0
 62
7
100
AcDbSpline
 70
8
 71
3
 72
8
 73
4
 74
0
 40
0
 40
0
 40
0
 40
0
 40
1
 40
1
 40
1
 40
1
 10
159.432052
 20
99.179566
 30
0.0
 10
159.351548
 20
98.938060
 30
0.0
 10
158.052993
 20
98.398017
 30
0.0
 10
156.546367
 20
97.979470
 30
0.0
  0
SPLINE
  5
546
100
AcDbEntity
  8
0
 62
7
100
AcDbSpline
 70
8
 71
3
 72
8
 73
4
 74
0
 40
0
 40
0
 40
0
 40
0
 40
1
 40
1
 40
1
 40
1
 10
156.546367
 20
97.979470
 30
0.0
 10
155.039746
 20
97.560923
 30
0.0
 10
153.643804
 20
97.055229
 30
0.0
 10
153.444273
 20
96.855698
 30
0.0
  0
SPLINE
  5
547
100
AcDbEntity
  8
0
 62
7
100
AcDbSpline
 70
8
 71
3
 72
8
 73
4
 74
0
 40
0
 40
0
 40
0
 40
0
 40
1
 40
1
 40
1
 40
1
 10
153.444273
 20
96.855698
 30
0.0
 10
153.008719
 20
96.420144
 30
0.0
 10
153.866252
 20
96.601094
 30
0.0
 10
159.517757
 20
98.137274
 30
0.0
  0
LINE
  5
548
100
AcDbEntity
  8
0
 62
7
100
AcDbLine
 10
159.517757
 20
98.137274
 30
0.0
 11
159.517757
 21
98.137274
 31
0.0
  0
SPLINE
  5
549
100
AcDbEntity
  8
0
 62
7
100
AcDbSpline
 70
8
 71
3
 72
8
 73
4
 74
0
 40
0
 40
0
 40
0
 40
0
 40
1
 40
1
 40
1
 40
1
 10
85.081646
 20
97.676084
 30
0.0
 10
85.081646
 20
97.946035
 30
0.0
 10
85.355997
 20
98.320437
 30
0.0
 10
85.691317
 20
98.508089
 30
0.0
  0
SPLINE
  5
54a
100
AcDbEntity
  8
0
 62
7
100
AcDbSpline
 70
8
 71
3
 72
8
 73
4
 74
0
 40
0
 40
0
 40
0
 40
0
 40
1
 40
1
 40
1
 40
1
 10
85.691317
 20
98.508089
 30
0.0
 10
86.231002
 20
98.810115
 30
0.0
 10
86.189402
 20
98.900121
 30
0.0
 10
85.328972
 20
99.292164
 30
0.0
  0
SPLINE
  5
54b
100
AcDbEntity
  8
0
 62
7
100
AcDbSpline
 70
8
 71
3
 72
8
 73
4
 74
0
 40
0
 40
0
 40
0
 40
0
 40
1
 40
1
 40
1
 40
1
 10
85.328972
 20
99.292164
 30
0.0
 10
84.266608
 20
99.776207
 30
0.0
 10
83.370860
 20
99.325007
 30
0.0
 10
83.851202
 20
98.547812
 30
0.0
  0
SPLINE
  5
54c
100
AcDbEntity
  8
0
 62
7
100
AcDbSpline
 70
8
 71
3
 72
8
 73
4
 74
0
 40
0
 40
0
 40
0
 40
0
 40
1
 40
1
 40
1
 40
1
 10
83.851202
 20
98.547812
 30
0.0
 10
84.047855
 20
98.229626
 30
0.0
 10
84.193101
 20
98.243672
 30
0.0
 10
84.445181
 20
98.605269
 30
0.0
  0
SPLINE
  5
54d
100
AcDbEntity
  8
0
 62
7
100
AcDbSpline
 70
8
 71
3
 72
8
 73
4
 74
0
 40
0
 40
0
 40
0
 40
0
 40
1
 40
1
 40
1
 40
1
 10
84.445181
 20
98.605269
 30
0.0
 10
84.676434
 20
98.936979
 30
0.0
 10
84.736635
 20
98.737680
 30
0.0
 10
84.641309
 20
97.956006
 30
0.0
  0
SPLINE
  5
54e
100
AcDbEntity
  8
0
 62
7
100
AcDbSpline
 70
8
 71
3
 72
8
 73
4
 74
0
 40
0
 40
0
 40
0
 40
0
 40
1
 40
1
 40
1
 40
1
 10
84.641309
 20
97.956006
 30
0.0
 10
84.565657
 20
97.335665
 30
0.0
 10
84.633802
 20
96.908470
 30
0.0
 10
84.792699
 20
97.006689
 30
0.0
  0
SPLINE
  5
54f
100
AcDbEntity
  8
0
 62
7
100
AcDbSpline
 70
8
 71
3
 72
8
 73
4
 74
0
 40
0
 40
0
 40
0
 40
0
 40
1
 40
1
 40
1
 40
1
 10
84.792699
 20
97.006689
 30
0.0
 10
84.951618
 20
97.104906
 30
0.0
 10
85.081646
 20
97.406135
 30
0.0
 10
85.081646
 20
97.676084
 30
0.0
  0
LINE
  5
550
100
AcDbEntity
  8
0
 62
7
100
AcDbLine
 10
85.081646
 20
97.676084
 30
0.0
 11
85.081646
 21
97.676084
 31
0.0
  0
SPLINE
  5
551
100
AcDbEntity
  8
0
 62
7
100
AcDbSpline
 70
8
 71
3
 72
8
 73
4
 74
0
 40
0
 40
0
 40
0
 40
0
 40
1
 40
1
 40
1
 40
1
 10
152.013852
 20
98.573675
 30
0.0
 10
152.082926
 20
99.490654
 30
0.0
 10
151.335221
 20
99.789956
 30
0.0
 10
150.325441
 20
99.249540
 30
0.0
  0
SPLINE
  5
552
100
AcDbEntity
  8
0
 62
7
100
AcDbSpline
 70
8
 71
3
 72
8
 73
4
 74
0
 40
0
 40
0
 40
0
 40
0
 40
1
 40
1
 40
1
 40
1
 10
150.325441
 20
99.249540
 30
0.0
 10
149.741822
 20
98.937194
 30
0.0
 10
149.659972
 20
98.760410
 30
0.0
 10
150.001303
 20
98.549457
 30
0.0
  0
SPLINE
  5
553
100
AcDbEntity
  8
0
 62
7
100
AcDbSpline
 70
8
 71
3
 72
8
 73
4
 74
0
 40
0
 40
0
 40
0
 40
0
 40
1
 40
1
 40
1
 40
1
 10
150.001303
 20
98.549457
 30
0.0
 10
150.252455
 20
98.394238
 30
0.0
 10
150.670776
 20
98.348910
 30
0.0
 10
150.930906
 20
98.448732
 30
0.0
  0
SPLINE
  5
554
100
AcDbEntity
  8
0
 62
7
100
AcDbSpline
 70
8
 71
3
 72
8
 73
4
 74
0
 40
0
 40
0
 40
0
 40
0
 40
1
 40
1
 40
1
 40
1
 10
150.930906
 20
98.448732
 30
0.0
 10
151.191033
 20
98.548554
 30
0.0
 10
151.403868
 20
98.454489
 30
0.0
 10
151.403868
 20
98.239704
 30
0.0
  0
SPLINE
  5
555
100
AcDbEntity
  8
0
 62
7
100
AcDbSpline
 70
8
 71
3
 72
8
 73
4
 74
0
 40
0
 40
0
 40
0
 40
0
 40
1
 40
1
 40
1
 40
1
 10
151.403868
 20
98.239704
 30
0.0
 10
151.403868
 20
97.530564
 30
0.0
 10
151.958139
 20
97.834035
 30
0.0
 10
152.013852
 20
98.573675
 30
0.0
  0
LINE
  5
556
100
AcDbEntity
  8
0
 62
7
100
AcDbLine
 10
152.013852
 20
98.573675
 30
0.0
 11
152.013852
 21
98.573675
 31
0.0
  0
SPLINE
  5
557
100
AcDbEntity
  8
0
 62
7
100
AcDbSpline
 70
8
 71
3
 72
8
 73
4
 74
0
 40
0
 40
0
 40
0
 40
0
 40
1
 40
1
 40
1
 40
1
 10
83.232868
 20
99.815554
 30
0.0
 10
83.151876
 20
99.896546
 30
0.0
 10
82.304405
 20
100.055480
 30
0.0
 10
81.349599
 20
100.168741
 30
0.0
  0
LINE
  5
558
100
AcDbEntity
  8
0
 62
7
100
AcDbLine
 10
81.349599
 20
100.168741
 30
0.0
 11
79.613591
 21
100.374673
 31
0.0
  0
LINE
  5
559
100
AcDbEntity
  8
0
 62
7
100
AcDbLine
 10
79.613591
 20
100.374673
 30
0.0
 11
81.377480
 21
99.521052
 31
0.0
  0
SPLINE
  5
55a
100
AcDbEntity
  8
0
 62
7
100
AcDbSpline
 70
8
 71
3
 72
8
 73
4
 74
0
 40
0
 40
0
 40
0
 40
0
 40
1
 40
1
 40
1
 40
1
 10
81.377480
 20
99.521052
 30
0.0
 10
82.787053
 20
98.838899
 30
0.0
 10
83.165346
 20
98.767956
 30
0.0
 10
83.260748
 20
99.167865
 30
0.0
  0
SPLINE
  5
55b
100
AcDbEntity
  8
0
 62
7
100
AcDbSpline
 70
8
 71
3
 72
8
 73
4
 74
0
 40
0
 40
0
 40
0
 40
0
 40
1
 40
1
 40
1
 40
1
 10
83.260748
 20
99.167865
 30
0.0
 10
83.326407
 20
99.443100
 30
0.0
 10
83.313860
 20
99.734562
 30
0.0
 10
83.232893
 20
99.815554
 30
0.0
  0
LINE
  5
55c
100
AcDbEntity
  8
0
 62
7
100
AcDbLine
 10
83.232893
 20
99.815554
 30
0.0
 11
83.232868
 21
99.815554
 31
0.0
  0
SPLINE
  5
55d
100
AcDbEntity
  8
0
 62
7
100
AcDbSpline
 70
8
 71
3
 72
8
 73
4
 74
0
 40
0
 40
0
 40
0
 40
0
 40
1
 40
1
 40
1
 40
1
 10
154.839405
 20
99.790267
 30
0.0
 10
155.467772
 20
99.916694
 30
0.0
 10
156.063304
 20
100.151867
 30
0.0
 10
156.162810
 20
100.312872
 30
0.0
  0
SPLINE
  5
55e
100
AcDbEntity
  8
0
 62
7
100
AcDbSpline
 70
8
 71
3
 72
8
 73
4
 74
0
 40
0
 40
0
 40
0
 40
0
 40
1
 40
1
 40
1
 40
1
 10
156.162810
 20
100.312872
 30
0.0
 10
156.262318
 20
100.473877
 30
0.0
 10
156.065700
 20
100.549786
 30
0.0
 10
155.725884
 20
100.481562
 30
0.0
  0
SPLINE
  5
55f
100
AcDbEntity
  8
0
 62
7
100
AcDbSpline
 70
8
 71
3
 72
8
 73
4
 74
0
 40
0
 40
0
 40
0
 40
0
 40
1
 40
1
 40
1
 40
1
 10
155.725884
 20
100.481562
 30
0.0
 10
155.386066
 20
100.413340
 30
0.0
 10
154.512724
 20
100.262202
 30
0.0
 10
153.785118
 20
100.145700
 30
0.0
  0
SPLINE
  5
560
100
AcDbEntity
  8
0
 62
7
100
AcDbSpline
 70
8
 71
3
 72
8
 73
4
 74
0
 40
0
 40
0
 40
0
 40
0
 40
1
 40
1
 40
1
 40
1
 10
153.785118
 20
100.145700
 30
0.0
 10
153.057516
 20
100.029199
 30
0.0
 10
152.462202
 20
99.771626
 30
0.0
 10
152.462202
 20
99.573314
 30
0.0
  0
SPLINE
  5
561
100
AcDbEntity
  8
0
 62
7
100
AcDbSpline
 70
8
 71
3
 72
8
 73
4
 74
0
 40
0
 40
0
 40
0
 40
0
 40
1
 40
1
 40
1
 40
1
 10
152.462202
 20
99.573314
 30
0.0
 10
152.462202
 20
99.375005
 30
0.0
 10
152.740016
 20
99.290971
 30
0.0
 10
153.079563
 20
99.386576
 30
0.0
  0
SPLINE
  5
562
100
AcDbEntity
  8
0
 62
7
100
AcDbSpline
 70
8
 71
3
 72
8
 73
4
 74
0
 40
0
 40
0
 40
0
 40
0
 40
1
 40
1
 40
1
 40
1
 10
153.079563
 20
99.386576
 30
0.0
 10
153.419110
 20
99.482179
 30
0.0
 10
154.211043
 20
99.663837
 30
0.0
 10
154.839405
 20
99.790267
 30
0.0
  0
LINE
  5
563
100
AcDbEntity
  8
0
 62
7
100
AcDbLine
 10
154.839405
 20
99.790267
 30
0.0
 11
154.839405
 21
99.790267
 31
0.0
  0
ENDSEC
  0
SECTION
  2
OBJECTS
  0
DICTIONARY
  5
C
330
0
100
AcDbDictionary
  3
ACAD_GROUP
350
D
  3
ACAD_MLINESTYLE
350
17
  0
DICTIONARY
  5
D
330
C
100
AcDbDictionary
  0
DICTIONARY
  5
1A
330
C
100
AcDbDictionary
  0
DICTIONARY
  5
17
330
C
100
AcDbDictionary
  3
STANDARD
350
18
  0
DICTIONARY
  5
19
330
C
100
AcDbDictionary
  0
ENDSEC
  0
EOF
