  0
SECTION
  2
HEADER
  9
$ACADVER
  1
AC1021
  9
$ACADMAINTVER
 70
    25
  9
$DWGCODEPAGE
  3
ANSI_1251
  9
$INSBASE
 10
0.0
 20
0.0
 30
0.0
  9
$EXTMIN
 10
-94.546
 20
-121.8523
 30
0.0
  9
$EXTMAX
 10
96.2412
 20
197.7849
 30
0.0
  9
$LIMMIN
 10
0.0
 20
0.0
  9
$LIMMAX
 10
12.0
 20
9.0
  9
$ORTHOMODE
 70
     0
  9
$REGENMODE
 70
     1
  9
$FILLMODE
 70
     1
  9
$QTEXTMODE
 70
     0
  9
$MIRRTEXT
 70
     1
  9
$LTSCALE
 40
1.0
  9
$ATTMODE
 70
     1
  9
$TEXTSIZE
 40
0.2
  9
$TRACEWID
 40
0.05
  9
$TEXTSTYLE
  7
Standard
  9
$CLAYER
  8
0
  9
$CELTYPE
  6
ByLayer
  9
$CECOLOR
 62
   256
  9
$CELTSCALE
 40
1.0
  9
$DISPSILH
 70
     0
  9
$DIMSCALE
 40
1.0
  9
$DIMASZ
 40
0.18
  9
$DIMEXO
 40
0.0625
  9
$DIMDLI
 40
0.38
  9
$DIMRND
 40
0.0
  9
$DIMDLE
 40
0.0
  9
$DIMEXE
 40
0.18
  9
$DIMTP
 40
0.0
  9
$DIMTM
 40
0.0
  9
$DIMTXT
 40
0.18
  9
$DIMCEN
 40
0.09
  9
$DIMTSZ
 40
0.0
  9
$DIMTOL
 70
     0
  9
$DIMLIM
 70
     0
  9
$DIMTIH
 70
     1
  9
$DIMTOH
 70
     1
  9
$DIMSE1
 70
     0
  9
$DIMSE2
 70
     0
  9
$DIMTAD
 70
     0
  9
$DIMZIN
 70
     0
  9
$DIMBLK
  1

  9
$DIMASO
 70
     1
  9
$DIMSHO
 70
     1
  9
$DIMPOST
  1

  9
$DIMAPOST
  1

  9
$DIMALT
 70
     0
  9
$DIMALTD
 70
     2
  9
$DIMALTF
 40
25.4
  9
$DIMLFAC
 40
1.0
  9
$DIMTOFL
 70
     0
  9
$DIMTVP
 40
0.0
  9
$DIMTIX
 70
     0
  9
$DIMSOXD
 70
     0
  9
$DIMSAH
 70
     0
  9
$DIMBLK1
  1

  9
$DIMBLK2
  1

  9
$DIMSTYLE
  2
Standard
  9
$DIMCLRD
 70
     0
  9
$DIMCLRE
 70
     0
  9
$DIMCLRT
 70
     0
  9
$DIMTFAC
 40
1.0
  9
$DIMGAP
 40
0.09
  9
$DIMJUST
 70
     0
  9
$DIMSD1
 70
     0
  9
$DIMSD2
 70
     0
  9
$DIMTOLJ
 70
     1
  9
$DIMTZIN
 70
     0
  9
$DIMALTZ
 70
     0
  9
$DIMALTTZ
 70
     0
  9
$DIMUPT
 70
     0
  9
$DIMDEC
 70
     4
  9
$DIMTDEC
 70
     4
  9
$DIMALTU
 70
     2
  9
$DIMALTTD
 70
     2
  9
$DIMTXSTY
  7
Standard
  9
$DIMAUNIT
 70
     0
  9
$DIMADEC
 70
     0
  9
$DIMALTRND
 40
0.0
  9
$DIMAZIN
 70
     0
  9
$DIMDSEP
 70
    46
  9
$DIMATFIT
 70
     3
  9
$DIMFRAC
 70
     0
  9
$DIMLDRBLK
  1

  9
$DIMLUNIT
 70
     2
  9
$DIMLWD
 70
    -2
  9
$DIMLWE
 70
    -2
  9
$DIMTMOVE
 70
     0
  9
$DIMFXL
 40
1.0
  9
$DIMFXLON
 70
     0
  9
$DIMJOGANG
 40
0.7853981633974483
  9
$DIMTFILL
 70
     0
  9
$DIMTFILLCLR
 70
     0
  9
$DIMARCSYM
 70
     0
  9
$DIMLTYPE
  6

  9
$DIMLTEX1
  6

  9
$DIMLTEX2
  6

  9
$LUNITS
 70
     2
  9
$LUPREC
 70
     4
  9
$SKETCHINC
 40
0.1
  9
$FILLETRAD
 40
0.5
  9
$AUNITS
 70
     0
  9
$AUPREC
 70
     0
  9
$MENU
  1
.
  9
$ELEVATION
 40
0.0
  9
$PELEVATION
 40
0.0
  9
$THICKNESS
 40
0.0
  9
$LIMCHECK
 70
     0
  9
$CHAMFERA
 40
0.5
  9
$CHAMFERB
 40
0.5
  9
$CHAMFERC
 40
1.0
  9
$CHAMFERD
 40
0.0
  9
$SKPOLY
 70
     0
  9
$TDCREATE
 40
2457042.586397442
  9
$TDUCREATE
 40
2457042.503064109
  9
$TDUPDATE
 40
2457042.586397454
  9
$TDUUPDATE
 40
2457042.50306412
  9
$TDINDWG
 40
0.0000000116
  9
$TDUSRTIMER
 40
0.0000000116
  9
$USRTIMER
 70
     1
  9
$ANGBASE
 50
0.0
  9
$ANGDIR
 70
     0
  9
$PDMODE
 70
     0
  9
$PDSIZE
 40
0.0
  9
$PLINEWID
 40
0.0
  9
$SPLFRAME
 70
     0
  9
$SPLINETYPE
 70
     6
  9
$SPLINESEGS
 70
     8
  9
$HANDSEED
  5
C6
  9
$SURFTAB1
 70
     6
  9
$SURFTAB2
 70
     6
  9
$SURFTYPE
 70
     6
  9
$SURFU
 70
     6
  9
$SURFV
 70
     6
  9
$UCSBASE
  2

  9
$UCSNAME
  2

  9
$UCSORG
 10
0.0
 20
0.0
 30
0.0
  9
$UCSXDIR
 10
1.0
 20
0.0
 30
0.0
  9
$UCSYDIR
 10
0.0
 20
1.0
 30
0.0
  9
$UCSORTHOREF
  2

  9
$UCSORTHOVIEW
 70
     0
  9
$UCSORGTOP
 10
0.0
 20
0.0
 30
0.0
  9
$UCSORGBOTTOM
 10
0.0
 20
0.0
 30
0.0
  9
$UCSORGLEFT
 10
0.0
 20
0.0
 30
0.0
  9
$UCSORGRIGHT
 10
0.0
 20
0.0
 30
0.0
  9
$UCSORGFRONT
 10
0.0
 20
0.0
 30
0.0
  9
$UCSORGBACK
 10
0.0
 20
0.0
 30
0.0
  9
$PUCSBASE
  2

  9
$PUCSNAME
  2

  9
$PUCSORG
 10
0.0
 20
0.0
 30
0.0
  9
$PUCSXDIR
 10
1.0
 20
0.0
 30
0.0
  9
$PUCSYDIR
 10
0.0
 20
1.0
 30
0.0
  9
$PUCSORTHOREF
  2

  9
$PUCSORTHOVIEW
 70
     0
  9
$PUCSORGTOP
 10
0.0
 20
0.0
 30
0.0
  9
$PUCSORGBOTTOM
 10
0.0
 20
0.0
 30
0.0
  9
$PUCSORGLEFT
 10
0.0
 20
0.0
 30
0.0
  9
$PUCSORGRIGHT
 10
0.0
 20
0.0
 30
0.0
  9
$PUCSORGFRONT
 10
0.0
 20
0.0
 30
0.0
  9
$PUCSORGBACK
 10
0.0
 20
0.0
 30
0.0
  9
$USERI1
 70
     0
  9
$USERI2
 70
     0
  9
$USERI3
 70
     0
  9
$USERI4
 70
     0
  9
$USERI5
 70
     0
  9
$USERR1
 40
0.0
  9
$USERR2
 40
0.0
  9
$USERR3
 40
0.0
  9
$USERR4
 40
0.0
  9
$USERR5
 40
0.0
  9
$WORLDVIEW
 70
     1
  9
$SHADEDGE
 70
     3
  9
$SHADEDIF
 70
    70
  9
$TILEMODE
 70
     1
  9
$MAXACTVP
 70
    64
  9
$PINSBASE
 10
0.0
 20
0.0
 30
0.0
  9
$PLIMCHECK
 70
     0
  9
$PEXTMIN
 10
1.000000000000000E+20
 20
1.000000000000000E+20
 30
1.000000000000000E+20
  9
$PEXTMAX
 10
-1.000000000000000E+20
 20
-1.000000000000000E+20
 30
-1.000000000000000E+20
  9
$PLIMMIN
 10
0.0
 20
0.0
  9
$PLIMMAX
 10
12.0
 20
9.0
  9
$UNITMODE
 70
     0
  9
$VISRETAIN
 70
     1
  9
$PLINEGEN
 70
     0
  9
$PSLTSCALE
 70
     1
  9
$TREEDEPTH
 70
  3020
  9
$CMLSTYLE
  2
Standard
  9
$CMLJUST
 70
     0
  9
$CMLSCALE
 40
1.0
  9
$PROXYGRAPHICS
 70
     1
  9
$MEASUREMENT
 70
     0
  9
$CELWEIGHT
370
    -1
  9
$ENDCAPS
280
     0
  9
$JOINSTYLE
280
     0
  9
$LWDISPLAY
290
     0
  9
$INSUNITS
 70
     4
  9
$HYPERLINKBASE
  1

  9
$STYLESHEET
  1

  9
$XEDIT
290
     1
  9
$CEPSNTYPE
380
     0
  9
$PSTYLEMODE
290
     1
  9
$FINGERPRINTGUID
  2
{BCFE6F64-D4C2-40AA-8F54-C67800224D55}
  9
$VERSIONGUID
  2
{FAEB1C32-E019-11D5-929B-00C0DF256EC4}
  9
$EXTNAMES
290
     1
  9
$PSVPSCALE
 40
0.0
  9
$OLESTARTUP
290
     0
  9
$SORTENTS
280
   127
  9
$INDEXCTL
280
     0
  9
$HIDETEXT
280
     1
  9
$XCLIPFRAME
290
     0
  9
$HALOGAP
280
     0
  9
$OBSCOLOR
 70
   257
  9
$OBSLTYPE
280
     0
  9
$INTERSECTIONDISPLAY
280
     0
  9
$INTERSECTIONCOLOR
 70
   257
  9
$DIMASSOC
280
     2
  9
$PROJECTNAME
  1

  9
$CAMERADISPLAY
290
     0
  9
$LENSLENGTH
 40
50.0
  9
$CAMERAHEIGHT
 40
0.0
  9
$STEPSPERSEC
 40
2.0
  9
$STEPSIZE
 40
6.0
  9
$3DDWFPREC
 40
2.0
  9
$PSOLWIDTH
 40
0.25
  9
$PSOLHEIGHT
 40
4.0
  9
$LOFTANG1
 40
1.570796326794897
  9
$LOFTANG2
 40
1.570796326794897
  9
$LOFTMAG1
 40
0.0
  9
$LOFTMAG2
 40
0.0
  9
$LOFTPARAM
 70
     7
  9
$LOFTNORMALS
280
     1
  9
$LATITUDE
 40
37.795
  9
$LONGITUDE
 40
-122.394
  9
$NORTHDIRECTION
 40
0.0
  9
$TIMEZONE
 70
 -8000
  9
$LIGHTGLYPHDISPLAY
280
     1
  9
$TILEMODELIGHTSYNCH
280
     1
  9
$SOLIDHIST
280
     1
  9
$SHOWHIST
280
     1
  9
$DWFFRAME
280
     2
  9
$DGNFRAME
280
     2
  9
$REALWORLDSCALE
290
     1
  9
$INTERFERECOLOR
 62
   256
  9
$CSHADOW
280
     0
  9
$SHADOWPLANELOCATION
 40
0.0
  0
ENDSEC
  0
SECTION
  2
CLASSES
  0
CLASS
  1
ACDBDICTIONARYWDFLT
  2
AcDbDictionaryWithDefault
  3
ObjectDBX Classes
 90
        0
 91
        3
280
     0
281
     0
  0
CLASS
  1
VISUALSTYLE
  2
AcDbVisualStyle
  3
ObjectDBX Classes
 90
     4095
 91
        3
280
     0
281
     0
  0
CLASS
  1
SCALE
  2
AcDbScale
  3
ObjectDBX Classes
 90
     1153
 91
        3
280
     0
281
     0
  0
ENDSEC
  0
SECTION
  2
TABLES
  0
TABLE
  2
VPORT
  5
8
330
0
100
AcDbSymbolTable
 70
     1
  0
VPORT
  5
29
330
8
100
AcDbSymbolTableRecord
100
AcDbViewportTableRecord
  2
*Active
 70
     0
 10
0.0
 20
0.0
 11
1.0
 21
1.0
 12
10.42990654205607
 22
4.5
 13
0.0
 23
0.0
 14
0.5
 24
0.5
 15
0.5
 25
0.5
 16
0.0
 26
0.0
 36
1.0
 17
0.0
 27
0.0
 37
0.0
 40
9.0
 41
1.972972972850329
 42
50.0
 43
0.0
 44
0.0
 50
0.0
 51
0.0
 71
     0
 72
   100
 73
     1
 74
     3
 75
     0
 76
     0
 77
     0
 78
     0
281
     0
 65
     1
110
0.0
120
0.0
130
0.0
111
1.0
121
0.0
131
0.0
112
0.0
122
1.0
132
0.0
 79
     0
146
0.0
 60
     3
 61
     5
292
     1
282
     1
141
0.0
142
0.0
 63
   256
  0
ENDTAB
  0
TABLE
  2
LTYPE
  5
5
330
0
100
AcDbSymbolTable
 70
     1
  0
LTYPE
  5
14
330
5
100
AcDbSymbolTableRecord
100
AcDbLinetypeTableRecord
  2
ByBlock
 70
     0
  3

 72
    65
 73
     0
 40
0.0
  0
LTYPE
  5
15
330
5
100
AcDbSymbolTableRecord
100
AcDbLinetypeTableRecord
  2
ByLayer
 70
     0
  3

 72
    65
 73
     0
 40
0.0
  0
LTYPE
  5
16
330
5
100
AcDbSymbolTableRecord
100
AcDbLinetypeTableRecord
  2
Continuous
 70
     0
  3
Solid line
 72
    65
 73
     0
 40
0.0
  0
ENDTAB
  0
TABLE
  2
LAYER
  5
2
330
0
100
AcDbSymbolTable
 70
     2
  0
LAYER
  5
10
330
2
100
AcDbSymbolTableRecord
100
AcDbLayerTableRecord
  2
0
 70
     0
 62
     7
  6
Continuous
370
    -3
390
F
347
0
  0
LAYER
  5
5E
330
2
100
AcDbSymbolTableRecord
100
AcDbLayerTableRecord
  2
layer 1
 70
     0
 62
     7
  6
Continuous
370
    -3
390
F
347
0
  0
ENDTAB
  0
TABLE
  2
STYLE
  5
3
330
0
100
AcDbSymbolTable
 70
     1
  0
STYLE
  5
11
330
3
100
AcDbSymbolTableRecord
100
AcDbTextStyleTableRecord
  2
Standard
 70
     0
 40
0.0
 41
1.0
 50
0.0
 71
     0
 42
0.2
  3
txt
  4

  0
ENDTAB
  0
TABLE
  2
VIEW
  5
6
330
0
100
AcDbSymbolTable
 70
     0
  0
ENDTAB
  0
TABLE
  2
UCS
  5
7
330
0
100
AcDbSymbolTable
 70
     0
  0
ENDTAB
  0
TABLE
  2
APPID
  5
9
330
0
100
AcDbSymbolTable
 70
     2
  0
APPID
  5
12
330
9
100
AcDbSymbolTableRecord
100
AcDbRegAppTableRecord
  2
ACAD
 70
     0
  0
APPID
  5
5D
330
9
100
AcDbSymbolTableRecord
100
AcDbRegAppTableRecord
  2
ODA
 70
     0
  0
ENDTAB
  0
TABLE
  2
DIMSTYLE
  5
A
330
0
100
AcDbSymbolTable
 70
     1
100
AcDbDimStyleTable
  0
DIMSTYLE
105
27
330
A
100
AcDbSymbolTableRecord
100
AcDbDimStyleTableRecord
  2
Standard
 70
     0
340
11
  0
ENDTAB
  0
TABLE
  2
BLOCK_RECORD
  5
1
330
0
100
AcDbSymbolTable
 70
     1
  0
BLOCK_RECORD
  5
1F
330
1
100
AcDbSymbolTableRecord
100
AcDbBlockTableRecord
  2
*Model_Space
340
22
 70
     0
280
     1
281
     0
  0
BLOCK_RECORD
  5
1B
330
1
100
AcDbSymbolTableRecord
100
AcDbBlockTableRecord
  2
*Paper_Space
340
1E
 70
     0
280
     1
281
     0
  0
BLOCK_RECORD
  5
23
330
1
100
AcDbSymbolTableRecord
100
AcDbBlockTableRecord
  2
*Paper_Space0
340
26
 70
     0
280
     1
281
     0
  0
ENDTAB
  0
ENDSEC
  0
SECTION
  2
BLOCKS
  0
BLOCK
  5
20
330
1F
100
AcDbEntity
  8
0
100
AcDbBlockBegin
  2
*Model_Space
 70
     0
 10
0.0
 20
0.0
 30
0.0
  3
*Model_Space
  1

  0
ENDBLK
  5
21
330
1F
100
AcDbEntity
  8
0
100
AcDbBlockEnd
  0
BLOCK
  5
1C
330
1B
100
AcDbEntity
 67
     1
  8
0
100
AcDbBlockBegin
  2
*Paper_Space
 70
     0
 10
0.0
 20
0.0
 30
0.0
  3
*Paper_Space
  1

  0
ENDBLK
  5
1D
330
1B
100
AcDbEntity
 67
     1
  8
0
100
AcDbBlockEnd
  0
BLOCK
  5
24
330
23
100
AcDbEntity
  8
0
100
AcDbBlockBegin
  2
*Paper_Space0
 70
     0
 10
0.0
 20
0.0
 30
0.0
  3
*Paper_Space0
  1

  0
ENDBLK
  5
25
330
23
100
AcDbEntity
  8
0
100
AcDbBlockEnd
  0
ENDSEC
  0
SECTION
  2
ENTITIES
  0
SPLINE
  5
5F
330
1F
100
AcDbEntity
  8
layer 1
 62
   250
370
     9
100
AcDbSpline
210
0.0
220
0.0
230
1.0
 70
    11
 71
     3
 72
    96
 73
    92
 74
     0
 42
0.0000000001
 43
0.0000000001
 40
0.0
 40
0.0
 40
0.0
 40
0.0
 40
0.0434782608695652
 40
0.0434782608695652
 40
0.0434782608695652
 40
0.0434782608695652
 40
0.0869565217391304
 40
0.0869565217391304
 40
0.0869565217391304
 40
0.0869565217391304
 40
0.1304347826086956
 40
0.1304347826086956
 40
0.1304347826086956
 40
0.1304347826086956
 40
0.1739130434782609
 40
0.1739130434782609
 40
0.1739130434782609
 40
0.1739130434782609
 40
0.2173913043478261
 40
0.2173913043478261
 40
0.2173913043478261
 40
0.2173913043478261
 40
0.2608695652173913
 40
0.2608695652173913
 40
0.2608695652173913
 40
0.2608695652173913
 40
0.3043478260869565
 40
0.3043478260869565
 40
0.3043478260869565
 40
0.3043478260869565
 40
0.3478260869565217
 40
0.3478260869565217
 40
0.3478260869565217
 40
0.3478260869565217
 40
0.3913043478260869
 40
0.3913043478260869
 40
0.3913043478260869
 40
0.3913043478260869
 40
0.4347826086956521
 40
0.4347826086956521
 40
0.4347826086956521
 40
0.4347826086956521
 40
0.4782608695652173
 40
0.4782608695652173
 40
0.4782608695652173
 40
0.4782608695652173
 40
0.5217391304347825
 40
0.5217391304347825
 40
0.5217391304347825
 40
0.5217391304347825
 40
0.5652173913043477
 40
0.5652173913043477
 40
0.5652173913043477
 40
0.5652173913043477
 40
0.6086956521739129
 40
0.6086956521739129
 40
0.6086956521739129
 40
0.6086956521739129
 40
0.652173913043478
 40
0.652173913043478
 40
0.652173913043478
 40
0.652173913043478
 40
0.6956521739130432
 40
0.6956521739130432
 40
0.6956521739130432
 40
0.6956521739130432
 40
0.7391304347826084
 40
0.7391304347826084
 40
0.7391304347826084
 40
0.7391304347826084
 40
0.7826086956521736
 40
0.7826086956521736
 40
0.7826086956521736
 40
0.7826086956521736
 40
0.8260869565217388
 40
0.8260869565217388
 40
0.8260869565217388
 40
0.8260869565217388
 40
0.869565217391304
 40
0.869565217391304
 40
0.869565217391304
 40
0.869565217391304
 40
0.9130434782608692
 40
0.9130434782608692
 40
0.9130434782608692
 40
0.9130434782608692
 40
0.9565217391304344
 40
0.9565217391304344
 40
0.9565217391304344
 40
0.9565217391304344
 40
1.0
 40
1.0
 40
1.0
 40
1.0
 10
-65.2716
 20
109.4495
 30
0.0
 10
-54.2027
 20
120.5561
 30
0.0
 10
-45.0108
 20
127.3002
 30
0.0
 10
-42.7768
 20
120.7715
 30
0.0
 10
-42.7768
 20
120.7715
 30
0.0
 10
-42.2717
 20
119.2963
 30
0.0
 10
-41.2897
 20
119.5437
 30
0.0
 10
-40.4096
 20
121.0321
 30
0.0
 10
-40.4096
 20
121.0321
 30
0.0
 10
-25.3961
 20
146.4227
 30
0.0
 10
-9.731
 20
132.5286
 30
0.0
 10
-10.8086
 20
143.9843
 30
0.0
 10
-10.8086
 20
143.9843
 30
0.0
 10
-14.4415
 20
182.6069
 30
0.0
 10
15.6236
 20
198.0155
 30
0.0
 10
20.0451
 20
197.7469
 30
0.0
 10
20.0451
 20
197.7469
 30
0.0
 10
34.5812
 20
196.8641
 30
0.0
 10
29.775
 20
179.8949
 30
0.0
 10
30.3439
 20
171.1879
 30
0.0
 10
30.3439
 20
171.1879
 30
0.0
 10
30.9483
 20
161.9316
 30
0.0
 10
36.8692
 20
151.9801
 30
0.0
 10
63.0872
 20
153.8572
 30
0.0
 10
63.0872
 20
153.8572
 30
0.0
 10
71.3312
 20
154.4474
 30
0.0
 10
80.3191
 20
157.7607
 30
0.0
 10
89.3612
 20
150.3131
 30
0.0
 10
89.3612
 20
150.3131
 30
0.0
 10
105.8048
 20
136.7676
 30
0.0
 10
67.2009
 20
122.4394
 30
0.0
 10
50.5203
 20
124.4671
 30
0.0
 10
50.5203
 20
124.4671
 30
0.0
 10
41.183
 20
125.602
 30
0.0
 10
32.8568
 20
120.718
 30
0.0
 10
29.2656
 20
114.085
 30
0.0
 10
29.2656
 20
114.085
 30
0.0
 10
23.8433
 20
104.0692
 30
0.0
 10
43.4624
 20
94.0043
 30
0.0
 10
52.1415
 20
81.2982
 30
0.0
 10
52.1415
 20
81.2982
 30
0.0
 10
53.6965
 20
79.6106
 30
0.0
 10
61.498
 20
79.5823
 30
0.0
 10
65.5079
 20
80.3009
 30
0.0
 10
65.5079
 20
80.3009
 30
0.0
 10
71.2491
 20
81.3297
 30
0.0
 10
72.8614
 20
79.642
 30
0.0
 10
77.0992
 20
79.2434
 30
0.0
 10
77.0992
 20
79.2434
 30
0.0
 10
86.3872
 20
78.3695
 30
0.0
 10
94.7159
 20
97.0908
 30
0.0
 10
96.1808
 20
76.8318
 30
0.0
 10
96.1808
 20
76.8318
 30
0.0
 10
96.9463
 20
66.2432
 30
0.0
 10
80.4879
 20
29.0003
 30
0.0
 10
83.5398
 20
18.1811
 30
0.0
 10
83.5398
 20
18.1811
 30
0.0
 10
91.7804
 20
-11.0306
 30
0.0
 10
76.5883
 20
-60.3444
 30
0.0
 10
16.1996
 20
-110.1075
 30
0.0
 10
16.1996
 20
-110.1075
 30
0.0
 10
18.8193
 20
-118.4711
 30
0.0
 10
6.7758
 20
-124.4734
 30
0.0
 10
-6.4733
 20
-115.3298
 30
0.0
 10
-6.4733
 20
-115.3298
 30
0.0
 10
-8.9795
 20
-122.0109
 30
0.0
 10
-36.8476
 20
-126.7735
 30
0.0
 10
-31.3685
 20
-112.6824
 30
0.0
 10
-31.3685
 20
-112.6824
 30
0.0
 10
-74.1386
 20
-73.6766
 30
0.0
 10
-87.9305
 20
-39.5239
 30
0.0
 10
-86.107
 20
-12.5763
 30
0.0
 10
-86.107
 20
-12.5763
 30
0.0
 10
-84.0765
 20
17.4366
 30
0.0
 10
-98.3361
 20
13.7712
 30
0.0
 10
-93.5078
 20
20.2035
 30
0.0
 10
-93.5078
 20
20.2035
 30
0.0
 10
-91.8995
 20
22.3466
 30
0.0
 10
-84.8592
 20
26.6339
 30
0.0
 10
-83.9262
 20
31.9291
 30
0.0
 10
-83.9262
 20
31.9291
 30
0.0
 10
-80.5272
 20
51.2243
 30
0.0
 10
-77.2806
 20
60.9281
 30
0.0
 10
-72.0742
 20
71.2444
 30
0.0
 10
-72.0742
 20
71.2444
 30
0.0
 10
-69.5853
 20
76.1761
 30
0.0
 10
-68.76
 20
77.4499
 30
0.0
 10
-69.1723
 20
80.1595
 30
0.0
 10
-69.1723
 20
80.1595
 30
0.0
 10
-70.8031
 20
90.8776
 30
0.0
 10
-69.0443
 20
105.6638
 30
0.0
 10
-65.2716
 20
109.4495
 30
0.0
  0
SPLINE
  5
60
330
1F
100
AcDbEntity
  8
layer 1
 62
    22
370
     9
100
AcDbSpline
210
0.0
220
0.0
230
1.0
 70
     8
 71
     3
 72
     8
 73
     4
 74
     0
 42
0.0000000001
 43
0.0000000001
 40
0.0
 40
0.0
 40
0.0
 40
0.0
 40
1.0
 40
1.0
 40
1.0
 40
1.0
 10
-78.0723
 20
18.2333
 30
0.0
 10
-74.9069
 20
14.595
 30
0.0
 10
-81.8876
 20
9.2846
 30
0.0
 10
-76.211
 20
4.2938
 30
0.0
  0
SPLINE
  5
61
330
1F
100
AcDbEntity
  8
layer 1
 62
    22
370
     9
100
AcDbSpline
210
0.0
220
0.0
230
1.0
 70
    11
 71
     3
 72
    28
 73
    24
 74
     0
 42
0.0000000001
 43
0.0000000001
 40
0.0
 40
0.0
 40
0.0
 40
0.0
 40
0.1666666666666667
 40
0.1666666666666667
 40
0.1666666666666667
 40
0.1666666666666667
 40
0.3333333333333333
 40
0.3333333333333333
 40
0.3333333333333333
 40
0.3333333333333333
 40
0.5
 40
0.5
 40
0.5
 40
0.5
 40
0.6666666666666666
 40
0.6666666666666666
 40
0.6666666666666666
 40
0.6666666666666666
 40
0.8333333333333333
 40
0.8333333333333333
 40
0.8333333333333333
 40
0.8333333333333333
 40
1.0
 40
1.0
 40
1.0
 40
1.0
 10
-88.4333
 20
19.258
 30
0.0
 10
-90.1099
 20
16.9757
 30
0.0
 10
-83.8158
 20
16.1396
 30
0.0
 10
-83.4995
 20
7.7427
 30
0.0
 10
-83.4995
 20
7.7427
 30
0.0
 10
-83.2699
 20
1.6461
 30
0.0
 10
-79.0633
 20
-0.3666
 30
0.0
 10
-72.8381
 20
0.2544
 30
0.0
 10
-72.8381
 20
0.2544
 30
0.0
 10
-75.7057
 20
7.2263
 30
0.0
 10
-57.6559
 20
16.379
 30
0.0
 10
-61.2736
 20
23.9253
 30
0.0
 10
-61.2736
 20
23.9253
 30
0.0
 10
-63.3976
 20
22.8974
 30
0.0
 10
-68.1491
 20
21.45
 30
0.0
 10
-69.1235
 20
21.9818
 30
0.0
 10
-69.1235
 20
21.9818
 30
0.0
 10
-72.6436
 20
23.9031
 30
0.0
 10
-75.2579
 20
23.6281
 30
0.0
 10
-79.2013
 20
20.7812
 30
0.0
 10
-79.2013
 20
20.7812
 30
0.0
 10
-81.8492
 20
22.0507
 30
0.0
 10
-86.2519
 20
22.2274
 30
0.0
 10
-88.4333
 20
19.258
 30
0.0
  0
SPLINE
  5
62
330
1F
100
AcDbEntity
  8
layer 1
 62
    22
370
     9
100
AcDbSpline
210
0.0
220
0.0
230
1.0
 70
     8
 71
     3
 72
     8
 73
     4
 74
     0
 42
0.0000000001
 43
0.0000000001
 40
0.0
 40
0.0
 40
0.0
 40
0.0
 40
1.0
 40
1.0
 40
1.0
 40
1.0
 10
-69.8654
 20
19.4812
 30
0.0
 10
-68.0761
 20
14.7876
 30
0.0
 10
-76.4605
 20
11.8319
 30
0.0
 10
-75.2538
 20
5.1285
 30
0.0
  0
SPLINE
  5
63
330
1F
100
AcDbEntity
  8
layer 1
 62
    22
370
     9
100
AcDbSpline
210
0.0
220
0.0
230
1.0
 70
    11
 71
     3
 72
    28
 73
    24
 74
     0
 42
0.0000000001
 43
0.0000000001
 40
0.0
 40
0.0
 40
0.0
 40
0.0
 40
0.1666666666666667
 40
0.1666666666666667
 40
0.1666666666666667
 40
0.1666666666666667
 40
0.3333333333333333
 40
0.3333333333333333
 40
0.3333333333333333
 40
0.3333333333333333
 40
0.5
 40
0.5
 40
0.5
 40
0.5
 40
0.6666666666666666
 40
0.6666666666666666
 40
0.6666666666666666
 40
0.6666666666666666
 40
0.8333333333333333
 40
0.8333333333333333
 40
0.8333333333333333
 40
0.8333333333333333
 40
1.0
 40
1.0
 40
1.0
 40
1.0
 10
-87.7627
 20
19.0053
 30
0.0
 10
-88.9854
 20
17.3267
 30
0.0
 10
-83.004
 20
16.1534
 30
0.0
 10
-82.6242
 20
8.3383
 30
0.0
 10
-82.6242
 20
8.3383
 30
0.0
 10
-82.3428
 20
2.5494
 30
0.0
 10
-79.5911
 20
0.3146
 30
0.0
 10
-73.7543
 20
0.9672
 30
0.0
 10
-73.7543
 20
0.9672
 30
0.0
 10
-76.327
 20
6.9329
 30
0.0
 10
-59.008
 20
16.976
 30
0.0
 10
-61.9108
 20
23.1554
 30
0.0
 10
-61.9108
 20
23.1554
 30
0.0
 10
-64.1497
 20
21.8001
 30
0.0
 10
-68.1974
 20
20.8593
 30
0.0
 10
-69.4075
 20
21.5206
 30
0.0
 10
-69.4075
 20
21.5206
 30
0.0
 10
-72.8773
 20
23.4165
 30
0.0
 10
-75.3608
 20
22.9752
 30
0.0
 10
-79.0989
 20
20.2305
 30
0.0
 10
-79.0989
 20
20.2305
 30
0.0
 10
-81.5948
 20
21.2701
 30
0.0
 10
-85.687
 20
21.8554
 30
0.0
 10
-87.7627
 20
19.0053
 30
0.0
  0
SPLINE
  5
64
330
1F
100
AcDbEntity
  8
layer 1
 62
    22
370
     9
100
AcDbSpline
210
0.0
220
0.0
230
1.0
 70
    11
 71
     3
 72
    12
 73
     8
 74
     0
 42
0.0000000001
 43
0.0000000001
 40
0.0
 40
0.0
 40
0.0
 40
0.0
 40
0.5
 40
0.5
 40
0.5
 40
0.5
 40
1.0
 40
1.0
 40
1.0
 40
1.0
 10
-69.0064
 20
-62.4977
 30
0.0
 10
-37.512
 20
-32.05
 30
0.0
 10
31.7619
 20
-39.39
 30
0.0
 10
60.873
 20
-59.1769
 30
0.0
 10
60.873
 20
-59.1769
 30
0.0
 10
36.9925
 20
-30.7747
 30
0.0
 10
-54.6174
 20
-29.0708
 30
0.0
 10
-69.0064
 20
-62.4977
 30
0.0
  0
SPLINE
  5
65
330
1F
100
AcDbEntity
  8
layer 1
 62
    22
370
     9
100
AcDbSpline
210
0.0
220
0.0
230
1.0
 70
    11
 71
     3
 72
    12
 73
     8
 74
     0
 42
0.0000000001
 43
0.0000000001
 40
0.0
 40
0.0
 40
0.0
 40
0.0
 40
0.5
 40
0.5
 40
0.5
 40
0.5
 40
1.0
 40
1.0
 40
1.0
 40
1.0
 10
7.2002
 20
-52.2653
 30
0.0
 10
27.7594
 20
-45.883
 30
0.0
 10
33.5739
 20
-61.1866
 30
0.0
 10
58.2153
 20
-61.7184
 30
0.0
 10
58.2153
 20
-61.7184
 30
0.0
 10
44.9282
 20
-70.8062
 30
0.0
 10
27.6448
 20
-54.9543
 30
0.0
 10
7.2002
 20
-52.2653
 30
0.0
  0
SPLINE
  5
66
330
1F
100
AcDbEntity
  8
layer 1
 62
    22
370
     9
100
AcDbSpline
210
0.0
220
0.0
230
1.0
 70
    11
 71
     3
 72
    20
 73
    16
 74
     0
 42
0.0000000001
 43
0.0000000001
 40
0.0
 40
0.0
 40
0.0
 40
0.0
 40
0.25
 40
0.25
 40
0.25
 40
0.25
 40
0.5
 40
0.5
 40
0.5
 40
0.5
 40
0.75
 40
0.75
 40
0.75
 40
0.75
 40
1.0
 40
1.0
 40
1.0
 40
1.0
 10
14.1254
 20
-69.7734
 30
0.0
 10
9.703
 20
-68.4349
 30
0.0
 10
4.7132
 20
-69.7258
 30
0.0
 10
2.9827
 20
-72.6559
 30
0.0
 10
2.9827
 20
-72.6559
 30
0.0
 10
1.2522
 20
-75.586
 30
0.0
 10
3.435
 20
-79.0478
 30
0.0
 10
7.8575
 20
-80.3864
 30
0.0
 10
7.8575
 20
-80.3864
 30
0.0
 10
12.2795
 20
-81.7248
 30
0.0
 10
17.2693
 20
-80.4338
 30
0.0
 10
18.9998
 20
-77.5038
 30
0.0
 10
18.9998
 20
-77.5038
 30
0.0
 10
20.7303
 20
-74.5737
 30
0.0
 10
18.5475
 20
-71.1118
 30
0.0
 10
14.1254
 20
-69.7734
 30
0.0
  0
SPLINE
  5
67
330
1F
100
AcDbEntity
  8
layer 1
 62
    22
370
     9
100
AcDbSpline
210
0.0
220
0.0
230
1.0
 70
    11
 71
     3
 72
    12
 73
     8
 74
     0
 42
0.0000000001
 43
0.0000000001
 40
0.0
 40
0.0
 40
0.0
 40
0.0
 40
0.5
 40
0.5
 40
0.5
 40
0.5
 40
1.0
 40
1.0
 40
1.0
 40
1.0
 10
84.0334
 20
40.6112
 30
0.0
 10
85.0687
 20
57.207
 30
0.0
 10
94.3117
 20
68.6411
 30
0.0
 10
91.9916
 20
80.4783
 30
0.0
 10
91.9916
 20
80.4783
 30
0.0
 10
87.5613
 20
70.1603
 30
0.0
 10
79.0585
 20
52.9959
 30
0.0
 10
84.0334
 20
40.6112
 30
0.0
  0
SPLINE
  5
68
330
1F
100
AcDbEntity
  8
layer 1
 62
    22
370
     9
100
AcDbSpline
210
0.0
220
0.0
230
1.0
 70
    11
 71
     3
 72
    12
 73
     8
 74
     0
 42
0.0000000001
 43
0.0000000001
 40
0.0
 40
0.0
 40
0.0
 40
0.0
 40
0.5
 40
0.5
 40
0.5
 40
0.5
 40
1.0
 40
1.0
 40
1.0
 40
1.0
 10
35.6229
 20
-10.5869
 30
0.0
 10
42.034
 20
-6.3234
 30
0.0
 10
48.9795
 20
-8.5629
 30
0.0
 10
52.678
 20
-13.7461
 30
0.0
 10
52.678
 20
-13.7461
 30
0.0
 10
57.5677
 20
-5.5077
 30
0.0
 10
39.0258
 20
-0.4198
 30
0.0
 10
35.6229
 20
-10.5869
 30
0.0
  0
SPLINE
  5
69
330
1F
100
AcDbEntity
  8
layer 1
 62
    22
370
     9
100
AcDbSpline
210
0.0
220
0.0
230
1.0
 70
    11
 71
     3
 72
    12
 73
     8
 74
     0
 42
0.0000000001
 43
0.0000000001
 40
0.0
 40
0.0
 40
0.0
 40
0.0
 40
0.5
 40
0.5
 40
0.5
 40
0.5
 40
1.0
 40
1.0
 40
1.0
 40
1.0
 10
12.5663
 20
-9.4989
 30
0.0
 10
17.8526
 20
-5.0445
 30
0.0
 10
25.5294
 20
-6.2366
 30
0.0
 10
28.4563
 20
-10.1543
 30
0.0
 10
28.4563
 20
-10.1543
 30
0.0
 10
31.8985
 20
-2.4718
 30
0.0
 10
16.9173
 20
-0.0601
 30
0.0
 10
12.5663
 20
-9.4989
 30
0.0
  0
SPLINE
  5
6A
330
1F
100
AcDbEntity
  8
layer 1
 62
    22
370
     9
100
AcDbSpline
210
0.0
220
0.0
230
1.0
 70
    11
 71
     3
 72
    12
 73
     8
 74
     0
 42
0.0000000001
 43
0.0000000001
 40
0.0
 40
0.0
 40
0.0
 40
0.0
 40
0.5
 40
0.5
 40
0.5
 40
0.5
 40
1.0
 40
1.0
 40
1.0
 40
1.0
 10
-16.0197
 20
-7.232
 30
0.0
 10
-10.6061
 20
-2.5965
 30
0.0
 10
-4.4153
 20
-4.3702
 30
0.0
 10
-0.9291
 20
-9.2686
 30
0.0
 10
-0.9291
 20
-9.2686
 30
0.0
 10
2.9628
 20
-0.7923
 30
0.0
 10
-13.5219
 20
3.06
 30
0.0
 10
-16.0197
 20
-7.232
 30
0.0
  0
SPLINE
  5
6B
330
1F
100
AcDbEntity
  8
layer 1
 62
    22
370
     9
100
AcDbSpline
210
0.0
220
0.0
230
1.0
 70
    11
 71
     3
 72
    12
 73
     8
 74
     0
 42
0.0000000001
 43
0.0000000001
 40
0.0
 40
0.0
 40
0.0
 40
0.0
 40
0.5
 40
0.5
 40
0.5
 40
0.5
 40
1.0
 40
1.0
 40
1.0
 40
1.0
 10
49.8819
 20
-1.3379
 30
0.0
 10
56.293
 20
2.9256
 30
0.0
 10
63.2385
 20
0.6861
 30
0.0
 10
66.937
 20
-4.497
 30
0.0
 10
66.937
 20
-4.497
 30
0.0
 10
71.8267
 20
3.7414
 30
0.0
 10
53.2848
 20
8.8293
 30
0.0
 10
49.8819
 20
-1.3379
 30
0.0
  0
SPLINE
  5
6C
330
1F
100
AcDbEntity
  8
layer 1
 62
    22
370
     9
100
AcDbSpline
210
0.0
220
0.0
230
1.0
 70
    11
 71
     3
 72
    12
 73
     8
 74
     0
 42
0.0000000001
 43
0.0000000001
 40
0.0
 40
0.0
 40
0.0
 40
0.0
 40
0.5
 40
0.5
 40
0.5
 40
0.5
 40
1.0
 40
1.0
 40
1.0
 40
1.0
 10
26.3103
 20
1.3402
 30
0.0
 10
32.7214
 20
5.6037
 30
0.0
 10
39.6669
 20
3.3642
 30
0.0
 10
43.3654
 20
-1.8189
 30
0.0
 10
43.3654
 20
-1.8189
 30
0.0
 10
48.2551
 20
6.4195
 30
0.0
 10
29.7132
 20
11.5074
 30
0.0
 10
26.3103
 20
1.3402
 30
0.0
  0
SPLINE
  5
6D
330
1F
100
AcDbEntity
  8
layer 1
 62
    22
370
     9
100
AcDbSpline
210
0.0
220
0.0
230
1.0
 70
    11
 71
     3
 72
    12
 73
     8
 74
     0
 42
0.0000000001
 43
0.0000000001
 40
0.0
 40
0.0
 40
0.0
 40
0.0
 40
0.5
 40
0.5
 40
0.5
 40
0.5
 40
1.0
 40
1.0
 40
1.0
 40
1.0
 10
1.005
 20
1.4814
 30
0.0
 10
7.4161
 20
5.745
 30
0.0
 10
14.3616
 20
3.5055
 30
0.0
 10
18.0601
 20
-1.6777
 30
0.0
 10
18.0601
 20
-1.6777
 30
0.0
 10
22.9498
 20
6.5607
 30
0.0
 10
4.4079
 20
11.6486
 30
0.0
 10
1.005
 20
1.4814
 30
0.0
  0
SPLINE
  5
6E
330
1F
100
AcDbEntity
  8
layer 1
 62
    22
370
     9
100
AcDbSpline
210
0.0
220
0.0
230
1.0
 70
    11
 71
     3
 72
    12
 73
     8
 74
     0
 42
0.0000000001
 43
0.0000000001
 40
0.0
 40
0.0
 40
0.0
 40
0.0
 40
0.5
 40
0.5
 40
0.5
 40
0.5
 40
1.0
 40
1.0
 40
1.0
 40
1.0
 10
15.3189
 20
12.1334
 30
0.0
 10
19.6264
 20
17.5041
 30
0.0
 10
27.1157
 20
16.6342
 30
0.0
 10
32.7462
 20
12.2794
 30
0.0
 10
32.7462
 20
12.2794
 30
0.0
 10
33.9792
 20
21.2385
 30
0.0
 10
14.3521
 20
22.6921
 30
0.0
 10
15.3189
 20
12.1334
 30
0.0
  0
SPLINE
  5
6F
330
1F
100
AcDbEntity
  8
layer 1
 62
    22
370
     9
100
AcDbSpline
210
0.0
220
0.0
230
1.0
 70
    11
 71
     3
 72
    12
 73
     8
 74
     0
 42
0.0000000001
 43
0.0000000001
 40
0.0
 40
0.0
 40
0.0
 40
0.0
 40
0.5
 40
0.5
 40
0.5
 40
0.5
 40
1.0
 40
1.0
 40
1.0
 40
1.0
 10
39.3281
 20
12.1511
 30
0.0
 10
45.7392
 20
16.4147
 30
0.0
 10
52.6847
 20
14.1752
 30
0.0
 10
56.3832
 20
8.992
 30
0.0
 10
56.3832
 20
8.992
 30
0.0
 10
61.2729
 20
17.2304
 30
0.0
 10
42.731
 20
22.3183
 30
0.0
 10
39.3281
 20
12.1511
 30
0.0
  0
SPLINE
  5
70
330
1F
100
AcDbEntity
  8
layer 1
 62
    22
370
     9
100
AcDbSpline
210
0.0
220
0.0
230
1.0
 70
    11
 71
     3
 72
    12
 73
     8
 74
     0
 42
0.0000000001
 43
0.0000000001
 40
0.0
 40
0.0
 40
0.0
 40
0.0
 40
0.5
 40
0.5
 40
0.5
 40
0.5
 40
1.0
 40
1.0
 40
1.0
 40
1.0
 10
51.1257
 20
21.1779
 30
0.0
 10
56.875
 20
25.8585
 30
0.0
 10
64.069
 20
24.0673
 30
0.0
 10
68.4616
 20
19.1209
 30
0.0
 10
68.4616
 20
19.1209
 30
0.0
 10
72.1445
 20
27.6799
 30
0.0
 10
53.0646
 20
31.5705
 30
0.0
 10
51.1257
 20
21.1779
 30
0.0
  0
SPLINE
  5
71
330
1F
100
AcDbEntity
  8
layer 1
 62
    22
370
     9
100
AcDbSpline
210
0.0
220
0.0
230
1.0
 70
    11
 71
     3
 72
    12
 73
     8
 74
     0
 42
0.0000000001
 43
0.0000000001
 40
0.0
 40
0.0
 40
0.0
 40
0.0
 40
0.5
 40
0.5
 40
0.5
 40
0.5
 40
1.0
 40
1.0
 40
1.0
 40
1.0
 10
26.9321
 20
23.3101
 30
0.0
 10
32.526
 20
28.0783
 30
0.0
 10
39.7667
 20
26.3897
 30
0.0
 10
44.3092
 20
21.5025
 30
0.0
 10
44.3092
 20
21.5025
 30
0.0
 10
47.7173
 20
30.1226
 30
0.0
 10
28.5407
 20
33.7402
 30
0.0
 10
26.9321
 20
23.3101
 30
0.0
  0
SPLINE
  5
72
330
1F
100
AcDbEntity
  8
layer 1
 62
    22
370
     9
100
AcDbSpline
210
0.0
220
0.0
230
1.0
 70
    11
 71
     3
 72
    12
 73
     8
 74
     0
 42
0.0000000001
 43
0.0000000001
 40
0.0
 40
0.0
 40
0.0
 40
0.0
 40
0.5
 40
0.5
 40
0.5
 40
0.5
 40
1.0
 40
1.0
 40
1.0
 40
1.0
 10
0.3574
 20
23.7086
 30
0.0
 10
5.9864
 20
28.4573
 30
0.0
 10
13.2168
 20
26.7457
 30
0.0
 10
17.726
 20
21.8449
 30
0.0
 10
17.726
 20
21.8449
 30
0.0
 10
21.1958
 20
30.4517
 30
0.0
 10
2.0402
 20
34.1307
 30
0.0
 10
0.3574
 20
23.7086
 30
0.0
  0
SPLINE
  5
73
330
1F
100
AcDbEntity
  8
layer 1
 62
    22
370
     9
100
AcDbSpline
210
0.0
220
0.0
230
1.0
 70
    11
 71
     3
 72
    12
 73
     8
 74
     0
 42
0.0000000001
 43
0.0000000001
 40
0.0
 40
0.0
 40
0.0
 40
0.0
 40
0.5
 40
0.5
 40
0.5
 40
0.5
 40
1.0
 40
1.0
 40
1.0
 40
1.0
 10
38.0259
 20
33.1134
 30
0.0
 10
43.4932
 20
37.9503
 30
0.0
 10
50.7689
 20
36.3447
 30
0.0
 10
55.4304
 20
31.5066
 30
0.0
 10
55.4304
 20
31.5066
 30
0.0
 10
58.6166
 20
40.1729
 30
0.0
 10
39.3688
 20
43.5702
 30
0.0
 10
38.0259
 20
33.1134
 30
0.0
  0
SPLINE
  5
74
330
1F
100
AcDbEntity
  8
layer 1
 62
    22
370
     9
100
AcDbSpline
210
0.0
220
0.0
230
1.0
 70
    11
 71
     3
 72
    12
 73
     8
 74
     0
 42
0.0000000001
 43
0.0000000001
 40
0.0
 40
0.0
 40
0.0
 40
0.0
 40
0.5
 40
0.5
 40
0.5
 40
0.5
 40
1.0
 40
1.0
 40
1.0
 40
1.0
 10
11.5949
 20
32.5234
 30
0.0
 10
17.0622
 20
37.3602
 30
0.0
 10
24.3379
 20
35.7547
 30
0.0
 10
28.9994
 20
30.9165
 30
0.0
 10
28.9994
 20
30.9165
 30
0.0
 10
32.1857
 20
39.5829
 30
0.0
 10
12.9378
 20
42.9801
 30
0.0
 10
11.5949
 20
32.5234
 30
0.0
  0
SPLINE
  5
75
330
1F
100
AcDbEntity
  8
layer 1
 62
    22
370
     9
100
AcDbSpline
210
0.0
220
0.0
230
1.0
 70
    11
 71
     3
 72
    12
 73
     8
 74
     0
 42
0.0000000001
 43
0.0000000001
 40
0.0
 40
0.0
 40
0.0
 40
0.0
 40
0.5
 40
0.5
 40
0.5
 40
0.5
 40
1.0
 40
1.0
 40
1.0
 40
1.0
 10
-16.2035
 20
27.4085
 30
0.0
 10
-12.0898
 20
31.5697
 30
0.0
 10
-7.9313
 20
31.9356
 30
0.0
 10
-2.9716
 20
28.4029
 30
0.0
 10
-2.9716
 20
28.4029
 30
0.0
 10
-1.866
 20
34.8462
 30
0.0
 10
-16.6781
 20
37.662
 30
0.0
 10
-16.2035
 20
27.4085
 30
0.0
  0
SPLINE
  5
76
330
1F
100
AcDbEntity
  8
layer 1
 62
    22
370
     9
100
AcDbSpline
210
0.0
220
0.0
230
1.0
 70
    11
 71
     3
 72
    12
 73
     8
 74
     0
 42
0.0000000001
 43
0.0000000001
 40
0.0
 40
0.0
 40
0.0
 40
0.0
 40
0.5
 40
0.5
 40
0.5
 40
0.5
 40
1.0
 40
1.0
 40
1.0
 40
1.0
 10
-27.7087
 20
37.8557
 30
0.0
 10
-25.3026
 20
43.8011
 30
0.0
 10
-17.8017
 20
44.0613
 30
0.0
 10
-10.9596
 20
40.6036
 30
0.0
 10
-10.9596
 20
40.6036
 30
0.0
 10
-12.6831
 20
49.632
 30
0.0
 10
-32.0722
 20
48.1346
 30
0.0
 10
-27.7087
 20
37.8557
 30
0.0
  0
SPLINE
  5
77
330
1F
100
AcDbEntity
  8
layer 1
 62
    22
370
     9
100
AcDbSpline
210
0.0
220
0.0
230
1.0
 70
    11
 71
     3
 72
    12
 73
     8
 74
     0
 42
0.0000000001
 43
0.0000000001
 40
0.0
 40
0.0
 40
0.0
 40
0.0
 40
0.5
 40
0.5
 40
0.5
 40
0.5
 40
1.0
 40
1.0
 40
1.0
 40
1.0
 10
-38.2305
 20
27.1079
 30
0.0
 10
-35.8244
 20
33.0533
 30
0.0
 10
-28.3235
 20
33.3135
 30
0.0
 10
-21.4814
 20
29.8558
 30
0.0
 10
-21.4814
 20
29.8558
 30
0.0
 10
-23.2049
 20
38.8842
 30
0.0
 10
-42.5939
 20
37.3868
 30
0.0
 10
-38.2305
 20
27.1079
 30
0.0
  0
SPLINE
  5
78
330
1F
100
AcDbEntity
  8
layer 1
 62
    22
370
     9
100
AcDbSpline
210
0.0
220
0.0
230
1.0
 70
    11
 71
     3
 72
    12
 73
     8
 74
     0
 42
0.0000000001
 43
0.0000000001
 40
0.0
 40
0.0
 40
0.0
 40
0.0
 40
0.5
 40
0.5
 40
0.5
 40
0.5
 40
1.0
 40
1.0
 40
1.0
 40
1.0
 10
-49.3514
 20
39.6456
 30
0.0
 10
-46.9454
 20
45.591
 30
0.0
 10
-39.4445
 20
45.8512
 30
0.0
 10
-32.6024
 20
42.3935
 30
0.0
 10
-32.6024
 20
42.3935
 30
0.0
 10
-34.3259
 20
51.4219
 30
0.0
 10
-53.7149
 20
49.9245
 30
0.0
 10
-49.3514
 20
39.6456
 30
0.0
  0
SPLINE
  5
79
330
1F
100
AcDbEntity
  8
layer 1
 62
    22
370
     9
100
AcDbSpline
210
0.0
220
0.0
230
1.0
 70
    11
 71
     3
 72
    12
 73
     8
 74
     0
 42
0.0000000001
 43
0.0000000001
 40
0.0
 40
0.0
 40
0.0
 40
0.0
 40
0.5
 40
0.5
 40
0.5
 40
0.5
 40
1.0
 40
1.0
 40
1.0
 40
1.0
 10
-33.6801
 20
53.0792
 30
0.0
 10
-31.2741
 20
59.0246
 30
0.0
 10
-23.7732
 20
59.2848
 30
0.0
 10
-16.9311
 20
55.8271
 30
0.0
 10
-16.9311
 20
55.8271
 30
0.0
 10
-18.6546
 20
64.8555
 30
0.0
 10
-38.0436
 20
63.3581
 30
0.0
 10
-33.6801
 20
53.0792
 30
0.0
  0
SPLINE
  5
7A
330
1F
100
AcDbEntity
  8
layer 1
 62
    22
370
     9
100
AcDbSpline
210
0.0
220
0.0
230
1.0
 70
    11
 71
     3
 72
    12
 73
     8
 74
     0
 42
0.0000000001
 43
0.0000000001
 40
0.0
 40
0.0
 40
0.0
 40
0.0
 40
0.5
 40
0.5
 40
0.5
 40
0.5
 40
1.0
 40
1.0
 40
1.0
 40
1.0
 10
-63.4232
 20
50.4376
 30
0.0
 10
-60.5526
 20
56.2249
 30
0.0
 10
-53.0471
 20
56.0391
 30
0.0
 10
-46.4929
 20
52.1838
 30
0.0
 10
-46.4929
 20
52.1838
 30
0.0
 10
-47.4994
 20
61.2915
 30
0.0
 10
-66.9652
 20
60.9494
 30
0.0
 10
-63.4232
 20
50.4376
 30
0.0
  0
SPLINE
  5
7B
330
1F
100
AcDbEntity
  8
layer 1
 62
    22
370
     9
100
AcDbSpline
210
0.0
220
0.0
230
1.0
 70
    11
 71
     3
 72
    12
 73
     8
 74
     0
 42
0.0000000001
 43
0.0000000001
 40
0.0
 40
0.0
 40
0.0
 40
0.0
 40
0.5
 40
0.5
 40
0.5
 40
0.5
 40
1.0
 40
1.0
 40
1.0
 40
1.0
 10
-44.3552
 20
62.2412
 30
0.0
 10
-41.9491
 20
68.1866
 30
0.0
 10
-34.4482
 20
68.4468
 30
0.0
 10
-27.6062
 20
64.989
 30
0.0
 10
-27.6062
 20
64.989
 30
0.0
 10
-29.3296
 20
74.0175
 30
0.0
 10
-48.7187
 20
72.5201
 30
0.0
 10
-44.3552
 20
62.2412
 30
0.0
  0
SPLINE
  5
7C
330
1F
100
AcDbEntity
  8
layer 1
 62
    22
370
     9
100
AcDbSpline
210
0.0
220
0.0
230
1.0
 70
    11
 71
     3
 72
    12
 73
     8
 74
     0
 42
0.0000000001
 43
0.0000000001
 40
0.0
 40
0.0
 40
0.0
 40
0.0
 40
0.5
 40
0.5
 40
0.5
 40
0.5
 40
1.0
 40
1.0
 40
1.0
 40
1.0
 10
-55.0802
 20
75.9335
 30
0.0
 10
-53.0663
 20
80.9097
 30
0.0
 10
-46.7882
 20
81.1275
 30
0.0
 10
-41.0615
 20
78.2335
 30
0.0
 10
-41.0615
 20
78.2335
 30
0.0
 10
-42.504
 20
85.7901
 30
0.0
 10
-58.7323
 20
84.5368
 30
0.0
 10
-55.0802
 20
75.9335
 30
0.0
  0
SPLINE
  5
7D
330
1F
100
AcDbEntity
  8
layer 1
 62
    22
370
     9
100
AcDbSpline
210
0.0
220
0.0
230
1.0
 70
    11
 71
     3
 72
    12
 73
     8
 74
     0
 42
0.0000000001
 43
0.0000000001
 40
0.0
 40
0.0
 40
0.0
 40
0.0
 40
0.5
 40
0.5
 40
0.5
 40
0.5
 40
1.0
 40
1.0
 40
1.0
 40
1.0
 10
-14.6948
 20
48.16
 30
0.0
 10
-12.6809
 20
53.1362
 30
0.0
 10
-6.4028
 20
53.354
 30
0.0
 10
-0.6761
 20
50.4599
 30
0.0
 10
-0.6761
 20
50.4599
 30
0.0
 10
-2.1186
 20
58.0166
 30
0.0
 10
-18.3469
 20
56.7633
 30
0.0
 10
-14.6948
 20
48.16
 30
0.0
  0
SPLINE
  5
7E
330
1F
100
AcDbEntity
  8
layer 1
 62
    22
370
     9
100
AcDbSpline
210
0.0
220
0.0
230
1.0
 70
    11
 71
     3
 72
    12
 73
     8
 74
     0
 42
0.0000000001
 43
0.0000000001
 40
0.0
 40
0.0
 40
0.0
 40
0.0
 40
0.5
 40
0.5
 40
0.5
 40
0.5
 40
1.0
 40
1.0
 40
1.0
 40
1.0
 10
-7.0765
 20
38.524
 30
0.0
 10
-3.5408
 20
43.0463
 30
0.0
 10
2.7349
 20
42.3611
 30
0.0
 10
7.4994
 20
38.7469
 30
0.0
 10
7.4994
 20
38.7469
 30
0.0
 10
8.4182
 20
46.2563
 30
0.0
 10
-8.0179
 20
47.3602
 30
0.0
 10
-7.0765
 20
38.524
 30
0.0
  0
SPLINE
  5
7F
330
1F
100
AcDbEntity
  8
layer 1
 62
    22
370
     9
100
AcDbSpline
210
0.0
220
0.0
230
1.0
 70
    11
 71
     3
 72
    12
 73
     8
 74
     0
 42
0.0000000001
 43
0.0000000001
 40
0.0
 40
0.0
 40
0.0
 40
0.0
 40
0.5
 40
0.5
 40
0.5
 40
0.5
 40
1.0
 40
1.0
 40
1.0
 40
1.0
 10
24.7955
 20
42.9097
 30
0.0
 10
28.8963
 20
47.4858
 30
0.0
 10
36.2808
 20
46.3506
 30
0.0
 10
41.9247
 20
42.2009
 30
0.0
 10
41.9247
 20
42.2009
 30
0.0
 10
42.9134
 20
50.121
 30
0.0
 10
23.5817
 20
52.3605
 30
0.0
 10
24.7955
 20
42.9097
 30
0.0
  0
SPLINE
  5
80
330
1F
100
AcDbEntity
  8
layer 1
 62
    22
370
     9
100
AcDbSpline
210
0.0
220
0.0
230
1.0
 70
    11
 71
     3
 72
    12
 73
     8
 74
     0
 42
0.0000000001
 43
0.0000000001
 40
0.0
 40
0.0
 40
0.0
 40
0.0
 40
0.5
 40
0.5
 40
0.5
 40
0.5
 40
1.0
 40
1.0
 40
1.0
 40
1.0
 10
41.6925
 20
51.4187
 30
0.0
 10
45.7933
 20
55.9948
 30
0.0
 10
53.1778
 20
54.8596
 30
0.0
 10
58.8218
 20
50.7099
 30
0.0
 10
58.8218
 20
50.7099
 30
0.0
 10
59.8105
 20
58.63
 30
0.0
 10
40.4788
 20
60.8695
 30
0.0
 10
41.6925
 20
51.4187
 30
0.0
  0
SPLINE
  5
81
330
1F
100
AcDbEntity
  8
layer 1
 62
    22
370
     9
100
AcDbSpline
210
0.0
220
0.0
230
1.0
 70
    11
 71
     3
 72
    12
 73
     8
 74
     0
 42
0.0000000001
 43
0.0000000001
 40
0.0
 40
0.0
 40
0.0
 40
0.0
 40
0.5
 40
0.5
 40
0.5
 40
0.5
 40
1.0
 40
1.0
 40
1.0
 40
1.0
 10
3.9503
 20
49.6489
 30
0.0
 10
8.3834
 20
54.0734
 30
0.0
 10
15.6972
 20
52.7001
 30
0.0
 10
21.0529
 20
48.3808
 30
0.0
 10
21.0529
 20
48.3808
 30
0.0
 10
22.6083
 20
56.2389
 30
0.0
 10
3.4094
 20
59.1042
 30
0.0
 10
3.9503
 20
49.6489
 30
0.0
  0
SPLINE
  5
82
330
1F
100
AcDbEntity
  8
layer 1
 62
    22
370
     9
100
AcDbSpline
210
0.0
220
0.0
230
1.0
 70
    11
 71
     3
 72
    12
 73
     8
 74
     0
 42
0.0000000001
 43
0.0000000001
 40
0.0
 40
0.0
 40
0.0
 40
0.0
 40
0.5
 40
0.5
 40
0.5
 40
0.5
 40
1.0
 40
1.0
 40
1.0
 40
1.0
 10
-1.2497
 20
60.6229
 30
0.0
 10
3.1834
 20
65.0474
 30
0.0
 10
10.4972
 20
63.6741
 30
0.0
 10
15.8529
 20
59.3547
 30
0.0
 10
15.8529
 20
59.3547
 30
0.0
 10
17.4083
 20
67.2128
 30
0.0
 10
-1.7906
 20
70.0782
 30
0.0
 10
-1.2497
 20
60.6229
 30
0.0
  0
SPLINE
  5
83
330
1F
100
AcDbEntity
  8
layer 1
 62
    22
370
     9
100
AcDbSpline
210
0.0
220
0.0
230
1.0
 70
    11
 71
     3
 72
    12
 73
     8
 74
     0
 42
0.0000000001
 43
0.0000000001
 40
0.0
 40
0.0
 40
0.0
 40
0.0
 40
0.5
 40
0.5
 40
0.5
 40
0.5
 40
1.0
 40
1.0
 40
1.0
 40
1.0
 10
-18.7495
 20
66.4811
 30
0.0
 10
-16.0511
 20
71.5496
 30
0.0
 10
-8.5571
 20
71.3776
 30
0.0
 10
-1.9071
 20
67.9909
 30
0.0
 10
-1.9071
 20
67.9909
 30
0.0
 10
-3.1722
 20
75.9741
 30
0.0
 10
-22.5847
 20
75.6979
 30
0.0
 10
-18.7495
 20
66.4811
 30
0.0
  0
SPLINE
  5
84
330
1F
100
AcDbEntity
  8
layer 1
 62
    22
370
     9
100
AcDbSpline
210
0.0
220
0.0
230
1.0
 70
    11
 71
     3
 72
    12
 73
     8
 74
     0
 42
0.0000000001
 43
0.0000000001
 40
0.0
 40
0.0
 40
0.0
 40
0.0
 40
0.5
 40
0.5
 40
0.5
 40
0.5
 40
1.0
 40
1.0
 40
1.0
 40
1.0
 10
-31.0759
 20
78.0421
 30
0.0
 10
-28.3775
 20
83.1106
 30
0.0
 10
-20.8835
 20
82.9386
 30
0.0
 10
-14.2335
 20
79.5519
 30
0.0
 10
-14.2335
 20
79.5519
 30
0.0
 10
-15.4986
 20
87.5351
 30
0.0
 10
-34.9111
 20
87.2589
 30
0.0
 10
-31.0759
 20
78.0421
 30
0.0
  0
SPLINE
  5
85
330
1F
100
AcDbEntity
  8
layer 1
 62
    22
370
     9
100
AcDbSpline
210
0.0
220
0.0
230
1.0
 70
    11
 71
     3
 72
    12
 73
     8
 74
     0
 42
0.0000000001
 43
0.0000000001
 40
0.0
 40
0.0
 40
0.0
 40
0.0
 40
0.5
 40
0.5
 40
0.5
 40
0.5
 40
1.0
 40
1.0
 40
1.0
 40
1.0
 10
-38.7059
 20
87.5033
 30
0.0
 10
-36.0075
 20
92.5718
 30
0.0
 10
-28.5135
 20
92.3997
 30
0.0
 10
-21.8635
 20
89.0131
 30
0.0
 10
-21.8635
 20
89.0131
 30
0.0
 10
-23.1286
 20
96.9963
 30
0.0
 10
-42.5411
 20
96.7201
 30
0.0
 10
-38.7059
 20
87.5033
 30
0.0
  0
SPLINE
  5
86
330
1F
100
AcDbEntity
  8
layer 1
 62
    22
370
     9
100
AcDbSpline
210
0.0
220
0.0
230
1.0
 70
    11
 71
     3
 72
    12
 73
     8
 74
     0
 42
0.0000000001
 43
0.0000000001
 40
0.0
 40
0.0
 40
0.0
 40
0.0
 40
0.5
 40
0.5
 40
0.5
 40
0.5
 40
1.0
 40
1.0
 40
1.0
 40
1.0
 10
23.7873
 20
58.4555
 30
0.0
 10
27.014
 20
63.3642
 30
0.0
 10
34.4996
 20
62.8366
 30
0.0
 10
40.8074
 20
59.1543
 30
0.0
 10
40.8074
 20
59.1543
 30
0.0
 10
40.3672
 20
67.1484
 30
0.0
 10
20.9016
 20
67.7978
 30
0.0
 10
23.7873
 20
58.4555
 30
0.0
  0
SPLINE
  5
87
330
1F
100
AcDbEntity
  8
layer 1
 62
    22
370
     9
100
AcDbSpline
210
0.0
220
0.0
230
1.0
 70
    11
 71
     3
 72
    12
 73
     8
 74
     0
 42
0.0000000001
 43
0.0000000001
 40
0.0
 40
0.0
 40
0.0
 40
0.0
 40
0.5
 40
0.5
 40
0.5
 40
0.5
 40
1.0
 40
1.0
 40
1.0
 40
1.0
 10
12.8879
 20
70.7574
 30
0.0
 10
16.1145
 20
75.6662
 30
0.0
 10
23.6002
 20
75.1385
 30
0.0
 10
29.9079
 20
71.4563
 30
0.0
 10
29.9079
 20
71.4563
 30
0.0
 10
29.4678
 20
79.4504
 30
0.0
 10
10.0021
 20
80.0998
 30
0.0
 10
12.8879
 20
70.7574
 30
0.0
  0
SPLINE
  5
88
330
1F
100
AcDbEntity
  8
layer 1
 62
    22
370
     9
100
AcDbSpline
210
0.0
220
0.0
230
1.0
 70
    11
 71
     3
 72
    12
 73
     8
 74
     0
 42
0.0000000001
 43
0.0000000001
 40
0.0
 40
0.0
 40
0.0
 40
0.0
 40
0.5
 40
0.5
 40
0.5
 40
0.5
 40
1.0
 40
1.0
 40
1.0
 40
1.0
 10
-4.4321
 20
78.9226
 30
0.0
 10
-1.2055
 20
83.8313
 30
0.0
 10
6.2801
 20
83.3037
 30
0.0
 10
12.5879
 20
79.6214
 30
0.0
 10
12.5879
 20
79.6214
 30
0.0
 10
12.1478
 20
87.6155
 30
0.0
 10
-7.3179
 20
88.2649
 30
0.0
 10
-4.4321
 20
78.9226
 30
0.0
  0
SPLINE
  5
89
330
1F
100
AcDbEntity
  8
layer 1
 62
    22
370
     9
100
AcDbSpline
210
0.0
220
0.0
230
1.0
 70
    11
 71
     3
 72
    12
 73
     8
 74
     0
 42
0.0000000001
 43
0.0000000001
 40
0.0
 40
0.0
 40
0.0
 40
0.0
 40
0.5
 40
0.5
 40
0.5
 40
0.5
 40
1.0
 40
1.0
 40
1.0
 40
1.0
 10
-15.1106
 20
90.304
 30
0.0
 10
-11.884
 20
95.2128
 30
0.0
 10
-4.3983
 20
94.6851
 30
0.0
 10
1.9094
 20
91.0029
 30
0.0
 10
1.9094
 20
91.0029
 30
0.0
 10
1.4693
 20
98.9969
 30
0.0
 10
-17.9964
 20
99.6464
 30
0.0
 10
-15.1106
 20
90.304
 30
0.0
  0
SPLINE
  5
8A
330
1F
100
AcDbEntity
  8
layer 1
 62
    22
370
     9
100
AcDbSpline
210
0.0
220
0.0
230
1.0
 70
    11
 71
     3
 72
    12
 73
     8
 74
     0
 42
0.0000000001
 43
0.0000000001
 40
0.0
 40
0.0
 40
0.0
 40
0.0
 40
0.5
 40
0.5
 40
0.5
 40
0.5
 40
1.0
 40
1.0
 40
1.0
 40
1.0
 10
36.1062
 20
68.7927
 30
0.0
 10
39.3329
 20
73.7015
 30
0.0
 10
46.8185
 20
73.1738
 30
0.0
 10
53.1263
 20
69.4916
 30
0.0
 10
53.1263
 20
69.4916
 30
0.0
 10
52.6861
 20
77.4856
 30
0.0
 10
33.2205
 20
78.1351
 30
0.0
 10
36.1062
 20
68.7927
 30
0.0
  0
SPLINE
  5
8B
330
1F
100
AcDbEntity
  8
layer 1
 62
    22
370
     9
100
AcDbSpline
210
0.0
220
0.0
230
1.0
 70
    11
 71
     3
 72
    12
 73
     8
 74
     0
 42
0.0000000001
 43
0.0000000001
 40
0.0
 40
0.0
 40
0.0
 40
0.0
 40
0.5
 40
0.5
 40
0.5
 40
0.5
 40
1.0
 40
1.0
 40
1.0
 40
1.0
 10
27.6762
 20
80.5544
 30
0.0
 10
30.9029
 20
85.4631
 30
0.0
 10
38.3885
 20
84.9355
 30
0.0
 10
44.6962
 20
81.2532
 30
0.0
 10
44.6962
 20
81.2532
 30
0.0
 10
44.2561
 20
89.2473
 30
0.0
 10
24.7904
 20
89.8967
 30
0.0
 10
27.6762
 20
80.5544
 30
0.0
  0
SPLINE
  5
8C
330
1F
100
AcDbEntity
  8
layer 1
 62
    22
370
     9
100
AcDbSpline
210
0.0
220
0.0
230
1.0
 70
    11
 71
     3
 72
    12
 73
     8
 74
     0
 42
0.0000000001
 43
0.0000000001
 40
0.0
 40
0.0
 40
0.0
 40
0.0
 40
0.5
 40
0.5
 40
0.5
 40
0.5
 40
1.0
 40
1.0
 40
1.0
 40
1.0
 10
11.6132
 20
90.4525
 30
0.0
 10
14.8399
 20
95.3613
 30
0.0
 10
22.3255
 20
94.8336
 30
0.0
 10
28.6332
 20
91.1514
 30
0.0
 10
28.6332
 20
91.1514
 30
0.0
 10
28.1931
 20
99.1454
 30
0.0
 10
8.7274
 20
99.7949
 30
0.0
 10
11.6132
 20
90.4525
 30
0.0
  0
SPLINE
  5
8D
330
1F
100
AcDbEntity
  8
layer 1
 62
    22
370
     9
100
AcDbSpline
210
0.0
220
0.0
230
1.0
 70
    11
 71
     3
 72
    12
 73
     8
 74
     0
 42
0.0000000001
 43
0.0000000001
 40
0.0
 40
0.0
 40
0.0
 40
0.0
 40
0.5
 40
0.5
 40
0.5
 40
0.5
 40
1.0
 40
1.0
 40
1.0
 40
1.0
 10
-30.907
 20
98.6964
 30
0.0
 10
-28.8664
 20
103.9933
 30
0.0
 10
-21.3922
 20
104.5532
 30
0.0
 10
-14.3495
 20
101.8383
 30
0.0
 10
-14.3495
 20
101.8383
 30
0.0
 10
-16.6202
 20
109.6434
 30
0.0
 10
-35.89
 20
107.476
 30
0.0
 10
-30.907
 20
98.6964
 30
0.0
  0
SPLINE
  5
8E
330
1F
100
AcDbEntity
  8
layer 1
 62
    22
370
     9
100
AcDbSpline
210
0.0
220
0.0
230
1.0
 70
    11
 71
     3
 72
    12
 73
     8
 74
     0
 42
0.0000000001
 43
0.0000000001
 40
0.0
 40
0.0
 40
0.0
 40
0.0
 40
0.5
 40
0.5
 40
0.5
 40
0.5
 40
1.0
 40
1.0
 40
1.0
 40
1.0
 10
3.0787
 20
101.3113
 30
0.0
 10
5.2802
 20
105.7581
 30
0.0
 10
11.7932
 20
105.7049
 30
0.0
 10
17.6634
 20
102.8425
 30
0.0
 10
17.6634
 20
102.8425
 30
0.0
 10
16.341
 20
109.7754
 30
0.0
 10
-0.5103
 20
109.2849
 30
0.0
 10
3.0787
 20
101.3113
 30
0.0
  0
SPLINE
  5
8F
330
1F
100
AcDbEntity
  8
layer 1
 62
    22
370
     9
100
AcDbSpline
210
0.0
220
0.0
230
1.0
 70
    11
 71
     3
 72
    12
 73
     8
 74
     0
 42
0.0000000001
 43
0.0000000001
 40
0.0
 40
0.0
 40
0.0
 40
0.0
 40
0.5
 40
0.5
 40
0.5
 40
0.5
 40
1.0
 40
1.0
 40
1.0
 40
1.0
 10
-7.7224
 20
109.834
 30
0.0
 10
-5.9183
 20
114.448
 30
0.0
 10
0.5822
 20
114.9548
 30
0.0
 10
6.6889
 20
112.611
 30
0.0
 10
6.6889
 20
112.611
 30
0.0
 10
4.7596
 20
119.396
 30
0.0
 10
-12.0041
 20
117.4598
 30
0.0
 10
-7.7224
 20
109.834
 30
0.0
  0
SPLINE
  5
90
330
1F
100
AcDbEntity
  8
layer 1
 62
    22
370
     9
100
AcDbSpline
210
0.0
220
0.0
230
1.0
 70
    11
 71
     3
 72
    12
 73
     8
 74
     0
 42
0.0000000001
 43
0.0000000001
 40
0.0
 40
0.0
 40
0.0
 40
0.0
 40
0.5
 40
0.5
 40
0.5
 40
0.5
 40
1.0
 40
1.0
 40
1.0
 40
1.0
 10
-29.5567
 20
113.2296
 30
0.0
 10
-27.598
 20
117.8033
 30
0.0
 10
-21.0818
 20
118.173
 30
0.0
 10
-15.055
 20
115.7018
 30
0.0
 10
-15.055
 20
115.7018
 30
0.0
 10
-16.7562
 20
122.5241
 30
0.0
 10
-33.5814
 20
120.9417
 30
0.0
 10
-29.5567
 20
113.2296
 30
0.0
  0
SPLINE
  5
91
330
1F
100
AcDbEntity
  8
layer 1
 62
    22
370
     9
100
AcDbSpline
210
0.0
220
0.0
230
1.0
 70
    11
 71
     3
 72
    12
 73
     8
 74
     0
 42
0.0000000001
 43
0.0000000001
 40
0.0
 40
0.0
 40
0.0
 40
0.0
 40
0.5
 40
0.5
 40
0.5
 40
0.5
 40
1.0
 40
1.0
 40
1.0
 40
1.0
 10
-46.6696
 20
120.5233
 30
0.0
 10
-51.6146
 20
116.9002
 30
0.0
 10
-48.9181
 20
106.8702
 30
0.0
 10
-50.3813
 20
98.4291
 30
0.0
 10
-50.3813
 20
98.4291
 30
0.0
 10
-44.5116
 20
107.4093
 30
0.0
 10
-47.4381
 20
114.1647
 30
0.0
 10
-46.6696
 20
120.5233
 30
0.0
  0
SPLINE
  5
92
330
1F
100
AcDbEntity
  8
layer 1
 62
    22
370
     9
100
AcDbSpline
210
0.0
220
0.0
230
1.0
 70
    11
 71
     3
 72
    12
 73
     8
 74
     0
 42
0.0000000001
 43
0.0000000001
 40
0.0
 40
0.0
 40
0.0
 40
0.0
 40
0.5
 40
0.5
 40
0.5
 40
0.5
 40
1.0
 40
1.0
 40
1.0
 40
1.0
 10
5.2059
 20
118.9778
 30
0.0
 10
8.1605
 20
122.4694
 30
0.0
 10
13.9241
 20
120.8998
 30
0.0
 10
18.4845
 20
116.9496
 30
0.0
 10
18.4845
 20
116.9496
 30
0.0
 10
18.8746
 20
123.5043
 30
0.0
 10
3.8206
 20
126.9996
 30
0.0
 10
5.2059
 20
118.9778
 30
0.0
  0
SPLINE
  5
93
330
1F
100
AcDbEntity
  8
layer 1
 62
    22
370
     9
100
AcDbSpline
210
0.0
220
0.0
230
1.0
 70
    11
 71
     3
 72
    12
 73
     8
 74
     0
 42
0.0000000001
 43
0.0000000001
 40
0.0
 40
0.0
 40
0.0
 40
0.0
 40
0.5
 40
0.5
 40
0.5
 40
0.5
 40
1.0
 40
1.0
 40
1.0
 40
1.0
 10
-7.8132
 20
132.9086
 30
0.0
 10
4.9469
 20
139.1079
 30
0.0
 10
16.168
 20
168.1375
 30
0.0
 10
8.7005
 20
184.954
 30
0.0
 10
8.7005
 20
184.954
 30
0.0
 10
6.3118
 20
164.1079
 30
0.0
 10
2.1063
 20
145.9834
 30
0.0
 10
-7.8132
 20
132.9086
 30
0.0
  0
SPLINE
  5
94
330
1F
100
AcDbEntity
  8
layer 1
 62
    22
370
     9
100
AcDbSpline
210
0.0
220
0.0
230
1.0
 70
    11
 71
     3
 72
    12
 73
     8
 74
     0
 42
0.0000000001
 43
0.0000000001
 40
0.0
 40
0.0
 40
0.0
 40
0.0
 40
0.5
 40
0.5
 40
0.5
 40
0.5
 40
1.0
 40
1.0
 40
1.0
 40
1.0
 10
20.9172
 20
124.614
 30
0.0
 10
30.4312
 20
140.2563
 30
0.0
 10
45.7709
 20
142.6795
 30
0.0
 10
63.316
 20
141.33
 30
0.0
 10
63.316
 20
141.33
 30
0.0
 10
49.8859
 20
146.9032
 30
0.0
 10
28.6495
 20
146.3802
 30
0.0
 10
20.9172
 20
124.614
 30
0.0
  0
SPLINE
  5
95
330
1F
100
AcDbEntity
  8
layer 1
 62
    22
370
     9
100
AcDbSpline
210
0.0
220
0.0
230
1.0
 70
    11
 71
     3
 72
    12
 73
     8
 74
     0
 42
0.0000000001
 43
0.0000000001
 40
0.0
 40
0.0
 40
0.0
 40
0.0
 40
0.5
 40
0.5
 40
0.5
 40
0.5
 40
1.0
 40
1.0
 40
1.0
 40
1.0
 10
22.4336
 20
116.8392
 30
0.0
 10
33.2429
 20
136.8053
 30
0.0
 10
60.3545
 20
133.419
 30
0.0
 10
78.6664
 20
135.7221
 30
0.0
 10
78.6664
 20
135.7221
 30
0.0
 10
68.4704
 20
139.5302
 30
0.0
 10
26.67
 20
142.9466
 30
0.0
 10
22.4336
 20
116.8392
 30
0.0
  0
SPLINE
  5
96
330
1F
100
AcDbEntity
  8
layer 1
 62
    22
370
     9
100
AcDbSpline
210
0.0
220
0.0
230
1.0
 70
    11
 71
     3
 72
    12
 73
     8
 74
     0
 42
0.0000000001
 43
0.0000000001
 40
0.0
 40
0.0
 40
0.0
 40
0.0
 40
0.5
 40
0.5
 40
0.5
 40
0.5
 40
1.0
 40
1.0
 40
1.0
 40
1.0
 10
6.119
 20
141.9669
 30
0.0
 10
13.2314
 20
149.6713
 30
0.0
 10
17.8163
 20
164.566
 30
0.0
 10
14.1142
 20
175.1514
 30
0.0
 10
14.1142
 20
175.1514
 30
0.0
 10
23.9131
 20
167.711
 30
0.0
 10
20.325
 20
149.4309
 30
0.0
 10
6.119
 20
141.9669
 30
0.0
  0
SPLINE
  5
97
330
1F
100
AcDbEntity
  8
layer 1
 62
    22
370
     9
100
AcDbSpline
210
0.0
220
0.0
230
1.0
 70
    11
 71
     3
 72
    20
 73
    16
 74
     0
 42
0.0000000001
 43
0.0000000001
 40
0.0
 40
0.0
 40
0.0
 40
0.0
 40
0.25
 40
0.25
 40
0.25
 40
0.25
 40
0.5
 40
0.5
 40
0.5
 40
0.5
 40
0.75
 40
0.75
 40
0.75
 40
0.75
 40
1.0
 40
1.0
 40
1.0
 40
1.0
 10
15.1703
 20
-68.0046
 30
0.0
 10
9.2736
 20
-66.2199
 30
0.0
 10
2.6204
 20
-67.9412
 30
0.0
 10
0.313
 20
-71.8479
 30
0.0
 10
0.313
 20
-71.8479
 30
0.0
 10
-1.9943
 20
-75.7546
 30
0.0
 10
0.9161
 20
-80.3705
 30
0.0
 10
6.8129
 20
-82.1552
 30
0.0
 10
6.8129
 20
-82.1552
 30
0.0
 10
12.7091
 20
-83.9398
 30
0.0
 10
19.3623
 20
-82.2185
 30
0.0
 10
21.6696
 20
-78.3118
 30
0.0
 10
21.6696
 20
-78.3118
 30
0.0
 10
23.977
 20
-74.405
 30
0.0
 10
21.0665
 20
-69.7892
 30
0.0
 10
15.1703
 20
-68.0046
 30
0.0
  0
SPLINE
  5
98
330
1F
100
AcDbEntity
  8
layer 1
 62
    22
370
     9
100
AcDbSpline
210
0.0
220
0.0
230
1.0
 70
     8
 71
     3
 72
     8
 73
     4
 74
     0
 42
0.0000000001
 43
0.0000000001
 40
0.0
 40
0.0
 40
0.0
 40
0.0
 40
1.0
 40
1.0
 40
1.0
 40
1.0
 10
19.3482
 20
-76.7723
 30
0.0
 10
13.617
 20
-74.4001
 30
0.0
 10
8.2055
 20
-74.5158
 30
0.0
 10
3.1139
 20
-77.1199
 30
0.0
  0
SPLINE
  5
99
330
1F
100
AcDbEntity
  8
layer 1
 62
    22
370
     9
100
AcDbSpline
210
0.0
220
0.0
230
1.0
 70
     8
 71
     3
 72
     8
 73
     4
 74
     0
 42
0.0000000001
 43
0.0000000001
 40
0.0
 40
0.0
 40
0.0
 40
0.0
 40
1.0
 40
1.0
 40
1.0
 40
1.0
 10
10.2683
 20
-71.8858
 30
0.0
 10
12.4393
 20
-72.2196
 30
0.0
 10
11.7597
 20
-75.0801
 30
0.0
 10
9.3253
 20
-75.1956
 30
0.0
  0
SPLINE
  5
9A
330
1F
100
AcDbEntity
  8
layer 1
 62
   250
370
     9
100
AcDbSpline
210
0.0
220
0.0
230
1.0
 70
    11
 71
     3
 72
    20
 73
    16
 74
     0
 42
0.0000000001
 43
0.0000000001
 40
0.0
 40
0.0
 40
0.0
 40
0.0
 40
0.25
 40
0.25
 40
0.25
 40
0.25
 40
0.5
 40
0.5
 40
0.5
 40
0.5
 40
0.75
 40
0.75
 40
0.75
 40
0.75
 40
1.0
 40
1.0
 40
1.0
 40
1.0
 10
18.5727
 20
138.503
 30
0.0
 10
21.6181
 20
136.2001
 30
0.0
 10
26.0199
 20
136.8497
 30
0.0
 10
28.4026
 20
139.9534
 30
0.0
 10
28.4026
 20
139.9534
 30
0.0
 10
30.7849
 20
143.0567
 30
0.0
 10
30.2475
 20
147.4412
 30
0.0
 10
27.2021
 20
149.744
 30
0.0
 10
27.2021
 20
149.744
 30
0.0
 10
24.1567
 20
152.0469
 30
0.0
 10
19.7549
 20
151.3973
 30
0.0
 10
17.3725
 20
148.294
 30
0.0
 10
17.3725
 20
148.294
 30
0.0
 10
14.9899
 20
145.1903
 30
0.0
 10
15.5273
 20
140.8058
 30
0.0
 10
18.5727
 20
138.503
 30
0.0
  0
SPLINE
  5
9B
330
1F
100
AcDbEntity
  8
layer 1
 62
    22
370
     9
100
AcDbSpline
210
0.0
220
0.0
230
1.0
 70
     8
 71
     3
 72
    16
 73
    12
 74
     0
 42
0.0000000001
 43
0.0000000001
 40
0.0
 40
0.0
 40
0.0
 40
0.0
 40
0.3333333333333333
 40
0.3333333333333333
 40
0.3333333333333333
 40
0.3333333333333333
 40
0.6666666666666666
 40
0.6666666666666666
 40
0.6666666666666666
 40
0.6666666666666666
 40
1.0
 40
1.0
 40
1.0
 40
1.0
 10
16.1997
 20
-110.1075
 30
0.0
 10
16.3395
 20
-108.5688
 30
0.0
 10
3.3655
 20
-115.2329
 30
0.0
 10
-6.7966
 20
-109.7728
 30
0.0
 10
-6.7966
 20
-109.7728
 30
0.0
 10
-7.6726
 20
-109.3018
 30
0.0
 10
-7.4632
 20
-109.4414
 30
0.0
 10
-8.2154
 20
-109.8641
 30
0.0
 10
-8.2154
 20
-109.8641
 30
0.0
 10
-20.4831
 20
-116.7604
 30
0.0
 10
-31.564
 20
-110.7744
 30
0.0
 10
-31.3682
 20
-112.6826
 30
0.0
  0
SPLINE
  5
9C
330
1F
100
AcDbEntity
  8
layer 1
 62
    22
370
     9
100
AcDbSpline
210
0.0
220
0.0
230
1.0
 70
    11
 71
     3
 72
    12
 73
     8
 74
     0
 42
0.0000000001
 43
0.0000000001
 40
0.0
 40
0.0
 40
0.0
 40
0.0
 40
0.5
 40
0.5
 40
0.5
 40
0.5
 40
1.0
 40
1.0
 40
1.0
 40
1.0
 10
-66.343
 20
-66.7774
 30
0.0
 10
-43.1928
 20
-70.5313
 30
0.0
 10
-47.2683
 20
-85.3764
 30
0.0
 10
-29.4265
 20
-94.6427
 30
0.0
 10
-29.4265
 20
-94.6427
 30
0.0
 10
-51.6113
 20
-94.2841
 30
0.0
 10
-49.8699
 20
-76.0451
 30
0.0
 10
-66.343
 20
-66.7774
 30
0.0
  0
SPLINE
  5
9D
330
1F
100
AcDbEntity
  8
layer 1
 62
    22
370
     9
100
AcDbSpline
210
0.0
220
0.0
230
1.0
 70
     8
 71
     3
 72
     8
 73
     4
 74
     0
 42
0.0000000001
 43
0.0000000001
 40
0.0
 40
0.0
 40
0.0
 40
0.0
 40
1.0
 40
1.0
 40
1.0
 40
1.0
 10
83.1719
 20
22.1391
 30
0.0
 10
80.1613
 20
37.1788
 30
0.0
 10
69.2953
 20
65.0904
 30
0.0
 10
52.399
 20
81.0726
 30
0.0
  0
SPLINE
  5
9E
330
1F
100
AcDbEntity
  8
layer 1
 62
    22
370
     9
100
AcDbSpline
210
0.0
220
0.0
230
1.0
 70
    11
 71
     3
 72
    12
 73
     8
 74
     0
 42
0.0000000001
 43
0.0000000001
 40
0.0
 40
0.0
 40
0.0
 40
0.0
 40
0.5
 40
0.5
 40
0.5
 40
0.5
 40
1.0
 40
1.0
 40
1.0
 40
1.0
 10
-71.0173
 20
38.2948
 30
0.0
 10
-68.6686
 20
43.1768
 30
0.0
 10
-62.3828
 20
43.1274
 30
0.0
 10
-56.8588
 20
39.9951
 30
0.0
 10
-56.8588
 20
39.9951
 30
0.0
 10
-57.7876
 20
47.5998
 30
0.0
 10
-74.0823
 20
47.0383
 30
0.0
 10
-71.0173
 20
38.2948
 30
0.0
  0
SPLINE
  5
9F
330
1F
100
AcDbEntity
  8
layer 1
 62
    22
370
     9
100
AcDbSpline
210
0.0
220
0.0
230
1.0
 70
    11
 71
     3
 72
    12
 73
     8
 74
     0
 42
0.0000000001
 43
0.0000000001
 40
0.0
 40
0.0
 40
0.0
 40
0.0
 40
0.5
 40
0.5
 40
0.5
 40
0.5
 40
1.0
 40
1.0
 40
1.0
 40
1.0
 10
-57.3047
 20
27.728
 30
0.0
 10
-55.4246
 20
32.7437
 30
0.0
 10
-49.1544
 20
33.0876
 30
0.0
 10
-43.3523
 20
30.3093
 30
0.0
 10
-43.3523
 20
30.3093
 30
0.0
 10
-44.9964
 20
37.8354
 30
0.0
 10
-61.1857
 20
36.2561
 30
0.0
 10
-57.3047
 20
27.728
 30
0.0
  0
SPLINE
  5
A0
330
1F
100
AcDbEntity
  8
layer 1
 62
    22
370
     9
100
AcDbSpline
210
0.0
220
0.0
230
1.0
 70
    11
 71
     3
 72
    12
 73
     8
 74
     0
 42
0.0000000001
 43
0.0000000001
 40
0.0
 40
0.0
 40
0.0
 40
0.0
 40
0.5
 40
0.5
 40
0.5
 40
0.5
 40
1.0
 40
1.0
 40
1.0
 40
1.0
 10
-3.6709
 20
12.0668
 30
0.0
 10
-1.6571
 20
17.043
 30
0.0
 10
4.6211
 20
17.2608
 30
0.0
 10
10.3477
 20
14.3667
 30
0.0
 10
10.3477
 20
14.3667
 30
0.0
 10
8.9052
 20
21.9233
 30
0.0
 10
-7.3231
 20
20.6701
 30
0.0
 10
-3.6709
 20
12.0668
 30
0.0
  0
SPLINE
  5
A1
330
1F
100
AcDbEntity
  8
layer 1
 62
    22
370
     9
100
AcDbSpline
210
0.0
220
0.0
230
1.0
 70
     8
 71
     3
 72
     8
 73
     4
 74
     0
 42
0.0000000001
 43
0.0000000001
 40
0.0
 40
0.0
 40
0.0
 40
0.0
 40
1.0
 40
1.0
 40
1.0
 40
1.0
 10
-44.9835
 20
-6.3112
 30
0.0
 10
-41.4254
 20
-10.5864
 30
0.0
 10
-49.3109
 20
-17.9875
 30
0.0
 10
-42.9255
 20
-23.7185
 30
0.0
  0
SPLINE
  5
A2
330
1F
100
AcDbEntity
  8
layer 1
 62
    22
370
     9
100
AcDbSpline
210
0.0
220
0.0
230
1.0
 70
    11
 71
     3
 72
    28
 73
    24
 74
     0
 42
0.0000000001
 43
0.0000000001
 40
0.0
 40
0.0
 40
0.0
 40
0.0
 40
0.1666666666666667
 40
0.1666666666666667
 40
0.1666666666666667
 40
0.1666666666666667
 40
0.3333333333333333
 40
0.3333333333333333
 40
0.3333333333333333
 40
0.3333333333333333
 40
0.5
 40
0.5
 40
0.5
 40
0.5
 40
0.6666666666666666
 40
0.6666666666666666
 40
0.6666666666666666
 40
0.6666666666666666
 40
0.8333333333333333
 40
0.8333333333333333
 40
0.8333333333333333
 40
0.8333333333333333
 40
1.0
 40
1.0
 40
1.0
 40
1.0
 10
-56.6616
 20
-6.0546
 30
0.0
 10
-58.5585
 20
-9.103
 30
0.0
 10
-51.4649
 20
-9.5285
 30
0.0
 10
-51.1326
 20
-20.0949
 30
0.0
 10
-51.1326
 20
-20.0949
 30
0.0
 10
-50.8914
 20
-27.7668
 30
0.0
 10
-46.1547
 20
-29.8861
 30
0.0
 10
-39.1346
 20
-28.4794
 30
0.0
 10
-39.1346
 20
-28.4794
 30
0.0
 10
-42.3473
 20
-19.9668
 30
0.0
 10
-21.9714
 20
-6.6086
 30
0.0
 10
-26.0281
 20
2.554
 30
0.0
 10
-26.0281
 20
2.554
 30
0.0
 10
-28.4257
 20
1.0441
 30
0.0
 10
-33.7868
 20
-1.2583
 30
0.0
 10
-34.8838
 20
-0.6845
 30
0.0
 10
-34.8838
 20
-0.6845
 30
0.0
 10
-38.8468
 20
1.3881
 30
0.0
 10
-41.795
 20
0.7795
 30
0.0
 10
-46.2491
 20
-3.2083
 30
0.0
 10
-46.2491
 20
-3.2083
 30
0.0
 10
-49.2306
 20
-1.871
 30
0.0
 10
-54.1937
 20
-2.0886
 30
0.0
 10
-56.6616
 20
-6.0546
 30
0.0
  0
SPLINE
  5
A3
330
1F
100
AcDbEntity
  8
layer 1
 62
    22
370
     9
100
AcDbSpline
210
0.0
220
0.0
230
1.0
 70
     8
 71
     3
 72
     8
 73
     4
 74
     0
 42
0.0000000001
 43
0.0000000001
 40
0.0
 40
0.0
 40
0.0
 40
0.0
 40
1.0
 40
1.0
 40
1.0
 40
1.0
 10
-35.7274
 20
-3.9149
 30
0.0
 10
-33.7238
 20
-9.6599
 30
0.0
 10
-43.185
 20
-14.2294
 30
0.0
 10
-41.8439
 20
-22.5693
 30
0.0
  0
SPLINE
  5
A4
330
1F
100
AcDbEntity
  8
layer 1
 62
    22
370
     9
100
AcDbSpline
210
0.0
220
0.0
230
1.0
 70
    11
 71
     3
 72
    28
 73
    24
 74
     0
 42
0.0000000001
 43
0.0000000001
 40
0.0
 40
0.0
 40
0.0
 40
0.0
 40
0.1666666666666667
 40
0.1666666666666667
 40
0.1666666666666667
 40
0.1666666666666667
 40
0.3333333333333333
 40
0.3333333333333333
 40
0.3333333333333333
 40
0.3333333333333333
 40
0.5
 40
0.5
 40
0.5
 40
0.5
 40
0.6666666666666666
 40
0.6666666666666666
 40
0.6666666666666666
 40
0.6666666666666666
 40
0.8333333333333333
 40
0.8333333333333333
 40
0.8333333333333333
 40
0.8333333333333333
 40
1.0
 40
1.0
 40
1.0
 40
1.0
 10
-55.9064
 20
-6.3065
 30
0.0
 10
-57.2896
 20
-8.5475
 30
0.0
 10
-50.5496
 20
-9.4298
 30
0.0
 10
-50.1441
 20
-19.2555
 30
0.0
 10
-50.1441
 20
-19.2555
 30
0.0
 10
-49.8436
 20
-26.5339
 30
0.0
 10
-46.7478
 20
-29.0791
 30
0.0
 10
-40.1655
 20
-27.6714
 30
0.0
 10
-40.1655
 20
-27.6714
 30
0.0
 10
-43.0487
 20
-20.3992
 30
0.0
 10
-23.494
 20
-5.9904
 30
0.0
 10
-26.7487
 20
1.5185
 30
0.0
 10
-26.7487
 20
1.5185
 30
0.0
 10
-29.2768
 20
-0.4161
 30
0.0
 10
-33.843
 20
-2.0086
 30
0.0
 10
-35.2053
 20
-1.2951
 30
0.0
 10
-35.2053
 20
-1.2951
 30
0.0
 10
-39.1117
 20
0.7506
 30
0.0
 10
-41.9129
 20
-0.0549
 30
0.0
 10
-46.1351
 20
-3.8931
 30
0.0
 10
-46.1351
 20
-3.8931
 30
0.0
 10
-48.9461
 20
-2.8308
 30
0.0
 10
-53.5579
 20
-2.5016
 30
0.0
 10
-55.9064
 20
-6.3065
 30
0.0
  0
SPLINE
  5
A5
330
1F
100
AcDbEntity
  8
layer 1
 62
    22
370
     9
100
AcDbSpline
210
0.0
220
0.0
230
1.0
 70
    11
 71
     3
 72
    12
 73
     8
 74
     0
 42
0.0000000001
 43
0.0000000001
 40
0.0
 40
0.0
 40
0.0
 40
0.0
 40
0.5
 40
0.5
 40
0.5
 40
0.5
 40
1.0
 40
1.0
 40
1.0
 40
1.0
 10
79.2912
 20
47.6356
 30
0.0
 10
79.2393
 20
60.7068
 30
0.0
 10
87.7252
 20
71.8887
 30
0.0
 10
85.482
 20
79.0846
 30
0.0
 10
85.482
 20
79.0846
 30
0.0
 10
82.0747
 20
71.5981
 30
0.0
 10
72.385
 20
58.3231
 30
0.0
 10
79.2912
 20
47.6356
 30
0.0
  0
SPLINE
  5
A6
330
1F
100
AcDbEntity
  8
layer 1
 62
    22
370
     9
100
AcDbSpline
210
0.0
220
0.0
230
1.0
 70
    11
 71
     3
 72
    12
 73
     8
 74
     0
 42
0.0000000001
 43
0.0000000001
 40
0.0
 40
0.0
 40
0.0
 40
0.0
 40
0.5
 40
0.5
 40
0.5
 40
0.5
 40
1.0
 40
1.0
 40
1.0
 40
1.0
 10
73.9778
 20
56.8082
 30
0.0
 10
74.2288
 20
65.9274
 30
0.0
 10
79.045
 20
69.4488
 30
0.0
 10
77.4661
 20
77.4668
 30
0.0
 10
77.4661
 20
77.4668
 30
0.0
 10
74.6939
 20
72.4012
 30
0.0
 10
67.5339
 20
64.5812
 30
0.0
 10
73.9778
 20
56.8082
 30
0.0
  0
SPLINE
  5
A7
330
1F
100
AcDbEntity
  8
layer 1
 62
    22
370
     9
100
AcDbSpline
210
0.0
220
0.0
230
1.0
 70
    11
 71
     3
 72
    12
 73
     8
 74
     0
 42
0.0000000001
 43
0.0000000001
 40
0.0
 40
0.0
 40
0.0
 40
0.0
 40
0.5
 40
0.5
 40
0.5
 40
0.5
 40
1.0
 40
1.0
 40
1.0
 40
1.0
 10
68.7931
 20
64.5801
 30
0.0
 10
68.277
 20
70.8126
 30
0.0
 10
72.9952
 20
72.8777
 30
0.0
 10
70.5207
 20
78.2088
 30
0.0
 10
70.5207
 20
78.2088
 30
0.0
 10
68.1816
 20
74.6664
 30
0.0
 10
63.3096
 20
70.493
 30
0.0
 10
68.7931
 20
64.5801
 30
0.0
  0
SPLINE
  5
A8
330
1F
100
AcDbEntity
  8
layer 1
 62
    22
370
     9
100
AcDbSpline
210
0.0
220
0.0
230
1.0
 70
    11
 71
     3
 72
    12
 73
     8
 74
     0
 42
0.0000000001
 43
0.0000000001
 40
0.0
 40
0.0
 40
0.0
 40
0.0
 40
0.5
 40
0.5
 40
0.5
 40
0.5
 40
1.0
 40
1.0
 40
1.0
 40
1.0
 10
-51.7693
 20
115.6587
 30
0.0
 10
-56.7143
 20
112.0356
 30
0.0
 10
-54.0179
 20
102.0056
 30
0.0
 10
-55.4811
 20
93.5645
 30
0.0
 10
-55.4811
 20
93.5645
 30
0.0
 10
-49.6114
 20
102.5447
 30
0.0
 10
-52.5379
 20
109.3001
 30
0.0
 10
-51.7693
 20
115.6587
 30
0.0
  0
SPLINE
  5
A9
330
1F
100
AcDbEntity
  8
layer 1
 62
    22
370
     9
100
AcDbSpline
210
0.0
220
0.0
230
1.0
 70
    11
 71
     3
 72
    12
 73
     8
 74
     0
 42
0.0000000001
 43
0.0000000001
 40
0.0
 40
0.0
 40
0.0
 40
0.0
 40
0.5
 40
0.5
 40
0.5
 40
0.5
 40
1.0
 40
1.0
 40
1.0
 40
1.0
 10
-56.6573
 20
110.2432
 30
0.0
 10
-61.6023
 20
106.62
 30
0.0
 10
-58.9058
 20
96.59
 30
0.0
 10
-60.369
 20
88.149
 30
0.0
 10
-60.369
 20
88.149
 30
0.0
 10
-54.4993
 20
97.1291
 30
0.0
 10
-57.4259
 20
103.8845
 30
0.0
 10
-56.6573
 20
110.2432
 30
0.0
  0
SPLINE
  5
AA
330
1F
100
AcDbEntity
  8
layer 1
 62
    22
370
     9
100
AcDbSpline
210
0.0
220
0.0
230
1.0
 70
    11
 71
     3
 72
    12
 73
     8
 74
     0
 42
0.0000000001
 43
0.0000000001
 40
0.0
 40
0.0
 40
0.0
 40
0.0
 40
0.5
 40
0.5
 40
0.5
 40
0.5
 40
1.0
 40
1.0
 40
1.0
 40
1.0
 10
-62.2898
 20
104.2104
 30
0.0
 10
-67.2348
 20
100.5873
 30
0.0
 10
-64.5384
 20
90.5573
 30
0.0
 10
-66.0015
 20
82.1163
 30
0.0
 10
-66.0015
 20
82.1163
 30
0.0
 10
-60.1319
 20
91.0964
 30
0.0
 10
-63.0584
 20
97.8518
 30
0.0
 10
-62.2898
 20
104.2104
 30
0.0
  0
SPLINE
  5
AB
330
1F
100
AcDbEntity
  8
layer 1
 62
    22
370
     9
100
AcDbSpline
210
0.0
220
0.0
230
1.0
 70
    11
 71
     3
 72
    12
 73
     8
 74
     0
 42
0.0000000001
 43
0.0000000001
 40
0.0
 40
0.0
 40
0.0
 40
0.0
 40
0.5
 40
0.5
 40
0.5
 40
0.5
 40
1.0
 40
1.0
 40
1.0
 40
1.0
 10
55.147
 20
41.1281
 30
0.0
 10
60.8308
 20
44.1789
 30
0.0
 10
67.3079
 20
40.8912
 30
0.0
 10
70.9429
 20
35.3043
 30
0.0
 10
70.9429
 20
35.3043
 30
0.0
 10
75.0455
 20
42.4247
 30
0.0
 10
57.7955
 20
50.3456
 30
0.0
 10
55.147
 20
41.1281
 30
0.0
  0
SPLINE
  5
AC
330
1F
100
AcDbEntity
  8
layer 1
 62
    22
370
     9
100
AcDbSpline
210
0.0
220
0.0
230
1.0
 70
    11
 71
     3
 72
    12
 73
     8
 74
     0
 42
0.0000000001
 43
0.0000000001
 40
0.0
 40
0.0
 40
0.0
 40
0.0
 40
0.5
 40
0.5
 40
0.5
 40
0.5
 40
1.0
 40
1.0
 40
1.0
 40
1.0
 10
61.3132
 20
8.0956
 30
0.0
 10
66.9969
 20
11.1464
 30
0.0
 10
73.474
 20
7.8586
 30
0.0
 10
77.1091
 20
2.2718
 30
0.0
 10
77.1091
 20
2.2718
 30
0.0
 10
81.2116
 20
9.3922
 30
0.0
 10
63.9617
 20
17.3131
 30
0.0
 10
61.3132
 20
8.0956
 30
0.0
  0
SPLINE
  5
AD
330
1F
100
AcDbEntity
  8
layer 1
 62
    22
370
     9
100
AcDbSpline
210
0.0
220
0.0
230
1.0
 70
    11
 71
     3
 72
    12
 73
     8
 74
     0
 42
0.0000000001
 43
0.0000000001
 40
0.0
 40
0.0
 40
0.0
 40
0.0
 40
0.5
 40
0.5
 40
0.5
 40
0.5
 40
1.0
 40
1.0
 40
1.0
 40
1.0
 10
-27.8423
 20
18.0732
 30
0.0
 10
-22.2134
 20
22.8219
 30
0.0
 10
-14.9829
 20
21.1103
 30
0.0
 10
-10.4738
 20
16.2095
 30
0.0
 10
-10.4738
 20
16.2095
 30
0.0
 10
-7.004
 20
24.8163
 30
0.0
 10
-26.1596
 20
28.4953
 30
0.0
 10
-27.8423
 20
18.0732
 30
0.0
  0
SPLINE
  5
AE
330
1F
100
AcDbEntity
  8
layer 1
 62
    22
370
     9
100
AcDbSpline
210
0.0
220
0.0
230
1.0
 70
    11
 71
     3
 72
    12
 73
     8
 74
     0
 42
0.0000000001
 43
0.0000000001
 40
0.0
 40
0.0
 40
0.0
 40
0.0
 40
0.5
 40
0.5
 40
0.5
 40
0.5
 40
1.0
 40
1.0
 40
1.0
 40
1.0
 10
-52.6751
 20
18.5403
 30
0.0
 10
-47.0461
 20
23.289
 30
0.0
 10
-39.8157
 20
21.5773
 30
0.0
 10
-35.3065
 20
16.6766
 30
0.0
 10
-35.3065
 20
16.6766
 30
0.0
 10
-31.8367
 20
25.2834
 30
0.0
 10
-50.9924
 20
28.9623
 30
0.0
 10
-52.6751
 20
18.5403
 30
0.0
  0
SPLINE
  5
AF
330
1F
100
AcDbEntity
  8
layer 1
 62
    22
370
     9
100
AcDbSpline
210
0.0
220
0.0
230
1.0
 70
    11
 71
     3
 72
    12
 73
     8
 74
     0
 42
0.0000000001
 43
0.0000000001
 40
0.0
 40
0.0
 40
0.0
 40
0.0
 40
0.5
 40
0.5
 40
0.5
 40
0.5
 40
1.0
 40
1.0
 40
1.0
 40
1.0
 10
-23.2529
 20
5.4272
 30
0.0
 10
-16.8418
 20
9.6907
 30
0.0
 10
-9.8963
 20
7.4512
 30
0.0
 10
-6.1978
 20
2.2681
 30
0.0
 10
-6.1978
 20
2.2681
 30
0.0
 10
-1.3081
 20
10.5064
 30
0.0
 10
-19.85
 20
15.5944
 30
0.0
 10
-23.2529
 20
5.4272
 30
0.0
  0
SPLINE
  5
B0
330
1F
100
AcDbEntity
  8
layer 1
 62
    22
370
     9
100
AcDbSpline
210
0.0
220
0.0
230
1.0
 70
    11
 71
     3
 72
    12
 73
     8
 74
     0
 42
0.0000000001
 43
0.0000000001
 40
0.0
 40
0.0
 40
0.0
 40
0.0
 40
0.5
 40
0.5
 40
0.5
 40
0.5
 40
1.0
 40
1.0
 40
1.0
 40
1.0
 10
-46.6837
 20
7.3334
 30
0.0
 10
-40.2726
 20
11.5969
 30
0.0
 10
-33.3271
 20
9.3574
 30
0.0
 10
-29.6286
 20
4.1743
 30
0.0
 10
-29.6286
 20
4.1743
 30
0.0
 10
-24.7389
 20
12.4126
 30
0.0
 10
-43.2808
 20
17.5006
 30
0.0
 10
-46.6837
 20
7.3334
 30
0.0
  0
SPLINE
  5
B1
330
1F
100
AcDbEntity
  8
layer 1
 62
    22
370
     9
100
AcDbSpline
210
0.0
220
0.0
230
1.0
 70
    11
 71
     3
 72
    12
 73
     8
 74
     0
 42
0.0000000001
 43
0.0000000001
 40
0.0
 40
0.0
 40
0.0
 40
0.0
 40
0.5
 40
0.5
 40
0.5
 40
0.5
 40
1.0
 40
1.0
 40
1.0
 40
1.0
 10
-63.4438
 20
0.8142
 30
0.0
 10
-61.93
 20
5.9231
 30
0.0
 10
-55.6981
 20
6.6067
 30
0.0
 10
-49.7078
 20
4.1482
 30
0.0
 10
-49.7078
 20
4.1482
 30
0.0
 10
-51.892
 20
11.5718
 30
0.0
 10
-67.9323
 20
9.1166
 30
0.0
 10
-63.4438
 20
0.8142
 30
0.0
  0
SPLINE
  5
B2
330
1F
100
AcDbEntity
  8
layer 1
 62
    22
370
     9
100
AcDbSpline
210
0.0
220
0.0
230
1.0
 70
    11
 71
     3
 72
    12
 73
     8
 74
     0
 42
0.0000000001
 43
0.0000000001
 40
0.0
 40
0.0
 40
0.0
 40
0.0
 40
0.5
 40
0.5
 40
0.5
 40
0.5
 40
1.0
 40
1.0
 40
1.0
 40
1.0
 10
-79.8077
 20
-12.5669
 30
0.0
 10
-78.3336
 20
-7.4493
 30
0.0
 10
-72.1073
 20
-6.7293
 30
0.0
 10
-66.0982
 20
-9.153
 30
0.0
 10
-66.0982
 20
-9.153
 30
0.0
 10
-68.3397
 20
-1.7422
 30
0.0
 10
-84.3604
 20
-4.2907
 30
0.0
 10
-79.8077
 20
-12.5669
 30
0.0
  0
SPLINE
  5
B3
330
1F
100
AcDbEntity
  8
layer 1
 62
    22
370
     9
100
AcDbSpline
210
0.0
220
0.0
230
1.0
 70
    11
 71
     3
 72
    12
 73
     8
 74
     0
 42
0.0000000001
 43
0.0000000001
 40
0.0
 40
0.0
 40
0.0
 40
0.0
 40
0.5
 40
0.5
 40
0.5
 40
0.5
 40
1.0
 40
1.0
 40
1.0
 40
1.0
 10
-70.1999
 20
-20.4386
 30
0.0
 10
-67.6799
 20
-15.64
 30
0.0
 10
-61.4027
 20
-15.9102
 30
0.0
 10
-55.9962
 20
-19.2362
 30
0.0
 10
-55.9962
 20
-19.2362
 30
0.0
 10
-56.6533
 20
-11.6
 30
0.0
 10
-72.9502
 20
-11.5889
 30
0.0
 10
-70.1999
 20
-20.4386
 30
0.0
  0
SPLINE
  5
B4
330
1F
100
AcDbEntity
  8
layer 1
 62
    22
370
     9
100
AcDbSpline
210
0.0
220
0.0
230
1.0
 70
    11
 71
     3
 72
    12
 73
     8
 74
     0
 42
0.0000000001
 43
0.0000000001
 40
0.0
 40
0.0
 40
0.0
 40
0.0
 40
0.5
 40
0.5
 40
0.5
 40
0.5
 40
1.0
 40
1.0
 40
1.0
 40
1.0
 10
-67.5981
 20
62.3929
 30
0.0
 10
-65.2494
 20
67.2749
 30
0.0
 10
-58.9636
 20
67.2256
 30
0.0
 10
-53.4396
 20
64.0932
 30
0.0
 10
-53.4396
 20
64.0932
 30
0.0
 10
-54.3684
 20
71.698
 30
0.0
 10
-70.6631
 20
71.1364
 30
0.0
 10
-67.5981
 20
62.3929
 30
0.0
  0
SPLINE
  5
B5
330
1F
100
AcDbEntity
  8
layer 1
 62
    22
370
     9
100
AcDbSpline
210
0.0
220
0.0
230
1.0
 70
    11
 71
     3
 72
    12
 73
     8
 74
     0
 42
0.0000000001
 43
0.0000000001
 40
0.0
 40
0.0
 40
0.0
 40
0.0
 40
0.5
 40
0.5
 40
0.5
 40
0.5
 40
1.0
 40
1.0
 40
1.0
 40
1.0
 10
-76.8791
 20
27.3624
 30
0.0
 10
-74.8709
 20
32.358
 30
0.0
 10
-68.5941
 20
32.6338
 30
0.0
 10
-62.8654
 20
29.7921
 30
0.0
 10
-62.8654
 20
29.7921
 30
0.0
 10
-64.3155
 20
37.3367
 30
0.0
 10
-80.5396
 20
35.9334
 30
0.0
 10
-76.8791
 20
27.3624
 30
0.0
  0
SPLINE
  5
B6
330
1F
100
AcDbEntity
  8
layer 1
 62
    22
370
     9
100
AcDbSpline
210
0.0
220
0.0
230
1.0
 70
    11
 71
     3
 72
    12
 73
     8
 74
     0
 42
0.0000000001
 43
0.0000000001
 40
0.0
 40
0.0
 40
0.0
 40
0.0
 40
0.5
 40
0.5
 40
0.5
 40
0.5
 40
1.0
 40
1.0
 40
1.0
 40
1.0
 10
58.6603
 20
-16.8836
 30
0.0
 10
65.0714
 20
-12.62
 30
0.0
 10
72.0169
 20
-14.8595
 30
0.0
 10
75.7154
 20
-20.0427
 30
0.0
 10
75.7154
 20
-20.0427
 30
0.0
 10
80.6051
 20
-11.8043
 30
0.0
 10
62.0632
 20
-6.7164
 30
0.0
 10
58.6603
 20
-16.8836
 30
0.0
  0
SPLINE
  5
B7
330
1F
100
AcDbEntity
  8
layer 1
 62
    22
370
     9
100
AcDbSpline
210
0.0
220
0.0
230
1.0
 70
    11
 71
     3
 72
    12
 73
     8
 74
     0
 42
0.0000000001
 43
0.0000000001
 40
0.0
 40
0.0
 40
0.0
 40
0.0
 40
0.5
 40
0.5
 40
0.5
 40
0.5
 40
1.0
 40
1.0
 40
1.0
 40
1.0
 10
-1.6971
 20
-18.0533
 30
0.0
 10
4.714
 20
-13.7898
 30
0.0
 10
11.6595
 20
-16.0293
 30
0.0
 10
15.358
 20
-21.2125
 30
0.0
 10
15.358
 20
-21.2125
 30
0.0
 10
20.2477
 20
-12.9741
 30
0.0
 10
1.7058
 20
-7.8862
 30
0.0
 10
-1.6971
 20
-18.0533
 30
0.0
  0
SPLINE
  5
B8
330
1F
100
AcDbEntity
  8
layer 1
 62
    22
370
     9
100
AcDbSpline
210
0.0
220
0.0
230
1.0
 70
    11
 71
     3
 72
    12
 73
     8
 74
     0
 42
0.0000000001
 43
0.0000000001
 40
0.0
 40
0.0
 40
0.0
 40
0.0
 40
0.5
 40
0.5
 40
0.5
 40
0.5
 40
1.0
 40
1.0
 40
1.0
 40
1.0
 10
-25.4052
 20
-16.6812
 30
0.0
 10
-17.2686
 20
-12.6347
 30
0.0
 10
-13.2387
 20
-15.0828
 30
0.0
 10
-8.7297
 20
-19.517
 30
0.0
 10
-8.7297
 20
-19.517
 30
0.0
 10
-6.3215
 20
-10.605
 30
0.0
 10
-24.8943
 20
-7.4495
 30
0.0
 10
-25.4052
 20
-16.6812
 30
0.0
  0
SPLINE
  5
B9
330
1F
100
AcDbEntity
  8
layer 1
 62
    22
370
     9
100
AcDbSpline
210
0.0
220
0.0
230
1.0
 70
    11
 71
     3
 72
    12
 73
     8
 74
     0
 42
0.0000000001
 43
0.0000000001
 40
0.0
 40
0.0
 40
0.0
 40
0.0
 40
0.5
 40
0.5
 40
0.5
 40
0.5
 40
1.0
 40
1.0
 40
1.0
 40
1.0
 10
24.2569
 20
-20.1675
 30
0.0
 10
32.0258
 20
-17.4461
 30
0.0
 10
36.3001
 20
-17.2801
 30
0.0
 10
40.5403
 20
-21.9522
 30
0.0
 10
40.5403
 20
-21.9522
 30
0.0
 10
44.203
 20
-14.5056
 30
0.0
 10
28.5157
 20
-10.8319
 30
0.0
 10
24.2569
 20
-20.1675
 30
0.0
  0
SPLINE
  5
BA
330
1F
100
AcDbEntity
  8
layer 1
 62
    22
370
     9
100
AcDbSpline
210
0.0
220
0.0
230
1.0
 70
    11
 71
     3
 72
    12
 73
     8
 74
     0
 42
0.0000000001
 43
0.0000000001
 40
0.0
 40
0.0
 40
0.0
 40
0.0
 40
0.5
 40
0.5
 40
0.5
 40
0.5
 40
1.0
 40
1.0
 40
1.0
 40
1.0
 10
47.6393
 20
-25.2092
 30
0.0
 10
54.0504
 20
-20.9457
 30
0.0
 10
60.9959
 20
-23.1852
 30
0.0
 10
64.6944
 20
-28.3684
 30
0.0
 10
64.6944
 20
-28.3684
 30
0.0
 10
69.5841
 20
-20.13
 30
0.0
 10
51.0422
 20
-15.0421
 30
0.0
 10
47.6393
 20
-25.2092
 30
0.0
  0
SPLINE
  5
BB
330
1F
100
AcDbEntity
  8
layer 1
 62
    22
370
     9
100
AcDbSpline
210
0.0
220
0.0
230
1.0
 70
    11
 71
     3
 72
    12
 73
     8
 74
     0
 42
0.0000000001
 43
0.0000000001
 40
0.0
 40
0.0
 40
0.0
 40
0.0
 40
0.5
 40
0.5
 40
0.5
 40
0.5
 40
1.0
 40
1.0
 40
1.0
 40
1.0
 10
53.4658
 20
-36.1659
 30
0.0
 10
58.159
 20
-32.8153
 30
0.0
 10
63.6738
 20
-35.4414
 30
0.0
 10
66.8609
 20
-40.4799
 30
0.0
 10
66.8609
 20
-40.4799
 30
0.0
 10
70.1274
 20
-33.3758
 30
0.0
 10
55.4608
 20
-27.1776
 30
0.0
 10
53.4658
 20
-36.1659
 30
0.0
  0
SPLINE
  5
BC
330
1F
100
AcDbEntity
  8
layer 1
 62
    22
370
     9
100
AcDbSpline
210
0.0
220
0.0
230
1.0
 70
    11
 71
     3
 72
    12
 73
     8
 74
     0
 42
0.0000000001
 43
0.0000000001
 40
0.0
 40
0.0
 40
0.0
 40
0.0
 40
0.5
 40
0.5
 40
0.5
 40
0.5
 40
1.0
 40
1.0
 40
1.0
 40
1.0
 10
12.7468
 20
-29.0555
 30
0.0
 10
17.44
 20
-25.7049
 30
0.0
 10
22.9548
 20
-28.331
 30
0.0
 10
26.1418
 20
-33.3695
 30
0.0
 10
26.1418
 20
-33.3695
 30
0.0
 10
29.4083
 20
-26.2654
 30
0.0
 10
14.7418
 20
-20.0672
 30
0.0
 10
12.7468
 20
-29.0555
 30
0.0
  0
SPLINE
  5
BD
330
1F
100
AcDbEntity
  8
layer 1
 62
    22
370
     9
100
AcDbSpline
210
0.0
220
0.0
230
1.0
 70
    11
 71
     3
 72
    12
 73
     8
 74
     0
 42
0.0000000001
 43
0.0000000001
 40
0.0
 40
0.0
 40
0.0
 40
0.0
 40
0.5
 40
0.5
 40
0.5
 40
0.5
 40
1.0
 40
1.0
 40
1.0
 40
1.0
 10
31.5324
 20
-29.0871
 30
0.0
 10
36.2256
 20
-25.7364
 30
0.0
 10
41.7404
 20
-28.3625
 30
0.0
 10
44.9275
 20
-33.401
 30
0.0
 10
44.9275
 20
-33.401
 30
0.0
 10
48.194
 20
-26.2969
 30
0.0
 10
33.5274
 20
-20.0987
 30
0.0
 10
31.5324
 20
-29.0871
 30
0.0
  0
SPLINE
  5
BE
330
1F
100
AcDbEntity
  8
layer 1
 62
    22
370
     9
100
AcDbSpline
210
0.0
220
0.0
230
1.0
 70
    11
 71
     3
 72
    12
 73
     8
 74
     0
 42
0.0000000001
 43
0.0000000001
 40
0.0
 40
0.0
 40
0.0
 40
0.0
 40
0.5
 40
0.5
 40
0.5
 40
0.5
 40
1.0
 40
1.0
 40
1.0
 40
1.0
 10
-11.4264
 20
-26.8758
 30
0.0
 10
-6.7332
 20
-23.5251
 30
0.0
 10
-1.2184
 20
-26.1512
 30
0.0
 10
1.9687
 20
-31.1897
 30
0.0
 10
1.9687
 20
-31.1897
 30
0.0
 10
5.2352
 20
-24.0856
 30
0.0
 10
-9.4314
 20
-17.8874
 30
0.0
 10
-11.4264
 20
-26.8758
 30
0.0
  0
SPLINE
  5
BF
330
1F
100
AcDbEntity
  8
layer 1
 62
    22
370
     9
100
AcDbSpline
210
0.0
220
0.0
230
1.0
 70
    11
 71
     3
 72
    12
 73
     8
 74
     0
 42
0.0000000001
 43
0.0000000001
 40
0.0
 40
0.0
 40
0.0
 40
0.0
 40
0.5
 40
0.5
 40
0.5
 40
0.5
 40
1.0
 40
1.0
 40
1.0
 40
1.0
 10
-31.359
 20
-27.3625
 30
0.0
 10
-28.5932
 20
-22.6672
 30
0.0
 10
-22.3355
 20
-23.1809
 30
0.0
 10
-17.1056
 20
-26.7131
 30
0.0
 10
-17.1056
 20
-26.7131
 30
0.0
 10
-17.3674
 20
-19.0601
 30
0.0
 10
-33.6496
 20
-18.416
 30
0.0
 10
-31.359
 20
-27.3625
 30
0.0
  0
SPLINE
  5
C0
330
1F
100
AcDbEntity
  8
layer 1
 62
    22
370
     9
100
AcDbSpline
210
0.0
220
0.0
230
1.0
 70
    11
 71
     3
 72
    12
 73
     8
 74
     0
 42
0.0000000001
 43
0.0000000001
 40
0.0
 40
0.0
 40
0.0
 40
0.0
 40
0.5
 40
0.5
 40
0.5
 40
0.5
 40
1.0
 40
1.0
 40
1.0
 40
1.0
 10
-63.9731
 20
-36.3259
 30
0.0
 10
-62.4314
 20
-31.2234
 30
0.0
 10
-56.1958
 20
-30.5654
 30
0.0
 10
-50.2189
 20
-33.0485
 30
0.0
 10
-50.2189
 20
-33.0485
 30
0.0
 10
-52.3624
 20
-25.6162
 30
0.0
 10
-68.4163
 20
-28.0053
 30
0.0
 10
-63.9731
 20
-36.3259
 30
0.0
  0
SPLINE
  5
C1
330
1F
100
AcDbEntity
  8
layer 1
 62
    22
370
     9
100
AcDbSpline
210
0.0
220
0.0
230
1.0
 70
    11
 71
     3
 72
    12
 73
     8
 74
     0
 42
0.0000000001
 43
0.0000000001
 40
0.0
 40
0.0
 40
0.0
 40
0.0
 40
0.5
 40
0.5
 40
0.5
 40
0.5
 40
1.0
 40
1.0
 40
1.0
 40
1.0
 10
-71.9669
 20
-47.5131
 30
0.0
 10
-71.419
 20
-42.2574
 30
0.0
 10
-65.3975
 20
-40.7154
 30
0.0
 10
-59.0327
 20
-42.31
 30
0.0
 10
-59.0327
 20
-42.31
 30
0.0
 10
-62.5614
 20
-35.2828
 30
0.0
 10
-77.9317
 20
-39.9386
 30
0.0
 10
-71.9669
 20
-47.5131
 30
0.0
  0
SPLINE
  5
C2
330
1F
100
AcDbEntity
  8
layer 1
 62
    22
370
     9
100
AcDbSpline
210
0.0
220
0.0
230
1.0
 70
    11
 71
     3
 72
    12
 73
     8
 74
     0
 42
0.0000000001
 43
0.0000000001
 40
0.0
 40
0.0
 40
0.0
 40
0.0
 40
0.5
 40
0.5
 40
0.5
 40
0.5
 40
1.0
 40
1.0
 40
1.0
 40
1.0
 10
-77.665
 20
-32.2067
 30
0.0
 10
-76.897
 20
-26.9724
 30
0.0
 10
-70.8141
 20
-25.6213
 30
0.0
 10
-64.5197
 20
-27.4153
 30
0.0
 10
-64.5197
 20
-27.4153
 30
0.0
 10
-67.7518
 20
-20.2823
 30
0.0
 10
-83.3089
 20
-24.4501
 30
0.0
 10
-77.665
 20
-32.2067
 30
0.0
  0
SPLINE
  5
C3
330
1F
100
AcDbEntity
  8
layer 1
 62
    22
370
     9
100
AcDbSpline
210
0.0
220
0.0
230
1.0
 70
    11
 71
     3
 72
    12
 73
     8
 74
     0
 42
0.0000000001
 43
0.0000000001
 40
0.0
 40
0.0
 40
0.0
 40
0.0
 40
0.5
 40
0.5
 40
0.5
 40
0.5
 40
1.0
 40
1.0
 40
1.0
 40
1.0
 10
-16.65
 20
122.2452
 30
0.0
 10
-13.8721
 20
125.879
 30
0.0
 10
-8.0377
 20
124.597
 30
0.0
 10
-3.2872
 20
120.8777
 30
0.0
 10
-3.2872
 20
120.8777
 30
0.0
 10
-3.2225
 20
127.4437
 30
0.0
 10
-18.4312
 20
130.1885
 30
0.0
 10
-16.65
 20
122.2452
 30
0.0
  0
ENDSEC
  0
SECTION
  2
OBJECTS
  0
DICTIONARY
  5
C
330
0
100
AcDbDictionary
281
     1
  3
ACAD_GROUP
350
D
  3
ACAD_LAYOUT
350
1A
  3
ACAD_MLEADERSTYLE
350
C5
  3
ACAD_MLINESTYLE
350
17
  3
ACAD_PLOTSETTINGS
350
19
  3
ACAD_PLOTSTYLENAME
350
E
  3
ACAD_SCALELIST
350
3B
  3
ACAD_TABLESTYLE
350
C4
  3
ACAD_VISUALSTYLE
350
2A
  0
DICTIONARY
  5
D
102
{ACAD_REACTORS
330
C
102
}
330
C
100
AcDbDictionary
281
     1
  0
DICTIONARY
  5
1A
102
{ACAD_REACTORS
330
C
102
}
330
C
100
AcDbDictionary
281
     1
  3
Layout1
350
1E
  3
Layout2
350
26
  3
Model
350
22
  0
DICTIONARY
  5
C5
102
{ACAD_REACTORS
330
C
102
}
330
C
100
AcDbDictionary
281
     1
  0
DICTIONARY
  5
17
102
{ACAD_REACTORS
330
C
102
}
330
C
100
AcDbDictionary
281
     1
  3
Standard
350
18
  0
DICTIONARY
  5
19
102
{ACAD_REACTORS
330
C
102
}
330
C
100
AcDbDictionary
281
     1
  0
ACDBDICTIONARYWDFLT
  5
E
102
{ACAD_REACTORS
330
C
102
}
330
C
100
AcDbDictionary
281
     1
  3
Normal
350
F
100
AcDbDictionaryWithDefault
340
F
  0
DICTIONARY
  5
3B
102
{ACAD_REACTORS
330
C
102
}
330
C
100
AcDbDictionary
281
     1
  3
A0
350
3C
  3
A1
350
3D
  3
A2
350
3E
  3
A3
350
3F
  3
A4
350
40
  3
A5
350
41
  3
A6
350
42
  3
A7
350
43
  3
A8
350
44
  3
A9
350
45
  3
B0
350
46
  3
B1
350
47
  3
B2
350
48
  3
B3
350
49
  3
B4
350
4A
  3
B5
350
4B
  3
B6
350
4C
  3
B7
350
4D
  3
B8
350
4E
  3
B9
350
4F
  3
C0
350
50
  3
C1
350
51
  3
C2
350
52
  3
C3
350
53
  3
C4
350
54
  3
C5
350
55
  3
C6
350
56
  3
C7
350
57
  3
C8
350
58
  3
C9
350
59
  3
D0
350
5A
  3
D1
350
5B
  3
D2
350
5C
  0
DICTIONARY
  5
C4
102
{ACAD_REACTORS
330
C
102
}
330
C
100
AcDbDictionary
281
     1
  0
DICTIONARY
  5
2A
102
{ACAD_REACTORS
330
C
102
}
330
C
100
AcDbDictionary
281
     1
  3
2dWireframe
350
2F
  3
3D Hidden
350
31
  3
3dWireframe
350
30
  3
Basic
350
32
  3
Brighten
350
36
  3
ColorChange
350
3A
  3
Conceptual
350
34
  3
Dim
350
35
  3
Facepattern
350
39
  3
Flat
350
2B
  3
FlatWithEdges
350
2C
  3
Gouraud
350
2D
  3
GouraudWithEdges
350
2E
  3
Linepattern
350
38
  3
Realistic
350
33
  3
Thicken
350
37
  0
LAYOUT
  5
1E
102
{ACAD_REACTORS
330
1A
102
}
330
1A
100
AcDbPlotSettings
  1

  2
none_device
  4

  6

 40
0.0
 41
0.0
 42
0.0
 43
0.0
 44
0.0
 45
0.0
 46
0.0
 47
0.0
 48
0.0
 49
0.0
140
0.0
141
0.0
142
1.0
143
1.0
 70
   688
 72
     0
 73
     0
 74
     5
  7

 75
    16
 76
     0
 77
     2
 78
   300
147
1.0
148
0.0
149
0.0
100
AcDbLayout
  1
Layout1
 70
     1
 71
     1
 10
0.0
 20
0.0
 11
12.0
 21
9.0
 12
0.0
 22
0.0
 32
0.0
 14
1.000000000000000E+20
 24
1.000000000000000E+20
 34
1.000000000000000E+20
 15
-1.000000000000000E+20
 25
-1.000000000000000E+20
 35
-1.000000000000000E+20
146
0.0
 13
0.0
 23
0.0
 33
0.0
 16
1.0
 26
0.0
 36
0.0
 17
0.0
 27
1.0
 37
0.0
 76
     0
330
1B
  0
LAYOUT
  5
26
102
{ACAD_REACTORS
330
1A
102
}
330
1A
100
AcDbPlotSettings
  1

  2
none_device
  4

  6

 40
0.0
 41
0.0
 42
0.0
 43
0.0
 44
0.0
 45
0.0
 46
0.0
 47
0.0
 48
0.0
 49
0.0
140
0.0
141
0.0
142
1.0
143
1.0
 70
   688
 72
     0
 73
     0
 74
     5
  7

 75
    16
 76
     0
 77
     2
 78
   300
147
1.0
148
0.0
149
0.0
100
AcDbLayout
  1
Layout2
 70
     1
 71
     2
 10
0.0
 20
0.0
 11
0.0
 21
0.0
 12
0.0
 22
0.0
 32
0.0
 14
0.0
 24
0.0
 34
0.0
 15
0.0
 25
0.0
 35
0.0
146
0.0
 13
0.0
 23
0.0
 33
0.0
 16
1.0
 26
0.0
 36
0.0
 17
0.0
 27
1.0
 37
0.0
 76
     0
330
23
  0
LAYOUT
  5
22
102
{ACAD_REACTORS
330
1A
102
}
330
1A
100
AcDbPlotSettings
  1

  2
none_device
  4

  6

 40
0.0
 41
0.0
 42
0.0
 43
0.0
 44
0.0
 45
0.0
 46
0.0
 47
0.0
 48
0.0
 49
0.0
140
0.0
141
0.0
142
1.0
143
1.0
 70
  1712
 72
     0
 73
     0
 74
     0
  7

 75
     0
 76
     0
 77
     2
 78
   300
147
1.0
148
0.0
149
0.0
100
AcDbLayout
  1
Model
 70
     1
 71
     0
 10
0.0
 20
0.0
 11
12.0
 21
9.0
 12
0.0
 22
0.0
 32
0.0
 14
-94.546
 24
-121.8523
 34
0.0
 15
96.2412
 25
197.7849
 35
0.0
146
0.0
 13
0.0
 23
0.0
 33
0.0
 16
1.0
 26
0.0
 36
0.0
 17
0.0
 27
1.0
 37
0.0
 76
     0
330
1F
331
29
  0
MLINESTYLE
  5
18
102
{ACAD_REACTORS
330
17
102
}
330
17
100
AcDbMlineStyle
  2
Standard
 70
     0
  3

 62
   256
 51
90.0
 52
90.0
 71
     2
 49
0.5
 62
   256
  6
BYLAYER
 49
-0.5
 62
   256
  6
BYLAYER
  0
ACDBPLACEHOLDER
  5
F
102
{ACAD_REACTORS
330
E
102
}
330
E
  0
SCALE
  5
3C
102
{ACAD_REACTORS
330
3B
102
}
330
3B
100
AcDbScale
 70
     0
300
1:1
140
1.0
141
1.0
290
     1
  0
SCALE
  5
3D
102
{ACAD_REACTORS
330
3B
102
}
330
3B
100
AcDbScale
 70
     0
300
1:2
140
1.0
141
2.0
290
     0
  0
SCALE
  5
3E
102
{ACAD_REACTORS
330
3B
102
}
330
3B
100
AcDbScale
 70
     0
300
1:4
140
1.0
141
4.0
290
     0
  0
SCALE
  5
3F
102
{ACAD_REACTORS
330
3B
102
}
330
3B
100
AcDbScale
 70
     0
300
1:5
140
1.0
141
5.0
290
     0
  0
SCALE
  5
40
102
{ACAD_REACTORS
330
3B
102
}
330
3B
100
AcDbScale
 70
     0
300
1:8
140
1.0
141
8.0
290
     0
  0
SCALE
  5
41
102
{ACAD_REACTORS
330
3B
102
}
330
3B
100
AcDbScale
 70
     0
300
1:10
140
1.0
141
10.0
290
     0
  0
SCALE
  5
42
102
{ACAD_REACTORS
330
3B
102
}
330
3B
100
AcDbScale
 70
     0
300
1:16
140
1.0
141
16.0
290
     0
  0
SCALE
  5
43
102
{ACAD_REACTORS
330
3B
102
}
330
3B
100
AcDbScale
 70
     0
300
1:20
140
1.0
141
20.0
290
     0
  0
SCALE
  5
44
102
{ACAD_REACTORS
330
3B
102
}
330
3B
100
AcDbScale
 70
     0
300
1:30
140
1.0
141
30.0
290
     0
  0
SCALE
  5
45
102
{ACAD_REACTORS
330
3B
102
}
330
3B
100
AcDbScale
 70
     0
300
1:40
140
1.0
141
40.0
290
     0
  0
SCALE
  5
46
102
{ACAD_REACTORS
330
3B
102
}
330
3B
100
AcDbScale
 70
     0
300
1:50
140
1.0
141
50.0
290
     0
  0
SCALE
  5
47
102
{ACAD_REACTORS
330
3B
102
}
330
3B
100
AcDbScale
 70
     0
300
1:100
140
1.0
141
100.0
290
     0
  0
SCALE
  5
48
102
{ACAD_REACTORS
330
3B
102
}
330
3B
100
AcDbScale
 70
     0
300
2:1
140
2.0
141
1.0
290
     0
  0
SCALE
  5
49
102
{ACAD_REACTORS
330
3B
102
}
330
3B
100
AcDbScale
 70
     0
300
4:1
140
4.0
141
1.0
290
     0
  0
SCALE
  5
4A
102
{ACAD_REACTORS
330
3B
102
}
330
3B
100
AcDbScale
 70
     0
300
8:1
140
8.0
141
1.0
290
     0
  0
SCALE
  5
4B
102
{ACAD_REACTORS
330
3B
102
}
330
3B
100
AcDbScale
 70
     0
300
10:1
140
10.0
141
1.0
290
     0
  0
SCALE
  5
4C
102
{ACAD_REACTORS
330
3B
102
}
330
3B
100
AcDbScale
 70
     0
300
100:1
140
100.0
141
1.0
290
     0
  0
SCALE
  5
4D
102
{ACAD_REACTORS
330
3B
102
}
330
3B
100
AcDbScale
 70
     0
300
1/128" = 1'-0"
140
0.0078125
141
12.0
290
     0
  0
SCALE
  5
4E
102
{ACAD_REACTORS
330
3B
102
}
330
3B
100
AcDbScale
 70
     0
300
1/64" = 1'-0"
140
0.015625
141
12.0
290
     0
  0
SCALE
  5
4F
102
{ACAD_REACTORS
330
3B
102
}
330
3B
100
AcDbScale
 70
     0
300
1/32" = 1'-0"
140
0.03125
141
12.0
290
     0
  0
SCALE
  5
50
102
{ACAD_REACTORS
330
3B
102
}
330
3B
100
AcDbScale
 70
     0
300
1/16" = 1'-0"
140
0.0625
141
12.0
290
     0
  0
SCALE
  5
51
102
{ACAD_REACTORS
330
3B
102
}
330
3B
100
AcDbScale
 70
     0
300
3/32" = 1'-0"
140
0.09375
141
12.0
290
     0
  0
SCALE
  5
52
102
{ACAD_REACTORS
330
3B
102
}
330
3B
100
AcDbScale
 70
     0
300
1/8" = 1'-0"
140
0.125
141
12.0
290
     0
  0
SCALE
  5
53
102
{ACAD_REACTORS
330
3B
102
}
330
3B
100
AcDbScale
 70
     0
300
3/16" = 1'-0"
140
0.1875
141
12.0
290
     0
  0
SCALE
  5
54
102
{ACAD_REACTORS
330
3B
102
}
330
3B
100
AcDbScale
 70
     0
300
1/4" = 1'-0"
140
0.25
141
12.0
290
     0
  0
SCALE
  5
55
102
{ACAD_REACTORS
330
3B
102
}
330
3B
100
AcDbScale
 70
     0
300
3/8" = 1'-0"
140
0.375
141
12.0
290
     0
  0
SCALE
  5
56
102
{ACAD_REACTORS
330
3B
102
}
330
3B
100
AcDbScale
 70
     0
300
1/2" = 1'-0"
140
0.5
141
12.0
290
     0
  0
SCALE
  5
57
102
{ACAD_REACTORS
330
3B
102
}
330
3B
100
AcDbScale
 70
     0
300
3/4" = 1'-0"
140
0.75
141
12.0
290
     0
  0
SCALE
  5
58
102
{ACAD_REACTORS
330
3B
102
}
330
3B
100
AcDbScale
 70
     0
300
1" = 1'-0"
140
1.0
141
12.0
290
     0
  0
SCALE
  5
59
102
{ACAD_REACTORS
330
3B
102
}
330
3B
100
AcDbScale
 70
     0
300
1-1/2" = 1'-0"
140
1.5
141
12.0
290
     0
  0
SCALE
  5
5A
102
{ACAD_REACTORS
330
3B
102
}
330
3B
100
AcDbScale
 70
     0
300
3" = 1'-0"
140
3.0
141
12.0
290
     0
  0
SCALE
  5
5B
102
{ACAD_REACTORS
330
3B
102
}
330
3B
100
AcDbScale
 70
     0
300
6" = 1'-0"
140
6.0
141
12.0
290
     0
  0
SCALE
  5
5C
102
{ACAD_REACTORS
330
3B
102
}
330
3B
100
AcDbScale
 70
     0
300
1'-0" = 1'-0"
140
12.0
141
12.0
290
     0
  0
VISUALSTYLE
  5
2F
102
{ACAD_REACTORS
330
2A
102
}
330
2A
100
AcDbVisualStyle
  2
2dWireframe
 70
     4
 71
     0
 72
     2
 73
     0
 90
        0
 40
-0.6
 41
-30.0
 62
     5
 63
     7
421
 16777215
 74
     1
 91
        4
 64
     7
 65
   257
 75
     1
175
     1
 42
1.0
 92
        0
 66
   257
 43
1.0
 76
     1
 77
     6
 78
     2
 67
     7
 79
     5
170
     0
171
     0
290
     0
174
     0
 93
        1
 44
0.0
173
     0
291
     0
 45
0.0
  0
VISUALSTYLE
  5
31
102
{ACAD_REACTORS
330
2A
102
}
330
2A
100
AcDbVisualStyle
  2
3D Hidden
 70
     6
 71
     1
 72
     2
 73
     2
 90
        0
 40
-0.6
 41
-30.0
 62
     5
 63
     7
421
 16777215
 74
     2
 91
        2
 64
     7
 65
   257
 75
     2
175
     1
 42
40.0
 92
        0
 66
   257
 43
1.0
 76
     1
 77
     6
 78
     2
 67
     7
 79
     3
170
     0
171
     0
290
     0
174
     0
 93
        1
 44
0.0
173
     0
291
     0
 45
0.0
  0
VISUALSTYLE
  5
30
102
{ACAD_REACTORS
330
2A
102
}
330
2A
100
AcDbVisualStyle
  2
3dWireframe
 70
     5
 71
     0
 72
     2
 73
     0
 90
        0
 40
-0.6
 41
-30.0
 62
     5
 63
     7
421
 16777215
 74
     1
 91
        4
 64
     7
 65
   257
 75
     1
175
     1
 42
1.0
 92
        0
 66
   257
 43
1.0
 76
     1
 77
     6
 78
     2
 67
     7
 79
     5
170
     0
171
     0
290
     0
174
     0
 93
        1
 44
0.0
173
     0
291
     0
 45
0.0
  0
VISUALSTYLE
  5
32
102
{ACAD_REACTORS
330
2A
102
}
330
2A
100
AcDbVisualStyle
  2
Basic
 70
     7
 71
     1
 72
     0
 73
     1
 90
        0
 40
-0.6
 41
-30.0
 62
     5
 63
     7
421
 16777215
 74
     0
 91
        4
 64
     7
 65
   257
 75
     1
175
     1
 42
1.0
 92
        8
 66
     7
 43
1.0
 76
     1
 77
     6
 78
     2
 67
     7
 79
     5
170
     0
171
     0
290
     0
174
     0
 93
        1
 44
0.0
173
     0
291
     1
 45
0.0
  0
VISUALSTYLE
  5
36
102
{ACAD_REACTORS
330
2A
102
}
330
2A
100
AcDbVisualStyle
  2
Brighten
 70
    12
 71
     2
 72
     2
 73
     0
 90
        0
 40
-0.6
 41
-30.0
 62
     5
 63
     7
421
 16777215
 74
     1
 91
        4
 64
     7
 65
   257
 75
     1
175
     1
 42
1.0
 92
        8
 66
     7
 43
1.0
 76
     1
 77
     6
 78
     2
 67
     7
 79
     5
170
     0
171
     0
290
     0
174
     0
 93
        1
 44
50.0
173
     0
291
     1
 45
0.0
  0
VISUALSTYLE
  5
3A
102
{ACAD_REACTORS
330
2A
102
}
330
2A
100
AcDbVisualStyle
  2
ColorChange
 70
    16
 71
     2
 72
     2
 73
     3
 90
        0
 40
-0.6
 41
-30.0
 62
     5
 63
     8
421
  8421504
 74
     1
 91
        4
 64
     7
 65
   257
 75
     1
175
     1
 42
1.0
 92
        8
 66
     8
424
  8421504
 43
1.0
 76
     1
 77
     6
 78
     2
 67
     7
 79
     5
170
     0
171
     0
290
     0
174
     0
 93
        1
 44
0.0
173
     0
291
     1
 45
0.0
  0
VISUALSTYLE
  5
34
102
{ACAD_REACTORS
330
2A
102
}
330
2A
100
AcDbVisualStyle
  2
Conceptual
 70
     9
 71
     3
 72
     2
 73
     0
 90
        0
 40
-0.6
 41
-30.0
 62
     5
 63
     7
421
 16777215
 74
     2
 91
        2
 64
     7
 65
   257
 75
     1
175
     1
 42
40.0
 92
        8
 66
     7
 43
1.0
 76
     1
 77
     6
 78
     2
 67
     7
 79
     3
170
     0
171
     0
290
     0
174
     0
 93
        1
 44
0.0
173
     0
291
     0
 45
0.0
  0
VISUALSTYLE
  5
35
102
{ACAD_REACTORS
330
2A
102
}
330
2A
100
AcDbVisualStyle
  2
Dim
 70
    11
 71
     2
 72
     2
 73
     0
 90
        0
 40
-0.6
 41
-30.0
 62
     5
 63
     7
421
 16777215
 74
     1
 91
        4
 64
     7
 65
   257
 75
     1
175
     1
 42
1.0
 92
        8
 66
     7
 43
1.0
 76
     1
 77
     6
 78
     2
 67
     7
 79
     5
170
     0
171
     0
290
     0
174
     0
 93
        1
 44
-50.0
173
     0
291
     1
 45
0.0
  0
VISUALSTYLE
  5
39
102
{ACAD_REACTORS
330
2A
102
}
330
2A
100
AcDbVisualStyle
  2
Facepattern
 70
    15
 71
     2
 72
     2
 73
     0
 90
        0
 40
-0.6
 41
-30.0
 62
     5
 63
     7
421
 16777215
 74
     1
 91
        4
 64
     7
 65
   257
 75
     1
175
     1
 42
1.0
 92
        8
 66
     7
 43
1.0
 76
     1
 77
     6
 78
     2
 67
     7
 79
     5
170
     0
171
     0
290
     0
174
     0
 93
        1
 44
0.0
173
     0
291
     1
 45
0.0
  0
VISUALSTYLE
  5
2B
102
{ACAD_REACTORS
330
2A
102
}
330
2A
100
AcDbVisualStyle
  2
Flat
 70
     0
 71
     2
 72
     1
 73
     1
 90
        2
 40
-0.6
 41
30.0
 62
     5
 63
     7
421
 16777215
 74
     0
 91
        4
 64
     7
 65
   257
 75
     1
175
     1
 42
1.0
 92
        8
 66
     7
 43
1.0
 76
     1
 77
     6
 78
     2
 67
     7
 79
     5
170
     0
171
     0
290
     0
174
     0
 93
       13
 44
0.0
173
     0
291
     1
 45
0.0
  0
VISUALSTYLE
  5
2C
102
{ACAD_REACTORS
330
2A
102
}
330
2A
100
AcDbVisualStyle
  2
FlatWithEdges
 70
     1
 71
     2
 72
     1
 73
     1
 90
        2
 40
-0.6
 41
30.0
 62
     5
 63
     7
421
 16777215
 74
     1
 91
        4
 64
     7
 65
   257
 75
     1
175
     1
 42
1.0
 92
        0
 66
   257
 43
1.0
 76
     1
 77
     6
 78
     2
 67
     7
 79
     5
170
     0
171
     0
290
     0
174
     0
 93
       13
 44
0.0
173
     0
291
     1
 45
0.0
  0
VISUALSTYLE
  5
2D
102
{ACAD_REACTORS
330
2A
102
}
330
2A
100
AcDbVisualStyle
  2
Gouraud
 70
     2
 71
     2
 72
     2
 73
     1
 90
        2
 40
-0.6
 41
30.0
 62
     5
 63
     7
421
 16777215
 74
     0
 91
        4
 64
     7
 65
   257
 75
     1
175
     1
 42
1.0
 92
        0
 66
     7
 43
1.0
 76
     1
 77
     6
 78
     2
 67
     7
 79
     5
170
     0
171
     0
290
     0
174
     0
 93
       13
 44
0.0
173
     0
291
     1
 45
0.0
  0
VISUALSTYLE
  5
2E
102
{ACAD_REACTORS
330
2A
102
}
330
2A
100
AcDbVisualStyle
  2
GouraudWithEdges
 70
     3
 71
     2
 72
     2
 73
     1
 90
        2
 40
-0.6
 41
30.0
 62
     5
 63
     7
421
 16777215
 74
     1
 91
        4
 64
     7
 65
   257
 75
     1
175
     1
 42
1.0
 92
        0
 66
   257
 43
1.0
 76
     1
 77
     6
 78
     2
 67
     7
 79
     5
170
     0
171
     0
290
     0
174
     0
 93
       13
 44
0.0
173
     0
291
     1
 45
0.0
  0
VISUALSTYLE
  5
38
102
{ACAD_REACTORS
330
2A
102
}
330
2A
100
AcDbVisualStyle
  2
Linepattern
 70
    14
 71
     2
 72
     2
 73
     0
 90
        0
 40
-0.6
 41
-30.0
 62
     5
 63
     7
421
 16777215
 74
     1
 91
        4
 64
     7
 65
   257
 75
     7
175
     7
 42
1.0
 92
        8
 66
     7
 43
1.0
 76
     1
 77
     6
 78
     2
 67
     7
 79
     5
170
     0
171
     0
290
     0
174
     0
 93
        1
 44
0.0
173
     0
291
     1
 45
0.0
  0
VISUALSTYLE
  5
33
102
{ACAD_REACTORS
330
2A
102
}
330
2A
100
AcDbVisualStyle
  2
Realistic
 70
     8
 71
     2
 72
     2
 73
     0
 90
        0
 40
-0.6
 41
-30.0
 62
     5
 63
     7
421
 16777215
 74
     1
 91
        0
 64
     7
 65
   257
 75
     1
175
     1
 42
1.0
 92
        8
 66
     8
424
  7895160
 43
1.0
 76
     1
 77
     6
 78
     2
 67
     7
 79
     5
170
     0
171
     0
290
     0
174
     0
 93
       13
 44
0.0
173
     0
291
     0
 45
0.0
  0
VISUALSTYLE
  5
37
102
{ACAD_REACTORS
330
2A
102
}
330
2A
100
AcDbVisualStyle
  2
Thicken
 70
    13
 71
     2
 72
     2
 73
     0
 90
        0
 40
-0.6
 41
-30.0
 62
     5
 63
     7
421
 16777215
 74
     1
 91
        4
 64
     7
 65
   257
 75
     1
175
     1
 42
1.0
 92
       12
 66
     7
 43
1.0
 76
     1
 77
     6
 78
     2
 67
     7
 79
     5
170
     0
171
     0
290
     0
174
     0
 93
        1
 44
0.0
173
     0
291
     1
 45
0.0
  0
ENDSEC
  0
EOF
