  0
SECTION
  2
HEADER
  9
$ACADVER
  1
AC1009
  9
$EXTMIN
 10
-133.00000000
 20
-87.72500000
 30
0.0
  9
$EXTMAX
 10
133.00000000
 20
87.72500000
 30
0.0
  0
ENDSEC
  0
SECTION
  2
ENTITIES
  0
POLYLINE
  8
0
 66
   1
 70
    0
  0
VERTEX
  8
0
 10
118.73750000
 20
53.15000000
  0
VERTEX
  8
0
 10
118.72500000
 20
50.55000000
  0
VERTEX
  8
0
 10
109.46250000
 20
50.55000000
  0
VERTEX
  8
0
 10
109.46250000
 20
50.87500000
  0
VERTEX
  8
0
 10
116.82500000
 20
52.52500000
  0
VERTEX
  8
0
 10
116.81250000
 20
53.15000000
  0
SEQEND
  0
POLYLINE
  8
0
 66
   1
 70
    0
  0
VERTEX
  8
0
 10
118.72500000
 20
49.15000000
  0
VERTEX
  8
0
 10
118.72500000
 20
46.54995000
  0
VERTEX
  8
0
 10
109.46250000
 20
46.54995000
  0
VERTEX
  8
0
 10
109.44995000
 20
46.87500000
  0
VERTEX
  8
0
 10
116.82500000
 20
48.52495000
  0
VERTEX
  8
0
 10
116.81250000
 20
49.15000000
  0
SEQEND
  0
POLYLINE
  8
0
 66
   1
 70
    0
  0
VERTEX
  8
0
 10
118.72500000
 20
44.64995000
  0
VERTEX
  8
0
 10
118.72500000
 20
42.05000000
  0
VERTEX
  8
0
 10
112.72495000
 20
42.05000000
  0
VERTEX
  8
0
 10
112.72495000
 20
42.37495000
  0
VERTEX
  8
0
 10
117.48745000
 20
44.02500000
  0
VERTEX
  8
0
 10
117.48745000
 20
44.64995000
  0
SEQEND
  0
POLYLINE
  8
0
 66
   1
 70
    0
  0
VERTEX
  8
0
 10
118.72500000
 20
40.65000000
  0
VERTEX
  8
0
 10
118.72500000
 20
38.05000000
  0
VERTEX
  8
0
 10
112.72495000
 20
38.05000000
  0
VERTEX
  8
0
 10
112.71245000
 20
38.37500000
  0
VERTEX
  8
0
 10
117.48745000
 20
40.02500000
  0
VERTEX
  8
0
 10
117.48745000
 20
40.65000000
  0
SEQEND
  0
POLYLINE
  8
0
 66
   1
 70
    0
  0
VERTEX
  8
0
 10
118.71250000
 20
36.65000000
  0
VERTEX
  8
0
 10
118.71250000
 20
34.04995000
  0
VERTEX
  8
0
 10
112.71245000
 20
34.04995000
  0
VERTEX
  8
0
 10
112.71245000
 20
34.37500000
  0
VERTEX
  8
0
 10
117.48745000
 20
36.02495000
  0
VERTEX
  8
0
 10
117.47495000
 20
36.65000000
  0
SEQEND
  0
POLYLINE
  8
0
 66
   1
 70
    0
  0
VERTEX
  8
0
 10
118.71250000
 20
32.64995000
  0
VERTEX
  8
0
 10
118.71250000
 20
30.05000000
  0
VERTEX
  8
0
 10
112.71245000
 20
30.05000000
  0
VERTEX
  8
0
 10
112.71245000
 20
30.37495000
  0
VERTEX
  8
0
 10
117.48745000
 20
32.02500000
  0
VERTEX
  8
0
 10
117.47495000
 20
32.64995000
  0
SEQEND
  0
POLYLINE
  8
0
 66
   1
 70
    0
  0
VERTEX
  8
0
 10
118.71250000
 20
28.65000000
  0
VERTEX
  8
0
 10
118.71250000
 20
26.05000000
  0
VERTEX
  8
0
 10
112.71245000
 20
26.05000000
  0
VERTEX
  8
0
 10
112.71245000
 20
26.37500000
  0
VERTEX
  8
0
 10
117.47495000
 20
28.02500000
  0
VERTEX
  8
0
 10
117.47495000
 20
28.65000000
  0
SEQEND
  0
POLYLINE
  8
0
 66
   1
 70
    0
  0
VERTEX
  8
0
 10
118.71250000
 20
24.65000000
  0
VERTEX
  8
0
 10
118.71250000
 20
22.04995000
  0
VERTEX
  8
0
 10
112.71245000
 20
22.04995000
  0
VERTEX
  8
0
 10
112.70000000
 20
22.37500000
  0
VERTEX
  8
0
 10
117.47495000
 20
24.02495000
  0
VERTEX
  8
0
 10
117.47495000
 20
24.65000000
  0
SEQEND
  0
POLYLINE
  8
0
 66
   1
 70
    0
  0
VERTEX
  8
0
 10
118.70000000
 20
20.64995000
  0
VERTEX
  8
0
 10
118.70000000
 20
18.04995000
  0
VERTEX
  8
0
 10
112.70000000
 20
18.04995000
  0
VERTEX
  8
0
 10
112.70000000
 20
18.37495000
  0
VERTEX
  8
0
 10
117.47495000
 20
20.02500000
  0
VERTEX
  8
0
 10
117.46250000
 20
20.64995000
  0
SEQEND
  0
POLYLINE
  8
0
 66
   1
 70
    0
  0
VERTEX
  8
0
 10
118.70000000
 20
16.65000000
  0
VERTEX
  8
0
 10
118.70000000
 20
14.05000000
  0
VERTEX
  8
0
 10
112.70000000
 20
14.05000000
  0
VERTEX
  8
0
 10
112.70000000
 20
14.37495000
  0
VERTEX
  8
0
 10
117.47495000
 20
16.02500000
  0
VERTEX
  8
0
 10
117.46250000
 20
16.65000000
  0
SEQEND
  0
POLYLINE
  8
0
 66
   1
 70
    0
  0
VERTEX
  8
0
 10
93.81250000
 20
-14.77505000
  0
VERTEX
  8
0
 10
93.60000000
 20
-15.87505000
  0
VERTEX
  8
0
 10
93.40000000
 20
-17.06255000
  0
VERTEX
  8
0
 10
93.21250000
 20
-18.31250000
  0
VERTEX
  8
0
 10
93.03750000
 20
-19.63755000
  0
VERTEX
  8
0
 10
92.86250000
 20
-21.01255000
  0
VERTEX
  8
0
 10
92.71250000
 20
-22.43750000
  0
VERTEX
  8
0
 10
92.56250000
 20
-23.92505000
  0
VERTEX
  8
0
 10
92.42500000
 20
-25.45000000
  0
VERTEX
  8
0
 10
92.30000000
 20
-27.01250000
  0
VERTEX
  8
0
 10
92.18745000
 20
-28.60000000
  0
VERTEX
  8
0
 10
92.08745000
 20
-30.22500000
  0
VERTEX
  8
0
 10
92.00000000
 20
-31.87500000
  0
VERTEX
  8
0
 10
91.91250000
 20
-33.53750000
  0
VERTEX
  8
0
 10
91.83750000
 20
-35.21255000
  0
VERTEX
  8
0
 10
91.78745000
 20
-36.90000000
  0
VERTEX
  8
0
 10
91.73750000
 20
-38.57505000
  0
VERTEX
  8
0
 10
92.60000000
 20
-38.90000000
  0
VERTEX
  8
0
 10
93.33750000
 20
-39.41250000
  0
VERTEX
  8
0
 10
93.96245000
 20
-40.11250000
  0
VERTEX
  8
0
 10
94.48750000
 20
-40.95000000
  0
VERTEX
  8
0
 10
94.88750000
 20
-41.90000000
  0
VERTEX
  8
0
 10
95.16245000
 20
-42.92500000
  0
VERTEX
  8
0
 10
95.33750000
 20
-44.02500000
  0
VERTEX
  8
0
 10
95.38750000
 20
-45.15000000
  0
VERTEX
  8
0
 10
95.33750000
 20
-46.27500000
  0
VERTEX
  8
0
 10
95.16245000
 20
-47.36250000
  0
VERTEX
  8
0
 10
94.87500000
 20
-48.41250000
  0
VERTEX
  8
0
 10
94.47500000
 20
-49.36250000
  0
VERTEX
  8
0
 10
93.96245000
 20
-50.20000000
  0
VERTEX
  8
0
 10
93.33750000
 20
-50.90000000
  0
VERTEX
  8
0
 10
92.58750000
 20
-51.42500000
  0
VERTEX
  8
0
 10
91.73750000
 20
-51.75000000
  0
VERTEX
  8
0
 10
91.78745000
 20
-53.42500000
  0
VERTEX
  8
0
 10
91.83750000
 20
-55.11250000
  0
VERTEX
  8
0
 10
91.91250000
 20
-56.80000000
  0
VERTEX
  8
0
 10
92.00000000
 20
-58.47500000
  0
VERTEX
  8
0
 10
92.08745000
 20
-60.12500000
  0
VERTEX
  8
0
 10
92.18745000
 20
-61.76250000
  0
VERTEX
  8
0
 10
92.30000000
 20
-63.37500000
  0
VERTEX
  8
0
 10
92.42500000
 20
-64.96250000
  0
VERTEX
  8
0
 10
92.56250000
 20
-66.50000000
  0
VERTEX
  8
0
 10
92.70000000
 20
-68.00000000
  0
VERTEX
  8
0
 10
92.86250000
 20
-69.45000000
  0
VERTEX
  8
0
 10
93.02500000
 20
-70.83750000
  0
VERTEX
  8
0
 10
93.20000000
 20
-72.16250000
  0
VERTEX
  8
0
 10
93.38750000
 20
-73.42500000
  0
VERTEX
  8
0
 10
93.58750000
 20
-74.61250000
  0
VERTEX
  8
0
 10
93.80000000
 20
-75.72500000
  0
VERTEX
  8
0
 10
94.45000000
 20
-78.03750000
  0
VERTEX
  8
0
 10
95.42500000
 20
-80.10000000
  0
VERTEX
  8
0
 10
96.66250000
 20
-81.90000000
  0
VERTEX
  8
0
 10
98.13745000
 20
-83.46250000
  0
VERTEX
  8
0
 10
99.77500000
 20
-84.77505000
  0
VERTEX
  8
0
 10
101.55000000
 20
-85.83750000
  0
VERTEX
  8
0
 10
103.39995000
 20
-86.66250000
  0
VERTEX
  8
0
 10
105.30000000
 20
-87.25005000
  0
VERTEX
  8
0
 10
107.20000000
 20
-87.61250000
  0
VERTEX
  8
0
 10
109.04995000
 20
-87.72500000
  0
VERTEX
  8
0
 10
110.80000000
 20
-87.61250000
  0
VERTEX
  8
0
 10
112.40000000
 20
-87.26250000
  0
VERTEX
  8
0
 10
113.82500000
 20
-86.68750000
  0
VERTEX
  8
0
 10
115.01250000
 20
-85.88750000
  0
VERTEX
  8
0
 10
115.93750000
 20
-84.86250000
  0
VERTEX
  8
0
 10
116.52500000
 20
-83.62500000
  0
VERTEX
  8
0
 10
110.50000000
 20
-82.96250000
  0
VERTEX
  8
0
 10
110.93745000
 20
-79.98750000
  0
VERTEX
  8
0
 10
132.92500000
 20
-82.57500000
  0
VERTEX
  8
0
 10
133.00000000
 20
-8.21255000
  0
VERTEX
  8
0
 10
111.27500000
 20
-10.63750000
  0
VERTEX
  8
0
 10
110.83745000
 20
-7.66250000
  0
VERTEX
  8
0
 10
116.65000000
 20
-7.03755000
  0
VERTEX
  8
0
 10
116.06250000
 20
-5.73755000
  0
VERTEX
  8
0
 10
115.15000000
 20
-4.66255000
  0
VERTEX
  8
0
 10
113.96250000
 20
-3.82500000
  0
VERTEX
  8
0
 10
112.53750000
 20
-3.22500000
  0
VERTEX
  8
0
 10
110.92495000
 20
-2.86255000
  0
VERTEX
  8
0
 10
109.16250000
 20
-2.73750000
  0
VERTEX
  8
0
 10
107.31250000
 20
-2.85000000
  0
VERTEX
  8
0
 10
105.40000000
 20
-3.20000000
  0
VERTEX
  8
0
 10
103.50000000
 20
-3.80000000
  0
VERTEX
  8
0
 10
101.62500000
 20
-4.62500000
  0
VERTEX
  8
0
 10
99.83750000
 20
-5.71250000
  0
VERTEX
  8
0
 10
98.18750000
 20
-7.02505000
  0
VERTEX
  8
0
 10
96.71250000
 20
-8.60000000
  0
VERTEX
  8
0
 10
95.46245000
 20
-10.41255000
  0
VERTEX
  8
0
 10
94.47500000
 20
-12.46250000
  0
SEQEND
  0
POLYLINE
  8
0
 66
   1
 70
    1
  0
VERTEX
  8
0
 10
-92.42500000
 20
51.78745000
  0
VERTEX
  8
0
 10
-92.43750000
 20
39.28745000
  0
VERTEX
  8
0
 10
-95.53750000
 20
39.29995000
  0
VERTEX
  8
0
 10
-95.52500000
 20
51.80000000
  0
VERTEX
  8
0
 10
-92.42500000
 20
51.78745000
  0
SEQEND
  0
POLYLINE
  8
0
 66
   1
 70
    1
  0
VERTEX
  8
0
 10
-92.46250000
 20
1.78745000
  0
VERTEX
  8
0
 10
-92.47500000
 20
-10.71255000
  0
VERTEX
  8
0
 10
-95.57500000
 20
-10.70005000
  0
VERTEX
  8
0
 10
-95.56250000
 20
1.79995000
  0
VERTEX
  8
0
 10
-92.46250000
 20
1.78745000
  0
SEQEND
  0
POLYLINE
  8
0
 66
   1
 70
    1
  0
VERTEX
  8
0
 10
-80.27500000
 20
-43.61250000
  0
VERTEX
  8
0
 10
-80.30000000
 20
-44.00000000
  0
VERTEX
  8
0
 10
-80.35000000
 20
-44.36250000
  0
VERTEX
  8
0
 10
-80.45000000
 20
-44.72505000
  0
VERTEX
  8
0
 10
-80.57500000
 20
-45.07500000
  0
VERTEX
  8
0
 10
-80.73755000
 20
-45.40000000
  0
VERTEX
  8
0
 10
-80.92505000
 20
-45.71250000
  0
VERTEX
  8
0
 10
-81.13750000
 20
-46.00000000
  0
VERTEX
  8
0
 10
-81.37505000
 20
-46.26250000
  0
VERTEX
  8
0
 10
-81.65005000
 20
-46.50000000
  0
VERTEX
  8
0
 10
-81.93750000
 20
-46.72500000
  0
VERTEX
  8
0
 10
-82.25005000
 20
-46.91255000
  0
VERTEX
  8
0
 10
-82.57505000
 20
-47.06250000
  0
VERTEX
  8
0
 10
-82.91255000
 20
-47.18750000
  0
VERTEX
  8
0
 10
-83.27495000
 20
-47.28750000
  0
VERTEX
  8
0
 10
-83.64995000
 20
-47.33750000
  0
VERTEX
  8
0
 10
-84.02500000
 20
-47.36250000
  0
VERTEX
  8
0
 10
-84.41250000
 20
-47.33750000
  0
VERTEX
  8
0
 10
-84.78750000
 20
-47.28750000
  0
VERTEX
  8
0
 10
-85.13745000
 20
-47.18750000
  0
VERTEX
  8
0
 10
-85.48750000
 20
-47.06250000
  0
VERTEX
  8
0
 10
-85.81250000
 20
-46.91255000
  0
VERTEX
  8
0
 10
-86.12500000
 20
-46.71255000
  0
VERTEX
  8
0
 10
-86.41250000
 20
-46.50000000
  0
VERTEX
  8
0
 10
-86.67500000
 20
-46.26250000
  0
VERTEX
  8
0
 10
-86.92500000
 20
-45.98750000
  0
VERTEX
  8
0
 10
-87.13750000
 20
-45.70000000
  0
VERTEX
  8
0
 10
-87.32500000
 20
-45.38750000
  0
VERTEX
  8
0
 10
-87.48750000
 20
-45.06250000
  0
VERTEX
  8
0
 10
-87.61250000
 20
-44.72505000
  0
VERTEX
  8
0
 10
-87.70000000
 20
-44.36250000
  0
VERTEX
  8
0
 10
-87.76250000
 20
-43.98750000
  0
VERTEX
  8
0
 10
-87.77500000
 20
-43.61250000
  0
VERTEX
  8
0
 10
-87.76250000
 20
-43.22500000
  0
VERTEX
  8
0
 10
-87.70000000
 20
-42.85005000
  0
VERTEX
  8
0
 10
-87.61250000
 20
-42.50000000
  0
VERTEX
  8
0
 10
-87.47500000
 20
-42.15005000
  0
VERTEX
  8
0
 10
-87.32500000
 20
-41.82500000
  0
VERTEX
  8
0
 10
-87.13750000
 20
-41.51250000
  0
VERTEX
  8
0
 10
-86.91250000
 20
-41.22500000
  0
VERTEX
  8
0
 10
-86.67500000
 20
-40.96255000
  0
VERTEX
  8
0
 10
-86.41250000
 20
-40.71250000
  0
VERTEX
  8
0
 10
-86.11250000
 20
-40.50000000
  0
VERTEX
  8
0
 10
-85.81250000
 20
-40.31250000
  0
VERTEX
  8
0
 10
-85.47500000
 20
-40.15000000
  0
VERTEX
  8
0
 10
-85.13745000
 20
-40.02500000
  0
VERTEX
  8
0
 10
-84.77500000
 20
-39.93750000
  0
VERTEX
  8
0
 10
-84.40000000
 20
-39.87505000
  0
VERTEX
  8
0
 10
-84.02500000
 20
-39.86255000
  0
VERTEX
  8
0
 10
-83.63745000
 20
-39.87505000
  0
VERTEX
  8
0
 10
-83.27495000
 20
-39.93750000
  0
VERTEX
  8
0
 10
-82.91255000
 20
-40.03750000
  0
VERTEX
  8
0
 10
-82.56255000
 20
-40.16255000
  0
VERTEX
  8
0
 10
-82.23755000
 20
-40.31250000
  0
VERTEX
  8
0
 10
-81.92505000
 20
-40.50000000
  0
VERTEX
  8
0
 10
-81.63750000
 20
-40.72500000
  0
VERTEX
  8
0
 10
-81.37505000
 20
-40.96255000
  0
VERTEX
  8
0
 10
-81.13750000
 20
-41.22500000
  0
VERTEX
  8
0
 10
-80.91255000
 20
-41.52500000
  0
VERTEX
  8
0
 10
-80.72505000
 20
-41.82500000
  0
VERTEX
  8
0
 10
-80.57500000
 20
-42.16250000
  0
VERTEX
  8
0
 10
-80.45000000
 20
-42.50000000
  0
VERTEX
  8
0
 10
-80.35000000
 20
-42.86250000
  0
VERTEX
  8
0
 10
-80.30000000
 20
-43.23755000
  0
VERTEX
  8
0
 10
-80.27500000
 20
-43.61250000
  0
SEQEND
  0
POLYLINE
  8
0
 66
   1
 70
    1
  0
VERTEX
  8
0
 10
-103.30000000
 20
43.17495000
  0
VERTEX
  8
0
 10
-102.80000000
 20
40.66250000
  0
VERTEX
  8
0
 10
-102.36250000
 20
38.15000000
  0
VERTEX
  8
0
 10
-102.00000000
 20
35.63745000
  0
VERTEX
  8
0
 10
-101.70000000
 20
33.12500000
  0
VERTEX
  8
0
 10
-101.46250000
 20
30.61250000
  0
VERTEX
  8
0
 10
-101.30000000
 20
28.08745000
  0
VERTEX
  8
0
 10
-101.20000000
 20
25.57500000
  0
VERTEX
  8
0
 10
-101.17500000
 20
23.06250000
  0
VERTEX
  8
0
 10
-101.21250000
 20
20.54995000
  0
VERTEX
  8
0
 10
-101.31250000
 20
18.03750000
  0
VERTEX
  8
0
 10
-101.47500000
 20
15.52500000
  0
VERTEX
  8
0
 10
-101.71250000
 20
12.99995000
  0
VERTEX
  8
0
 10
-102.02500000
 20
10.48750000
  0
VERTEX
  8
0
 10
-102.38750000
 20
7.97500000
  0
VERTEX
  8
0
 10
-102.82500000
 20
5.46245000
  0
VERTEX
  8
0
 10
-103.32500000
 20
2.95000000
  0
VERTEX
  8
0
 10
-103.43750000
 20
2.48745000
  0
VERTEX
  8
0
 10
-103.57500000
 20
2.03750000
  0
VERTEX
  8
0
 10
-103.73750000
 20
1.61245000
  0
VERTEX
  8
0
 10
-103.91250000
 20
1.18745000
  0
VERTEX
  8
0
 10
-104.12500000
 20
0.78745000
  0
VERTEX
  8
0
 10
-104.35000000
 20
0.41245000
  0
VERTEX
  8
0
 10
-104.60000000
 20
0.06250000
  0
VERTEX
  8
0
 10
-104.87500000
 20
-0.27505000
  0
VERTEX
  8
0
 10
-105.17500000
 20
-0.57505000
  0
VERTEX
  8
0
 10
-105.50000000
 20
-0.83750000
  0
VERTEX
  8
0
 10
-105.85000000
 20
-1.07505000
  0
VERTEX
  8
0
 10
-106.21250000
 20
-1.26250000
  0
VERTEX
  8
0
 10
-106.60000000
 20
-1.42500000
  0
VERTEX
  8
0
 10
-107.02500000
 20
-1.53750000
  0
VERTEX
  8
0
 10
-107.46250000
 20
-1.61250000
  0
VERTEX
  8
0
 10
-107.92500000
 20
-1.63750000
  0
VERTEX
  8
0
 10
-116.73750000
 20
-1.62500000
  0
VERTEX
  8
0
 10
-117.20000000
 20
-1.60005000
  0
VERTEX
  8
0
 10
-117.65000000
 20
-1.53750000
  0
VERTEX
  8
0
 10
-118.10000000
 20
-1.42500000
  0
VERTEX
  8
0
 10
-118.51250000
 20
-1.26250000
  0
VERTEX
  8
0
 10
-118.91250000
 20
-1.07505000
  0
VERTEX
  8
0
 10
-119.28750000
 20
-0.83750000
  0
VERTEX
  8
0
 10
-119.65000000
 20
-0.57505000
  0
VERTEX
  8
0
 10
-119.97500000
 20
-0.27505000
  0
VERTEX
  8
0
 10
-120.26250000
 20
0.05000000
  0
VERTEX
  8
0
 10
-120.53750000
 20
0.39995000
  0
VERTEX
  8
0
 10
-120.76250000
 20
0.77500000
  0
VERTEX
  8
0
 10
-120.95000000
 20
1.17500000
  0
VERTEX
  8
0
 10
-121.11250000
 20
1.59995000
  0
VERTEX
  8
0
 10
-121.22500000
 20
2.03750000
  0
VERTEX
  8
0
 10
-121.28750000
 20
2.49995000
  0
VERTEX
  8
0
 10
-121.31250000
 20
2.96250000
  0
VERTEX
  8
0
 10
-121.28750000
 20
43.20000000
  0
VERTEX
  8
0
 10
-121.26250000
 20
43.66245000
  0
VERTEX
  8
0
 10
-121.18750000
 20
44.11250000
  0
VERTEX
  8
0
 10
-121.07500000
 20
44.54995000
  0
VERTEX
  8
0
 10
-120.92500000
 20
44.97500000
  0
VERTEX
  8
0
 10
-120.72500000
 20
45.37500000
  0
VERTEX
  8
0
 10
-120.50000000
 20
45.74995000
  0
VERTEX
  8
0
 10
-120.22500000
 20
46.11250000
  0
VERTEX
  8
0
 10
-119.93750000
 20
46.43745000
  0
VERTEX
  8
0
 10
-119.61250000
 20
46.72495000
  0
VERTEX
  8
0
 10
-119.25000000
 20
47.00000000
  0
VERTEX
  8
0
 10
-118.87500000
 20
47.22495000
  0
VERTEX
  8
0
 10
-118.47500000
 20
47.41250000
  0
VERTEX
  8
0
 10
-118.05000000
 20
47.57500000
  0
VERTEX
  8
0
 10
-117.61250000
 20
47.68750000
  0
VERTEX
  8
0
 10
-117.16250000
 20
47.75000000
  0
VERTEX
  8
0
 10
-116.70000000
 20
47.77500000
  0
VERTEX
  8
0
 10
-107.87500000
 20
47.77500000
  0
VERTEX
  8
0
 10
-107.42500000
 20
47.75000000
  0
VERTEX
  8
0
 10
-106.97500000
 20
47.67500000
  0
VERTEX
  8
0
 10
-106.56250000
 20
47.56250000
  0
VERTEX
  8
0
 10
-106.17500000
 20
47.40000000
  0
VERTEX
  8
0
 10
-105.80000000
 20
47.20000000
  0
VERTEX
  8
0
 10
-105.46250000
 20
46.96250000
  0
VERTEX
  8
0
 10
-105.13750000
 20
46.70000000
  0
VERTEX
  8
0
 10
-104.83750000
 20
46.40000000
  0
VERTEX
  8
0
 10
-104.56250000
 20
46.07500000
  0
VERTEX
  8
0
 10
-104.31250000
 20
45.71250000
  0
VERTEX
  8
0
 10
-104.08750000
 20
45.33745000
  0
VERTEX
  8
0
 10
-103.87500000
 20
44.93745000
  0
VERTEX
  8
0
 10
-103.70000000
 20
44.52500000
  0
VERTEX
  8
0
 10
-103.53750000
 20
44.08750000
  0
VERTEX
  8
0
 10
-103.41250000
 20
43.63750000
  0
VERTEX
  8
0
 10
-103.30000000
 20
43.17495000
  0
SEQEND
  0
POLYLINE
  8
0
 66
   1
 70
    1
  0
VERTEX
  8
0
 10
-41.22500000
 20
87.52500000
  0
VERTEX
  8
0
 10
-44.27505000
 20
85.11250000
  0
VERTEX
  8
0
 10
-47.56250000
 20
83.42500000
  0
VERTEX
  8
0
 10
-51.05000000
 20
82.33750000
  0
VERTEX
  8
0
 10
-54.70000000
 20
81.73750000
  0
VERTEX
  8
0
 10
-58.47500000
 20
81.50000000
  0
VERTEX
  8
0
 10
-62.33750000
 20
81.47500000
  0
VERTEX
  8
0
 10
-66.26250000
 20
81.55000000
  0
VERTEX
  8
0
 10
-70.18755000
 20
81.60000000
  0
VERTEX
  8
0
 10
-74.08755000
 20
81.48750000
  0
VERTEX
  8
0
 10
-77.92505000
 20
81.10000000
  0
VERTEX
  8
0
 10
-81.67505000
 20
80.28750000
  0
VERTEX
  8
0
 10
-85.27495000
 20
78.93750000
  0
VERTEX
  8
0
 10
-88.71250000
 20
76.93750000
  0
VERTEX
  8
0
 10
-91.93750000
 20
74.12500000
  0
VERTEX
  8
0
 10
-94.90000000
 20
70.40000000
  0
VERTEX
  8
0
 10
-97.58750000
 20
65.62500000
  0
VERTEX
  8
0
 10
-98.10000000
 20
64.53750000
  0
VERTEX
  8
0
 10
-98.58750000
 20
63.51250000
  0
VERTEX
  8
0
 10
-99.03750000
 20
62.56250000
  0
VERTEX
  8
0
 10
-99.48750000
 20
61.67500000
  0
VERTEX
  8
0
 10
-99.93750000
 20
60.86250000
  0
VERTEX
  8
0
 10
-100.40000000
 20
60.11250000
  0
VERTEX
  8
0
 10
-100.88750000
 20
59.43750000
  0
VERTEX
  8
0
 10
-101.40000000
 20
58.83750000
  0
VERTEX
  8
0
 10
-101.97500000
 20
58.30000000
  0
VERTEX
  8
0
 10
-102.60000000
 20
57.83745000
  0
VERTEX
  8
0
 10
-103.28750000
 20
57.43750000
  0
VERTEX
  8
0
 10
-104.06250000
 20
57.11250000
  0
VERTEX
  8
0
 10
-104.93750000
 20
56.84995000
  0
VERTEX
  8
0
 10
-105.90000000
 20
56.64995000
  0
VERTEX
  8
0
 10
-106.98750000
 20
56.52500000
  0
VERTEX
  8
0
 10
-108.20000000
 20
56.47500000
  0
VERTEX
  8
0
 10
-109.32500000
 20
56.44995000
  0
VERTEX
  8
0
 10
-110.46250000
 20
56.42500000
  0
VERTEX
  8
0
 10
-111.61250000
 20
56.40000000
  0
VERTEX
  8
0
 10
-112.75000000
 20
56.41250000
  0
VERTEX
  8
0
 10
-113.87500000
 20
56.44995000
  0
VERTEX
  8
0
 10
-114.95000000
 20
56.54995000
  0
VERTEX
  8
0
 10
-116.00000000
 20
56.72500000
  0
VERTEX
  8
0
 10
-116.97500000
 20
56.96250000
  0
VERTEX
  8
0
 10
-117.90000000
 20
57.31250000
  0
VERTEX
  8
0
 10
-118.72500000
 20
57.76250000
  0
VERTEX
  8
0
 10
-119.46250000
 20
58.33745000
  0
VERTEX
  8
0
 10
-120.10000000
 20
59.05000000
  0
VERTEX
  8
0
 10
-120.61250000
 20
59.92495000
  0
VERTEX
  8
0
 10
-121.00000000
 20
60.96250000
  0
VERTEX
  8
0
 10
-121.23750000
 20
62.17500000
  0
VERTEX
  8
0
 10
-121.31250000
 20
63.58750000
  0
VERTEX
  8
0
 10
-121.30000000
 20
65.31250000
  0
VERTEX
  8
0
 10
-121.23750000
 20
66.87500000
  0
VERTEX
  8
0
 10
-121.13750000
 20
68.27500000
  0
VERTEX
  8
0
 10
-120.97500000
 20
69.52500000
  0
VERTEX
  8
0
 10
-120.76250000
 20
70.63745000
  0
VERTEX
  8
0
 10
-120.47500000
 20
71.62500000
  0
VERTEX
  8
0
 10
-120.11250000
 20
72.51250000
  0
VERTEX
  8
0
 10
-119.67500000
 20
73.30000000
  0
VERTEX
  8
0
 10
-119.15000000
 20
74.00000000
  0
VERTEX
  8
0
 10
-118.52500000
 20
74.63750000
  0
VERTEX
  8
0
 10
-117.81250000
 20
75.22500000
  0
VERTEX
  8
0
 10
-117.00000000
 20
75.76250000
  0
VERTEX
  8
0
 10
-116.06250000
 20
76.27500000
  0
VERTEX
  8
0
 10
-115.02500000
 20
76.76250000
  0
VERTEX
  8
0
 10
-113.85000000
 20
77.25000000
  0
VERTEX
  8
0
 10
-112.55000000
 20
77.76250000
  0
VERTEX
  8
0
 10
-115.52500000
 20
81.31250000
  0
VERTEX
  8
0
 10
-118.21250000
 20
84.02500000
  0
VERTEX
  8
0
 10
-120.63750000
 20
85.97500000
  0
VERTEX
  8
0
 10
-122.78750000
 20
87.18750000
  0
VERTEX
  8
0
 10
-124.70000000
 20
87.72500000
  0
VERTEX
  8
0
 10
-126.37500000
 20
87.62500000
  0
VERTEX
  8
0
 10
-127.82500000
 20
86.96250000
  0
VERTEX
  8
0
 10
-129.06250000
 20
85.76250000
  0
VERTEX
  8
0
 10
-130.10000000
 20
84.10000000
  0
VERTEX
  8
0
 10
-130.96250000
 20
82.00000000
  0
VERTEX
  8
0
 10
-131.65000000
 20
79.52500000
  0
VERTEX
  8
0
 10
-132.16250000
 20
76.73750000
  0
VERTEX
  8
0
 10
-132.53750000
 20
73.66250000
  0
VERTEX
  8
0
 10
-132.77500000
 20
70.36250000
  0
VERTEX
  8
0
 10
-132.90000000
 20
66.90000000
  0
VERTEX
  8
0
 10
-132.90000000
 20
63.29995000
  0
VERTEX
  8
0
 10
-133.00000000
 20
-42.27500000
  0
VERTEX
  8
0
 10
-132.77500000
 20
-47.87500000
  0
VERTEX
  8
0
 10
-132.07500000
 20
-52.98750000
  0
VERTEX
  8
0
 10
-130.92500000
 20
-57.65000000
  0
VERTEX
  8
0
 10
-129.40000000
 20
-61.85005000
  0
VERTEX
  8
0
 10
-127.51250000
 20
-65.63750000
  0
VERTEX
  8
0
 10
-125.33750000
 20
-69.00000000
  0
VERTEX
  8
0
 10
-122.91250000
 20
-71.96250000
  0
VERTEX
  8
0
 10
-120.26250000
 20
-74.55005000
  0
VERTEX
  8
0
 10
-117.46250000
 20
-76.77500000
  0
VERTEX
  8
0
 10
-114.53750000
 20
-78.66250000
  0
VERTEX
  8
0
 10
-111.53750000
 20
-80.21250000
  0
VERTEX
  8
0
 10
-108.51250000
 20
-81.45005000
  0
VERTEX
  8
0
 10
-105.50000000
 20
-82.38750000
  0
VERTEX
  8
0
 10
-102.56250000
 20
-83.05000000
  0
VERTEX
  8
0
 10
-99.72500000
 20
-83.45000000
  0
VERTEX
  8
0
 10
-97.03750000
 20
-83.60000000
  0
VERTEX
  8
0
 10
-93.82500000
 20
-83.42500000
  0
VERTEX
  8
0
 10
-90.66250000
 20
-82.82500000
  0
VERTEX
  8
0
 10
-87.60000000
 20
-81.82500000
  0
VERTEX
  8
0
 10
-84.65000000
 20
-80.46250000
  0
VERTEX
  8
0
 10
-81.86250000
 20
-78.75000000
  0
VERTEX
  8
0
 10
-79.27505000
 20
-76.71250000
  0
VERTEX
  8
0
 10
-76.93755000
 20
-74.38750000
  0
VERTEX
  8
0
 10
-74.86250000
 20
-71.78750000
  0
VERTEX
  8
0
 10
-73.11255000
 20
-68.96250000
  0
VERTEX
  8
0
 10
-71.71250000
 20
-65.91250000
  0
VERTEX
  8
0
 10
-70.70000000
 20
-62.66250000
  0
VERTEX
  8
0
 10
-70.12500000
 20
-59.26250000
  0
VERTEX
  8
0
 10
-70.01255000
 20
-55.72500000
  0
VERTEX
  8
0
 10
-70.41255000
 20
-52.07505000
  0
VERTEX
  8
0
 10
-71.35005000
 20
-48.35000000
  0
VERTEX
  8
0
 10
-72.86250000
 20
-44.55000000
  0
VERTEX
  8
0
 10
-74.56255000
 20
-41.63750000
  0
VERTEX
  8
0
 10
-76.45000000
 20
-39.40000000
  0
VERTEX
  8
0
 10
-78.50005000
 20
-37.77500000
  0
VERTEX
  8
0
 10
-80.61255000
 20
-36.73750000
  0
VERTEX
  8
0
 10
-82.72500000
 20
-36.21250000
  0
VERTEX
  8
0
 10
-84.77500000
 20
-36.16250000
  0
VERTEX
  8
0
 10
-86.69995000
 20
-36.53750000
  0
VERTEX
  8
0
 10
-88.42495000
 20
-37.27500000
  0
VERTEX
  8
0
 10
-89.88750000
 20
-38.33750000
  0
VERTEX
  8
0
 10
-91.00000000
 20
-39.65000000
  0
VERTEX
  8
0
 10
-91.72500000
 20
-41.20000000
  0
VERTEX
  8
0
 10
-91.97500000
 20
-42.90000000
  0
VERTEX
  8
0
 10
-91.68750000
 20
-44.72505000
  0
VERTEX
  8
0
 10
-90.80000000
 20
-46.60000000
  0
VERTEX
  8
0
 10
-89.23750000
 20
-48.50005000
  0
VERTEX
  8
0
 10
-86.92500000
 20
-50.35000000
  0
VERTEX
  8
0
 10
-85.00000000
 20
-52.93750000
  0
VERTEX
  8
0
 10
-83.66245000
 20
-55.38750000
  0
VERTEX
  8
0
 10
-82.86255000
 20
-57.70000000
  0
VERTEX
  8
0
 10
-82.56255000
 20
-59.86250000
  0
VERTEX
  8
0
 10
-82.72500000
 20
-61.87500000
  0
VERTEX
  8
0
 10
-83.28750000
 20
-63.72500000
  0
VERTEX
  8
0
 10
-84.22500000
 20
-65.40000000
  0
VERTEX
  8
0
 10
-85.48750000
 20
-66.90000000
  0
VERTEX
  8
0
 10
-87.02500000
 20
-68.20005000
  0
VERTEX
  8
0
 10
-88.81250000
 20
-69.30000000
  0
VERTEX
  8
0
 10
-90.77500000
 20
-70.20000000
  0
VERTEX
  8
0
 10
-92.90000000
 20
-70.87500000
  0
VERTEX
  8
0
 10
-95.12500000
 20
-71.33750000
  0
VERTEX
  8
0
 10
-97.40000000
 20
-71.55000000
  0
VERTEX
  8
0
 10
-99.71250000
 20
-71.53750000
  0
VERTEX
  8
0
 10
-101.98750000
 20
-71.26250000
  0
VERTEX
  8
0
 10
-104.17500000
 20
-70.71250000
  0
VERTEX
  8
0
 10
-106.23750000
 20
-69.90000000
  0
VERTEX
  8
0
 10
-108.18750000
 20
-68.82500000
  0
VERTEX
  8
0
 10
-110.02500000
 20
-67.52500000
  0
VERTEX
  8
0
 10
-111.72500000
 20
-66.02500000
  0
VERTEX
  8
0
 10
-113.28750000
 20
-64.32500000
  0
VERTEX
  8
0
 10
-114.72500000
 20
-62.46250000
  0
VERTEX
  8
0
 10
-116.02500000
 20
-60.46255000
  0
VERTEX
  8
0
 10
-117.17500000
 20
-58.33750000
  0
VERTEX
  8
0
 10
-118.18750000
 20
-56.10000000
  0
VERTEX
  8
0
 10
-119.06250000
 20
-53.80000000
  0
VERTEX
  8
0
 10
-119.77500000
 20
-51.42500000
  0
VERTEX
  8
0
 10
-120.33750000
 20
-49.02500000
  0
VERTEX
  8
0
 10
-120.75000000
 20
-46.60000000
  0
VERTEX
  8
0
 10
-120.98750000
 20
-44.18750000
  0
VERTEX
  8
0
 10
-121.07500000
 20
-41.80000000
  0
VERTEX
  8
0
 10
-121.05000000
 20
-16.18750000
  0
VERTEX
  8
0
 10
-121.02500000
 20
-15.41250000
  0
VERTEX
  8
0
 10
-120.98750000
 20
-14.70000000
  0
VERTEX
  8
0
 10
-120.92500000
 20
-14.06250000
  0
VERTEX
  8
0
 10
-120.85000000
 20
-13.50005000
  0
VERTEX
  8
0
 10
-120.73750000
 20
-13.00005000
  0
VERTEX
  8
0
 10
-120.60000000
 20
-12.55000000
  0
VERTEX
  8
0
 10
-120.42500000
 20
-12.17500000
  0
VERTEX
  8
0
 10
-120.22500000
 20
-11.85000000
  0
VERTEX
  8
0
 10
-119.97500000
 20
-11.56250000
  0
VERTEX
  8
0
 10
-119.70000000
 20
-11.33750000
  0
VERTEX
  8
0
 10
-119.38750000
 20
-11.15000000
  0
VERTEX
  8
0
 10
-119.02500000
 20
-11.00005000
  0
VERTEX
  8
0
 10
-118.62500000
 20
-10.90005000
  0
VERTEX
  8
0
 10
-118.17500000
 20
-10.82505000
  0
VERTEX
  8
0
 10
-117.67500000
 20
-10.77500000
  0
VERTEX
  8
0
 10
-117.12500000
 20
-10.76250000
  0
VERTEX
  8
0
 10
-108.80000000
 20
-10.75000000
  0
VERTEX
  8
0
 10
-108.10000000
 20
-10.81255000
  0
VERTEX
  8
0
 10
-107.47500000
 20
-10.90005000
  0
VERTEX
  8
0
 10
-106.91250000
 20
-11.01255000
  0
VERTEX
  8
0
 10
-106.41250000
 20
-11.16250000
  0
VERTEX
  8
0
 10
-105.96250000
 20
-11.33750000
  0
VERTEX
  8
0
 10
-105.55000000
 20
-11.55000000
  0
VERTEX
  8
0
 10
-105.20000000
 20
-11.80005000
  0
VERTEX
  8
0
 10
-104.88750000
 20
-12.08755000
  0
VERTEX
  8
0
 10
-104.61250000
 20
-12.41255000
  0
VERTEX
  8
0
 10
-104.36250000
 20
-12.77505000
  0
VERTEX
  8
0
 10
-104.15000000
 20
-13.17505000
  0
VERTEX
  8
0
 10
-103.96250000
 20
-13.61250000
  0
VERTEX
  8
0
 10
-103.80000000
 20
-14.08755000
  0
VERTEX
  8
0
 10
-103.65000000
 20
-14.60000000
  0
VERTEX
  8
0
 10
-103.51250000
 20
-15.16255000
  0
VERTEX
  8
0
 10
-103.38750000
 20
-15.76255000
  0
VERTEX
  8
0
 10
-102.36250000
 20
-19.06255000
  0
VERTEX
  8
0
 10
-100.73750000
 20
-21.87500000
  0
VERTEX
  8
0
 10
-98.58750000
 20
-24.23750000
  0
VERTEX
  8
0
 10
-95.98750000
 20
-26.13750000
  0
VERTEX
  8
0
 10
-93.06250000
 20
-27.61250000
  0
VERTEX
  8
0
 10
-89.86250000
 20
-28.68750000
  0
VERTEX
  8
0
 10
-86.50000000
 20
-29.36250000
  0
VERTEX
  8
0
 10
-83.06250000
 20
-29.67500000
  0
VERTEX
  8
0
 10
-79.62500000
 20
-29.62500000
  0
VERTEX
  8
0
 10
-76.27505000
 20
-29.23750000
  0
VERTEX
  8
0
 10
-73.11255000
 20
-28.55005000
  0
VERTEX
  8
0
 10
-70.21255000
 20
-27.55000000
  0
VERTEX
  8
0
 10
-67.67500000
 20
-26.27505000
  0
VERTEX
  8
0
 10
-65.58750000
 20
-24.75000000
  0
VERTEX
  8
0
 10
-64.02500000
 20
-22.97500000
  0
VERTEX
  8
0
 10
-63.10005000
 20
-20.98750000
  0
VERTEX
  8
0
 10
-79.86255000
 20
-18.65005000
  0
VERTEX
  8
0
 10
-79.46255000
 20
-15.61250000
  0
VERTEX
  8
0
 10
-74.08755000
 20
-16.27505000
  0
VERTEX
  8
0
 10
-69.91255000
 20
10.61245000
  0
VERTEX
  8
0
 10
-70.86255000
 20
11.08750000
  0
VERTEX
  8
0
 10
-71.67505000
 20
11.73750000
  0
VERTEX
  8
0
 10
-72.36250000
 20
12.53750000
  0
VERTEX
  8
0
 10
-72.92505000
 20
13.45000000
  0
VERTEX
  8
0
 10
-73.36255000
 20
14.46250000
  0
VERTEX
  8
0
 10
-73.67500000
 20
15.55000000
  0
VERTEX
  8
0
 10
-73.85000000
 20
16.68745000
  0
VERTEX
  8
0
 10
-73.91255000
 20
17.83750000
  0
VERTEX
  8
0
 10
-73.83755000
 20
18.98750000
  0
VERTEX
  8
0
 10
-73.65000000
 20
20.10000000
  0
VERTEX
  8
0
 10
-73.32500000
 20
21.16250000
  0
VERTEX
  8
0
 10
-72.88750000
 20
22.14995000
  0
VERTEX
  8
0
 10
-72.31250000
 20
23.02495000
  0
VERTEX
  8
0
 10
-71.61250000
 20
23.77500000
  0
VERTEX
  8
0
 10
-70.78755000
 20
24.37500000
  0
VERTEX
  8
0
 10
-69.83750000
 20
24.79995000
  0
VERTEX
  8
0
 10
-69.85005000
 20
25.73750000
  0
VERTEX
  8
0
 10
-69.85005000
 20
26.78745000
  0
VERTEX
  8
0
 10
-69.86250000
 20
27.92500000
  0
VERTEX
  8
0
 10
-69.88750000
 20
29.15000000
  0
VERTEX
  8
0
 10
-69.90000000
 20
30.43750000
  0
VERTEX
  8
0
 10
-69.92500000
 20
31.76245000
  0
VERTEX
  8
0
 10
-69.96255000
 20
33.11250000
  0
VERTEX
  8
0
 10
-69.98755000
 20
34.46250000
  0
VERTEX
  8
0
 10
-70.01255000
 20
35.80000000
  0
VERTEX
  8
0
 10
-70.05000000
 20
37.11245000
  0
VERTEX
  8
0
 10
-70.07500000
 20
38.37500000
  0
VERTEX
  8
0
 10
-70.11255000
 20
39.56250000
  0
VERTEX
  8
0
 10
-70.13755000
 20
40.67495000
  0
VERTEX
  8
0
 10
-70.17500000
 20
41.68745000
  0
VERTEX
  8
0
 10
-70.20000000
 20
42.56245000
  0
VERTEX
  8
0
 10
-70.22500000
 20
43.31250000
  0
VERTEX
  8
0
 10
-70.22500000
 20
43.90000000
  0
VERTEX
  8
0
 10
-70.18755000
 20
44.42500000
  0
VERTEX
  8
0
 10
-70.11255000
 20
44.92500000
  0
VERTEX
  8
0
 10
-70.00000000
 20
45.36245000
  0
VERTEX
  8
0
 10
-69.85005000
 20
45.76245000
  0
VERTEX
  8
0
 10
-69.66250000
 20
46.12500000
  0
VERTEX
  8
0
 10
-69.45005000
 20
46.43745000
  0
VERTEX
  8
0
 10
-69.21250000
 20
46.71250000
  0
VERTEX
  8
0
 10
-68.93750000
 20
46.96250000
  0
VERTEX
  8
0
 10
-68.63750000
 20
47.17500000
  0
VERTEX
  8
0
 10
-68.30000000
 20
47.34995000
  0
VERTEX
  8
0
 10
-67.95000000
 20
47.48750000
  0
VERTEX
  8
0
 10
-67.56255000
 20
47.60000000
  0
VERTEX
  8
0
 10
-67.16255000
 20
47.68750000
  0
VERTEX
  8
0
 10
-66.73750000
 20
47.75000000
  0
VERTEX
  8
0
 10
-66.30005000
 20
47.78750000
  0
VERTEX
  8
0
 10
-64.41255000
 20
47.97500000
  0
VERTEX
  8
0
 10
-62.51250000
 20
48.32495000
  0
VERTEX
  8
0
 10
-60.61255000
 20
48.86250000
  0
VERTEX
  8
0
 10
-58.71250000
 20
49.61250000
  0
VERTEX
  8
0
 10
-56.83750000
 20
50.55000000
  0
VERTEX
  8
0
 10
-55.00000000
 20
51.72500000
  0
VERTEX
  8
0
 10
-53.21250000
 20
53.12500000
  0
VERTEX
  8
0
 10
-51.50000000
 20
54.76245000
  0
VERTEX
  8
0
 10
-49.86250000
 20
56.66250000
  0
VERTEX
  8
0
 10
-48.32500000
 20
58.83750000
  0
VERTEX
  8
0
 10
-46.90005000
 20
61.28750000
  0
VERTEX
  8
0
 10
-45.60000000
 20
64.02500000
  0
VERTEX
  8
0
 10
-44.43750000
 20
67.06250000
  0
VERTEX
  8
0
 10
-43.43750000
 20
70.42500000
  0
VERTEX
  8
0
 10
-42.60000000
 20
74.11245000
  0
VERTEX
  8
0
 10
-41.95000000
 20
78.13750000
  0
VERTEX
  8
0
 10
-49.02500000
 20
75.33750000
  0
VERTEX
  8
0
 10
-49.92505000
 20
78.27500000
  0
VERTEX
  8
0
 10
-49.76250000
 20
78.33750000
  0
VERTEX
  8
0
 10
-49.47500000
 20
78.46250000
  0
VERTEX
  8
0
 10
-49.06255000
 20
78.61250000
  0
VERTEX
  8
0
 10
-48.56255000
 20
78.81250000
  0
VERTEX
  8
0
 10
-47.97500000
 20
79.02500000
  0
VERTEX
  8
0
 10
-47.32505000
 20
79.26250000
  0
VERTEX
  8
0
 10
-46.63750000
 20
79.52500000
  0
VERTEX
  8
0
 10
-45.92500000
 20
79.78750000
  0
VERTEX
  8
0
 10
-45.21255000
 20
80.05000000
  0
VERTEX
  8
0
 10
-44.51250000
 20
80.31250000
  0
VERTEX
  8
0
 10
-43.83750000
 20
80.56245000
  0
VERTEX
  8
0
 10
-43.21250000
 20
80.80000000
  0
VERTEX
  8
0
 10
-42.66255000
 20
81.01250000
  0
VERTEX
  8
0
 10
-42.20000000
 20
81.20000000
  0
VERTEX
  8
0
 10
-41.83755000
 20
81.35000000
  0
VERTEX
  8
0
 10
-41.60000000
 20
81.46250000
  0
VERTEX
  8
0
 10
-41.56250000
 20
81.82500000
  0
VERTEX
  8
0
 10
-41.52500000
 20
82.20000000
  0
VERTEX
  8
0
 10
-41.50000000
 20
82.57500000
  0
VERTEX
  8
0
 10
-41.46250000
 20
82.93750000
  0
VERTEX
  8
0
 10
-41.43750000
 20
83.30000000
  0
VERTEX
  8
0
 10
-41.41250000
 20
83.67500000
  0
VERTEX
  8
0
 10
-41.38750000
 20
84.03745000
  0
VERTEX
  8
0
 10
-41.36250000
 20
84.41250000
  0
VERTEX
  8
0
 10
-41.33750000
 20
84.78750000
  0
VERTEX
  8
0
 10
-41.32500000
 20
85.16250000
  0
VERTEX
  8
0
 10
-41.30000000
 20
85.53750000
  0
VERTEX
  8
0
 10
-41.28750000
 20
85.92500000
  0
VERTEX
  8
0
 10
-41.27500000
 20
86.31250000
  0
VERTEX
  8
0
 10
-41.25000000
 20
86.71245000
  0
VERTEX
  8
0
 10
-41.23750000
 20
87.11245000
  0
VERTEX
  8
0
 10
-41.22500000
 20
87.52500000
  0
SEQEND
  0
POLYLINE
  8
0
 66
   1
 70
    1
  0
VERTEX
  8
0
 10
-20.80000000
 20
2.15000000
  0
VERTEX
  8
0
 10
-20.78750000
 20
14.65000000
  0
VERTEX
  8
0
 10
-17.68755000
 20
14.65000000
  0
VERTEX
  8
0
 10
-17.70000000
 20
2.15000000
  0
VERTEX
  8
0
 10
-20.80000000
 20
2.15000000
  0
SEQEND
  0
POLYLINE
  8
0
 66
   1
 70
    1
  0
VERTEX
  8
0
 10
-9.96250000
 20
-39.23750000
  0
VERTEX
  8
0
 10
-10.46250000
 20
-36.72500000
  0
VERTEX
  8
0
 10
-10.88755000
 20
-34.21255000
  0
VERTEX
  8
0
 10
-11.26250000
 20
-31.70000000
  0
VERTEX
  8
0
 10
-11.56250000
 20
-29.17500000
  0
VERTEX
  8
0
 10
-11.78755000
 20
-26.66250000
  0
VERTEX
  8
0
 10
-11.95000000
 20
-24.15000000
  0
VERTEX
  8
0
 10
-12.05000000
 20
-21.63755000
  0
VERTEX
  8
0
 10
-12.08755000
 20
-19.12505000
  0
VERTEX
  8
0
 10
-12.05000000
 20
-16.60000000
  0
VERTEX
  8
0
 10
-11.95000000
 20
-14.08755000
  0
VERTEX
  8
0
 10
-11.77500000
 20
-11.57500000
  0
VERTEX
  8
0
 10
-11.53755000
 20
-9.06250000
  0
VERTEX
  8
0
 10
-11.23755000
 20
-6.55005000
  0
VERTEX
  8
0
 10
-10.87500000
 20
-4.03750000
  0
VERTEX
  8
0
 10
-10.43750000
 20
-1.52500000
  0
VERTEX
  8
0
 10
-9.92500000
 20
0.99995000
  0
VERTEX
  8
0
 10
-9.81250000
 20
1.45000000
  0
VERTEX
  8
0
 10
-9.68750000
 20
1.89995000
  0
VERTEX
  8
0
 10
-9.52500000
 20
2.33750000
  0
VERTEX
  8
0
 10
-9.33750000
 20
2.75000000
  0
VERTEX
  8
0
 10
-9.13750000
 20
3.15000000
  0
VERTEX
  8
0
 10
-8.91255000
 20
3.52500000
  0
VERTEX
  8
0
 10
-8.66255000
 20
3.88745000
  0
VERTEX
  8
0
 10
-8.37500000
 20
4.21250000
  0
VERTEX
  8
0
 10
-8.08750000
 20
4.51250000
  0
VERTEX
  8
0
 10
-7.76255000
 20
4.77495000
  0
VERTEX
  8
0
 10
-7.41250000
 20
5.01250000
  0
VERTEX
  8
0
 10
-7.05000000
 20
5.21250000
  0
VERTEX
  8
0
 10
-6.65000000
 20
5.36245000
  0
VERTEX
  8
0
 10
-6.23750000
 20
5.48750000
  0
VERTEX
  8
0
 10
-5.80000000
 20
5.54995000
  0
VERTEX
  8
0
 10
-5.33755000
 20
5.57495000
  0
VERTEX
  8
0
 10
3.47500000
 20
5.57495000
  0
VERTEX
  8
0
 10
3.93745000
 20
5.54995000
  0
VERTEX
  8
0
 10
4.40000000
 20
5.47495000
  0
VERTEX
  8
0
 10
4.83745000
 20
5.36245000
  0
VERTEX
  8
0
 10
5.25000000
 20
5.21250000
  0
VERTEX
  8
0
 10
5.65000000
 20
5.01250000
  0
VERTEX
  8
0
 10
6.03750000
 20
4.78745000
  0
VERTEX
  8
0
 10
6.38750000
 20
4.51250000
  0
VERTEX
  8
0
 10
6.71250000
 20
4.22500000
  0
VERTEX
  8
0
 10
7.01245000
 20
3.90000000
  0
VERTEX
  8
0
 10
7.27500000
 20
3.53750000
  0
VERTEX
  8
0
 10
7.50000000
 20
3.16250000
  0
VERTEX
  8
0
 10
7.70000000
 20
2.76250000
  0
VERTEX
  8
0
 10
7.85000000
 20
2.33750000
  0
VERTEX
  8
0
 10
7.96245000
 20
1.89995000
  0
VERTEX
  8
0
 10
8.03750000
 20
1.45000000
  0
VERTEX
  8
0
 10
8.06245000
 20
0.97500000
  0
VERTEX
  8
0
 10
8.02500000
 20
-39.25000000
  0
VERTEX
  8
0
 10
8.00000000
 20
-39.72500000
  0
VERTEX
  8
0
 10
7.92500000
 20
-40.17500000
  0
VERTEX
  8
0
 10
7.81245000
 20
-40.61250000
  0
VERTEX
  8
0
 10
7.66245000
 20
-41.03750000
  0
VERTEX
  8
0
 10
7.46245000
 20
-41.43750000
  0
VERTEX
  8
0
 10
7.23750000
 20
-41.81250000
  0
VERTEX
  8
0
 10
6.97500000
 20
-42.16250000
  0
VERTEX
  8
0
 10
6.67500000
 20
-42.48750000
  0
VERTEX
  8
0
 10
6.35000000
 20
-42.78750000
  0
VERTEX
  8
0
 10
6.00000000
 20
-43.05005000
  0
VERTEX
  8
0
 10
5.61250000
 20
-43.28750000
  0
VERTEX
  8
0
 10
5.21250000
 20
-43.47500000
  0
VERTEX
  8
0
 10
4.80000000
 20
-43.62500000
  0
VERTEX
  8
0
 10
4.36250000
 20
-43.73755000
  0
VERTEX
  8
0
 10
3.90000000
 20
-43.81250000
  0
VERTEX
  8
0
 10
3.43750000
 20
-43.83755000
  0
VERTEX
  8
0
 10
-5.37500000
 20
-43.82500000
  0
VERTEX
  8
0
 10
-5.83755000
 20
-43.80000000
  0
VERTEX
  8
0
 10
-6.27505000
 20
-43.73755000
  0
VERTEX
  8
0
 10
-6.68750000
 20
-43.61250000
  0
VERTEX
  8
0
 10
-7.08750000
 20
-43.46250000
  0
VERTEX
  8
0
 10
-7.45000000
 20
-43.26250000
  0
VERTEX
  8
0
 10
-7.80000000
 20
-43.02500000
  0
VERTEX
  8
0
 10
-8.12500000
 20
-42.76250000
  0
VERTEX
  8
0
 10
-8.42500000
 20
-42.46250000
  0
VERTEX
  8
0
 10
-8.70000000
 20
-42.12500000
  0
VERTEX
  8
0
 10
-8.95000000
 20
-41.77500000
  0
VERTEX
  8
0
 10
-9.17500000
 20
-41.40000000
  0
VERTEX
  8
0
 10
-9.37500000
 20
-41.00000000
  0
VERTEX
  8
0
 10
-9.56250000
 20
-40.57500000
  0
VERTEX
  8
0
 10
-9.71250000
 20
-40.15000000
  0
VERTEX
  8
0
 10
-9.85005000
 20
-39.70000000
  0
VERTEX
  8
0
 10
-9.96250000
 20
-39.23750000
  0
SEQEND
  0
POLYLINE
  8
0
 66
   1
 70
    1
  0
VERTEX
  8
0
 10
-25.56250000
 20
47.67500000
  0
VERTEX
  8
0
 10
-25.57505000
 20
47.28750000
  0
VERTEX
  8
0
 10
-25.63750000
 20
46.91250000
  0
VERTEX
  8
0
 10
-25.72505000
 20
46.56250000
  0
VERTEX
  8
0
 10
-25.85000000
 20
46.21250000
  0
VERTEX
  8
0
 10
-26.01250000
 20
45.88750000
  0
VERTEX
  8
0
 10
-26.20000000
 20
45.57500000
  0
VERTEX
  8
0
 10
-26.41250000
 20
45.28750000
  0
VERTEX
  8
0
 10
-26.66250000
 20
45.02500000
  0
VERTEX
  8
0
 10
-26.92500000
 20
44.78750000
  0
VERTEX
  8
0
 10
-27.21255000
 20
44.56245000
  0
VERTEX
  8
0
 10
-27.52500000
 20
44.37495000
  0
VERTEX
  8
0
 10
-27.85000000
 20
44.22500000
  0
VERTEX
  8
0
 10
-28.20000000
 20
44.10000000
  0
VERTEX
  8
0
 10
-28.55005000
 20
44.00000000
  0
VERTEX
  8
0
 10
-28.92500000
 20
43.94995000
  0
VERTEX
  8
0
 10
-29.31250000
 20
43.92500000
  0
VERTEX
  8
0
 10
-29.68750000
 20
43.94995000
  0
VERTEX
  8
0
 10
-30.06250000
 20
44.00000000
  0
VERTEX
  8
0
 10
-30.42500000
 20
44.10000000
  0
VERTEX
  8
0
 10
-30.76250000
 20
44.22500000
  0
VERTEX
  8
0
 10
-31.10000000
 20
44.37495000
  0
VERTEX
  8
0
 10
-31.40000000
 20
44.57500000
  0
VERTEX
  8
0
 10
-31.68750000
 20
44.78750000
  0
VERTEX
  8
0
 10
-31.96250000
 20
45.02500000
  0
VERTEX
  8
0
 10
-32.20000000
 20
45.30000000
  0
VERTEX
  8
0
 10
-32.41255000
 20
45.58750000
  0
VERTEX
  8
0
 10
-32.60000000
 20
45.88750000
  0
VERTEX
  8
0
 10
-32.76255000
 20
46.22500000
  0
VERTEX
  8
0
 10
-32.88755000
 20
46.56250000
  0
VERTEX
  8
0
 10
-32.98755000
 20
46.92495000
  0
VERTEX
  8
0
 10
-33.03755000
 20
47.30000000
  0
VERTEX
  8
0
 10
-33.06255000
 20
47.67500000
  0
VERTEX
  8
0
 10
-33.03755000
 20
48.06250000
  0
VERTEX
  8
0
 10
-32.97500000
 20
48.43745000
  0
VERTEX
  8
0
 10
-32.88755000
 20
48.78750000
  0
VERTEX
  8
0
 10
-32.76255000
 20
49.13750000
  0
VERTEX
  8
0
 10
-32.60000000
 20
49.46250000
  0
VERTEX
  8
0
 10
-32.41255000
 20
49.77500000
  0
VERTEX
  8
0
 10
-32.20000000
 20
50.06250000
  0
VERTEX
  8
0
 10
-31.95000000
 20
50.32500000
  0
VERTEX
  8
0
 10
-31.68750000
 20
50.57500000
  0
VERTEX
  8
0
 10
-31.40000000
 20
50.78750000
  0
VERTEX
  8
0
 10
-31.08755000
 20
50.97500000
  0
VERTEX
  8
0
 10
-30.76250000
 20
51.13750000
  0
VERTEX
  8
0
 10
-30.41250000
 20
51.26250000
  0
VERTEX
  8
0
 10
-30.06250000
 20
51.35000000
  0
VERTEX
  8
0
 10
-29.68750000
 20
51.41250000
  0
VERTEX
  8
0
 10
-29.30005000
 20
51.42500000
  0
VERTEX
  8
0
 10
-28.92500000
 20
51.40000000
  0
VERTEX
  8
0
 10
-28.55005000
 20
51.35000000
  0
VERTEX
  8
0
 10
-28.18750000
 20
51.25000000
  0
VERTEX
  8
0
 10
-27.85000000
 20
51.12500000
  0
VERTEX
  8
0
 10
-27.52500000
 20
50.97500000
  0
VERTEX
  8
0
 10
-27.21255000
 20
50.78750000
  0
VERTEX
  8
0
 10
-26.92500000
 20
50.56250000
  0
VERTEX
  8
0
 10
-26.65000000
 20
50.32500000
  0
VERTEX
  8
0
 10
-26.41250000
 20
50.06250000
  0
VERTEX
  8
0
 10
-26.20000000
 20
49.76250000
  0
VERTEX
  8
0
 10
-26.01250000
 20
49.46250000
  0
VERTEX
  8
0
 10
-25.85000000
 20
49.12500000
  0
VERTEX
  8
0
 10
-25.72505000
 20
48.78750000
  0
VERTEX
  8
0
 10
-25.63750000
 20
48.42495000
  0
VERTEX
  8
0
 10
-25.57505000
 20
48.05000000
  0
VERTEX
  8
0
 10
-25.56250000
 20
47.67500000
  0
SEQEND
  0
POLYLINE
  8
0
 66
   1
 70
    1
  0
VERTEX
  8
0
 10
-20.83750000
 20
-47.85000000
  0
VERTEX
  8
0
 10
-20.82500000
 20
-35.35000000
  0
VERTEX
  8
0
 10
-17.72500000
 20
-35.35000000
  0
VERTEX
  8
0
 10
-17.73755000
 20
-47.85000000
  0
VERTEX
  8
0
 10
-20.83750000
 20
-47.85000000
  0
SEQEND
  0
POLYLINE
  8
0
 66
   1
 70
    1
  0
VERTEX
  8
0
 10
-72.03750000
 20
-83.58750000
  0
VERTEX
  8
0
 10
-68.98750000
 20
-81.16250000
  0
VERTEX
  8
0
 10
-65.70005000
 20
-79.47500000
  0
VERTEX
  8
0
 10
-62.21250000
 20
-78.40000000
  0
VERTEX
  8
0
 10
-58.56255000
 20
-77.80000000
  0
VERTEX
  8
0
 10
-54.78755000
 20
-77.55000000
  0
VERTEX
  8
0
 10
-50.91250000
 20
-77.53750000
  0
VERTEX
  8
0
 10
-47.00005000
 20
-77.61250000
  0
VERTEX
  8
0
 10
-43.07500000
 20
-77.65000000
  0
VERTEX
  8
0
 10
-39.17500000
 20
-77.55000000
  0
VERTEX
  8
0
 10
-35.32500000
 20
-77.15000000
  0
VERTEX
  8
0
 10
-31.58750000
 20
-76.35000000
  0
VERTEX
  8
0
 10
-27.97500000
 20
-75.00005000
  0
VERTEX
  8
0
 10
-24.55000000
 20
-72.98750000
  0
VERTEX
  8
0
 10
-21.32500000
 20
-70.18755000
  0
VERTEX
  8
0
 10
-18.35000000
 20
-66.46250000
  0
VERTEX
  8
0
 10
-15.66250000
 20
-61.68750000
  0
VERTEX
  8
0
 10
-15.15000000
 20
-60.58750000
  0
VERTEX
  8
0
 10
-14.67500000
 20
-59.56250000
  0
VERTEX
  8
0
 10
-14.21255000
 20
-58.61250000
  0
VERTEX
  8
0
 10
-13.76250000
 20
-57.73750000
  0
VERTEX
  8
0
 10
-13.32505000
 20
-56.92505000
  0
VERTEX
  8
0
 10
-12.86250000
 20
-56.17500000
  0
VERTEX
  8
0
 10
-12.37500000
 20
-55.50000000
  0
VERTEX
  8
0
 10
-11.85000000
 20
-54.90000000
  0
VERTEX
  8
0
 10
-11.28755000
 20
-54.36255000
  0
VERTEX
  8
0
 10
-10.66250000
 20
-53.88750000
  0
VERTEX
  8
0
 10
-9.96250000
 20
-53.50000000
  0
VERTEX
  8
0
 10
-9.18750000
 20
-53.16255000
  0
VERTEX
  8
0
 10
-8.32500000
 20
-52.90000000
  0
VERTEX
  8
0
 10
-7.35000000
 20
-52.71250000
  0
VERTEX
  8
0
 10
-6.26250000
 20
-52.58750000
  0
VERTEX
  8
0
 10
-5.05000000
 20
-52.53750000
  0
VERTEX
  8
0
 10
-3.93750000
 20
-52.51250000
  0
VERTEX
  8
0
 10
-2.78750000
 20
-52.47505000
  0
VERTEX
  8
0
 10
-1.65000000
 20
-52.46255000
  0
VERTEX
  8
0
 10
-0.51250000
 20
-52.46255000
  0
VERTEX
  8
0
 10
0.61245000
 20
-52.51250000
  0
VERTEX
  8
0
 10
1.70000000
 20
-52.61250000
  0
VERTEX
  8
0
 10
2.73750000
 20
-52.77505000
  0
VERTEX
  8
0
 10
3.72500000
 20
-53.02500000
  0
VERTEX
  8
0
 10
4.63745000
 20
-53.36255000
  0
VERTEX
  8
0
 10
5.47495000
 20
-53.82500000
  0
VERTEX
  8
0
 10
6.21250000
 20
-54.40000000
  0
VERTEX
  8
0
 10
6.83750000
 20
-55.11250000
  0
VERTEX
  8
0
 10
7.35000000
 20
-55.97500000
  0
VERTEX
  8
0
 10
7.73750000
 20
-57.01250000
  0
VERTEX
  8
0
 10
7.97500000
 20
-58.23750000
  0
VERTEX
  8
0
 10
8.06245000
 20
-59.63750000
  0
VERTEX
  8
0
 10
8.03750000
 20
-61.37500000
  0
VERTEX
  8
0
 10
7.98750000
 20
-62.93750000
  0
VERTEX
  8
0
 10
7.87500000
 20
-64.33750000
  0
VERTEX
  8
0
 10
7.71245000
 20
-65.57505000
  0
VERTEX
  8
0
 10
7.50000000
 20
-66.70000000
  0
VERTEX
  8
0
 10
7.21245000
 20
-67.68750000
  0
VERTEX
  8
0
 10
6.85000000
 20
-68.56250000
  0
VERTEX
  8
0
 10
6.41250000
 20
-69.35000000
  0
VERTEX
  8
0
 10
5.88750000
 20
-70.06250000
  0
VERTEX
  8
0
 10
5.27500000
 20
-70.70000000
  0
VERTEX
  8
0
 10
4.56250000
 20
-71.27500000
  0
VERTEX
  8
0
 10
3.73745000
 20
-71.81250000
  0
VERTEX
  8
0
 10
2.81250000
 20
-72.32500000
  0
VERTEX
  8
0
 10
1.76245000
 20
-72.82500000
  0
VERTEX
  8
0
 10
0.58750000
 20
-73.31255000
  0
VERTEX
  8
0
 10
-0.71250000
 20
-73.81250000
  0
VERTEX
  8
0
 10
2.26250000
 20
-77.36250000
  0
VERTEX
  8
0
 10
4.96250000
 20
-80.08750000
  0
VERTEX
  8
0
 10
7.37500000
 20
-82.02500000
  0
VERTEX
  8
0
 10
9.53750000
 20
-83.25000000
  0
VERTEX
  8
0
 10
11.43750000
 20
-83.77500000
  0
VERTEX
  8
0
 10
13.11250000
 20
-83.68750000
  0
VERTEX
  8
0
 10
14.56245000
 20
-83.02500000
  0
VERTEX
  8
0
 10
15.79995000
 20
-81.82500000
  0
VERTEX
  8
0
 10
16.85000000
 20
-80.15000000
  0
VERTEX
  8
0
 10
17.70000000
 20
-78.06250000
  0
VERTEX
  8
0
 10
18.38750000
 20
-75.58750000
  0
VERTEX
  8
0
 10
18.91250000
 20
-72.78750000
  0
VERTEX
  8
0
 10
19.28750000
 20
-69.71250000
  0
VERTEX
  8
0
 10
19.52500000
 20
-66.42500000
  0
VERTEX
  8
0
 10
19.63750000
 20
-62.95000000
  0
VERTEX
  8
0
 10
19.63750000
 20
-59.36250000
  0
VERTEX
  8
0
 10
19.73750000
 20
46.21250000
  0
VERTEX
  8
0
 10
19.51250000
 20
51.81250000
  0
VERTEX
  8
0
 10
18.81250000
 20
56.93750000
  0
VERTEX
  8
0
 10
17.66250000
 20
61.58750000
  0
VERTEX
  8
0
 10
16.13750000
 20
65.80000000
  0
VERTEX
  8
0
 10
14.26245000
 20
69.57500000
  0
VERTEX
  8
0
 10
12.08750000
 20
72.93750000
  0
VERTEX
  8
0
 10
9.64995000
 20
75.91250000
  0
VERTEX
  8
0
 10
7.01245000
 20
78.50000000
  0
VERTEX
  8
0
 10
4.20000000
 20
80.72500000
  0
VERTEX
  8
0
 10
1.27500000
 20
82.60000000
  0
VERTEX
  8
0
 10
-1.71255000
 20
84.15000000
  0
VERTEX
  8
0
 10
-4.75000000
 20
85.38750000
  0
VERTEX
  8
0
 10
-7.75000000
 20
86.32500000
  0
VERTEX
  8
0
 10
-10.70005000
 20
86.98750000
  0
VERTEX
  8
0
 10
-13.53750000
 20
87.38750000
  0
VERTEX
  8
0
 10
-16.22500000
 20
87.53750000
  0
VERTEX
  8
0
 10
-19.43750000
 20
87.36250000
  0
VERTEX
  8
0
 10
-22.58750000
 20
86.76250000
  0
VERTEX
  8
0
 10
-25.66250000
 20
85.77500000
  0
VERTEX
  8
0
 10
-28.61250000
 20
84.40000000
  0
VERTEX
  8
0
 10
-31.40000000
 20
82.68750000
  0
VERTEX
  8
0
 10
-33.97505000
 20
80.65000000
  0
VERTEX
  8
0
 10
-36.32500000
 20
78.32500000
  0
VERTEX
  8
0
 10
-38.40000000
 20
75.73750000
  0
VERTEX
  8
0
 10
-40.15000000
 20
72.90000000
  0
VERTEX
  8
0
 10
-41.55000000
 20
69.84995000
  0
VERTEX
  8
0
 10
-42.56255000
 20
66.61250000
  0
VERTEX
  8
0
 10
-43.13750000
 20
63.21250000
  0
VERTEX
  8
0
 10
-43.25000000
 20
59.67500000
  0
VERTEX
  8
0
 10
-42.85000000
 20
56.02500000
  0
VERTEX
  8
0
 10
-41.91255000
 20
52.28745000
  0
VERTEX
  8
0
 10
-40.38750000
 20
48.50000000
  0
VERTEX
  8
0
 10
-38.70000000
 20
45.57500000
  0
VERTEX
  8
0
 10
-36.80000000
 20
43.33750000
  0
VERTEX
  8
0
 10
-34.76250000
 20
41.72500000
  0
VERTEX
  8
0
 10
-32.65000000
 20
40.67495000
  0
VERTEX
  8
0
 10
-30.53755000
 20
40.16250000
  0
VERTEX
  8
0
 10
-28.47500000
 20
40.11250000
  0
VERTEX
  8
0
 10
-26.56250000
 20
40.47495000
  0
VERTEX
  8
0
 10
-24.83755000
 20
41.21250000
  0
VERTEX
  8
0
 10
-23.37500000
 20
42.27495000
  0
VERTEX
  8
0
 10
-22.25005000
 20
43.60000000
  0
VERTEX
  8
0
 10
-21.53750000
 20
45.13745000
  0
VERTEX
  8
0
 10
-21.28750000
 20
46.84995000
  0
VERTEX
  8
0
 10
-21.57500000
 20
48.66250000
  0
VERTEX
  8
0
 10
-22.46250000
 20
50.55000000
  0
VERTEX
  8
0
 10
-24.02500000
 20
52.43750000
  0
VERTEX
  8
0
 10
-26.33750000
 20
54.30000000
  0
VERTEX
  8
0
 10
-28.26255000
 20
56.87500000
  0
VERTEX
  8
0
 10
-29.60005000
 20
59.32495000
  0
VERTEX
  8
0
 10
-30.40000000
 20
61.63750000
  0
VERTEX
  8
0
 10
-30.70000000
 20
63.81250000
  0
VERTEX
  8
0
 10
-30.53755000
 20
65.82500000
  0
VERTEX
  8
0
 10
-29.97500000
 20
67.66245000
  0
VERTEX
  8
0
 10
-29.03750000
 20
69.33750000
  0
VERTEX
  8
0
 10
-27.77500000
 20
70.83745000
  0
VERTEX
  8
0
 10
-26.22505000
 20
72.13750000
  0
VERTEX
  8
0
 10
-24.45000000
 20
73.25000000
  0
VERTEX
  8
0
 10
-22.48750000
 20
74.13750000
  0
VERTEX
  8
0
 10
-20.36255000
 20
74.82500000
  0
VERTEX
  8
0
 10
-18.13755000
 20
75.27500000
  0
VERTEX
  8
0
 10
-15.85005000
 20
75.49995000
  0
VERTEX
  8
0
 10
-13.55000000
 20
75.47500000
  0
VERTEX
  8
0
 10
-11.27500000
 20
75.19995000
  0
VERTEX
  8
0
 10
-9.08750000
 20
74.66250000
  0
VERTEX
  8
0
 10
-7.01250000
 20
73.83750000
  0
VERTEX
  8
0
 10
-5.06250000
 20
72.77500000
  0
VERTEX
  8
0
 10
-3.23750000
 20
71.47500000
  0
VERTEX
  8
0
 10
-1.53750000
 20
69.96250000
  0
VERTEX
  8
0
 10
0.02495000
 20
68.26245000
  0
VERTEX
  8
0
 10
1.46245000
 20
66.41250000
  0
VERTEX
  8
0
 10
2.76250000
 20
64.40000000
  0
VERTEX
  8
0
 10
3.92500000
 20
62.27500000
  0
VERTEX
  8
0
 10
4.93745000
 20
60.05000000
  0
VERTEX
  8
0
 10
5.80000000
 20
57.73745000
  0
VERTEX
  8
0
 10
6.51250000
 20
55.37500000
  0
VERTEX
  8
0
 10
7.07500000
 20
52.96250000
  0
VERTEX
  8
0
 10
7.48750000
 20
50.55000000
  0
VERTEX
  8
0
 10
7.73750000
 20
48.13745000
  0
VERTEX
  8
0
 10
7.81245000
 20
45.74995000
  0
VERTEX
  8
0
 10
7.78750000
 20
20.13745000
  0
VERTEX
  8
0
 10
7.76245000
 20
19.34995000
  0
VERTEX
  8
0
 10
7.72500000
 20
18.64995000
  0
VERTEX
  8
0
 10
7.67500000
 20
18.01250000
  0
VERTEX
  8
0
 10
7.58750000
 20
17.43750000
  0
VERTEX
  8
0
 10
7.47500000
 20
16.93750000
  0
VERTEX
  8
0
 10
7.33750000
 20
16.50000000
  0
VERTEX
  8
0
 10
7.16245000
 20
16.11250000
  0
VERTEX
  8
0
 10
6.96245000
 20
15.78745000
  0
VERTEX
  8
0
 10
6.72500000
 20
15.51250000
  0
VERTEX
  8
0
 10
6.45000000
 20
15.27495000
  0
VERTEX
  8
0
 10
6.12495000
 20
15.08745000
  0
VERTEX
  8
0
 10
5.76250000
 20
14.95000000
  0
VERTEX
  8
0
 10
5.36250000
 20
14.83750000
  0
VERTEX
  8
0
 10
4.91250000
 20
14.76250000
  0
VERTEX
  8
0
 10
4.41250000
 20
14.71250000
  0
VERTEX
  8
0
 10
3.86250000
 20
14.69995000
  0
VERTEX
  8
0
 10
-4.46250000
 20
14.69995000
  0
VERTEX
  8
0
 10
-5.15000000
 20
14.75000000
  0
VERTEX
  8
0
 10
-5.77500000
 20
14.83750000
  0
VERTEX
  8
0
 10
-6.33750000
 20
14.95000000
  0
VERTEX
  8
0
 10
-6.85000000
 20
15.09995000
  0
VERTEX
  8
0
 10
-7.30000000
 20
15.28745000
  0
VERTEX
  8
0
 10
-7.70000000
 20
15.49995000
  0
VERTEX
  8
0
 10
-8.06255000
 20
15.75000000
  0
VERTEX
  8
0
 10
-8.37500000
 20
16.03750000
  0
VERTEX
  8
0
 10
-8.65000000
 20
16.35000000
  0
VERTEX
  8
0
 10
-8.90000000
 20
16.71250000
  0
VERTEX
  8
0
 10
-9.11250000
 20
17.11250000
  0
VERTEX
  8
0
 10
-9.30005000
 20
17.55000000
  0
VERTEX
  8
0
 10
-9.46250000
 20
18.02500000
  0
VERTEX
  8
0
 10
-9.61250000
 20
18.53750000
  0
VERTEX
  8
0
 10
-9.73750000
 20
19.10000000
  0
VERTEX
  8
0
 10
-9.86250000
 20
19.70000000
  0
VERTEX
  8
0
 10
-10.88755000
 20
23.00000000
  0
VERTEX
  8
0
 10
-12.52505000
 20
25.82500000
  0
VERTEX
  8
0
 10
-14.67500000
 20
28.17495000
  0
VERTEX
  8
0
 10
-17.26250000
 20
30.07495000
  0
VERTEX
  8
0
 10
-20.20000000
 20
31.56245000
  0
VERTEX
  8
0
 10
-23.38750000
 20
32.62500000
  0
VERTEX
  8
0
 10
-26.75000000
 20
33.30000000
  0
VERTEX
  8
0
 10
-30.20000000
 20
33.61250000
  0
VERTEX
  8
0
 10
-33.63750000
 20
33.56250000
  0
VERTEX
  8
0
 10
-36.98750000
 20
33.18750000
  0
VERTEX
  8
0
 10
-40.15000000
 20
32.48750000
  0
VERTEX
  8
0
 10
-43.03750000
 20
31.50000000
  0
VERTEX
  8
0
 10
-45.57500000
 20
30.22500000
  0
VERTEX
  8
0
 10
-47.67500000
 20
28.68745000
  0
VERTEX
  8
0
 10
-49.22500000
 20
26.92500000
  0
VERTEX
  8
0
 10
-50.16250000
 20
24.92495000
  0
VERTEX
  8
0
 10
-33.38750000
 20
22.58750000
  0
VERTEX
  8
0
 10
-33.76250000
 20
19.56245000
  0
VERTEX
  8
0
 10
-39.17500000
 20
20.22500000
  0
VERTEX
  8
0
 10
-43.33750000
 20
-6.67500000
  0
VERTEX
  8
0
 10
-42.40000000
 20
-7.15005000
  0
VERTEX
  8
0
 10
-41.58750000
 20
-7.80000000
  0
VERTEX
  8
0
 10
-40.90005000
 20
-8.60000000
  0
VERTEX
  8
0
 10
-40.33750000
 20
-9.51255000
  0
VERTEX
  8
0
 10
-39.90000000
 20
-10.52505000
  0
VERTEX
  8
0
 10
-39.58750000
 20
-11.61255000
  0
VERTEX
  8
0
 10
-39.40000000
 20
-12.73750000
  0
VERTEX
  8
0
 10
-39.35000000
 20
-13.88755000
  0
VERTEX
  8
0
 10
-39.41255000
 20
-15.03750000
  0
VERTEX
  8
0
 10
-39.61250000
 20
-16.16255000
  0
VERTEX
  8
0
 10
-39.92500000
 20
-17.22500000
  0
VERTEX
  8
0
 10
-40.37505000
 20
-18.21250000
  0
VERTEX
  8
0
 10
-40.95005000
 20
-19.08750000
  0
VERTEX
  8
0
 10
-41.65000000
 20
-19.83755000
  0
VERTEX
  8
0
 10
-42.46255000
 20
-20.43755000
  0
VERTEX
  8
0
 10
-43.41250000
 20
-20.85000000
  0
VERTEX
  8
0
 10
-43.41250000
 20
-21.78750000
  0
VERTEX
  8
0
 10
-43.40005000
 20
-22.83750000
  0
VERTEX
  8
0
 10
-43.38750000
 20
-23.98755000
  0
VERTEX
  8
0
 10
-43.37505000
 20
-25.21255000
  0
VERTEX
  8
0
 10
-43.35005000
 20
-26.50005000
  0
VERTEX
  8
0
 10
-43.32500000
 20
-27.82500000
  0
VERTEX
  8
0
 10
-43.30000000
 20
-29.16250000
  0
VERTEX
  8
0
 10
-43.27500000
 20
-30.52500000
  0
VERTEX
  8
0
 10
-43.23750000
 20
-31.86250000
  0
VERTEX
  8
0
 10
-43.21250000
 20
-33.17500000
  0
VERTEX
  8
0
 10
-43.17500000
 20
-34.43750000
  0
VERTEX
  8
0
 10
-43.15000000
 20
-35.62500000
  0
VERTEX
  8
0
 10
-43.11250000
 20
-36.73750000
  0
VERTEX
  8
0
 10
-43.08750000
 20
-37.73750000
  0
VERTEX
  8
0
 10
-43.06250000
 20
-38.62500000
  0
VERTEX
  8
0
 10
-43.03750000
 20
-39.36250000
  0
VERTEX
  8
0
 10
-43.03750000
 20
-39.95000000
  0
VERTEX
  8
0
 10
-43.07500000
 20
-40.48750000
  0
VERTEX
  8
0
 10
-43.15000000
 20
-40.97500000
  0
VERTEX
  8
0
 10
-43.26250000
 20
-41.42500000
  0
VERTEX
  8
0
 10
-43.41250000
 20
-41.82500000
  0
VERTEX
  8
0
 10
-43.58750000
 20
-42.17500000
  0
VERTEX
  8
0
 10
-43.80005000
 20
-42.50000000
  0
VERTEX
  8
0
 10
-44.05005000
 20
-42.77500000
  0
VERTEX
  8
0
 10
-44.32500000
 20
-43.02500000
  0
VERTEX
  8
0
 10
-44.62500000
 20
-43.22500000
  0
VERTEX
  8
0
 10
-44.95000000
 20
-43.40000000
  0
VERTEX
  8
0
 10
-45.31255000
 20
-43.55000000
  0
VERTEX
  8
0
 10
-45.68755000
 20
-43.66250000
  0
VERTEX
  8
0
 10
-46.08750000
 20
-43.75000000
  0
VERTEX
  8
0
 10
-46.51250000
 20
-43.81250000
  0
VERTEX
  8
0
 10
-46.96250000
 20
-43.85000000
  0
VERTEX
  8
0
 10
-48.83755000
 20
-44.02500000
  0
VERTEX
  8
0
 10
-50.73750000
 20
-44.38750000
  0
VERTEX
  8
0
 10
-52.65000000
 20
-44.92505000
  0
VERTEX
  8
0
 10
-54.55000000
 20
-45.66250000
  0
VERTEX
  8
0
 10
-56.42505000
 20
-46.61255000
  0
VERTEX
  8
0
 10
-58.26255000
 20
-47.77500000
  0
VERTEX
  8
0
 10
-60.03750000
 20
-49.17500000
  0
VERTEX
  8
0
 10
-61.76255000
 20
-50.82500000
  0
VERTEX
  8
0
 10
-63.38750000
 20
-52.72500000
  0
VERTEX
  8
0
 10
-64.92500000
 20
-54.90000000
  0
VERTEX
  8
0
 10
-66.36250000
 20
-57.33755000
  0
VERTEX
  8
0
 10
-67.66255000
 20
-60.08750000
  0
VERTEX
  8
0
 10
-68.82505000
 20
-63.12500000
  0
VERTEX
  8
0
 10
-69.82505000
 20
-66.48750000
  0
VERTEX
  8
0
 10
-70.66255000
 20
-70.17500000
  0
VERTEX
  8
0
 10
-71.31255000
 20
-74.18750000
  0
VERTEX
  8
0
 10
-64.23755000
 20
-71.40000000
  0
VERTEX
  8
0
 10
-63.33750000
 20
-74.32500000
  0
VERTEX
  8
0
 10
-63.50000000
 20
-74.40000000
  0
VERTEX
  8
0
 10
-63.78755000
 20
-74.51250000
  0
VERTEX
  8
0
 10
-64.20000000
 20
-74.67500000
  0
VERTEX
  8
0
 10
-64.70000000
 20
-74.86250000
  0
VERTEX
  8
0
 10
-65.28750000
 20
-75.08750000
  0
VERTEX
  8
0
 10
-65.92505000
 20
-75.32500000
  0
VERTEX
  8
0
 10
-66.61250000
 20
-75.57500000
  0
VERTEX
  8
0
 10
-67.32500000
 20
-75.85000000
  0
VERTEX
  8
0
 10
-68.05000000
 20
-76.11250000
  0
VERTEX
  8
0
 10
-68.75005000
 20
-76.37500000
  0
VERTEX
  8
0
 10
-69.42505000
 20
-76.62500000
  0
VERTEX
  8
0
 10
-70.03755000
 20
-76.86250000
  0
VERTEX
  8
0
 10
-70.60000000
 20
-77.07500000
  0
VERTEX
  8
0
 10
-71.06255000
 20
-77.26250000
  0
VERTEX
  8
0
 10
-71.42505000
 20
-77.41250000
  0
VERTEX
  8
0
 10
-71.66250000
 20
-77.51250000
  0
VERTEX
  8
0
 10
-71.70005000
 20
-77.88750000
  0
VERTEX
  8
0
 10
-71.72505000
 20
-78.26250000
  0
VERTEX
  8
0
 10
-71.76250000
 20
-78.62500000
  0
VERTEX
  8
0
 10
-71.78750000
 20
-79.00000000
  0
VERTEX
  8
0
 10
-71.82505000
 20
-79.36255000
  0
VERTEX
  8
0
 10
-71.85005000
 20
-79.73750000
  0
VERTEX
  8
0
 10
-71.87505000
 20
-80.10000000
  0
VERTEX
  8
0
 10
-71.90005000
 20
-80.47500000
  0
VERTEX
  8
0
 10
-71.91250000
 20
-80.83750000
  0
VERTEX
  8
0
 10
-71.93750000
 20
-81.22500000
  0
VERTEX
  8
0
 10
-71.95005000
 20
-81.60005000
  0
VERTEX
  8
0
 10
-71.97505000
 20
-81.98750000
  0
VERTEX
  8
0
 10
-71.98750000
 20
-82.37500000
  0
VERTEX
  8
0
 10
-72.00005000
 20
-82.77500000
  0
VERTEX
  8
0
 10
-72.02505000
 20
-83.17500000
  0
VERTEX
  8
0
 10
-72.03750000
 20
-83.58750000
  0
SEQEND
  0
POLYLINE
  8
0
 66
   1
 70
    1
  0
VERTEX
  8
0
 10
68.28750000
 20
85.02495000
  0
VERTEX
  8
0
 10
68.28750000
 20
80.97500000
  0
VERTEX
  8
0
 10
65.18750000
 20
80.97500000
  0
VERTEX
  8
0
 10
65.18750000
 20
85.03750000
  0
VERTEX
  8
0
 10
68.28750000
 20
85.02495000
  0
SEQEND
  0
POLYLINE
  8
0
 66
   1
 70
    1
  0
VERTEX
  8
0
 10
25.52500000
 20
67.48750000
  0
VERTEX
  8
0
 10
28.62500000
 20
67.48750000
  0
VERTEX
  8
0
 10
28.62500000
 20
64.38745000
  0
VERTEX
  8
0
 10
25.52500000
 20
64.38745000
  0
VERTEX
  8
0
 10
25.52500000
 20
67.48750000
  0
SEQEND
  0
POLYLINE
  8
0
 66
   1
 70
    1
  0
VERTEX
  8
0
 10
25.47500000
 20
17.51250000
  0
VERTEX
  8
0
 10
28.57500000
 20
17.51250000
  0
VERTEX
  8
0
 10
28.57500000
 20
14.41250000
  0
VERTEX
  8
0
 10
25.47500000
 20
14.41250000
  0
VERTEX
  8
0
 10
25.47500000
 20
17.51250000
  0
SEQEND
  0
POLYLINE
  8
0
 66
   1
 70
    1
  0
VERTEX
  8
0
 10
68.25000000
 20
0.87500000
  0
VERTEX
  8
0
 10
68.25000000
 20
3.97495000
  0
VERTEX
  8
0
 10
65.15000000
 20
3.97495000
  0
VERTEX
  8
0
 10
65.15000000
 20
0.87500000
  0
VERTEX
  8
0
 10
68.25000000
 20
0.87500000
  0
SEQEND
  0
POLYLINE
  8
0
 66
   1
 70
    1
  0
VERTEX
  8
0
 10
107.91250000
 20
17.41250000
  0
VERTEX
  8
0
 10
104.81250000
 20
17.41250000
  0
VERTEX
  8
0
 10
104.81250000
 20
14.31245000
  0
VERTEX
  8
0
 10
107.91250000
 20
14.31245000
  0
VERTEX
  8
0
 10
107.91250000
 20
17.41250000
  0
SEQEND
  0
POLYLINE
  8
0
 66
   1
 70
    1
  0
VERTEX
  8
0
 10
107.94995000
 20
67.40000000
  0
VERTEX
  8
0
 10
104.85000000
 20
67.40000000
  0
VERTEX
  8
0
 10
104.85000000
 20
64.30000000
  0
VERTEX
  8
0
 10
107.94995000
 20
64.30000000
  0
VERTEX
  8
0
 10
107.94995000
 20
67.40000000
  0
SEQEND
  0
POLYLINE
  8
0
 66
   1
 70
    1
  0
VERTEX
  8
0
 10
60.42500000
 20
5.53750000
  0
VERTEX
  8
0
 10
30.03750000
 20
5.53750000
  0
VERTEX
  8
0
 10
30.03750000
 20
9.65000000
  0
VERTEX
  8
0
 10
29.75000000
 20
9.65000000
  0
VERTEX
  8
0
 10
29.47500000
 20
9.65000000
  0
VERTEX
  8
0
 10
29.18750000
 20
9.65000000
  0
VERTEX
  8
0
 10
28.91250000
 20
9.65000000
  0
VERTEX
  8
0
 10
28.62500000
 20
9.65000000
  0
VERTEX
  8
0
 10
28.35000000
 20
9.65000000
  0
VERTEX
  8
0
 10
28.06250000
 20
9.65000000
  0
VERTEX
  8
0
 10
27.77500000
 20
9.65000000
  0
VERTEX
  8
0
 10
27.50000000
 20
9.65000000
  0
VERTEX
  8
0
 10
27.21250000
 20
9.65000000
  0
VERTEX
  8
0
 10
26.93750000
 20
9.65000000
  0
VERTEX
  8
0
 10
26.65000000
 20
9.65000000
  0
VERTEX
  8
0
 10
26.37500000
 20
9.65000000
  0
VERTEX
  8
0
 10
26.08750000
 20
9.65000000
  0
VERTEX
  8
0
 10
25.81250000
 20
9.65000000
  0
VERTEX
  8
0
 10
25.52500000
 20
9.65000000
  0
VERTEX
  8
0
 10
25.17500000
 20
10.42495000
  0
VERTEX
  8
0
 10
24.87500000
 20
11.21245000
  0
VERTEX
  8
0
 10
24.61250000
 20
11.99995000
  0
VERTEX
  8
0
 10
24.40000000
 20
12.77500000
  0
VERTEX
  8
0
 10
24.23750000
 20
13.56250000
  0
VERTEX
  8
0
 10
24.12500000
 20
14.33750000
  0
VERTEX
  8
0
 10
24.05000000
 20
15.12500000
  0
VERTEX
  8
0
 10
24.02500000
 20
15.89995000
  0
VERTEX
  8
0
 10
24.05000000
 20
16.68745000
  0
VERTEX
  8
0
 10
24.12500000
 20
17.46245000
  0
VERTEX
  8
0
 10
24.23750000
 20
18.24995000
  0
VERTEX
  8
0
 10
24.41250000
 20
19.02500000
  0
VERTEX
  8
0
 10
24.61250000
 20
19.81250000
  0
VERTEX
  8
0
 10
24.87500000
 20
20.58750000
  0
VERTEX
  8
0
 10
25.18750000
 20
21.36250000
  0
VERTEX
  8
0
 10
25.53750000
 20
22.14995000
  0
VERTEX
  8
0
 10
30.05000000
 20
22.14995000
  0
VERTEX
  8
0
 10
30.07500000
 20
59.65000000
  0
VERTEX
  8
0
 10
29.80000000
 20
59.65000000
  0
VERTEX
  8
0
 10
29.51250000
 20
59.65000000
  0
VERTEX
  8
0
 10
29.23750000
 20
59.65000000
  0
VERTEX
  8
0
 10
28.95000000
 20
59.65000000
  0
VERTEX
  8
0
 10
28.66250000
 20
59.65000000
  0
VERTEX
  8
0
 10
28.38750000
 20
59.65000000
  0
VERTEX
  8
0
 10
28.10000000
 20
59.65000000
  0
VERTEX
  8
0
 10
27.82500000
 20
59.65000000
  0
VERTEX
  8
0
 10
27.53750000
 20
59.65000000
  0
VERTEX
  8
0
 10
27.26250000
 20
59.65000000
  0
VERTEX
  8
0
 10
26.97500000
 20
59.65000000
  0
VERTEX
  8
0
 10
26.68750000
 20
59.65000000
  0
VERTEX
  8
0
 10
26.41250000
 20
59.65000000
  0
VERTEX
  8
0
 10
26.12500000
 20
59.65000000
  0
VERTEX
  8
0
 10
25.85000000
 20
59.65000000
  0
VERTEX
  8
0
 10
25.56250000
 20
59.65000000
  0
VERTEX
  8
0
 10
25.21250000
 20
60.42500000
  0
VERTEX
  8
0
 10
24.91250000
 20
61.21245000
  0
VERTEX
  8
0
 10
24.65000000
 20
62.00000000
  0
VERTEX
  8
0
 10
24.43750000
 20
62.77500000
  0
VERTEX
  8
0
 10
24.27500000
 20
63.56250000
  0
VERTEX
  8
0
 10
24.16250000
 20
64.33750000
  0
VERTEX
  8
0
 10
24.08750000
 20
65.12500000
  0
VERTEX
  8
0
 10
24.07500000
 20
65.90000000
  0
VERTEX
  8
0
 10
24.10000000
 20
66.68750000
  0
VERTEX
  8
0
 10
24.16250000
 20
67.46245000
  0
VERTEX
  8
0
 10
24.28750000
 20
68.25000000
  0
VERTEX
  8
0
 10
24.45000000
 20
69.02500000
  0
VERTEX
  8
0
 10
24.66250000
 20
69.81250000
  0
VERTEX
  8
0
 10
24.91250000
 20
70.58750000
  0
VERTEX
  8
0
 10
25.22500000
 20
71.36250000
  0
VERTEX
  8
0
 10
25.57500000
 20
72.15000000
  0
VERTEX
  8
0
 10
30.08750000
 20
72.15000000
  0
VERTEX
  8
0
 10
30.10000000
 20
78.98750000
  0
VERTEX
  8
0
 10
60.47500000
 20
78.96250000
  0
VERTEX
  8
0
 10
60.47500000
 20
79.33750000
  0
VERTEX
  8
0
 10
60.48750000
 20
79.71250000
  0
VERTEX
  8
0
 10
60.48750000
 20
80.08750000
  0
VERTEX
  8
0
 10
60.48750000
 20
80.47500000
  0
VERTEX
  8
0
 10
60.48750000
 20
80.85000000
  0
VERTEX
  8
0
 10
60.48750000
 20
81.22500000
  0
VERTEX
  8
0
 10
60.48750000
 20
81.60000000
  0
VERTEX
  8
0
 10
60.48750000
 20
81.97500000
  0
VERTEX
  8
0
 10
60.48750000
 20
82.34995000
  0
VERTEX
  8
0
 10
60.48750000
 20
82.72500000
  0
VERTEX
  8
0
 10
60.48750000
 20
83.10000000
  0
VERTEX
  8
0
 10
60.48750000
 20
83.47500000
  0
VERTEX
  8
0
 10
60.48750000
 20
83.86250000
  0
VERTEX
  8
0
 10
60.48750000
 20
84.23750000
  0
VERTEX
  8
0
 10
60.48750000
 20
84.61250000
  0
VERTEX
  8
0
 10
60.48750000
 20
84.98750000
  0
VERTEX
  8
0
 10
61.26250000
 20
85.33750000
  0
VERTEX
  8
0
 10
62.05000000
 20
85.63750000
  0
VERTEX
  8
0
 10
62.82500000
 20
85.90000000
  0
VERTEX
  8
0
 10
63.61250000
 20
86.11250000
  0
VERTEX
  8
0
 10
64.38750000
 20
86.27500000
  0
VERTEX
  8
0
 10
65.17500000
 20
86.38750000
  0
VERTEX
  8
0
 10
65.95000000
 20
86.46250000
  0
VERTEX
  8
0
 10
66.73750000
 20
86.48750000
  0
VERTEX
  8
0
 10
67.51250000
 20
86.46250000
  0
VERTEX
  8
0
 10
68.30000000
 20
86.38750000
  0
VERTEX
  8
0
 10
69.07500000
 20
86.27500000
  0
VERTEX
  8
0
 10
69.86250000
 20
86.10000000
  0
VERTEX
  8
0
 10
70.63750000
 20
85.88750000
  0
VERTEX
  8
0
 10
71.42500000
 20
85.63750000
  0
VERTEX
  8
0
 10
72.20000000
 20
85.32495000
  0
VERTEX
  8
0
 10
72.98750000
 20
84.97500000
  0
VERTEX
  8
0
 10
72.97500000
 20
78.92500000
  0
VERTEX
  8
0
 10
103.37500000
 20
78.92500000
  0
VERTEX
  8
0
 10
103.36250000
 20
72.08750000
  0
VERTEX
  8
0
 10
103.65000000
 20
72.08750000
  0
VERTEX
  8
0
 10
103.92500000
 20
72.08750000
  0
VERTEX
  8
0
 10
104.21250000
 20
72.08750000
  0
VERTEX
  8
0
 10
104.48745000
 20
72.08750000
  0
VERTEX
  8
0
 10
104.77495000
 20
72.08750000
  0
VERTEX
  8
0
 10
105.06250000
 20
72.08750000
  0
VERTEX
  8
0
 10
105.33750000
 20
72.08750000
  0
VERTEX
  8
0
 10
105.62500000
 20
72.08750000
  0
VERTEX
  8
0
 10
105.90000000
 20
72.08750000
  0
VERTEX
  8
0
 10
106.18750000
 20
72.08750000
  0
VERTEX
  8
0
 10
106.46245000
 20
72.08750000
  0
VERTEX
  8
0
 10
106.75000000
 20
72.08750000
  0
VERTEX
  8
0
 10
107.02500000
 20
72.08750000
  0
VERTEX
  8
0
 10
107.31250000
 20
72.08750000
  0
VERTEX
  8
0
 10
107.58750000
 20
72.08750000
  0
VERTEX
  8
0
 10
107.87500000
 20
72.08750000
  0
VERTEX
  8
0
 10
108.22500000
 20
71.30000000
  0
VERTEX
  8
0
 10
108.52500000
 20
70.52500000
  0
VERTEX
  8
0
 10
108.78750000
 20
69.73750000
  0
VERTEX
  8
0
 10
109.00000000
 20
68.96250000
  0
VERTEX
  8
0
 10
109.16250000
 20
68.17500000
  0
VERTEX
  8
0
 10
109.27500000
 20
67.40000000
  0
VERTEX
  8
0
 10
109.34995000
 20
66.61250000
  0
VERTEX
  8
0
 10
109.37500000
 20
65.83750000
  0
VERTEX
  8
0
 10
109.34995000
 20
65.05000000
  0
VERTEX
  8
0
 10
109.27500000
 20
64.27500000
  0
VERTEX
  8
0
 10
109.16250000
 20
63.48750000
  0
VERTEX
  8
0
 10
108.98750000
 20
62.71250000
  0
VERTEX
  8
0
 10
108.77500000
 20
61.92500000
  0
VERTEX
  8
0
 10
108.52500000
 20
61.15000000
  0
VERTEX
  8
0
 10
108.21250000
 20
60.36250000
  0
VERTEX
  8
0
 10
107.86245000
 20
59.58750000
  0
VERTEX
  8
0
 10
103.36250000
 20
59.58750000
  0
VERTEX
  8
0
 10
103.32500000
 20
22.08750000
  0
VERTEX
  8
0
 10
103.61250000
 20
22.08750000
  0
VERTEX
  8
0
 10
103.88745000
 20
22.08750000
  0
VERTEX
  8
0
 10
104.17500000
 20
22.08750000
  0
VERTEX
  8
0
 10
104.45000000
 20
22.08750000
  0
VERTEX
  8
0
 10
104.73750000
 20
22.08750000
  0
VERTEX
  8
0
 10
105.01250000
 20
22.08750000
  0
VERTEX
  8
0
 10
105.30000000
 20
22.08750000
  0
VERTEX
  8
0
 10
105.57495000
 20
22.08750000
  0
VERTEX
  8
0
 10
105.86250000
 20
22.08750000
  0
VERTEX
  8
0
 10
106.13750000
 20
22.08750000
  0
VERTEX
  8
0
 10
106.42500000
 20
22.08750000
  0
VERTEX
  8
0
 10
106.71250000
 20
22.08750000
  0
VERTEX
  8
0
 10
106.98750000
 20
22.08750000
  0
VERTEX
  8
0
 10
107.27500000
 20
22.08750000
  0
VERTEX
  8
0
 10
107.55000000
 20
22.08750000
  0
VERTEX
  8
0
 10
107.83750000
 20
22.08750000
  0
VERTEX
  8
0
 10
108.18750000
 20
21.30000000
  0
VERTEX
  8
0
 10
108.48750000
 20
20.52500000
  0
VERTEX
  8
0
 10
108.74995000
 20
19.73745000
  0
VERTEX
  8
0
 10
108.96250000
 20
18.96245000
  0
VERTEX
  8
0
 10
109.12500000
 20
18.17495000
  0
VERTEX
  8
0
 10
109.23750000
 20
17.40000000
  0
VERTEX
  8
0
 10
109.31250000
 20
16.61250000
  0
VERTEX
  8
0
 10
109.32500000
 20
15.83750000
  0
VERTEX
  8
0
 10
109.30000000
 20
15.05000000
  0
VERTEX
  8
0
 10
109.23750000
 20
14.27500000
  0
VERTEX
  8
0
 10
109.11250000
 20
13.48745000
  0
VERTEX
  8
0
 10
108.94995000
 20
12.71245000
  0
VERTEX
  8
0
 10
108.73750000
 20
11.92495000
  0
VERTEX
  8
0
 10
108.48750000
 20
11.15000000
  0
VERTEX
  8
0
 10
108.17500000
 20
10.36250000
  0
VERTEX
  8
0
 10
107.82500000
 20
9.58750000
  0
VERTEX
  8
0
 10
103.31250000
 20
9.58750000
  0
VERTEX
  8
0
 10
103.31250000
 20
5.47495000
  0
VERTEX
  8
0
 10
72.92495000
 20
5.50000000
  0
VERTEX
  8
0
 10
72.92495000
 20
5.21250000
  0
VERTEX
  8
0
 10
72.92495000
 20
4.93750000
  0
VERTEX
  8
0
 10
72.92495000
 20
4.65000000
  0
VERTEX
  8
0
 10
72.92495000
 20
4.37495000
  0
VERTEX
  8
0
 10
72.92495000
 20
4.08745000
  0
VERTEX
  8
0
 10
72.92495000
 20
3.80000000
  0
VERTEX
  8
0
 10
72.92495000
 20
3.52500000
  0
VERTEX
  8
0
 10
72.92495000
 20
3.23750000
  0
VERTEX
  8
0
 10
72.92495000
 20
2.95000000
  0
VERTEX
  8
0
 10
72.91250000
 20
2.67495000
  0
VERTEX
  8
0
 10
72.91250000
 20
2.38745000
  0
VERTEX
  8
0
 10
72.91250000
 20
2.11250000
  0
VERTEX
  8
0
 10
72.91250000
 20
1.82500000
  0
VERTEX
  8
0
 10
72.91250000
 20
1.53750000
  0
VERTEX
  8
0
 10
72.91250000
 20
1.26250000
  0
VERTEX
  8
0
 10
72.91250000
 20
0.97500000
  0
VERTEX
  8
0
 10
72.13750000
 20
0.62500000
  0
VERTEX
  8
0
 10
71.35000000
 20
0.32500000
  0
VERTEX
  8
0
 10
70.57500000
 20
0.06250000
  0
VERTEX
  8
0
 10
69.78750000
 20
-0.15000000
  0
VERTEX
  8
0
 10
69.01250000
 20
-0.31250000
  0
VERTEX
  8
0
 10
68.22500000
 20
-0.43750000
  0
VERTEX
  8
0
 10
67.45000000
 20
-0.51250000
  0
VERTEX
  8
0
 10
66.66250000
 20
-0.53750000
  0
VERTEX
  8
0
 10
65.88750000
 20
-0.51250000
  0
VERTEX
  8
0
 10
65.10000000
 20
-0.43750000
  0
VERTEX
  8
0
 10
64.32500000
 20
-0.32500000
  0
VERTEX
  8
0
 10
63.53750000
 20
-0.16250000
  0
VERTEX
  8
0
 10
62.76250000
 20
0.05000000
  0
VERTEX
  8
0
 10
61.97500000
 20
0.29995000
  0
VERTEX
  8
0
 10
61.20000000
 20
0.61245000
  0
VERTEX
  8
0
 10
60.41250000
 20
0.96250000
  0
VERTEX
  8
0
 10
60.42500000
 20
5.53750000
  0
SEQEND
  0
POLYLINE
  8
0
 66
   1
 70
    1
  0
VERTEX
  8
0
 10
28.77500000
 20
-38.98750000
  0
VERTEX
  8
0
 10
28.76250000
 20
-51.58750000
  0
VERTEX
  8
0
 10
24.66250000
 20
-51.58750000
  0
VERTEX
  8
0
 10
24.67500000
 20
-38.98750000
  0
VERTEX
  8
0
 10
28.77500000
 20
-38.98750000
  0
SEQEND
  0
POLYLINE
  8
0
 66
   1
 70
    1
  0
VERTEX
  8
0
 10
88.27500000
 20
-45.27500000
  0
VERTEX
  8
0
 10
88.25000000
 20
-45.76250000
  0
VERTEX
  8
0
 10
88.17500000
 20
-46.22505000
  0
VERTEX
  8
0
 10
88.06250000
 20
-46.67500000
  0
VERTEX
  8
0
 10
87.90000000
 20
-47.11255000
  0
VERTEX
  8
0
 10
87.70000000
 20
-47.52500000
  0
VERTEX
  8
0
 10
87.46250000
 20
-47.91255000
  0
VERTEX
  8
0
 10
87.18750000
 20
-48.27500000
  0
VERTEX
  8
0
 10
86.88750000
 20
-48.61250000
  0
VERTEX
  8
0
 10
86.55000000
 20
-48.91250000
  0
VERTEX
  8
0
 10
86.18750000
 20
-49.18755000
  0
VERTEX
  8
0
 10
85.80000000
 20
-49.41250000
  0
VERTEX
  8
0
 10
85.38750000
 20
-49.61250000
  0
VERTEX
  8
0
 10
84.96250000
 20
-49.77500000
  0
VERTEX
  8
0
 10
84.51250000
 20
-49.88755000
  0
VERTEX
  8
0
 10
84.03745000
 20
-49.96250000
  0
VERTEX
  8
0
 10
83.56250000
 20
-49.98755000
  0
VERTEX
  8
0
 10
83.07500000
 20
-49.96250000
  0
VERTEX
  8
0
 10
82.61250000
 20
-49.88755000
  0
VERTEX
  8
0
 10
82.16245000
 20
-49.77500000
  0
VERTEX
  8
0
 10
81.72500000
 20
-49.61250000
  0
VERTEX
  8
0
 10
81.31250000
 20
-49.41250000
  0
VERTEX
  8
0
 10
80.92500000
 20
-49.17500000
  0
VERTEX
  8
0
 10
80.56245000
 20
-48.90005000
  0
VERTEX
  8
0
 10
80.23750000
 20
-48.60005000
  0
VERTEX
  8
0
 10
79.92500000
 20
-48.26250000
  0
VERTEX
  8
0
 10
79.66250000
 20
-47.90005000
  0
VERTEX
  8
0
 10
79.42500000
 20
-47.51255000
  0
VERTEX
  8
0
 10
79.22500000
 20
-47.10000000
  0
VERTEX
  8
0
 10
79.06250000
 20
-46.67500000
  0
VERTEX
  8
0
 10
78.95000000
 20
-46.22505000
  0
VERTEX
  8
0
 10
78.87500000
 20
-45.75000000
  0
VERTEX
  8
0
 10
78.85000000
 20
-45.27500000
  0
VERTEX
  8
0
 10
78.87500000
 20
-44.78750000
  0
VERTEX
  8
0
 10
78.95000000
 20
-44.32500000
  0
VERTEX
  8
0
 10
79.06250000
 20
-43.87500000
  0
VERTEX
  8
0
 10
79.22500000
 20
-43.43755000
  0
VERTEX
  8
0
 10
79.42500000
 20
-43.02500000
  0
VERTEX
  8
0
 10
79.66250000
 20
-42.63750000
  0
VERTEX
  8
0
 10
79.93750000
 20
-42.27500000
  0
VERTEX
  8
0
 10
80.23750000
 20
-41.95005000
  0
VERTEX
  8
0
 10
80.57495000
 20
-41.63750000
  0
VERTEX
  8
0
 10
80.93750000
 20
-41.36255000
  0
VERTEX
  8
0
 10
81.32500000
 20
-41.13750000
  0
VERTEX
  8
0
 10
81.73750000
 20
-40.93750000
  0
VERTEX
  8
0
 10
82.16245000
 20
-40.77500000
  0
VERTEX
  8
0
 10
82.62500000
 20
-40.66255000
  0
VERTEX
  8
0
 10
83.08750000
 20
-40.58750000
  0
VERTEX
  8
0
 10
83.56250000
 20
-40.56255000
  0
VERTEX
  8
0
 10
84.04995000
 20
-40.58750000
  0
VERTEX
  8
0
 10
84.51250000
 20
-40.66255000
  0
VERTEX
  8
0
 10
84.96250000
 20
-40.77500000
  0
VERTEX
  8
0
 10
85.40000000
 20
-40.93750000
  0
VERTEX
  8
0
 10
85.81250000
 20
-41.13750000
  0
VERTEX
  8
0
 10
86.20000000
 20
-41.37500000
  0
VERTEX
  8
0
 10
86.56250000
 20
-41.65005000
  0
VERTEX
  8
0
 10
86.90000000
 20
-41.95005000
  0
VERTEX
  8
0
 10
87.20000000
 20
-42.28750000
  0
VERTEX
  8
0
 10
87.47500000
 20
-42.65005000
  0
VERTEX
  8
0
 10
87.70000000
 20
-43.03755000
  0
VERTEX
  8
0
 10
87.90000000
 20
-43.45000000
  0
VERTEX
  8
0
 10
88.06250000
 20
-43.87500000
  0
VERTEX
  8
0
 10
88.17500000
 20
-44.33755000
  0
VERTEX
  8
0
 10
88.25000000
 20
-44.80000000
  0
VERTEX
  8
0
 10
88.27500000
 20
-45.27500000
  0
SEQEND
  0
POLYLINE
  8
0
 66
   1
 70
    1
  0
VERTEX
  8
0
 10
82.05000000
 20
-12.37500000
  0
VERTEX
  8
0
 10
82.38750000
 20
-13.23750000
  0
VERTEX
  8
0
 10
82.70000000
 20
-14.21250000
  0
VERTEX
  8
0
 10
83.00000000
 20
-15.26255000
  0
VERTEX
  8
0
 10
83.27500000
 20
-16.40000000
  0
VERTEX
  8
0
 10
83.52500000
 20
-17.61250000
  0
VERTEX
  8
0
 10
83.76250000
 20
-18.87500000
  0
VERTEX
  8
0
 10
83.97500000
 20
-20.18750000
  0
VERTEX
  8
0
 10
84.17500000
 20
-21.53755000
  0
VERTEX
  8
0
 10
84.36250000
 20
-22.92505000
  0
VERTEX
  8
0
 10
84.52500000
 20
-24.32500000
  0
VERTEX
  8
0
 10
84.68750000
 20
-25.72500000
  0
VERTEX
  8
0
 10
84.82500000
 20
-27.12500000
  0
VERTEX
  8
0
 10
84.95000000
 20
-28.50000000
  0
VERTEX
  8
0
 10
85.06250000
 20
-29.86250000
  0
VERTEX
  8
0
 10
85.16250000
 20
-31.18750000
  0
VERTEX
  8
0
 10
85.25000000
 20
-32.46250000
  0
VERTEX
  8
0
 10
85.27500000
 20
-32.85000000
  0
VERTEX
  8
0
 10
85.31250000
 20
-33.23750000
  0
VERTEX
  8
0
 10
85.35000000
 20
-33.62505000
  0
VERTEX
  8
0
 10
85.40000000
 20
-34.02500000
  0
VERTEX
  8
0
 10
85.46250000
 20
-34.42500000
  0
VERTEX
  8
0
 10
85.55000000
 20
-34.82500000
  0
VERTEX
  8
0
 10
85.66250000
 20
-35.22500000
  0
VERTEX
  8
0
 10
85.81250000
 20
-35.62500000
  0
VERTEX
  8
0
 10
85.97500000
 20
-36.02500000
  0
VERTEX
  8
0
 10
86.18750000
 20
-36.42500000
  0
VERTEX
  8
0
 10
86.43750000
 20
-36.81250000
  0
VERTEX
  8
0
 10
86.73750000
 20
-37.20000000
  0
VERTEX
  8
0
 10
87.07500000
 20
-37.58755000
  0
VERTEX
  8
0
 10
87.47500000
 20
-37.96250000
  0
VERTEX
  8
0
 10
87.93750000
 20
-38.33750000
  0
VERTEX
  8
0
 10
88.45000000
 20
-38.70000000
  0
VERTEX
  8
0
 10
89.21250000
 20
-39.20000000
  0
VERTEX
  8
0
 10
89.87500000
 20
-39.82500000
  0
VERTEX
  8
0
 10
90.43750000
 20
-40.57500000
  0
VERTEX
  8
0
 10
90.88745000
 20
-41.40000000
  0
VERTEX
  8
0
 10
91.23750000
 20
-42.31250000
  0
VERTEX
  8
0
 10
91.47500000
 20
-43.27500000
  0
VERTEX
  8
0
 10
91.62500000
 20
-44.26250000
  0
VERTEX
  8
0
 10
91.66250000
 20
-45.28750000
  0
VERTEX
  8
0
 10
91.61250000
 20
-46.30000000
  0
VERTEX
  8
0
 10
91.45000000
 20
-47.30000000
  0
VERTEX
  8
0
 10
91.18745000
 20
-48.25000000
  0
VERTEX
  8
0
 10
90.83750000
 20
-49.16250000
  0
VERTEX
  8
0
 10
90.37500000
 20
-49.98755000
  0
VERTEX
  8
0
 10
89.82500000
 20
-50.72500000
  0
VERTEX
  8
0
 10
89.17500000
 20
-51.36250000
  0
VERTEX
  8
0
 10
88.42500000
 20
-51.86250000
  0
VERTEX
  8
0
 10
87.91245000
 20
-52.22500000
  0
VERTEX
  8
0
 10
87.46250000
 20
-52.60000000
  0
VERTEX
  8
0
 10
87.06250000
 20
-52.98750000
  0
VERTEX
  8
0
 10
86.72495000
 20
-53.37500000
  0
VERTEX
  8
0
 10
86.42495000
 20
-53.76255000
  0
VERTEX
  8
0
 10
86.17500000
 20
-54.15005000
  0
VERTEX
  8
0
 10
85.96250000
 20
-54.55005000
  0
VERTEX
  8
0
 10
85.78750000
 20
-54.93750000
  0
VERTEX
  8
0
 10
85.63745000
 20
-55.33750000
  0
VERTEX
  8
0
 10
85.52495000
 20
-55.73755000
  0
VERTEX
  8
0
 10
85.43745000
 20
-56.13755000
  0
VERTEX
  8
0
 10
85.36250000
 20
-56.53755000
  0
VERTEX
  8
0
 10
85.30000000
 20
-56.92505000
  0
VERTEX
  8
0
 10
85.26250000
 20
-57.32500000
  0
VERTEX
  8
0
 10
85.22500000
 20
-57.71250000
  0
VERTEX
  8
0
 10
85.20000000
 20
-58.10000000
  0
VERTEX
  8
0
 10
85.10000000
 20
-59.38750000
  0
VERTEX
  8
0
 10
84.98750000
 20
-60.71255000
  0
VERTEX
  8
0
 10
84.87500000
 20
-62.08750000
  0
VERTEX
  8
0
 10
84.73745000
 20
-63.47500000
  0
VERTEX
  8
0
 10
84.60000000
 20
-64.88750000
  0
VERTEX
  8
0
 10
84.43745000
 20
-66.31250000
  0
VERTEX
  8
0
 10
84.27500000
 20
-67.71250000
  0
VERTEX
  8
0
 10
84.08750000
 20
-69.11250000
  0
VERTEX
  8
0
 10
83.88750000
 20
-70.47500000
  0
VERTEX
  8
0
 10
83.66250000
 20
-71.80000000
  0
VERTEX
  8
0
 10
83.42500000
 20
-73.07500000
  0
VERTEX
  8
0
 10
83.17500000
 20
-74.28750000
  0
VERTEX
  8
0
 10
82.88750000
 20
-75.43750000
  0
VERTEX
  8
0
 10
82.60000000
 20
-76.50000000
  0
VERTEX
  8
0
 10
82.27500000
 20
-77.46250000
  0
VERTEX
  8
0
 10
81.93750000
 20
-78.33750000
  0
VERTEX
  8
0
 10
80.96245000
 20
-80.16250000
  0
VERTEX
  8
0
 10
79.75000000
 20
-81.76250000
  0
VERTEX
  8
0
 10
78.35000000
 20
-83.11250000
  0
VERTEX
  8
0
 10
76.78750000
 20
-84.25000000
  0
VERTEX
  8
0
 10
75.11245000
 20
-85.15000000
  0
VERTEX
  8
0
 10
73.35000000
 20
-85.82500000
  0
VERTEX
  8
0
 10
71.55000000
 20
-86.28750000
  0
VERTEX
  8
0
 10
69.73750000
 20
-86.53750000
  0
VERTEX
  8
0
 10
67.95000000
 20
-86.57500000
  0
VERTEX
  8
0
 10
66.23750000
 20
-86.41255000
  0
VERTEX
  8
0
 10
64.62500000
 20
-86.03750000
  0
VERTEX
  8
0
 10
63.15000000
 20
-85.47500000
  0
VERTEX
  8
0
 10
61.86250000
 20
-84.71250000
  0
VERTEX
  8
0
 10
60.77500000
 20
-83.77500000
  0
VERTEX
  8
0
 10
59.96250000
 20
-82.63755000
  0
VERTEX
  8
0
 10
59.42500000
 20
-81.32500000
  0
VERTEX
  8
0
 10
72.15000000
 20
-79.90000000
  0
VERTEX
  8
0
 10
71.70000000
 20
-76.85000000
  0
VERTEX
  8
0
 10
22.75000000
 20
-82.57500000
  0
VERTEX
  8
0
 10
22.81250000
 20
-8.23755000
  0
VERTEX
  8
0
 10
71.81250000
 20
-13.73750000
  0
VERTEX
  8
0
 10
72.28750000
 20
-10.70005000
  0
VERTEX
  8
0
 10
59.51250000
 20
-9.23755000
  0
VERTEX
  8
0
 10
60.03750000
 20
-7.87500000
  0
VERTEX
  8
0
 10
60.86250000
 20
-6.71250000
  0
VERTEX
  8
0
 10
61.93750000
 20
-5.75005000
  0
VERTEX
  8
0
 10
63.23750000
 20
-4.98750000
  0
VERTEX
  8
0
 10
64.71250000
 20
-4.43750000
  0
VERTEX
  8
0
 10
66.32500000
 20
-4.07505000
  0
VERTEX
  8
0
 10
68.03750000
 20
-3.93750000
  0
VERTEX
  8
0
 10
69.82500000
 20
-4.00000000
  0
VERTEX
  8
0
 10
71.63750000
 20
-4.28750000
  0
VERTEX
  8
0
 10
73.45000000
 20
-4.77505000
  0
VERTEX
  8
0
 10
75.21245000
 20
-5.48750000
  0
VERTEX
  8
0
 10
76.89995000
 20
-6.42505000
  0
VERTEX
  8
0
 10
78.46250000
 20
-7.57500000
  0
VERTEX
  8
0
 10
79.86250000
 20
-8.95000000
  0
VERTEX
  8
0
 10
81.07495000
 20
-10.55000000
  0
VERTEX
  8
0
 10
82.05000000
 20
-12.37500000
  0
SEQEND
  0
POLYLINE
  8
0
 66
   1
 70
    1
  0
VERTEX
  8
0
 10
127.46250000
 20
-38.95000000
  0
VERTEX
  8
0
 10
127.45000000
 20
-51.55000000
  0
VERTEX
  8
0
 10
130.55000000
 20
-51.55000000
  0
VERTEX
  8
0
 10
130.56250000
 20
-38.95000000
  0
VERTEX
  8
0
 10
127.46250000
 20
-38.95000000
  0
SEQEND
  0
ENDSEC
  0
EOF
