0
SECTION
2
HEADER
9
$ACADVER
1
AC1009
9
$ANGDIR
70
0
9
$EXTMIN
10
0
20
0
9
$EXTMAX
10
24.0000
20
18.0000
0
ENDSEC
0
SECTION
2
ENTITIES
0
POLYLINE
8
Layer 1
66
1
0
VERTEX
8
0
10
11.3313
20
3.9655
0
VERTEX
8
0
10
10.8872
20
4.7354
0
VERTEX
8
0
10
9.9816
20
4.2127
0
VERTEX
8
0
10
9.2011
20
4.6632
0
VERTEX
8
0
10
9.7710
20
4.9896
0
VERTEX
8
0
10
9.4446
20
5.5505
0
VERTEX
8
0
10
10.3819
20
5.5491
0
VERTEX
8
0
10
10.1350
20
5.9959
0
VERTEX
8
0
10
10.3819
20
6.4379
0
VERTEX
8
0
10
9.4384
20
6.4398
0
VERTEX
8
0
10
9.7710
20
7.0113
0
VERTEX
8
0
10
9.2049
20
7.3354
0
VERTEX
8
0
10
9.9854
20
7.7861
0
VERTEX
8
0
10
10.8874
20
7.2656
0
VERTEX
8
0
10
11.3315
20
8.0355
0
VERTEX
8
0
10
10.8744
20
8.2996
0
VERTEX
8
0
10
11.4195
20
8.6138
0
VERTEX
8
0
10
10.9751
20
9.3837
0
VERTEX
8
0
10
10.4284
20
9.0679
0
VERTEX
8
0
10
10.4284
20
9.6002
0
VERTEX
8
0
10
9.5391
20
9.6002
0
VERTEX
8
0
10
9.5391
20
8.5546
0
VERTEX
8
0
10
8.7586
20
8.1043
0
VERTEX
8
0
10
8.7608
20
8.7610
0
VERTEX
8
0
10
8.1116
20
8.7586
0
VERTEX
8
0
10
8.5817
20
9.5696
0
VERTEX
8
0
10
8.0711
20
9.5790
0
VERTEX
8
0
10
7.8121
20
10.0137
0
VERTEX
8
0
10
7.3389
20
9.1976
0
VERTEX
8
0
10
7.0101
20
9.7717
0
VERTEX
8
0
10
6.4459
20
9.4431
0
VERTEX
8
0
10
6.4459
20
10.3446
0
VERTEX
8
0
10
7.3477
20
10.8650
0
VERTEX
8
0
10
6.9033
20
11.6346
0
VERTEX
8
0
10
6.4461
20
11.3709
0
VERTEX
8
0
10
6.4461
20
12.0000
0
VERTEX
8
0
10
5.5576
20
12.0000
0
VERTEX
8
0
10
5.5576
20
11.3688
0
VERTEX
8
0
10
5.0965
20
11.6346
0
VERTEX
8
0
10
4.6521
20
10.8650
0
VERTEX
8
0
10
5.5574
20
10.3423
0
VERTEX
8
0
10
5.5574
20
9.4413
0
VERTEX
8
0
10
4.9896
20
9.7715
0
VERTEX
8
0
10
4.6670
20
9.2082
0
VERTEX
8
0
10
4.1999
20
10.0208
0
VERTEX
8
0
10
3.9362
20
9.5835
0
VERTEX
8
0
10
3.4301
20
9.5764
0
VERTEX
8
0
10
3.9004
20
8.7584
0
VERTEX
8
0
10
3.2392
20
8.7608
0
VERTEX
8
0
10
3.2414
20
8.1081
0
VERTEX
8
0
10
2.4609
20
8.5586
0
VERTEX
8
0
10
2.4609
20
9.5998
0
VERTEX
8
0
10
1.5721
20
9.5998
0
VERTEX
8
0
10
1.5721
20
9.0721
0
VERTEX
8
0
10
1.0270
20
9.3865
0
VERTEX
8
0
10
0.5826
20
8.6169
0
VERTEX
8
0
10
1.1294
20
8.3008
0
VERTEX
8
0
10
0.6685
20
8.0350
0
VERTEX
8
0
10
1.1126
20
7.2651
0
VERTEX
8
0
10
2.0181
20
7.7876
0
VERTEX
8
0
10
2.7984
20
7.3373
0
VERTEX
8
0
10
2.2288
20
7.0108
0
VERTEX
8
0
10
2.5550
20
6.4499
0
VERTEX
8
0
10
1.6176
20
6.4513
0
VERTEX
8
0
10
1.8648
20
6.0046
0
VERTEX
8
0
10
1.6176
20
5.5623
0
VERTEX
8
0
10
2.5611
20
5.5607
0
VERTEX
8
0
10
2.2285
20
4.9892
0
VERTEX
8
0
10
2.7946
20
4.6646
0
VERTEX
8
0
10
2.0141
20
4.2143
0
VERTEX
8
0
10
1.1124
20
4.7349
0
VERTEX
8
0
10
0.6682
20
3.9650
0
VERTEX
8
0
10
1.1253
20
3.7011
0
VERTEX
8
0
10
0.5805
20
3.3864
0
VERTEX
8
0
10
1.0249
20
2.6168
0
VERTEX
8
0
10
1.5716
20
2.9324
0
VERTEX
8
0
10
1.5716
20
2.4000
0
VERTEX
8
0
10
2.4604
20
2.4000
0
VERTEX
8
0
10
2.4604
20
3.4456
0
VERTEX
8
0
10
3.2409
20
3.8959
0
VERTEX
8
0
10
3.2388
20
3.2395
0
VERTEX
8
0
10
3.8874
20
3.2418
0
VERTEX
8
0
10
3.4176
20
2.4309
0
VERTEX
8
0
10
3.9280
20
2.4210
0
VERTEX
8
0
10
4.1874
20
1.9863
0
VERTEX
8
0
10
4.6606
20
2.8026
0
VERTEX
8
0
10
4.9892
20
2.2288
0
VERTEX
8
0
10
5.5531
20
2.5571
0
VERTEX
8
0
10
5.5531
20
1.6558
0
VERTEX
8
0
10
4.6516
20
1.1353
0
VERTEX
8
0
10
5.0960
20
0.3654
0
VERTEX
8
0
10
5.5531
20
0.6295
0
VERTEX
8
0
10
5.5531
20
0.0000
0
VERTEX
8
0
10
6.4421
20
0.0000
0
VERTEX
8
0
10
6.4421
20
0.6317
0
VERTEX
8
0
10
6.9030
20
0.3654
0
VERTEX
8
0
10
7.3474
20
1.1353
0
VERTEX
8
0
10
6.4421
20
1.6582
0
VERTEX
8
0
10
6.4421
20
2.5590
0
VERTEX
8
0
10
7.0099
20
2.2290
0
VERTEX
8
0
10
7.3326
20
2.7923
0
VERTEX
8
0
10
7.7996
20
1.9797
0
VERTEX
8
0
10
8.0631
20
2.4170
0
VERTEX
8
0
10
8.5695
20
2.4238
0
VERTEX
8
0
10
8.0991
20
3.2421
0
VERTEX
8
0
10
8.7605
20
3.2397
0
VERTEX
8
0
10
8.7582
20
3.8921
0
VERTEX
8
0
10
9.5387
20
3.4416
0
VERTEX
8
0
10
9.5387
20
2.4005
0
VERTEX
8
0
10
10.4277
20
2.4005
0
VERTEX
8
0
10
10.4277
20
2.9284
0
VERTEX
8
0
10
10.9728
20
2.6139
0
VERTEX
8
0
10
11.4172
20
3.3838
0
VERTEX
8
0
10
10.8704
20
3.6997
0
VERTEX
8
0
10
11.3313
20
3.9655
0
SEQEND
8
0
0
POLYLINE
8
Layer 1
66
1
0
VERTEX
8
0
10
8.7141
20
5.2725
0
VERTEX
8
0
10
8.5513
20
5.5524
0
VERTEX
8
0
10
7.6590
20
5.5541
0
VERTEX
8
0
10
8.4291
20
5.1090
0
VERTEX
8
0
10
8.7141
20
5.2725
0
SEQEND
8
0
0
POLYLINE
8
Layer 1
66
1
0
VERTEX
8
0
10
7.0417
20
5.3991
0
VERTEX
8
0
10
7.3847
20
5.5968
0
VERTEX
8
0
10
6.6856
20
6.0006
0
VERTEX
8
0
10
7.3863
20
6.4018
0
VERTEX
8
0
10
7.0415
20
6.6018
0
VERTEX
8
0
10
7.0417
20
6.9983
0
VERTEX
8
0
10
6.3428
20
6.5945
0
VERTEX
8
0
10
6.3457
20
7.4017
0
VERTEX
8
0
10
5.9999
20
7.2035
0
VERTEX
8
0
10
5.6569
20
7.4017
0
VERTEX
8
0
10
5.6569
20
6.5945
0
VERTEX
8
0
10
4.9592
20
7.0007
0
VERTEX
8
0
10
4.9583
20
6.6021
0
VERTEX
8
0
10
4.6148
20
6.4044
0
VERTEX
8
0
10
5.3140
20
6.0008
0
VERTEX
8
0
10
4.6132
20
5.5996
0
VERTEX
8
0
10
4.9580
20
5.3994
0
VERTEX
8
0
10
4.9578
20
5.0031
0
VERTEX
8
0
10
5.6569
20
5.4067
0
VERTEX
8
0
10
5.6541
20
4.5993
0
VERTEX
8
0
10
5.9999
20
4.7979
0
VERTEX
8
0
10
6.3431
20
4.5993
0
VERTEX
8
0
10
6.3431
20
5.4067
0
VERTEX
8
0
10
7.0408
20
5.0007
0
VERTEX
8
0
10
7.0417
20
5.3991
0
SEQEND
8
0
0
POLYLINE
8
Layer 1
66
1
0
VERTEX
8
0
10
8.7141
20
6.7285
0
VERTEX
8
0
10
8.4327
20
6.8896
0
VERTEX
8
0
10
7.6585
20
6.4426
0
VERTEX
8
0
10
8.5468
20
6.4410
0
VERTEX
8
0
10
8.7141
20
6.7285
0
SEQEND
8
0
0
POLYLINE
8
Layer 1
66
1
0
VERTEX
8
0
10
7.9876
20
7.9866
0
VERTEX
8
0
10
7.6637
20
7.9852
0
VERTEX
8
0
10
7.2163
20
7.2132
0
VERTEX
8
0
10
7.9866
20
7.6585
0
VERTEX
8
0
10
7.9876
20
7.9866
0
SEQEND
8
0
0
POLYLINE
8
Layer 1
66
1
0
VERTEX
8
0
10
6.7266
20
8.7150
0
VERTEX
8
0
10
6.4464
20
8.5516
0
VERTEX
8
0
10
6.4464
20
7.6576
0
VERTEX
8
0
10
6.8917
20
8.4261
0
VERTEX
8
0
10
6.7266
20
8.7150
0
SEQEND
8
0
0
POLYLINE
8
Layer 1
66
1
0
VERTEX
8
0
10
5.2736
20
8.7150
0
VERTEX
8
0
10
5.1128
20
8.4338
0
VERTEX
8
0
10
5.5576
20
7.6604
0
VERTEX
8
0
10
5.5576
20
8.5499
0
VERTEX
8
0
10
5.2736
20
8.7150
0
SEQEND
8
0
0
POLYLINE
8
Layer 1
66
1
0
VERTEX
8
0
10
4.0124
20
7.9866
0
VERTEX
8
0
10
4.0136
20
7.6625
0
VERTEX
8
0
10
4.7877
20
7.2156
0
VERTEX
8
0
10
4.3450
20
7.9852
0
VERTEX
8
0
10
4.0124
20
7.9866
0
SEQEND
8
0
0
POLYLINE
8
Layer 1
66
1
0
VERTEX
8
0
10
3.2862
20
6.7285
0
VERTEX
8
0
10
3.4492
20
6.4483
0
VERTEX
8
0
10
4.3415
20
6.4466
0
VERTEX
8
0
10
3.5711
20
6.8917
0
VERTEX
8
0
10
3.2862
20
6.7285
0
SEQEND
8
0
0
POLYLINE
8
Layer 1
66
1
0
VERTEX
8
0
10
3.2862
20
5.2725
0
VERTEX
8
0
10
3.5671
20
5.1111
0
VERTEX
8
0
10
4.3415
20
5.5583
0
VERTEX
8
0
10
3.4532
20
5.5597
0
VERTEX
8
0
10
3.2862
20
5.2725
0
SEQEND
8
0
0
POLYLINE
8
Layer 1
66
1
0
VERTEX
8
0
10
4.0124
20
4.0141
0
VERTEX
8
0
10
4.3363
20
4.0153
0
VERTEX
8
0
10
4.7837
20
4.7875
0
VERTEX
8
0
10
4.0134
20
4.3424
0
VERTEX
8
0
10
4.0124
20
4.0141
0
SEQEND
8
0
0
POLYLINE
8
Layer 1
66
1
0
VERTEX
8
0
10
5.2736
20
3.2859
0
VERTEX
8
0
10
5.5539
20
3.4492
0
VERTEX
8
0
10
5.5539
20
4.3431
0
VERTEX
8
0
10
5.1085
20
3.5749
0
VERTEX
8
0
10
5.2736
20
3.2859
0
SEQEND
8
0
0
POLYLINE
8
Layer 1
66
1
0
VERTEX
8
0
10
6.7266
20
3.2859
0
VERTEX
8
0
10
6.8875
20
3.5673
0
VERTEX
8
0
10
6.4426
20
4.3405
0
VERTEX
8
0
10
6.4426
20
3.4510
0
VERTEX
8
0
10
6.7266
20
3.2859
0
SEQEND
8
0
0
POLYLINE
8
Layer 1
66
1
0
VERTEX
8
0
10
7.9876
20
4.0141
0
VERTEX
8
0
10
7.9864
20
4.3384
0
VERTEX
8
0
10
7.2123
20
4.7854
0
VERTEX
8
0
10
7.6550
20
4.0150
0
VERTEX
8
0
10
7.9876
20
4.0141
0
SEQEND
8
0
0
ENDSEC
0
EOF
