0
SECTION
2
HEADER
9
$ACADVER
1
AC1009
9
$ANGDIR
70
0
9
$EXTMIN
10
0
20
0
9
$EXTMAX
10
24.0000
20
18.0000
0
ENDSEC
0
SECTION
2
ENTITIES
0
POLYLINE
8
Layer 1
66
1
0
VERTEX
8
0
10
5.9982
20
11.4717
0
VERTEX
8
0
10
4.6846
20
10.8616
0
VERTEX
8
0
10
4.9191
20
9.8365
0
VERTEX
8
0
10
4.0503
20
9.9964
0
VERTEX
8
0
10
3.9434
20
10.1815
0
VERTEX
8
0
10
4.2902
20
10.9254
0
VERTEX
8
0
10
3.9102
20
11.1033
0
VERTEX
8
0
10
3.6873
20
10.6244
0
VERTEX
8
0
10
3.2686
20
11.3504
0
VERTEX
8
0
10
2.7484
20
11.0512
0
VERTEX
8
0
10
3.1743
20
10.3136
0
VERTEX
8
0
10
2.6262
20
10.3621
0
VERTEX
8
0
10
2.5894
20
9.9443
0
VERTEX
8
0
10
3.4304
20
9.8706
0
VERTEX
8
0
10
3.5229
20
9.7107
0
VERTEX
8
0
10
3.2165
20
8.8509
0
VERTEX
8
0
10
2.4456
20
9.5678
0
VERTEX
8
0
10
1.2606
20
8.7341
0
VERTEX
8
0
10
1.1321
20
7.2911
0
VERTEX
8
0
10
2.1375
20
6.9820
0
VERTEX
8
0
10
1.5642
20
6.3091
0
VERTEX
8
0
10
1.3495
20
6.3091
0
VERTEX
8
0
10
0.8787
20
6.9811
0
VERTEX
8
0
10
0.5355
20
6.7412
0
VERTEX
8
0
10
0.8383
20
6.3100
0
VERTEX
8
0
10
0.0000
20
6.3100
0
VERTEX
8
0
10
0.0000
20
5.7098
0
VERTEX
8
0
10
0.8517
20
5.7098
0
VERTEX
8
0
10
0.5355
20
5.2588
0
VERTEX
8
0
10
0.8787
20
5.0180
0
VERTEX
8
0
10
1.3630
20
5.7098
0
VERTEX
8
0
10
1.5481
20
5.7098
0
VERTEX
8
0
10
2.1402
20
5.0153
0
VERTEX
8
0
10
1.1330
20
4.7062
0
VERTEX
8
0
10
1.2623
20
3.2633
0
VERTEX
8
0
10
2.4474
20
2.4295
0
VERTEX
8
0
10
3.2183
20
3.1455
0
VERTEX
8
0
10
3.5139
20
2.3127
0
VERTEX
8
0
10
3.4070
20
2.1276
0
VERTEX
8
0
10
2.5894
20
2.0557
0
VERTEX
8
0
10
2.6262
20
1.6388
0
VERTEX
8
0
10
3.1518
20
1.6846
0
VERTEX
8
0
10
2.7323
20
0.9587
0
VERTEX
8
0
10
3.2516
20
0.6586
0
VERTEX
8
0
10
3.6774
20
1.3962
0
VERTEX
8
0
10
3.9092
20
0.8967
0
VERTEX
8
0
10
4.2893
20
1.0737
0
VERTEX
8
0
10
3.9326
20
1.8392
0
VERTEX
8
0
10
4.0252
20
1.9991
0
VERTEX
8
0
10
4.9227
20
2.1644
0
VERTEX
8
0
10
4.6873
20
1.1384
0
VERTEX
8
0
10
6.0009
20
0.5283
0
VERTEX
8
0
10
7.3154
20
1.1384
0
VERTEX
8
0
10
7.0809
20
2.1635
0
VERTEX
8
0
10
7.9497
20
2.0036
0
VERTEX
8
0
10
8.0566
20
1.8176
0
VERTEX
8
0
10
7.7098
20
1.0737
0
VERTEX
8
0
10
8.0898
20
0.8967
0
VERTEX
8
0
10
8.3127
20
1.3747
0
VERTEX
8
0
10
8.7314
20
0.6496
0
VERTEX
8
0
10
9.2507
20
0.9488
0
VERTEX
8
0
10
8.8257
20
1.6864
0
VERTEX
8
0
10
9.3738
20
1.6388
0
VERTEX
8
0
10
9.4106
20
2.0557
0
VERTEX
8
0
10
8.5696
20
2.1294
0
VERTEX
8
0
10
8.4771
20
2.2893
0
VERTEX
8
0
10
8.7835
20
3.1491
0
VERTEX
8
0
10
9.5544
20
2.4322
0
VERTEX
8
0
10
10.7394
20
3.2659
0
VERTEX
8
0
10
10.8679
20
4.7089
0
VERTEX
8
0
10
9.8625
20
5.0180
0
VERTEX
8
0
10
10.4358
20
5.6909
0
VERTEX
8
0
10
10.6496
20
5.6909
0
VERTEX
8
0
10
11.1213
20
5.0189
0
VERTEX
8
0
10
11.4636
20
5.2588
0
VERTEX
8
0
10
11.1617
20
5.6909
0
VERTEX
8
0
10
12.0000
20
5.6909
0
VERTEX
8
0
10
12.0000
20
6.2902
0
VERTEX
8
0
10
11.1483
20
6.2902
0
VERTEX
8
0
10
11.4636
20
6.7412
0
VERTEX
8
0
10
11.1213
20
6.9820
0
VERTEX
8
0
10
10.6370
20
6.2902
0
VERTEX
8
0
10
10.4519
20
6.2902
0
VERTEX
8
0
10
9.8598
20
6.9847
0
VERTEX
8
0
10
10.8661
20
7.2947
0
VERTEX
8
0
10
10.7377
20
8.7376
0
VERTEX
8
0
10
9.5526
20
9.5705
0
VERTEX
8
0
10
8.7817
20
8.8545
0
VERTEX
8
0
10
8.4861
20
9.6873
0
VERTEX
8
0
10
8.5921
20
9.8733
0
VERTEX
8
0
10
9.4106
20
9.9443
0
VERTEX
8
0
10
9.3738
20
10.3621
0
VERTEX
8
0
10
8.8482
20
10.3163
0
VERTEX
8
0
10
9.2677
20
11.0413
0
VERTEX
8
0
10
8.7475
20
11.3423
0
VERTEX
8
0
10
8.3226
20
10.6038
0
VERTEX
8
0
10
8.0898
20
11.1033
0
VERTEX
8
0
10
7.7107
20
10.9254
0
VERTEX
8
0
10
8.0674
20
10.1608
0
VERTEX
8
0
10
7.9739
20
10.0009
0
VERTEX
8
0
10
7.0773
20
9.8356
0
VERTEX
8
0
10
7.3127
20
10.8616
0
VERTEX
8
0
10
5.9982
20
11.4717
0
SEQEND
8
0
0
POLYLINE
8
Layer 1
66
1
0
VERTEX
8
0
10
5.4322
20
10.6083
0
VERTEX
8
0
10
5.2102
20
10.5382
0
VERTEX
8
0
10
5.5481
20
9.7368
0
VERTEX
8
0
10
5.6900
20
9.8922
0
VERTEX
8
0
10
5.6726
20
9.9032
0
VERTEX
8
0
10
5.6554
20
9.9147
0
VERTEX
8
0
10
5.6387
20
9.9269
0
VERTEX
8
0
10
5.6225
20
9.9396
0
VERTEX
8
0
10
5.6066
20
9.9528
0
VERTEX
8
0
10
5.5912
20
9.9666
0
VERTEX
8
0
10
5.5763
20
9.9809
0
VERTEX
8
0
10
5.5619
20
9.9957
0
VERTEX
8
0
10
5.5480
20
10.0110
0
VERTEX
8
0
10
5.5346
20
10.0267
0
VERTEX
8
0
10
5.5218
20
10.0429
0
VERTEX
8
0
10
5.5095
20
10.0595
0
VERTEX
8
0
10
5.4978
20
10.0765
0
VERTEX
8
0
10
5.4867
20
10.0939
0
VERTEX
8
0
10
5.4762
20
10.1117
0
VERTEX
8
0
10
5.4663
20
10.1298
0
VERTEX
8
0
10
5.4570
20
10.1483
0
VERTEX
8
0
10
5.4484
20
10.1670
0
VERTEX
8
0
10
5.4404
20
10.1861
0
VERTEX
8
0
10
5.4331
20
10.2054
0
VERTEX
8
0
10
5.4264
20
10.2250
0
VERTEX
8
0
10
5.4205
20
10.2447
0
VERTEX
8
0
10
5.4152
20
10.2647
0
VERTEX
8
0
10
5.4107
20
10.2848
0
VERTEX
8
0
10
5.4068
20
10.3051
0
VERTEX
8
0
10
5.4036
20
10.3255
0
VERTEX
8
0
10
5.4012
20
10.3460
0
VERTEX
8
0
10
5.3994
20
10.3666
0
VERTEX
8
0
10
5.3984
20
10.3872
0
VERTEX
8
0
10
5.3980
20
10.4079
0
VERTEX
8
0
10
5.3984
20
10.4283
0
VERTEX
8
0
10
5.3994
20
10.4487
0
VERTEX
8
0
10
5.4011
20
10.4691
0
VERTEX
8
0
10
5.4035
20
10.4894
0
VERTEX
8
0
10
5.4065
20
10.5095
0
VERTEX
8
0
10
5.4103
20
10.5296
0
VERTEX
8
0
10
5.4148
20
10.5495
0
VERTEX
8
0
10
5.4199
20
10.5693
0
VERTEX
8
0
10
5.4257
20
10.5889
0
VERTEX
8
0
10
5.4322
20
10.6083
0
SEQEND
8
0
0
POLYLINE
8
Layer 1
66
1
0
VERTEX
8
0
10
6.5678
20
10.6065
0
VERTEX
8
0
10
6.5742
20
10.5873
0
VERTEX
8
0
10
6.5800
20
10.5679
0
VERTEX
8
0
10
6.5851
20
10.5483
0
VERTEX
8
0
10
6.5895
20
10.5285
0
VERTEX
8
0
10
6.5933
20
10.5086
0
VERTEX
8
0
10
6.5964
20
10.4886
0
VERTEX
8
0
10
6.5989
20
10.4685
0
VERTEX
8
0
10
6.6006
20
10.4484
0
VERTEX
8
0
10
6.6016
20
10.4281
0
VERTEX
8
0
10
6.6020
20
10.4079
0
VERTEX
8
0
10
6.6016
20
10.3878
0
VERTEX
8
0
10
6.6007
20
10.3678
0
VERTEX
8
0
10
6.5990
20
10.3477
0
VERTEX
8
0
10
6.5967
20
10.3278
0
VERTEX
8
0
10
6.5937
20
10.3079
0
VERTEX
8
0
10
6.5900
20
10.2881
0
VERTEX
8
0
10
6.5857
20
10.2685
0
VERTEX
8
0
10
6.5807
20
10.2491
0
VERTEX
8
0
10
6.5751
20
10.2298
0
VERTEX
8
0
10
6.5688
20
10.2107
0
VERTEX
8
0
10
6.5619
20
10.1918
0
VERTEX
8
0
10
6.5543
20
10.1732
0
VERTEX
8
0
10
6.5462
20
10.1548
0
VERTEX
8
0
10
6.5374
20
10.1368
0
VERTEX
8
0
10
6.5280
20
10.1190
0
VERTEX
8
0
10
6.5180
20
10.1016
0
VERTEX
8
0
10
6.5075
20
10.0844
0
VERTEX
8
0
10
6.4964
20
10.0677
0
VERTEX
8
0
10
6.4847
20
10.0513
0
VERTEX
8
0
10
6.4725
20
10.0354
0
VERTEX
8
0
10
6.4598
20
10.0198
0
VERTEX
8
0
10
6.4466
20
10.0047
0
VERTEX
8
0
10
6.4328
20
9.9900
0
VERTEX
8
0
10
6.4186
20
9.9758
0
VERTEX
8
0
10
6.4040
20
9.9620
0
VERTEX
8
0
10
6.3889
20
9.9488
0
VERTEX
8
0
10
6.3734
20
9.9360
0
VERTEX
8
0
10
6.3574
20
9.9238
0
VERTEX
8
0
10
6.3411
20
9.9121
0
VERTEX
8
0
10
6.3244
20
9.9010
0
VERTEX
8
0
10
6.3073
20
9.8904
0
VERTEX
8
0
10
6.4483
20
9.7368
0
VERTEX
8
0
10
6.7862
20
10.5382
0
VERTEX
8
0
10
6.5678
20
10.6065
0
SEQEND
8
0
0
POLYLINE
8
Layer 1
66
1
0
VERTEX
8
0
10
6.0000
20
10.5903
0
VERTEX
8
0
10
5.9796
20
10.5892
0
VERTEX
8
0
10
5.9594
20
10.5858
0
VERTEX
8
0
10
5.9397
20
10.5801
0
VERTEX
8
0
10
5.9208
20
10.5723
0
VERTEX
8
0
10
5.9029
20
10.5624
0
VERTEX
8
0
10
5.8863
20
10.5506
0
VERTEX
8
0
10
5.8710
20
10.5369
0
VERTEX
8
0
10
5.8574
20
10.5217
0
VERTEX
8
0
10
5.8455
20
10.5050
0
VERTEX
8
0
10
5.8356
20
10.4871
0
VERTEX
8
0
10
5.8278
20
10.4682
0
VERTEX
8
0
10
5.8221
20
10.4485
0
VERTEX
8
0
10
5.8187
20
10.4283
0
VERTEX
8
0
10
5.8176
20
10.4079
0
VERTEX
8
0
10
5.8187
20
10.3878
0
VERTEX
8
0
10
5.8220
20
10.3679
0
VERTEX
8
0
10
5.8275
20
10.3486
0
VERTEX
8
0
10
5.8350
20
10.3299
0
VERTEX
8
0
10
5.8447
20
10.3122
0
VERTEX
8
0
10
5.8562
20
10.2957
0
VERTEX
8
0
10
5.8694
20
10.2805
0
VERTEX
8
0
10
5.8842
20
10.2669
0
VERTEX
8
0
10
5.9005
20
10.2549
0
VERTEX
8
0
10
5.9179
20
10.2449
0
VERTEX
8
0
10
5.9364
20
10.2368
0
VERTEX
8
0
10
5.9556
20
10.2309
0
VERTEX
8
0
10
5.9754
20
10.2271
0
VERTEX
8
0
10
5.9955
20
10.2255
0
VERTEX
8
0
10
5.9973
20
10.2273
0
VERTEX
8
0
10
6.0000
20
10.2255
0
VERTEX
8
0
10
6.0204
20
10.2266
0
VERTEX
8
0
10
6.0406
20
10.2300
0
VERTEX
8
0
10
6.0603
20
10.2357
0
VERTEX
8
0
10
6.0792
20
10.2435
0
VERTEX
8
0
10
6.0971
20
10.2534
0
VERTEX
8
0
10
6.1137
20
10.2653
0
VERTEX
8
0
10
6.1290
20
10.2789
0
VERTEX
8
0
10
6.1426
20
10.2941
0
VERTEX
8
0
10
6.1545
20
10.3108
0
VERTEX
8
0
10
6.1644
20
10.3287
0
VERTEX
8
0
10
6.1722
20
10.3476
0
VERTEX
8
0
10
6.1779
20
10.3673
0
VERTEX
8
0
10
6.1813
20
10.3875
0
VERTEX
8
0
10
6.1824
20
10.4079
0
VERTEX
8
0
10
6.1813
20
10.4283
0
VERTEX
8
0
10
6.1779
20
10.4485
0
VERTEX
8
0
10
6.1722
20
10.4682
0
VERTEX
8
0
10
6.1644
20
10.4871
0
VERTEX
8
0
10
6.1545
20
10.5050
0
VERTEX
8
0
10
6.1426
20
10.5216
0
VERTEX
8
0
10
6.1290
20
10.5369
0
VERTEX
8
0
10
6.1138
20
10.5505
0
VERTEX
8
0
10
6.0971
20
10.5624
0
VERTEX
8
0
10
6.0792
20
10.5723
0
VERTEX
8
0
10
6.0603
20
10.5801
0
VERTEX
8
0
10
6.0406
20
10.5858
0
VERTEX
8
0
10
6.0204
20
10.5892
0
VERTEX
8
0
10
6.0000
20
10.5903
0
SEQEND
8
0
0
POLYLINE
8
Layer 1
66
1
0
VERTEX
8
0
10
4.9704
20
9.3082
0
VERTEX
8
0
10
5.7475
20
8.6316
0
VERTEX
8
0
10
5.7685
20
8.6335
0
VERTEX
8
0
10
5.7895
20
8.6353
0
VERTEX
8
0
10
5.8105
20
8.6368
0
VERTEX
8
0
10
5.8315
20
8.6382
0
VERTEX
8
0
10
5.8526
20
8.6394
0
VERTEX
8
0
10
5.8736
20
8.6404
0
VERTEX
8
0
10
5.8947
20
8.6413
0
VERTEX
8
0
10
5.9157
20
8.6420
0
VERTEX
8
0
10
5.9368
20
8.6426
0
VERTEX
8
0
10
5.9579
20
8.6430
0
VERTEX
8
0
10
5.9789
20
8.6432
0
VERTEX
8
0
10
6.0000
20
8.6433
0
VERTEX
8
0
10
6.0208
20
8.6432
0
VERTEX
8
0
10
6.0415
20
8.6430
0
VERTEX
8
0
10
6.0623
20
8.6426
0
VERTEX
8
0
10
6.0831
20
8.6420
0
VERTEX
8
0
10
6.1038
20
8.6413
0
VERTEX
8
0
10
6.1246
20
8.6404
0
VERTEX
8
0
10
6.1453
20
8.6393
0
VERTEX
8
0
10
6.1661
20
8.6381
0
VERTEX
8
0
10
6.1868
20
8.6367
0
VERTEX
8
0
10
6.2075
20
8.6352
0
VERTEX
8
0
10
6.2282
20
8.6335
0
VERTEX
8
0
10
6.2489
20
8.6316
0
VERTEX
8
0
10
7.0270
20
9.3082
0
VERTEX
8
0
10
5.9982
20
8.9820
0
VERTEX
8
0
10
4.9704
20
9.3082
0
SEQEND
8
0
0
POLYLINE
8
Layer 1
66
1
0
VERTEX
8
0
10
4.2228
20
9.0782
0
VERTEX
8
0
10
4.3037
20
8.0261
0
VERTEX
8
0
10
4.3193
20
8.0391
0
VERTEX
8
0
10
4.3351
20
8.0520
0
VERTEX
8
0
10
4.3509
20
8.0647
0
VERTEX
8
0
10
4.3668
20
8.0774
0
VERTEX
8
0
10
4.3828
20
8.0899
0
VERTEX
8
0
10
4.3990
20
8.1023
0
VERTEX
8
0
10
4.4152
20
8.1146
0
VERTEX
8
0
10
4.4315
20
8.1267
0
VERTEX
8
0
10
4.4479
20
8.1387
0
VERTEX
8
0
10
4.4644
20
8.1506
0
VERTEX
8
0
10
4.4809
20
8.1624
0
VERTEX
8
0
10
4.4976
20
8.1741
0
VERTEX
8
0
10
4.5144
20
8.1856
0
VERTEX
8
0
10
4.5312
20
8.1970
0
VERTEX
8
0
10
4.5482
20
8.2082
0
VERTEX
8
0
10
4.5652
20
8.2194
0
VERTEX
8
0
10
4.5823
20
8.2304
0
VERTEX
8
0
10
4.5995
20
8.2412
0
VERTEX
8
0
10
4.6168
20
8.2520
0
VERTEX
8
0
10
4.6341
20
8.2626
0
VERTEX
8
0
10
4.6515
20
8.2730
0
VERTEX
8
0
10
4.6691
20
8.2834
0
VERTEX
8
0
10
4.6867
20
8.2936
0
VERTEX
8
0
10
4.7043
20
8.3036
0
VERTEX
8
0
10
4.7221
20
8.3136
0
VERTEX
8
0
10
4.7399
20
8.3234
0
VERTEX
8
0
10
4.7578
20
8.3330
0
VERTEX
8
0
10
4.7758
20
8.3425
0
VERTEX
8
0
10
4.7938
20
8.3519
0
VERTEX
8
0
10
4.8119
20
8.3611
0
VERTEX
8
0
10
4.8301
20
8.3702
0
VERTEX
8
0
10
4.8484
20
8.3792
0
VERTEX
8
0
10
4.8667
20
8.3880
0
VERTEX
8
0
10
4.8851
20
8.3967
0
VERTEX
8
0
10
4.9036
20
8.4052
0
VERTEX
8
0
10
4.9221
20
8.4136
0
VERTEX
8
0
10
4.9407
20
8.4218
0
VERTEX
8
0
10
4.9594
20
8.4299
0
VERTEX
8
0
10
4.9781
20
8.4379
0
VERTEX
8
0
10
4.9969
20
8.4457
0
VERTEX
8
0
10
5.0157
20
8.4533
0
VERTEX
8
0
10
5.0346
20
8.4608
0
VERTEX
8
0
10
5.0536
20
8.4682
0
VERTEX
8
0
10
5.0726
20
8.4754
0
VERTEX
8
0
10
5.0916
20
8.4825
0
VERTEX
8
0
10
4.2228
20
9.0782
0
SEQEND
8
0
0
POLYLINE
8
Layer 1
66
1
0
VERTEX
8
0
10
7.7763
20
9.0782
0
VERTEX
8
0
10
6.9075
20
8.4825
0
VERTEX
8
0
10
6.9265
20
8.4754
0
VERTEX
8
0
10
6.9456
20
8.4682
0
VERTEX
8
0
10
6.9646
20
8.4608
0
VERTEX
8
0
10
6.9835
20
8.4533
0
VERTEX
8
0
10
7.0023
20
8.4457
0
VERTEX
8
0
10
7.0211
20
8.4379
0
VERTEX
8
0
10
7.0399
20
8.4299
0
VERTEX
8
0
10
7.0585
20
8.4218
0
VERTEX
8
0
10
7.0772
20
8.4136
0
VERTEX
8
0
10
7.0957
20
8.4052
0
VERTEX
8
0
10
7.1142
20
8.3967
0
VERTEX
8
0
10
7.1326
20
8.3880
0
VERTEX
8
0
10
7.1510
20
8.3792
0
VERTEX
8
0
10
7.1692
20
8.3703
0
VERTEX
8
0
10
7.1875
20
8.3612
0
VERTEX
8
0
10
7.2056
20
8.3519
0
VERTEX
8
0
10
7.2237
20
8.3426
0
VERTEX
8
0
10
7.2417
20
8.3331
0
VERTEX
8
0
10
7.2596
20
8.3234
0
VERTEX
8
0
10
7.2774
20
8.3136
0
VERTEX
8
0
10
7.2952
20
8.3037
0
VERTEX
8
0
10
7.3129
20
8.2936
0
VERTEX
8
0
10
7.3305
20
8.2834
0
VERTEX
8
0
10
7.3481
20
8.2731
0
VERTEX
8
0
10
7.3655
20
8.2626
0
VERTEX
8
0
10
7.3829
20
8.2520
0
VERTEX
8
0
10
7.4002
20
8.2413
0
VERTEX
8
0
10
7.4174
20
8.2304
0
VERTEX
8
0
10
7.4345
20
8.2194
0
VERTEX
8
0
10
7.4516
20
8.2083
0
VERTEX
8
0
10
7.4685
20
8.1971
0
VERTEX
8
0
10
7.4854
20
8.1857
0
VERTEX
8
0
10
7.5022
20
8.1741
0
VERTEX
8
0
10
7.5189
20
8.1625
0
VERTEX
8
0
10
7.5355
20
8.1507
0
VERTEX
8
0
10
7.5520
20
8.1388
0
VERTEX
8
0
10
7.5684
20
8.1268
0
VERTEX
8
0
10
7.5847
20
8.1146
0
VERTEX
8
0
10
7.6009
20
8.1023
0
VERTEX
8
0
10
7.6171
20
8.0899
0
VERTEX
8
0
10
7.6331
20
8.0774
0
VERTEX
8
0
10
7.6491
20
8.0647
0
VERTEX
8
0
10
7.6649
20
8.0520
0
VERTEX
8
0
10
7.6807
20
8.0391
0
VERTEX
8
0
10
7.6963
20
8.0261
0
VERTEX
8
0
10
7.7763
20
9.0782
0
SEQEND
8
0
0
POLYLINE
8
Layer 1
66
1
0
VERTEX
8
0
10
9.5346
20
8.9524
0
VERTEX
8
0
10
9.0099
20
8.2606
0
VERTEX
8
0
10
9.6604
20
8.1150
0
VERTEX
8
0
10
9.4609
20
7.4798
0
VERTEX
8
0
10
10.3234
20
7.5885
0
VERTEX
8
0
10
10.1438
20
8.3944
0
VERTEX
8
0
10
9.5346
20
8.9524
0
SEQEND
8
0
0
POLYLINE
8
Layer 1
66
1
0
VERTEX
8
0
10
2.4627
20
8.9497
0
VERTEX
8
0
10
1.8544
20
8.3917
0
VERTEX
8
0
10
1.6747
20
7.5849
0
VERTEX
8
0
10
2.5373
20
7.4771
0
VERTEX
8
0
10
2.3378
20
8.1114
0
VERTEX
8
0
10
2.9874
20
8.2570
0
VERTEX
8
0
10
2.4627
20
8.9497
0
SEQEND
8
0
0
POLYLINE
8
Layer 1
66
1
0
VERTEX
8
0
10
8.3495
20
8.5463
0
VERTEX
8
0
10
8.1527
20
7.5346
0
VERTEX
8
0
10
8.1644
20
7.5182
0
VERTEX
8
0
10
8.1759
20
7.5017
0
VERTEX
8
0
10
8.1872
20
7.4851
0
VERTEX
8
0
10
8.1984
20
7.4684
0
VERTEX
8
0
10
8.2095
20
7.4516
0
VERTEX
8
0
10
8.2205
20
7.4348
0
VERTEX
8
0
10
8.2313
20
7.4178
0
VERTEX
8
0
10
8.2420
20
7.4008
0
VERTEX
8
0
10
8.2525
20
7.3837
0
VERTEX
8
0
10
8.2629
20
7.3665
0
VERTEX
8
0
10
8.2732
20
7.3492
0
VERTEX
8
0
10
8.2834
20
7.3318
0
VERTEX
8
0
10
8.2934
20
7.3144
0
VERTEX
8
0
10
8.3033
20
7.2969
0
VERTEX
8
0
10
8.3130
20
7.2793
0
VERTEX
8
0
10
8.3227
20
7.2617
0
VERTEX
8
0
10
8.3322
20
7.2439
0
VERTEX
8
0
10
8.3415
20
7.2261
0
VERTEX
8
0
10
8.3508
20
7.2083
0
VERTEX
8
0
10
8.3599
20
7.1903
0
VERTEX
8
0
10
8.3688
20
7.1723
0
VERTEX
8
0
10
8.3777
20
7.1543
0
VERTEX
8
0
10
8.3864
20
7.1362
0
VERTEX
8
0
10
8.3950
20
7.1180
0
VERTEX
8
0
10
8.4034
20
7.0997
0
VERTEX
8
0
10
9.3774
20
6.7646
0
VERTEX
8
0
10
8.5813
20
7.4924
0
VERTEX
8
0
10
8.3495
20
8.5463
0
SEQEND
8
0
0
POLYLINE
8
Layer 1
66
1
0
VERTEX
8
0
10
3.6487
20
8.5427
0
VERTEX
8
0
10
3.4160
20
7.4897
0
VERTEX
8
0
10
2.6199
20
6.7619
0
VERTEX
8
0
10
3.5948
20
7.0970
0
VERTEX
8
0
10
3.6032
20
7.1153
0
VERTEX
8
0
10
3.6118
20
7.1334
0
VERTEX
8
0
10
3.6205
20
7.1515
0
VERTEX
8
0
10
3.6293
20
7.1695
0
VERTEX
8
0
10
3.6383
20
7.1875
0
VERTEX
8
0
10
3.6474
20
7.2054
0
VERTEX
8
0
10
3.6566
20
7.2232
0
VERTEX
8
0
10
3.6660
20
7.2410
0
VERTEX
8
0
10
3.6755
20
7.2587
0
VERTEX
8
0
10
3.6851
20
7.2763
0
VERTEX
8
0
10
3.6949
20
7.2938
0
VERTEX
8
0
10
3.7048
20
7.3113
0
VERTEX
8
0
10
3.7149
20
7.3286
0
VERTEX
8
0
10
3.7250
20
7.3460
0
VERTEX
8
0
10
3.7354
20
7.3632
0
VERTEX
8
0
10
3.7458
20
7.3803
0
VERTEX
8
0
10
3.7564
20
7.3974
0
VERTEX
8
0
10
3.7670
20
7.4144
0
VERTEX
8
0
10
3.7779
20
7.4313
0
VERTEX
8
0
10
3.7888
20
7.4481
0
VERTEX
8
0
10
3.7999
20
7.4649
0
VERTEX
8
0
10
3.8111
20
7.4815
0
VERTEX
8
0
10
3.8224
20
7.4981
0
VERTEX
8
0
10
3.8339
20
7.5146
0
VERTEX
8
0
10
3.8455
20
7.5310
0
VERTEX
8
0
10
3.6487
20
8.5427
0
SEQEND
8
0
0
POLYLINE
8
Layer 1
66
1
0
VERTEX
8
0
10
6.0000
20
7.9713
0
VERTEX
8
0
10
5.9795
20
7.9711
0
VERTEX
8
0
10
5.9590
20
7.9708
0
VERTEX
8
0
10
5.9385
20
7.9703
0
VERTEX
8
0
10
5.9180
20
7.9696
0
VERTEX
8
0
10
5.8975
20
7.9686
0
VERTEX
8
0
10
5.8770
20
7.9674
0
VERTEX
8
0
10
5.8566
20
7.9661
0
VERTEX
8
0
10
5.8361
20
7.9645
0
VERTEX
8
0
10
5.8157
20
7.9627
0
VERTEX
8
0
10
5.7953
20
7.9607
0
VERTEX
8
0
10
5.7749
20
7.9584
0
VERTEX
8
0
10
5.7545
20
7.9560
0
VERTEX
8
0
10
5.7342
20
7.9533
0
VERTEX
8
0
10
5.7139
20
7.9505
0
VERTEX
8
0
10
5.6936
20
7.9474
0
VERTEX
8
0
10
5.6734
20
7.9441
0
VERTEX
8
0
10
5.6531
20
7.9406
0
VERTEX
8
0
10
5.6330
20
7.9369
0
VERTEX
8
0
10
5.6128
20
7.9330
0
VERTEX
8
0
10
5.5927
20
7.9288
0
VERTEX
8
0
10
5.5727
20
7.9245
0
VERTEX
8
0
10
5.5527
20
7.9199
0
VERTEX
8
0
10
5.5328
20
7.9152
0
VERTEX
8
0
10
5.5129
20
7.9102
0
VERTEX
8
0
10
5.4930
20
7.9051
0
VERTEX
8
0
10
5.4732
20
7.8997
0
VERTEX
8
0
10
5.4535
20
7.8941
0
VERTEX
8
0
10
5.4338
20
7.8883
0
VERTEX
8
0
10
5.4142
20
7.8823
0
VERTEX
8
0
10
5.9982
20
7.0961
0
VERTEX
8
0
10
6.5831
20
7.8832
0
VERTEX
8
0
10
6.5636
20
7.8891
0
VERTEX
8
0
10
6.5440
20
7.8949
0
VERTEX
8
0
10
6.5243
20
7.9004
0
VERTEX
8
0
10
6.5046
20
7.9057
0
VERTEX
8
0
10
6.4849
20
7.9109
0
VERTEX
8
0
10
6.4651
20
7.9158
0
VERTEX
8
0
10
6.4452
20
7.9205
0
VERTEX
8
0
10
6.4253
20
7.9250
0
VERTEX
8
0
10
6.4054
20
7.9293
0
VERTEX
8
0
10
6.3854
20
7.9334
0
VERTEX
8
0
10
6.3653
20
7.9373
0
VERTEX
8
0
10
6.3452
20
7.9409
0
VERTEX
8
0
10
6.3251
20
7.9444
0
VERTEX
8
0
10
6.3050
20
7.9476
0
VERTEX
8
0
10
6.2848
20
7.9507
0
VERTEX
8
0
10
6.2646
20
7.9535
0
VERTEX
8
0
10
6.2443
20
7.9562
0
VERTEX
8
0
10
6.2241
20
7.9586
0
VERTEX
8
0
10
6.2038
20
7.9608
0
VERTEX
8
0
10
6.1834
20
7.9628
0
VERTEX
8
0
10
6.1631
20
7.9645
0
VERTEX
8
0
10
6.1428
20
7.9661
0
VERTEX
8
0
10
6.1224
20
7.9675
0
VERTEX
8
0
10
6.1020
20
7.9686
0
VERTEX
8
0
10
6.0816
20
7.9696
0
VERTEX
8
0
10
6.0612
20
7.9703
0
VERTEX
8
0
10
6.0408
20
7.9708
0
VERTEX
8
0
10
6.0204
20
7.9711
0
VERTEX
8
0
10
6.0000
20
7.9713
0
SEQEND
8
0
0
POLYLINE
8
Layer 1
66
1
0
VERTEX
8
0
10
7.3369
20
7.4474
0
VERTEX
8
0
10
6.9479
20
6.5499
0
VERTEX
8
0
10
7.9218
20
6.4367
0
VERTEX
8
0
10
7.9173
20
6.4562
0
VERTEX
8
0
10
7.9125
20
6.4758
0
VERTEX
8
0
10
7.9076
20
6.4952
0
VERTEX
8
0
10
7.9025
20
6.5147
0
VERTEX
8
0
10
7.8971
20
6.5340
0
VERTEX
8
0
10
7.8916
20
6.5534
0
VERTEX
8
0
10
7.8859
20
6.5726
0
VERTEX
8
0
10
7.8799
20
6.5918
0
VERTEX
8
0
10
7.8738
20
6.6110
0
VERTEX
8
0
10
7.8675
20
6.6300
0
VERTEX
8
0
10
7.8609
20
6.6490
0
VERTEX
8
0
10
7.8542
20
6.6680
0
VERTEX
8
0
10
7.8473
20
6.6868
0
VERTEX
8
0
10
7.8402
20
6.7056
0
VERTEX
8
0
10
7.8329
20
6.7244
0
VERTEX
8
0
10
7.8254
20
6.7430
0
VERTEX
8
0
10
7.8177
20
6.7616
0
VERTEX
8
0
10
7.8099
20
6.7801
0
VERTEX
8
0
10
7.8018
20
6.7985
0
VERTEX
8
0
10
7.7936
20
6.8168
0
VERTEX
8
0
10
7.7851
20
6.8351
0
VERTEX
8
0
10
7.7765
20
6.8532
0
VERTEX
8
0
10
7.7677
20
6.8713
0
VERTEX
8
0
10
7.7587
20
6.8892
0
VERTEX
8
0
10
7.7495
20
6.9071
0
VERTEX
8
0
10
7.7402
20
6.9249
0
VERTEX
8
0
10
7.7307
20
6.9426
0
VERTEX
8
0
10
7.7209
20
6.9602
0
VERTEX
8
0
10
7.7110
20
6.9777
0
VERTEX
8
0
10
7.7010
20
6.9951
0
VERTEX
8
0
10
7.6907
20
7.0123
0
VERTEX
8
0
10
7.6803
20
7.0295
0
VERTEX
8
0
10
7.6697
20
7.0466
0
VERTEX
8
0
10
7.6589
20
7.0636
0
VERTEX
8
0
10
7.6480
20
7.0804
0
VERTEX
8
0
10
7.6369
20
7.0972
0
VERTEX
8
0
10
7.6256
20
7.1138
0
VERTEX
8
0
10
7.6141
20
7.1303
0
VERTEX
8
0
10
7.6025
20
7.1467
0
VERTEX
8
0
10
7.5907
20
7.1630
0
VERTEX
8
0
10
7.5787
20
7.1791
0
VERTEX
8
0
10
7.5666
20
7.1951
0
VERTEX
8
0
10
7.5544
20
7.2110
0
VERTEX
8
0
10
7.5419
20
7.2268
0
VERTEX
8
0
10
7.5293
20
7.2425
0
VERTEX
8
0
10
7.5166
20
7.2580
0
VERTEX
8
0
10
7.5036
20
7.2734
0
VERTEX
8
0
10
7.4906
20
7.2887
0
VERTEX
8
0
10
7.4773
20
7.3038
0
VERTEX
8
0
10
7.4640
20
7.3188
0
VERTEX
8
0
10
7.4504
20
7.3337
0
VERTEX
8
0
10
7.4368
20
7.3484
0
VERTEX
8
0
10
7.4229
20
7.3630
0
VERTEX
8
0
10
7.4090
20
7.3774
0
VERTEX
8
0
10
7.3948
20
7.3917
0
VERTEX
8
0
10
7.3806
20
7.4059
0
VERTEX
8
0
10
7.3662
20
7.4199
0
VERTEX
8
0
10
7.3516
20
7.4337
0
VERTEX
8
0
10
7.3369
20
7.4474
0
SEQEND
8
0
0
POLYLINE
8
Layer 1
66
1
0
VERTEX
8
0
10
4.6604
20
7.4447
0
VERTEX
8
0
10
4.6457
20
7.4310
0
VERTEX
8
0
10
4.6312
20
7.4171
0
VERTEX
8
0
10
4.6169
20
7.4031
0
VERTEX
8
0
10
4.6026
20
7.3889
0
VERTEX
8
0
10
4.5885
20
7.3746
0
VERTEX
8
0
10
4.5746
20
7.3602
0
VERTEX
8
0
10
4.5608
20
7.3456
0
VERTEX
8
0
10
4.5472
20
7.3309
0
VERTEX
8
0
10
4.5337
20
7.3160
0
VERTEX
8
0
10
4.5203
20
7.3010
0
VERTEX
8
0
10
4.5071
20
7.2858
0
VERTEX
8
0
10
4.4941
20
7.2706
0
VERTEX
8
0
10
4.4812
20
7.2552
0
VERTEX
8
0
10
4.4685
20
7.2396
0
VERTEX
8
0
10
4.4559
20
7.2240
0
VERTEX
8
0
10
4.4435
20
7.2082
0
VERTEX
8
0
10
4.4313
20
7.1923
0
VERTEX
8
0
10
4.4192
20
7.1762
0
VERTEX
8
0
10
4.4073
20
7.1601
0
VERTEX
8
0
10
4.3955
20
7.1438
0
VERTEX
8
0
10
4.3839
20
7.1274
0
VERTEX
8
0
10
4.3725
20
7.1109
0
VERTEX
8
0
10
4.3612
20
7.0943
0
VERTEX
8
0
10
4.3501
20
7.0775
0
VERTEX
8
0
10
4.3392
20
7.0607
0
VERTEX
8
0
10
4.3285
20
7.0437
0
VERTEX
8
0
10
4.3179
20
7.0267
0
VERTEX
8
0
10
4.3075
20
7.0095
0
VERTEX
8
0
10
4.2973
20
6.9922
0
VERTEX
8
0
10
4.2872
20
6.9748
0
VERTEX
8
0
10
4.2774
20
6.9573
0
VERTEX
8
0
10
4.2677
20
6.9397
0
VERTEX
8
0
10
4.2582
20
6.9220
0
VERTEX
8
0
10
4.2488
20
6.9043
0
VERTEX
8
0
10
4.2397
20
6.8864
0
VERTEX
8
0
10
4.2307
20
6.8684
0
VERTEX
8
0
10
4.2220
20
6.8504
0
VERTEX
8
0
10
4.2134
20
6.8322
0
VERTEX
8
0
10
4.2050
20
6.8140
0
VERTEX
8
0
10
4.1967
20
6.7957
0
VERTEX
8
0
10
4.1887
20
6.7773
0
VERTEX
8
0
10
4.1809
20
6.7588
0
VERTEX
8
0
10
4.1732
20
6.7402
0
VERTEX
8
0
10
4.1658
20
6.7216
0
VERTEX
8
0
10
4.1585
20
6.7028
0
VERTEX
8
0
10
4.1514
20
6.6841
0
VERTEX
8
0
10
4.1445
20
6.6652
0
VERTEX
8
0
10
4.1378
20
6.6463
0
VERTEX
8
0
10
4.1313
20
6.6273
0
VERTEX
8
0
10
4.1250
20
6.6082
0
VERTEX
8
0
10
4.1189
20
6.5891
0
VERTEX
8
0
10
4.1130
20
6.5699
0
VERTEX
8
0
10
4.1073
20
6.5506
0
VERTEX
8
0
10
4.1018
20
6.5313
0
VERTEX
8
0
10
4.0965
20
6.5119
0
VERTEX
8
0
10
4.0914
20
6.4925
0
VERTEX
8
0
10
4.0865
20
6.4731
0
VERTEX
8
0
10
4.0818
20
6.4535
0
VERTEX
8
0
10
4.0773
20
6.4340
0
VERTEX
8
0
10
5.0494
20
6.5463
0
VERTEX
8
0
10
4.6604
20
7.4447
0
SEQEND
8
0
0
POLYLINE
8
Layer 1
66
1
0
VERTEX
8
0
10
3.3962
20
6.4555
0
VERTEX
8
0
10
2.4456
20
6.0000
0
VERTEX
8
0
10
3.3962
20
5.5445
0
VERTEX
8
0
10
3.3927
20
5.5650
0
VERTEX
8
0
10
3.3894
20
5.5855
0
VERTEX
8
0
10
3.3862
20
5.6061
0
VERTEX
8
0
10
3.3832
20
5.6267
0
VERTEX
8
0
10
3.3804
20
5.6473
0
VERTEX
8
0
10
3.3777
20
5.6679
0
VERTEX
8
0
10
3.3752
20
5.6886
0
VERTEX
8
0
10
3.3728
20
5.7093
0
VERTEX
8
0
10
3.3706
20
5.7300
0
VERTEX
8
0
10
3.3685
20
5.7507
0
VERTEX
8
0
10
3.3667
20
5.7714
0
VERTEX
8
0
10
3.3649
20
5.7921
0
VERTEX
8
0
10
3.3634
20
5.8129
0
VERTEX
8
0
10
3.3620
20
5.8336
0
VERTEX
8
0
10
3.3607
20
5.8544
0
VERTEX
8
0
10
3.3597
20
5.8752
0
VERTEX
8
0
10
3.3588
20
5.8960
0
VERTEX
8
0
10
3.3580
20
5.9168
0
VERTEX
8
0
10
3.3574
20
5.9376
0
VERTEX
8
0
10
3.3570
20
5.9584
0
VERTEX
8
0
10
3.3568
20
5.9792
0
VERTEX
8
0
10
3.3567
20
6.0000
0
VERTEX
8
0
10
3.3568
20
6.0208
0
VERTEX
8
0
10
3.3570
20
6.0416
0
VERTEX
8
0
10
3.3574
20
6.0624
0
VERTEX
8
0
10
3.3580
20
6.0832
0
VERTEX
8
0
10
3.3588
20
6.1040
0
VERTEX
8
0
10
3.3597
20
6.1248
0
VERTEX
8
0
10
3.3607
20
6.1456
0
VERTEX
8
0
10
3.3620
20
6.1664
0
VERTEX
8
0
10
3.3634
20
6.1871
0
VERTEX
8
0
10
3.3649
20
6.2079
0
VERTEX
8
0
10
3.3667
20
6.2286
0
VERTEX
8
0
10
3.3685
20
6.2493
0
VERTEX
8
0
10
3.3706
20
6.2701
0
VERTEX
8
0
10
3.3728
20
6.2907
0
VERTEX
8
0
10
3.3752
20
6.3114
0
VERTEX
8
0
10
3.3777
20
6.3321
0
VERTEX
8
0
10
3.3804
20
6.3527
0
VERTEX
8
0
10
3.3832
20
6.3733
0
VERTEX
8
0
10
3.3862
20
6.3939
0
VERTEX
8
0
10
3.3894
20
6.4145
0
VERTEX
8
0
10
3.3927
20
6.4350
0
VERTEX
8
0
10
3.3962
20
6.4555
0
SEQEND
8
0
0
POLYLINE
8
Layer 1
66
1
0
VERTEX
8
0
10
8.6038
20
6.4555
0
VERTEX
8
0
10
8.6073
20
6.4350
0
VERTEX
8
0
10
8.6106
20
6.4145
0
VERTEX
8
0
10
8.6138
20
6.3939
0
VERTEX
8
0
10
8.6168
20
6.3733
0
VERTEX
8
0
10
8.6196
20
6.3527
0
VERTEX
8
0
10
8.6223
20
6.3321
0
VERTEX
8
0
10
8.6248
20
6.3114
0
VERTEX
8
0
10
8.6272
20
6.2907
0
VERTEX
8
0
10
8.6294
20
6.2700
0
VERTEX
8
0
10
8.6315
20
6.2493
0
VERTEX
8
0
10
8.6333
20
6.2286
0
VERTEX
8
0
10
8.6351
20
6.2079
0
VERTEX
8
0
10
8.6366
20
6.1871
0
VERTEX
8
0
10
8.6380
20
6.1664
0
VERTEX
8
0
10
8.6393
20
6.1456
0
VERTEX
8
0
10
8.6403
20
6.1248
0
VERTEX
8
0
10
8.6412
20
6.1040
0
VERTEX
8
0
10
8.6420
20
6.0832
0
VERTEX
8
0
10
8.6426
20
6.0624
0
VERTEX
8
0
10
8.6430
20
6.0416
0
VERTEX
8
0
10
8.6432
20
6.0208
0
VERTEX
8
0
10
8.6433
20
6.0000
0
VERTEX
8
0
10
8.6432
20
5.9792
0
VERTEX
8
0
10
8.6430
20
5.9584
0
VERTEX
8
0
10
8.6426
20
5.9376
0
VERTEX
8
0
10
8.6420
20
5.9168
0
VERTEX
8
0
10
8.6412
20
5.8960
0
VERTEX
8
0
10
8.6403
20
5.8752
0
VERTEX
8
0
10
8.6393
20
5.8544
0
VERTEX
8
0
10
8.6380
20
5.8336
0
VERTEX
8
0
10
8.6366
20
5.8129
0
VERTEX
8
0
10
8.6351
20
5.7921
0
VERTEX
8
0
10
8.6333
20
5.7714
0
VERTEX
8
0
10
8.6315
20
5.7507
0
VERTEX
8
0
10
8.6294
20
5.7299
0
VERTEX
8
0
10
8.6272
20
5.7093
0
VERTEX
8
0
10
8.6248
20
5.6886
0
VERTEX
8
0
10
8.6223
20
5.6679
0
VERTEX
8
0
10
8.6196
20
5.6473
0
VERTEX
8
0
10
8.6168
20
5.6267
0
VERTEX
8
0
10
8.6138
20
5.6061
0
VERTEX
8
0
10
8.6106
20
5.5855
0
VERTEX
8
0
10
8.6073
20
5.5650
0
VERTEX
8
0
10
8.6038
20
5.5445
0
VERTEX
8
0
10
9.5535
20
6.0000
0
VERTEX
8
0
10
8.6038
20
6.4555
0
SEQEND
8
0
0
POLYLINE
8
Layer 1
66
1
0
VERTEX
8
0
10
7.9218
20
5.5651
0
VERTEX
8
0
10
6.9497
20
5.4537
0
VERTEX
8
0
10
7.3396
20
4.5544
0
VERTEX
8
0
10
7.3543
20
4.5681
0
VERTEX
8
0
10
7.3688
20
4.5819
0
VERTEX
8
0
10
7.3831
20
4.5960
0
VERTEX
8
0
10
7.3974
20
4.6101
0
VERTEX
8
0
10
7.4114
20
4.6244
0
VERTEX
8
0
10
7.4254
20
4.6389
0
VERTEX
8
0
10
7.4391
20
4.6535
0
VERTEX
8
0
10
7.4528
20
4.6682
0
VERTEX
8
0
10
7.4663
20
4.6831
0
VERTEX
8
0
10
7.4796
20
4.6981
0
VERTEX
8
0
10
7.4928
20
4.7132
0
VERTEX
8
0
10
7.5058
20
4.7285
0
VERTEX
8
0
10
7.5187
20
4.7439
0
VERTEX
8
0
10
7.5314
20
4.7594
0
VERTEX
8
0
10
7.5439
20
4.7751
0
VERTEX
8
0
10
7.5563
20
4.7909
0
VERTEX
8
0
10
7.5685
20
4.8068
0
VERTEX
8
0
10
7.5806
20
4.8229
0
VERTEX
8
0
10
7.5925
20
4.8390
0
VERTEX
8
0
10
7.6042
20
4.8553
0
VERTEX
8
0
10
7.6158
20
4.8717
0
VERTEX
8
0
10
7.6272
20
4.8882
0
VERTEX
8
0
10
7.6384
20
4.9049
0
VERTEX
8
0
10
7.6495
20
4.9216
0
VERTEX
8
0
10
7.6604
20
4.9385
0
VERTEX
8
0
10
7.6711
20
4.9554
0
VERTEX
8
0
10
7.6817
20
4.9725
0
VERTEX
8
0
10
7.6920
20
4.9897
0
VERTEX
8
0
10
7.7022
20
5.0070
0
VERTEX
8
0
10
7.7123
20
5.0244
0
VERTEX
8
0
10
7.7221
20
5.0419
0
VERTEX
8
0
10
7.7318
20
5.0594
0
VERTEX
8
0
10
7.7412
20
5.0771
0
VERTEX
8
0
10
7.7506
20
5.0949
0
VERTEX
8
0
10
7.7597
20
5.1128
0
VERTEX
8
0
10
7.7686
20
5.1308
0
VERTEX
8
0
10
7.7774
20
5.1488
0
VERTEX
8
0
10
7.7859
20
5.1670
0
VERTEX
8
0
10
7.7943
20
5.1852
0
VERTEX
8
0
10
7.8025
20
5.2036
0
VERTEX
8
0
10
7.8105
20
5.2220
0
VERTEX
8
0
10
7.8183
20
5.2404
0
VERTEX
8
0
10
7.8260
20
5.2590
0
VERTEX
8
0
10
7.8334
20
5.2776
0
VERTEX
8
0
10
7.8407
20
5.2964
0
VERTEX
8
0
10
7.8477
20
5.3151
0
VERTEX
8
0
10
7.8546
20
5.3340
0
VERTEX
8
0
10
7.8613
20
5.3529
0
VERTEX
8
0
10
7.8678
20
5.3719
0
VERTEX
8
0
10
7.8741
20
5.3910
0
VERTEX
8
0
10
7.8801
20
5.4101
0
VERTEX
8
0
10
7.8860
20
5.4293
0
VERTEX
8
0
10
7.8918
20
5.4485
0
VERTEX
8
0
10
7.8973
20
5.4678
0
VERTEX
8
0
10
7.9026
20
5.4872
0
VERTEX
8
0
10
7.9077
20
5.5066
0
VERTEX
8
0
10
7.9126
20
5.5261
0
VERTEX
8
0
10
7.9173
20
5.5456
0
VERTEX
8
0
10
7.9218
20
5.5651
0
SEQEND
8
0
0
POLYLINE
8
Layer 1
66
1
0
VERTEX
8
0
10
4.0782
20
5.5624
0
VERTEX
8
0
10
4.0827
20
5.5429
0
VERTEX
8
0
10
4.0875
20
5.5234
0
VERTEX
8
0
10
4.0924
20
5.5039
0
VERTEX
8
0
10
4.0976
20
5.4845
0
VERTEX
8
0
10
4.1029
20
5.4651
0
VERTEX
8
0
10
4.1084
20
5.4458
0
VERTEX
8
0
10
4.1142
20
5.4266
0
VERTEX
8
0
10
4.1201
20
5.4074
0
VERTEX
8
0
10
4.1263
20
5.3883
0
VERTEX
8
0
10
4.1326
20
5.3692
0
VERTEX
8
0
10
4.1391
20
5.3502
0
VERTEX
8
0
10
4.1458
20
5.3313
0
VERTEX
8
0
10
4.1528
20
5.3125
0
VERTEX
8
0
10
4.1599
20
5.2937
0
VERTEX
8
0
10
4.1672
20
5.2750
0
VERTEX
8
0
10
4.1747
20
5.2564
0
VERTEX
8
0
10
4.1824
20
5.2378
0
VERTEX
8
0
10
4.1902
20
5.2193
0
VERTEX
8
0
10
4.1983
20
5.2009
0
VERTEX
8
0
10
4.2065
20
5.1826
0
VERTEX
8
0
10
4.2150
20
5.1644
0
VERTEX
8
0
10
4.2236
20
5.1463
0
VERTEX
8
0
10
4.2324
20
5.1282
0
VERTEX
8
0
10
4.2414
20
5.1103
0
VERTEX
8
0
10
4.2506
20
5.0924
0
VERTEX
8
0
10
4.2599
20
5.0746
0
VERTEX
8
0
10
4.2695
20
5.0570
0
VERTEX
8
0
10
4.2792
20
5.0394
0
VERTEX
8
0
10
4.2891
20
5.0219
0
VERTEX
8
0
10
4.2992
20
5.0045
0
VERTEX
8
0
10
4.3094
20
4.9873
0
VERTEX
8
0
10
4.3198
20
4.9701
0
VERTEX
8
0
10
4.3304
20
4.9531
0
VERTEX
8
0
10
4.3412
20
4.9361
0
VERTEX
8
0
10
4.3522
20
4.9193
0
VERTEX
8
0
10
4.3633
20
4.9025
0
VERTEX
8
0
10
4.3746
20
4.8859
0
VERTEX
8
0
10
4.3860
20
4.8694
0
VERTEX
8
0
10
4.3976
20
4.8531
0
VERTEX
8
0
10
4.4094
20
4.8368
0
VERTEX
8
0
10
4.4214
20
4.8207
0
VERTEX
8
0
10
4.4335
20
4.8046
0
VERTEX
8
0
10
4.4458
20
4.7888
0
VERTEX
8
0
10
4.4582
20
4.7730
0
VERTEX
8
0
10
4.4708
20
4.7574
0
VERTEX
8
0
10
4.4835
20
4.7418
0
VERTEX
8
0
10
4.4965
20
4.7265
0
VERTEX
8
0
10
4.5095
20
4.7112
0
VERTEX
8
0
10
4.5227
20
4.6961
0
VERTEX
8
0
10
4.5361
20
4.6811
0
VERTEX
8
0
10
4.5496
20
4.6663
0
VERTEX
8
0
10
4.5633
20
4.6516
0
VERTEX
8
0
10
4.5771
20
4.6370
0
VERTEX
8
0
10
4.5911
20
4.6225
0
VERTEX
8
0
10
4.6052
20
4.6083
0
VERTEX
8
0
10
4.6195
20
4.5941
0
VERTEX
8
0
10
4.6339
20
4.5801
0
VERTEX
8
0
10
4.6484
20
4.5663
0
VERTEX
8
0
10
4.6631
20
4.5526
0
VERTEX
8
0
10
5.0521
20
5.4501
0
VERTEX
8
0
10
4.0782
20
5.5624
0
SEQEND
8
0
0
POLYLINE
8
Layer 1
66
1
0
VERTEX
8
0
10
9.3792
20
5.2381
0
VERTEX
8
0
10
8.4052
20
4.9021
0
VERTEX
8
0
10
8.3968
20
4.8838
0
VERTEX
8
0
10
8.3882
20
4.8657
0
VERTEX
8
0
10
8.3795
20
4.8476
0
VERTEX
8
0
10
8.3707
20
4.8296
0
VERTEX
8
0
10
8.3617
20
4.8116
0
VERTEX
8
0
10
8.3526
20
4.7937
0
VERTEX
8
0
10
8.3434
20
4.7759
0
VERTEX
8
0
10
8.3340
20
4.7581
0
VERTEX
8
0
10
8.3245
20
4.7404
0
VERTEX
8
0
10
8.3149
20
4.7228
0
VERTEX
8
0
10
8.3051
20
4.7053
0
VERTEX
8
0
10
8.2952
20
4.6878
0
VERTEX
8
0
10
8.2851
20
4.6705
0
VERTEX
8
0
10
8.2750
20
4.6531
0
VERTEX
8
0
10
8.2647
20
4.6359
0
VERTEX
8
0
10
8.2542
20
4.6188
0
VERTEX
8
0
10
8.2437
20
4.6017
0
VERTEX
8
0
10
8.2330
20
4.5847
0
VERTEX
8
0
10
8.2221
20
4.5678
0
VERTEX
8
0
10
8.2112
20
4.5510
0
VERTEX
8
0
10
8.2001
20
4.5342
0
VERTEX
8
0
10
8.1889
20
4.5176
0
VERTEX
8
0
10
8.1776
20
4.5010
0
VERTEX
8
0
10
8.1661
20
4.4845
0
VERTEX
8
0
10
8.1545
20
4.4681
0
VERTEX
8
0
10
8.3513
20
3.4573
0
VERTEX
8
0
10
8.5831
20
4.5103
0
VERTEX
8
0
10
9.3792
20
5.2381
0
SEQEND
8
0
0
POLYLINE
8
Layer 1
66
1
0
VERTEX
8
0
10
2.6226
20
5.2354
0
VERTEX
8
0
10
3.4187
20
4.5076
0
VERTEX
8
0
10
3.6505
20
3.4537
0
VERTEX
8
0
10
3.8473
20
4.4654
0
VERTEX
8
0
10
3.8356
20
4.4818
0
VERTEX
8
0
10
3.8241
20
4.4983
0
VERTEX
8
0
10
3.8128
20
4.5149
0
VERTEX
8
0
10
3.8016
20
4.5316
0
VERTEX
8
0
10
3.7905
20
4.5484
0
VERTEX
8
0
10
3.7795
20
4.5652
0
VERTEX
8
0
10
3.7687
20
4.5822
0
VERTEX
8
0
10
3.7580
20
4.5992
0
VERTEX
8
0
10
3.7475
20
4.6163
0
VERTEX
8
0
10
3.7371
20
4.6335
0
VERTEX
8
0
10
3.7268
20
4.6508
0
VERTEX
8
0
10
3.7166
20
4.6682
0
VERTEX
8
0
10
3.7066
20
4.6856
0
VERTEX
8
0
10
3.6967
20
4.7031
0
VERTEX
8
0
10
3.6870
20
4.7207
0
VERTEX
8
0
10
3.6773
20
4.7383
0
VERTEX
8
0
10
3.6678
20
4.7561
0
VERTEX
8
0
10
3.6585
20
4.7739
0
VERTEX
8
0
10
3.6492
20
4.7917
0
VERTEX
8
0
10
3.6401
20
4.8097
0
VERTEX
8
0
10
3.6312
20
4.8277
0
VERTEX
8
0
10
3.6223
20
4.8457
0
VERTEX
8
0
10
3.6136
20
4.8638
0
VERTEX
8
0
10
3.6050
20
4.8820
0
VERTEX
8
0
10
3.5966
20
4.9003
0
VERTEX
8
0
10
2.6226
20
5.2354
0
SEQEND
8
0
0
POLYLINE
8
Layer 1
66
1
0
VERTEX
8
0
10
6.0009
20
4.9039
0
VERTEX
8
0
10
5.4169
20
4.1168
0
VERTEX
8
0
10
5.4364
20
4.1109
0
VERTEX
8
0
10
5.4560
20
4.1051
0
VERTEX
8
0
10
5.4757
20
4.0996
0
VERTEX
8
0
10
5.4954
20
4.0943
0
VERTEX
8
0
10
5.5151
20
4.0891
0
VERTEX
8
0
10
5.5349
20
4.0842
0
VERTEX
8
0
10
5.5548
20
4.0795
0
VERTEX
8
0
10
5.5747
20
4.0750
0
VERTEX
8
0
10
5.5946
20
4.0707
0
VERTEX
8
0
10
5.6146
20
4.0666
0
VERTEX
8
0
10
5.6347
20
4.0627
0
VERTEX
8
0
10
5.6548
20
4.0591
0
VERTEX
8
0
10
5.6749
20
4.0556
0
VERTEX
8
0
10
5.6950
20
4.0524
0
VERTEX
8
0
10
5.7152
20
4.0493
0
VERTEX
8
0
10
5.7354
20
4.0465
0
VERTEX
8
0
10
5.7557
20
4.0438
0
VERTEX
8
0
10
5.7759
20
4.0414
0
VERTEX
8
0
10
5.7962
20
4.0392
0
VERTEX
8
0
10
5.8166
20
4.0372
0
VERTEX
8
0
10
5.8369
20
4.0355
0
VERTEX
8
0
10
5.8572
20
4.0339
0
VERTEX
8
0
10
5.8776
20
4.0325
0
VERTEX
8
0
10
5.8980
20
4.0314
0
VERTEX
8
0
10
5.9184
20
4.0304
0
VERTEX
8
0
10
5.9388
20
4.0297
0
VERTEX
8
0
10
5.9592
20
4.0292
0
VERTEX
8
0
10
5.9796
20
4.0289
0
VERTEX
8
0
10
6.0000
20
4.0287
0
VERTEX
8
0
10
6.0205
20
4.0289
0
VERTEX
8
0
10
6.0410
20
4.0292
0
VERTEX
8
0
10
6.0614
20
4.0297
0
VERTEX
8
0
10
6.0819
20
4.0304
0
VERTEX
8
0
10
6.1023
20
4.0314
0
VERTEX
8
0
10
6.1228
20
4.0326
0
VERTEX
8
0
10
6.1432
20
4.0340
0
VERTEX
8
0
10
6.1636
20
4.0356
0
VERTEX
8
0
10
6.1840
20
4.0374
0
VERTEX
8
0
10
6.2044
20
4.0394
0
VERTEX
8
0
10
6.2248
20
4.0416
0
VERTEX
8
0
10
6.2451
20
4.0441
0
VERTEX
8
0
10
6.2654
20
4.0467
0
VERTEX
8
0
10
6.2857
20
4.0496
0
VERTEX
8
0
10
6.3059
20
4.0527
0
VERTEX
8
0
10
6.3261
20
4.0560
0
VERTEX
8
0
10
6.3463
20
4.0595
0
VERTEX
8
0
10
6.3665
20
4.0632
0
VERTEX
8
0
10
6.3866
20
4.0671
0
VERTEX
8
0
10
6.4066
20
4.0712
0
VERTEX
8
0
10
6.4266
20
4.0756
0
VERTEX
8
0
10
6.4466
20
4.0801
0
VERTEX
8
0
10
6.4665
20
4.0849
0
VERTEX
8
0
10
6.4864
20
4.0898
0
VERTEX
8
0
10
6.5062
20
4.0950
0
VERTEX
8
0
10
6.5260
20
4.1004
0
VERTEX
8
0
10
6.5457
20
4.1059
0
VERTEX
8
0
10
6.5653
20
4.1117
0
VERTEX
8
0
10
6.5849
20
4.1177
0
VERTEX
8
0
10
6.0009
20
4.9039
0
SEQEND
8
0
0
POLYLINE
8
Layer 1
66
1
0
VERTEX
8
0
10
9.4627
20
4.5238
0
VERTEX
8
0
10
9.6622
20
3.8877
0
VERTEX
8
0
10
9.0117
20
3.7430
0
VERTEX
8
0
10
9.5364
20
3.0503
0
VERTEX
8
0
10
10.1456
20
3.6092
0
VERTEX
8
0
10
10.3253
20
4.4151
0
VERTEX
8
0
10
9.4627
20
4.5238
0
SEQEND
8
0
0
POLYLINE
8
Layer 1
66
1
0
VERTEX
8
0
10
2.5391
20
4.5202
0
VERTEX
8
0
10
1.6766
20
4.4115
0
VERTEX
8
0
10
1.8562
20
3.6056
0
VERTEX
8
0
10
2.4645
20
3.0467
0
VERTEX
8
0
10
2.9901
20
3.7394
0
VERTEX
8
0
10
2.3396
20
3.8850
0
VERTEX
8
0
10
2.5391
20
4.5202
0
SEQEND
8
0
0
POLYLINE
8
Layer 1
66
1
0
VERTEX
8
0
10
4.3037
20
3.9739
0
VERTEX
8
0
10
4.2228
20
2.9218
0
VERTEX
8
0
10
5.0916
20
3.5175
0
VERTEX
8
0
10
5.0726
20
3.5246
0
VERTEX
8
0
10
5.0536
20
3.5318
0
VERTEX
8
0
10
5.0346
20
3.5392
0
VERTEX
8
0
10
5.0157
20
3.5467
0
VERTEX
8
0
10
4.9969
20
3.5543
0
VERTEX
8
0
10
4.9781
20
3.5621
0
VERTEX
8
0
10
4.9594
20
3.5701
0
VERTEX
8
0
10
4.9407
20
3.5782
0
VERTEX
8
0
10
4.9221
20
3.5864
0
VERTEX
8
0
10
4.9036
20
3.5948
0
VERTEX
8
0
10
4.8851
20
3.6033
0
VERTEX
8
0
10
4.8667
20
3.6120
0
VERTEX
8
0
10
4.8484
20
3.6208
0
VERTEX
8
0
10
4.8301
20
3.6298
0
VERTEX
8
0
10
4.8119
20
3.6389
0
VERTEX
8
0
10
4.7938
20
3.6481
0
VERTEX
8
0
10
4.7758
20
3.6575
0
VERTEX
8
0
10
4.7578
20
3.6670
0
VERTEX
8
0
10
4.7399
20
3.6766
0
VERTEX
8
0
10
4.7221
20
3.6864
0
VERTEX
8
0
10
4.7043
20
3.6964
0
VERTEX
8
0
10
4.6867
20
3.7064
0
VERTEX
8
0
10
4.6691
20
3.7166
0
VERTEX
8
0
10
4.6515
20
3.7270
0
VERTEX
8
0
10
4.6341
20
3.7374
0
VERTEX
8
0
10
4.6168
20
3.7480
0
VERTEX
8
0
10
4.5995
20
3.7588
0
VERTEX
8
0
10
4.5823
20
3.7696
0
VERTEX
8
0
10
4.5652
20
3.7806
0
VERTEX
8
0
10
4.5482
20
3.7918
0
VERTEX
8
0
10
4.5312
20
3.8030
0
VERTEX
8
0
10
4.5144
20
3.8144
0
VERTEX
8
0
10
4.4976
20
3.8259
0
VERTEX
8
0
10
4.4810
20
3.8376
0
VERTEX
8
0
10
4.4644
20
3.8494
0
VERTEX
8
0
10
4.4479
20
3.8613
0
VERTEX
8
0
10
4.4315
20
3.8733
0
VERTEX
8
0
10
4.4152
20
3.8854
0
VERTEX
8
0
10
4.3990
20
3.8977
0
VERTEX
8
0
10
4.3828
20
3.9101
0
VERTEX
8
0
10
4.3668
20
3.9226
0
VERTEX
8
0
10
4.3509
20
3.9353
0
VERTEX
8
0
10
4.3351
20
3.9480
0
VERTEX
8
0
10
4.3193
20
3.9609
0
VERTEX
8
0
10
4.3037
20
3.9739
0
SEQEND
8
0
0
POLYLINE
8
Layer 1
66
1
0
VERTEX
8
0
10
7.6963
20
3.9739
0
VERTEX
8
0
10
7.6807
20
3.9609
0
VERTEX
8
0
10
7.6649
20
3.9480
0
VERTEX
8
0
10
7.6491
20
3.9353
0
VERTEX
8
0
10
7.6332
20
3.9226
0
VERTEX
8
0
10
7.6172
20
3.9101
0
VERTEX
8
0
10
7.6010
20
3.8977
0
VERTEX
8
0
10
7.5848
20
3.8854
0
VERTEX
8
0
10
7.5685
20
3.8733
0
VERTEX
8
0
10
7.5521
20
3.8613
0
VERTEX
8
0
10
7.5356
20
3.8494
0
VERTEX
8
0
10
7.5191
20
3.8376
0
VERTEX
8
0
10
7.5024
20
3.8259
0
VERTEX
8
0
10
7.4856
20
3.8144
0
VERTEX
8
0
10
7.4688
20
3.8030
0
VERTEX
8
0
10
7.4518
20
3.7918
0
VERTEX
8
0
10
7.4348
20
3.7806
0
VERTEX
8
0
10
7.4177
20
3.7696
0
VERTEX
8
0
10
7.4005
20
3.7588
0
VERTEX
8
0
10
7.3832
20
3.7480
0
VERTEX
8
0
10
7.3659
20
3.7374
0
VERTEX
8
0
10
7.3485
20
3.7270
0
VERTEX
8
0
10
7.3309
20
3.7166
0
VERTEX
8
0
10
7.3133
20
3.7064
0
VERTEX
8
0
10
7.2957
20
3.6964
0
VERTEX
8
0
10
7.2779
20
3.6864
0
VERTEX
8
0
10
7.2601
20
3.6766
0
VERTEX
8
0
10
7.2422
20
3.6670
0
VERTEX
8
0
10
7.2242
20
3.6575
0
VERTEX
8
0
10
7.2062
20
3.6481
0
VERTEX
8
0
10
7.1881
20
3.6389
0
VERTEX
8
0
10
7.1699
20
3.6298
0
VERTEX
8
0
10
7.1516
20
3.6208
0
VERTEX
8
0
10
7.1333
20
3.6120
0
VERTEX
8
0
10
7.1149
20
3.6033
0
VERTEX
8
0
10
7.0964
20
3.5948
0
VERTEX
8
0
10
7.0779
20
3.5864
0
VERTEX
8
0
10
7.0593
20
3.5782
0
VERTEX
8
0
10
7.0406
20
3.5701
0
VERTEX
8
0
10
7.0219
20
3.5621
0
VERTEX
8
0
10
7.0031
20
3.5543
0
VERTEX
8
0
10
6.9843
20
3.5467
0
VERTEX
8
0
10
6.9654
20
3.5392
0
VERTEX
8
0
10
6.9464
20
3.5318
0
VERTEX
8
0
10
6.9274
20
3.5246
0
VERTEX
8
0
10
6.9084
20
3.5175
0
VERTEX
8
0
10
7.7772
20
2.9227
0
VERTEX
8
0
10
7.6963
20
3.9739
0
SEQEND
8
0
0
POLYLINE
8
Layer 1
66
1
0
VERTEX
8
0
10
5.7502
20
3.3684
0
VERTEX
8
0
10
4.9730
20
2.6918
0
VERTEX
8
0
10
6.0009
20
3.0180
0
VERTEX
8
0
10
7.0296
20
2.6918
0
VERTEX
8
0
10
6.2516
20
3.3684
0
VERTEX
8
0
10
6.2307
20
3.3665
0
VERTEX
8
0
10
6.2097
20
3.3648
0
VERTEX
8
0
10
6.1888
20
3.3632
0
VERTEX
8
0
10
6.1679
20
3.3618
0
VERTEX
8
0
10
6.1469
20
3.3606
0
VERTEX
8
0
10
6.1259
20
3.3596
0
VERTEX
8
0
10
6.1049
20
3.3587
0
VERTEX
8
0
10
6.0840
20
3.3580
0
VERTEX
8
0
10
6.0630
20
3.3574
0
VERTEX
8
0
10
6.0420
20
3.3570
0
VERTEX
8
0
10
6.0210
20
3.3568
0
VERTEX
8
0
10
6.0000
20
3.3567
0
VERTEX
8
0
10
5.9792
20
3.3568
0
VERTEX
8
0
10
5.9583
20
3.3570
0
VERTEX
8
0
10
5.9375
20
3.3574
0
VERTEX
8
0
10
5.9166
20
3.3580
0
VERTEX
8
0
10
5.8958
20
3.3587
0
VERTEX
8
0
10
5.8750
20
3.3596
0
VERTEX
8
0
10
5.8542
20
3.3607
0
VERTEX
8
0
10
5.8333
20
3.3619
0
VERTEX
8
0
10
5.8125
20
3.3633
0
VERTEX
8
0
10
5.7918
20
3.3648
0
VERTEX
8
0
10
5.7710
20
3.3665
0
VERTEX
8
0
10
5.7502
20
3.3684
0
SEQEND
8
0
0
POLYLINE
8
Layer 1
66
1
0
VERTEX
8
0
10
5.5517
20
2.2632
0
VERTEX
8
0
10
5.2138
20
1.4618
0
VERTEX
8
0
10
6.0018
20
1.2138
0
VERTEX
8
0
10
6.7898
20
1.4618
0
VERTEX
8
0
10
6.4519
20
2.2632
0
VERTEX
8
0
10
6.0018
20
1.7727
0
VERTEX
8
0
10
5.5517
20
2.2632
0
SEQEND
8
0
0
ENDSEC
0
EOF
