999
"DXF R12 Output" (www.mydxf.blogspot.com)
 0 
SECTION
 2 
HEADER
 9 
$ACADVER
 1 
AC1009
 9 
$EXTMIN
 10 
 0 
 20 
 0 
 9 
$EXTMAX
 10 
 8.5 
 20 
 11 
 0 
ENDSEC
 0 
SECTION
 2 
ENTITIES
0
LINE
8
Layer 1
10
78.487383
20
3.375987
11
74.602582
21
3.659329
0
LINE
8
Layer 1
10
74.602582
20
3.659329
11
71.300703
21
4.065103
0
LINE
8
Layer 1
10
71.300703
20
4.065103
11
68.498289
21
4.606255
0
LINE
8
Layer 1
10
68.498289
20
4.606255
11
66.111882
21
5.295733
0
LINE
8
Layer 1
10
66.111882
20
5.295733
11
63.666596
21
6.033793
0
LINE
8
Layer 1
10
63.666596
20
6.033793
11
62.723461
21
6.414441
0
LINE
8
Layer 1
10
62.723461
20
6.414441
11
61.299199
21
7.359559
0
LINE
8
Layer 1
10
61.299199
20
7.359559
11
59.821254
21
8.554026
0
LINE
8
Layer 1
10
59.821254
20
8.554026
11
58.717067
21
9.682726
0
LINE
8
Layer 1
10
58.717067
20
9.682726
11
56.974684
21
11.672276
0
LINE
8
Layer 1
10
56.974684
20
11.672276
11
56.359270
21
12.220787
0
LINE
8
Layer 1
10
56.359270
20
12.220787
11
55.046513
21
10.565669
0
LINE
8
Layer 1
10
55.046513
20
10.565669
11
53.274009
21
8.694854
0
LINE
8
Layer 1
10
53.274009
20
8.694854
11
51.187050
21
7.254652
0
LINE
8
Layer 1
10
51.187050
20
7.254652
11
48.577566
21
6.131491
0
LINE
8
Layer 1
10
48.577566
20
6.131491
11
45.237485
21
5.211803
0
LINE
8
Layer 1
10
45.237485
20
5.211803
11
41.641921
21
4.774531
0
LINE
8
Layer 1
10
41.641921
20
4.774531
11
36.498336
21
4.531917
0
LINE
8
Layer 1
10
36.498336
20
4.531917
11
31.366270
21
4.522251
0
LINE
8
Layer 1
10
31.366270
20
4.522251
11
27.805266
21
4.783822
0
LINE
8
Layer 1
10
27.805266
20
4.783822
11
24.633863
21
5.471026
0
LINE
8
Layer 1
10
24.633863
20
5.471026
11
21.728863
21
6.330278
0
LINE
8
Layer 1
10
21.728863
20
6.330278
11
19.094680
21
7.359038
0
LINE
8
Layer 1
10
19.094680
20
7.359038
11
16.735728
21
8.554761
0
LINE
8
Layer 1
10
16.735728
20
8.554761
11
14.656422
21
9.914907
0
LINE
8
Layer 1
10
14.656422
20
9.914907
11
12.861176
21
11.436933
0
LINE
8
Layer 1
10
12.861176
20
11.436933
11
11.354406
21
13.118297
0
LINE
8
Layer 1
10
11.354406
20
13.118297
11
10.140526
21
14.956457
0
LINE
8
Layer 1
10
10.140526
20
14.956457
11
8.737938
21
17.844048
0
LINE
8
Layer 1
10
8.737938
20
17.844048
11
8.030378
21
20.085146
0
LINE
8
Layer 1
10
8.030378
20
20.085146
11
7.496280
21
22.215695
0
LINE
8
Layer 1
10
7.496280
20
22.215695
11
6.948423
21
25.168620
0
LINE
8
Layer 1
10
6.948423
20
25.168620
11
6.535416
21
28.681794
0
LINE
8
Layer 1
10
6.535416
20
28.681794
11
6.665947
21
32.099510
0
LINE
8
Layer 1
10
6.665947
20
32.099510
11
6.965032
21
34.862839
0
LINE
8
Layer 1
10
6.965032
20
34.862839
11
7.297730
21
36.742898
0
LINE
8
Layer 1
10
7.297730
20
36.742898
11
7.632643
21
38.443603
0
LINE
8
Layer 1
10
7.632643
20
38.443603
11
7.767744
21
38.960184
0
LINE
8
Layer 1
10
7.767744
20
38.960184
11
8.167038
21
39.427314
0
LINE
8
Layer 1
10
8.167038
20
39.427314
11
8.746385
21
39.774947
0
LINE
8
Layer 1
10
8.746385
20
39.774947
11
9.421649
21
39.933036
0
LINE
8
Layer 1
10
9.421649
20
39.933036
11
10.212709
21
39.827403
0
LINE
8
Layer 1
10
10.212709
20
39.827403
11
11.237354
21
39.461951
0
LINE
8
Layer 1
10
11.237354
20
39.461951
11
13.734876
21
38.110928
0
LINE
8
Layer 1
10
13.734876
20
38.110928
11
16.409177
21
36.198635
0
LINE
8
Layer 1
10
16.409177
20
36.198635
11
18.755218
21
34.043741
0
LINE
8
Layer 1
10
18.755218
20
34.043741
11
21.371954
21
31.220681
0
LINE
8
Layer 1
10
21.371954
20
31.220681
11
22.062602
21
30.573222
0
LINE
8
Layer 1
10
22.062602
20
30.573222
11
22.682961
21
30.302382
0
LINE
8
Layer 1
10
22.682961
20
30.302382
11
23.396580
21
30.385094
0
LINE
8
Layer 1
10
23.396580
20
30.385094
11
24.367009
21
30.798293
0
LINE
8
Layer 1
10
24.367009
20
30.798293
11
27.886056
21
32.086530
0
LINE
8
Layer 1
10
27.886056
20
32.086530
11
31.101510
21
32.983040
0
LINE
8
Layer 1
10
31.101510
20
32.983040
11
32.577080
21
33.359282
0
LINE
8
Layer 1
10
32.577080
20
33.359282
11
33.121250
21
33.595553
0
LINE
8
Layer 1
10
33.121250
20
33.595553
11
33.528847
21
33.927015
0
LINE
8
Layer 1
10
33.528847
20
33.927015
11
34.242954
21
35.220281
0
LINE
8
Layer 1
10
34.242954
20
35.220281
11
34.994016
21
36.577166
0
LINE
8
Layer 1
10
34.994016
20
36.577166
11
35.939208
21
37.579767
0
LINE
8
Layer 1
10
35.939208
20
37.579767
11
37.067640
21
38.219461
0
LINE
8
Layer 1
10
37.067640
20
38.219461
11
38.368422
21
38.487627
0
LINE
8
Layer 1
10
38.368422
20
38.487627
11
39.556780
21
38.690525
0
LINE
8
Layer 1
10
39.556780
20
38.690525
11
40.343600
21
39.160918
0
LINE
8
Layer 1
10
40.343600
20
39.160918
11
40.761891
21
39.932835
0
LINE
8
Layer 1
10
40.761891
20
39.932835
11
40.844668
21
41.040304
0
LINE
8
Layer 1
10
40.844668
20
41.040304
11
40.774756
21
41.734651
0
LINE
8
Layer 1
10
40.774756
20
41.734651
11
40.610095
21
42.192349
0
LINE
8
Layer 1
10
40.610095
20
42.192349
11
40.270846
21
42.541185
0
LINE
8
Layer 1
10
40.270846
20
42.541185
11
39.677171
21
42.908945
0
LINE
8
Layer 1
10
39.677171
20
42.908945
11
37.994189
21
44.082496
0
LINE
8
Layer 1
10
37.994189
20
44.082496
11
36.843451
21
45.469517
0
LINE
8
Layer 1
10
36.843451
20
45.469517
11
36.150766
21
47.195281
0
LINE
8
Layer 1
10
36.150766
20
47.195281
11
35.841940
21
49.385062
0
LINE
8
Layer 1
10
35.841940
20
49.385062
11
35.670261
21
50.985443
0
LINE
8
Layer 1
10
35.670261
20
50.985443
11
35.435399
21
51.739574
0
LINE
8
Layer 1
10
35.435399
20
51.739574
11
34.420129
21
51.963449
0
LINE
8
Layer 1
10
34.420129
20
51.963449
11
32.866164
21
51.952019
0
LINE
8
Layer 1
10
32.866164
20
51.952019
11
31.078588
21
51.726883
0
LINE
8
Layer 1
10
31.078588
20
51.726883
11
29.362485
21
51.309640
0
LINE
8
Layer 1
10
29.362485
20
51.309640
11
27.067107
21
50.741302
0
LINE
8
Layer 1
10
27.067107
20
50.741302
11
24.458506
21
50.705060
0
LINE
8
Layer 1
10
24.458506
20
50.705060
11
21.092282
21
50.957795
0
LINE
8
Layer 1
10
21.092282
20
50.957795
11
18.225801
21
51.438793
0
LINE
8
Layer 1
10
18.225801
20
51.438793
11
15.826748
21
52.155404
0
LINE
8
Layer 1
10
15.826748
20
52.155404
11
13.862811
21
53.114976
0
LINE
8
Layer 1
10
13.862811
20
53.114976
11
12.202828
21
54.423537
0
LINE
8
Layer 1
10
12.202828
20
54.423537
11
11.642166
21
55.130334
0
LINE
8
Layer 1
10
11.642166
20
55.130334
11
11.258884
21
55.877805
0
LINE
8
Layer 1
10
11.258884
20
55.877805
11
11.051353
21
56.670197
0
LINE
8
Layer 1
10
11.051353
20
56.670197
11
11.017944
21
57.511755
0
LINE
8
Layer 1
10
11.017944
20
57.511755
11
11.157026
21
58.406727
0
LINE
8
Layer 1
10
11.157026
20
58.406727
11
11.466970
21
59.359360
0
LINE
8
Layer 1
10
11.466970
20
59.359360
11
11.855149
21
60.777524
0
LINE
8
Layer 1
10
11.855149
20
60.777524
11
11.850115
21
62.335689
0
LINE
8
Layer 1
10
11.850115
20
62.335689
11
11.787578
21
63.249187
0
LINE
8
Layer 1
10
11.787578
20
63.249187
11
11.860758
21
63.915781
0
LINE
8
Layer 1
10
11.860758
20
63.915781
11
12.123979
21
64.544681
0
LINE
8
Layer 1
10
12.123979
20
64.544681
11
12.631560
21
65.345098
0
LINE
8
Layer 1
10
12.631560
20
65.345098
11
13.387298
21
66.762389
0
LINE
8
Layer 1
10
13.387298
20
66.762389
11
13.694578
21
68.233095
0
LINE
8
Layer 1
10
13.694578
20
68.233095
11
14.129359
21
70.246301
0
LINE
8
Layer 1
10
14.129359
20
70.246301
11
14.538517
21
71.095832
0
LINE
8
Layer 1
10
14.538517
20
71.095832
11
15.072712
21
71.837412
0
LINE
8
Layer 1
10
15.072712
20
71.837412
11
15.729837
21
72.468615
0
LINE
8
Layer 1
10
15.729837
20
72.468615
11
16.507787
21
72.987013
0
LINE
8
Layer 1
10
16.507787
20
72.987013
11
17.404456
21
73.390179
0
LINE
8
Layer 1
10
17.404456
20
73.390179
11
18.417737
21
73.675686
0
LINE
8
Layer 1
10
18.417737
20
73.675686
11
19.203154
21
73.944555
0
LINE
8
Layer 1
10
19.203154
20
73.944555
11
19.600078
21
74.276430
0
LINE
8
Layer 1
10
19.600078
20
74.276430
11
19.409473
21
74.953848
0
LINE
8
Layer 1
10
19.409473
20
74.953848
11
18.782368
21
76.053493
0
LINE
8
Layer 1
10
18.782368
20
76.053493
11
17.794630
21
77.724951
0
LINE
8
Layer 1
10
17.794630
20
77.724951
11
17.109076
21
79.330386
0
LINE
8
Layer 1
10
17.109076
20
79.330386
11
16.734529
21
80.843831
0
LINE
8
Layer 1
10
16.734529
20
80.843831
11
16.679812
21
82.239321
0
LINE
8
Layer 1
10
16.679812
20
82.239321
11
16.879131
21
83.583703
0
LINE
8
Layer 1
10
16.879131
20
83.583703
11
17.275294
21
84.711756
0
LINE
8
Layer 1
10
17.275294
20
84.711756
11
17.930992
21
85.752754
0
LINE
8
Layer 1
10
17.930992
20
85.752754
11
18.908916
21
86.835973
0
LINE
8
Layer 1
10
18.908916
20
86.835973
11
20.535903
21
88.200580
0
LINE
8
Layer 1
10
20.535903
20
88.200580
11
22.703341
21
89.469248
0
LINE
8
Layer 1
10
22.703341
20
89.469248
11
25.843859
21
90.858625
0
LINE
8
Layer 1
10
25.843859
20
90.858625
11
30.390084
21
92.585359
0
LINE
8
Layer 1
10
30.390084
20
92.585359
11
37.294227
21
94.312334
0
LINE
8
Layer 1
10
37.294227
20
94.312334
11
38.078872
21
94.543761
0
LINE
8
Layer 1
10
38.078872
20
94.543761
11
38.485036
21
94.787435
0
LINE
8
Layer 1
10
38.485036
20
94.787435
11
39.146932
21
95.070030
0
LINE
8
Layer 1
10
39.146932
20
95.070030
11
39.818887
21
95.333698
0
LINE
8
Layer 1
10
39.818887
20
95.333698
11
40.527051
21
95.924280
0
LINE
8
Layer 1
10
40.527051
20
95.924280
11
41.079868
21
96.642899
0
LINE
8
Layer 1
10
41.079868
20
96.642899
11
41.285781
21
97.290676
0
LINE
8
Layer 1
10
41.285781
20
97.290676
11
40.929426
21
97.960361
0
LINE
8
Layer 1
10
40.929426
20
97.960361
11
39.858442
21
98.714441
0
LINE
8
Layer 1
10
39.858442
20
98.714441
11
37.643167
21
100.330821
0
LINE
8
Layer 1
10
37.643167
20
100.330821
11
36.571287
21
101.141095
0
LINE
8
Layer 1
10
36.571287
20
101.141095
11
35.879610
21
101.703369
0
LINE
8
Layer 1
10
35.879610
20
101.703369
11
34.564320
21
103.075207
0
LINE
8
Layer 1
10
34.564320
20
103.075207
11
32.328499
21
105.452412
0
LINE
8
Layer 1
10
32.328499
20
105.452412
11
31.817433
21
106.150996
0
LINE
8
Layer 1
10
31.817433
20
106.150996
11
31.257748
21
107.228327
0
LINE
8
Layer 1
10
31.257748
20
107.228327
11
30.778796
21
108.253995
0
LINE
8
Layer 1
10
30.778796
20
108.253995
11
30.373951
21
108.846063
0
LINE
8
Layer 1
10
30.373951
20
108.846063
11
29.867904
21
109.183411
0
LINE
8
Layer 1
10
29.867904
20
109.183411
11
29.085342
21
109.444920
0
LINE
8
Layer 1
10
29.085342
20
109.444920
11
25.750019
21
110.555310
0
LINE
8
Layer 1
10
25.750019
20
110.555310
11
21.878289
21
112.034339
0
LINE
8
Layer 1
10
21.878289
20
112.034339
11
18.509798
21
113.464297
0
LINE
8
Layer 1
10
18.509798
20
113.464297
11
16.684187
21
114.427471
0
LINE
8
Layer 1
10
16.684187
20
114.427471
11
14.282617
21
116.037679
0
LINE
8
Layer 1
10
14.282617
20
116.037679
11
11.142513
21
118.189458
0
LINE
8
Layer 1
10
11.142513
20
118.189458
11
7.726482
21
120.863042
0
LINE
8
Layer 1
10
7.726482
20
120.863042
11
4.666939
21
123.536252
0
LINE
8
Layer 1
10
4.666939
20
123.536252
11
2.596302
21
125.686910
0
LINE
8
Layer 1
10
2.596302
20
125.686910
11
1.912351
21
126.724442
0
LINE
8
Layer 1
10
1.912351
20
126.724442
11
1.856448
21
127.076792
0
LINE
8
Layer 1
10
1.856448
20
127.076792
11
1.954670
21
127.416825
0
LINE
8
Layer 1
10
1.954670
20
127.416825
11
2.241397
21
127.751093
0
LINE
8
Layer 1
10
2.241397
20
127.751093
11
3.062033
21
127.968200
0
LINE
8
Layer 1
10
3.062033
20
127.968200
11
8.393627
21
128.355352
0
LINE
8
Layer 1
10
8.393627
20
128.355352
11
13.636263
21
128.566468
0
LINE
8
Layer 1
10
13.636263
20
128.566468
11
17.589503
21
128.439675
0
LINE
8
Layer 1
10
17.589503
20
128.439675
11
21.103116
21
127.899013
0
LINE
8
Layer 1
10
21.103116
20
127.899013
11
25.026873
21
126.868521
0
LINE
8
Layer 1
10
25.026873
20
126.868521
11
28.222980
21
126.037700
0
LINE
8
Layer 1
10
28.222980
20
126.037700
11
30.269293
21
125.658601
0
LINE
8
Layer 1
10
30.269293
20
125.658601
11
30.961528
21
126.899822
0
LINE
8
Layer 1
10
30.961528
20
126.899822
11
32.526482
21
130.168069
0
LINE
8
Layer 1
10
32.526482
20
130.168069
11
35.099837
21
134.780201
0
LINE
8
Layer 1
10
35.099837
20
134.780201
11
36.230341
21
136.849056
0
LINE
8
Layer 1
10
36.230341
20
136.849056
11
36.599904
21
137.799253
0
LINE
8
Layer 1
10
36.599904
20
137.799253
11
35.971720
21
137.629662
0
LINE
8
Layer 1
10
35.971720
20
137.629662
11
34.703371
21
137.006265
0
LINE
8
Layer 1
10
34.703371
20
137.006265
11
32.288293
21
135.821053
0
LINE
8
Layer 1
10
32.288293
20
135.821053
11
28.835096
21
134.613145
0
LINE
8
Layer 1
10
28.835096
20
134.613145
11
26.201749
21
133.994463
0
LINE
8
Layer 1
10
26.201749
20
133.994463
11
23.143618
21
133.628858
0
LINE
8
Layer 1
10
23.143618
20
133.628858
11
20.190285
21
133.555040
0
LINE
8
Layer 1
10
20.190285
20
133.555040
11
17.871326
21
133.811718
0
LINE
8
Layer 1
10
17.871326
20
133.811718
11
16.165085
21
134.400401
0
LINE
8
Layer 1
10
16.165085
20
134.400401
11
14.492523
21
135.282735
0
LINE
8
Layer 1
10
14.492523
20
135.282735
11
13.099091
21
136.306152
0
LINE
8
Layer 1
10
13.099091
20
136.306152
11
12.230240
21
137.318081
0
LINE
8
Layer 1
10
12.230240
20
137.318081
11
11.778812
21
138.628647
0
LINE
8
Layer 1
10
11.778812
20
138.628647
11
11.449049
21
140.403913
0
LINE
8
Layer 1
10
11.449049
20
140.403913
11
11.344638
21
142.282179
0
LINE
8
Layer 1
10
11.344638
20
142.282179
11
11.479263
21
142.816289
0
LINE
8
Layer 1
10
11.479263
20
142.816289
11
11.762429
21
143.302246
0
LINE
8
Layer 1
10
11.762429
20
143.302246
11
12.507632
21
144.017412
0
LINE
8
Layer 1
10
12.507632
20
144.017412
11
13.655713
21
144.806072
0
LINE
8
Layer 1
10
13.655713
20
144.806072
11
14.853319
21
145.452108
0
LINE
8
Layer 1
10
14.853319
20
145.452108
11
15.747096
21
145.739401
0
LINE
8
Layer 1
10
15.747096
20
145.739401
11
18.592968
21
146.500606
0
LINE
8
Layer 1
10
18.592968
20
146.500606
11
20.761202
21
147.366937
0
LINE
8
Layer 1
10
20.761202
20
147.366937
11
23.425565
21
148.698639
0
LINE
8
Layer 1
10
23.425565
20
148.698639
11
26.033637
21
150.198980
0
LINE
8
Layer 1
10
26.033637
20
150.198980
11
28.032991
21
151.571230
0
LINE
8
Layer 1
10
28.032991
20
151.571230
11
29.373463
21
152.601290
0
LINE
8
Layer 1
10
29.373463
20
152.601290
11
32.699960
21
155.194673
0
LINE
8
Layer 1
10
32.699960
20
155.194673
11
36.097489
21
157.784148
0
LINE
8
Layer 1
10
36.097489
20
157.784148
11
40.758562
21
160.874784
0
LINE
8
Layer 1
10
40.758562
20
160.874784
11
44.778168
21
163.359454
0
LINE
8
Layer 1
10
44.778168
20
163.359454
11
47.866272
21
164.762270
0
LINE
8
Layer 1
10
47.866272
20
164.762270
11
49.877351
21
165.401132
0
LINE
8
Layer 1
10
49.877351
20
165.401132
11
52.018893
21
165.814644
0
LINE
8
Layer 1
10
52.018893
20
165.814644
11
54.135655
21
165.981643
0
LINE
8
Layer 1
10
54.135655
20
165.981643
11
56.072391
21
165.880966
0
LINE
8
Layer 1
10
56.072391
20
165.880966
11
57.680404
21
165.518670
0
LINE
8
Layer 1
10
57.680404
20
165.518670
11
59.545675
21
164.894807
0
LINE
8
Layer 1
10
59.545675
20
164.894807
11
61.269473
21
164.160288
0
LINE
8
Layer 1
10
61.269473
20
164.160288
11
62.453068
21
163.466024
0
LINE
8
Layer 1
10
62.453068
20
163.466024
11
63.884388
21
161.760095
0
LINE
8
Layer 1
10
63.884388
20
161.760095
11
65.781364
21
158.756013
0
LINE
8
Layer 1
10
65.781364
20
158.756013
11
67.819723
21
155.009992
0
LINE
8
Layer 1
10
67.819723
20
155.009992
11
69.675192
21
151.078247
0
LINE
8
Layer 1
10
69.675192
20
151.078247
11
70.876403
21
148.961032
0
LINE
8
Layer 1
10
70.876403
20
148.961032
11
72.998979
21
145.645357
0
LINE
8
Layer 1
10
72.998979
20
145.645357
11
75.789564
21
141.269725
0
LINE
8
Layer 1
10
75.789564
20
141.269725
11
76.203528
21
140.766760
0
LINE
8
Layer 1
10
76.203528
20
140.766760
11
77.763885
21
138.679880
0
LINE
8
Layer 1
10
77.763885
20
138.679880
11
80.002380
21
135.157707
0
LINE
8
Layer 1
10
80.002380
20
135.157707
11
81.445382
21
131.924151
0
LINE
8
Layer 1
10
81.445382
20
131.924151
11
82.075249
21
130.415179
0
LINE
8
Layer 1
10
82.075249
20
130.415179
11
82.466801
21
129.792039
0
LINE
8
Layer 1
10
82.466801
20
129.792039
11
85.487425
21
131.339423
0
LINE
8
Layer 1
10
85.487425
20
131.339423
11
89.735551
21
133.536411
0
LINE
8
Layer 1
10
89.735551
20
133.536411
11
93.325057
21
135.069537
0
LINE
8
Layer 1
10
93.325057
20
135.069537
11
96.432742
21
136.003943
0
LINE
8
Layer 1
10
96.432742
20
136.003943
11
99.235401
21
136.404768
0
LINE
8
Layer 1
10
99.235401
20
136.404768
11
100.736908
21
136.491088
0
LINE
8
Layer 1
10
100.736908
20
136.491088
11
100.650294
21
135.060292
0
LINE
8
Layer 1
10
100.650294
20
135.060292
11
100.473996
21
133.968009
0
LINE
8
Layer 1
10
100.473996
20
133.968009
11
100.068911
21
132.663334
0
LINE
8
Layer 1
10
100.068911
20
132.663334
11
98.602394
21
129.473191
0
LINE
8
Layer 1
10
98.602394
20
129.473191
11
96.310764
21
125.602631
0
LINE
8
Layer 1
10
96.310764
20
125.602631
11
93.254040
21
121.164421
0
LINE
8
Layer 1
10
93.254040
20
121.164421
11
90.928943
21
118.078138
0
LINE
8
Layer 1
10
90.928943
20
118.078138
11
89.003272
21
115.748344
0
LINE
8
Layer 1
10
89.003272
20
115.748344
11
87.408150
21
114.097159
0
LINE
8
Layer 1
10
87.408150
20
114.097159
11
86.074702
21
113.046702
0
LINE
8
Layer 1
10
86.074702
20
113.046702
11
81.458922
21
109.928734
0
LINE
8
Layer 1
10
81.458922
20
109.928734
11
80.332579
21
108.935678
0
LINE
8
Layer 1
10
80.332579
20
108.935678
11
79.772482
21
108.147762
0
LINE
8
Layer 1
10
79.772482
20
108.147762
11
79.062633
21
106.960346
0
LINE
8
Layer 1
10
79.062633
20
106.960346
11
77.971893
21
105.540658
0
LINE
8
Layer 1
10
77.971893
20
105.540658
11
76.702808
21
104.131501
0
LINE
8
Layer 1
10
76.702808
20
104.131501
11
75.457925
21
102.975678
0
LINE
8
Layer 1
10
75.457925
20
102.975678
11
72.484273
21
100.928060
0
LINE
8
Layer 1
10
72.484273
20
100.928060
11
69.029270
21
99.052736
0
LINE
8
Layer 1
10
69.029270
20
99.052736
11
67.252193
21
98.184136
0
LINE
8
Layer 1
10
67.252193
20
98.184136
11
66.266829
21
97.547117
0
LINE
8
Layer 1
10
66.266829
20
97.547117
11
65.855643
21
96.949335
0
LINE
8
Layer 1
10
65.855643
20
96.949335
11
65.801099
21
96.198447
0
LINE
8
Layer 1
10
65.801099
20
96.198447
11
65.863339
21
95.621503
0
LINE
8
Layer 1
10
65.863339
20
95.621503
11
66.014840
21
95.263350
0
LINE
8
Layer 1
10
66.014840
20
95.263350
11
66.326276
21
95.034349
0
LINE
8
Layer 1
10
66.326276
20
95.034349
11
66.868322
21
94.844862
0
LINE
8
Layer 1
10
66.868322
20
94.844862
11
68.095738
21
94.315908
0
LINE
8
Layer 1
10
68.095738
20
94.315908
11
69.633564
21
93.458459
0
LINE
8
Layer 1
10
69.633564
20
93.458459
11
73.429731
21
91.179784
0
LINE
8
Layer 1
10
73.429731
20
91.179784
11
75.098120
21
90.352361
0
LINE
8
Layer 1
10
75.098120
20
90.352361
11
78.922975
21
88.594359
0
LINE
8
Layer 1
10
78.922975
20
88.594359
11
83.616744
21
86.041648
0
LINE
8
Layer 1
10
83.616744
20
86.041648
11
85.206783
21
84.904321
0
LINE
8
Layer 1
10
85.206783
20
84.904321
11
86.515222
21
83.763869
0
LINE
8
Layer 1
10
86.515222
20
83.763869
11
87.541113
21
82.622095
0
LINE
8
Layer 1
10
87.541113
20
82.622095
11
88.283507
21
81.480798
0
LINE
8
Layer 1
10
88.283507
20
81.480798
11
88.741455
21
80.341781
0
LINE
8
Layer 1
10
88.741455
20
80.341781
11
88.914009
21
79.206845
0
LINE
8
Layer 1
10
88.914009
20
79.206845
11
88.800220
21
78.077791
0
LINE
8
Layer 1
10
88.800220
20
78.077791
11
88.399140
21
76.956420
0
LINE
8
Layer 1
10
88.399140
20
76.956420
11
86.825316
21
73.545167
0
LINE
8
Layer 1
10
86.825316
20
73.545167
11
86.123399
21
71.415470
0
LINE
8
Layer 1
10
86.123399
20
71.415470
11
86.081828
21
70.732811
0
LINE
8
Layer 1
10
86.081828
20
70.732811
11
86.237140
21
70.252471
0
LINE
8
Layer 1
10
86.237140
20
70.252471
11
86.582304
21
69.935090
0
LINE
8
Layer 1
10
86.582304
20
69.935090
11
87.110288
21
69.741313
0
LINE
8
Layer 1
10
87.110288
20
69.741313
11
89.399436
21
69.071275
0
LINE
8
Layer 1
10
89.399436
20
69.071275
11
91.016487
21
68.249840
0
LINE
8
Layer 1
10
91.016487
20
68.249840
11
92.109393
21
67.173391
0
LINE
8
Layer 1
10
92.109393
20
67.173391
11
92.826106
21
65.738313
0
LINE
8
Layer 1
10
92.826106
20
65.738313
11
93.515265
21
64.131757
0
LINE
8
Layer 1
10
93.515265
20
64.131757
11
94.169682
21
62.331905
0
LINE
8
Layer 1
10
94.169682
20
62.331905
11
95.221637
21
59.418694
0
LINE
8
Layer 1
10
95.221637
20
59.418694
11
95.867333
21
57.558277
0
LINE
8
Layer 1
10
95.867333
20
57.558277
11
95.726638
21
56.560066
0
LINE
8
Layer 1
10
95.726638
20
56.560066
11
95.294503
21
55.236135
0
LINE
8
Layer 1
10
95.294503
20
55.236135
11
94.683292
21
53.875595
0
LINE
8
Layer 1
10
94.683292
20
53.875595
11
94.005372
21
52.767555
0
LINE
8
Layer 1
10
94.005372
20
52.767555
11
92.726312
21
51.397410
0
LINE
8
Layer 1
10
92.726312
20
51.397410
11
90.506268
21
50.008237
0
LINE
8
Layer 1
10
90.506268
20
50.008237
11
88.968775
21
49.319040
0
LINE
8
Layer 1
10
88.968775
20
49.319040
11
87.083377
21
48.756292
0
LINE
8
Layer 1
10
87.083377
20
48.756292
11
84.977375
21
48.331387
0
LINE
8
Layer 1
10
84.977375
20
48.331387
11
82.778067
21
48.055722
0
LINE
8
Layer 1
10
82.778067
20
48.055722
11
80.612755
21
47.940691
0
LINE
8
Layer 1
10
80.612755
20
47.940691
11
78.608737
21
47.997690
0
LINE
8
Layer 1
10
78.608737
20
47.997690
11
76.893314
21
48.238113
0
LINE
8
Layer 1
10
76.893314
20
48.238113
11
75.593787
21
48.673357
0
LINE
8
Layer 1
10
75.593787
20
48.673357
11
74.741439
21
49.016980
0
LINE
8
Layer 1
10
74.741439
20
49.016980
11
74.172755
21
49.018679
0
LINE
8
Layer 1
10
74.172755
20
49.018679
11
73.867111
21
48.670274
0
LINE
8
Layer 1
10
73.867111
20
48.670274
11
73.803877
21
47.963585
0
LINE
8
Layer 1
10
73.803877
20
47.963585
11
73.743710
21
46.656402
0
LINE
8
Layer 1
10
73.743710
20
46.656402
11
73.405428
21
45.405077
0
LINE
8
Layer 1
10
73.405428
20
45.405077
11
72.783440
21
44.195264
0
LINE
8
Layer 1
10
72.783440
20
44.195264
11
71.872150
21
43.012620
0
LINE
8
Layer 1
10
71.872150
20
43.012620
11
70.723012
21
41.525940
0
LINE
8
Layer 1
10
70.723012
20
41.525940
11
70.468467
21
40.928715
0
LINE
8
Layer 1
10
70.468467
20
40.928715
11
70.361274
21
40.310895
0
LINE
8
Layer 1
10
70.361274
20
40.310895
11
70.349477
21
39.641384
0
LINE
8
Layer 1
10
70.349477
20
39.641384
11
70.482756
21
39.280297
0
LINE
8
Layer 1
10
70.482756
20
39.280297
11
70.821522
21
39.166911
0
LINE
8
Layer 1
10
70.821522
20
39.166911
11
71.426183
21
39.240502
0
LINE
8
Layer 1
10
71.426183
20
39.240502
11
72.193030
21
39.175024
0
LINE
8
Layer 1
10
72.193030
20
39.175024
11
73.381161
21
38.882314
0
LINE
8
Layer 1
10
73.381161
20
38.882314
11
75.543382
21
38.044504
0
LINE
8
Layer 1
10
75.543382
20
38.044504
11
76.207134
21
37.414815
0
LINE
8
Layer 1
10
76.207134
20
37.414815
11
76.797764
21
36.500951
0
LINE
8
Layer 1
10
76.797764
20
36.500951
11
77.187591
21
35.546245
0
LINE
8
Layer 1
10
77.187591
20
35.546245
11
77.248935
21
34.794032
0
LINE
8
Layer 1
10
77.248935
20
34.794032
11
77.248011
21
34.183875
0
LINE
8
Layer 1
10
77.248011
20
34.183875
11
77.465192
21
33.546832
0
LINE
8
Layer 1
10
77.465192
20
33.546832
11
77.816320
21
33.050702
0
LINE
8
Layer 1
10
77.816320
20
33.050702
11
78.217240
21
32.863282
0
LINE
8
Layer 1
10
78.217240
20
32.863282
11
79.318987
21
32.540292
0
LINE
8
Layer 1
10
79.318987
20
32.540292
11
81.279788
21
31.759636
0
LINE
8
Layer 1
10
81.279788
20
31.759636
11
84.457145
21
30.228035
0
LINE
8
Layer 1
10
84.457145
20
30.228035
11
85.143509
21
29.869217
0
LINE
8
Layer 1
10
85.143509
20
29.869217
11
86.673690
21
29.102332
0
LINE
8
Layer 1
10
86.673690
20
29.102332
11
87.985148
21
28.322871
0
LINE
8
Layer 1
10
87.985148
20
28.322871
11
89.916452
21
29.956898
0
LINE
8
Layer 1
10
89.916452
20
29.956898
11
93.425083
21
32.739973
0
LINE
8
Layer 1
10
93.425083
20
32.739973
11
96.884222
21
35.107180
0
LINE
8
Layer 1
10
96.884222
20
35.107180
11
100.315124
21
37.071880
0
LINE
8
Layer 1
10
100.315124
20
37.071880
11
103.739047
21
38.647432
0
LINE
8
Layer 1
10
103.739047
20
38.647432
11
107.528462
21
39.901678
0
LINE
8
Layer 1
10
107.528462
20
39.901678
11
109.052580
21
40.235185
0
LINE
8
Layer 1
10
109.052580
20
40.235185
11
109.928265
21
40.267867
0
LINE
8
Layer 1
10
109.928265
20
40.267867
11
110.290189
21
39.899027
0
LINE
8
Layer 1
10
110.290189
20
39.899027
11
110.582615
21
39.044990
0
LINE
8
Layer 1
10
110.582615
20
39.044990
11
110.960126
21
35.876439
0
LINE
8
Layer 1
10
110.960126
20
35.876439
11
110.983089
21
31.794336
0
LINE
8
Layer 1
10
110.983089
20
31.794336
11
110.787591
21
29.891252
0
LINE
8
Layer 1
10
110.787591
20
29.891252
11
110.426408
21
27.958671
0
LINE
8
Layer 1
10
110.426408
20
27.958671
11
109.123888
21
23.640592
0
LINE
8
Layer 1
10
109.123888
20
23.640592
11
106.909334
21
18.111247
0
LINE
8
Layer 1
10
106.909334
20
18.111247
11
105.647758
21
15.484092
0
LINE
8
Layer 1
10
105.647758
20
15.484092
11
104.229217
21
13.146486
0
LINE
8
Layer 1
10
104.229217
20
13.146486
11
102.645724
21
11.091310
0
LINE
8
Layer 1
10
102.645724
20
11.091310
11
100.889290
21
9.311447
0
LINE
8
Layer 1
10
100.889290
20
9.311447
11
98.951928
21
7.799780
0
LINE
8
Layer 1
10
98.951928
20
7.799780
11
96.825649
21
6.549189
0
LINE
8
Layer 1
10
96.825649
20
6.549189
11
94.502465
21
5.552559
0
LINE
8
Layer 1
10
94.502465
20
5.552559
11
91.974388
21
4.802770
0
LINE
8
Layer 1
10
91.974388
20
4.802770
11
88.695627
21
4.168356
0
LINE
8
Layer 1
10
88.695627
20
4.168356
11
84.990136
21
3.680502
0
LINE
8
Layer 1
10
84.990136
20
3.680502
11
81.405019
21
3.397087
0
LINE
8
Layer 1
10
81.405019
20
3.397087
11
78.487383
21
3.375987
0
LINE
8
Layer 1
10
78.487383
20
3.375987
11
78.487383
21
3.375987
0
LINE
8
Layer 1
10
85.328901
20
5.290840
11
91.453152
21
6.501579
0
LINE
8
Layer 1
10
91.453152
20
6.501579
11
93.350102
21
7.043129
0
LINE
8
Layer 1
10
93.350102
20
7.043129
11
95.309775
21
7.748882
0
LINE
8
Layer 1
10
95.309775
20
7.748882
11
98.196040
21
9.102920
0
LINE
8
Layer 1
10
98.196040
20
9.102920
11
100.459879
21
10.563688
0
LINE
8
Layer 1
10
100.459879
20
10.563688
11
101.423948
21
11.598949
0
LINE
8
Layer 1
10
101.423948
20
11.598949
11
102.530239
21
13.135384
0
LINE
8
Layer 1
10
102.530239
20
13.135384
11
104.900504
21
17.198532
0
LINE
8
Layer 1
10
104.900504
20
17.198532
11
107.032708
21
21.726632
0
LINE
8
Layer 1
10
107.032708
20
21.726632
11
107.841422
21
23.844257
0
LINE
8
Layer 1
10
107.841422
20
23.844257
11
108.388884
21
25.693184
0
LINE
8
Layer 1
10
108.388884
20
25.693184
11
109.143751
21
29.925204
0
LINE
8
Layer 1
10
109.143751
20
29.925204
11
109.525558
21
34.126476
0
LINE
8
Layer 1
10
109.525558
20
34.126476
11
109.489446
21
37.335329
0
LINE
8
Layer 1
10
109.489446
20
37.335329
11
109.300651
21
38.267074
0
LINE
8
Layer 1
10
109.300651
20
38.267074
11
108.990553
21
38.590087
0
LINE
8
Layer 1
10
108.990553
20
38.590087
11
106.764851
21
38.110858
0
LINE
8
Layer 1
10
106.764851
20
38.110858
11
103.619438
21
37.037784
0
LINE
8
Layer 1
10
103.619438
20
37.037784
11
100.305829
21
35.656441
0
LINE
8
Layer 1
10
100.305829
20
35.656441
11
97.575539
21
34.252402
0
LINE
8
Layer 1
10
97.575539
20
34.252402
11
95.148485
21
32.684426
0
LINE
8
Layer 1
10
95.148485
20
32.684426
11
93.023988
21
31.086881
0
LINE
8
Layer 1
10
93.023988
20
31.086881
11
91.190232
21
29.445332
0
LINE
8
Layer 1
10
91.190232
20
29.445332
11
89.635404
21
27.745348
0
LINE
8
Layer 1
10
89.635404
20
27.745348
11
88.347690
21
25.972493
0
LINE
8
Layer 1
10
88.347690
20
25.972493
11
87.315277
21
24.112334
0
LINE
8
Layer 1
10
87.315277
20
24.112334
11
86.526349
21
22.150438
0
LINE
8
Layer 1
10
86.526349
20
22.150438
11
85.969094
21
20.072370
0
LINE
8
Layer 1
10
85.969094
20
20.072370
11
85.766762
21
19.824042
0
LINE
8
Layer 1
10
85.766762
20
19.824042
11
85.390990
21
19.758900
0
LINE
8
Layer 1
10
85.390990
20
19.758900
11
85.142844
21
19.863256
0
LINE
8
Layer 1
10
85.142844
20
19.863256
11
84.951203
21
20.127426
0
LINE
8
Layer 1
10
84.951203
20
20.127426
11
84.666356
21
21.284918
0
LINE
8
Layer 1
10
84.666356
20
21.284918
11
84.420234
21
22.338083
0
LINE
8
Layer 1
10
84.420234
20
22.338083
11
84.282146
21
22.535723
0
LINE
8
Layer 1
10
84.282146
20
22.535723
11
84.129852
21
22.523721
0
LINE
8
Layer 1
10
84.129852
20
22.523721
11
83.533206
21
21.473416
0
LINE
8
Layer 1
10
83.533206
20
21.473416
11
82.535748
21
19.259832
0
LINE
8
Layer 1
10
82.535748
20
19.259832
11
80.696654
21
15.137848
0
LINE
8
Layer 1
10
80.696654
20
15.137848
11
80.248875
21
14.709000
0
LINE
8
Layer 1
10
80.248875
20
14.709000
11
79.726028
21
14.741804
0
LINE
8
Layer 1
10
79.726028
20
14.741804
11
77.379569
21
15.449193
0
LINE
8
Layer 1
10
77.379569
20
15.449193
11
70.932661
21
18.002628
0
LINE
8
Layer 1
10
70.932661
20
18.002628
11
68.332717
21
19.171182
0
LINE
8
Layer 1
10
68.332717
20
19.171182
11
67.899052
21
19.560030
0
LINE
8
Layer 1
10
67.899052
20
19.560030
11
67.779844
21
19.983921
0
LINE
8
Layer 1
10
67.779844
20
19.983921
11
67.822342
21
20.671638
0
LINE
8
Layer 1
10
67.822342
20
20.671638
11
68.106452
21
21.434988
0
LINE
8
Layer 1
10
68.106452
20
21.434988
11
69.840602
21
24.061366
0
LINE
8
Layer 1
10
69.840602
20
24.061366
11
70.783205
21
25.462657
0
LINE
8
Layer 1
10
70.783205
20
25.462657
11
71.255982
21
26.406317
0
LINE
8
Layer 1
10
71.255982
20
26.406317
11
71.270003
21
26.925616
0
LINE
8
Layer 1
10
71.270003
20
26.925616
11
70.836338
21
27.053822
0
LINE
8
Layer 1
10
70.836338
20
27.053822
11
65.899792
21
25.815727
0
LINE
8
Layer 1
10
65.899792
20
25.815727
11
61.986675
21
24.648561
0
LINE
8
Layer 1
10
61.986675
20
24.648561
11
61.224438
21
24.205481
0
LINE
8
Layer 1
10
61.224438
20
24.205481
11
60.706564
21
23.623070
0
LINE
8
Layer 1
10
60.706564
20
23.623070
11
59.825754
21
22.132663
0
LINE
8
Layer 1
10
59.825754
20
22.132663
11
58.942965
21
20.132139
0
LINE
8
Layer 1
10
58.942965
20
20.132139
11
58.216079
21
18.024455
0
LINE
8
Layer 1
10
58.216079
20
18.024455
11
57.802978
21
16.212563
0
LINE
8
Layer 1
10
57.802978
20
16.212563
11
57.738204
21
14.709665
0
LINE
8
Layer 1
10
57.738204
20
14.709665
11
57.958781
21
13.316259
0
LINE
8
Layer 1
10
57.958781
20
13.316259
11
58.465068
21
12.031910
0
LINE
8
Layer 1
10
58.465068
20
12.031910
11
59.257427
21
10.856183
0
LINE
8
Layer 1
10
59.257427
20
10.856183
11
60.336221
21
9.788644
0
LINE
8
Layer 1
10
60.336221
20
9.788644
11
61.701810
21
8.828858
0
LINE
8
Layer 1
10
61.701810
20
8.828858
11
63.354556
21
7.976392
0
LINE
8
Layer 1
10
63.354556
20
7.976392
11
65.294820
21
7.230810
0
LINE
8
Layer 1
10
65.294820
20
7.230810
11
67.439745
21
6.664825
0
LINE
8
Layer 1
10
67.439745
20
6.664825
11
69.409705
21
6.362663
0
LINE
8
Layer 1
10
69.409705
20
6.362663
11
73.676990
21
5.916171
0
LINE
8
Layer 1
10
73.676990
20
5.916171
11
77.522888
21
5.401203
0
LINE
8
Layer 1
10
77.522888
20
5.401203
11
80.088881
21
5.022291
0
LINE
8
Layer 1
10
80.088881
20
5.022291
11
82.274911
21
4.871392
0
LINE
8
Layer 1
10
82.274911
20
4.871392
11
85.328901
21
5.290840
0
LINE
8
Layer 1
10
85.328901
20
5.290840
11
85.328901
21
5.290840
0
LINE
8
Layer 1
10
48.162662
20
7.420994
11
50.731845
21
8.816404
0
LINE
8
Layer 1
10
50.731845
20
8.816404
11
51.714763
21
9.590414
0
LINE
8
Layer 1
10
51.714763
20
9.590414
11
52.525891
21
10.451896
0
LINE
8
Layer 1
10
52.525891
20
10.451896
11
53.187224
21
11.428303
0
LINE
8
Layer 1
10
53.187224
20
11.428303
11
53.720757
21
12.547087
0
LINE
8
Layer 1
10
53.720757
20
12.547087
11
54.492398
21
15.321593
0
LINE
8
Layer 1
10
54.492398
20
15.321593
11
54.585798
21
16.408715
0
LINE
8
Layer 1
10
54.585798
20
16.408715
11
54.529216
21
17.768889
0
LINE
8
Layer 1
10
54.529216
20
17.768889
11
54.066934
21
20.831067
0
LINE
8
Layer 1
10
54.066934
20
20.831067
11
53.307218
21
23.553480
0
LINE
8
Layer 1
10
53.307218
20
23.553480
11
52.878843
21
24.488947
0
LINE
8
Layer 1
10
52.878843
20
24.488947
11
52.451734
21
24.981479
0
LINE
8
Layer 1
10
52.451734
20
24.981479
11
51.674176
21
25.029301
0
LINE
8
Layer 1
10
51.674176
20
25.029301
11
50.234229
21
24.688684
0
LINE
8
Layer 1
10
50.234229
20
24.688684
11
48.602194
21
24.350420
0
LINE
8
Layer 1
10
48.602194
20
24.350420
11
46.719307
21
24.239200
0
LINE
8
Layer 1
10
46.719307
20
24.239200
11
44.627187
21
24.354976
0
LINE
8
Layer 1
10
44.627187
20
24.354976
11
42.367454
21
24.697701
0
LINE
8
Layer 1
10
42.367454
20
24.697701
11
40.187908
21
25.023197
0
LINE
8
Layer 1
10
40.187908
20
25.023197
11
39.925976
21
24.846672
0
LINE
8
Layer 1
10
39.925976
20
24.846672
11
39.828371
21
24.465723
0
LINE
8
Layer 1
10
39.828371
20
24.465723
11
39.900333
21
24.044239
0
LINE
8
Layer 1
10
39.900333
20
24.044239
11
40.147099
21
23.746107
0
LINE
8
Layer 1
10
40.147099
20
23.746107
11
40.504322
21
23.339989
0
LINE
8
Layer 1
10
40.504322
20
23.339989
11
40.916518
21
22.600435
0
LINE
8
Layer 1
10
40.916518
20
22.600435
11
41.424973
21
21.112102
0
LINE
8
Layer 1
10
41.424973
20
21.112102
11
41.302180
21
20.648613
0
LINE
8
Layer 1
10
41.302180
20
20.648613
11
40.898583
21
20.276671
0
LINE
8
Layer 1
10
40.898583
20
20.276671
11
40.248028
21
20.016572
0
LINE
8
Layer 1
10
40.248028
20
20.016572
11
39.384365
21
19.888609
0
LINE
8
Layer 1
10
39.384365
20
19.888609
11
38.400900
21
19.662296
0
LINE
8
Layer 1
10
38.400900
20
19.662296
11
37.219135
21
19.139077
0
LINE
8
Layer 1
10
37.219135
20
19.139077
11
36.012721
21
18.410011
0
LINE
8
Layer 1
10
36.012721
20
18.410011
11
34.955311
21
17.566155
0
LINE
8
Layer 1
10
34.955311
20
17.566155
11
32.587819
21
15.721173
0
LINE
8
Layer 1
10
32.587819
20
15.721173
11
31.517222
21
15.116456
0
LINE
8
Layer 1
10
31.517222
20
15.116456
11
30.749071
21
14.869154
0
LINE
8
Layer 1
10
30.749071
20
14.869154
11
30.193430
21
14.992124
0
LINE
8
Layer 1
10
30.193430
20
14.992124
11
29.724773
21
15.388791
0
LINE
8
Layer 1
10
29.724773
20
15.388791
11
29.390123
21
16.000160
0
LINE
8
Layer 1
10
29.390123
20
16.000160
11
29.236501
21
16.767234
0
LINE
8
Layer 1
10
29.236501
20
16.767234
11
28.253888
21
19.107370
0
LINE
8
Layer 1
10
28.253888
20
19.107370
11
27.292694
21
21.108678
0
LINE
8
Layer 1
10
27.292694
20
21.108678
11
26.421136
21
22.891756
0
LINE
8
Layer 1
10
26.421136
20
22.891756
11
25.836014
21
23.809880
0
LINE
8
Layer 1
10
25.836014
20
23.809880
11
25.362732
21
24.287944
0
LINE
8
Layer 1
10
25.362732
20
24.287944
11
25.091041
21
24.270461
0
LINE
8
Layer 1
10
25.091041
20
24.270461
11
25.110693
21
23.701942
0
LINE
8
Layer 1
10
25.110693
20
23.701942
11
25.766013
21
20.801815
0
LINE
8
Layer 1
10
25.766013
20
20.801815
11
26.358902
21
17.346832
0
LINE
8
Layer 1
10
26.358902
20
17.346832
11
26.294559
21
16.491258
0
LINE
8
Layer 1
10
26.294559
20
16.491258
11
25.995375
21
16.100580
0
LINE
8
Layer 1
10
25.995375
20
16.100580
11
25.599539
21
16.046036
0
LINE
8
Layer 1
10
25.599539
20
16.046036
11
25.295450
21
16.335865
0
LINE
8
Layer 1
10
25.295450
20
16.335865
11
24.815489
21
18.211693
0
LINE
8
Layer 1
10
24.815489
20
18.211693
11
23.932870
21
21.675914
0
LINE
8
Layer 1
10
23.932870
20
21.675914
11
22.672152
21
25.005617
0
LINE
8
Layer 1
10
22.672152
20
25.005617
11
21.229612
21
27.822777
0
LINE
8
Layer 1
10
21.229612
20
27.822777
11
20.203865
21
29.386725
0
LINE
8
Layer 1
10
20.203865
20
29.386725
11
18.927232
21
31.235125
0
LINE
8
Layer 1
10
18.927232
20
31.235125
11
18.154272
21
32.235060
0
LINE
8
Layer 1
10
18.154272
20
32.235060
11
16.969593
21
33.418886
0
LINE
8
Layer 1
10
16.969593
20
33.418886
11
13.944257
21
35.908262
0
LINE
8
Layer 1
10
13.944257
20
35.908262
11
11.009572
21
37.843347
0
LINE
8
Layer 1
10
11.009572
20
37.843347
11
9.938208
21
38.334311
0
LINE
8
Layer 1
10
9.938208
20
38.334311
11
9.323888
21
38.364239
0
LINE
8
Layer 1
10
9.323888
20
38.364239
11
8.792386
21
36.764395
0
LINE
8
Layer 1
10
8.792386
20
36.764395
11
8.178968
21
33.501107
0
LINE
8
Layer 1
10
8.178968
20
33.501107
11
8.047669
21
30.855156
0
LINE
8
Layer 1
10
8.047669
20
30.855156
11
8.186715
21
27.392323
0
LINE
8
Layer 1
10
8.186715
20
27.392323
11
8.531290
21
24.027695
0
LINE
8
Layer 1
10
8.531290
20
24.027695
11
9.016576
21
21.676357
0
LINE
8
Layer 1
10
9.016576
20
21.676357
11
9.857598
21
19.180514
0
LINE
8
Layer 1
10
9.857598
20
19.180514
11
10.501657
21
17.678270
0
LINE
8
Layer 1
10
10.501657
20
17.678270
11
11.505846
21
15.890239
0
LINE
8
Layer 1
10
11.505846
20
15.890239
11
12.666584
21
14.148359
0
LINE
8
Layer 1
10
12.666584
20
14.148359
11
13.780289
21
12.784568
0
LINE
8
Layer 1
10
13.780289
20
12.784568
11
16.202733
21
10.627803
0
LINE
8
Layer 1
10
16.202733
20
10.627803
11
17.263681
21
9.885284
0
LINE
8
Layer 1
10
17.263681
20
9.885284
11
17.916792
21
9.603288
0
LINE
8
Layer 1
10
17.916792
20
9.603288
11
19.354094
21
8.835111
0
LINE
8
Layer 1
10
19.354094
20
8.835111
11
20.743643
21
8.074795
0
LINE
8
Layer 1
10
20.743643
20
8.074795
11
22.204199
21
7.608559
0
LINE
8
Layer 1
10
22.204199
20
7.608559
11
24.541538
21
6.981630
0
LINE
8
Layer 1
10
24.541538
20
6.981630
11
27.726968
21
6.522871
0
LINE
8
Layer 1
10
27.726968
20
6.522871
11
31.466081
21
6.234408
0
LINE
8
Layer 1
10
31.466081
20
6.234408
11
35.464471
21
6.118369
0
LINE
8
Layer 1
10
35.464471
20
6.118369
11
39.427731
21
6.176880
0
LINE
8
Layer 1
10
39.427731
20
6.176880
11
43.061454
21
6.412070
0
LINE
8
Layer 1
10
43.061454
20
6.412070
11
46.071233
21
6.826066
0
LINE
8
Layer 1
10
46.071233
20
6.826066
11
48.162662
21
7.420994
0
LINE
8
Layer 1
10
48.162662
20
7.420994
11
48.162662
21
7.420994
0
LINE
8
Layer 1
10
80.115100
20
16.859163
11
80.483124
21
17.402854
0
LINE
8
Layer 1
10
80.483124
20
17.402854
11
80.622168
21
17.873221
0
LINE
8
Layer 1
10
80.622168
20
17.873221
11
80.969221
21
19.145580
0
LINE
8
Layer 1
10
80.969221
20
19.145580
11
81.911716
21
21.327842
0
LINE
8
Layer 1
10
81.911716
20
21.327842
11
83.192120
21
23.872400
0
LINE
8
Layer 1
10
83.192120
20
23.872400
11
84.552903
21
26.231644
0
LINE
8
Layer 1
10
84.552903
20
26.231644
11
85.411451
21
27.992976
0
LINE
8
Layer 1
10
85.411451
20
27.992976
11
84.355992
21
28.691390
0
LINE
8
Layer 1
10
84.355992
20
28.691390
11
81.989355
21
29.769294
0
LINE
8
Layer 1
10
81.989355
20
29.769294
11
79.450893
21
30.748796
0
LINE
8
Layer 1
10
79.450893
20
30.748796
11
77.879956
21
31.152005
0
LINE
8
Layer 1
10
77.879956
20
31.152005
11
77.106815
21
30.737026
0
LINE
8
Layer 1
10
77.106815
20
30.737026
11
75.977201
21
29.685348
0
LINE
8
Layer 1
10
75.977201
20
29.685348
11
73.221123
21
26.420876
0
LINE
8
Layer 1
10
73.221123
20
26.420876
11
70.756859
21
22.856566
0
LINE
8
Layer 1
10
70.756859
20
22.856566
11
69.992013
21
21.430089
0
LINE
8
Layer 1
10
69.992013
20
21.430089
11
69.729548
21
20.490392
0
LINE
8
Layer 1
10
69.729548
20
20.490392
11
70.161496
21
19.943942
0
LINE
8
Layer 1
10
70.161496
20
19.943942
11
71.138743
21
19.251288
0
LINE
8
Layer 1
10
71.138743
20
19.251288
11
72.250573
21
18.664060
0
LINE
8
Layer 1
10
72.250573
20
18.664060
11
73.086270
21
18.433889
0
LINE
8
Layer 1
10
73.086270
20
18.433889
11
73.678373
21
18.185243
0
LINE
8
Layer 1
10
73.678373
20
18.185243
11
74.292460
21
17.937858
0
LINE
8
Layer 1
10
74.292460
20
17.937858
11
76.506493
21
17.244009
0
LINE
8
Layer 1
10
76.506493
20
17.244009
11
78.203015
21
16.579653
0
LINE
8
Layer 1
10
78.203015
20
16.579653
11
79.142742
21
16.318291
0
LINE
8
Layer 1
10
79.142742
20
16.318291
11
79.666495
21
16.423577
0
LINE
8
Layer 1
10
79.666495
20
16.423577
11
80.115100
21
16.859163
0
LINE
8
Layer 1
10
80.115100
20
16.859163
11
80.115100
21
16.859163
0
LINE
8
Layer 1
10
76.538469
20
20.065802
11
74.531446
21
20.556395
0
LINE
8
Layer 1
10
74.531446
20
20.556395
11
73.451470
21
20.937050
0
LINE
8
Layer 1
10
73.451470
20
20.937050
11
73.223437
21
21.219887
0
LINE
8
Layer 1
10
73.223437
20
21.219887
11
73.105405
21
21.638757
0
LINE
8
Layer 1
10
73.105405
20
21.638757
11
73.102901
21
22.386679
0
LINE
8
Layer 1
10
73.102901
20
22.386679
11
73.369918
21
23.293516
0
LINE
8
Layer 1
10
73.369918
20
23.293516
11
74.893847
21
26.029048
0
LINE
8
Layer 1
10
74.893847
20
26.029048
11
75.939427
21
27.528901
0
LINE
8
Layer 1
10
75.939427
20
27.528901
11
76.840962
21
28.311866
0
LINE
8
Layer 1
10
76.840962
20
28.311866
11
77.889849
21
28.527066
0
LINE
8
Layer 1
10
77.889849
20
28.527066
11
79.377484
21
28.323627
0
LINE
8
Layer 1
10
79.377484
20
28.323627
11
80.906288
21
27.906234
0
LINE
8
Layer 1
10
80.906288
20
27.906234
11
81.859910
21
27.450480
0
LINE
8
Layer 1
10
81.859910
20
27.450480
11
82.152601
21
27.140509
0
LINE
8
Layer 1
10
82.152601
20
27.140509
11
82.230715
21
26.780262
0
LINE
8
Layer 1
10
82.230715
20
26.780262
11
81.683352
21
25.117893
0
LINE
8
Layer 1
10
81.683352
20
25.117893
11
81.005472
21
23.643772
0
LINE
8
Layer 1
10
81.005472
20
23.643772
11
80.387557
21
22.696794
0
LINE
8
Layer 1
10
80.387557
20
22.696794
11
79.827572
21
21.860171
0
LINE
8
Layer 1
10
79.827572
20
21.860171
11
79.307154
21
20.743316
0
LINE
8
Layer 1
10
79.307154
20
20.743316
11
78.840090
21
20.204062
0
LINE
8
Layer 1
10
78.840090
20
20.204062
11
78.252017
21
19.918504
0
LINE
8
Layer 1
10
78.252017
20
19.918504
11
77.499341
21
19.875973
0
LINE
8
Layer 1
10
77.499341
20
19.875973
11
76.538469
21
20.065802
0
LINE
8
Layer 1
10
76.538469
20
20.065802
11
76.538469
21
20.065802
0
LINE
8
Layer 1
10
79.045590
20
23.169443
11
79.793960
21
24.483344
0
LINE
8
Layer 1
10
79.793960
20
24.483344
11
80.222044
21
25.562747
0
LINE
8
Layer 1
10
80.222044
20
25.562747
11
80.314800
21
26.353641
0
LINE
8
Layer 1
10
80.314800
20
26.353641
11
80.057188
21
26.802015
0
LINE
8
Layer 1
10
80.057188
20
26.802015
11
79.544376
21
26.935888
0
LINE
8
Layer 1
10
79.544376
20
26.935888
11
78.876221
21
26.867417
0
LINE
8
Layer 1
10
78.876221
20
26.867417
11
77.311585
21
26.252659
0
LINE
8
Layer 1
10
77.311585
20
26.252659
11
75.838680
21
25.216170
0
LINE
8
Layer 1
10
75.838680
20
25.216170
11
75.285190
21
24.620536
0
LINE
8
Layer 1
10
75.285190
20
24.620536
11
74.932907
21
24.016380
0
LINE
8
Layer 1
10
74.932907
20
24.016380
11
74.666135
21
22.852892
0
LINE
8
Layer 1
10
74.666135
20
22.852892
11
74.727079
21
22.408600
0
LINE
8
Layer 1
10
74.727079
20
22.408600
11
74.919106
21
22.054101
0
LINE
8
Layer 1
10
74.919106
20
22.054101
11
75.701011
21
21.608959
0
LINE
8
Layer 1
10
75.701011
20
21.608959
11
77.021041
21
21.506414
0
LINE
8
Layer 1
10
77.021041
20
21.506414
11
77.578625
21
21.577946
0
LINE
8
Layer 1
10
77.578625
20
21.577946
11
78.016456
21
21.808765
0
LINE
8
Layer 1
10
78.016456
20
21.808765
11
79.045590
21
23.169443
0
LINE
8
Layer 1
10
79.045590
20
23.169443
11
79.045590
21
23.169443
0
LINE
8
Layer 1
10
35.370770
20
19.030349
11
38.480679
21
20.971194
0
LINE
8
Layer 1
10
38.480679
20
20.971194
11
38.945506
21
21.500379
0
LINE
8
Layer 1
10
38.945506
20
21.500379
11
39.055181
21
22.038824
0
LINE
8
Layer 1
10
39.055181
20
22.038824
11
38.895101
21
23.038370
0
LINE
8
Layer 1
10
38.895101
20
23.038370
11
38.360011
21
24.218333
0
LINE
8
Layer 1
10
38.360011
20
24.218333
11
37.475968
21
25.532914
0
LINE
8
Layer 1
10
37.475968
20
25.532914
11
36.269027
21
26.936313
0
LINE
8
Layer 1
10
36.269027
20
26.936313
11
34.545284
21
29.062537
0
LINE
8
Layer 1
10
34.545284
20
29.062537
11
33.386522
21
31.227197
0
LINE
8
Layer 1
10
33.386522
20
31.227197
11
33.042158
21
31.585512
0
LINE
8
Layer 1
10
33.042158
20
31.585512
11
32.276598
21
31.501568
0
LINE
8
Layer 1
10
32.276598
20
31.501568
11
27.614738
21
30.225040
0
LINE
8
Layer 1
10
27.614738
20
30.225040
11
25.876870
21
29.721457
0
LINE
8
Layer 1
10
25.876870
20
29.721457
11
25.451547
21
29.523200
0
LINE
8
Layer 1
10
25.451547
20
29.523200
11
25.208256
21
29.179091
0
LINE
8
Layer 1
10
25.208256
20
29.179091
11
25.157571
21
28.653752
0
LINE
8
Layer 1
10
25.157571
20
28.653752
11
25.310062
21
27.911806
0
LINE
8
Layer 1
10
25.310062
20
27.911806
11
26.266863
21
25.636579
0
LINE
8
Layer 1
10
26.266863
20
25.636579
11
28.163237
21
22.070387
0
LINE
8
Layer 1
10
28.163237
20
22.070387
11
30.406763
21
17.888373
0
LINE
8
Layer 1
10
30.406763
20
17.888373
11
30.875072
21
17.166614
0
LINE
8
Layer 1
10
30.875072
20
17.166614
11
31.310298
21
16.880233
0
LINE
8
Layer 1
10
31.310298
20
16.880233
11
35.370770
21
19.030349
0
LINE
8
Layer 1
10
35.370770
20
19.030349
11
35.370770
21
19.030349
0
LINE
8
Layer 1
10
30.170882
20
22.076895
11
28.903167
21
24.746323
0
LINE
8
Layer 1
10
28.903167
20
24.746323
11
28.204808
21
26.752045
0
LINE
8
Layer 1
10
28.204808
20
26.752045
11
28.071008
21
28.113487
0
LINE
8
Layer 1
10
28.071008
20
28.113487
11
28.214317
21
28.558674
0
LINE
8
Layer 1
10
28.214317
20
28.558674
11
28.496966
21
28.850076
0
LINE
8
Layer 1
10
28.496966
20
28.850076
11
30.373962
21
29.717245
0
LINE
8
Layer 1
10
30.373962
20
29.717245
11
32.075148
21
30.206439
0
LINE
8
Layer 1
10
32.075148
20
30.206439
11
32.644426
21
30.053844
0
LINE
8
Layer 1
10
32.644426
20
30.053844
11
33.061938
21
29.489891
0
LINE
8
Layer 1
10
33.061938
20
29.489891
11
33.861248
21
27.892296
0
LINE
8
Layer 1
10
33.861248
20
27.892296
11
34.913965
21
26.274782
0
LINE
8
Layer 1
10
34.913965
20
26.274782
11
36.415292
21
23.821440
0
LINE
8
Layer 1
10
36.415292
20
23.821440
11
36.628223
21
23.098110
0
LINE
8
Layer 1
10
36.628223
20
23.098110
11
36.544702
21
22.569396
0
LINE
8
Layer 1
10
36.544702
20
22.569396
11
36.048363
21
22.075676
0
LINE
8
Layer 1
10
36.048363
20
22.075676
11
35.084043
21
21.560306
0
LINE
8
Layer 1
10
35.084043
20
21.560306
11
33.796926
21
21.087039
0
LINE
8
Layer 1
10
33.796926
20
21.087039
11
32.332196
21
20.719629
0
LINE
8
Layer 1
10
32.332196
20
20.719629
11
31.005667
21
20.461193
0
LINE
8
Layer 1
10
31.005667
20
20.461193
11
30.170882
21
22.076895
0
LINE
8
Layer 1
10
30.170882
20
22.076895
11
30.170882
21
22.076895
0
LINE
8
Layer 1
10
33.989998
20
22.836660
11
34.566875
21
23.317578
0
LINE
8
Layer 1
10
34.566875
20
23.317578
11
34.707467
21
23.959603
0
LINE
8
Layer 1
10
34.707467
20
23.959603
11
34.390441
21
24.961505
0
LINE
8
Layer 1
10
34.390441
20
24.961505
11
33.594463
21
26.522056
0
LINE
8
Layer 1
10
33.594463
20
26.522056
11
32.457277
21
28.601202
0
LINE
8
Layer 1
10
32.457277
20
28.601202
11
31.457787
21
28.379471
0
LINE
8
Layer 1
10
31.457787
20
28.379471
11
30.525360
21
28.079855
0
LINE
8
Layer 1
10
30.525360
20
28.079855
11
30.011797
21
27.645421
0
LINE
8
Layer 1
10
30.011797
20
27.645421
11
29.872783
21
27.003043
0
LINE
8
Layer 1
10
29.872783
20
27.003043
11
30.064004
21
26.079597
0
LINE
8
Layer 1
10
30.064004
20
26.079597
11
31.108368
21
23.573861
0
LINE
8
Layer 1
10
31.108368
20
23.573861
11
31.663270
21
22.724597
0
LINE
8
Layer 1
10
31.663270
20
22.724597
11
32.271518
21
22.333223
0
LINE
8
Layer 1
10
32.271518
20
22.333223
11
33.018599
21
22.377867
0
LINE
8
Layer 1
10
33.018599
20
22.377867
11
33.989998
21
22.836660
0
LINE
8
Layer 1
10
33.989998
20
22.836660
11
33.989998
21
22.836660
0
LINE
8
Layer 1
10
57.838284
20
22.330647
11
59.007897
21
25.012752
0
LINE
8
Layer 1
10
59.007897
20
25.012752
11
58.799998
21
25.363081
0
LINE
8
Layer 1
10
58.799998
20
25.363081
11
58.334289
21
25.665718
0
LINE
8
Layer 1
10
58.334289
20
25.665718
11
56.279824
21
26.629312
0
LINE
8
Layer 1
10
56.279824
20
26.629312
11
55.206994
21
27.075631
0
LINE
8
Layer 1
10
55.206994
20
27.075631
11
54.537892
21
27.117898
0
LINE
8
Layer 1
10
54.537892
20
27.117898
11
54.208113
21
26.734090
0
LINE
8
Layer 1
10
54.208113
20
26.734090
11
54.153252
21
25.902186
0
LINE
8
Layer 1
10
54.153252
20
25.902186
11
54.930559
21
22.999952
0
LINE
8
Layer 1
10
54.930559
20
22.999952
11
56.040669
21
20.266818
0
LINE
8
Layer 1
10
56.040669
20
20.266818
11
56.305699
21
20.056468
0
LINE
8
Layer 1
10
56.305699
20
20.056468
11
56.630835
21
20.258207
0
LINE
8
Layer 1
10
56.630835
20
20.258207
11
57.838284
21
22.330647
0
LINE
8
Layer 1
10
57.838284
20
22.330647
11
57.838284
21
22.330647
0
LINE
8
Layer 1
10
49.541204
20
25.865760
11
51.024709
21
26.236842
0
LINE
8
Layer 1
10
51.024709
20
26.236842
11
52.041407
21
26.713234
0
LINE
8
Layer 1
10
52.041407
20
26.713234
11
52.714438
21
27.378110
0
LINE
8
Layer 1
10
52.714438
20
27.378110
11
53.166941
21
28.314642
0
LINE
8
Layer 1
10
53.166941
20
28.314642
11
53.327512
21
29.078870
0
LINE
8
Layer 1
10
53.327512
20
29.078870
11
53.317479
21
29.779488
0
LINE
8
Layer 1
10
53.317479
20
29.779488
11
53.167848
21
30.152125
0
LINE
8
Layer 1
10
53.167848
20
30.152125
11
52.666029
21
30.342596
0
LINE
8
Layer 1
10
52.666029
20
30.342596
11
49.127974
21
30.393705
0
LINE
8
Layer 1
10
49.127974
20
30.393705
11
46.099278
21
30.461017
0
LINE
8
Layer 1
10
46.099278
20
30.461017
11
43.897031
21
30.771868
0
LINE
8
Layer 1
10
43.897031
20
30.771868
11
42.287965
21
31.382665
0
LINE
8
Layer 1
10
42.287965
20
31.382665
11
41.038808
21
32.349818
0
LINE
8
Layer 1
10
41.038808
20
32.349818
11
40.525136
21
32.911143
0
LINE
8
Layer 1
10
40.525136
20
32.911143
11
40.259663
21
33.393836
0
LINE
8
Layer 1
10
40.259663
20
33.393836
11
40.209160
21
34.951712
0
LINE
8
Layer 1
10
40.209160
20
34.951712
11
40.185922
21
36.430208
0
LINE
8
Layer 1
10
40.185922
20
36.430208
11
39.952878
21
36.695948
0
LINE
8
Layer 1
10
39.952878
20
36.695948
11
39.486050
21
36.875195
0
LINE
8
Layer 1
10
39.486050
20
36.875195
11
38.689417
21
36.998565
0
LINE
8
Layer 1
10
38.689417
20
36.998565
11
37.810207
21
36.933467
0
LINE
8
Layer 1
10
37.810207
20
36.933467
11
36.992286
21
36.704802
0
LINE
8
Layer 1
10
36.992286
20
36.704802
11
36.379517
21
36.337474
0
LINE
8
Layer 1
10
36.379517
20
36.337474
11
35.940064
21
35.706996
0
LINE
8
Layer 1
10
35.940064
20
35.706996
11
35.515377
21
34.745605
0
LINE
8
Layer 1
10
35.515377
20
34.745605
11
35.191587
21
33.685867
0
LINE
8
Layer 1
10
35.191587
20
33.685867
11
35.054822
21
32.760353
0
LINE
8
Layer 1
10
35.054822
20
32.760353
11
35.401186
21
31.654432
0
LINE
8
Layer 1
10
35.401186
20
31.654432
11
36.590534
21
29.902695
0
LINE
8
Layer 1
10
36.590534
20
29.902695
11
38.162583
21
28.089120
0
LINE
8
Layer 1
10
38.162583
20
28.089120
11
39.745130
21
26.898194
0
LINE
8
Layer 1
10
39.745130
20
26.898194
11
41.638594
21
26.163492
0
LINE
8
Layer 1
10
41.638594
20
26.163492
11
44.143394
21
25.718587
0
LINE
8
Layer 1
10
44.143394
20
25.718587
11
46.972686
21
25.469239
0
LINE
8
Layer 1
10
46.972686
20
25.469239
11
49.541204
21
25.865760
0
LINE
8
Layer 1
10
49.541204
20
25.865760
11
49.541204
21
25.865760
0
LINE
8
Layer 1
10
64.485746
20
26.884921
11
67.340085
21
27.633453
0
LINE
8
Layer 1
10
67.340085
20
27.633453
11
69.699011
21
28.397056
0
LINE
8
Layer 1
10
69.699011
20
28.397056
11
71.461406
21
29.163249
0
LINE
8
Layer 1
10
71.461406
20
29.163249
11
73.150388
21
30.259874
0
LINE
8
Layer 1
10
73.150388
20
30.259874
11
74.541422
21
31.515459
0
LINE
8
Layer 1
10
74.541422
20
31.515459
11
75.409975
21
32.758527
0
LINE
8
Layer 1
10
75.409975
20
32.758527
11
75.638757
21
33.608580
0
LINE
8
Layer 1
10
75.638757
20
33.608580
11
75.687125
21
34.625148
0
LINE
8
Layer 1
10
75.687125
20
34.625148
11
75.561407
21
35.641909
0
LINE
8
Layer 1
10
75.561407
20
35.641909
11
75.267933
21
36.492544
0
LINE
8
Layer 1
10
75.267933
20
36.492544
11
74.603348
21
37.206032
0
LINE
8
Layer 1
10
74.603348
20
37.206032
11
73.583197
21
37.748033
0
LINE
8
Layer 1
10
73.583197
20
37.748033
11
72.453958
21
38.024672
0
LINE
8
Layer 1
10
72.453958
20
38.024672
11
71.462110
21
37.942074
0
LINE
8
Layer 1
10
71.462110
20
37.942074
11
70.957518
21
37.731659
0
LINE
8
Layer 1
10
70.957518
20
37.731659
11
70.699224
21
37.417585
0
LINE
8
Layer 1
10
70.699224
20
37.417585
11
70.613693
21
35.644977
0
LINE
8
Layer 1
10
70.613693
20
35.644977
11
70.646008
21
33.655262
0
LINE
8
Layer 1
10
70.646008
20
33.655262
11
68.931367
21
32.946478
0
LINE
8
Layer 1
10
68.931367
20
32.946478
11
65.491254
21
31.749334
0
LINE
8
Layer 1
10
65.491254
20
31.749334
11
61.628189
21
30.796363
0
LINE
8
Layer 1
10
61.628189
20
30.796363
11
59.846058
21
30.554655
0
LINE
8
Layer 1
10
59.846058
20
30.554655
11
58.535288
21
30.740395
0
LINE
8
Layer 1
10
58.535288
20
30.740395
11
57.374060
21
30.960608
0
LINE
8
Layer 1
10
57.374060
20
30.960608
11
56.191263
21
31.019217
0
LINE
8
Layer 1
10
56.191263
20
31.019217
11
55.180512
21
30.857043
0
LINE
8
Layer 1
10
55.180512
20
30.857043
11
55.043080
21
30.622858
0
LINE
8
Layer 1
10
55.043080
20
30.622858
11
55.036579
21
30.206067
0
LINE
8
Layer 1
10
55.036579
20
30.206067
11
55.229598
21
29.589363
0
LINE
8
Layer 1
10
55.229598
20
29.589363
11
55.652278
21
28.936746
0
LINE
8
Layer 1
10
55.652278
20
28.936746
11
56.163208
21
28.424633
0
LINE
8
Layer 1
10
56.163208
20
28.424633
11
56.620974
21
28.229444
0
LINE
8
Layer 1
10
56.620974
20
28.229444
11
58.951086
21
27.408528
0
LINE
8
Layer 1
10
58.951086
20
27.408528
11
61.510785
21
26.451450
0
LINE
8
Layer 1
10
61.510785
20
26.451450
11
62.056323
21
26.380212
0
LINE
8
Layer 1
10
62.056323
20
26.380212
11
62.530736
21
26.470912
0
LINE
8
Layer 1
10
62.530736
20
26.470912
11
64.485746
21
26.884921
0
LINE
8
Layer 1
10
64.485746
20
26.884921
11
64.485746
21
26.884921
0
LINE
8
Layer 1
10
62.391967
20
32.273099
11
65.755058
21
33.321272
0
LINE
8
Layer 1
10
65.755058
20
33.321272
11
68.431354
21
34.466603
0
LINE
8
Layer 1
10
68.431354
20
34.466603
11
69.183673
21
34.902654
0
LINE
8
Layer 1
10
69.183673
20
34.902654
11
68.999552
21
38.105077
0
LINE
8
Layer 1
10
68.999552
20
38.105077
11
68.871024
21
40.165376
0
LINE
8
Layer 1
10
68.871024
20
40.165376
11
68.759472
21
40.770912
0
LINE
8
Layer 1
10
68.759472
20
40.770912
11
68.555401
21
41.162849
0
LINE
8
Layer 1
10
68.555401
20
41.162849
11
68.213062
21
41.393297
0
LINE
8
Layer 1
10
68.213062
20
41.393297
11
67.686709
21
41.514362
0
LINE
8
Layer 1
10
67.686709
20
41.514362
11
65.898974
21
41.636775
0
LINE
8
Layer 1
10
65.898974
20
41.636775
11
64.581573
21
41.795784
0
LINE
8
Layer 1
10
64.581573
20
41.795784
11
64.330946
21
41.897980
0
LINE
8
Layer 1
10
64.330946
20
41.897980
11
64.341925
21
42.007019
0
LINE
8
Layer 1
10
64.341925
20
42.007019
11
65.117368
21
42.220772
0
LINE
8
Layer 1
10
65.117368
20
42.220772
11
66.845236
21
42.387334
0
LINE
8
Layer 1
10
66.845236
20
42.387334
11
69.104235
21
42.628127
0
LINE
8
Layer 1
10
69.104235
20
42.628127
11
70.320267
21
43.138996
0
LINE
8
Layer 1
10
70.320267
20
43.138996
11
71.301422
21
44.092244
0
LINE
8
Layer 1
10
71.301422
20
44.092244
11
72.058692
21
45.374384
0
LINE
8
Layer 1
10
72.058692
20
45.374384
11
72.528297
21
46.842452
0
LINE
8
Layer 1
10
72.528297
20
46.842452
11
72.646455
21
48.353486
0
LINE
8
Layer 1
10
72.646455
20
48.353486
11
72.877539
21
50.267814
0
LINE
8
Layer 1
10
72.877539
20
50.267814
11
73.019483
21
50.988561
0
LINE
8
Layer 1
10
73.019483
20
50.988561
11
72.964153
21
51.390279
0
LINE
8
Layer 1
10
72.964153
20
51.390279
11
71.986793
21
51.252843
0
LINE
8
Layer 1
10
71.986793
20
51.252843
11
69.912004
21
50.677321
0
LINE
8
Layer 1
10
69.912004
20
50.677321
11
64.639910
21
49.298447
0
LINE
8
Layer 1
10
64.639910
20
49.298447
11
62.907557
21
49.046579
0
LINE
8
Layer 1
10
62.907557
20
49.046579
11
62.068343
21
49.143271
0
LINE
8
Layer 1
10
62.068343
20
49.143271
11
61.296127
21
49.417701
0
LINE
8
Layer 1
10
61.296127
20
49.417701
11
60.536383
21
50.009907
0
LINE
8
Layer 1
10
60.536383
20
50.009907
11
59.327387
21
51.511543
0
LINE
8
Layer 1
10
59.327387
20
51.511543
11
58.022972
21
53.439761
0
LINE
8
Layer 1
10
58.022972
20
53.439761
11
56.976970
21
55.311715
0
LINE
8
Layer 1
10
56.976970
20
55.311715
11
55.841307
21
57.312975
0
LINE
8
Layer 1
10
55.841307
20
57.312975
11
55.613328
21
57.285783
0
LINE
8
Layer 1
10
55.613328
20
57.285783
11
55.258667
21
56.872263
0
LINE
8
Layer 1
10
55.258667
20
56.872263
11
54.070786
21
54.743260
0
LINE
8
Layer 1
10
54.070786
20
54.743260
11
52.675647
21
52.038320
0
LINE
8
Layer 1
10
52.675647
20
52.038320
11
51.793426
21
50.614445
0
LINE
8
Layer 1
10
51.793426
20
50.614445
11
51.054127
21
50.008468
0
LINE
8
Layer 1
10
51.054127
20
50.008468
11
50.087756
21
49.757220
0
LINE
8
Layer 1
10
50.087756
20
49.757220
11
48.795186
21
49.665422
0
LINE
8
Layer 1
10
48.795186
20
49.665422
11
47.079055
21
49.814348
0
LINE
8
Layer 1
10
47.079055
20
49.814348
11
42.117010
21
50.870567
0
LINE
8
Layer 1
10
42.117010
20
50.870567
11
38.802931
21
51.440094
0
LINE
8
Layer 1
10
38.802931
20
51.440094
11
37.653874
21
51.362021
0
LINE
8
Layer 1
10
37.653874
20
51.362021
11
37.466236
21
51.095107
0
LINE
8
Layer 1
10
37.466236
20
51.095107
11
37.368565
21
50.574970
0
LINE
8
Layer 1
10
37.368565
20
50.574970
11
37.308988
21
48.557344
0
LINE
8
Layer 1
10
37.308988
20
48.557344
11
37.684364
21
46.760195
0
LINE
8
Layer 1
10
37.684364
20
46.760195
11
38.446001
21
45.322077
0
LINE
8
Layer 1
10
38.446001
20
45.322077
11
38.956450
21
44.780955
0
LINE
8
Layer 1
10
38.956450
20
44.780955
11
39.545204
21
44.381550
0
LINE
8
Layer 1
10
39.545204
20
44.381550
11
40.588165
21
43.968736
0
LINE
8
Layer 1
10
40.588165
20
43.968736
11
41.887359
21
43.627677
0
LINE
8
Layer 1
10
41.887359
20
43.627677
11
43.213297
21
43.407442
0
LINE
8
Layer 1
10
43.213297
20
43.407442
11
44.336490
21
43.357100
0
LINE
8
Layer 1
10
44.336490
20
43.357100
11
45.066941
21
43.295869
0
LINE
8
Layer 1
10
45.066941
20
43.295869
11
45.196356
21
43.152650
0
LINE
8
Layer 1
10
45.196356
20
43.152650
11
45.207202
21
42.914725
0
LINE
8
Layer 1
10
45.207202
20
42.914725
11
44.896137
21
42.502883
0
LINE
8
Layer 1
10
44.896137
20
42.502883
11
44.021700
21
42.277185
0
LINE
8
Layer 1
10
44.021700
20
42.277185
11
42.600626
21
42.003808
0
LINE
8
Layer 1
10
42.600626
20
42.003808
11
42.243555
21
41.272345
0
LINE
8
Layer 1
10
42.243555
20
41.272345
11
41.915295
21
39.705465
0
LINE
8
Layer 1
10
41.915295
20
39.705465
11
41.694779
21
37.802300
0
LINE
8
Layer 1
10
41.694779
20
37.802300
11
41.660939
21
36.061986
0
LINE
8
Layer 1
10
41.660939
20
36.061986
11
41.848875
21
34.590224
0
LINE
8
Layer 1
10
41.848875
20
34.590224
11
42.242363
21
33.532906
0
LINE
8
Layer 1
10
42.242363
20
33.532906
11
42.879230
21
32.825246
0
LINE
8
Layer 1
10
42.879230
20
32.825246
11
43.797305
21
32.402453
0
LINE
8
Layer 1
10
43.797305
20
32.402453
11
46.778014
21
31.787347
0
LINE
8
Layer 1
10
46.778014
20
31.787347
11
49.715342
21
31.543899
0
LINE
8
Layer 1
10
49.715342
20
31.543899
11
52.090325
21
31.682365
0
LINE
8
Layer 1
10
52.090325
20
31.682365
11
52.904761
21
31.898020
0
LINE
8
Layer 1
10
52.904761
20
31.898020
11
53.383998
21
32.213000
0
LINE
8
Layer 1
10
53.383998
20
32.213000
11
54.163245
21
33.337928
0
LINE
8
Layer 1
10
54.163245
20
33.337928
11
54.673817
21
34.494077
0
LINE
8
Layer 1
10
54.673817
20
34.494077
11
54.981476
21
35.886251
0
LINE
8
Layer 1
10
54.981476
20
35.886251
11
55.151980
21
37.719254
0
LINE
8
Layer 1
10
55.151980
20
37.719254
11
55.214763
21
39.829480
0
LINE
8
Layer 1
10
55.214763
20
39.829480
11
55.129994
21
40.865470
0
LINE
8
Layer 1
10
55.129994
20
40.865470
11
54.773149
21
41.045330
0
LINE
8
Layer 1
10
54.773149
20
41.045330
11
54.181756
21
41.097200
0
LINE
8
Layer 1
10
54.181756
20
41.097200
11
53.506438
21
41.135827
0
LINE
8
Layer 1
10
53.506438
20
41.135827
11
52.999421
21
41.298651
0
LINE
8
Layer 1
10
52.999421
20
41.298651
11
52.742203
21
41.542324
0
LINE
8
Layer 1
10
52.742203
20
41.542324
11
52.816280
21
41.823499
0
LINE
8
Layer 1
10
52.816280
20
41.823499
11
53.935401
21
42.106781
0
LINE
8
Layer 1
10
53.935401
20
42.106781
11
56.255243
21
42.391203
0
LINE
8
Layer 1
10
56.255243
20
42.391203
11
58.978267
21
42.556542
0
LINE
8
Layer 1
10
58.978267
20
42.556542
11
59.340982
21
42.420091
0
LINE
8
Layer 1
10
59.340982
20
42.420091
11
59.381192
21
42.106263
0
LINE
8
Layer 1
10
59.381192
20
42.106263
11
59.182603
21
41.667886
0
LINE
8
Layer 1
10
59.182603
20
41.667886
11
58.773850
21
41.414579
0
LINE
8
Layer 1
10
58.773850
20
41.414579
11
57.710957
21
41.113413
0
LINE
8
Layer 1
10
57.710957
20
41.113413
11
57.099179
21
40.644343
0
LINE
8
Layer 1
10
57.099179
20
40.644343
11
56.782411
21
39.783847
0
LINE
8
Layer 1
10
56.782411
20
39.783847
11
56.604549
21
38.308404
0
LINE
8
Layer 1
10
56.604549
20
38.308404
11
56.485451
21
34.506741
0
LINE
8
Layer 1
10
56.485451
20
34.506741
11
56.594420
21
33.569682
0
LINE
8
Layer 1
10
56.594420
20
33.569682
11
56.896949
21
32.977715
0
LINE
8
Layer 1
10
56.896949
20
32.977715
11
57.557835
21
32.557752
0
LINE
8
Layer 1
10
57.557835
20
32.557752
11
58.741874
21
32.136704
0
LINE
8
Layer 1
10
58.741874
20
32.136704
11
59.523954
21
31.932698
0
LINE
8
Layer 1
10
59.523954
20
31.932698
11
60.259972
21
31.882458
0
LINE
8
Layer 1
10
60.259972
20
31.882458
11
62.391967
21
32.273099
0
LINE
8
Layer 1
10
62.391967
20
32.273099
11
62.391967
21
32.273099
0
LINE
8
Layer 1
10
84.435301
20
50.030572
11
87.916568
21
50.786293
0
LINE
8
Layer 1
10
87.916568
20
50.786293
11
90.457923
21
51.702131
0
LINE
8
Layer 1
10
90.457923
20
51.702131
11
91.432552
21
52.247220
0
LINE
8
Layer 1
10
91.432552
20
52.247220
11
92.239903
21
52.864888
0
LINE
8
Layer 1
10
92.239903
20
52.864888
11
92.902545
21
53.565986
0
LINE
8
Layer 1
10
92.902545
20
53.565986
11
93.443044
21
54.361365
0
LINE
8
Layer 1
10
93.443044
20
54.361365
11
94.053029
21
55.702957
0
LINE
8
Layer 1
10
94.053029
20
55.702957
11
94.375760
21
56.940989
0
LINE
8
Layer 1
10
94.375760
20
56.940989
11
94.410704
21
57.605836
0
LINE
8
Layer 1
10
94.410704
20
57.605836
11
94.299394
21
58.086167
0
LINE
8
Layer 1
10
94.299394
20
58.086167
11
93.328970
21
59.143533
0
LINE
8
Layer 1
10
93.328970
20
59.143533
11
92.090007
21
60.008210
0
LINE
8
Layer 1
10
92.090007
20
60.008210
11
90.600897
21
60.286482
0
LINE
8
Layer 1
10
90.600897
20
60.286482
11
88.488933
21
60.211029
0
LINE
8
Layer 1
10
88.488933
20
60.211029
11
86.525033
21
59.777795
0
LINE
8
Layer 1
10
86.525033
20
59.777795
11
85.038912
21
59.093574
0
LINE
8
Layer 1
10
85.038912
20
59.093574
11
84.578055
21
58.690717
0
LINE
8
Layer 1
10
84.578055
20
58.690717
11
84.360286
21
58.265162
0
LINE
8
Layer 1
10
84.360286
20
58.265162
11
84.117272
21
57.617726
0
LINE
8
Layer 1
10
84.117272
20
57.617726
11
83.721476
21
57.049204
0
LINE
8
Layer 1
10
83.721476
20
57.049204
11
83.258526
21
56.682482
0
LINE
8
Layer 1
10
83.258526
20
56.682482
11
82.997802
21
57.022407
0
LINE
8
Layer 1
10
82.997802
20
57.022407
11
82.923507
21
57.635252
0
LINE
8
Layer 1
10
82.923507
20
57.635252
11
83.052497
21
58.426875
0
LINE
8
Layer 1
10
83.052497
20
58.426875
11
83.243058
21
60.221420
0
LINE
8
Layer 1
10
83.243058
20
60.221420
11
83.086857
21
62.523281
0
LINE
8
Layer 1
10
83.086857
20
62.523281
11
82.670116
21
64.663906
0
LINE
8
Layer 1
10
82.670116
20
64.663906
11
82.390987
21
65.464833
0
LINE
8
Layer 1
10
82.390987
20
65.464833
11
82.079056
21
65.974745
0
LINE
8
Layer 1
10
82.079056
20
65.974745
11
81.238277
21
66.137439
0
LINE
8
Layer 1
10
81.238277
20
66.137439
11
79.523590
21
66.210685
0
LINE
8
Layer 1
10
79.523590
20
66.210685
11
77.147288
21
66.426821
0
LINE
8
Layer 1
10
77.147288
20
66.426821
11
75.137416
21
66.990636
0
LINE
8
Layer 1
10
75.137416
20
66.990636
11
73.732926
21
67.805636
0
LINE
8
Layer 1
10
73.732926
20
67.805636
11
73.332372
21
68.277176
0
LINE
8
Layer 1
10
73.332372
20
68.277176
11
73.172772
21
68.775326
0
LINE
8
Layer 1
10
73.172772
20
68.775326
11
72.984321
21
69.302188
0
LINE
8
Layer 1
10
72.984321
20
69.302188
11
72.570255
21
69.890380
0
LINE
8
Layer 1
10
72.570255
20
69.890380
11
71.997478
21
70.365713
0
LINE
8
Layer 1
10
71.997478
20
70.365713
11
71.435835
21
69.954010
0
LINE
8
Layer 1
10
71.435835
20
69.954010
11
71.011454
21
69.193826
0
LINE
8
Layer 1
10
71.011454
20
69.193826
11
70.961448
21
67.902537
0
LINE
8
Layer 1
10
70.961448
20
67.902537
11
71.182305
21
66.274973
0
LINE
8
Layer 1
10
71.182305
20
66.274973
11
71.640005
21
64.612595
0
LINE
8
Layer 1
10
71.640005
20
64.612595
11
72.301815
21
62.969950
0
LINE
8
Layer 1
10
72.301815
20
62.969950
11
73.135003
21
61.401585
0
LINE
8
Layer 1
10
73.135003
20
61.401585
11
74.106835
21
59.962048
0
LINE
8
Layer 1
10
74.106835
20
59.962048
11
75.184579
21
58.705885
0
LINE
8
Layer 1
10
75.184579
20
58.705885
11
76.335500
21
57.687643
0
LINE
8
Layer 1
10
76.335500
20
57.687643
11
77.526868
21
56.961871
0
LINE
8
Layer 1
10
77.526868
20
56.961871
11
78.633983
21
56.320631
0
LINE
8
Layer 1
10
78.633983
20
56.320631
11
79.005853
21
55.746709
0
LINE
8
Layer 1
10
79.005853
20
55.746709
11
78.803717
21
55.317536
0
LINE
8
Layer 1
10
78.803717
20
55.317536
11
78.221544
21
54.730515
0
LINE
8
Layer 1
10
78.221544
20
54.730515
11
76.364507
21
53.468795
0
LINE
8
Layer 1
10
76.364507
20
53.468795
11
75.377626
21
52.869273
0
LINE
8
Layer 1
10
75.377626
20
52.869273
11
74.865198
21
52.345328
0
LINE
8
Layer 1
10
74.865198
20
52.345328
11
74.775209
21
51.805077
0
LINE
8
Layer 1
10
74.775209
20
51.805077
11
75.055645
21
51.156641
0
LINE
8
Layer 1
10
75.055645
20
51.156641
11
75.478786
21
50.621378
0
LINE
8
Layer 1
10
75.478786
20
50.621378
11
76.055114
21
50.227998
0
LINE
8
Layer 1
10
76.055114
20
50.227998
11
78.082563
21
49.661840
0
LINE
8
Layer 1
10
78.082563
20
49.661840
11
79.330433
21
49.468107
0
LINE
8
Layer 1
10
79.330433
20
49.468107
11
80.479956
21
49.446107
0
LINE
8
Layer 1
10
80.479956
20
49.446107
11
84.435301
21
50.030572
0
LINE
8
Layer 1
10
84.435301
20
50.030572
11
84.435301
21
50.030572
0
LINE
8
Layer 1
10
68.770048
20
51.931324
11
71.348462
21
52.758661
0
LINE
8
Layer 1
10
71.348462
20
52.758661
11
74.158038
21
54.095836
0
LINE
8
Layer 1
10
74.158038
20
54.095836
11
75.649724
21
54.897183
0
LINE
8
Layer 1
10
75.649724
20
54.897183
11
76.041036
21
55.204405
0
LINE
8
Layer 1
10
76.041036
20
55.204405
11
76.205447
21
55.504278
0
LINE
8
Layer 1
10
76.205447
20
55.504278
11
76.150047
21
55.838015
0
LINE
8
Layer 1
10
76.150047
20
55.838015
11
75.881928
21
56.246832
0
LINE
8
Layer 1
10
75.881928
20
56.246832
11
74.735888
21
57.454560
0
LINE
8
Layer 1
10
74.735888
20
57.454560
11
73.119199
21
59.327434
0
LINE
8
Layer 1
10
73.119199
20
59.327434
11
71.766882
21
61.276174
0
LINE
8
Layer 1
10
71.766882
20
61.276174
11
70.836335
21
62.725244
0
LINE
8
Layer 1
10
70.836335
20
62.725244
11
70.233681
21
63.396780
0
LINE
8
Layer 1
10
70.233681
20
63.396780
11
69.281068
21
63.102804
0
LINE
8
Layer 1
10
69.281068
20
63.102804
11
67.509136
21
62.230536
0
LINE
8
Layer 1
10
67.509136
20
62.230536
11
65.245470
21
61.158876
0
LINE
8
Layer 1
10
65.245470
20
61.158876
11
63.307073
21
60.840290
0
LINE
8
Layer 1
10
63.307073
20
60.840290
11
62.240938
21
60.761131
0
LINE
8
Layer 1
10
62.240938
20
60.761131
11
61.630786
21
60.611686
0
LINE
8
Layer 1
10
61.630786
20
60.611686
11
61.262421
21
60.288495
0
LINE
8
Layer 1
10
61.262421
20
60.288495
11
60.921646
21
59.688098
0
LINE
8
Layer 1
10
60.921646
20
59.688098
11
60.591714
21
59.098578
0
LINE
8
Layer 1
10
60.591714
20
59.098578
11
60.283199
21
58.800159
0
LINE
8
Layer 1
10
60.283199
20
58.800159
11
59.841245
21
58.713355
0
LINE
8
Layer 1
10
59.841245
20
58.713355
11
59.110993
21
58.758681
0
LINE
8
Layer 1
10
59.110993
20
58.758681
11
57.446390
21
59.000644
0
LINE
8
Layer 1
10
57.446390
20
59.000644
11
57.057697
21
58.960797
0
LINE
8
Layer 1
10
57.057697
20
58.960797
11
56.925810
21
58.558794
0
LINE
8
Layer 1
10
56.925810
20
58.558794
11
57.051150
21
57.865984
0
LINE
8
Layer 1
10
57.051150
20
57.865984
11
57.434141
21
56.953714
0
LINE
8
Layer 1
10
57.434141
20
56.953714
11
58.110064
21
55.419633
0
LINE
8
Layer 1
10
58.110064
20
55.419633
11
59.041101
21
54.087355
0
LINE
8
Layer 1
10
59.041101
20
54.087355
11
61.086605
21
51.709853
0
LINE
8
Layer 1
10
61.086605
20
51.709853
11
61.908605
21
50.810942
0
LINE
8
Layer 1
10
61.908605
20
50.810942
11
64.435115
21
51.118728
0
LINE
8
Layer 1
10
64.435115
20
51.118728
11
68.770048
21
51.931324
0
LINE
8
Layer 1
10
68.770048
20
51.931324
11
68.770048
21
51.931324
0
LINE
8
Layer 1
10
50.462349
20
52.034889
11
51.328440
21
52.614725
0
LINE
8
Layer 1
10
51.328440
20
52.614725
11
52.058260
21
53.350123
0
LINE
8
Layer 1
10
52.058260
20
53.350123
11
52.829947
21
54.711022
0
LINE
8
Layer 1
10
52.829947
20
54.711022
11
53.743747
21
56.697239
0
LINE
8
Layer 1
10
53.743747
20
56.697239
11
54.464783
21
58.527101
0
LINE
8
Layer 1
10
54.464783
20
58.527101
11
54.658175
21
59.418931
0
LINE
8
Layer 1
10
54.658175
20
59.418931
11
52.773128
21
59.417517
0
LINE
8
Layer 1
10
52.773128
20
59.417517
11
51.316414
21
59.376307
0
LINE
8
Layer 1
10
51.316414
20
59.376307
11
50.078248
21
59.545594
0
LINE
8
Layer 1
10
50.078248
20
59.545594
11
49.062042
21
59.924548
0
LINE
8
Layer 1
10
49.062042
20
59.924548
11
48.271204
21
60.512342
0
LINE
8
Layer 1
10
48.271204
20
60.512342
11
47.144122
21
61.633340
0
LINE
8
Layer 1
10
47.144122
20
61.633340
11
46.348209
21
62.010521
0
LINE
8
Layer 1
10
46.348209
20
62.010521
11
45.060447
21
62.321194
0
LINE
8
Layer 1
10
45.060447
20
62.321194
11
42.704540
21
62.778070
0
LINE
8
Layer 1
10
42.704540
20
62.778070
11
39.730856
21
63.187297
0
LINE
8
Layer 1
10
39.730856
20
63.187297
11
38.286131
21
63.231179
0
LINE
8
Layer 1
10
38.286131
20
63.231179
11
37.505245
21
63.125429
0
LINE
8
Layer 1
10
37.505245
20
63.125429
11
36.766238
21
62.376289
0
LINE
8
Layer 1
10
36.766238
20
62.376289
11
35.682252
21
60.979074
0
LINE
8
Layer 1
10
35.682252
20
60.979074
11
33.351724
21
57.435513
0
LINE
8
Layer 1
10
33.351724
20
57.435513
11
32.395816
21
55.554129
0
LINE
8
Layer 1
10
32.395816
20
55.554129
11
32.221226
21
54.924358
0
LINE
8
Layer 1
10
32.221226
20
54.924358
11
32.217360
21
54.418044
0
LINE
8
Layer 1
10
32.217360
20
54.418044
11
32.330458
21
53.960990
0
LINE
8
Layer 1
10
32.330458
20
53.960990
11
32.559346
21
53.675699
0
LINE
8
Layer 1
10
32.559346
20
53.675699
11
33.777484
21
53.333249
0
LINE
8
Layer 1
10
33.777484
20
53.333249
11
37.629846
21
52.903182
0
LINE
8
Layer 1
10
37.629846
20
52.903182
11
40.056439
21
52.571810
0
LINE
8
Layer 1
10
40.056439
20
52.571810
11
42.485592
21
52.032433
0
LINE
8
Layer 1
10
42.485592
20
52.032433
11
44.695121
21
51.582087
0
LINE
8
Layer 1
10
44.695121
20
51.582087
11
46.918259
21
51.432429
0
LINE
8
Layer 1
10
46.918259
20
51.432429
11
48.919253
21
51.583387
0
LINE
8
Layer 1
10
48.919253
20
51.583387
11
50.462349
21
52.034889
0
LINE
8
Layer 1
10
50.462349
20
52.034889
11
50.462349
21
52.034889
0
LINE
8
Layer 1
10
27.566309
20
52.398143
11
28.956706
21
52.973269
0
LINE
8
Layer 1
10
28.956706
20
52.973269
11
30.057549
21
53.868405
0
LINE
8
Layer 1
10
30.057549
20
53.868405
11
31.019400
21
55.249717
0
LINE
8
Layer 1
10
31.019400
20
55.249717
11
31.992824
21
57.283370
0
LINE
8
Layer 1
10
31.992824
20
57.283370
11
33.775558
21
60.992833
0
LINE
8
Layer 1
10
33.775558
20
60.992833
11
35.427017
21
63.520834
0
LINE
8
Layer 1
10
35.427017
20
63.520834
11
36.116602
21
64.783198
0
LINE
8
Layer 1
10
36.116602
20
64.783198
11
36.848627
21
66.712135
0
LINE
8
Layer 1
10
36.848627
20
66.712135
11
37.797655
21
69.409175
0
LINE
8
Layer 1
10
37.797655
20
69.409175
11
38.117547
21
70.521891
0
LINE
8
Layer 1
10
38.117547
20
70.521891
11
38.086771
21
71.070398
0
LINE
8
Layer 1
10
38.086771
20
71.070398
11
37.919152
21
71.450939
0
LINE
8
Layer 1
10
37.919152
20
71.450939
11
37.381095
21
71.738020
0
LINE
8
Layer 1
10
37.381095
20
71.738020
11
36.630564
21
71.675599
0
LINE
8
Layer 1
10
36.630564
20
71.675599
11
35.671050
21
71.264642
0
LINE
8
Layer 1
10
35.671050
20
71.264642
11
34.506041
21
70.506116
0
LINE
8
Layer 1
10
34.506041
20
70.506116
11
32.940416
21
69.432821
0
LINE
8
Layer 1
10
32.940416
20
69.432821
11
31.583147
21
68.713957
0
LINE
8
Layer 1
10
31.583147
20
68.713957
11
30.218549
21
68.256293
0
LINE
8
Layer 1
10
30.218549
20
68.256293
11
28.630936
21
67.966598
0
LINE
8
Layer 1
10
28.630936
20
67.966598
11
27.184813
21
67.686779
0
LINE
8
Layer 1
10
27.184813
20
67.686779
11
26.267480
21
67.197579
0
LINE
8
Layer 1
10
26.267480
20
67.197579
11
25.671796
21
66.310582
0
LINE
8
Layer 1
10
25.671796
20
66.310582
11
25.190618
21
64.837378
0
LINE
8
Layer 1
10
25.190618
20
64.837378
11
24.952797
21
63.357818
0
LINE
8
Layer 1
10
24.952797
20
63.357818
11
25.198549
21
61.731446
0
LINE
8
Layer 1
10
25.198549
20
61.731446
11
25.414813
21
60.422232
0
LINE
8
Layer 1
10
25.414813
20
60.422232
11
25.385863
21
59.436101
0
LINE
8
Layer 1
10
25.385863
20
59.436101
11
25.122583
21
58.832234
0
LINE
8
Layer 1
10
25.122583
20
58.832234
11
24.635854
21
58.669815
0
LINE
8
Layer 1
10
24.635854
20
58.669815
11
24.388667
21
58.770556
0
LINE
8
Layer 1
10
24.388667
20
58.770556
11
24.208178
21
59.026303
0
LINE
8
Layer 1
10
24.208178
20
59.026303
11
23.971023
21
60.175518
0
LINE
8
Layer 1
10
23.971023
20
60.175518
11
23.696501
21
61.458569
0
LINE
8
Layer 1
10
23.696501
20
61.458569
11
23.453926
21
61.883210
0
LINE
8
Layer 1
10
23.453926
20
61.883210
11
23.106506
21
62.183946
0
LINE
8
Layer 1
10
23.106506
20
62.183946
11
21.993229
21
62.475750
0
LINE
8
Layer 1
10
21.993229
20
62.475750
11
20.148860
21
62.458086
0
LINE
8
Layer 1
10
20.148860
20
62.458086
11
18.637502
21
62.333903
0
LINE
8
Layer 1
10
18.637502
20
62.333903
11
17.456823
21
62.083219
0
LINE
8
Layer 1
10
17.456823
20
62.083219
11
16.184170
21
61.575356
0
LINE
8
Layer 1
10
16.184170
20
61.575356
11
14.396888
21
60.679635
0
LINE
8
Layer 1
10
14.396888
20
60.679635
11
13.239129
21
59.906599
0
LINE
8
Layer 1
10
13.239129
20
59.906599
11
12.618243
21
59.011673
0
LINE
8
Layer 1
10
12.618243
20
59.011673
11
12.496726
21
57.893142
0
LINE
8
Layer 1
10
12.496726
20
57.893142
11
12.837074
21
56.449296
0
LINE
8
Layer 1
10
12.837074
20
56.449296
11
13.187740
21
55.686381
0
LINE
8
Layer 1
10
13.187740
20
55.686381
11
13.694260
21
54.984136
0
LINE
8
Layer 1
10
13.694260
20
54.984136
11
15.136445
21
53.785258
0
LINE
8
Layer 1
10
15.136445
20
53.785258
11
17.086788
21
52.899872
0
LINE
8
Layer 1
10
17.086788
20
52.899872
11
19.468450
21
52.375187
0
LINE
8
Layer 1
10
19.468450
20
52.375187
11
22.406807
21
51.972938
0
LINE
8
Layer 1
10
22.406807
20
51.972938
11
24.923724
21
51.898598
0
LINE
8
Layer 1
10
24.923724
20
51.898598
11
27.566309
21
52.398143
0
LINE
8
Layer 1
10
27.566309
20
52.398143
11
27.566309
21
52.398143
0
LINE
8
Layer 1
10
92.904141
20
61.525164
11
92.956308
21
62.064715
0
LINE
8
Layer 1
10
92.956308
20
62.064715
11
92.766744
21
62.590646
0
LINE
8
Layer 1
10
92.766744
20
62.590646
11
92.338129
21
63.098470
0
LINE
8
Layer 1
10
92.338129
20
63.098470
11
91.673144
21
63.583701
0
LINE
8
Layer 1
10
91.673144
20
63.583701
11
91.046589
21
63.905374
0
LINE
8
Layer 1
10
91.046589
20
63.905374
11
90.373235
21
64.071653
0
LINE
8
Layer 1
10
90.373235
20
64.071653
11
88.002336
21
64.050390
0
LINE
8
Layer 1
10
88.002336
20
64.050390
11
86.183899
21
63.885243
0
LINE
8
Layer 1
10
86.183899
20
63.885243
11
85.128552
21
63.582787
0
LINE
8
Layer 1
10
85.128552
20
63.582787
11
84.653933
21
63.042578
0
LINE
8
Layer 1
10
84.653933
20
63.042578
11
84.577682
21
62.164172
0
LINE
8
Layer 1
10
84.577682
20
62.164172
11
84.632715
21
61.206834
0
LINE
8
Layer 1
10
84.632715
20
61.206834
11
87.229696
21
61.517987
0
LINE
8
Layer 1
10
87.229696
20
61.517987
11
89.533494
21
61.681580
0
LINE
8
Layer 1
10
89.533494
20
61.681580
11
91.118662
21
61.483488
0
LINE
8
Layer 1
10
91.118662
20
61.483488
11
92.569333
21
61.159281
0
LINE
8
Layer 1
10
92.569333
20
61.159281
11
92.791204
21
61.253977
0
LINE
8
Layer 1
10
92.791204
20
61.253977
11
92.904141
21
61.525164
0
LINE
8
Layer 1
10
92.904141
20
61.525164
11
92.904141
21
61.525164
0
LINE
8
Layer 1
10
59.470854
20
61.493750
11
59.718653
21
63.235112
0
LINE
8
Layer 1
10
59.718653
20
63.235112
11
59.921556
21
66.416094
0
LINE
8
Layer 1
10
59.921556
20
66.416094
11
60.011970
21
69.575515
0
LINE
8
Layer 1
10
60.011970
20
69.575515
11
59.922297
21
71.252196
0
LINE
8
Layer 1
10
59.922297
20
71.252196
11
59.670345
21
71.446884
0
LINE
8
Layer 1
10
59.670345
20
71.446884
11
59.024534
21
71.535034
0
LINE
8
Layer 1
10
59.024534
20
71.535034
11
55.856265
21
71.420488
0
LINE
8
Layer 1
10
55.856265
20
71.420488
11
50.869483
21
70.918770
0
LINE
8
Layer 1
10
50.869483
20
70.918770
11
50.076300
21
70.607993
0
LINE
8
Layer 1
10
50.076300
20
70.607993
11
49.830910
21
70.312487
0
LINE
8
Layer 1
10
49.830910
20
70.312487
11
49.669273
21
69.844722
0
LINE
8
Layer 1
10
49.669273
20
69.844722
11
49.546107
21
68.155874
0
LINE
8
Layer 1
10
49.546107
20
68.155874
11
49.604507
21
65.068368
0
LINE
8
Layer 1
10
49.604507
20
65.068368
11
49.713473
21
61.333092
0
LINE
8
Layer 1
10
49.713473
20
61.333092
11
51.557541
21
61.218476
0
LINE
8
Layer 1
10
51.557541
20
61.218476
11
58.563087
21
60.888764
0
LINE
8
Layer 1
10
58.563087
20
60.888764
11
59.094070
21
61.054826
0
LINE
8
Layer 1
10
59.094070
20
61.054826
11
59.470854
21
61.493750
0
LINE
8
Layer 1
10
59.470854
20
61.493750
11
59.470854
21
61.493750
0
LINE
8
Layer 1
10
53.607575
20
63.319626
11
51.873510
21
63.433508
0
LINE
8
Layer 1
10
51.873510
20
63.433508
11
51.518290
21
63.712236
0
LINE
8
Layer 1
10
51.518290
20
63.712236
11
51.221950
21
64.248784
0
LINE
8
Layer 1
10
51.221950
20
64.248784
11
50.869899
21
65.409440
0
LINE
8
Layer 1
10
50.869899
20
65.409440
11
50.666735
21
66.879086
0
LINE
8
Layer 1
10
50.666735
20
66.879086
11
50.695027
21
68.340736
0
LINE
8
Layer 1
10
50.695027
20
68.340736
11
50.867252
21
68.700941
0
LINE
8
Layer 1
10
50.867252
20
68.700941
11
51.182722
21
68.967319
0
LINE
8
Layer 1
10
51.182722
20
68.967319
11
52.407136
21
69.281401
0
LINE
8
Layer 1
10
52.407136
20
69.281401
11
54.400115
21
69.455114
0
LINE
8
Layer 1
10
54.400115
20
69.455114
11
56.361095
21
69.453592
0
LINE
8
Layer 1
10
56.361095
20
69.453592
11
57.489513
21
69.241972
0
LINE
8
Layer 1
10
57.489513
20
69.241972
11
57.841597
21
68.429449
0
LINE
8
Layer 1
10
57.841597
20
68.429449
11
58.017809
21
66.971635
0
LINE
8
Layer 1
10
58.017809
20
66.971635
11
57.992604
21
65.383789
0
LINE
8
Layer 1
10
57.992604
20
65.383789
11
57.740437
21
64.181172
0
LINE
8
Layer 1
10
57.740437
20
64.181172
11
57.257093
21
63.489421
0
LINE
8
Layer 1
10
57.257093
20
63.489421
11
56.446702
21
63.328135
0
LINE
8
Layer 1
10
56.446702
20
63.328135
11
53.607575
21
63.319626
0
LINE
8
Layer 1
10
53.607575
20
63.319626
11
53.607575
21
63.319626
0
LINE
8
Layer 1
10
91.424788
20
65.992561
11
91.148066
21
66.491901
0
LINE
8
Layer 1
10
91.148066
20
66.491901
11
90.513182
21
67.162858
0
LINE
8
Layer 1
10
90.513182
20
67.162858
11
89.322850
21
67.853147
0
LINE
8
Layer 1
10
89.322850
20
67.853147
11
87.835440
21
68.173245
0
LINE
8
Layer 1
10
87.835440
20
68.173245
11
86.248034
21
68.106890
0
LINE
8
Layer 1
10
86.248034
20
68.106890
11
84.757712
21
67.637818
0
LINE
8
Layer 1
10
84.757712
20
67.637818
11
83.959633
21
67.097464
0
LINE
8
Layer 1
10
83.959633
20
67.097464
11
83.764826
21
66.469048
0
LINE
8
Layer 1
10
83.764826
20
66.469048
11
83.876367
21
65.927192
0
LINE
8
Layer 1
10
83.876367
20
65.927192
11
84.091074
21
65.554640
0
LINE
8
Layer 1
10
84.091074
20
65.554640
11
85.332619
21
65.422615
0
LINE
8
Layer 1
10
85.332619
20
65.422615
11
87.912871
21
65.459046
0
LINE
8
Layer 1
10
87.912871
20
65.459046
11
90.720263
21
65.660524
0
LINE
8
Layer 1
10
90.720263
20
65.660524
11
91.275149
21
65.801073
0
LINE
8
Layer 1
10
91.275149
20
65.801073
11
91.424788
21
65.992561
0
LINE
8
Layer 1
10
91.424788
20
65.992561
11
91.424788
21
65.992561
0
LINE
8
Layer 1
10
19.336201
20
63.587684
11
22.995438
21
64.041491
0
LINE
8
Layer 1
10
22.995438
20
64.041491
11
23.472615
21
64.444743
0
LINE
8
Layer 1
10
23.472615
20
64.444743
11
23.861825
21
65.197098
0
LINE
8
Layer 1
10
23.861825
20
65.197098
11
24.048458
21
65.990856
0
LINE
8
Layer 1
10
24.048458
20
65.990856
11
23.917909
21
66.518313
0
LINE
8
Layer 1
10
23.917909
20
66.518313
11
22.969821
21
66.818772
0
LINE
8
Layer 1
10
22.969821
20
66.818772
11
21.245078
21
67.089190
0
LINE
8
Layer 1
10
21.245078
20
67.089190
11
19.457951
21
67.243236
0
LINE
8
Layer 1
10
19.457951
20
67.243236
11
18.322712
21
67.194580
0
LINE
8
Layer 1
10
18.322712
20
67.194580
11
17.812659
21
66.911240
0
LINE
8
Layer 1
10
17.812659
20
66.911240
11
17.561982
21
66.535379
0
LINE
8
Layer 1
10
17.561982
20
66.535379
11
16.983783
21
65.998436
0
LINE
8
Layer 1
10
16.983783
20
65.998436
11
15.617443
21
65.315022
0
LINE
8
Layer 1
10
15.617443
20
65.315022
11
14.024551
21
64.581060
0
LINE
8
Layer 1
10
14.024551
20
64.581060
11
13.182850
21
63.952412
0
LINE
8
Layer 1
10
13.182850
20
63.952412
11
13.010308
21
63.636318
0
LINE
8
Layer 1
10
13.010308
20
63.636318
11
12.985499
21
63.297039
0
LINE
8
Layer 1
10
12.985499
20
63.297039
11
13.325658
21
62.482902
0
LINE
8
Layer 1
10
13.325658
20
62.482902
11
13.529919
21
62.201634
0
LINE
8
Layer 1
10
13.529919
20
62.201634
11
13.773632
21
62.123198
0
LINE
8
Layer 1
10
13.773632
20
62.123198
11
14.942988
21
62.623974
0
LINE
8
Layer 1
10
14.942988
20
62.623974
11
16.641829
21
63.203781
0
LINE
8
Layer 1
10
16.641829
20
63.203781
11
19.336201
21
63.587684
0
LINE
8
Layer 1
10
19.336201
20
63.587684
11
19.336201
21
63.587684
0
LINE
8
Layer 1
10
82.689813
20
68.184553
11
83.560109
21
69.398894
0
LINE
8
Layer 1
10
83.560109
20
69.398894
11
84.820619
21
71.545940
0
LINE
8
Layer 1
10
84.820619
20
71.545940
11
86.058670
21
73.884792
0
LINE
8
Layer 1
10
86.058670
20
73.884792
11
86.861594
21
75.674547
0
LINE
8
Layer 1
10
86.861594
20
75.674547
11
87.219032
21
77.316590
0
LINE
8
Layer 1
10
87.219032
20
77.316590
11
87.294279
21
79.155115
0
LINE
8
Layer 1
10
87.294279
20
79.155115
11
87.099603
21
80.829238
0
LINE
8
Layer 1
10
87.099603
20
80.829238
11
86.647274
21
81.978077
0
LINE
8
Layer 1
10
86.647274
20
81.978077
11
85.122292
21
83.605134
0
LINE
8
Layer 1
10
85.122292
20
83.605134
11
83.177207
21
85.111531
0
LINE
8
Layer 1
10
83.177207
20
85.111531
11
81.076479
21
86.319820
0
LINE
8
Layer 1
10
81.076479
20
86.319820
11
79.084565
21
87.052551
0
LINE
8
Layer 1
10
79.084565
20
87.052551
11
76.833636
21
87.881759
0
LINE
8
Layer 1
10
76.833636
20
87.881759
11
73.918692
21
89.302446
0
LINE
8
Layer 1
10
73.918692
20
89.302446
11
71.171949
21
90.874681
0
LINE
8
Layer 1
10
71.171949
20
90.874681
11
69.425622
21
92.158532
0
LINE
8
Layer 1
10
69.425622
20
92.158532
11
68.705322
21
92.695951
0
LINE
8
Layer 1
10
68.705322
20
92.695951
11
67.742964
21
93.133909
0
LINE
8
Layer 1
10
67.742964
20
93.133909
11
66.660602
21
93.428665
0
LINE
8
Layer 1
10
66.660602
20
93.428665
11
65.580288
21
93.536479
0
LINE
8
Layer 1
10
65.580288
20
93.536479
11
64.096138
21
93.536143
0
LINE
8
Layer 1
10
64.096138
20
93.536143
11
63.199913
21
91.647145
0
LINE
8
Layer 1
10
63.199913
20
91.647145
11
61.037050
21
87.619563
0
LINE
8
Layer 1
10
61.037050
20
87.619563
11
60.078630
21
86.177487
0
LINE
8
Layer 1
10
60.078630
20
86.177487
11
59.363243
21
85.379608
0
LINE
8
Layer 1
10
59.363243
20
85.379608
11
58.717575
21
85.047991
0
LINE
8
Layer 1
10
58.717575
20
85.047991
11
58.197468
21
85.551854
0
LINE
8
Layer 1
10
58.197468
20
85.551854
11
57.689263
21
86.064612
0
LINE
8
Layer 1
10
57.689263
20
86.064612
11
57.162982
21
86.358259
0
LINE
8
Layer 1
10
57.162982
20
86.358259
11
56.359585
21
87.009801
0
LINE
8
Layer 1
10
56.359585
20
87.009801
11
55.012357
21
88.416650
0
LINE
8
Layer 1
10
55.012357
20
88.416650
11
52.645112
21
91.337525
0
LINE
8
Layer 1
10
52.645112
20
91.337525
11
52.335805
21
91.685830
0
LINE
8
Layer 1
10
52.335805
20
91.685830
11
51.955645
21
91.834679
0
LINE
8
Layer 1
10
51.955645
20
91.834679
11
51.504432
21
91.783947
0
LINE
8
Layer 1
10
51.504432
20
91.783947
11
50.981963
21
91.533505
0
LINE
8
Layer 1
10
50.981963
20
91.533505
11
49.722446
21
90.432990
0
LINE
8
Layer 1
10
49.722446
20
90.432990
11
48.175474
21
88.532121
0
LINE
8
Layer 1
10
48.175474
20
88.532121
11
46.862637
21
86.852223
0
LINE
8
Layer 1
10
46.862637
20
86.852223
11
46.154001
21
86.144159
0
LINE
8
Layer 1
10
46.154001
20
86.144159
11
45.506251
21
86.889270
0
LINE
8
Layer 1
10
45.506251
20
86.889270
11
44.441851
21
88.690469
0
LINE
8
Layer 1
10
44.441851
20
88.690469
11
43.345944
21
90.842901
0
LINE
8
Layer 1
10
43.345944
20
90.842901
11
42.603674
21
92.641714
0
LINE
8
Layer 1
10
42.603674
20
92.641714
11
42.096803
21
94.250211
0
LINE
8
Layer 1
10
42.096803
20
94.250211
11
40.727291
21
94.099335
0
LINE
8
Layer 1
10
40.727291
20
94.099335
11
38.785482
21
93.611820
0
LINE
8
Layer 1
10
38.785482
20
93.611820
11
36.040060
21
92.651577
0
LINE
8
Layer 1
10
36.040060
20
92.651577
11
30.635928
21
90.767775
0
LINE
8
Layer 1
10
30.635928
20
90.767775
11
27.124776
21
89.744222
0
LINE
8
Layer 1
10
27.124776
20
89.744222
11
24.850710
21
88.911958
0
LINE
8
Layer 1
10
24.850710
20
88.911958
11
22.728720
21
87.950828
0
LINE
8
Layer 1
10
22.728720
20
87.950828
11
21.031185
21
86.905779
0
LINE
8
Layer 1
10
21.031185
20
86.905779
11
19.711433
21
85.742659
0
LINE
8
Layer 1
10
19.711433
20
85.742659
11
18.722791
21
84.427317
0
LINE
8
Layer 1
10
18.722791
20
84.427317
11
18.351191
21
83.569242
0
LINE
8
Layer 1
10
18.351191
20
83.569242
11
18.153777
21
82.572079
0
LINE
8
Layer 1
10
18.153777
20
82.572079
11
18.121855
21
81.484957
0
LINE
8
Layer 1
10
18.121855
20
81.484957
11
18.246728
21
80.357001
0
LINE
8
Layer 1
10
18.246728
20
80.357001
11
18.519700
21
79.237338
0
LINE
8
Layer 1
10
18.519700
20
79.237338
11
18.932075
21
78.175097
0
LINE
8
Layer 1
10
18.932075
20
78.175097
11
19.475158
21
77.219402
0
LINE
8
Layer 1
10
19.475158
20
77.219402
11
20.140252
21
76.419383
0
LINE
8
Layer 1
10
20.140252
20
76.419383
11
22.193108
21
73.811734
0
LINE
8
Layer 1
10
22.193108
20
73.811734
11
23.447543
21
72.220470
0
LINE
8
Layer 1
10
23.447543
20
72.220470
11
24.858443
21
70.809553
0
LINE
8
Layer 1
10
24.858443
20
70.809553
11
26.359392
21
69.749340
0
LINE
8
Layer 1
10
26.359392
20
69.749340
11
27.017633
21
69.522901
0
LINE
8
Layer 1
10
27.017633
20
69.522901
11
27.790619
21
69.415096
0
LINE
8
Layer 1
10
27.790619
20
69.415096
11
29.011137
21
69.457287
0
LINE
8
Layer 1
10
29.011137
20
69.457287
11
30.291020
21
69.757398
0
LINE
8
Layer 1
10
30.291020
20
69.757398
11
31.572739
21
70.296578
0
LINE
8
Layer 1
10
31.572739
20
70.296578
11
32.798766
21
71.055978
0
LINE
8
Layer 1
10
32.798766
20
71.055978
11
33.439736
21
71.742532
0
LINE
8
Layer 1
10
33.439736
20
71.742532
11
33.677659
21
72.517846
0
LINE
8
Layer 1
10
33.677659
20
72.517846
11
33.509049
21
73.303341
0
LINE
8
Layer 1
10
33.509049
20
73.303341
11
32.930423
21
74.020434
0
LINE
8
Layer 1
10
32.930423
20
74.020434
11
32.132803
21
74.945718
0
LINE
8
Layer 1
10
32.132803
20
74.945718
11
31.169808
21
76.371478
0
LINE
8
Layer 1
10
31.169808
20
76.371478
11
30.267836
21
77.666468
0
LINE
8
Layer 1
10
30.267836
20
77.666468
11
29.616964
21
78.277325
0
LINE
8
Layer 1
10
29.616964
20
78.277325
11
28.958469
21
78.212402
0
LINE
8
Layer 1
10
28.958469
20
78.212402
11
28.038184
21
77.882640
0
LINE
8
Layer 1
10
28.038184
20
77.882640
11
27.045165
21
77.528977
0
LINE
8
Layer 1
10
27.045165
20
77.528977
11
26.174791
21
77.422652
0
LINE
8
Layer 1
10
26.174791
20
77.422652
11
25.528180
21
77.561495
0
LINE
8
Layer 1
10
25.528180
20
77.561495
11
25.206451
21
77.943340
0
LINE
8
Layer 1
10
25.206451
20
77.943340
11
25.189216
21
78.184764
0
LINE
8
Layer 1
10
25.189216
20
78.184764
11
25.301317
21
78.342917
0
LINE
8
Layer 1
10
25.301317
20
78.342917
11
26.028706
21
78.485314
0
LINE
8
Layer 1
10
26.028706
20
78.485314
11
26.813338
21
78.644660
0
LINE
8
Layer 1
10
26.813338
20
78.644660
11
27.501528
21
78.982467
0
LINE
8
Layer 1
10
27.501528
20
78.982467
11
27.983898
21
79.425749
0
LINE
8
Layer 1
10
27.983898
20
79.425749
11
28.151073
21
79.901519
0
LINE
8
Layer 1
10
28.151073
20
79.901519
11
28.000994
21
80.216555
0
LINE
8
Layer 1
10
28.000994
20
80.216555
11
27.561818
21
80.492296
0
LINE
8
Layer 1
10
27.561818
20
80.492296
11
25.647339
21
80.999962
0
LINE
8
Layer 1
10
25.647339
20
80.999962
11
24.788227
21
81.247345
0
LINE
8
Layer 1
10
24.788227
20
81.247345
11
24.167270
21
81.585850
0
LINE
8
Layer 1
10
24.167270
20
81.585850
11
23.859500
21
81.958060
0
LINE
8
Layer 1
10
23.859500
20
81.958060
11
23.939951
21
82.306561
0
LINE
8
Layer 1
10
23.939951
20
82.306561
11
24.855084
21
82.417862
0
LINE
8
Layer 1
10
24.855084
20
82.417862
11
26.739906
21
82.320313
0
LINE
8
Layer 1
10
26.739906
20
82.320313
11
29.264045
21
82.188451
0
LINE
8
Layer 1
10
29.264045
20
82.188451
11
31.740433
21
82.212053
0
LINE
8
Layer 1
10
31.740433
20
82.212053
11
34.053811
21
82.506616
0
LINE
8
Layer 1
10
34.053811
20
82.506616
11
35.967095
21
83.242702
0
LINE
8
Layer 1
10
35.967095
20
83.242702
11
37.864043
21
84.634642
0
LINE
8
Layer 1
10
37.864043
20
84.634642
11
40.128416
21
86.896767
0
LINE
8
Layer 1
10
40.128416
20
86.896767
11
41.334810
21
88.021074
0
LINE
8
Layer 1
10
41.334810
20
88.021074
11
41.740427
21
88.115642
0
LINE
8
Layer 1
10
41.740427
20
88.115642
11
42.220360
21
88.007927
0
LINE
8
Layer 1
10
42.220360
20
88.007927
11
42.567329
21
87.745535
0
LINE
8
Layer 1
10
42.567329
20
87.745535
11
42.686256
21
87.262397
0
LINE
8
Layer 1
10
42.686256
20
87.262397
11
42.577011
21
86.573150
0
LINE
8
Layer 1
10
42.577011
20
86.573150
11
42.239466
21
85.692429
0
LINE
8
Layer 1
10
42.239466
20
85.692429
11
40.637668
21
81.759631
0
LINE
8
Layer 1
10
40.637668
20
81.759631
11
39.387131
21
78.101726
0
LINE
8
Layer 1
10
39.387131
20
78.101726
11
39.176066
21
77.000214
0
LINE
8
Layer 1
10
39.176066
20
77.000214
11
39.133403
21
75.945302
0
LINE
8
Layer 1
10
39.133403
20
75.945302
11
39.254829
21
74.947686
0
LINE
8
Layer 1
10
39.254829
20
74.947686
11
39.536031
21
74.018063
0
LINE
8
Layer 1
10
39.536031
20
74.018063
11
39.972698
21
73.167130
0
LINE
8
Layer 1
10
39.972698
20
73.167130
11
40.560516
21
72.405584
0
LINE
8
Layer 1
10
40.560516
20
72.405584
11
41.295172
21
71.744122
0
LINE
8
Layer 1
10
41.295172
20
71.744122
11
42.172354
21
71.193440
0
LINE
8
Layer 1
10
42.172354
20
71.193440
11
44.711366
21
70.200555
0
LINE
8
Layer 1
10
44.711366
20
70.200555
11
47.242504
21
69.445353
0
LINE
8
Layer 1
10
47.242504
20
69.445353
11
47.496007
21
69.768198
0
LINE
8
Layer 1
10
47.496007
20
69.768198
11
47.741191
21
70.605695
0
LINE
8
Layer 1
10
47.741191
20
70.605695
11
48.246651
21
72.095992
0
LINE
8
Layer 1
10
48.246651
20
72.095992
11
48.742604
21
72.398255
0
LINE
8
Layer 1
10
48.742604
20
72.398255
11
49.588644
21
72.656318
0
LINE
8
Layer 1
10
49.588644
20
72.656318
11
52.079366
21
73.018273
0
LINE
8
Layer 1
10
52.079366
20
73.018273
11
55.215581
21
73.138715
0
LINE
8
Layer 1
10
55.215581
20
73.138715
11
58.494055
21
72.974502
0
LINE
8
Layer 1
10
58.494055
20
72.974502
11
60.045072
21
72.772133
0
LINE
8
Layer 1
10
60.045072
20
72.772133
11
60.919441
21
72.471201
0
LINE
8
Layer 1
10
60.919441
20
72.471201
11
61.320666
21
71.938752
0
LINE
8
Layer 1
10
61.320666
20
71.938752
11
61.452252
21
71.041833
0
LINE
8
Layer 1
10
61.452252
20
71.041833
11
61.621197
21
69.991831
0
LINE
8
Layer 1
10
61.621197
20
69.991831
11
61.833998
21
69.838099
0
LINE
8
Layer 1
10
61.833998
20
69.838099
11
62.199294
21
69.822627
0
LINE
8
Layer 1
10
62.199294
20
69.822627
11
64.765259
21
70.566819
0
LINE
8
Layer 1
10
64.765259
20
70.566819
11
66.326055
21
71.316809
0
LINE
8
Layer 1
10
66.326055
20
71.316809
11
67.538268
21
72.268542
0
LINE
8
Layer 1
10
67.538268
20
72.268542
11
68.392712
21
73.412704
0
LINE
8
Layer 1
10
68.392712
20
73.412704
11
68.880200
21
74.739977
0
LINE
8
Layer 1
10
68.880200
20
74.739977
11
68.966084
21
76.572737
0
LINE
8
Layer 1
10
68.966084
20
76.572737
11
68.805841
21
79.256068
0
LINE
8
Layer 1
10
68.805841
20
79.256068
11
68.480721
21
81.898416
0
LINE
8
Layer 1
10
68.480721
20
81.898416
11
68.071972
21
83.608229
0
LINE
8
Layer 1
10
68.071972
20
83.608229
11
67.601465
21
84.314720
0
LINE
8
Layer 1
10
67.601465
20
84.314720
11
66.879036
21
85.043534
0
LINE
8
Layer 1
10
66.879036
20
85.043534
11
66.069067
21
85.651298
0
LINE
8
Layer 1
10
66.069067
20
85.651298
11
65.335940
21
85.994635
0
LINE
8
Layer 1
10
65.335940
20
85.994635
11
64.946117
21
86.250636
0
LINE
8
Layer 1
10
64.946117
20
86.250636
11
64.845071
21
86.726149
0
LINE
8
Layer 1
10
64.845071
20
86.726149
11
64.984273
21
87.234423
0
LINE
8
Layer 1
10
64.984273
20
87.234423
11
65.295156
21
87.413582
0
LINE
8
Layer 1
10
65.295156
20
87.413582
11
65.798480
21
87.264391
0
LINE
8
Layer 1
10
65.798480
20
87.264391
11
66.515008
21
86.787615
0
LINE
8
Layer 1
10
66.515008
20
86.787615
11
71.507343
21
83.111914
0
LINE
8
Layer 1
10
71.507343
20
83.111914
11
73.068621
21
82.140219
0
LINE
8
Layer 1
10
73.068621
20
82.140219
11
74.127106
21
81.664892
0
LINE
8
Layer 1
10
74.127106
20
81.664892
11
76.829045
21
80.819109
0
LINE
8
Layer 1
10
76.829045
20
80.819109
11
78.632029
21
80.489967
0
LINE
8
Layer 1
10
78.632029
20
80.489967
11
81.579664
21
80.548212
0
LINE
8
Layer 1
10
81.579664
20
80.548212
11
84.041435
21
80.612967
0
LINE
8
Layer 1
10
84.041435
20
80.612967
11
84.939773
21
80.451703
0
LINE
8
Layer 1
10
84.939773
20
80.451703
11
84.694295
21
80.086834
0
LINE
8
Layer 1
10
84.694295
20
80.086834
11
83.957280
21
79.757789
0
LINE
8
Layer 1
10
83.957280
20
79.757789
11
81.264478
21
79.288163
0
LINE
8
Layer 1
10
81.264478
20
79.288163
11
79.669270
21
79.084665
0
LINE
8
Layer 1
10
79.669270
20
79.084665
11
78.889888
21
78.869997
0
LINE
8
Layer 1
10
78.889888
20
78.869997
11
78.956246
21
78.574865
0
LINE
8
Layer 1
10
78.956246
20
78.574865
11
79.394417
21
78.177915
0
LINE
8
Layer 1
10
79.394417
20
78.177915
11
79.895061
21
77.694554
0
LINE
8
Layer 1
10
79.895061
20
77.694554
11
79.875743
21
77.223291
0
LINE
8
Layer 1
10
79.875743
20
77.223291
11
79.312585
21
76.724346
0
LINE
8
Layer 1
10
79.312585
20
76.724346
11
78.181708
21
76.157943
0
LINE
8
Layer 1
10
78.181708
20
76.157943
11
76.820868
21
75.481843
0
LINE
8
Layer 1
10
76.820868
20
75.481843
11
75.862490
21
74.853746
0
LINE
8
Layer 1
10
75.862490
20
74.853746
11
75.231164
21
74.096473
0
LINE
8
Layer 1
10
75.231164
20
74.096473
11
74.741320
21
73.095069
0
LINE
8
Layer 1
10
74.741320
20
73.095069
11
74.417254
21
71.914661
0
LINE
8
Layer 1
10
74.417254
20
71.914661
11
74.283260
21
70.620371
0
LINE
8
Layer 1
10
74.283260
20
70.620371
11
74.248659
21
69.130960
0
LINE
8
Layer 1
10
74.248659
20
69.130960
11
75.483043
21
68.588111
0
LINE
8
Layer 1
10
75.483043
20
68.588111
11
77.741046
21
67.718957
0
LINE
8
Layer 1
10
77.741046
20
67.718957
11
78.968832
21
67.535089
0
LINE
8
Layer 1
10
78.968832
20
67.535089
11
80.460645
21
67.575650
0
LINE
8
Layer 1
10
80.460645
20
67.575650
11
81.829851
21
67.804263
0
LINE
8
Layer 1
10
81.829851
20
67.804263
11
82.689813
21
68.184553
0
LINE
8
Layer 1
10
82.689813
20
68.184553
11
82.689813
21
68.184553
0
LINE
8
Layer 1
10
52.463446
20
75.502220
11
50.728193
21
76.198200
0
LINE
8
Layer 1
10
50.728193
20
76.198200
11
49.637050
21
76.952097
0
LINE
8
Layer 1
10
49.637050
20
76.952097
11
49.050103
21
77.906329
0
LINE
8
Layer 1
10
49.050103
20
77.906329
11
48.827436
21
79.203313
0
LINE
8
Layer 1
10
48.827436
20
79.203313
11
48.867648
21
80.407620
0
LINE
8
Layer 1
10
48.867648
20
80.407620
11
49.236383
21
81.326905
0
LINE
8
Layer 1
10
49.236383
20
81.326905
11
50.062709
21
82.149270
0
LINE
8
Layer 1
10
50.062709
20
82.149270
11
51.475696
21
83.062815
0
LINE
8
Layer 1
10
51.475696
20
83.062815
11
52.986121
21
83.884647
0
LINE
8
Layer 1
10
52.986121
20
83.884647
11
54.055977
21
84.267492
0
LINE
8
Layer 1
10
54.055977
20
84.267492
11
54.917817
21
84.256065
0
LINE
8
Layer 1
10
54.917817
20
84.256065
11
55.804195
21
83.895080
0
LINE
8
Layer 1
10
55.804195
20
83.895080
11
56.867050
21
83.160142
0
LINE
8
Layer 1
10
56.867050
20
83.160142
11
57.655994
21
82.266523
0
LINE
8
Layer 1
10
57.655994
20
82.266523
11
58.167128
21
81.262541
0
LINE
8
Layer 1
10
58.167128
20
81.262541
11
58.396551
21
80.196513
0
LINE
8
Layer 1
10
58.396551
20
80.196513
11
58.340363
21
79.116755
0
LINE
8
Layer 1
10
58.340363
20
79.116755
11
57.994663
21
78.071585
0
LINE
8
Layer 1
10
57.994663
20
78.071585
11
57.355552
21
77.109321
0
LINE
8
Layer 1
10
57.355552
20
77.109321
11
56.419129
21
76.278280
0
LINE
8
Layer 1
10
56.419129
20
76.278280
11
55.516030
21
75.830427
0
LINE
8
Layer 1
10
55.516030
20
75.830427
11
54.412469
21
75.523695
0
LINE
8
Layer 1
10
54.412469
20
75.523695
11
53.323318
21
75.400240
0
LINE
8
Layer 1
10
53.323318
20
75.400240
11
52.463446
21
75.502220
0
LINE
8
Layer 1
10
52.463446
20
75.502220
11
52.463446
21
75.502220
0
LINE
8
Layer 1
10
55.108094
20
77.159937
11
55.956934
21
77.773186
0
LINE
8
Layer 1
10
55.956934
20
77.773186
11
56.493675
21
78.459973
0
LINE
8
Layer 1
10
56.493675
20
78.459973
11
56.761043
21
79.301504
0
LINE
8
Layer 1
10
56.761043
20
79.301504
11
56.801766
21
80.378986
0
LINE
8
Layer 1
10
56.801766
20
80.378986
11
56.641987
21
81.500144
0
LINE
8
Layer 1
10
56.641987
20
81.500144
11
56.270867
21
82.309164
0
LINE
8
Layer 1
10
56.270867
20
82.309164
11
55.666390
21
82.836191
0
LINE
8
Layer 1
10
55.666390
20
82.836191
11
54.806540
21
83.111371
0
LINE
8
Layer 1
10
54.806540
20
83.111371
11
54.114333
21
83.102631
0
LINE
8
Layer 1
10
54.114333
20
83.102631
11
53.354754
21
82.896398
0
LINE
8
Layer 1
10
53.354754
20
82.896398
11
51.836087
21
82.044275
0
LINE
8
Layer 1
10
51.836087
20
82.044275
11
50.655759
21
80.860649
0
LINE
8
Layer 1
10
50.655759
20
80.860649
11
50.319103
21
80.240037
0
LINE
8
Layer 1
10
50.319103
20
80.240037
11
50.218989
21
79.651166
0
LINE
8
Layer 1
10
50.218989
20
79.651166
11
50.344668
21
78.724079
0
LINE
8
Layer 1
10
50.344668
20
78.724079
11
50.623692
21
78.059526
0
LINE
8
Layer 1
10
50.623692
20
78.059526
11
51.113065
21
77.572057
0
LINE
8
Layer 1
10
51.113065
20
77.572057
11
51.869792
21
77.176221
0
LINE
8
Layer 1
10
51.869792
20
77.176221
11
52.843255
21
76.838688
0
LINE
8
Layer 1
10
52.843255
20
76.838688
11
53.656943
21
76.723716
0
LINE
8
Layer 1
10
53.656943
20
76.723716
11
54.386630
21
76.830926
0
LINE
8
Layer 1
10
54.386630
20
76.830926
11
55.108094
21
77.159937
0
LINE
8
Layer 1
10
55.108094
20
77.159937
11
55.108094
21
77.159937
0
LINE
8
Layer 1
10
17.627430
20
68.400058
11
18.970759
21
68.615015
0
LINE
8
Layer 1
10
18.970759
20
68.615015
11
20.613260
21
68.687187
0
LINE
8
Layer 1
10
20.613260
20
68.687187
11
22.273991
21
68.616452
0
LINE
8
Layer 1
10
22.273991
20
68.616452
11
23.672009
21
68.402688
0
LINE
8
Layer 1
10
23.672009
20
68.402688
11
24.776824
21
68.343955
0
LINE
8
Layer 1
10
24.776824
20
68.343955
11
24.537944
21
68.801892
0
LINE
8
Layer 1
10
24.537944
20
68.801892
11
23.747673
21
69.660544
0
LINE
8
Layer 1
10
23.747673
20
69.660544
11
21.963125
21
71.708504
0
LINE
8
Layer 1
10
21.963125
20
71.708504
11
21.361568
21
72.612456
0
LINE
8
Layer 1
10
21.361568
20
72.612456
11
19.204996
21
72.392077
0
LINE
8
Layer 1
10
19.204996
20
72.392077
11
17.308438
21
72.076242
0
LINE
8
Layer 1
10
17.308438
20
72.076242
11
16.777426
21
71.817347
0
LINE
8
Layer 1
10
16.777426
20
71.817347
11
16.326639
21
71.424594
0
LINE
8
Layer 1
10
16.326639
20
71.424594
11
15.771077
21
70.706517
0
LINE
8
Layer 1
10
15.771077
20
70.706517
11
15.329915
21
69.860880
0
LINE
8
Layer 1
10
15.329915
20
69.860880
11
15.048265
21
68.994534
0
LINE
8
Layer 1
10
15.048265
20
68.994534
11
14.971239
21
68.214330
0
LINE
8
Layer 1
10
14.971239
20
68.214330
11
15.120499
21
67.768707
0
LINE
8
Layer 1
10
15.120499
20
67.768707
11
15.629635
21
67.825657
0
LINE
8
Layer 1
10
15.629635
20
67.825657
11
17.627430
21
68.400058
0
LINE
8
Layer 1
10
17.627430
20
68.400058
11
17.627430
21
68.400058
0
LINE
8
Layer 1
10
74.871016
20
75.076036
11
76.186538
21
77.086482
0
LINE
8
Layer 1
10
76.186538
20
77.086482
11
76.489281
21
77.918353
0
LINE
8
Layer 1
10
76.489281
20
77.918353
11
76.562684
21
78.650166
0
LINE
8
Layer 1
10
76.562684
20
78.650166
11
76.455214
21
79.031514
0
LINE
8
Layer 1
10
76.455214
20
79.031514
11
76.110063
21
79.379270
0
LINE
8
Layer 1
10
76.110063
20
79.379270
11
74.278180
21
80.279683
0
LINE
8
Layer 1
10
74.278180
20
80.279683
11
71.255241
21
81.701473
0
LINE
8
Layer 1
10
71.255241
20
81.701473
11
70.506766
21
82.064907
0
LINE
8
Layer 1
10
70.506766
20
82.064907
11
69.970699
21
82.146664
0
LINE
8
Layer 1
10
69.970699
20
82.146664
11
69.697427
21
81.953670
0
LINE
8
Layer 1
10
69.697427
20
81.953670
11
69.737337
21
81.492849
0
LINE
8
Layer 1
10
69.737337
20
81.492849
11
70.319279
21
79.045774
0
LINE
8
Layer 1
10
70.319279
20
79.045774
11
70.501712
21
77.907952
0
LINE
8
Layer 1
10
70.501712
20
77.907952
11
70.548345
21
76.763464
0
LINE
8
Layer 1
10
70.548345
20
76.763464
11
70.205318
21
72.893871
0
LINE
8
Layer 1
10
70.205318
20
72.893871
11
70.232228
21
72.115646
0
LINE
8
Layer 1
10
70.232228
20
72.115646
11
70.465894
21
71.572253
0
LINE
8
Layer 1
10
70.465894
20
71.572253
11
70.709988
21
71.417065
0
LINE
8
Layer 1
10
70.709988
20
71.417065
11
71.039514
21
71.487298
0
LINE
8
Layer 1
10
71.039514
20
71.487298
11
72.352126
21
72.499274
0
LINE
8
Layer 1
10
72.352126
20
72.499274
11
74.871016
21
75.076036
0
LINE
8
Layer 1
10
74.871016
20
75.076036
11
74.871016
21
75.076036
0
LINE
8
Layer 1
10
37.468246
20
73.701233
11
37.405093
21
74.814451
0
LINE
8
Layer 1
10
37.405093
20
74.814451
11
37.627444
21
76.409922
0
LINE
8
Layer 1
10
37.627444
20
76.409922
11
38.113822
21
78.379609
0
LINE
8
Layer 1
10
38.113822
20
78.379609
11
38.842752
21
80.615480
0
LINE
8
Layer 1
10
38.842752
20
80.615480
11
39.813399
21
83.564276
0
LINE
8
Layer 1
10
39.813399
20
83.564276
11
39.176286
21
83.356549
0
LINE
8
Layer 1
10
39.176286
20
83.356549
11
37.662810
21
82.538813
0
LINE
8
Layer 1
10
37.662810
20
82.538813
11
35.477394
21
81.458077
0
LINE
8
Layer 1
10
35.477394
20
81.458077
11
33.167856
21
80.821815
0
LINE
8
Layer 1
10
33.167856
20
80.821815
11
30.588402
21
80.145560
0
LINE
8
Layer 1
10
30.588402
20
80.145560
11
30.658448
21
79.616625
0
LINE
8
Layer 1
10
30.658448
20
79.616625
11
31.144602
21
78.612724
0
LINE
8
Layer 1
10
31.144602
20
78.612724
11
31.871606
21
77.447244
0
LINE
8
Layer 1
10
31.871606
20
77.447244
11
32.664202
21
76.433573
0
LINE
8
Layer 1
10
32.664202
20
76.433573
11
34.078446
21
74.636892
0
LINE
8
Layer 1
10
34.078446
20
74.636892
11
34.732413
21
73.817321
0
LINE
8
Layer 1
10
34.732413
20
73.817321
11
35.397525
21
73.261823
0
LINE
8
Layer 1
10
35.397525
20
73.261823
11
36.095508
21
72.956684
0
LINE
8
Layer 1
10
36.095508
20
72.956684
11
36.848090
21
72.888187
0
LINE
8
Layer 1
10
36.848090
20
72.888187
11
37.501301
21
73.050505
0
LINE
8
Layer 1
10
37.501301
20
73.050505
11
37.468246
21
73.701233
0
LINE
8
Layer 1
10
37.468246
20
73.701233
11
37.468246
21
73.701233
0
LINE
8
Layer 1
10
60.842793
20
90.027520
11
63.431748
21
94.449080
0
LINE
8
Layer 1
10
63.431748
20
94.449080
11
63.851594
21
95.452039
0
LINE
8
Layer 1
10
63.851594
20
95.452039
11
63.831752
21
95.933136
0
LINE
8
Layer 1
10
63.831752
20
95.933136
11
63.603418
21
96.065777
0
LINE
8
Layer 1
10
63.603418
20
96.065777
11
63.080896
21
96.010287
0
LINE
8
Layer 1
10
63.080896
20
96.010287
11
60.348650
21
95.155190
0
LINE
8
Layer 1
10
60.348650
20
95.155190
11
56.234059
21
93.748718
0
LINE
8
Layer 1
10
56.234059
20
93.748718
11
54.181633
21
92.942591
0
LINE
8
Layer 1
10
54.181633
20
92.942591
11
53.724355
21
92.663413
0
LINE
8
Layer 1
10
53.724355
20
92.663413
11
53.537366
21
92.412827
0
LINE
8
Layer 1
10
53.537366
20
92.412827
11
53.647255
21
91.835444
0
LINE
8
Layer 1
10
53.647255
20
91.835444
11
54.213524
21
90.930274
0
LINE
8
Layer 1
10
54.213524
20
90.930274
11
55.230324
21
89.687242
0
LINE
8
Layer 1
10
55.230324
20
89.687242
11
56.371882
21
88.476686
0
LINE
8
Layer 1
10
56.371882
20
88.476686
11
57.312419
21
87.668944
0
LINE
8
Layer 1
10
57.312419
20
87.668944
11
58.027062
21
87.295879
0
LINE
8
Layer 1
10
58.027062
20
87.295879
11
58.605138
21
87.151625
0
LINE
8
Layer 1
10
58.605138
20
87.151625
11
59.431156
21
87.938223
0
LINE
8
Layer 1
10
59.431156
20
87.938223
11
60.842793
21
90.027520
0
LINE
8
Layer 1
10
60.842793
20
90.027520
11
60.842793
21
90.027520
0
LINE
8
Layer 1
10
48.391657
20
90.463596
11
49.546418
21
92.087482
0
LINE
8
Layer 1
10
49.546418
20
92.087482
11
50.012120
21
93.016917
0
LINE
8
Layer 1
10
50.012120
20
93.016917
11
49.630983
21
93.457863
0
LINE
8
Layer 1
10
49.630983
20
93.457863
11
48.728743
21
93.907644
0
LINE
8
Layer 1
10
48.728743
20
93.907644
11
45.219733
21
95.558602
0
LINE
8
Layer 1
10
45.219733
20
95.558602
11
43.584714
21
96.351626
0
LINE
8
Layer 1
10
43.584714
20
96.351626
11
42.814184
21
96.579969
0
LINE
8
Layer 1
10
42.814184
20
96.579969
11
43.096406
21
94.872226
0
LINE
8
Layer 1
10
43.096406
20
94.872226
11
43.897130
21
92.654971
0
LINE
8
Layer 1
10
43.897130
20
92.654971
11
45.603894
21
88.985189
0
LINE
8
Layer 1
10
45.603894
20
88.985189
11
46.020627
21
88.373655
0
LINE
8
Layer 1
10
46.020627
20
88.373655
11
46.397249
21
88.206143
0
LINE
8
Layer 1
10
46.397249
20
88.206143
11
48.391657
21
90.463596
0
LINE
8
Layer 1
10
48.391657
20
90.463596
11
48.391657
21
90.463596
0
LINE
8
Layer 1
10
55.282366
20
95.278296
11
60.045339
21
96.675596
0
LINE
8
Layer 1
10
60.045339
20
96.675596
11
64.618193
21
98.418673
0
LINE
8
Layer 1
10
64.618193
20
98.418673
11
68.131097
21
99.923894
0
LINE
8
Layer 1
10
68.131097
20
99.923894
11
70.450884
21
101.134608
0
LINE
8
Layer 1
10
70.450884
20
101.134608
11
72.885847
21
102.762679
0
LINE
8
Layer 1
10
72.885847
20
102.762679
11
75.124229
21
104.578371
0
LINE
8
Layer 1
10
75.124229
20
104.578371
11
76.854276
21
106.351948
0
LINE
8
Layer 1
10
76.854276
20
106.351948
11
77.880682
21
107.729504
0
LINE
8
Layer 1
10
77.880682
20
107.729504
11
78.478458
21
108.928948
0
LINE
8
Layer 1
10
78.478458
20
108.928948
11
78.735439
21
110.204631
0
LINE
8
Layer 1
10
78.735439
20
110.204631
11
78.739464
21
111.810902
0
LINE
8
Layer 1
10
78.739464
20
111.810902
11
78.580334
21
113.296404
0
LINE
8
Layer 1
10
78.580334
20
113.296404
11
78.192440
21
114.328984
0
LINE
8
Layer 1
10
78.192440
20
114.328984
11
77.441421
21
115.124283
0
LINE
8
Layer 1
10
77.441421
20
115.124283
11
76.192916
21
115.897942
0
LINE
8
Layer 1
10
76.192916
20
115.897942
11
75.506804
21
116.335436
0
LINE
8
Layer 1
10
75.506804
20
116.335436
11
75.269101
21
116.662408
0
LINE
8
Layer 1
10
75.269101
20
116.662408
11
75.479807
21
116.878883
0
LINE
8
Layer 1
10
75.479807
20
116.878883
11
76.138927
21
116.984890
0
LINE
8
Layer 1
10
76.138927
20
116.984890
11
76.694962
21
116.909356
0
LINE
8
Layer 1
10
76.694962
20
116.909356
11
77.305535
21
116.643623
0
LINE
8
Layer 1
10
77.305535
20
116.643623
11
78.566462
21
115.664449
0
LINE
8
Layer 1
10
78.566462
20
115.664449
11
79.674036
21
114.293149
0
LINE
8
Layer 1
10
79.674036
20
114.293149
11
80.380586
21
112.775503
0
LINE
8
Layer 1
10
80.380586
20
112.775503
11
80.872274
21
111.748737
0
LINE
8
Layer 1
10
80.872274
20
111.748737
11
81.786610
21
112.135516
0
LINE
8
Layer 1
10
81.786610
20
112.135516
11
83.647901
21
113.247833
0
LINE
8
Layer 1
10
83.647901
20
113.247833
11
85.359854
21
114.506141
0
LINE
8
Layer 1
10
85.359854
20
114.506141
11
87.204185
21
116.142449
0
LINE
8
Layer 1
10
87.204185
20
116.142449
11
89.114654
21
118.078152
0
LINE
8
Layer 1
10
89.114654
20
118.078152
11
91.025020
21
120.234646
0
LINE
8
Layer 1
10
91.025020
20
120.234646
11
94.580490
21
124.895593
0
LINE
8
Layer 1
10
94.580490
20
124.895593
11
96.093112
21
127.242838
0
LINE
8
Layer 1
10
96.093112
20
127.242838
11
97.340674
21
129.496459
0
LINE
8
Layer 1
10
97.340674
20
129.496459
11
98.052632
21
131.125674
0
LINE
8
Layer 1
10
98.052632
20
131.125674
11
98.564203
21
132.690941
0
LINE
8
Layer 1
10
98.564203
20
132.690941
11
98.804686
21
133.928765
0
LINE
8
Layer 1
10
98.804686
20
133.928765
11
98.703384
21
134.575652
0
LINE
8
Layer 1
10
98.703384
20
134.575652
11
97.093677
21
134.360152
0
LINE
8
Layer 1
10
97.093677
20
134.360152
11
93.628012
21
133.387877
0
LINE
8
Layer 1
10
93.628012
20
133.387877
11
91.017238
21
132.370652
0
LINE
8
Layer 1
10
91.017238
20
132.370652
11
87.767527
21
130.776624
0
LINE
8
Layer 1
10
87.767527
20
130.776624
11
86.223207
21
130.002923
0
LINE
8
Layer 1
10
86.223207
20
130.002923
11
85.204441
21
129.413885
0
LINE
8
Layer 1
10
85.204441
20
129.413885
11
83.151324
21
127.968619
0
LINE
8
Layer 1
10
83.151324
20
127.968619
11
78.303007
21
124.230215
0
LINE
8
Layer 1
10
78.303007
20
124.230215
11
75.778191
21
122.267755
0
LINE
8
Layer 1
10
75.778191
20
122.267755
11
74.509404
21
121.521305
0
LINE
8
Layer 1
10
74.509404
20
121.521305
11
74.244176
21
121.806530
0
LINE
8
Layer 1
10
74.244176
20
121.806530
11
74.288089
21
122.309040
0
LINE
8
Layer 1
10
74.288089
20
122.309040
11
74.603555
21
122.913087
0
LINE
8
Layer 1
10
74.603555
20
122.913087
11
75.152984
21
123.502925
0
LINE
8
Layer 1
10
75.152984
20
123.502925
11
75.706370
21
124.100715
0
LINE
8
Layer 1
10
75.706370
20
124.100715
11
75.853234
21
124.652472
0
LINE
8
Layer 1
10
75.853234
20
124.652472
11
75.590967
21
125.182669
0
LINE
8
Layer 1
10
75.590967
20
125.182669
11
74.916961
21
125.715779
0
LINE
8
Layer 1
10
74.916961
20
125.715779
11
73.787423
21
126.528000
0
LINE
8
Layer 1
10
73.787423
20
126.528000
11
72.576599
21
127.252704
0
LINE
8
Layer 1
10
72.576599
20
127.252704
11
70.086911
21
128.390588
0
LINE
8
Layer 1
10
70.086911
20
128.390588
11
64.245772
21
130.627704
0
LINE
8
Layer 1
10
64.245772
20
130.627704
11
61.310898
21
131.455480
0
LINE
8
Layer 1
10
61.310898
20
131.455480
11
58.635618
21
131.951171
0
LINE
8
Layer 1
10
58.635618
20
131.951171
11
55.965269
21
132.147757
0
LINE
8
Layer 1
10
55.965269
20
132.147757
11
53.045191
21
132.078219
0
LINE
8
Layer 1
10
53.045191
20
132.078219
11
49.710458
21
131.725563
0
LINE
8
Layer 1
10
49.710458
20
131.725563
11
46.694908
21
131.070745
0
LINE
8
Layer 1
10
46.694908
20
131.070745
11
43.830976
21
130.066484
0
LINE
8
Layer 1
10
43.830976
20
130.066484
11
40.951094
21
128.665495
0
LINE
8
Layer 1
10
40.951094
20
128.665495
11
36.745704
21
125.949662
0
LINE
8
Layer 1
10
36.745704
20
125.949662
11
35.057234
21
124.655156
0
LINE
8
Layer 1
10
35.057234
20
124.655156
11
34.382936
21
123.934514
0
LINE
8
Layer 1
10
34.382936
20
123.934514
11
35.342124
21
123.462040
0
LINE
8
Layer 1
10
35.342124
20
123.462040
11
36.352861
21
123.106285
0
LINE
8
Layer 1
10
36.352861
20
123.106285
11
36.949405
21
122.746494
0
LINE
8
Layer 1
10
36.949405
20
122.746494
11
37.174913
21
122.342577
0
LINE
8
Layer 1
10
37.174913
20
122.342577
11
37.072542
21
121.854445
0
LINE
8
Layer 1
10
37.072542
20
121.854445
11
36.713682
21
121.400413
0
LINE
8
Layer 1
10
36.713682
20
121.400413
11
36.261181
21
121.194133
0
LINE
8
Layer 1
10
36.261181
20
121.194133
11
34.750985
21
121.521418
0
LINE
8
Layer 1
10
34.750985
20
121.521418
11
33.061317
21
122.337189
0
LINE
8
Layer 1
10
33.061317
20
122.337189
11
30.689220
21
123.464430
0
LINE
8
Layer 1
10
30.689220
20
123.464430
11
27.031854
21
124.686720
0
LINE
8
Layer 1
10
27.031854
20
124.686720
11
22.650805
21
125.838218
0
LINE
8
Layer 1
10
22.650805
20
125.838218
11
18.107659
21
126.753087
0
LINE
8
Layer 1
10
18.107659
20
126.753087
11
14.153056
21
127.138497
0
LINE
8
Layer 1
10
14.153056
20
127.138497
11
9.913337
21
127.167340
0
LINE
8
Layer 1
10
9.913337
20
127.167340
11
6.479730
21
126.876828
0
LINE
8
Layer 1
10
6.479730
20
126.876828
11
5.406226
21
126.623443
0
LINE
8
Layer 1
10
5.406226
20
126.623443
11
4.943460
21
126.304173
0
LINE
8
Layer 1
10
4.943460
20
126.304173
11
5.000942
21
125.819033
0
LINE
8
Layer 1
10
5.000942
20
125.819033
11
5.302475
21
125.164257
0
LINE
8
Layer 1
10
5.302475
20
125.164257
11
6.449732
21
123.936143
0
LINE
8
Layer 1
10
6.449732
20
123.936143
11
8.587097
21
122.108505
0
LINE
8
Layer 1
10
8.587097
20
122.108505
11
11.219667
21
120.081295
0
LINE
8
Layer 1
10
11.219667
20
120.081295
11
13.852538
21
118.254467
0
LINE
8
Layer 1
10
13.852538
20
118.254467
11
16.062846
21
116.686437
0
LINE
8
Layer 1
10
16.062846
20
116.686437
11
19.838101
21
114.615267
0
LINE
8
Layer 1
10
19.838101
20
114.615267
11
25.165698
21
112.161012
0
LINE
8
Layer 1
10
25.165698
20
112.161012
11
28.375098
21
111.169245
0
LINE
8
Layer 1
10
28.375098
20
111.169245
11
29.635039
21
110.978665
0
LINE
8
Layer 1
10
29.635039
20
110.978665
11
30.408457
21
111.046201
0
LINE
8
Layer 1
10
30.408457
20
111.046201
11
30.782369
21
111.507016
0
LINE
8
Layer 1
10
30.782369
20
111.507016
11
31.071594
21
112.339831
0
LINE
8
Layer 1
10
31.071594
20
112.339831
11
31.654074
21
113.653729
0
LINE
8
Layer 1
10
31.654074
20
113.653729
11
32.705467
21
114.926164
0
LINE
8
Layer 1
10
32.705467
20
114.926164
11
33.963515
21
115.901841
0
LINE
8
Layer 1
10
33.963515
20
115.901841
11
34.588080
21
116.198618
0
LINE
8
Layer 1
10
34.588080
20
116.198618
11
35.165961
21
116.325469
0
LINE
8
Layer 1
10
35.165961
20
116.325469
11
35.787252
21
116.239625
0
LINE
8
Layer 1
10
35.787252
20
116.239625
11
35.980934
21
115.806945
0
LINE
8
Layer 1
10
35.980934
20
115.806945
11
35.878541
21
115.396657
0
LINE
8
Layer 1
10
35.878541
20
115.396657
11
35.572333
21
115.218077
0
LINE
8
Layer 1
10
35.572333
20
115.218077
11
34.842432
21
114.730694
0
LINE
8
Layer 1
10
34.842432
20
114.730694
11
33.706872
21
113.594507
0
LINE
8
Layer 1
10
33.706872
20
113.594507
11
32.689966
21
112.286811
0
LINE
8
Layer 1
10
32.689966
20
112.286811
11
32.195371
21
111.122067
0
LINE
8
Layer 1
10
32.195371
20
111.122067
11
32.176915
21
109.884046
0
LINE
8
Layer 1
10
32.176915
20
109.884046
11
32.588426
21
108.356521
0
LINE
8
Layer 1
10
32.588426
20
108.356521
11
33.395060
21
106.545187
0
LINE
8
Layer 1
10
33.395060
20
106.545187
11
34.629542
21
104.875584
0
LINE
8
Layer 1
10
34.629542
20
104.875584
11
36.618001
21
102.987725
0
LINE
8
Layer 1
10
36.618001
20
102.987725
11
39.686569
21
100.521623
0
LINE
8
Layer 1
10
39.686569
20
100.521623
11
41.101040
21
99.585929
0
LINE
8
Layer 1
10
41.101040
20
99.585929
11
43.194192
21
98.417522
0
LINE
8
Layer 1
10
43.194192
20
98.417522
11
48.818461
21
95.698460
0
LINE
8
Layer 1
10
48.818461
20
95.698460
11
50.493180
21
95.020474
0
LINE
8
Layer 1
10
50.493180
20
95.020474
11
51.842388
21
94.743065
0
LINE
8
Layer 1
10
51.842388
20
94.743065
11
53.295608
21
94.838312
0
LINE
8
Layer 1
10
53.295608
20
94.838312
11
55.282366
21
95.278296
0
LINE
8
Layer 1
10
55.282366
20
95.278296
11
55.282366
21
95.278296
0
LINE
8
Layer 1
10
50.309893
20
100.130331
11
48.313919
21
100.822292
0
LINE
8
Layer 1
10
48.313919
20
100.822292
11
46.439949
21
101.836731
0
LINE
8
Layer 1
10
46.439949
20
101.836731
11
44.729816
21
103.238888
0
LINE
8
Layer 1
10
44.729816
20
103.238888
11
43.040745
21
105.211772
0
LINE
8
Layer 1
10
43.040745
20
105.211772
11
41.626363
21
107.414158
0
LINE
8
Layer 1
10
41.626363
20
107.414158
11
40.740302
21
109.504819
0
LINE
8
Layer 1
10
40.740302
20
109.504819
11
40.447414
21
110.261470
0
LINE
8
Layer 1
10
40.447414
20
110.261470
11
40.089240
21
110.524937
0
LINE
8
Layer 1
10
40.089240
20
110.524937
11
39.603870
21
110.297892
0
LINE
8
Layer 1
10
39.603870
20
110.297892
11
38.929395
21
109.583008
0
LINE
8
Layer 1
10
38.929395
20
109.583008
11
38.152042
21
108.768867
0
LINE
8
Layer 1
10
38.152042
20
108.768867
11
37.960194
21
108.725652
0
LINE
8
Layer 1
10
37.960194
20
108.725652
11
37.855511
21
108.896861
0
LINE
8
Layer 1
10
37.855511
20
108.896861
11
37.851486
21
109.464830
0
LINE
8
Layer 1
10
37.851486
20
109.464830
11
38.065783
21
110.160408
0
LINE
8
Layer 1
10
38.065783
20
110.160408
11
38.965170
21
111.688552
0
LINE
8
Layer 1
10
38.965170
20
111.688552
11
40.185322
21
112.989604
0
LINE
8
Layer 1
10
40.185322
20
112.989604
11
40.800575
21
113.401317
0
LINE
8
Layer 1
10
40.800575
20
113.401317
11
41.357889
21
113.571875
0
LINE
8
Layer 1
10
41.357889
20
113.571875
11
41.919342
21
113.481685
0
LINE
8
Layer 1
10
41.919342
20
113.481685
11
42.230583
21
113.177542
0
LINE
8
Layer 1
10
42.230583
20
113.177542
11
42.261589
21
112.725762
0
LINE
8
Layer 1
10
42.261589
20
112.725762
11
41.982334
21
112.192666
0
LINE
8
Layer 1
10
41.982334
20
112.192666
11
41.753251
21
111.848476
0
LINE
8
Layer 1
10
41.753251
20
111.848476
11
41.670309
21
111.494703
0
LINE
8
Layer 1
10
41.670309
20
111.494703
11
41.930630
21
110.315386
0
LINE
8
Layer 1
10
41.930630
20
110.315386
11
42.394143
21
109.003132
0
LINE
8
Layer 1
10
42.394143
20
109.003132
11
42.934904
21
107.898243
0
LINE
8
Layer 1
10
42.934904
20
107.898243
11
44.758836
21
105.428093
0
LINE
8
Layer 1
10
44.758836
20
105.428093
11
46.514023
21
103.518889
0
LINE
8
Layer 1
10
46.514023
20
103.518889
11
48.136736
21
102.295867
0
LINE
8
Layer 1
10
48.136736
20
102.295867
11
49.956124
21
101.572951
0
LINE
8
Layer 1
10
49.956124
20
101.572951
11
52.301338
21
101.164063
0
LINE
8
Layer 1
10
52.301338
20
101.164063
11
53.838241
21
101.102324
0
LINE
8
Layer 1
10
53.838241
20
101.102324
11
55.593770
21
101.260678
0
LINE
8
Layer 1
10
55.593770
20
101.260678
11
57.647791
21
101.650621
0
LINE
8
Layer 1
10
57.647791
20
101.650621
11
60.080172
21
102.283647
0
LINE
8
Layer 1
10
60.080172
20
102.283647
11
61.339040
21
102.829186
0
LINE
8
Layer 1
10
61.339040
20
102.829186
11
62.920843
21
103.788360
0
LINE
8
Layer 1
10
62.920843
20
103.788360
11
66.517897
21
106.500966
0
LINE
8
Layer 1
10
66.517897
20
106.500966
11
69.800621
21
109.528165
0
LINE
8
Layer 1
10
69.800621
20
109.528165
11
70.989511
21
110.880583
0
LINE
8
Layer 1
10
70.989511
20
110.880583
11
71.698302
21
111.976662
0
LINE
8
Layer 1
10
71.698302
20
111.976662
11
71.899276
21
112.638720
0
LINE
8
Layer 1
10
71.899276
20
112.638720
11
71.827820
21
113.180342
0
LINE
8
Layer 1
10
71.827820
20
113.180342
11
71.472170
21
113.628787
0
LINE
8
Layer 1
10
71.472170
20
113.628787
11
70.820562
21
114.011315
0
LINE
8
Layer 1
10
70.820562
20
114.011315
11
70.290221
21
114.353073
0
LINE
8
Layer 1
10
70.290221
20
114.353073
11
69.995867
21
114.744469
0
LINE
8
Layer 1
10
69.995867
20
114.744469
11
69.980679
21
115.083599
0
LINE
8
Layer 1
10
69.980679
20
115.083599
11
70.287840
21
115.268561
0
LINE
8
Layer 1
10
70.287840
20
115.268561
11
71.249607
21
115.221867
0
LINE
8
Layer 1
10
71.249607
20
115.221867
11
72.107213
21
114.676041
0
LINE
8
Layer 1
10
72.107213
20
114.676041
11
73.039134
21
113.514147
0
LINE
8
Layer 1
10
73.039134
20
113.514147
11
73.935043
21
111.945273
0
LINE
8
Layer 1
10
73.935043
20
111.945273
11
74.551705
21
110.460476
0
LINE
8
Layer 1
10
74.551705
20
110.460476
11
74.645887
21
109.550812
0
LINE
8
Layer 1
10
74.645887
20
109.550812
11
74.420901
21
109.292234
0
LINE
8
Layer 1
10
74.420901
20
109.292234
11
74.178675
21
109.275290
0
LINE
8
Layer 1
10
74.178675
20
109.275290
11
73.946133
21
109.488830
0
LINE
8
Layer 1
10
73.946133
20
109.488830
11
73.750198
21
109.921703
0
LINE
8
Layer 1
10
73.750198
20
109.921703
11
73.413859
21
110.477302
0
LINE
8
Layer 1
10
73.413859
20
110.477302
11
72.863410
21
110.450672
0
LINE
8
Layer 1
10
72.863410
20
110.450672
11
72.005786
21
109.796838
0
LINE
8
Layer 1
10
72.005786
20
109.796838
11
70.747918
21
108.470827
0
LINE
8
Layer 1
10
70.747918
20
108.470827
11
68.331764
21
106.003952
0
LINE
8
Layer 1
10
68.331764
20
106.003952
11
65.847997
21
103.938956
0
LINE
8
Layer 1
10
65.847997
20
103.938956
11
63.416883
21
102.364883
0
LINE
8
Layer 1
10
63.416883
20
102.364883
11
61.158684
21
101.370776
0
LINE
8
Layer 1
10
61.158684
20
101.370776
11
57.974013
21
100.524205
0
LINE
8
Layer 1
10
57.974013
20
100.524205
11
54.945714
21
100.017138
0
LINE
8
Layer 1
10
54.945714
20
100.017138
11
52.311702
21
99.876779
0
LINE
8
Layer 1
10
52.311702
20
99.876779
11
50.309893
21
100.130331
0
LINE
8
Layer 1
10
50.309893
20
100.130331
11
50.309893
21
100.130331
0
LINE
8
Layer 1
10
52.182522
20
104.888990
11
49.476653
21
105.672794
0
LINE
8
Layer 1
10
49.476653
20
105.672794
11
48.419503
21
106.197541
0
LINE
8
Layer 1
10
48.419503
20
106.197541
11
47.553439
21
106.816122
0
LINE
8
Layer 1
10
47.553439
20
106.816122
11
46.873884
21
107.532491
0
LINE
8
Layer 1
10
46.873884
20
107.532491
11
46.376261
21
108.350602
0
LINE
8
Layer 1
10
46.376261
20
108.350602
11
46.055990
21
109.274409
0
LINE
8
Layer 1
10
46.055990
20
109.274409
11
45.908496
21
110.307865
0
LINE
8
Layer 1
10
45.908496
20
110.307865
11
45.922325
21
111.482435
0
LINE
8
Layer 1
10
45.922325
20
111.482435
11
46.128471
21
112.469986
0
LINE
8
Layer 1
10
46.128471
20
112.469986
11
46.551104
21
113.341975
0
LINE
8
Layer 1
10
46.551104
20
113.341975
11
47.214395
21
114.169859
0
LINE
8
Layer 1
10
47.214395
20
114.169859
11
47.896385
21
115.066857
0
LINE
8
Layer 1
10
47.896385
20
115.066857
11
47.037752
21
115.676457
0
LINE
8
Layer 1
10
47.037752
20
115.676457
11
46.322064
21
116.261811
0
LINE
8
Layer 1
10
46.322064
20
116.261811
11
45.622037
21
117.173272
0
LINE
8
Layer 1
10
45.622037
20
117.173272
11
45.079972
21
118.189947
0
LINE
8
Layer 1
10
45.079972
20
118.189947
11
44.838168
21
119.090940
0
LINE
8
Layer 1
10
44.838168
20
119.090940
11
44.890408
21
119.586724
0
LINE
8
Layer 1
10
44.890408
20
119.586724
11
45.088722
21
119.690787
0
LINE
8
Layer 1
10
45.088722
20
119.690787
11
45.375105
21
119.422753
0
LINE
8
Layer 1
10
45.375105
20
119.422753
11
45.691552
21
118.802246
0
LINE
8
Layer 1
10
45.691552
20
118.802246
11
46.081281
21
118.094245
0
LINE
8
Layer 1
10
46.081281
20
118.094245
11
46.589996
21
117.461460
0
LINE
8
Layer 1
10
46.589996
20
117.461460
11
47.034898
21
117.095362
0
LINE
8
Layer 1
10
47.034898
20
117.095362
11
47.176296
21
117.072155
0
LINE
8
Layer 1
10
47.176296
20
117.072155
11
47.233191
21
117.187421
0
LINE
8
Layer 1
10
47.233191
20
117.187421
11
47.121544
21
118.850275
0
LINE
8
Layer 1
10
47.121544
20
118.850275
11
47.182274
21
120.339964
0
LINE
8
Layer 1
10
47.182274
20
120.339964
11
47.536481
21
122.137016
0
LINE
8
Layer 1
10
47.536481
20
122.137016
11
48.119161
21
123.988279
0
LINE
8
Layer 1
10
48.119161
20
123.988279
11
48.865310
21
125.640603
0
LINE
8
Layer 1
10
48.865310
20
125.640603
11
49.789548
21
127.010634
0
LINE
8
Layer 1
10
49.789548
20
127.010634
11
50.879322
21
128.133154
0
LINE
8
Layer 1
10
50.879322
20
128.133154
11
52.014144
21
128.905534
0
LINE
8
Layer 1
10
52.014144
20
128.905534
11
53.073526
21
129.225144
0
LINE
8
Layer 1
10
53.073526
20
129.225144
11
54.016893
21
129.125705
0
LINE
8
Layer 1
10
54.016893
20
129.125705
11
54.636666
21
128.619178
0
LINE
8
Layer 1
10
54.636666
20
128.619178
11
55.002985
21
127.596823
0
LINE
8
Layer 1
10
55.002985
20
127.596823
11
55.185987
21
125.949896
0
LINE
8
Layer 1
10
55.185987
20
125.949896
11
55.221723
21
124.735522
0
LINE
8
Layer 1
10
55.221723
20
124.735522
11
55.125948
21
123.770768
0
LINE
8
Layer 1
10
55.125948
20
123.770768
11
54.313582
21
121.413493
0
LINE
8
Layer 1
10
54.313582
20
121.413493
11
53.605765
21
119.455603
0
LINE
8
Layer 1
10
53.605765
20
119.455603
11
53.301533
21
118.119353
0
LINE
8
Layer 1
10
53.301533
20
118.119353
11
53.315208
21
117.610756
0
LINE
8
Layer 1
10
53.315208
20
117.610756
11
53.454787
21
117.349379
0
LINE
8
Layer 1
10
53.454787
20
117.349379
11
54.554402
21
117.267109
0
LINE
8
Layer 1
10
54.554402
20
117.267109
11
57.175005
21
117.167330
0
LINE
8
Layer 1
10
57.175005
20
117.167330
11
58.059711
21
117.109415
0
LINE
8
Layer 1
10
58.059711
20
117.109415
11
58.431733
21
117.281711
0
LINE
8
Layer 1
10
58.431733
20
117.281711
11
58.353446
21
117.839183
0
LINE
8
Layer 1
10
58.353446
20
117.839183
11
57.887221
21
118.936795
0
LINE
8
Layer 1
10
57.887221
20
118.936795
11
57.256652
21
120.488027
0
LINE
8
Layer 1
10
57.256652
20
120.488027
11
56.810300
21
121.966301
0
LINE
8
Layer 1
10
56.810300
20
121.966301
11
56.521443
21
123.480362
0
LINE
8
Layer 1
10
56.521443
20
123.480362
11
56.363362
21
125.138953
0
LINE
8
Layer 1
10
56.363362
20
125.138953
11
56.371479
21
127.118059
0
LINE
8
Layer 1
10
56.371479
20
127.118059
11
56.824795
21
128.341665
0
LINE
8
Layer 1
10
56.824795
20
128.341665
11
57.523256
21
129.169324
0
LINE
8
Layer 1
10
57.523256
20
129.169324
11
58.388970
21
129.664743
0
LINE
8
Layer 1
10
58.388970
20
129.664743
11
59.320830
21
129.792849
0
LINE
8
Layer 1
10
59.320830
20
129.792849
11
60.217727
21
129.518571
0
LINE
8
Layer 1
10
60.217727
20
129.518571
11
60.829287
21
129.034354
0
LINE
8
Layer 1
10
60.829287
20
129.034354
11
61.392867
21
128.323317
0
LINE
8
Layer 1
10
61.392867
20
128.323317
11
62.351585
21
126.291380
0
LINE
8
Layer 1
10
62.351585
20
126.291380
11
63.044878
21
123.563944
0
LINE
8
Layer 1
10
63.044878
20
123.563944
11
63.423744
21
120.282197
0
LINE
8
Layer 1
10
63.423744
20
120.282197
11
63.658514
21
117.596853
0
LINE
8
Layer 1
10
63.658514
20
117.596853
11
63.801160
21
117.023246
0
LINE
8
Layer 1
10
63.801160
20
117.023246
11
63.977210
21
116.859967
0
LINE
8
Layer 1
10
63.977210
20
116.859967
11
64.380435
21
117.083422
0
LINE
8
Layer 1
10
64.380435
20
117.083422
11
64.780125
21
117.647404
0
LINE
8
Layer 1
10
64.780125
20
117.647404
11
65.434916
21
119.549757
0
LINE
8
Layer 1
10
65.434916
20
119.549757
11
65.707767
21
120.515756
0
LINE
8
Layer 1
10
65.707767
20
120.515756
11
65.961772
21
120.872128
0
LINE
8
Layer 1
10
65.961772
20
120.872128
11
66.165066
21
120.612154
0
LINE
8
Layer 1
10
66.165066
20
120.612154
11
66.285787
21
119.729117
0
LINE
8
Layer 1
10
66.285787
20
119.729117
11
66.254081
21
118.883490
0
LINE
8
Layer 1
10
66.254081
20
118.883490
11
66.054718
21
117.988653
0
LINE
8
Layer 1
10
66.054718
20
117.988653
11
65.103135
21
115.889419
0
LINE
8
Layer 1
10
65.103135
20
115.889419
11
64.942914
21
115.517839
0
LINE
8
Layer 1
10
64.942914
20
115.517839
11
64.940296
21
115.145557
0
LINE
8
Layer 1
10
64.940296
20
115.145557
11
65.502988
21
113.933588
0
LINE
8
Layer 1
10
65.502988
20
113.933588
11
66.077697
21
112.573016
0
LINE
8
Layer 1
10
66.077697
20
112.573016
11
66.340193
21
111.171888
0
LINE
8
Layer 1
10
66.340193
20
111.171888
11
66.279505
21
109.876758
0
LINE
8
Layer 1
10
66.279505
20
109.876758
11
65.884665
21
108.834180
0
LINE
8
Layer 1
10
65.884665
20
108.834180
11
65.152841
21
108.037146
0
LINE
8
Layer 1
10
65.152841
20
108.037146
11
64.028264
21
107.206859
0
LINE
8
Layer 1
10
64.028264
20
107.206859
11
62.648268
21
106.431367
0
LINE
8
Layer 1
10
62.648268
20
106.431367
11
61.150190
21
105.798719
0
LINE
8
Layer 1
10
61.150190
20
105.798719
11
58.776277
21
104.946360
0
LINE
8
Layer 1
10
58.776277
20
104.946360
11
57.515312
21
104.665205
0
LINE
8
Layer 1
10
57.515312
20
104.665205
11
55.856262
21
104.560709
0
LINE
8
Layer 1
10
55.856262
20
104.560709
11
54.008781
21
104.634696
0
LINE
8
Layer 1
10
54.008781
20
104.634696
11
52.182522
21
104.888990
0
LINE
8
Layer 1
10
52.182522
20
104.888990
11
52.182522
21
104.888990
0
LINE
8
Layer 1
10
59.734676
20
106.824340
11
62.629217
21
108.011004
0
LINE
8
Layer 1
10
62.629217
20
108.011004
11
63.568591
21
108.638815
0
LINE
8
Layer 1
10
63.568591
20
108.638815
11
64.231746
21
109.324287
0
LINE
8
Layer 1
10
64.231746
20
109.324287
11
64.758775
21
110.324683
0
LINE
8
Layer 1
10
64.758775
20
110.324683
11
64.672605
21
111.650695
0
LINE
8
Layer 1
10
64.672605
20
111.650695
11
64.311283
21
112.775863
0
LINE
8
Layer 1
10
64.311283
20
112.775863
11
63.614512
21
113.668521
0
LINE
8
Layer 1
10
63.614512
20
113.668521
11
62.505668
21
114.397482
0
LINE
8
Layer 1
10
62.505668
20
114.397482
11
60.908128
21
115.031557
0
LINE
8
Layer 1
10
60.908128
20
115.031557
11
58.928494
21
115.417901
0
LINE
8
Layer 1
10
58.928494
20
115.417901
11
55.653376
21
115.361638
0
LINE
8
Layer 1
10
55.653376
20
115.361638
11
52.321188
21
115.075400
0
LINE
8
Layer 1
10
52.321188
20
115.075400
11
51.401197
21
114.804906
0
LINE
8
Layer 1
10
51.401197
20
114.804906
11
50.481653
21
114.352530
0
LINE
8
Layer 1
10
50.481653
20
114.352530
11
49.029631
21
113.442700
0
LINE
8
Layer 1
10
49.029631
20
113.442700
11
48.024253
21
112.530288
0
LINE
8
Layer 1
10
48.024253
20
112.530288
11
47.452886
21
111.600540
0
LINE
8
Layer 1
10
47.452886
20
111.600540
11
47.302900
21
110.638700
0
LINE
8
Layer 1
10
47.302900
20
110.638700
11
47.386766
21
110.046194
0
LINE
8
Layer 1
10
47.386766
20
110.046194
11
47.610547
21
109.546752
0
LINE
8
Layer 1
10
47.610547
20
109.546752
11
48.778555
21
108.363430
0
LINE
8
Layer 1
10
48.778555
20
108.363430
11
50.271379
21
107.322634
0
LINE
8
Layer 1
10
50.271379
20
107.322634
11
51.930166
21
106.630655
0
LINE
8
Layer 1
10
51.930166
20
106.630655
11
53.806620
21
106.272128
0
LINE
8
Layer 1
10
53.806620
20
106.272128
11
55.952446
21
106.231690
0
LINE
8
Layer 1
10
55.952446
20
106.231690
11
58.017096
21
106.452882
0
LINE
8
Layer 1
10
58.017096
20
106.452882
11
59.734676
21
106.824340
0
LINE
8
Layer 1
10
59.734676
20
106.824340
11
59.734676
21
106.824340
0
LINE
8
Layer 1
10
53.056988
20
125.042758
11
52.990355
21
126.933412
0
LINE
8
Layer 1
10
52.990355
20
126.933412
11
52.673032
21
126.871544
0
LINE
8
Layer 1
10
52.673032
20
126.871544
11
52.260885
21
126.377271
0
LINE
8
Layer 1
10
52.260885
20
126.377271
11
51.860067
21
125.614698
0
LINE
8
Layer 1
10
51.860067
20
125.614698
11
51.576732
21
124.747929
0
LINE
8
Layer 1
10
51.576732
20
124.747929
11
51.466427
21
123.765361
0
LINE
8
Layer 1
10
51.466427
20
123.765361
11
51.607208
21
123.103310
0
LINE
8
Layer 1
10
51.607208
20
123.103310
11
51.968499
21
122.819391
0
LINE
8
Layer 1
10
51.968499
20
122.819391
11
52.519721
21
122.971219
0
LINE
8
Layer 1
10
52.519721
20
122.971219
11
52.902654
21
123.602360
0
LINE
8
Layer 1
10
52.902654
20
123.602360
11
53.056988
21
125.042758
0
LINE
8
Layer 1
10
53.056988
20
125.042758
11
53.056988
21
125.042758
0
LINE
8
Layer 1
10
60.431962
20
123.820061
11
60.536187
21
124.515944
0
LINE
8
Layer 1
10
60.536187
20
124.515944
11
60.346237
21
125.115657
0
LINE
8
Layer 1
10
60.346237
20
125.115657
11
59.930630
21
125.507063
0
LINE
8
Layer 1
10
59.930630
20
125.507063
11
59.357881
21
125.578023
0
LINE
8
Layer 1
10
59.357881
20
125.578023
11
58.958860
21
125.312925
0
LINE
8
Layer 1
10
58.958860
20
125.312925
11
58.717949
21
124.788646
0
LINE
8
Layer 1
10
58.717949
20
124.788646
11
58.665771
21
124.128881
0
LINE
8
Layer 1
10
58.665771
20
124.128881
11
58.832948
21
123.457324
0
LINE
8
Layer 1
10
58.832948
20
123.457324
11
59.160799
21
123.142865
0
LINE
8
Layer 1
10
59.160799
20
123.142865
11
59.628274
21
123.119302
0
LINE
8
Layer 1
10
59.628274
20
123.119302
11
60.097840
21
123.355434
0
LINE
8
Layer 1
10
60.097840
20
123.355434
11
60.431962
21
123.820061
0
LINE
8
Layer 1
10
60.431962
20
123.820061
11
60.431962
21
123.820061
0
LINE
8
Layer 1
10
27.262242
20
116.853724
11
26.786680
21
117.336268
0
LINE
8
Layer 1
10
26.786680
20
117.336268
11
25.661217
21
118.073814
0
LINE
8
Layer 1
10
25.661217
20
118.073814
11
21.303487
21
120.407611
0
LINE
8
Layer 1
10
21.303487
20
120.407611
11
17.519522
21
122.174319
0
LINE
8
Layer 1
10
17.519522
20
122.174319
11
16.136365
21
122.622607
0
LINE
8
Layer 1
10
16.136365
20
122.622607
11
14.603390
21
122.967710
0
LINE
8
Layer 1
10
14.603390
20
122.967710
11
13.359759
21
123.271792
0
LINE
8
Layer 1
10
13.359759
20
123.271792
11
12.611903
21
123.603733
0
LINE
8
Layer 1
10
12.611903
20
123.603733
11
12.340743
21
123.976735
0
LINE
8
Layer 1
10
12.340743
20
123.976735
11
12.527194
21
124.403999
0
LINE
8
Layer 1
10
12.527194
20
124.403999
11
12.906061
21
124.579008
0
LINE
8
Layer 1
10
12.906061
20
124.579008
11
13.546857
21
124.588484
0
LINE
8
Layer 1
10
13.546857
20
124.588484
11
15.459267
21
124.181372
0
LINE
8
Layer 1
10
15.459267
20
124.181372
11
17.954478
21
123.323721
0
LINE
8
Layer 1
10
17.954478
20
123.323721
11
20.722543
21
122.156591
0
LINE
8
Layer 1
10
20.722543
20
122.156591
11
23.453519
21
120.821044
0
LINE
8
Layer 1
10
23.453519
20
120.821044
11
25.837458
21
119.458138
0
LINE
8
Layer 1
10
25.837458
20
119.458138
11
27.564414
21
118.208934
0
LINE
8
Layer 1
10
27.564414
20
118.208934
11
28.084666
21
117.671052
0
LINE
8
Layer 1
10
28.084666
20
117.671052
11
28.324443
21
117.214492
0
LINE
8
Layer 1
10
28.324443
20
117.214492
11
28.259884
21
116.779731
0
LINE
8
Layer 1
10
28.259884
20
116.779731
11
27.955268
21
116.538659
0
LINE
8
Layer 1
10
27.955268
20
116.538659
11
27.569689
21
116.545312
0
LINE
8
Layer 1
10
27.569689
20
116.545312
11
27.262242
21
116.853724
0
LINE
8
Layer 1
10
27.262242
20
116.853724
11
27.262242
21
116.853724
0
LINE
8
Layer 1
10
82.947143
20
120.028784
11
83.571250
21
121.086100
0
LINE
8
Layer 1
10
83.571250
20
121.086100
11
85.146847
21
122.959614
0
LINE
8
Layer 1
10
85.146847
20
122.959614
11
87.150359
21
125.066979
0
LINE
8
Layer 1
10
87.150359
20
125.066979
11
89.058214
21
126.825846
0
LINE
8
Layer 1
10
89.058214
20
126.825846
11
91.077834
21
128.367171
0
LINE
8
Layer 1
10
91.077834
20
128.367171
11
92.621940
21
129.270507
0
LINE
8
Layer 1
10
92.621940
20
129.270507
11
93.674862
21
129.528841
0
LINE
8
Layer 1
10
93.674862
20
129.528841
11
94.012233
21
129.413941
0
LINE
8
Layer 1
10
94.012233
20
129.413941
11
94.220933
21
129.135161
0
LINE
8
Layer 1
10
94.220933
20
129.135161
11
94.114242
21
128.801798
0
LINE
8
Layer 1
10
94.114242
20
128.801798
11
93.561669
21
128.273684
0
LINE
8
Layer 1
10
93.561669
20
128.273684
11
90.916167
21
126.469716
0
LINE
8
Layer 1
10
90.916167
20
126.469716
11
89.369777
21
125.276394
0
LINE
8
Layer 1
10
89.369777
20
125.276394
11
87.567121
21
123.617389
0
LINE
8
Layer 1
10
87.567121
20
123.617389
11
84.581679
21
120.741394
0
LINE
8
Layer 1
10
84.581679
20
120.741394
11
83.180710
21
119.653979
0
LINE
8
Layer 1
10
83.180710
20
119.653979
11
83.025001
21
119.757939
0
LINE
8
Layer 1
10
83.025001
20
119.757939
11
82.947143
21
120.028784
0
LINE
8
Layer 1
10
82.947143
20
120.028784
11
82.947143
21
120.028784
0
LINE
8
Layer 1
10
79.551389
20
127.351110
11
80.121352
21
128.047754
0
LINE
8
Layer 1
10
80.121352
20
128.047754
11
80.412237
21
128.603814
0
LINE
8
Layer 1
10
80.412237
20
128.603814
11
80.494610
21
129.245782
0
LINE
8
Layer 1
10
80.494610
20
129.245782
11
80.439034
21
130.200149
0
LINE
8
Layer 1
10
80.439034
20
130.200149
11
80.062789
21
131.822365
0
LINE
8
Layer 1
10
80.062789
20
131.822365
11
79.193909
21
133.832633
0
LINE
8
Layer 1
10
79.193909
20
133.832633
11
77.862192
21
136.172055
0
LINE
8
Layer 1
10
77.862192
20
136.172055
11
76.097440
21
138.781731
0
LINE
8
Layer 1
10
76.097440
20
138.781731
11
71.329652
21
145.528728
0
LINE
8
Layer 1
10
71.329652
20
145.528728
11
70.093091
21
147.500554
0
LINE
8
Layer 1
10
70.093091
20
147.500554
11
69.138885
21
149.264871
0
LINE
8
Layer 1
10
69.138885
20
149.264871
11
67.167308
21
153.033280
0
LINE
8
Layer 1
10
67.167308
20
153.033280
11
66.549101
21
154.485688
0
LINE
8
Layer 1
10
66.549101
20
154.485688
11
66.234169
21
155.359605
0
LINE
8
Layer 1
10
66.234169
20
155.359605
11
65.081799
21
157.780489
0
LINE
8
Layer 1
10
65.081799
20
157.780489
11
63.990372
21
159.709446
0
LINE
8
Layer 1
10
63.990372
20
159.709446
11
62.230141
21
161.586743
0
LINE
8
Layer 1
10
62.230141
20
161.586743
11
60.529367
21
163.014288
0
LINE
8
Layer 1
10
60.529367
20
163.014288
11
58.927227
21
163.939211
0
LINE
8
Layer 1
10
58.927227
20
163.939211
11
57.155971
21
164.477660
0
LINE
8
Layer 1
10
57.155971
20
164.477660
11
54.947848
21
164.745780
0
LINE
8
Layer 1
10
54.947848
20
164.745780
11
53.425490
21
164.825761
0
LINE
8
Layer 1
10
53.425490
20
164.825761
11
52.311907
21
164.755796
0
LINE
8
Layer 1
10
52.311907
20
164.755796
11
49.354147
21
163.854072
0
LINE
8
Layer 1
10
49.354147
20
163.854072
11
46.051730
21
162.480872
0
LINE
8
Layer 1
10
46.051730
20
162.480872
11
42.543779
21
160.560958
0
LINE
8
Layer 1
10
42.543779
20
160.560958
11
38.444062
21
157.859723
0
LINE
8
Layer 1
10
38.444062
20
157.859723
11
33.366343
21
154.142560
0
LINE
8
Layer 1
10
33.366343
20
154.142560
11
25.354392
21
148.215904
0
LINE
8
Layer 1
10
25.354392
20
148.215904
11
20.934848
21
145.424537
0
LINE
8
Layer 1
10
20.934848
20
145.424537
11
20.003547
21
145.005410
0
LINE
8
Layer 1
10
20.003547
20
145.005410
11
19.187413
21
144.806434
0
LINE
8
Layer 1
10
19.187413
20
144.806434
11
17.455183
21
144.483319
0
LINE
8
Layer 1
10
17.455183
20
144.483319
11
15.617690
21
143.796978
0
LINE
8
Layer 1
10
15.617690
20
143.796978
11
14.010544
21
142.901522
0
LINE
8
Layer 1
10
14.010544
20
142.901522
11
12.969352
21
141.951063
0
LINE
8
Layer 1
10
12.969352
20
141.951063
11
12.667595
21
141.324604
0
LINE
8
Layer 1
10
12.667595
20
141.324604
11
12.554469
21
140.613365
0
LINE
8
Layer 1
10
12.554469
20
140.613365
11
12.617789
21
139.848726
0
LINE
8
Layer 1
10
12.617789
20
139.848726
11
12.845372
21
139.062067
0
LINE
8
Layer 1
10
12.845372
20
139.062067
11
13.744584
21
137.548207
0
LINE
8
Layer 1
10
13.744584
20
137.548207
11
14.391844
21
136.883768
0
LINE
8
Layer 1
10
14.391844
20
136.883768
11
15.154627
21
136.322830
0
LINE
8
Layer 1
10
15.154627
20
136.322830
11
16.528270
21
135.709201
0
LINE
8
Layer 1
10
16.528270
20
135.709201
11
18.185186
21
135.239080
0
LINE
8
Layer 1
10
18.185186
20
135.239080
11
20.166879
21
135.029162
0
LINE
8
Layer 1
10
20.166879
20
135.029162
11
22.540196
21
135.033397
0
LINE
8
Layer 1
10
22.540196
20
135.033397
11
24.850896
21
135.232105
0
LINE
8
Layer 1
10
24.850896
20
135.232105
11
26.644740
21
135.605605
0
LINE
8
Layer 1
10
26.644740
20
135.605605
11
28.865266
21
136.318399
0
LINE
8
Layer 1
10
28.865266
20
136.318399
11
31.208289
21
137.219326
0
LINE
8
Layer 1
10
31.208289
20
137.219326
11
33.002502
21
138.111535
0
LINE
8
Layer 1
10
33.002502
20
138.111535
11
34.736306
21
139.122139
0
LINE
8
Layer 1
10
34.736306
20
139.122139
11
36.829287
21
140.466569
0
LINE
8
Layer 1
10
36.829287
20
140.466569
11
37.379645
21
140.997338
0
LINE
8
Layer 1
10
37.379645
20
140.997338
11
37.479930
21
141.337463
0
LINE
8
Layer 1
10
37.479930
20
141.337463
11
37.532182
21
142.117687
0
LINE
8
Layer 1
10
37.532182
20
142.117687
11
37.957111
21
143.585440
0
LINE
8
Layer 1
10
37.957111
20
143.585440
11
38.587314
21
145.244621
0
LINE
8
Layer 1
10
38.587314
20
145.244621
11
39.255390
21
146.599124
0
LINE
8
Layer 1
10
39.255390
20
146.599124
11
40.392335
21
148.159653
0
LINE
8
Layer 1
10
40.392335
20
148.159653
11
41.642852
21
149.393740
0
LINE
8
Layer 1
10
41.642852
20
149.393740
11
42.822911
21
150.150640
0
LINE
8
Layer 1
10
42.822911
20
150.150640
11
43.329009
21
150.303036
0
LINE
8
Layer 1
10
43.329009
20
150.303036
11
43.748480
21
150.279606
0
LINE
8
Layer 1
10
43.748480
20
150.279606
11
44.026292
21
150.133032
0
LINE
8
Layer 1
10
44.026292
20
150.133032
11
44.168703
21
149.905559
0
LINE
8
Layer 1
10
44.168703
20
149.905559
11
44.027422
21
149.164298
0
LINE
8
Layer 1
10
44.027422
20
149.164298
11
43.284827
21
147.968582
0
LINE
8
Layer 1
10
43.284827
20
147.968582
11
41.901110
21
146.231171
0
LINE
8
Layer 1
10
41.901110
20
146.231171
11
40.487594
21
144.451540
0
LINE
8
Layer 1
10
40.487594
20
144.451540
11
39.663620
21
143.125474
0
LINE
8
Layer 1
10
39.663620
20
143.125474
11
39.362098
21
142.113614
0
LINE
8
Layer 1
10
39.362098
20
142.113614
11
39.515937
21
141.276599
0
LINE
8
Layer 1
10
39.515937
20
141.276599
11
39.690209
21
141.055490
0
LINE
8
Layer 1
10
39.690209
20
141.055490
11
40.022572
21
140.958562
0
LINE
8
Layer 1
10
40.022572
20
140.958562
11
41.567749
21
141.102850
0
LINE
8
Layer 1
10
41.567749
20
141.102850
11
46.636926
21
141.782395
0
LINE
8
Layer 1
10
46.636926
20
141.782395
11
47.512206
21
141.721034
0
LINE
8
Layer 1
10
47.512206
20
141.721034
11
48.046809
21
141.431026
0
LINE
8
Layer 1
10
48.046809
20
141.431026
11
48.584044
21
140.900715
0
LINE
8
Layer 1
10
48.584044
20
140.900715
11
48.591976
21
140.695779
0
LINE
8
Layer 1
10
48.591976
20
140.695779
11
48.416856
21
140.525687
0
LINE
8
Layer 1
10
48.416856
20
140.525687
11
47.489672
21
140.274124
0
LINE
8
Layer 1
10
47.489672
20
140.274124
11
45.746924
21
140.114206
0
LINE
8
Layer 1
10
45.746924
20
140.114206
11
41.980912
21
139.625787
0
LINE
8
Layer 1
10
41.980912
20
139.625787
11
40.583441
21
139.239203
0
LINE
8
Layer 1
10
40.583441
20
139.239203
11
39.696588
21
138.798356
0
LINE
8
Layer 1
10
39.696588
20
138.798356
11
38.549238
21
137.352736
0
LINE
8
Layer 1
10
38.549238
20
137.352736
11
35.116121
21
132.274705
0
LINE
8
Layer 1
10
35.116121
20
132.274705
11
34.100824
21
130.497316
0
LINE
8
Layer 1
10
34.100824
20
130.497316
11
33.099781
21
128.355463
0
LINE
8
Layer 1
10
33.099781
20
128.355463
11
32.342191
21
126.385079
0
LINE
8
Layer 1
10
32.342191
20
126.385079
11
32.057255
21
125.122099
0
LINE
8
Layer 1
10
32.057255
20
125.122099
11
32.193799
21
124.927399
0
LINE
8
Layer 1
10
32.193799
20
124.927399
11
32.514794
21
124.963380
0
LINE
8
Layer 1
10
32.514794
20
124.963380
11
33.325393
21
125.586490
0
LINE
8
Layer 1
10
33.325393
20
125.586490
11
34.416218
21
126.731857
0
LINE
8
Layer 1
10
34.416218
20
126.731857
11
35.950109
21
128.070127
0
LINE
8
Layer 1
10
35.950109
20
128.070127
11
37.616492
21
129.347464
0
LINE
8
Layer 1
10
37.616492
20
129.347464
11
39.104796
21
130.310032
0
LINE
8
Layer 1
10
39.104796
20
130.310032
11
42.457328
21
131.900983
0
LINE
8
Layer 1
10
42.457328
20
131.900983
11
45.892156
21
133.015191
0
LINE
8
Layer 1
10
45.892156
20
133.015191
11
48.413251
21
133.407667
0
LINE
8
Layer 1
10
48.413251
20
133.407667
11
51.832686
21
133.662654
0
LINE
8
Layer 1
10
51.832686
20
133.662654
11
55.343361
21
133.741297
0
LINE
8
Layer 1
10
55.343361
20
133.741297
11
58.138173
21
133.604739
0
LINE
8
Layer 1
10
58.138173
20
133.604739
11
61.834268
21
133.236857
0
LINE
8
Layer 1
10
61.834268
20
133.236857
11
62.890936
21
133.137543
0
LINE
8
Layer 1
10
62.890936
20
133.137543
11
64.116130
21
132.788381
0
LINE
8
Layer 1
10
64.116130
20
132.788381
11
70.578218
21
130.071114
0
LINE
8
Layer 1
10
70.578218
20
130.071114
11
75.226263
21
127.970743
0
LINE
8
Layer 1
10
75.226263
20
127.970743
11
77.532428
21
126.747078
0
LINE
8
Layer 1
10
77.532428
20
126.747078
11
78.346385
21
126.157823
0
LINE
8
Layer 1
10
78.346385
20
126.157823
11
79.551389
21
127.351110
0
LINE
8
Layer 1
10
79.551389
20
127.351110
11
79.551389
21
127.351110
 0 
ENDSEC
 0 
EOF
