999
"DXF R12 Output" (www.mydxf.blogspot.com)
 0 
SECTION
 2 
HEADER
 9 
$ACADVER
 1 
AC1009
 9 
$EXTMIN
 10 
 0 
 20 
 0 
 9 
$EXTMAX
 10 
 8.5 
 20 
 11 
 0 
ENDSEC
 0 
SECTION
 2 
ENTITIES
0
LINE
8
Layer 1
10
131.112661
20
108.327546
11
132.098272
21
108.165251
0
LINE
8
Layer 1
10
132.098272
20
108.165251
11
132.959004
21
107.712098
0
LINE
8
Layer 1
10
132.959004
20
107.712098
11
133.514778
21
106.283660
0
LINE
8
Layer 1
10
133.514778
20
106.283660
11
133.769211
21
104.678485
0
LINE
8
Layer 1
10
133.769211
20
104.678485
11
133.768129
21
103.017303
0
LINE
8
Layer 1
10
133.768129
20
103.017303
11
133.557360
21
101.420843
0
LINE
8
Layer 1
10
133.557360
20
101.420843
11
132.827323
21
99.549254
0
LINE
8
Layer 1
10
132.827323
20
99.549254
11
131.795544
21
97.806338
0
LINE
8
Layer 1
10
131.795544
20
97.806338
11
130.521804
21
96.182653
0
LINE
8
Layer 1
10
130.521804
20
96.182653
11
129.065884
21
94.668754
0
LINE
8
Layer 1
10
129.065884
20
94.668754
11
125.846634
21
91.932545
0
LINE
8
Layer 1
10
125.846634
20
91.932545
11
122.616047
21
89.522166
0
LINE
8
Layer 1
10
122.616047
20
89.522166
11
125.518742
21
88.467086
0
LINE
8
Layer 1
10
125.518742
20
88.467086
11
128.524217
21
87.659750
0
LINE
8
Layer 1
10
128.524217
20
87.659750
11
131.635755
21
87.223735
0
LINE
8
Layer 1
10
131.635755
20
87.223735
11
134.856641
21
87.282617
0
LINE
8
Layer 1
10
134.856641
20
87.282617
11
136.285743
21
87.433114
0
LINE
8
Layer 1
10
136.285743
20
87.433114
11
137.683410
21
87.783396
0
LINE
8
Layer 1
10
137.683410
20
87.783396
11
139.021474
21
88.322581
0
LINE
8
Layer 1
10
139.021474
20
88.322581
11
140.271770
21
89.039792
0
LINE
8
Layer 1
10
140.271770
20
89.039792
11
141.406130
21
89.924149
0
LINE
8
Layer 1
10
141.406130
20
89.924149
11
142.396388
21
90.964771
0
LINE
8
Layer 1
10
142.396388
20
90.964771
11
143.214379
21
92.150780
0
LINE
8
Layer 1
10
143.214379
20
92.150780
11
143.831937
21
93.471296
0
LINE
8
Layer 1
10
143.831937
20
93.471296
11
142.301169
21
94.300913
0
LINE
8
Layer 1
10
142.301169
20
94.300913
11
140.836585
21
95.314681
0
LINE
8
Layer 1
10
140.836585
20
95.314681
11
139.472659
21
96.491588
0
LINE
8
Layer 1
10
139.472659
20
96.491588
11
138.243866
21
97.810622
0
LINE
8
Layer 1
10
138.243866
20
97.810622
11
137.184680
21
99.250771
0
LINE
8
Layer 1
10
137.184680
20
99.250771
11
136.329577
21
100.791023
0
LINE
8
Layer 1
10
136.329577
20
100.791023
11
135.713030
21
102.410365
0
LINE
8
Layer 1
10
135.713030
20
102.410365
11
135.369514
21
104.087787
0
LINE
8
Layer 1
10
135.369514
20
104.087787
11
135.526197
21
105.034663
0
LINE
8
Layer 1
10
135.526197
20
105.034663
11
135.827204
21
105.943432
0
LINE
8
Layer 1
10
135.827204
20
105.943432
11
136.335309
21
106.753525
0
LINE
8
Layer 1
10
136.335309
20
106.753525
11
137.113287
21
107.404374
0
LINE
8
Layer 1
10
137.113287
20
107.404374
11
137.692488
21
107.650216
0
LINE
8
Layer 1
10
137.692488
20
107.650216
11
138.332285
21
107.662725
0
LINE
8
Layer 1
10
138.332285
20
107.662725
11
138.965210
21
107.490498
0
LINE
8
Layer 1
10
138.965210
20
107.490498
11
139.523795
21
107.182129
0
LINE
8
Layer 1
10
139.523795
20
107.182129
11
140.607539
21
104.617100
0
LINE
8
Layer 1
10
140.607539
20
104.617100
11
142.083786
21
102.145774
0
LINE
8
Layer 1
10
142.083786
20
102.145774
11
142.988699
21
101.024408
0
LINE
8
Layer 1
10
142.988699
20
101.024408
11
144.015260
21
100.021458
0
LINE
8
Layer 1
10
144.015260
20
100.021458
11
145.171309
21
99.168589
0
LINE
8
Layer 1
10
145.171309
20
99.168589
11
146.464686
21
98.497462
0
LINE
8
Layer 1
10
146.464686
20
98.497462
11
146.782452
21
99.472457
0
LINE
8
Layer 1
10
146.782452
20
99.472457
11
146.917982
21
100.515586
0
LINE
8
Layer 1
10
146.917982
20
100.515586
11
146.947336
21
102.689215
0
LINE
8
Layer 1
10
146.947336
20
102.689215
11
146.993663
21
103.761194
0
LINE
8
Layer 1
10
146.993663
20
103.761194
11
147.162760
21
104.784271
0
LINE
8
Layer 1
10
147.162760
20
104.784271
11
147.530878
21
105.729185
0
LINE
8
Layer 1
10
147.530878
20
105.729185
11
148.174267
21
106.566678
0
LINE
8
Layer 1
10
148.174267
20
106.566678
11
148.609757
21
106.792249
0
LINE
8
Layer 1
10
148.609757
20
106.792249
11
149.026168
21
106.856858
0
LINE
8
Layer 1
10
149.026168
20
106.856858
11
149.808421
21
106.621727
0
LINE
8
Layer 1
10
149.808421
20
106.621727
11
151.217320
21
105.523834
0
LINE
8
Layer 1
10
151.217320
20
105.523834
11
151.838361
21
104.409327
0
LINE
8
Layer 1
10
151.838361
20
104.409327
11
152.338905
21
103.194616
0
LINE
8
Layer 1
10
152.338905
20
103.194616
11
152.703608
21
101.909514
0
LINE
8
Layer 1
10
152.703608
20
101.909514
11
152.917125
21
100.583830
0
LINE
8
Layer 1
10
152.917125
20
100.583830
11
152.964111
21
99.247377
0
LINE
8
Layer 1
10
152.964111
20
99.247377
11
152.829221
21
97.929964
0
LINE
8
Layer 1
10
152.829221
20
97.929964
11
152.497112
21
96.661403
0
LINE
8
Layer 1
10
152.497112
20
96.661403
11
151.952438
21
95.471505
0
LINE
8
Layer 1
10
151.952438
20
95.471505
11
151.154542
21
93.809622
0
LINE
8
Layer 1
10
151.154542
20
93.809622
11
150.240947
21
92.257179
0
LINE
8
Layer 1
10
150.240947
20
92.257179
11
148.094610
21
89.480751
0
LINE
8
Layer 1
10
148.094610
20
89.480751
11
145.569323
21
87.142510
0
LINE
8
Layer 1
10
145.569323
20
87.142510
11
142.720983
21
85.242744
0
LINE
8
Layer 1
10
142.720983
20
85.242744
11
139.605487
21
83.781742
0
LINE
8
Layer 1
10
139.605487
20
83.781742
11
136.278730
21
82.759792
0
LINE
8
Layer 1
10
136.278730
20
82.759792
11
132.796610
21
82.177184
0
LINE
8
Layer 1
10
132.796610
20
82.177184
11
129.215024
21
82.034205
0
LINE
8
Layer 1
10
129.215024
20
82.034205
11
127.542795
21
80.324947
0
LINE
8
Layer 1
10
127.542795
20
80.324947
11
125.704573
21
78.880101
0
LINE
8
Layer 1
10
125.704573
20
78.880101
11
121.812547
21
76.375497
0
LINE
8
Layer 1
10
121.812547
20
76.375497
11
123.906444
21
74.274723
0
LINE
8
Layer 1
10
123.906444
20
74.274723
11
126.166949
21
72.503866
0
LINE
8
Layer 1
10
126.166949
20
72.503866
11
128.537670
21
70.952935
0
LINE
8
Layer 1
10
128.537670
20
70.952935
11
130.962217
21
69.511942
0
LINE
8
Layer 1
10
130.962217
20
69.511942
11
133.384200
21
68.070898
0
LINE
8
Layer 1
10
133.384200
20
68.070898
11
135.747228
21
66.519813
0
LINE
8
Layer 1
10
135.747228
20
66.519813
11
137.994912
21
64.748700
0
LINE
8
Layer 1
10
137.994912
20
64.748700
11
140.070860
21
62.647568
0
LINE
8
Layer 1
10
140.070860
20
62.647568
11
141.983547
21
59.050248
0
LINE
8
Layer 1
10
141.983547
20
59.050248
11
143.407208
21
55.237495
0
LINE
8
Layer 1
10
143.407208
20
55.237495
11
144.342306
21
51.210566
0
LINE
8
Layer 1
10
144.342306
20
51.210566
11
144.789302
21
46.970719
0
LINE
8
Layer 1
10
144.789302
20
46.970719
11
148.481994
21
49.176079
0
LINE
8
Layer 1
10
148.481994
20
49.176079
11
150.166515
21
49.738359
0
LINE
8
Layer 1
10
150.166515
20
49.738359
11
152.044107
21
50.106232
0
LINE
8
Layer 1
10
152.044107
20
50.106232
11
155.879687
21
50.811053
0
LINE
8
Layer 1
10
155.879687
20
50.811053
11
157.588263
21
51.424152
0
LINE
8
Layer 1
10
157.588263
20
51.424152
11
158.991088
21
52.395144
0
LINE
8
Layer 1
10
158.991088
20
52.395144
11
159.538875
21
53.057999
0
LINE
8
Layer 1
10
159.538875
20
53.057999
11
159.963459
21
53.862105
0
LINE
8
Layer 1
10
159.963459
20
53.862105
11
160.249253
21
54.824722
0
LINE
8
Layer 1
10
160.249253
20
54.824722
11
160.380669
21
55.963109
0
LINE
8
Layer 1
10
160.380669
20
55.963109
11
160.440431
21
56.655807
0
LINE
8
Layer 1
10
160.440431
20
56.655807
11
160.336115
21
57.278320
0
LINE
8
Layer 1
10
160.336115
20
57.278320
11
159.741829
21
58.353128
0
LINE
8
Layer 1
10
159.741829
20
58.353128
11
158.810962
21
59.268214
0
LINE
8
Layer 1
10
158.810962
20
59.268214
11
157.756669
21
60.104260
0
LINE
8
Layer 1
10
157.756669
20
60.104260
11
156.792103
21
60.941947
0
LINE
8
Layer 1
10
156.792103
20
60.941947
11
156.130418
21
61.861957
0
LINE
8
Layer 1
10
156.130418
20
61.861957
11
155.979767
21
62.378045
0
LINE
8
Layer 1
10
155.979767
20
62.378045
11
155.984768
21
62.944970
0
LINE
8
Layer 1
10
155.984768
20
62.944970
11
156.172067
21
63.572816
0
LINE
8
Layer 1
10
156.172067
20
63.572816
11
156.568307
21
64.271669
0
LINE
8
Layer 1
10
156.568307
20
64.271669
11
157.914020
21
65.190469
0
LINE
8
Layer 1
10
157.914020
20
65.190469
11
158.681027
21
65.438217
0
LINE
8
Layer 1
10
158.681027
20
65.438217
11
159.560071
21
65.417088
0
LINE
8
Layer 1
10
159.560071
20
65.417088
11
160.774346
21
65.018800
0
LINE
8
Layer 1
10
160.774346
20
65.018800
11
161.796693
21
64.381005
0
LINE
8
Layer 1
10
161.796693
20
64.381005
11
162.650658
21
63.550306
0
LINE
8
Layer 1
10
162.650658
20
63.550306
11
163.359784
21
62.573303
0
LINE
8
Layer 1
10
163.359784
20
62.573303
11
164.437695
21
60.366791
0
LINE
8
Layer 1
10
164.437695
20
60.366791
11
165.218782
21
58.134278
0
LINE
8
Layer 1
10
165.218782
20
58.134278
11
165.899970
21
59.309271
0
LINE
8
Layer 1
10
165.899970
20
59.309271
11
166.220441
21
60.598079
0
LINE
8
Layer 1
10
166.220441
20
60.598079
11
166.304760
21
61.959414
0
LINE
8
Layer 1
10
166.304760
20
61.959414
11
166.277489
21
63.351986
0
LINE
8
Layer 1
10
166.277489
20
63.351986
11
166.263195
21
64.734506
0
LINE
8
Layer 1
10
166.263195
20
64.734506
11
166.386441
21
66.065683
0
LINE
8
Layer 1
10
166.386441
20
66.065683
11
166.771791
21
67.304230
0
LINE
8
Layer 1
10
166.771791
20
67.304230
11
167.543810
21
68.408855
0
LINE
8
Layer 1
10
167.543810
20
68.408855
11
168.469003
21
68.890704
0
LINE
8
Layer 1
10
168.469003
20
68.890704
11
169.469204
21
68.880837
0
LINE
8
Layer 1
10
169.469204
20
68.880837
11
170.425607
21
68.459746
0
LINE
8
Layer 1
10
170.425607
20
68.459746
11
171.219408
21
67.707925
0
LINE
8
Layer 1
10
171.219408
20
67.707925
11
171.668391
21
66.628671
0
LINE
8
Layer 1
10
171.668391
20
66.628671
11
171.891515
21
65.513337
0
LINE
8
Layer 1
10
171.891515
20
65.513337
11
171.923830
21
64.376616
0
LINE
8
Layer 1
10
171.923830
20
64.376616
11
171.800389
21
63.233202
0
LINE
8
Layer 1
10
171.800389
20
63.233202
11
171.226445
21
60.985071
0
LINE
8
Layer 1
10
171.226445
20
60.985071
11
170.450095
21
58.886494
0
LINE
8
Layer 1
10
170.450095
20
58.886494
11
169.921907
21
58.080226
0
LINE
8
Layer 1
10
169.921907
20
58.080226
11
169.250655
21
57.287831
0
LINE
8
Layer 1
10
169.250655
20
57.287831
11
168.867124
21
56.469896
0
LINE
8
Layer 1
10
168.867124
20
56.469896
11
168.917875
21
56.039033
0
LINE
8
Layer 1
10
168.917875
20
56.039033
11
169.202103
21
55.587005
0
LINE
8
Layer 1
10
169.202103
20
55.587005
11
170.519805
21
55.630553
0
LINE
8
Layer 1
10
170.519805
20
55.630553
11
171.460500
21
56.082256
0
LINE
8
Layer 1
10
171.460500
20
56.082256
11
172.133129
21
56.832253
0
LINE
8
Layer 1
10
172.133129
20
56.832253
11
172.646632
21
57.770684
0
LINE
8
Layer 1
10
172.646632
20
57.770684
11
173.632024
21
59.773401
0
LINE
8
Layer 1
10
173.632024
20
59.773401
11
174.321796
21
60.617966
0
LINE
8
Layer 1
10
174.321796
20
60.617966
11
175.288205
21
61.211522
0
LINE
8
Layer 1
10
175.288205
20
61.211522
11
176.168558
21
61.355029
0
LINE
8
Layer 1
10
176.168558
20
61.355029
11
177.052835
21
61.314644
0
LINE
8
Layer 1
10
177.052835
20
61.314644
11
177.879668
21
61.047467
0
LINE
8
Layer 1
10
177.879668
20
61.047467
11
178.587694
21
60.510595
0
LINE
8
Layer 1
10
178.587694
20
60.510595
11
178.841248
21
59.914261
0
LINE
8
Layer 1
10
178.841248
20
59.914261
11
178.909334
21
59.340118
0
LINE
8
Layer 1
10
178.909334
20
59.340118
11
178.654095
21
58.240956
0
LINE
8
Layer 1
10
178.654095
20
58.240956
11
178.151958
21
57.178208
0
LINE
8
Layer 1
10
178.151958
20
57.178208
11
177.732904
21
56.116974
0
LINE
8
Layer 1
10
177.732904
20
56.116974
11
176.558182
21
54.698161
0
LINE
8
Layer 1
10
176.558182
20
54.698161
11
175.243278
21
53.419091
0
LINE
8
Layer 1
10
175.243278
20
53.419091
11
173.798361
21
52.314584
0
LINE
8
Layer 1
10
173.798361
20
52.314584
11
172.233597
21
51.419461
0
LINE
8
Layer 1
10
172.233597
20
51.419461
11
170.559156
21
50.768543
0
LINE
8
Layer 1
10
170.559156
20
50.768543
11
168.785204
21
50.396650
0
LINE
8
Layer 1
10
168.785204
20
50.396650
11
166.921910
21
50.338604
0
LINE
8
Layer 1
10
166.921910
20
50.338604
11
164.979440
21
50.629225
0
LINE
8
Layer 1
10
164.979440
20
50.629225
11
163.744366
21
49.426706
0
LINE
8
Layer 1
10
163.744366
20
49.426706
11
162.380876
21
48.509343
0
LINE
8
Layer 1
10
162.380876
20
48.509343
11
160.873818
21
47.641656
0
LINE
8
Layer 1
10
160.873818
20
47.641656
11
159.251293
21
47.047316
0
LINE
8
Layer 1
10
159.251293
20
47.047316
11
155.799471
21
46.348163
0
LINE
8
Layer 1
10
155.799471
20
46.348163
11
152.304671
21
45.750867
0
LINE
8
Layer 1
10
152.304671
20
45.750867
11
150.628423
21
45.283846
0
LINE
8
Layer 1
10
150.628423
20
45.283846
11
149.046153
21
44.594407
0
LINE
8
Layer 1
10
149.046153
20
44.594407
11
151.326534
21
44.433670
0
LINE
8
Layer 1
10
151.326534
20
44.433670
11
153.535664
21
44.091493
0
LINE
8
Layer 1
10
153.535664
20
44.091493
11
157.786074
21
42.984183
0
LINE
8
Layer 1
10
157.786074
20
42.984183
11
161.889186
21
41.515196
0
LINE
8
Layer 1
10
161.889186
20
41.515196
11
165.936806
21
39.927251
0
LINE
8
Layer 1
10
165.936806
20
39.927251
11
167.514793
21
39.624871
0
LINE
8
Layer 1
10
167.514793
20
39.624871
11
168.129482
21
39.702823
0
LINE
8
Layer 1
10
168.129482
20
39.702823
11
168.646467
21
39.910038
0
LINE
8
Layer 1
10
168.646467
20
39.910038
11
169.442817
21
40.641770
0
LINE
8
Layer 1
10
169.442817
20
40.641770
11
170.014834
21
41.679089
0
LINE
8
Layer 1
10
170.014834
20
41.679089
11
170.929822
21
44.106570
0
LINE
8
Layer 1
10
170.929822
20
44.106570
11
171.494773
21
45.214774
0
LINE
8
Layer 1
10
171.494773
20
45.214774
11
172.279347
21
46.064647
0
LINE
8
Layer 1
10
172.279347
20
46.064647
11
173.147902
21
46.339835
0
LINE
8
Layer 1
10
173.147902
20
46.339835
11
174.049922
21
46.249345
0
LINE
8
Layer 1
10
174.049922
20
46.249345
11
174.865883
21
45.818616
0
LINE
8
Layer 1
10
174.865883
20
45.818616
11
175.476258
21
45.073087
0
LINE
8
Layer 1
10
175.476258
20
45.073087
11
175.757963
21
43.930799
0
LINE
8
Layer 1
10
175.757963
20
43.930799
11
175.766555
21
42.863381
0
LINE
8
Layer 1
10
175.766555
20
42.863381
11
175.544008
21
41.863784
0
LINE
8
Layer 1
10
175.544008
20
41.863784
11
175.132293
21
40.924959
0
LINE
8
Layer 1
10
175.132293
20
40.924959
11
173.909252
21
39.201434
0
LINE
8
Layer 1
10
173.909252
20
39.201434
11
172.433209
21
37.636416
0
LINE
8
Layer 1
10
172.433209
20
37.636416
11
174.873189
21
37.202662
0
LINE
8
Layer 1
10
174.873189
20
37.202662
11
176.164135
21
37.197486
0
LINE
8
Layer 1
10
176.164135
20
37.197486
11
177.425181
21
37.345787
0
LINE
8
Layer 1
10
177.425181
20
37.345787
11
178.452355
21
38.016396
0
LINE
8
Layer 1
10
178.452355
20
38.016396
11
179.158852
21
38.876415
0
LINE
8
Layer 1
10
179.158852
20
38.876415
11
179.644666
21
39.865999
0
LINE
8
Layer 1
10
179.644666
20
39.865999
11
180.009791
21
40.925302
0
LINE
8
Layer 1
10
180.009791
20
40.925302
11
180.777953
21
43.013682
0
LINE
8
Layer 1
10
180.777953
20
43.013682
11
181.380979
21
43.923067
0
LINE
8
Layer 1
10
181.380979
20
43.923067
11
182.263294
21
44.662787
0
LINE
8
Layer 1
10
182.263294
20
44.662787
11
183.034945
21
44.810701
0
LINE
8
Layer 1
10
183.034945
20
44.810701
11
183.780031
21
44.736849
0
LINE
8
Layer 1
10
183.780031
20
44.736849
11
184.467675
21
44.446460
0
LINE
8
Layer 1
10
184.467675
20
44.446460
11
185.067002
21
43.944766
0
LINE
8
Layer 1
10
185.067002
20
43.944766
11
185.249265
21
42.762491
0
LINE
8
Layer 1
10
185.249265
20
42.762491
11
185.073157
21
41.640453
0
LINE
8
Layer 1
10
185.073157
20
41.640453
11
184.502843
21
39.448568
0
LINE
8
Layer 1
10
184.502843
20
39.448568
11
183.964854
21
38.360289
0
LINE
8
Layer 1
10
183.964854
20
38.360289
11
183.270278
21
37.335177
0
LINE
8
Layer 1
10
183.270278
20
37.335177
11
181.511762
21
35.518177
0
LINE
8
Layer 1
10
181.511762
20
35.518177
11
179.428083
21
34.085012
0
LINE
8
Layer 1
10
179.428083
20
34.085012
11
177.220033
21
33.123124
0
LINE
8
Layer 1
10
177.220033
20
33.123124
11
175.177017
21
32.950897
0
LINE
8
Layer 1
10
175.177017
20
32.950897
11
173.197209
21
32.985807
0
LINE
8
Layer 1
10
173.197209
20
32.985807
11
171.272441
21
33.201300
0
LINE
8
Layer 1
10
171.272441
20
33.201300
11
169.394543
21
33.570824
0
LINE
8
Layer 1
10
169.394543
20
33.570824
11
165.746675
21
34.665760
0
LINE
8
Layer 1
10
165.746675
20
34.665760
11
162.188246
21
36.058199
0
LINE
8
Layer 1
10
162.188246
20
36.058199
11
158.653896
21
37.535723
0
LINE
8
Layer 1
10
158.653896
20
37.535723
11
155.078265
21
38.885917
0
LINE
8
Layer 1
10
155.078265
20
38.885917
11
151.395995
21
39.896364
0
LINE
8
Layer 1
10
151.395995
20
39.896364
11
149.494445
21
40.207802
0
LINE
8
Layer 1
10
149.494445
20
40.207802
11
147.541725
21
40.354648
0
LINE
8
Layer 1
10
147.541725
20
40.354648
11
146.785393
21
39.899393
0
LINE
8
Layer 1
10
146.785393
20
39.899393
11
146.119353
21
39.302021
0
LINE
8
Layer 1
10
146.119353
20
39.302021
11
145.630255
21
38.564226
0
LINE
8
Layer 1
10
145.630255
20
38.564226
11
145.404750
21
37.687702
0
LINE
8
Layer 1
10
145.404750
20
37.687702
11
148.514577
21
36.071508
0
LINE
8
Layer 1
10
148.514577
20
36.071508
11
151.717339
21
34.672618
0
LINE
8
Layer 1
10
151.717339
20
34.672618
11
154.909432
21
33.293936
0
LINE
8
Layer 1
10
154.909432
20
33.293936
11
157.987258
21
31.738364
0
LINE
8
Layer 1
10
157.987258
20
31.738364
11
158.541943
21
29.483715
0
LINE
8
Layer 1
10
158.541943
20
29.483715
11
159.561362
21
27.519098
0
LINE
8
Layer 1
10
159.561362
20
27.519098
11
160.951268
21
25.795988
0
LINE
8
Layer 1
10
160.951268
20
25.795988
11
162.617415
21
24.265856
0
LINE
8
Layer 1
10
162.617415
20
24.265856
11
164.465555
21
22.880175
0
LINE
8
Layer 1
10
164.465555
20
22.880175
11
166.401441
21
21.590418
0
LINE
8
Layer 1
10
166.401441
20
21.590418
11
170.159466
21
19.104568
0
LINE
8
Layer 1
10
170.159466
20
19.104568
11
172.733289
21
17.930659
0
LINE
8
Layer 1
10
172.733289
20
17.930659
11
175.361170
21
16.781933
0
LINE
8
Layer 1
10
175.361170
20
16.781933
11
176.600308
21
16.101920
0
LINE
8
Layer 1
10
176.600308
20
16.101920
11
177.738871
21
15.290093
0
LINE
8
Layer 1
10
177.738871
20
15.290093
11
178.738829
21
14.300413
0
LINE
8
Layer 1
10
178.738829
20
14.300413
11
179.562153
21
13.086845
0
LINE
8
Layer 1
10
179.562153
20
13.086845
11
179.521895
21
10.918289
0
LINE
8
Layer 1
10
179.521895
20
10.918289
11
179.402551
21
8.707242
0
LINE
8
Layer 1
10
179.402551
20
8.707242
11
178.952709
21
6.613130
0
LINE
8
Layer 1
10
178.952709
20
6.613130
11
178.525286
21
5.659746
0
LINE
8
Layer 1
10
178.525286
20
5.659746
11
177.920960
21
4.795382
0
LINE
8
Layer 1
10
177.920960
20
4.795382
11
177.384753
21
4.882565
0
LINE
8
Layer 1
10
177.384753
20
4.882565
11
176.958342
21
4.784262
0
LINE
8
Layer 1
10
176.958342
20
4.784262
11
176.344658
21
4.200928
0
LINE
8
Layer 1
10
176.344658
20
4.200928
11
175.899403
21
3.384852
0
LINE
8
Layer 1
10
175.899403
20
3.384852
11
175.442070
21
2.675503
0
LINE
8
Layer 1
10
175.442070
20
2.675503
11
175.095087
21
1.975895
0
LINE
8
Layer 1
10
175.095087
20
1.975895
11
174.617261
21
1.496967
0
LINE
8
Layer 1
10
174.617261
20
1.496967
11
174.037187
21
1.191384
0
LINE
8
Layer 1
10
174.037187
20
1.191384
11
173.383460
21
1.011810
0
LINE
8
Layer 1
10
173.383460
20
1.011810
11
171.969436
21
0.841352
0
LINE
8
Layer 1
10
171.969436
20
0.841352
11
170.603954
21
0.606913
0
LINE
8
Layer 1
10
170.603954
20
0.606913
11
169.433031
21
-0.255606
0
LINE
8
Layer 1
10
169.433031
20
-0.255606
11
168.832080
21
-0.648566
0
LINE
8
Layer 1
10
168.832080
20
-0.648566
11
168.176355
21
-0.914614
0
LINE
8
Layer 1
10
168.176355
20
-0.914614
11
164.110913
21
2.007976
0
LINE
8
Layer 1
10
164.110913
20
2.007976
11
162.022106
21
3.374174
0
LINE
8
Layer 1
10
162.022106
20
3.374174
11
159.867247
21
4.564248
0
LINE
8
Layer 1
10
159.867247
20
4.564248
11
157.624841
21
5.493654
0
LINE
8
Layer 1
10
157.624841
20
5.493654
11
155.273391
21
6.077847
0
LINE
8
Layer 1
10
155.273391
20
6.077847
11
152.791403
21
6.232283
0
LINE
8
Layer 1
10
152.791403
20
6.232283
11
150.157380
21
5.872418
0
LINE
8
Layer 1
10
150.157380
20
5.872418
11
148.482936
21
5.692678
0
LINE
8
Layer 1
10
148.482936
20
5.692678
11
146.863470
21
5.812305
0
LINE
8
Layer 1
10
146.863470
20
5.812305
11
145.314401
21
6.202236
0
LINE
8
Layer 1
10
145.314401
20
6.202236
11
143.851152
21
6.833406
0
LINE
8
Layer 1
10
143.851152
20
6.833406
11
142.489144
21
7.676753
0
LINE
8
Layer 1
10
142.489144
20
7.676753
11
141.243799
21
8.703211
0
LINE
8
Layer 1
10
141.243799
20
8.703211
11
140.130537
21
9.883719
0
LINE
8
Layer 1
10
140.130537
20
9.883719
11
139.164780
21
11.189211
0
LINE
8
Layer 1
10
139.164780
20
11.189211
11
138.324210
21
9.236709
0
LINE
8
Layer 1
10
138.324210
20
9.236709
11
137.225844
21
7.384166
0
LINE
8
Layer 1
10
137.225844
20
7.384166
11
134.873735
21
3.735445
0
LINE
8
Layer 1
10
134.873735
20
3.735445
11
135.664039
21
0.994711
0
LINE
8
Layer 1
10
135.664039
20
0.994711
11
136.292689
21
-1.871980
0
LINE
8
Layer 1
10
136.292689
20
-1.871980
11
136.464044
21
-3.832112
0
LINE
8
Layer 1
10
136.464044
20
-3.832112
11
136.265027
21
-5.646694
0
LINE
8
Layer 1
10
136.265027
20
-5.646694
11
135.785519
21
-7.351180
0
LINE
8
Layer 1
10
135.785519
20
-7.351180
11
135.115402
21
-8.981027
0
LINE
8
Layer 1
10
135.115402
20
-8.981027
11
133.562864
21
-12.158627
0
LINE
8
Layer 1
10
133.562864
20
-12.158627
11
132.860205
21
-13.777291
0
LINE
8
Layer 1
10
132.860205
20
-13.777291
11
132.326462
21
-15.463139
0
LINE
8
Layer 1
10
132.326462
20
-15.463139
11
132.020587
21
-16.297125
0
LINE
8
Layer 1
10
132.020587
20
-16.297125
11
131.869817
21
-17.174814
0
LINE
8
Layer 1
10
131.869817
20
-17.174814
11
131.888400
21
-19.005321
0
LINE
8
Layer 1
10
131.888400
20
-19.005321
11
132.091823
21
-20.842702
0
LINE
8
Layer 1
10
132.091823
20
-20.842702
11
132.189697
21
-22.574995
0
LINE
8
Layer 1
10
132.189697
20
-22.574995
11
131.522958
21
-22.592089
0
LINE
8
Layer 1
10
131.522958
20
-22.592089
11
130.386609
21
-21.289568
0
LINE
8
Layer 1
10
130.386609
20
-21.289568
11
129.423866
21
-19.881241
0
LINE
8
Layer 1
10
129.423866
20
-19.881241
11
128.664428
21
-18.366647
0
LINE
8
Layer 1
10
128.664428
20
-18.366647
11
128.137991
21
-16.745323
0
LINE
8
Layer 1
10
128.137991
20
-16.745323
11
127.645252
21
-18.372931
0
LINE
8
Layer 1
10
127.645252
20
-18.372931
11
127.384821
21
-20.095831
0
LINE
8
Layer 1
10
127.384821
20
-20.095831
11
127.334490
21
-23.720411
0
LINE
8
Layer 1
10
127.334490
20
-23.720411
11
127.216477
21
-23.985117
0
LINE
8
Layer 1
10
127.216477
20
-23.985117
11
126.977324
21
-24.103220
0
LINE
8
Layer 1
10
126.977324
20
-24.103220
11
126.411315
21
-24.284573
0
LINE
8
Layer 1
10
126.411315
20
-24.284573
11
125.364774
21
-22.863695
0
LINE
8
Layer 1
10
125.364774
20
-22.863695
11
124.638138
21
-21.300879
0
LINE
8
Layer 1
10
124.638138
20
-21.300879
11
123.556316
21
-17.976223
0
LINE
8
Layer 1
10
123.556316
20
-17.976223
11
122.974588
21
-19.865756
0
LINE
8
Layer 1
10
122.974588
20
-19.865756
11
122.548826
21
-21.815937
0
LINE
8
Layer 1
10
122.548826
20
-21.815937
11
122.120271
21
-25.891577
0
LINE
8
Layer 1
10
122.120271
20
-25.891577
11
121.669573
21
-25.942821
0
LINE
8
Layer 1
10
121.669573
20
-25.942821
11
121.284824
21
-25.788469
0
LINE
8
Layer 1
10
121.284824
20
-25.788469
11
120.648322
21
-25.092246
0
LINE
8
Layer 1
10
120.648322
20
-25.092246
11
120.081057
21
-24.261446
0
LINE
8
Layer 1
10
120.081057
20
-24.261446
11
119.453324
21
-23.754602
0
LINE
8
Layer 1
10
119.453324
20
-23.754602
11
119.232063
21
-26.020111
0
LINE
8
Layer 1
10
119.232063
20
-26.020111
11
119.437461
21
-28.270695
0
LINE
8
Layer 1
10
119.437461
20
-28.270695
11
120.444884
21
-32.644419
0
LINE
8
Layer 1
10
120.444884
20
-32.644419
11
120.017486
21
-33.311155
0
LINE
8
Layer 1
10
120.017486
20
-33.311155
11
119.562669
21
-33.316491
0
LINE
8
Layer 1
10
119.562669
20
-33.316491
11
119.145603
21
-33.157293
0
LINE
8
Layer 1
10
119.145603
20
-33.157293
11
117.383269
21
-31.759114
0
LINE
8
Layer 1
10
117.383269
20
-31.759114
11
115.829627
21
-30.215674
0
LINE
8
Layer 1
10
115.829627
20
-30.215674
11
114.471819
21
-28.544432
0
LINE
8
Layer 1
10
114.471819
20
-28.544432
11
113.296989
21
-26.762848
0
LINE
8
Layer 1
10
113.296989
20
-26.762848
11
112.292279
21
-24.888383
0
LINE
8
Layer 1
10
112.292279
20
-24.888383
11
111.444833
21
-22.938497
0
LINE
8
Layer 1
10
111.444833
20
-22.938497
11
110.170304
21
-18.882301
0
LINE
8
Layer 1
10
110.170304
20
-18.882301
11
109.447428
21
-19.364811
0
LINE
8
Layer 1
10
109.447428
20
-19.364811
11
108.768450
21
-20.010622
0
LINE
8
Layer 1
10
108.768450
20
-20.010622
11
107.925696
21
-21.835110
0
LINE
8
Layer 1
10
107.925696
20
-21.835110
11
106.840638
21
-23.591578
0
LINE
8
Layer 1
10
106.840638
20
-23.591578
11
105.564631
21
-25.283577
0
LINE
8
Layer 1
10
105.564631
20
-25.283577
11
104.149028
21
-26.914660
0
LINE
8
Layer 1
10
104.149028
20
-26.914660
11
101.104458
21
-30.008282
0
LINE
8
Layer 1
10
101.104458
20
-30.008282
11
98.117764
21
-32.900854
0
LINE
8
Layer 1
10
98.117764
20
-32.900854
11
97.149273
21
-38.460989
0
LINE
8
Layer 1
10
97.149273
20
-38.460989
11
96.653385
21
-41.322982
0
LINE
8
Layer 1
10
96.653385
20
-41.322982
11
96.277099
21
-44.198785
0
LINE
8
Layer 1
10
96.277099
20
-44.198785
11
96.115938
21
-47.057791
0
LINE
8
Layer 1
10
96.115938
20
-47.057791
11
96.265423
21
-49.869394
0
LINE
8
Layer 1
10
96.265423
20
-49.869394
11
96.821079
21
-52.602989
0
LINE
8
Layer 1
10
96.821079
20
-52.602989
11
97.878426
21
-55.227971
0
LINE
8
Layer 1
10
97.878426
20
-55.227971
11
98.372668
21
-56.828006
0
LINE
8
Layer 1
10
98.372668
20
-56.828006
11
98.515912
21
-58.414664
0
LINE
8
Layer 1
10
98.515912
20
-58.414664
11
98.419156
21
-59.991661
0
LINE
8
Layer 1
10
98.419156
20
-59.991661
11
98.193400
21
-61.562712
0
LINE
8
Layer 1
10
98.193400
20
-61.562712
11
97.798881
21
-64.701838
0
LINE
8
Layer 1
10
97.798881
20
-64.701838
11
97.852114
21
-66.277343
0
LINE
8
Layer 1
10
97.852114
20
-66.277343
11
98.220341
21
-67.861764
0
LINE
8
Layer 1
10
98.220341
20
-67.861764
11
99.021258
21
-70.315253
0
LINE
8
Layer 1
10
99.021258
20
-70.315253
11
99.690011
21
-72.860531
0
LINE
8
Layer 1
10
99.690011
20
-72.860531
11
100.343422
21
-75.426330
0
LINE
8
Layer 1
10
100.343422
20
-75.426330
11
101.098315
21
-77.941383
0
LINE
8
Layer 1
10
101.098315
20
-77.941383
11
102.071513
21
-80.334423
0
LINE
8
Layer 1
10
102.071513
20
-80.334423
11
103.379839
21
-82.534182
0
LINE
8
Layer 1
10
103.379839
20
-82.534182
11
104.196182
21
-83.539310
0
LINE
8
Layer 1
10
104.196182
20
-83.539310
11
105.140117
21
-84.469393
0
LINE
8
Layer 1
10
105.140117
20
-84.469393
11
106.226245
21
-85.315522
0
LINE
8
Layer 1
10
106.226245
20
-85.315522
11
107.469170
21
-86.068789
0
LINE
8
Layer 1
10
107.469170
20
-86.068789
11
109.476028
21
-87.058501
0
LINE
8
Layer 1
10
109.476028
20
-87.058501
11
111.635005
21
-88.165351
0
LINE
8
Layer 1
10
111.635005
20
-88.165351
11
112.556580
21
-88.860631
0
LINE
8
Layer 1
10
112.556580
20
-88.860631
11
113.258234
21
-89.702708
0
LINE
8
Layer 1
10
113.258234
20
-89.702708
11
113.653985
21
-90.730753
0
LINE
8
Layer 1
10
113.653985
20
-90.730753
11
113.657848
21
-91.983938
0
LINE
8
Layer 1
10
113.657848
20
-91.983938
11
121.727064
21
-102.326897
0
LINE
8
Layer 1
10
121.727064
20
-102.326897
11
121.761258
21
-103.916807
0
LINE
8
Layer 1
10
121.761258
20
-103.916807
11
120.343427
21
-104.298391
0
LINE
8
Layer 1
10
120.343427
20
-104.298391
11
118.830764
21
-104.345300
0
LINE
8
Layer 1
10
118.830764
20
-104.345300
11
115.846112
21
-104.036478
0
LINE
8
Layer 1
10
115.846112
20
-104.036478
11
114.046297
21
-103.835763
0
LINE
8
Layer 1
10
114.046297
20
-103.835763
11
112.183167
21
-103.802604
0
LINE
8
Layer 1
10
112.183167
20
-103.802604
11
110.369273
21
-103.655588
0
LINE
8
Layer 1
10
110.369273
20
-103.655588
11
109.515961
21
-103.451443
0
LINE
8
Layer 1
10
109.515961
20
-103.451443
11
108.717165
21
-103.113304
0
LINE
8
Layer 1
10
108.717165
20
-103.113304
11
107.868232
21
-101.944407
0
LINE
8
Layer 1
10
107.868232
20
-101.944407
11
107.140314
21
-100.631753
0
LINE
8
Layer 1
10
107.140314
20
-100.631753
11
106.615289
21
-99.192210
0
LINE
8
Layer 1
10
106.615289
20
-99.192210
11
106.375039
21
-97.642646
0
LINE
8
Layer 1
10
106.375039
20
-97.642646
11
105.872580
21
-96.737642
0
LINE
8
Layer 1
10
105.872580
20
-96.737642
11
105.189051
21
-96.014967
0
LINE
8
Layer 1
10
105.189051
20
-96.014967
11
103.564145
21
-94.845361
0
LINE
8
Layer 1
10
103.564145
20
-94.845361
11
102.765450
21
-94.262807
0
LINE
8
Layer 1
10
102.765450
20
-94.262807
11
102.071049
21
-93.591337
0
LINE
8
Layer 1
10
102.071049
20
-93.591337
11
101.552282
21
-92.763140
0
LINE
8
Layer 1
10
101.552282
20
-92.763140
11
101.280491
21
-91.710406
0
LINE
8
Layer 1
10
101.280491
20
-91.710406
11
98.083573
21
-90.017922
0
LINE
8
Layer 1
10
98.083573
20
-90.017922
11
96.565157
21
-89.110101
0
LINE
8
Layer 1
10
96.565157
20
-89.110101
11
95.570908
21
-87.921248
0
LINE
8
Layer 1
10
95.570908
20
-87.921248
11
94.984528
21
-86.514891
0
LINE
8
Layer 1
10
94.984528
20
-86.514891
11
94.689719
21
-84.954559
0
LINE
8
Layer 1
10
94.689719
20
-84.954559
11
94.509628
21
-81.626088
0
LINE
8
Layer 1
10
94.509628
20
-81.626088
11
94.391749
21
-79.985007
0
LINE
8
Layer 1
10
94.391749
20
-79.985007
11
94.100252
21
-78.444067
0
LINE
8
Layer 1
10
94.100252
20
-78.444067
11
93.086553
21
-74.260951
0
LINE
8
Layer 1
10
93.086553
20
-74.260951
11
91.918966
21
-70.151716
0
LINE
8
Layer 1
10
91.918966
20
-70.151716
11
91.160184
21
-68.175313
0
LINE
8
Layer 1
10
91.160184
20
-68.175313
11
90.222195
21
-66.277992
0
LINE
8
Layer 1
10
90.222195
20
-66.277992
11
89.058085
21
-64.479956
0
LINE
8
Layer 1
10
89.058085
20
-64.479956
11
87.620943
21
-62.801410
0
LINE
8
Layer 1
10
87.620943
20
-62.801410
11
86.445174
21
-61.004321
0
LINE
8
Layer 1
10
86.445174
20
-61.004321
11
85.708194
21
-58.999030
0
LINE
8
Layer 1
10
85.708194
20
-58.999030
11
85.552469
21
-57.951092
0
LINE
8
Layer 1
10
85.552469
20
-57.951092
11
85.564304
21
-56.890446
0
LINE
8
Layer 1
10
85.564304
20
-56.890446
11
85.762985
21
-55.830202
0
LINE
8
Layer 1
10
85.762985
20
-55.830202
11
86.167801
21
-54.783476
0
LINE
8
Layer 1
10
86.167801
20
-54.783476
11
85.073671
21
-52.184915
0
LINE
8
Layer 1
10
85.073671
20
-52.184915
11
83.920800
21
-55.446248
0
LINE
8
Layer 1
10
83.920800
20
-55.446248
11
83.413346
21
-57.090428
0
LINE
8
Layer 1
10
83.413346
20
-57.090428
11
83.056366
21
-58.783895
0
LINE
8
Layer 1
10
83.056366
20
-58.783895
11
83.623807
21
-60.577687
0
LINE
8
Layer 1
10
83.623807
20
-60.577687
11
83.989456
21
-62.492389
0
LINE
8
Layer 1
10
83.989456
20
-62.492389
11
84.089436
21
-64.463301
0
LINE
8
Layer 1
10
84.089436
20
-64.463301
11
83.859870
21
-66.425719
0
LINE
8
Layer 1
10
83.859870
20
-66.425719
11
83.190060
21
-67.795145
0
LINE
8
Layer 1
10
83.190060
20
-67.795145
11
82.649769
21
-69.241049
0
LINE
8
Layer 1
10
82.649769
20
-69.241049
11
81.956900
21
-72.308459
0
LINE
8
Layer 1
10
81.956900
20
-72.308459
11
81.779573
21
-75.520290
0
LINE
8
Layer 1
10
81.779573
20
-75.520290
11
82.116097
21
-78.768885
0
LINE
8
Layer 1
10
82.116097
20
-78.768885
11
82.356077
21
-80.757559
0
LINE
8
Layer 1
10
82.356077
20
-80.757559
11
83.091121
21
-82.517603
0
LINE
8
Layer 1
10
83.091121
20
-82.517603
11
84.215257
21
-84.082248
0
LINE
8
Layer 1
10
84.215257
20
-84.082248
11
85.622512
21
-85.484726
0
LINE
8
Layer 1
10
85.622512
20
-85.484726
11
88.862491
21
-87.936105
0
LINE
8
Layer 1
10
88.862491
20
-87.936105
11
91.963280
21
-90.137592
0
LINE
8
Layer 1
10
91.963280
20
-90.137592
11
92.265466
21
-91.506283
0
LINE
8
Layer 1
10
92.265466
20
-91.506283
11
92.117141
21
-92.924207
0
LINE
8
Layer 1
10
92.117141
20
-92.924207
11
93.619355
21
-93.822752
0
LINE
8
Layer 1
10
93.619355
20
-93.822752
11
94.856290
21
-94.908570
0
LINE
8
Layer 1
10
94.856290
20
-94.908570
11
95.891909
21
-96.137639
0
LINE
8
Layer 1
10
95.891909
20
-96.137639
11
96.790175
21
-97.465940
0
LINE
8
Layer 1
10
96.790175
20
-97.465940
11
98.430490
21
-100.244156
0
LINE
8
Layer 1
10
98.430490
20
-100.244156
11
99.300465
21
-101.606032
0
LINE
8
Layer 1
10
99.300465
20
-101.606032
11
100.288934
21
-102.891059
0
LINE
8
Layer 1
10
100.288934
20
-102.891059
11
100.616283
21
-103.694628
0
LINE
8
Layer 1
10
100.616283
20
-103.694628
11
100.538843
21
-104.121800
0
LINE
8
Layer 1
10
100.538843
20
-104.121800
11
100.203454
21
-104.429681
0
LINE
8
Layer 1
10
100.203454
20
-104.429681
11
93.840056
21
-104.515634
0
LINE
8
Layer 1
10
93.840056
20
-104.515634
11
87.347411
21
-104.275817
0
LINE
8
Layer 1
10
87.347411
20
-104.275817
11
86.954208
21
-104.019381
0
LINE
8
Layer 1
10
86.954208
20
-104.019381
11
85.261727
21
-98.292285
0
LINE
8
Layer 1
10
85.261727
20
-98.292285
11
84.171340
21
-97.389172
0
LINE
8
Layer 1
10
84.171340
20
-97.389172
11
83.002277
21
-96.651639
0
LINE
8
Layer 1
10
83.002277
20
-96.651639
11
81.894451
21
-95.892462
0
LINE
8
Layer 1
10
81.894451
20
-95.892462
11
80.987776
21
-94.924417
0
LINE
8
Layer 1
10
80.987776
20
-94.924417
11
80.741202
21
-93.551417
0
LINE
8
Layer 1
10
80.741202
20
-93.551417
11
80.217003
21
-92.288314
0
LINE
8
Layer 1
10
80.217003
20
-92.288314
11
79.473819
21
-91.114503
0
LINE
8
Layer 1
10
79.473819
20
-91.114503
11
78.570291
21
-90.009378
0
LINE
8
Layer 1
10
78.570291
20
-90.009378
11
76.516769
21
-87.922767
0
LINE
8
Layer 1
10
76.516769
20
-87.922767
11
74.525564
21
-85.863642
0
LINE
8
Layer 1
10
74.525564
20
-85.863642
11
73.837129
21
-83.933074
0
LINE
8
Layer 1
10
73.837129
20
-83.933074
11
73.405289
21
-81.902342
0
LINE
8
Layer 1
10
73.405289
20
-81.902342
11
73.175976
21
-79.795704
0
LINE
8
Layer 1
10
73.175976
20
-79.795704
11
73.095124
21
-77.637419
0
LINE
8
Layer 1
10
73.095124
20
-77.637419
11
73.162536
21
-73.262945
0
LINE
8
Layer 1
10
73.162536
20
-73.262945
11
73.174993
21
-68.972992
0
LINE
8
Layer 1
10
73.174993
20
-68.972992
11
72.508260
21
-68.443023
0
LINE
8
Layer 1
10
72.508260
20
-68.443023
11
71.956450
21
-67.623900
0
LINE
8
Layer 1
10
71.956450
20
-67.623900
11
71.556019
21
-66.718946
0
LINE
8
Layer 1
10
71.556019
20
-66.718946
11
71.181555
21
-64.749099
0
LINE
8
Layer 1
10
71.181555
20
-64.749099
11
71.329403
21
-62.728581
0
LINE
8
Layer 1
10
71.329403
20
-62.728581
11
71.944097
21
-60.852487
0
LINE
8
Layer 1
10
71.944097
20
-60.852487
11
71.104865
21
-55.924533
0
LINE
8
Layer 1
10
71.104865
20
-55.924533
11
70.620337
21
-50.839614
0
LINE
8
Layer 1
10
70.620337
20
-50.839614
11
70.029369
21
-40.525581
0
LINE
8
Layer 1
10
70.029369
20
-40.525581
11
69.755834
21
-40.149475
0
LINE
8
Layer 1
10
69.755834
20
-40.149475
11
66.134975
21
-40.694059
0
LINE
8
Layer 1
10
66.134975
20
-40.694059
11
62.483119
21
-40.945267
0
LINE
8
Layer 1
10
62.483119
20
-40.945267
11
58.821377
21
-40.936576
0
LINE
8
Layer 1
10
58.821377
20
-40.936576
11
55.170860
21
-40.701463
0
LINE
8
Layer 1
10
55.170860
20
-40.701463
11
51.552680
21
-40.273408
0
LINE
8
Layer 1
10
51.552680
20
-40.273408
11
47.987949
21
-39.685887
0
LINE
8
Layer 1
10
47.987949
20
-39.685887
11
41.103276
21
-38.166359
0
LINE
8
Layer 1
10
41.103276
20
-38.166359
11
37.233139
21
-42.529420
0
LINE
8
Layer 1
10
37.233139
20
-42.529420
11
33.051970
21
-46.553290
0
LINE
8
Layer 1
10
33.051970
20
-46.553290
11
28.626778
21
-50.140499
0
LINE
8
Layer 1
10
28.626778
20
-50.140499
11
24.024569
21
-53.193572
0
LINE
8
Layer 1
10
24.024569
20
-53.193572
11
22.924298
21
-53.824402
0
LINE
8
Layer 1
10
22.924298
20
-53.824402
11
22.070912
21
-54.655616
0
LINE
8
Layer 1
10
22.070912
20
-54.655616
11
21.409007
21
-55.641301
0
LINE
8
Layer 1
10
21.409007
20
-55.641301
11
20.883180
21
-56.735545
0
LINE
8
Layer 1
10
20.883180
20
-56.735545
11
20.018149
21
-59.066065
0
LINE
8
Layer 1
10
20.018149
20
-59.066065
11
19.032596
21
-61.279882
0
LINE
8
Layer 1
10
19.032596
20
-61.279882
11
19.781075
21
-66.132665
0
LINE
8
Layer 1
10
19.781075
20
-66.132665
11
20.752089
21
-70.879104
0
LINE
8
Layer 1
10
20.752089
20
-70.879104
11
21.906201
21
-75.540098
0
LINE
8
Layer 1
10
21.906201
20
-75.540098
11
23.203971
21
-80.136551
0
LINE
8
Layer 1
10
23.203971
20
-80.136551
11
23.593518
21
-81.407941
0
LINE
8
Layer 1
10
23.593518
20
-81.407941
11
24.195796
21
-82.572534
0
LINE
8
Layer 1
10
24.195796
20
-82.572534
11
24.973649
21
-83.642226
0
LINE
8
Layer 1
10
24.973649
20
-83.642226
11
25.889924
21
-84.628913
0
LINE
8
Layer 1
10
25.889924
20
-84.628913
11
27.989121
21
-86.400853
0
LINE
8
Layer 1
10
27.989121
20
-86.400853
11
30.196152
21
-87.983520
0
LINE
8
Layer 1
10
30.196152
20
-87.983520
11
30.172920
21
-88.976682
0
LINE
8
Layer 1
10
30.172920
20
-88.976682
11
30.460547
21
-89.734581
0
LINE
8
Layer 1
10
30.460547
20
-89.734581
11
30.980801
21
-90.321500
0
LINE
8
Layer 1
10
30.980801
20
-90.321500
11
31.655449
21
-90.801723
0
LINE
8
Layer 1
10
31.655449
20
-90.801723
11
33.154999
21
-91.699209
0
LINE
8
Layer 1
10
33.154999
20
-91.699209
11
33.823436
21
-92.245039
0
LINE
8
Layer 1
10
33.823436
20
-92.245039
11
34.333338
21
-92.941304
0
LINE
8
Layer 1
10
34.333338
20
-92.941304
11
38.547590
21
-98.971536
0
LINE
8
Layer 1
10
38.547590
20
-98.971536
11
40.414166
21
-102.101564
0
LINE
8
Layer 1
10
40.414166
20
-102.101564
11
41.906780
21
-105.387047
0
LINE
8
Layer 1
10
41.906780
20
-105.387047
11
41.604034
21
-105.718224
0
LINE
8
Layer 1
10
41.604034
20
-105.718224
11
41.210227
21
-105.871330
0
LINE
8
Layer 1
10
41.210227
20
-105.871330
11
40.385252
21
-106.070877
0
LINE
8
Layer 1
10
40.385252
20
-106.070877
11
35.021479
21
-105.793859
0
LINE
8
Layer 1
10
35.021479
20
-105.793859
11
32.375724
21
-105.565097
0
LINE
8
Layer 1
10
32.375724
20
-105.565097
11
29.854234
21
-105.062226
0
LINE
8
Layer 1
10
29.854234
20
-105.062226
11
28.861313
21
-103.296708
0
LINE
8
Layer 1
10
28.861313
20
-103.296708
11
28.510328
21
-102.342442
0
LINE
8
Layer 1
10
28.510328
20
-102.342442
11
28.315615
21
-101.318246
0
LINE
8
Layer 1
10
28.315615
20
-101.318246
11
28.203379
21
-100.248548
0
LINE
8
Layer 1
10
28.203379
20
-100.248548
11
27.769740
21
-99.484504
0
LINE
8
Layer 1
10
27.769740
20
-99.484504
11
27.107482
21
-98.933905
0
LINE
8
Layer 1
10
27.107482
20
-98.933905
11
26.309386
21
-98.504543
0
LINE
8
Layer 1
10
26.309386
20
-98.504543
11
24.676810
21
-97.640700
0
LINE
8
Layer 1
10
24.676810
20
-97.640700
11
24.027894
21
-97.021803
0
LINE
8
Layer 1
10
24.027894
20
-97.021803
11
23.614270
21
-96.155312
0
LINE
8
Layer 1
10
23.614270
20
-96.155312
11
23.527850
21
-94.971519
0
LINE
8
Layer 1
10
23.527850
20
-94.971519
11
23.093262
21
-94.180686
0
LINE
8
Layer 1
10
23.093262
20
-94.180686
11
22.399552
21
-93.670274
0
LINE
8
Layer 1
10
22.399552
20
-93.670274
11
21.535762
21
-93.327740
0
LINE
8
Layer 1
10
21.535762
20
-93.327740
11
19.654126
21
-92.696149
0
LINE
8
Layer 1
10
19.654126
20
-92.696149
11
18.814368
21
-92.182009
0
LINE
8
Layer 1
10
18.814368
20
-92.182009
11
18.160710
21
-91.385585
0
LINE
8
Layer 1
10
18.160710
20
-91.385585
11
17.249740
21
-88.662094
0
LINE
8
Layer 1
10
17.249740
20
-88.662094
11
16.466485
21
-85.887406
0
LINE
8
Layer 1
10
16.466485
20
-85.887406
11
15.058572
21
-80.277625
0
LINE
8
Layer 1
10
15.058572
20
-80.277625
11
13.487874
21
-74.742619
0
LINE
8
Layer 1
10
13.487874
20
-74.742619
11
12.501138
21
-72.061401
0
LINE
8
Layer 1
10
12.501138
20
-72.061401
11
11.305294
21
-69.468769
0
LINE
8
Layer 1
10
11.305294
20
-69.468769
11
9.106248
21
-67.830599
0
LINE
8
Layer 1
10
9.106248
20
-67.830599
11
7.220285
21
-65.842341
0
LINE
8
Layer 1
10
7.220285
20
-65.842341
11
5.739904
21
-63.590157
0
LINE
8
Layer 1
10
5.739904
20
-63.590157
11
4.757603
21
-61.160211
0
LINE
8
Layer 1
10
4.757603
20
-61.160211
11
3.799420
21
-62.206817
0
LINE
8
Layer 1
10
3.799420
20
-62.206817
11
3.048023
21
-63.331378
0
LINE
8
Layer 1
10
3.048023
20
-63.331378
11
2.589852
21
-67.918210
0
LINE
8
Layer 1
10
2.589852
20
-67.918210
11
2.502052
21
-72.730987
0
LINE
8
Layer 1
10
2.502052
20
-72.730987
11
2.742799
21
-77.558127
0
LINE
8
Layer 1
10
2.742799
20
-77.558127
11
3.270269
21
-82.188047
0
LINE
8
Layer 1
10
3.270269
20
-82.188047
11
3.710767
21
-83.539925
0
LINE
8
Layer 1
10
3.710767
20
-83.539925
11
4.545484
21
-84.629582
0
LINE
8
Layer 1
10
4.545484
20
-84.629582
11
5.620924
21
-85.552530
0
LINE
8
Layer 1
10
5.620924
20
-85.552530
11
6.783594
21
-86.404278
0
LINE
8
Layer 1
10
6.783594
20
-86.404278
11
7.880001
21
-87.280337
0
LINE
8
Layer 1
10
7.880001
20
-87.280337
11
8.756650
21
-88.276216
0
LINE
8
Layer 1
10
8.756650
20
-88.276216
11
9.260049
21
-89.487427
0
LINE
8
Layer 1
10
9.260049
20
-89.487427
11
9.323812
21
-90.203628
0
LINE
8
Layer 1
10
9.323812
20
-90.203628
11
9.236702
21
-91.009478
0
LINE
8
Layer 1
10
9.236702
20
-91.009478
11
11.908574
21
-93.830771
0
LINE
8
Layer 1
10
11.908574
20
-93.830771
11
14.295416
21
-96.778075
0
LINE
8
Layer 1
10
14.295416
20
-96.778075
11
16.234314
21
-99.918324
0
LINE
8
Layer 1
10
16.234314
20
-99.918324
11
16.984875
21
-101.581721
0
LINE
8
Layer 1
10
16.984875
20
-101.581721
11
17.562357
21
-103.318454
0
LINE
8
Layer 1
10
17.562357
20
-103.318454
11
17.441378
21
-103.865336
0
LINE
8
Layer 1
10
17.441378
20
-103.865336
11
17.061448
21
-104.225147
0
LINE
8
Layer 1
10
17.061448
20
-104.225147
11
16.057927
21
-104.566449
0
LINE
8
Layer 1
10
16.057927
20
-104.566449
11
13.473439
21
-104.277914
0
LINE
8
Layer 1
10
13.473439
20
-104.277914
11
10.809790
21
-104.194581
0
LINE
8
Layer 1
10
10.809790
20
-104.194581
11
8.167373
21
-104.151867
0
LINE
8
Layer 1
10
8.167373
20
-104.151867
11
5.646585
21
-103.985187
0
LINE
8
Layer 1
10
5.646585
20
-103.985187
11
4.174700
21
-100.886067
0
LINE
8
Layer 1
10
4.174700
20
-100.886067
11
2.788644
21
-97.702551
0
LINE
8
Layer 1
10
2.788644
20
-97.702551
11
1.958530
21
-96.204343
0
LINE
8
Layer 1
10
1.958530
20
-96.204343
11
0.946746
21
-94.835274
0
LINE
8
Layer 1
10
0.946746
20
-94.835274
11
-0.314415
21
-93.645421
0
LINE
8
Layer 1
10
-0.314415
20
-93.645421
11
-1.892663
21
-92.684865
0
LINE
8
Layer 1
10
-1.892663
20
-92.684865
11
-2.823250
21
-91.835505
0
LINE
8
Layer 1
10
-2.823250
20
-91.835505
11
-3.480619
21
-90.829088
0
LINE
8
Layer 1
10
-3.480619
20
-90.829088
11
-3.906599
21
-89.699099
0
LINE
8
Layer 1
10
-3.906599
20
-89.699099
11
-4.143017
21
-88.479028
0
LINE
8
Layer 1
10
-4.143017
20
-88.479028
11
-4.214482
21
-85.902585
0
LINE
8
Layer 1
10
-4.214482
20
-85.902585
11
-4.029638
21
-83.367657
0
LINE
8
Layer 1
10
-4.029638
20
-83.367657
11
-4.915747
21
-72.973412
0
LINE
8
Layer 1
10
-4.915747
20
-72.973412
11
-5.571991
21
-67.867081
0
LINE
8
Layer 1
10
-5.571991
20
-67.867081
11
-6.371762
21
-62.835601
0
LINE
8
Layer 1
10
-6.371762
20
-62.835601
11
-8.228364
21
-60.111900
0
LINE
8
Layer 1
10
-8.228364
20
-60.111900
11
-9.079658
21
-58.754600
0
LINE
8
Layer 1
10
-9.079658
20
-58.754600
11
-9.756731
21
-57.382037
0
LINE
8
Layer 1
10
-9.756731
20
-57.382037
11
-9.824043
21
-55.758944
0
LINE
8
Layer 1
10
-9.824043
20
-55.758944
11
-9.631418
21
-54.372382
0
LINE
8
Layer 1
10
-9.631418
20
-54.372382
11
-9.207083
21
-53.194810
0
LINE
8
Layer 1
10
-9.207083
20
-53.194810
11
-8.579263
21
-52.198683
0
LINE
8
Layer 1
10
-8.579263
20
-52.198683
11
-7.776182
21
-51.356459
0
LINE
8
Layer 1
10
-7.776182
20
-51.356459
11
-6.826066
21
-50.640593
0
LINE
8
Layer 1
10
-6.826066
20
-50.640593
11
-4.597631
21
-49.477765
0
LINE
8
Layer 1
10
-4.597631
20
-49.477765
11
0.381747
21
-47.456508
0
LINE
8
Layer 1
10
0.381747
20
-47.456508
11
2.681085
21
-46.157384
0
LINE
8
Layer 1
10
2.681085
20
-46.157384
11
3.684378
21
-45.339297
0
LINE
8
Layer 1
10
3.684378
20
-45.339297
11
4.552454
21
-44.372135
0
LINE
8
Layer 1
10
4.552454
20
-44.372135
11
5.698408
21
-43.199046
0
LINE
8
Layer 1
10
5.698408
20
-43.199046
11
6.564291
21
-41.881268
0
LINE
8
Layer 1
10
6.564291
20
-41.881268
11
7.171307
21
-40.448695
0
LINE
8
Layer 1
10
7.171307
20
-40.448695
11
7.540660
21
-38.931223
0
LINE
8
Layer 1
10
7.540660
20
-38.931223
11
7.693556
21
-37.358745
0
LINE
8
Layer 1
10
7.693556
20
-37.358745
11
7.651197
21
-35.761157
0
LINE
8
Layer 1
10
7.651197
20
-35.761157
11
7.434789
21
-34.168352
0
LINE
8
Layer 1
10
7.434789
20
-34.168352
11
7.065536
21
-32.610225
0
LINE
8
Layer 1
10
7.065536
20
-32.610225
11
4.809061
21
-26.294187
0
LINE
8
Layer 1
10
4.809061
20
-26.294187
11
3.837315
21
-23.045985
0
LINE
8
Layer 1
10
3.837315
20
-23.045985
11
3.004942
21
-19.739484
0
LINE
8
Layer 1
10
3.004942
20
-19.739484
11
2.338227
21
-16.376055
0
LINE
8
Layer 1
10
2.338227
20
-16.376055
11
1.863455
21
-12.957064
0
LINE
8
Layer 1
10
1.863455
20
-12.957064
11
1.606912
21
-9.483881
0
LINE
8
Layer 1
10
1.606912
20
-9.483881
11
1.594881
21
-5.957875
0
LINE
8
Layer 1
10
1.594881
20
-5.957875
11
-0.089674
21
-7.218996
0
LINE
8
Layer 1
10
-0.089674
20
-7.218996
11
-1.016471
21
-7.696939
0
LINE
8
Layer 1
10
-1.016471
20
-7.696939
11
-2.029429
21
-7.992274
0
LINE
8
Layer 1
10
-2.029429
20
-7.992274
11
-2.521711
21
-7.709245
0
LINE
8
Layer 1
10
-2.521711
20
-7.709245
11
-2.745194
21
-7.194038
0
LINE
8
Layer 1
10
-2.745194
20
-7.194038
11
-2.918520
21
-6.616364
0
LINE
8
Layer 1
10
-2.918520
20
-6.616364
11
-3.260327
21
-6.145931
0
LINE
8
Layer 1
10
-3.260327
20
-6.145931
11
-5.043294
21
-7.722672
0
LINE
8
Layer 1
10
-5.043294
20
-7.722672
11
-6.562823
21
-9.522077
0
LINE
8
Layer 1
10
-6.562823
20
-9.522077
11
-9.158378
21
-13.377452
0
LINE
8
Layer 1
10
-9.158378
20
-13.377452
11
-10.355084
21
-13.787749
0
LINE
8
Layer 1
10
-10.355084
20
-13.787749
11
-10.688786
21
-13.609762
0
LINE
8
Layer 1
10
-10.688786
20
-13.609762
11
-10.834726
21
-13.277271
0
LINE
8
Layer 1
10
-10.834726
20
-13.277271
11
-10.867958
21
-12.471375
0
LINE
8
Layer 1
10
-10.867958
20
-12.471375
11
-11.686956
21
-10.650539
0
LINE
8
Layer 1
10
-11.686956
20
-10.650539
11
-12.213787
21
-8.673611
0
LINE
8
Layer 1
10
-12.213787
20
-8.673611
11
-12.480892
21
-6.590569
0
LINE
8
Layer 1
10
-12.480892
20
-6.590569
11
-12.520713
21
-4.451393
0
LINE
8
Layer 1
10
-12.520713
20
-4.451393
11
-12.365694
21
-2.306063
0
LINE
8
Layer 1
10
-12.365694
20
-2.306063
11
-12.048276
21
-0.204557
0
LINE
8
Layer 1
10
-12.048276
20
-0.204557
11
-11.056012
21
3.667060
0
LINE
8
Layer 1
10
-11.056012
20
3.667060
11
-10.458440
21
5.803544
0
LINE
8
Layer 1
10
-10.458440
20
5.803544
11
-9.450896
21
7.795269
0
LINE
8
Layer 1
10
-9.450896
20
7.795269
11
-8.102098
21
9.622490
0
LINE
8
Layer 1
10
-8.102098
20
9.622490
11
-6.480765
21
11.265461
0
LINE
8
Layer 1
10
-6.480765
20
11.265461
11
-4.655617
21
12.704435
0
LINE
8
Layer 1
10
-4.655617
20
12.704435
11
-2.695371
21
13.919669
0
LINE
8
Layer 1
10
-2.695371
20
13.919669
11
-0.668746
21
14.891415
0
LINE
8
Layer 1
10
-0.668746
20
14.891415
11
1.355539
21
15.599929
0
LINE
8
Layer 1
10
1.355539
20
15.599929
11
2.659193
21
15.862404
0
LINE
8
Layer 1
10
2.659193
20
15.862404
11
3.916669
21
15.881231
0
LINE
8
Layer 1
10
3.916669
20
15.881231
11
5.127230
21
15.685177
0
LINE
8
Layer 1
10
5.127230
20
15.685177
11
6.290139
21
15.303008
0
LINE
8
Layer 1
10
6.290139
20
15.303008
11
8.470050
21
14.095386
0
LINE
8
Layer 1
10
8.470050
20
14.095386
11
10.450504
21
12.488491
0
LINE
8
Layer 1
10
10.450504
20
12.488491
11
13.826663
21
14.783176
0
LINE
8
Layer 1
10
13.826663
20
14.783176
11
17.368557
21
16.686331
0
LINE
8
Layer 1
10
17.368557
20
16.686331
11
21.028720
21
18.294175
0
LINE
8
Layer 1
10
21.028720
20
18.294175
11
24.759687
21
19.702921
0
LINE
8
Layer 1
10
24.759687
20
19.702921
11
30.359173
21
17.634940
0
LINE
8
Layer 1
10
30.359173
20
17.634940
11
35.960377
21
15.509596
0
LINE
8
Layer 1
10
35.960377
20
15.509596
11
38.815387
21
14.627076
0
LINE
8
Layer 1
10
38.815387
20
14.627076
11
41.735343
21
13.972210
0
LINE
8
Layer 1
10
41.735343
20
13.972210
11
44.741751
21
13.625665
0
LINE
8
Layer 1
10
44.741751
20
13.625665
11
47.856117
21
13.668104
0
LINE
8
Layer 1
10
47.856117
20
13.668104
11
59.340039
21
15.221407
0
LINE
8
Layer 1
10
59.340039
20
15.221407
11
65.015740
21
16.132953
0
LINE
8
Layer 1
10
65.015740
20
16.132953
11
70.629634
21
17.181908
0
LINE
8
Layer 1
10
70.629634
20
17.181908
11
76.168494
21
18.403880
0
LINE
8
Layer 1
10
76.168494
20
18.403880
11
81.619096
21
19.834480
0
LINE
8
Layer 1
10
81.619096
20
19.834480
11
86.968214
21
21.509316
0
LINE
8
Layer 1
10
86.968214
20
21.509316
11
92.202621
21
23.463998
0
LINE
8
Layer 1
10
92.202621
20
23.463998
11
98.545162
21
21.600555
0
LINE
8
Layer 1
10
98.545162
20
21.600555
11
102.661639
21
22.088221
0
LINE
8
Layer 1
10
102.661639
20
22.088221
11
106.691861
21
22.786085
0
LINE
8
Layer 1
10
106.691861
20
22.786085
11
110.631542
21
23.700414
0
LINE
8
Layer 1
10
110.631542
20
23.700414
11
114.476395
21
24.837475
0
LINE
8
Layer 1
10
114.476395
20
24.837475
11
118.222135
21
26.203534
0
LINE
8
Layer 1
10
118.222135
20
26.203534
11
121.864477
21
27.804857
0
LINE
8
Layer 1
10
121.864477
20
27.804857
11
125.399135
21
29.647712
0
LINE
8
Layer 1
10
125.399135
20
29.647712
11
128.821823
21
31.738364
0
LINE
8
Layer 1
10
128.821823
20
31.738364
11
125.744577
21
35.619109
0
LINE
8
Layer 1
10
125.744577
20
35.619109
11
124.402685
21
38.976116
0
LINE
8
Layer 1
10
124.402685
20
38.976116
11
123.915589
21
40.803062
0
LINE
8
Layer 1
10
123.915589
20
40.803062
11
123.586336
21
42.683160
0
LINE
8
Layer 1
10
123.586336
20
42.683160
11
123.441385
21
44.582056
0
LINE
8
Layer 1
10
123.441385
20
44.582056
11
123.507192
21
46.465393
0
LINE
8
Layer 1
10
123.507192
20
46.465393
11
123.810217
21
48.298815
0
LINE
8
Layer 1
10
123.810217
20
48.298815
11
124.376917
21
50.047965
0
LINE
8
Layer 1
10
124.376917
20
50.047965
11
125.244697
21
50.478576
0
LINE
8
Layer 1
10
125.244697
20
50.478576
11
125.690821
21
50.583485
0
LINE
8
Layer 1
10
125.690821
20
50.583485
11
126.120686
21
50.458266
0
LINE
8
Layer 1
10
126.120686
20
50.458266
11
127.108098
21
48.937504
0
LINE
8
Layer 1
10
127.108098
20
48.937504
11
128.294892
21
47.635253
0
LINE
8
Layer 1
10
128.294892
20
47.635253
11
129.632952
21
46.503815
0
LINE
8
Layer 1
10
129.632952
20
46.503815
11
131.074160
21
45.495492
0
LINE
8
Layer 1
10
131.074160
20
45.495492
11
134.073554
21
43.657403
0
LINE
8
Layer 1
10
134.073554
20
43.657403
11
136.908136
21
41.739405
0
LINE
8
Layer 1
10
136.908136
20
41.739405
11
135.754586
21
44.126586
0
LINE
8
Layer 1
10
135.754586
20
44.126586
11
134.297577
21
46.492071
0
LINE
8
Layer 1
10
134.297577
20
46.492071
11
132.578574
21
48.788985
0
LINE
8
Layer 1
10
132.578574
20
48.788985
11
130.639037
21
50.970451
0
LINE
8
Layer 1
10
130.639037
20
50.970451
11
128.520431
21
52.989593
0
LINE
8
Layer 1
10
128.520431
20
52.989593
11
126.264218
21
54.799534
0
LINE
8
Layer 1
10
126.264218
20
54.799534
11
123.911860
21
56.353397
0
LINE
8
Layer 1
10
123.911860
20
56.353397
11
121.504820
21
57.604307
0
LINE
8
Layer 1
10
121.504820
20
57.604307
11
118.937853
21
56.500283
0
LINE
8
Layer 1
10
118.937853
20
56.500283
11
116.221127
21
55.828533
0
LINE
8
Layer 1
10
116.221127
20
55.828533
11
113.393824
21
55.595906
0
LINE
8
Layer 1
10
113.393824
20
55.595906
11
110.495125
21
55.809250
0
LINE
8
Layer 1
10
110.495125
20
55.809250
11
108.295954
21
56.042035
0
LINE
8
Layer 1
10
108.295954
20
56.042035
11
106.125512
21
56.601594
0
LINE
8
Layer 1
10
106.125512
20
56.601594
11
104.034188
21
57.465601
0
LINE
8
Layer 1
10
104.034188
20
57.465601
11
102.072367
21
58.611730
0
LINE
8
Layer 1
10
102.072367
20
58.611730
11
100.290437
21
60.017655
0
LINE
8
Layer 1
10
100.290437
20
60.017655
11
98.738784
21
61.661051
0
LINE
8
Layer 1
10
98.738784
20
61.661051
11
97.467795
21
63.519591
0
LINE
8
Layer 1
10
97.467795
20
63.519591
11
96.527857
21
65.570949
0
LINE
8
Layer 1
10
96.527857
20
65.570949
11
96.275698
21
67.458814
0
LINE
8
Layer 1
10
96.275698
20
67.458814
11
96.452225
21
69.347961
0
LINE
8
Layer 1
10
96.452225
20
69.347961
11
97.123881
21
71.092374
0
LINE
8
Layer 1
10
97.123881
20
71.092374
11
97.666145
21
71.864675
0
LINE
8
Layer 1
10
97.666145
20
71.864675
11
98.357106
21
72.546038
0
LINE
8
Layer 1
10
98.357106
20
72.546038
11
98.870042
21
72.685385
0
LINE
8
Layer 1
10
98.870042
20
72.685385
11
99.353590
21
72.577835
0
LINE
8
Layer 1
10
99.353590
20
72.577835
11
100.237648
21
72.033164
0
LINE
8
Layer 1
10
100.237648
20
72.033164
11
101.523276
21
69.504839
0
LINE
8
Layer 1
10
101.523276
20
69.504839
11
103.022825
21
67.016570
0
LINE
8
Layer 1
10
103.022825
20
67.016570
11
103.906400
21
65.850909
0
LINE
8
Layer 1
10
103.906400
20
65.850909
11
104.907749
21
64.771404
0
LINE
8
Layer 1
10
104.907749
20
64.771404
11
106.048305
21
63.803437
0
LINE
8
Layer 1
10
106.048305
20
63.803437
11
107.349499
21
62.972388
0
LINE
8
Layer 1
10
107.349499
20
62.972388
11
109.389895
21
62.020827
0
LINE
8
Layer 1
10
109.389895
20
62.020827
11
111.580230
21
61.296725
0
LINE
8
Layer 1
10
111.580230
20
61.296725
11
112.714227
21
61.090508
0
LINE
8
Layer 1
10
112.714227
20
61.090508
11
113.864832
21
61.025799
0
LINE
8
Layer 1
10
113.864832
20
61.025799
11
115.025085
21
61.130814
0
LINE
8
Layer 1
10
115.025085
20
61.130814
11
116.188027
21
61.433766
0
LINE
8
Layer 1
10
116.188027
20
61.433766
11
115.237411
21
62.381905
0
LINE
8
Layer 1
10
115.237411
20
62.381905
11
114.478379
21
63.425772
0
LINE
8
Layer 1
10
114.478379
20
63.425772
11
113.093686
21
65.588047
0
LINE
8
Layer 1
10
113.093686
20
65.588047
11
110.934135
21
66.217386
0
LINE
8
Layer 1
10
110.934135
20
66.217386
11
108.787224
21
67.176993
0
LINE
8
Layer 1
10
108.787224
20
67.176993
11
106.723430
21
68.432549
0
LINE
8
Layer 1
10
106.723430
20
68.432549
11
104.813233
21
69.949731
0
LINE
8
Layer 1
10
104.813233
20
69.949731
11
103.127110
21
71.694219
0
LINE
8
Layer 1
10
103.127110
20
71.694219
11
101.735541
21
73.631692
0
LINE
8
Layer 1
10
101.735541
20
73.631692
11
100.709003
21
75.727830
0
LINE
8
Layer 1
10
100.709003
20
75.727830
11
100.117975
21
77.948310
0
LINE
8
Layer 1
10
100.117975
20
77.948310
11
100.374101
21
79.169420
0
LINE
8
Layer 1
10
100.374101
20
79.169420
11
100.780267
21
80.355399
0
LINE
8
Layer 1
10
100.780267
20
80.355399
11
101.466462
21
81.372131
0
LINE
8
Layer 1
10
101.466462
20
81.372131
11
101.955192
21
81.775116
0
LINE
8
Layer 1
10
101.955192
20
81.775116
11
102.562674
21
82.085496
0
LINE
8
Layer 1
10
102.562674
20
82.085496
11
103.184769
21
82.112916
0
LINE
8
Layer 1
10
103.184769
20
82.112916
11
103.806633
21
81.949957
0
LINE
8
Layer 1
10
103.806633
20
81.949957
11
104.938991
21
81.196513
0
LINE
8
Layer 1
10
104.938991
20
81.196513
11
106.347887
21
78.471629
0
LINE
8
Layer 1
10
106.347887
20
78.471629
11
107.868254
21
75.779878
0
LINE
8
Layer 1
10
107.868254
20
75.779878
11
108.756027
21
74.502427
0
LINE
8
Layer 1
10
108.756027
20
74.502427
11
109.774611
21
73.300457
0
LINE
8
Layer 1
10
109.774611
20
73.300457
11
110.958322
21
72.196371
0
LINE
8
Layer 1
10
110.958322
20
72.196371
11
112.341474
21
71.212566
0
LINE
8
Layer 1
10
112.341474
20
71.212566
11
112.554927
21
72.932124
0
LINE
8
Layer 1
10
112.554927
20
72.932124
11
113.006636
21
74.560262
0
LINE
8
Layer 1
10
113.006636
20
74.560262
11
113.685651
21
76.100187
0
LINE
8
Layer 1
10
113.685651
20
76.100187
11
114.581023
21
77.555107
0
LINE
8
Layer 1
10
114.581023
20
77.555107
11
113.315933
21
80.700733
0
LINE
8
Layer 1
10
113.315933
20
80.700733
11
111.290796
21
81.114769
0
LINE
8
Layer 1
10
111.290796
20
81.114769
11
109.347794
21
81.735851
0
LINE
8
Layer 1
10
109.347794
20
81.735851
11
107.512598
21
82.625782
0
LINE
8
Layer 1
10
107.512598
20
82.625782
11
105.810877
21
83.846362
0
LINE
8
Layer 1
10
105.810877
20
83.846362
11
102.765503
21
86.733863
0
LINE
8
Layer 1
10
102.765503
20
86.733863
11
101.400632
21
88.325313
0
LINE
8
Layer 1
10
101.400632
20
88.325313
11
100.226362
21
90.015891
0
LINE
8
Layer 1
10
100.226362
20
90.015891
11
99.306733
21
91.806096
0
LINE
8
Layer 1
10
99.306733
20
91.806096
11
98.705789
21
93.696424
0
LINE
8
Layer 1
10
98.705789
20
93.696424
11
98.487571
21
95.687372
0
LINE
8
Layer 1
10
98.487571
20
95.687372
11
98.716121
21
97.779437
0
LINE
8
Layer 1
10
98.716121
20
97.779437
11
99.088009
21
98.606609
0
LINE
8
Layer 1
10
99.088009
20
98.606609
11
99.650918
21
99.359156
0
LINE
8
Layer 1
10
99.650918
20
99.359156
11
100.391794
21
99.920197
0
LINE
8
Layer 1
10
100.391794
20
99.920197
11
101.297585
21
100.172849
0
LINE
8
Layer 1
10
101.297585
20
100.172849
11
101.973827
21
99.876579
0
LINE
8
Layer 1
10
101.973827
20
99.876579
11
102.527596
21
99.359568
0
LINE
8
Layer 1
10
102.527596
20
99.359568
11
103.314887
21
98.087161
0
LINE
8
Layer 1
10
103.314887
20
98.087161
11
104.860254
21
94.225512
0
LINE
8
Layer 1
10
104.860254
20
94.225512
11
105.826929
21
92.285885
0
LINE
8
Layer 1
10
105.826929
20
92.285885
11
106.958756
21
90.433716
0
LINE
8
Layer 1
10
106.958756
20
90.433716
11
108.282603
21
88.738999
0
LINE
8
Layer 1
10
108.282603
20
88.738999
11
109.825338
21
87.271728
0
LINE
8
Layer 1
10
109.825338
20
87.271728
11
111.613829
21
86.101898
0
LINE
8
Layer 1
10
111.613829
20
86.101898
11
113.674946
21
85.299504
0
LINE
8
Layer 1
10
113.674946
20
85.299504
11
115.110994
21
89.658932
0
LINE
8
Layer 1
10
115.110994
20
89.658932
11
112.221800
21
92.770368
0
LINE
8
Layer 1
10
112.221800
20
92.770368
11
111.397890
21
94.137324
0
LINE
8
Layer 1
10
111.397890
20
94.137324
11
110.912603
21
95.712352
0
LINE
8
Layer 1
10
110.912603
20
95.712352
11
110.846848
21
97.346463
0
LINE
8
Layer 1
10
110.846848
20
97.346463
11
111.281532
21
98.890666
0
LINE
8
Layer 1
10
111.281532
20
98.890666
11
111.744196
21
99.598863
0
LINE
8
Layer 1
10
111.744196
20
99.598863
11
112.348926
21
100.209640
0
LINE
8
Layer 1
10
112.348926
20
100.209640
11
113.112338
21
100.566955
0
LINE
8
Layer 1
10
113.112338
20
100.566955
11
114.051049
21
100.514765
0
LINE
8
Layer 1
10
114.051049
20
100.514765
11
115.071170
21
99.761854
0
LINE
8
Layer 1
10
115.071170
20
99.761854
11
115.824196
21
98.847083
0
LINE
8
Layer 1
10
115.824196
20
98.847083
11
116.864883
21
96.730303
0
LINE
8
Layer 1
10
116.864883
20
96.730303
11
117.844947
21
94.561106
0
LINE
8
Layer 1
10
117.844947
20
94.561106
11
118.522195
21
93.580815
0
LINE
8
Layer 1
10
118.522195
20
93.580815
11
119.436227
21
92.736176
0
LINE
8
Layer 1
10
119.436227
20
92.736176
11
121.272182
21
94.368005
0
LINE
8
Layer 1
10
121.272182
20
94.368005
11
122.056965
21
95.307753
0
LINE
8
Layer 1
10
122.056965
20
95.307753
11
122.650239
21
96.360488
0
LINE
8
Layer 1
10
122.650239
20
96.360488
11
121.221330
21
97.924179
0
LINE
8
Layer 1
10
121.221330
20
97.924179
11
119.924486
21
99.592548
0
LINE
8
Layer 1
10
119.924486
20
99.592548
11
118.973319
21
101.431397
0
LINE
8
Layer 1
10
118.973319
20
101.431397
11
118.694118
21
102.435316
0
LINE
8
Layer 1
10
118.694118
20
102.435316
11
118.581441
21
103.506531
0
LINE
8
Layer 1
10
118.581441
20
103.506531
11
118.590236
21
104.543981
0
LINE
8
Layer 1
10
118.590236
20
104.543981
11
118.925886
21
105.453469
0
LINE
8
Layer 1
10
118.925886
20
105.453469
11
119.499611
21
106.244279
0
LINE
8
Layer 1
10
119.499611
20
106.244279
11
120.222634
21
106.925692
0
LINE
8
Layer 1
10
120.222634
20
106.925692
11
121.177413
21
106.973282
0
LINE
8
Layer 1
10
121.177413
20
106.973282
11
121.950036
21
106.845781
0
LINE
8
Layer 1
10
121.950036
20
106.845781
11
122.565110
21
106.565519
0
LINE
8
Layer 1
10
122.565110
20
106.565519
11
123.047241
21
106.154828
0
LINE
8
Layer 1
10
123.047241
20
106.154828
11
123.711100
21
105.031477
0
LINE
8
Layer 1
10
123.711100
20
105.031477
11
124.138462
21
103.654373
0
LINE
8
Layer 1
10
124.138462
20
103.654373
11
124.526180
21
102.202158
0
LINE
8
Layer 1
10
124.526180
20
102.202158
11
125.071103
21
100.853477
0
LINE
8
Layer 1
10
125.071103
20
100.853477
11
125.464032
21
100.273788
0
LINE
8
Layer 1
10
125.464032
20
100.273788
11
125.970081
21
99.786974
0
LINE
8
Layer 1
10
125.970081
20
99.786974
11
126.613857
21
99.415365
0
LINE
8
Layer 1
10
126.613857
20
99.415365
11
127.419966
21
99.181292
0
LINE
8
Layer 1
10
127.419966
20
99.181292
11
128.126248
21
100.131617
0
LINE
8
Layer 1
10
128.126248
20
100.131617
11
128.472863
21
101.230182
0
LINE
8
Layer 1
10
128.472863
20
101.230182
11
128.585762
21
102.423410
0
LINE
8
Layer 1
10
128.585762
20
102.423410
11
128.590893
21
103.657726
0
LINE
8
Layer 1
10
128.590893
20
103.657726
11
128.614206
21
104.879553
0
LINE
8
Layer 1
10
128.614206
20
104.879553
11
128.781650
21
106.035316
0
LINE
8
Layer 1
10
128.781650
20
106.035316
11
129.219173
21
107.071438
0
LINE
8
Layer 1
10
129.219173
20
107.071438
11
130.052724
21
107.934343
0
LINE
8
Layer 1
10
130.052724
20
107.934343
11
130.549459
21
108.228476
0
LINE
8
Layer 1
10
130.549459
20
108.228476
11
131.112661
21
108.327546
0
LINE
8
Layer 1
10
131.112661
20
108.327546
11
131.112661
21
108.327546
0
LINE
8
Layer 1
10
118.923353
20
85.128546
11
118.672336
21
83.982307
0
LINE
8
Layer 1
10
118.672336
20
83.982307
11
118.756841
21
82.765087
0
LINE
8
Layer 1
10
118.756841
20
82.765087
11
119.138299
21
81.584178
0
LINE
8
Layer 1
10
119.138299
20
81.584178
11
119.778142
21
80.546871
0
LINE
8
Layer 1
10
119.778142
20
80.546871
11
121.560419
21
81.391542
0
LINE
8
Layer 1
10
121.560419
20
81.391542
11
122.389727
21
81.953519
0
LINE
8
Layer 1
10
122.389727
20
81.953519
11
123.128921
21
82.683847
0
LINE
8
Layer 1
10
123.128921
20
82.683847
11
122.002061
21
83.087833
0
LINE
8
Layer 1
10
122.002061
20
83.087833
11
120.928077
21
83.657965
0
LINE
8
Layer 1
10
120.928077
20
83.657965
11
118.923353
21
85.128546
0
LINE
8
Layer 1
10
118.923353
20
85.128546
11
118.923353
21
85.128546
0
LINE
8
Layer 1
10
117.931799
20
74.050466
11
117.512454
21
73.876011
0
LINE
8
Layer 1
10
117.512454
20
73.876011
11
117.155784
21
73.514820
0
LINE
8
Layer 1
10
117.155784
20
73.514820
11
116.632519
21
72.614417
0
LINE
8
Layer 1
10
116.632519
20
72.614417
11
116.610772
21
71.298661
0
LINE
8
Layer 1
10
116.610772
20
71.298661
11
116.799098
21
70.057575
0
LINE
8
Layer 1
10
116.799098
20
70.057575
11
117.160571
21
68.881110
0
LINE
8
Layer 1
10
117.160571
20
68.881110
11
117.658264
21
67.759216
0
LINE
8
Layer 1
10
117.658264
20
67.759216
11
119.579983
21
67.293765
0
LINE
8
Layer 1
10
119.579983
20
67.293765
11
121.652871
21
66.947917
0
LINE
8
Layer 1
10
121.652871
20
66.947917
11
122.676965
21
66.919918
0
LINE
8
Layer 1
10
122.676965
20
66.919918
11
123.656007
21
67.041909
0
LINE
8
Layer 1
10
123.656007
20
67.041909
11
124.562382
21
67.353920
0
LINE
8
Layer 1
10
124.562382
20
67.353920
11
125.368473
21
67.895981
0
LINE
8
Layer 1
10
125.368473
20
67.895981
11
125.368473
21
68.289184
0
LINE
8
Layer 1
10
125.368473
20
68.289184
11
121.450318
21
70.878718
0
LINE
8
Layer 1
10
121.450318
20
70.878718
11
119.600292
21
72.390110
0
LINE
8
Layer 1
10
119.600292
20
72.390110
11
117.931799
21
74.050466
0
LINE
8
Layer 1
10
117.931799
20
74.050466
11
117.931799
21
74.050466
0
LINE
8
Layer 1
10
128.702150
20
64.955499
11
127.313867
21
64.236542
0
LINE
8
Layer 1
10
127.313867
20
64.236542
11
125.798393
21
63.782662
0
LINE
8
Layer 1
10
125.798393
20
63.782662
11
122.718621
21
63.263018
0
LINE
8
Layer 1
10
122.718621
20
63.263018
11
124.994640
21
61.695623
0
LINE
8
Layer 1
10
124.994640
20
61.695623
11
127.395358
21
60.190990
0
LINE
8
Layer 1
10
127.395358
20
60.190990
11
132.220058
21
57.094856
0
LINE
8
Layer 1
10
132.220058
20
57.094856
11
134.468625
21
55.365776
0
LINE
8
Layer 1
10
134.468625
20
55.365776
11
136.491059
21
53.424302
0
LINE
8
Layer 1
10
136.491059
20
53.424302
11
138.199652
21
51.201644
0
LINE
8
Layer 1
10
138.199652
20
51.201644
11
139.506698
21
48.629014
0
LINE
8
Layer 1
10
139.506698
20
48.629014
11
139.099388
21
50.985521
0
LINE
8
Layer 1
10
139.099388
20
50.985521
11
138.356544
21
53.290480
0
LINE
8
Layer 1
10
138.356544
20
53.290480
11
137.311181
21
55.524566
0
LINE
8
Layer 1
10
137.311181
20
55.524566
11
135.996315
21
57.668453
0
LINE
8
Layer 1
10
135.996315
20
57.668453
11
134.444963
21
59.702815
0
LINE
8
Layer 1
10
134.444963
20
59.702815
11
132.690141
21
61.608328
0
LINE
8
Layer 1
10
132.690141
20
61.608328
11
130.764864
21
63.365664
0
LINE
8
Layer 1
10
130.764864
20
63.365664
11
128.702150
21
64.955499
0
LINE
8
Layer 1
10
128.702150
20
64.955499
11
128.702150
21
64.955499
 0 
ENDSEC
 0 
EOF
