999
"DXF R12 Output" (www.mydxf.blogspot.com)
 0 
SECTION
 2 
HEADER
 9 
$ACADVER
 1 
AC1009
 9 
$EXTMIN
 10 
 0 
 20 
 0 
 9 
$EXTMAX
 10 
 8.5 
 20 
 11 
 0 
ENDSEC
 0 
SECTION
 2 
ENTITIES
0
LINE
8
Layer 1
10
73.592837
20
202.037431
11
72.702510
21
201.920403
0
LINE
8
Layer 1
10
72.702510
20
201.920403
11
71.919507
21
201.655837
0
LINE
8
Layer 1
10
71.919507
20
201.655837
11
70.726517
21
200.935000
0
LINE
8
Layer 1
10
70.726517
20
200.935000
11
69.677842
21
199.933183
0
LINE
8
Layer 1
10
69.677842
20
199.933183
11
68.839156
21
198.818333
0
LINE
8
Layer 1
10
68.839156
20
198.818333
11
67.137003
21
196.084306
0
LINE
8
Layer 1
10
67.137003
20
196.084306
11
66.907698
21
195.740347
0
LINE
8
Layer 1
10
66.907698
20
195.740347
11
65.681795
21
195.713889
0
LINE
8
Layer 1
10
65.681795
20
195.713889
11
62.674365
21
195.563958
0
LINE
8
Layer 1
10
62.674365
20
195.563958
11
61.948608
21
195.423449
0
LINE
8
Layer 1
10
61.948608
20
195.423449
11
61.078045
21
195.105347
0
LINE
8
Layer 1
10
61.078045
20
195.105347
11
60.079483
21
194.440676
0
LINE
8
Layer 1
10
60.079483
20
194.440676
11
59.252420
21
193.509028
0
LINE
8
Layer 1
10
59.252420
20
193.509028
11
58.708483
21
192.206241
0
LINE
8
Layer 1
10
58.708483
20
192.206241
11
58.579614
21
191.435658
0
LINE
8
Layer 1
10
58.579614
20
191.435658
11
58.590962
21
190.642708
0
LINE
8
Layer 1
10
58.590962
20
190.642708
11
59.002529
21
189.243912
0
LINE
8
Layer 1
10
59.002529
20
189.243912
11
59.666934
21
188.226181
0
LINE
8
Layer 1
10
59.666934
20
188.226181
11
61.020613
21
187.011814
0
LINE
8
Layer 1
10
61.020613
20
187.011814
11
62.409781
21
186.268264
0
LINE
8
Layer 1
10
62.409781
20
186.268264
11
63.415198
21
185.730278
0
LINE
8
Layer 1
10
63.415198
20
185.730278
11
63.120409
21
184.895466
0
LINE
8
Layer 1
10
63.120409
20
184.895466
11
62.938948
21
183.984028
0
LINE
8
Layer 1
10
62.938948
20
183.984028
11
62.911571
21
183.138744
0
LINE
8
Layer 1
10
62.911571
20
183.138744
11
63.042702
21
182.204323
0
LINE
8
Layer 1
10
63.042702
20
182.204323
11
63.399768
21
181.235917
0
LINE
8
Layer 1
10
63.399768
20
181.235917
11
64.050198
21
180.288681
0
LINE
8
Layer 1
10
64.050198
20
180.288681
11
64.781164
21
179.658200
0
LINE
8
Layer 1
10
64.781164
20
179.658200
11
65.621933
21
179.222469
0
LINE
8
Layer 1
10
65.621933
20
179.222469
11
66.508067
21
178.964861
0
LINE
8
Layer 1
10
66.508067
20
178.964861
11
67.375128
21
178.868749
0
LINE
8
Layer 1
10
67.375128
20
178.868749
11
67.269295
21
178.251388
0
LINE
8
Layer 1
10
67.269295
20
178.251388
11
66.733121
21
175.693001
0
LINE
8
Layer 1
10
66.733121
20
175.693001
11
66.087490
21
173.991595
0
LINE
8
Layer 1
10
66.087490
20
173.991595
11
64.976240
21
172.545208
0
LINE
8
Layer 1
10
64.976240
20
172.545208
11
63.767976
21
171.486875
0
LINE
8
Layer 1
10
63.767976
20
171.486875
11
61.042767
21
169.864097
0
LINE
8
Layer 1
10
61.042767
20
169.864097
11
59.328284
21
168.849921
0
LINE
8
Layer 1
10
59.328284
20
168.849921
11
58.026517
21
168.285417
0
LINE
8
Layer 1
10
58.026517
20
168.285417
11
56.539519
21
167.676806
0
LINE
8
Layer 1
10
56.539519
20
167.676806
11
55.124920
21
166.944861
0
LINE
8
Layer 1
10
55.124920
20
166.944861
11
53.832026
21
166.179067
0
LINE
8
Layer 1
10
53.832026
20
166.179067
11
52.549642
21
165.119236
0
LINE
8
Layer 1
10
52.549642
20
165.119236
11
51.757075
21
164.223797
0
LINE
8
Layer 1
10
51.757075
20
164.223797
11
51.216162
21
163.385381
0
LINE
8
Layer 1
10
51.216162
20
163.385381
11
50.521170
21
161.538542
0
LINE
8
Layer 1
10
50.521170
20
161.538542
11
50.223402
21
159.853834
0
LINE
8
Layer 1
10
50.223402
20
159.853834
11
50.344781
21
157.993125
0
LINE
8
Layer 1
10
50.344781
20
157.993125
11
48.995703
21
157.056262
0
LINE
8
Layer 1
10
48.995703
20
157.056262
11
48.478011
21
156.452841
0
LINE
8
Layer 1
10
48.478011
20
156.452841
11
48.113462
21
155.770625
0
LINE
8
Layer 1
10
48.113462
20
155.770625
11
47.813179
21
154.831965
0
LINE
8
Layer 1
10
47.813179
20
154.831965
11
47.738538
21
154.246258
0
LINE
8
Layer 1
10
47.738538
20
154.246258
11
47.840059
21
153.486389
0
LINE
8
Layer 1
10
47.840059
20
153.486389
11
48.042906
21
152.119375
0
LINE
8
Layer 1
10
48.042906
20
152.119375
11
47.478462
21
151.907708
0
LINE
8
Layer 1
10
47.478462
20
151.907708
11
46.499770
21
151.470789
0
LINE
8
Layer 1
10
46.499770
20
151.470789
11
45.923761
21
150.846240
0
LINE
8
Layer 1
10
45.923761
20
150.846240
11
45.300059
21
149.579375
0
LINE
8
Layer 1
10
45.300059
20
149.579375
11
45.035753
21
148.099952
0
LINE
8
Layer 1
10
45.035753
20
148.099952
11
45.264781
21
146.695417
0
LINE
8
Layer 1
10
45.264781
20
146.695417
11
44.779712
21
146.589583
0
LINE
8
Layer 1
10
44.779712
20
146.589583
11
43.544990
21
146.130972
0
LINE
8
Layer 1
10
43.544990
20
146.130972
11
42.700582
21
145.889068
0
LINE
8
Layer 1
10
42.700582
20
145.889068
11
42.239712
21
145.610625
0
LINE
8
Layer 1
10
42.239712
20
145.610625
11
41.322490
21
145.010903
0
LINE
8
Layer 1
10
41.322490
20
145.010903
11
39.664434
21
143.564514
0
LINE
8
Layer 1
10
39.664434
20
143.564514
11
38.641669
21
142.519055
0
LINE
8
Layer 1
10
38.641669
20
142.519055
11
37.732976
21
141.209722
0
LINE
8
Layer 1
10
37.732976
20
141.209722
11
37.379100
21
140.368737
0
LINE
8
Layer 1
10
37.379100
20
140.368737
11
37.173191
21
139.529016
0
LINE
8
Layer 1
10
37.173191
20
139.529016
11
37.053878
21
138.131736
0
LINE
8
Layer 1
10
37.053878
20
138.131736
11
37.139046
21
136.844711
0
LINE
8
Layer 1
10
37.139046
20
136.844711
11
37.591865
21
135.309514
0
LINE
8
Layer 1
10
37.591865
20
135.309514
11
38.050476
21
134.586320
0
LINE
8
Layer 1
10
38.050476
20
134.586320
11
37.397837
21
134.348195
0
LINE
8
Layer 1
10
37.397837
20
134.348195
11
37.053878
21
134.145347
0
LINE
8
Layer 1
10
37.053878
20
134.145347
11
34.893115
21
133.677917
0
LINE
8
Layer 1
10
34.893115
20
133.677917
11
33.085128
21
133.254583
0
LINE
8
Layer 1
10
33.085128
20
133.254583
11
32.063380
21
133.015636
0
LINE
8
Layer 1
10
32.063380
20
133.015636
11
30.977284
21
132.628403
0
LINE
8
Layer 1
10
30.977284
20
132.628403
11
28.640131
21
132.108056
0
LINE
8
Layer 1
10
28.640131
20
132.108056
11
27.237839
21
131.737639
0
LINE
8
Layer 1
10
27.237839
20
131.737639
11
26.505825
21
131.393681
0
LINE
8
Layer 1
10
26.505825
20
131.393681
11
25.359298
21
131.040903
0
LINE
8
Layer 1
10
25.359298
20
131.040903
11
23.886450
21
130.335347
0
LINE
8
Layer 1
10
23.886450
20
130.335347
11
22.405966
21
129.465717
0
LINE
8
Layer 1
10
22.405966
20
129.465717
11
20.967214
21
128.447986
0
LINE
8
Layer 1
10
20.967214
20
128.447986
11
19.525179
21
127.040041
0
LINE
8
Layer 1
10
19.525179
20
127.040041
11
18.462492
21
125.475833
0
LINE
8
Layer 1
10
18.462492
20
125.475833
11
17.647900
21
123.773297
0
LINE
8
Layer 1
10
17.647900
20
123.773297
11
17.393037
21
122.773088
0
LINE
8
Layer 1
10
17.393037
20
122.773088
11
17.298325
21
121.586458
0
LINE
8
Layer 1
10
17.298325
20
121.586458
11
17.379699
21
120.473505
0
LINE
8
Layer 1
10
17.379699
20
120.473505
11
17.596902
21
119.572580
0
LINE
8
Layer 1
10
17.596902
20
119.572580
11
18.277284
21
118.067500
0
LINE
8
Layer 1
10
18.277284
20
118.067500
11
19.134173
21
116.640823
0
LINE
8
Layer 1
10
19.134173
20
116.640823
11
20.473325
21
115.262917
0
LINE
8
Layer 1
10
20.473325
20
115.262917
11
21.735114
21
114.463371
0
LINE
8
Layer 1
10
21.735114
20
114.463371
11
22.932787
21
114.056984
0
LINE
8
Layer 1
10
22.932787
20
114.056984
11
24.080330
21
113.922834
0
LINE
8
Layer 1
10
24.080330
20
113.922834
11
25.191728
21
113.940000
0
LINE
8
Layer 1
10
25.191728
20
113.940000
11
26.289478
21
114.039949
0
LINE
8
Layer 1
10
26.289478
20
114.039949
11
27.390754
21
114.278222
0
LINE
8
Layer 1
10
27.390754
20
114.278222
11
28.501562
21
114.720005
0
LINE
8
Layer 1
10
28.501562
20
114.720005
11
29.627909
21
115.430486
0
LINE
8
Layer 1
10
29.627909
20
115.430486
11
29.857215
21
115.624514
0
LINE
8
Layer 1
10
29.857215
20
115.624514
11
30.102180
21
114.242344
0
LINE
8
Layer 1
10
30.102180
20
114.242344
11
30.412547
21
113.502181
0
LINE
8
Layer 1
10
30.412547
20
113.502181
11
30.853812
21
112.828750
0
LINE
8
Layer 1
10
30.853812
20
112.828750
11
31.903872
21
111.893047
0
LINE
8
Layer 1
10
31.903872
20
111.893047
11
32.891101
21
111.400000
0
LINE
8
Layer 1
10
32.891101
20
111.400000
11
34.813740
21
110.888472
0
LINE
8
Layer 1
10
34.813740
20
110.888472
11
34.868320
21
109.550383
0
LINE
8
Layer 1
10
34.868320
20
109.550383
11
35.157698
21
108.092708
0
LINE
8
Layer 1
10
35.157698
20
108.092708
11
35.807177
21
106.812699
0
LINE
8
Layer 1
10
35.807177
20
106.812699
11
36.396304
21
106.129512
0
LINE
8
Layer 1
10
36.396304
20
106.129512
11
37.159712
21
105.570347
0
LINE
8
Layer 1
10
37.159712
20
105.570347
11
37.933034
21
105.233640
0
LINE
8
Layer 1
10
37.933034
20
105.233640
11
38.548974
21
105.089518
0
LINE
8
Layer 1
10
38.548974
20
105.089518
11
39.285198
21
105.067639
0
LINE
8
Layer 1
10
39.285198
20
105.067639
11
40.744044
21
105.326725
0
LINE
8
Layer 1
10
40.744044
20
105.326725
11
41.983948
21
105.984861
0
LINE
8
Layer 1
10
41.983948
20
105.984861
11
42.169156
21
105.658542
0
LINE
8
Layer 1
10
42.169156
20
105.658542
11
42.089781
21
105.623264
0
LINE
8
Layer 1
10
42.089781
20
105.623264
11
40.422906
21
105.032361
0
LINE
8
Layer 1
10
40.422906
20
105.032361
11
38.905962
21
104.529653
0
LINE
8
Layer 1
10
38.905962
20
104.529653
11
38.331730
21
104.427899
0
LINE
8
Layer 1
10
38.331730
20
104.427899
11
38.314801
21
104.416256
0
LINE
8
Layer 1
10
38.314801
20
104.416256
11
38.676656
21
104.415000
0
LINE
8
Layer 1
10
38.676656
20
104.415000
11
37.207624
21
104.272983
0
LINE
8
Layer 1
10
37.207624
20
104.272983
11
35.986726
21
103.735903
0
LINE
8
Layer 1
10
35.986726
20
103.735903
11
36.280429
21
103.894620
0
LINE
8
Layer 1
10
36.280429
20
103.894620
11
35.880892
21
103.744722
0
LINE
8
Layer 1
10
35.880892
20
103.744722
11
34.804920
21
103.488958
0
LINE
8
Layer 1
10
34.804920
20
103.488958
11
32.573991
21
102.918886
0
LINE
8
Layer 1
10
32.573991
20
102.918886
11
30.624506
21
102.148403
0
LINE
8
Layer 1
10
30.624506
20
102.148403
11
31.012562
21
102.157222
0
LINE
8
Layer 1
10
31.012562
20
102.157222
11
30.509853
21
102.104306
0
LINE
8
Layer 1
10
30.509853
20
102.104306
11
30.254090
21
101.998472
0
LINE
8
Layer 1
10
30.254090
20
101.998472
11
30.359923
21
102.086667
0
LINE
8
Layer 1
10
30.359923
20
102.086667
11
29.310653
21
101.888790
0
LINE
8
Layer 1
10
29.310653
20
101.888790
11
28.366728
21
101.469306
0
LINE
8
Layer 1
10
28.366728
20
101.469306
11
26.364714
21
100.516806
0
LINE
8
Layer 1
10
26.364714
20
100.516806
11
24.648896
21
99.682934
0
LINE
8
Layer 1
10
24.648896
20
99.682934
11
23.817586
21
99.094612
0
LINE
8
Layer 1
10
23.817586
20
99.094612
11
22.881034
21
98.197292
0
LINE
8
Layer 1
10
22.881034
20
98.197292
11
22.278057
21
97.432429
0
LINE
8
Layer 1
10
22.278057
20
97.432429
11
21.832411
21
96.626332
0
LINE
8
Layer 1
10
21.832411
20
96.626332
11
21.363001
21
94.941277
0
LINE
8
Layer 1
10
21.363001
20
94.941277
11
21.372590
21
93.243814
0
LINE
8
Layer 1
10
21.372590
20
93.243814
11
21.760964
21
91.635625
0
LINE
8
Layer 1
10
21.760964
20
91.635625
11
21.328812
21
91.450417
0
LINE
8
Layer 1
10
21.328812
20
91.450417
11
21.575756
21
91.432778
0
LINE
8
Layer 1
10
21.575756
20
91.432778
11
21.214159
21
91.397500
0
LINE
8
Layer 1
10
21.214159
20
91.397500
11
20.914298
21
91.274028
0
LINE
8
Layer 1
10
20.914298
20
91.274028
11
21.099506
21
91.388681
0
LINE
8
Layer 1
10
21.099506
20
91.388681
11
19.794228
21
91.097639
0
LINE
8
Layer 1
10
19.794228
20
91.097639
11
19.079853
21
90.762500
0
LINE
8
Layer 1
10
19.079853
20
90.762500
11
18.303742
21
90.506736
0
LINE
8
Layer 1
10
18.303742
20
90.506736
11
16.910270
21
89.933472
0
LINE
8
Layer 1
10
16.910270
20
89.933472
11
16.345825
21
89.686528
0
LINE
8
Layer 1
10
16.345825
20
89.686528
11
15.524553
21
89.449847
0
LINE
8
Layer 1
10
15.524553
20
89.449847
11
14.714228
21
88.998611
0
LINE
8
Layer 1
10
14.714228
20
88.998611
11
14.096867
21
88.451806
0
LINE
8
Layer 1
10
14.096867
20
88.451806
11
14.035131
21
88.416528
0
LINE
8
Layer 1
10
14.035131
20
88.416528
11
12.865064
21
87.733924
0
LINE
8
Layer 1
10
12.865064
20
87.733924
11
11.918464
21
86.996597
0
LINE
8
Layer 1
10
11.918464
20
86.996597
11
9.828256
21
85.170972
0
LINE
8
Layer 1
10
9.828256
20
85.170972
11
8.542492
21
83.932179
0
LINE
8
Layer 1
10
8.542492
20
83.932179
11
7.499923
21
82.639792
0
LINE
8
Layer 1
10
7.499923
20
82.639792
11
7.066614
21
81.778507
0
LINE
8
Layer 1
10
7.066614
20
81.778507
11
6.780355
21
80.843134
0
LINE
8
Layer 1
10
6.780355
20
80.843134
11
6.573881
21
79.297222
0
LINE
8
Layer 1
10
6.573881
20
79.297222
11
6.676683
21
78.006577
0
LINE
8
Layer 1
10
6.676683
20
78.006577
11
6.977135
21
76.765821
0
LINE
8
Layer 1
10
6.977135
20
76.765821
11
7.463308
21
75.598158
0
LINE
8
Layer 1
10
7.463308
20
75.598158
11
8.123271
21
74.526794
0
LINE
8
Layer 1
10
8.123271
20
74.526794
11
8.945095
21
73.574932
0
LINE
8
Layer 1
10
8.945095
20
73.574932
11
9.916848
21
72.765776
0
LINE
8
Layer 1
10
9.916848
20
72.765776
11
11.026600
21
72.122532
0
LINE
8
Layer 1
10
11.026600
20
72.122532
11
12.262423
21
71.668403
0
LINE
8
Layer 1
10
12.262423
20
71.668403
11
12.835687
21
71.580208
0
LINE
8
Layer 1
10
12.835687
20
71.580208
11
12.782770
21
69.481181
0
LINE
8
Layer 1
10
12.782770
20
69.481181
11
12.756312
21
68.608056
0
LINE
8
Layer 1
10
12.756312
20
68.608056
11
12.033117
21
68.114167
0
LINE
8
Layer 1
10
12.033117
20
68.114167
11
11.239367
21
67.655556
0
LINE
8
Layer 1
10
11.239367
20
67.655556
11
10.267751
21
67.343308
0
LINE
8
Layer 1
10
10.267751
20
67.343308
11
9.704784
21
66.958820
0
LINE
8
Layer 1
10
9.704784
20
66.958820
11
8.487700
21
65.918125
0
LINE
8
Layer 1
10
8.487700
20
65.918125
11
7.949714
21
65.274306
0
LINE
8
Layer 1
10
7.949714
20
65.274306
11
7.458765
21
64.459122
0
LINE
8
Layer 1
10
7.458765
20
64.459122
11
7.242582
21
63.789616
0
LINE
8
Layer 1
10
7.242582
20
63.789616
11
7.147145
21
62.910695
0
LINE
8
Layer 1
10
7.147145
20
62.910695
11
7.267634
21
61.967946
0
LINE
8
Layer 1
10
7.267634
20
61.967946
11
7.575222
21
61.153845
0
LINE
8
Layer 1
10
7.575222
20
61.153845
11
8.311312
21
60.088472
0
LINE
8
Layer 1
10
8.311312
20
60.088472
11
9.043325
21
59.479931
0
LINE
8
Layer 1
10
9.043325
20
59.479931
11
9.911169
21
58.957693
0
LINE
8
Layer 1
10
9.911169
20
58.957693
11
10.688373
21
58.678304
0
LINE
8
Layer 1
10
10.688373
20
58.678304
11
12.050756
21
58.500972
0
LINE
8
Layer 1
10
12.050756
20
58.500972
11
14.149784
21
58.492153
0
LINE
8
Layer 1
10
14.149784
20
58.492153
11
12.765131
21
57.583750
0
LINE
8
Layer 1
10
12.765131
20
57.583750
11
11.591377
21
56.400073
0
LINE
8
Layer 1
10
11.591377
20
56.400073
11
10.687630
21
54.968509
0
LINE
8
Layer 1
10
10.687630
20
54.968509
11
10.095029
21
53.382743
0
LINE
8
Layer 1
10
10.095029
20
53.382743
11
9.854714
21
51.736458
0
LINE
8
Layer 1
10
9.854714
20
51.736458
11
9.870316
21
50.603946
0
LINE
8
Layer 1
10
9.870316
20
50.603946
11
10.119298
21
49.293472
0
LINE
8
Layer 1
10
10.119298
20
49.293472
11
10.736234
21
47.974238
0
LINE
8
Layer 1
10
10.736234
20
47.974238
11
11.495131
21
46.982778
0
LINE
8
Layer 1
10
11.495131
20
46.982778
11
12.288881
21
46.206667
0
LINE
8
Layer 1
10
12.288881
20
46.206667
11
12.694575
21
45.933264
0
LINE
8
Layer 1
10
12.694575
20
45.933264
11
12.456450
21
45.853889
0
LINE
8
Layer 1
10
12.456450
20
45.853889
11
10.078988
21
44.976460
0
LINE
8
Layer 1
10
10.078988
20
44.976460
11
8.005280
21
43.801668
0
LINE
8
Layer 1
10
8.005280
20
43.801668
11
6.298460
21
42.274948
0
LINE
8
Layer 1
10
6.298460
20
42.274948
11
5.602361
21
41.362564
0
LINE
8
Layer 1
10
5.602361
20
41.362564
11
5.021659
21
40.341736
0
LINE
8
Layer 1
10
5.021659
20
40.341736
11
4.595970
21
39.191139
0
LINE
8
Layer 1
10
4.595970
20
39.191139
11
4.381138
21
37.935558
0
LINE
8
Layer 1
10
4.381138
20
37.935558
11
4.409397
21
36.637319
0
LINE
8
Layer 1
10
4.409397
20
36.637319
11
4.712978
21
35.358750
0
LINE
8
Layer 1
10
4.712978
20
35.358750
11
5.281399
21
34.186525
0
LINE
8
Layer 1
10
5.281399
20
34.186525
11
6.052385
21
33.166954
0
LINE
8
Layer 1
10
6.052385
20
33.166954
11
6.980491
21
32.301805
0
LINE
8
Layer 1
10
6.980491
20
32.301805
11
8.020270
21
31.592847
0
LINE
8
Layer 1
10
8.020270
20
31.592847
11
8.994824
21
30.996055
0
LINE
8
Layer 1
10
8.994824
20
30.996055
11
9.652998
21
30.725580
0
LINE
8
Layer 1
10
9.652998
20
30.725580
11
10.577909
21
30.516875
0
LINE
8
Layer 1
10
10.577909
20
30.516875
11
11.589351
21
30.471785
0
LINE
8
Layer 1
10
11.589351
20
30.471785
11
12.424816
21
30.604093
0
LINE
8
Layer 1
10
12.424816
20
30.604093
11
13.532423
21
31.001945
0
LINE
8
Layer 1
10
13.532423
20
31.001945
11
15.476873
21
31.801060
0
LINE
8
Layer 1
10
15.476873
20
31.801060
11
16.349316
21
32.287296
0
LINE
8
Layer 1
10
16.349316
20
32.287296
11
17.245409
21
32.968681
0
LINE
8
Layer 1
10
17.245409
20
32.968681
11
17.315964
21
33.056875
0
LINE
8
Layer 1
10
17.315964
20
33.056875
11
17.298325
21
32.880486
0
LINE
8
Layer 1
10
17.298325
20
32.880486
11
17.359951
21
31.677507
0
LINE
8
Layer 1
10
17.359951
20
31.677507
11
17.801034
21
30.164097
0
LINE
8
Layer 1
10
17.801034
20
30.164097
11
18.704328
21
28.818716
0
LINE
8
Layer 1
10
18.704328
20
28.818716
11
19.626659
21
27.985695
0
LINE
8
Layer 1
10
19.626659
20
27.985695
11
20.616469
21
27.322569
0
LINE
8
Layer 1
10
20.616469
20
27.322569
11
21.556364
21
26.900624
0
LINE
8
Layer 1
10
21.556364
20
26.900624
11
23.392562
21
26.504028
0
LINE
8
Layer 1
10
23.392562
20
26.504028
11
24.345228
21
26.434029
0
LINE
8
Layer 1
10
24.345228
20
26.434029
11
25.421034
21
26.521667
0
LINE
8
Layer 1
10
25.421034
20
26.521667
11
26.246754
21
26.719376
0
LINE
8
Layer 1
10
26.246754
20
26.719376
11
27.220200
21
27.183125
0
LINE
8
Layer 1
10
27.220200
20
27.183125
11
28.141255
21
27.498249
0
LINE
8
Layer 1
10
28.141255
20
27.498249
11
28.879333
21
27.943014
0
LINE
8
Layer 1
10
28.879333
20
27.943014
11
29.980687
21
29.017570
0
LINE
8
Layer 1
10
29.980687
20
29.017570
11
30.943867
21
30.461696
0
LINE
8
Layer 1
10
30.943867
20
30.461696
11
31.264746
21
31.361240
0
LINE
8
Layer 1
10
31.264746
20
31.361240
11
31.427076
21
32.430695
0
LINE
8
Layer 1
10
31.427076
20
32.430695
11
38.456170
21
32.342500
0
LINE
8
Layer 1
10
38.456170
20
32.342500
11
41.992767
21
32.607083
0
LINE
8
Layer 1
10
41.992767
20
32.607083
11
43.492073
21
32.915764
0
LINE
8
Layer 1
10
43.492073
20
32.915764
11
44.444573
21
33.145070
0
LINE
8
Layer 1
10
44.444573
20
33.145070
11
44.829474
21
31.597265
0
LINE
8
Layer 1
10
44.829474
20
31.597265
11
45.670476
21
30.146458
0
LINE
8
Layer 1
10
45.670476
20
30.146458
11
46.421278
21
29.397331
0
LINE
8
Layer 1
10
46.421278
20
29.397331
11
47.274675
21
28.818321
0
LINE
8
Layer 1
10
47.274675
20
28.818321
11
48.181458
21
28.402875
0
LINE
8
Layer 1
10
48.181458
20
28.402875
11
49.092420
21
28.144445
0
LINE
8
Layer 1
10
49.092420
20
28.144445
11
50.468453
21
27.979843
0
LINE
8
Layer 1
10
50.468453
20
27.979843
11
51.823877
21
28.050984
0
LINE
8
Layer 1
10
51.823877
20
28.050984
11
53.136489
21
28.365087
0
LINE
8
Layer 1
10
53.136489
20
28.365087
11
54.384087
21
28.929375
0
LINE
8
Layer 1
10
54.384087
20
28.929375
11
55.214261
21
29.513473
0
LINE
8
Layer 1
10
55.214261
20
29.513473
11
55.964596
21
30.266274
0
LINE
8
Layer 1
10
55.964596
20
30.266274
11
56.597158
21
31.162015
0
LINE
8
Layer 1
10
56.597158
20
31.162015
11
57.074017
21
32.174931
0
LINE
8
Layer 1
10
57.074017
20
32.174931
11
57.116069
21
29.393261
0
LINE
8
Layer 1
10
57.116069
20
29.393261
11
56.985823
21
26.168889
0
LINE
8
Layer 1
10
56.985823
20
26.168889
11
56.716461
21
23.009294
0
LINE
8
Layer 1
10
56.716461
20
23.009294
11
56.324365
21
21.080070
0
LINE
8
Layer 1
10
56.324365
20
21.080070
11
55.654019
21
21.330239
0
LINE
8
Layer 1
10
55.654019
20
21.330239
11
54.525198
21
21.441667
0
LINE
8
Layer 1
10
54.525198
20
21.441667
11
52.927008
21
21.223028
0
LINE
8
Layer 1
10
52.927008
20
21.223028
11
51.614076
21
20.642560
0
LINE
8
Layer 1
10
51.614076
20
20.642560
11
50.555055
21
19.813416
0
LINE
8
Layer 1
10
50.555055
20
19.813416
11
49.718601
21
18.848750
0
LINE
8
Layer 1
10
49.718601
20
18.848750
11
48.810198
21
17.181875
0
LINE
8
Layer 1
10
48.810198
20
17.181875
11
47.857698
21
16.740903
0
LINE
8
Layer 1
10
47.857698
20
16.740903
11
47.002588
21
17.383250
0
LINE
8
Layer 1
10
47.002588
20
17.383250
11
46.137906
21
17.860972
0
LINE
8
Layer 1
10
46.137906
20
17.860972
11
45.061934
21
18.301945
0
LINE
8
Layer 1
10
45.061934
20
18.301945
11
44.021063
21
18.489996
0
LINE
8
Layer 1
10
44.021063
20
18.489996
11
42.821795
21
18.443056
0
LINE
8
Layer 1
10
42.821795
20
18.443056
11
41.857714
21
18.195854
0
LINE
8
Layer 1
10
41.857714
20
18.195854
11
41.174474
21
17.892939
0
LINE
8
Layer 1
10
41.174474
20
17.892939
11
40.105406
21
17.208333
0
LINE
8
Layer 1
10
40.105406
20
17.208333
11
38.614920
21
16.194097
0
LINE
8
Layer 1
10
38.614920
20
16.194097
11
37.935823
21
15.603195
0
LINE
8
Layer 1
10
37.935823
20
15.603195
11
37.510022
21
15.238278
0
LINE
8
Layer 1
10
37.510022
20
15.238278
11
36.886309
21
14.059792
0
LINE
8
Layer 1
10
36.886309
20
14.059792
11
36.569415
21
12.712306
0
LINE
8
Layer 1
10
36.569415
20
12.712306
11
36.641247
21
11.597086
0
LINE
8
Layer 1
10
36.641247
20
11.597086
11
36.941442
21
10.690163
0
LINE
8
Layer 1
10
36.941442
20
10.690163
11
37.309642
21
9.967570
0
LINE
8
Layer 1
10
37.309642
20
9.967570
11
38.073884
21
8.797433
0
LINE
8
Layer 1
10
38.073884
20
8.797433
11
38.985337
21
7.718611
0
LINE
8
Layer 1
10
38.985337
20
7.718611
11
39.891913
21
6.835840
0
LINE
8
Layer 1
10
39.891913
20
6.835840
11
41.296031
21
5.998820
0
LINE
8
Layer 1
10
41.296031
20
5.998820
11
42.801225
21
5.624057
0
LINE
8
Layer 1
10
42.801225
20
5.624057
11
44.030059
21
5.584306
0
LINE
8
Layer 1
10
44.030059
20
5.584306
11
45.696872
21
5.621635
0
LINE
8
Layer 1
10
45.696872
20
5.621635
11
46.588449
21
5.792495
0
LINE
8
Layer 1
10
46.588449
20
5.792495
11
47.698948
21
6.175208
0
LINE
8
Layer 1
10
47.698948
20
6.175208
11
50.222700
21
7.298226
0
LINE
8
Layer 1
10
50.222700
20
7.298226
11
52.276240
21
8.530000
0
LINE
8
Layer 1
10
52.276240
20
8.530000
11
52.434990
21
7.815625
0
LINE
8
Layer 1
10
52.434990
20
7.815625
11
52.793433
21
7.122491
0
LINE
8
Layer 1
10
52.793433
20
7.122491
11
53.337372
21
6.424412
0
LINE
8
Layer 1
10
53.337372
20
6.424412
11
54.032047
21
5.806784
0
LINE
8
Layer 1
10
54.032047
20
5.806784
11
54.842698
21
5.355000
0
LINE
8
Layer 1
10
54.842698
20
5.355000
11
55.666983
21
5.113887
0
LINE
8
Layer 1
10
55.666983
20
5.113887
11
56.418192
21
5.038470
0
LINE
8
Layer 1
10
56.418192
20
5.038470
11
57.656101
21
5.187431
0
LINE
8
Layer 1
10
57.656101
20
5.187431
11
59.401661
21
5.847283
0
LINE
8
Layer 1
10
59.401661
20
5.847283
11
60.884017
21
6.783750
0
LINE
8
Layer 1
10
60.884017
20
6.783750
11
61.545476
21
7.357014
0
LINE
8
Layer 1
10
61.545476
20
7.357014
11
62.021726
21
7.277639
0
LINE
8
Layer 1
10
62.021726
20
7.277639
11
62.233392
21
7.260000
0
LINE
8
Layer 1
10
62.233392
20
7.260000
11
62.471517
21
7.127708
0
LINE
8
Layer 1
10
62.471517
20
7.127708
11
63.097698
21
6.907222
0
LINE
8
Layer 1
10
63.097698
20
6.907222
11
63.053601
21
6.986597
0
LINE
8
Layer 1
10
63.053601
20
6.986597
11
63.274087
21
6.845486
0
LINE
8
Layer 1
10
63.274087
20
6.845486
11
63.291726
21
6.836667
0
LINE
8
Layer 1
10
63.291726
20
6.836667
11
63.309365
21
6.827847
0
LINE
8
Layer 1
10
63.309365
20
6.827847
11
64.464712
21
5.981181
0
LINE
8
Layer 1
10
64.464712
20
5.981181
11
66.023787
21
4.800242
0
LINE
8
Layer 1
10
66.023787
20
4.800242
11
67.523685
21
3.853933
0
LINE
8
Layer 1
10
67.523685
20
3.853933
11
69.017656
21
3.157654
0
LINE
8
Layer 1
10
69.017656
20
3.157654
11
70.558948
21
2.726806
0
LINE
8
Layer 1
10
70.558948
20
2.726806
11
72.540326
21
2.576890
0
LINE
8
Layer 1
10
72.540326
20
2.576890
11
74.395406
21
2.779722
0
LINE
8
Layer 1
10
74.395406
20
2.779722
11
76.197751
21
3.202315
0
LINE
8
Layer 1
10
76.197751
20
3.202315
11
77.107388
21
3.570058
0
LINE
8
Layer 1
10
77.107388
20
3.570058
11
78.055476
21
4.111458
0
LINE
8
Layer 1
10
78.055476
20
4.111458
11
79.265595
21
5.030556
0
LINE
8
Layer 1
10
79.265595
20
5.030556
11
80.248061
21
6.065931
0
LINE
8
Layer 1
10
80.248061
20
6.065931
11
80.987515
21
7.252958
0
LINE
8
Layer 1
10
80.987515
20
7.252958
11
81.468601
21
8.627014
0
LINE
8
Layer 1
10
81.468601
20
8.627014
11
82.508490
21
8.352725
0
LINE
8
Layer 1
10
82.508490
20
8.352725
11
83.538346
21
8.239062
0
LINE
8
Layer 1
10
83.538346
20
8.239062
11
85.543184
21
8.415347
0
LINE
8
Layer 1
10
85.543184
20
8.415347
11
86.072351
21
7.886181
0
LINE
8
Layer 1
10
86.072351
20
7.886181
11
87.304902
21
6.811435
0
LINE
8
Layer 1
10
87.304902
20
6.811435
11
88.841656
21
5.813611
0
LINE
8
Layer 1
10
88.841656
20
5.813611
11
90.684920
21
4.852292
0
LINE
8
Layer 1
10
90.684920
20
4.852292
11
92.449868
21
4.163079
0
LINE
8
Layer 1
10
92.449868
20
4.163079
11
94.233921
21
3.893457
0
LINE
8
Layer 1
10
94.233921
20
3.893457
11
95.987518
21
4.010648
0
LINE
8
Layer 1
10
95.987518
20
4.010648
11
97.661101
21
4.481875
0
LINE
8
Layer 1
10
97.661101
20
4.481875
11
99.251445
21
5.358743
0
LINE
8
Layer 1
10
99.251445
20
5.358743
11
100.648031
21
6.681175
0
LINE
8
Layer 1
10
100.648031
20
6.681175
11
101.207882
21
7.493753
0
LINE
8
Layer 1
10
101.207882
20
7.493753
11
101.640353
21
8.398853
0
LINE
8
Layer 1
10
101.640353
20
8.398853
11
101.919132
21
9.390185
0
LINE
8
Layer 1
10
101.919132
20
9.390185
11
102.017906
21
10.461458
0
LINE
8
Layer 1
10
102.017906
20
10.461458
11
101.733463
21
12.319090
0
LINE
8
Layer 1
10
101.733463
20
12.319090
11
100.941156
21
14.077864
0
LINE
8
Layer 1
10
100.941156
20
14.077864
11
99.732519
21
15.580657
0
LINE
8
Layer 1
10
99.732519
20
15.580657
11
98.199087
21
16.670347
0
LINE
8
Layer 1
10
98.199087
20
16.670347
11
96.633008
21
17.267629
0
LINE
8
Layer 1
10
96.633008
20
17.267629
11
95.697217
21
17.431057
0
LINE
8
Layer 1
10
95.697217
20
17.431057
11
94.680128
21
17.428820
0
LINE
8
Layer 1
10
94.680128
20
17.428820
11
93.679089
21
17.232520
0
LINE
8
Layer 1
10
93.679089
20
17.232520
11
92.796074
21
16.891739
0
LINE
8
Layer 1
10
92.796074
20
16.891739
11
91.381656
21
16.008889
0
LINE
8
Layer 1
10
91.381656
20
16.008889
11
91.284642
21
15.938333
0
LINE
8
Layer 1
10
91.284642
20
15.938333
11
90.861309
21
17.305347
0
LINE
8
Layer 1
10
90.861309
20
17.305347
11
90.046822
21
18.508198
0
LINE
8
Layer 1
10
90.046822
20
18.508198
11
89.378953
21
19.163084
0
LINE
8
Layer 1
10
89.378953
20
19.163084
11
88.568253
21
19.686597
0
LINE
8
Layer 1
10
88.568253
20
19.686597
11
87.098231
21
20.156721
0
LINE
8
Layer 1
10
87.098231
20
20.156721
11
85.966517
21
20.242222
0
LINE
8
Layer 1
10
85.966517
20
20.242222
11
84.932520
21
20.262639
0
LINE
8
Layer 1
10
84.932520
20
20.262639
11
83.682281
21
20.083472
0
LINE
8
Layer 1
10
83.682281
20
20.083472
11
83.400059
21
20.930139
0
LINE
8
Layer 1
10
83.400059
20
20.930139
11
83.541555
21
20.577206
0
LINE
8
Layer 1
10
83.541555
20
20.577206
11
83.536764
21
20.640337
0
LINE
8
Layer 1
10
83.536764
20
20.640337
11
83.382420
21
21.415208
0
LINE
8
Layer 1
10
83.382420
20
21.415208
11
83.179573
21
23.840556
0
LINE
8
Layer 1
10
83.179573
20
23.840556
11
82.967906
21
30.322847
0
LINE
8
Layer 1
10
82.967906
20
30.322847
11
82.879712
21
33.277361
0
LINE
8
Layer 1
10
82.879712
20
33.277361
11
84.444819
21
33.285555
0
LINE
8
Layer 1
10
84.444819
20
33.285555
11
85.877183
21
33.671364
0
LINE
8
Layer 1
10
85.877183
20
33.671364
11
87.153571
21
34.325397
0
LINE
8
Layer 1
10
87.153571
20
34.325397
11
88.250753
21
35.138264
0
LINE
8
Layer 1
10
88.250753
20
35.138264
11
89.060538
21
35.892022
0
LINE
8
Layer 1
10
89.060538
20
35.892022
11
89.776517
21
36.778681
0
LINE
8
Layer 1
10
89.776517
20
36.778681
11
89.899990
21
36.761042
0
LINE
8
Layer 1
10
89.899990
20
36.761042
11
92.492906
21
36.258333
0
LINE
8
Layer 1
10
92.492906
20
36.258333
11
93.533601
21
36.002570
0
LINE
8
Layer 1
10
93.533601
20
36.002570
11
95.659087
21
35.349931
0
LINE
8
Layer 1
10
95.659087
20
35.349931
11
96.663191
21
35.047476
0
LINE
8
Layer 1
10
96.663191
20
35.047476
11
97.131934
21
34.900139
0
LINE
8
Layer 1
10
97.131934
20
34.900139
11
99.336795
21
34.212222
0
LINE
8
Layer 1
10
99.336795
20
34.212222
11
100.190493
21
33.920684
0
LINE
8
Layer 1
10
100.190493
20
33.920684
11
100.499948
21
33.810671
0
LINE
8
Layer 1
10
100.499948
20
33.810671
11
100.527420
21
33.824167
0
LINE
8
Layer 1
10
100.527420
20
33.824167
11
101.514521
21
33.434826
0
LINE
8
Layer 1
10
101.514521
20
33.434826
11
102.326587
21
33.295000
0
LINE
8
Layer 1
10
102.326587
20
33.295000
11
103.261448
21
32.951042
0
LINE
8
Layer 1
10
103.261448
20
32.951042
11
104.002281
21
32.765833
0
LINE
8
Layer 1
10
104.002281
20
32.765833
11
104.884226
21
32.404236
0
LINE
8
Layer 1
10
104.884226
20
32.404236
11
105.960198
21
32.166111
0
LINE
8
Layer 1
10
105.960198
20
32.166111
11
106.260059
21
32.042639
0
LINE
8
Layer 1
10
106.260059
20
32.042639
11
107.000892
21
31.778056
0
LINE
8
Layer 1
10
107.000892
20
31.778056
11
108.412003
21
31.487014
0
LINE
8
Layer 1
10
108.412003
20
31.487014
11
110.202351
21
31.204792
0
LINE
8
Layer 1
10
110.202351
20
31.204792
11
110.634503
21
30.393403
0
LINE
8
Layer 1
10
110.634503
20
30.393403
11
111.423633
21
29.294282
0
LINE
8
Layer 1
10
111.423633
20
29.294282
11
112.160267
21
28.647153
0
LINE
8
Layer 1
10
112.160267
20
28.647153
11
113.844781
21
27.535903
0
LINE
8
Layer 1
10
113.844781
20
27.535903
11
115.643948
21
26.821528
0
LINE
8
Layer 1
10
115.643948
20
26.821528
11
116.652475
21
26.558868
0
LINE
8
Layer 1
10
116.652475
20
26.558868
11
117.376542
21
26.561708
0
LINE
8
Layer 1
10
117.376542
20
26.561708
11
118.404434
21
26.777431
0
LINE
8
Layer 1
10
118.404434
20
26.777431
11
119.427490
21
27.042014
0
LINE
8
Layer 1
10
119.427490
20
27.042014
11
120.688912
21
27.489140
0
LINE
8
Layer 1
10
120.688912
20
27.489140
11
121.618779
21
28.098313
0
LINE
8
Layer 1
10
121.618779
20
28.098313
11
122.312898
21
28.812131
0
LINE
8
Layer 1
10
122.312898
20
28.812131
11
122.867073
21
29.573195
0
LINE
8
Layer 1
10
122.867073
20
29.573195
11
123.351025
21
30.361502
0
LINE
8
Layer 1
10
123.351025
20
30.361502
11
123.740198
21
31.248889
0
LINE
8
Layer 1
10
123.740198
20
31.248889
11
124.824990
21
30.763820
0
LINE
8
Layer 1
10
124.824990
20
30.763820
11
125.151309
21
30.631528
0
LINE
8
Layer 1
10
125.151309
20
30.631528
11
125.107212
21
30.137639
0
LINE
8
Layer 1
10
125.107212
20
30.137639
11
125.300058
21
28.603985
0
LINE
8
Layer 1
10
125.300058
20
28.603985
11
125.794183
21
27.478773
0
LINE
8
Layer 1
10
125.794183
20
27.478773
11
126.462965
21
26.635685
0
LINE
8
Layer 1
10
126.462965
20
26.635685
11
127.179781
21
25.948403
0
LINE
8
Layer 1
10
127.179781
20
25.948403
11
128.690768
21
24.780244
0
LINE
8
Layer 1
10
128.690768
20
24.780244
11
130.434156
21
23.858195
0
LINE
8
Layer 1
10
130.434156
20
23.858195
11
131.563651
21
23.375487
0
LINE
8
Layer 1
10
131.563651
20
23.375487
11
132.348763
21
23.190268
0
LINE
8
Layer 1
10
132.348763
20
23.190268
11
133.344573
21
23.143820
0
LINE
8
Layer 1
10
133.344573
20
23.143820
11
134.310953
21
23.260940
0
LINE
8
Layer 1
10
134.310953
20
23.260940
11
135.037463
21
23.480634
0
LINE
8
Layer 1
10
135.037463
20
23.480634
11
136.140337
21
24.016945
0
LINE
8
Layer 1
10
136.140337
20
24.016945
11
137.358271
21
24.700541
0
LINE
8
Layer 1
10
137.358271
20
24.700541
11
138.499252
21
25.620782
0
LINE
8
Layer 1
10
138.499252
20
25.620782
11
139.448554
21
26.799642
0
LINE
8
Layer 1
10
139.448554
20
26.799642
11
140.091448
21
28.259097
0
LINE
8
Layer 1
10
140.091448
20
28.259097
11
140.308711
21
29.831487
0
LINE
8
Layer 1
10
140.308711
20
29.831487
11
140.128970
21
31.316170
0
LINE
8
Layer 1
10
140.128970
20
31.316170
11
139.659270
21
32.685633
0
LINE
8
Layer 1
10
139.659270
20
32.685633
11
139.006656
21
33.912361
0
LINE
8
Layer 1
10
139.006656
20
33.912361
11
138.715615
21
34.318056
0
LINE
8
Layer 1
10
138.715615
20
34.318056
11
140.141831
21
34.934343
0
LINE
8
Layer 1
10
140.141831
20
34.934343
11
141.308531
21
35.702708
0
LINE
8
Layer 1
10
141.308531
20
35.702708
11
142.357169
21
36.654717
0
LINE
8
Layer 1
10
142.357169
20
36.654717
11
142.905638
21
37.358819
0
LINE
8
Layer 1
10
142.905638
20
37.358819
11
143.381101
21
38.286806
0
LINE
8
Layer 1
10
143.381101
20
38.286806
11
143.678875
21
39.245494
0
LINE
8
Layer 1
10
143.678875
20
39.245494
11
143.792289
21
40.054422
0
LINE
8
Layer 1
10
143.792289
20
40.054422
11
143.786795
21
41.514722
0
LINE
8
Layer 1
10
143.786795
20
41.514722
11
143.710008
21
42.729940
0
LINE
8
Layer 1
10
143.710008
20
42.729940
11
143.485176
21
43.931939
0
LINE
8
Layer 1
10
143.485176
20
43.931939
11
142.624553
21
46.224250
0
LINE
8
Layer 1
10
142.624553
20
46.224250
11
141.271283
21
48.247596
0
LINE
8
Layer 1
10
141.271283
20
48.247596
11
140.430643
21
49.113388
0
LINE
8
Layer 1
10
140.430643
20
49.113388
11
139.491726
21
49.857917
0
LINE
8
Layer 1
10
139.491726
20
49.857917
11
137.025960
21
51.272210
0
LINE
8
Layer 1
10
137.025960
20
51.272210
11
134.191240
21
52.300903
0
LINE
8
Layer 1
10
134.191240
20
52.300903
11
134.914922
21
53.318912
0
LINE
8
Layer 1
10
134.914922
20
53.318912
11
135.445993
21
54.467228
0
LINE
8
Layer 1
10
135.445993
20
54.467228
11
135.773021
21
55.714187
0
LINE
8
Layer 1
10
135.773021
20
55.714187
11
135.884573
21
57.028125
0
LINE
8
Layer 1
10
135.884573
20
57.028125
11
135.762488
21
58.357156
0
LINE
8
Layer 1
10
135.762488
20
58.357156
11
135.240753
21
59.912083
0
LINE
8
Layer 1
10
135.240753
20
59.912083
11
134.403525
21
61.138966
0
LINE
8
Layer 1
10
134.403525
20
61.138966
11
133.520962
21
62.028750
0
LINE
8
Layer 1
10
133.520962
20
62.028750
11
132.080997
21
63.231742
0
LINE
8
Layer 1
10
132.080997
20
63.231742
11
130.566448
21
64.224792
0
LINE
8
Layer 1
10
130.566448
20
64.224792
11
129.472638
21
64.887550
0
LINE
8
Layer 1
10
129.472638
20
64.887550
11
128.088184
21
65.362500
0
LINE
8
Layer 1
10
128.088184
20
65.362500
11
128.097003
21
66.103333
0
LINE
8
Layer 1
10
128.097003
20
66.103333
11
127.999990
21
68.422847
0
LINE
8
Layer 1
10
127.999990
20
68.422847
11
127.991170
21
68.687431
0
LINE
8
Layer 1
10
127.991170
20
68.687431
11
128.370406
21
68.863820
0
LINE
8
Layer 1
10
128.370406
20
68.863820
11
129.225892
21
69.075486
0
LINE
8
Layer 1
10
129.225892
20
69.075486
11
130.160753
21
69.419445
0
LINE
8
Layer 1
10
130.160753
20
69.419445
11
131.070869
21
69.569156
0
LINE
8
Layer 1
10
131.070869
20
69.569156
11
131.859760
21
69.878889
0
LINE
8
Layer 1
10
131.859760
20
69.878889
11
132.603922
21
70.393256
0
LINE
8
Layer 1
10
132.603922
20
70.393256
11
133.379851
21
71.156875
0
LINE
8
Layer 1
10
133.379851
20
71.156875
11
134.104935
21
71.865257
0
LINE
8
Layer 1
10
134.104935
20
71.865257
11
134.489482
21
72.671112
0
LINE
8
Layer 1
10
134.489482
20
72.671112
11
134.702767
21
74.014375
0
LINE
8
Layer 1
10
134.702767
20
74.014375
11
134.651480
21
74.819149
0
LINE
8
Layer 1
10
134.651480
20
74.819149
11
134.462209
21
75.536584
0
LINE
8
Layer 1
10
134.462209
20
75.536584
11
133.944295
21
76.554375
0
LINE
8
Layer 1
10
133.944295
20
76.554375
11
133.291656
21
77.295208
0
LINE
8
Layer 1
10
133.291656
20
77.295208
11
132.555949
21
77.943388
0
LINE
8
Layer 1
10
132.555949
20
77.943388
11
131.998732
21
78.279760
0
LINE
8
Layer 1
10
131.998732
20
78.279760
11
131.122073
21
78.565208
0
LINE
8
Layer 1
10
131.122073
20
78.565208
11
129.331726
21
79.050278
0
LINE
8
Layer 1
10
129.331726
20
79.050278
11
128.282212
21
79.235486
0
LINE
8
Layer 1
10
128.282212
20
79.235486
11
128.343948
21
79.755833
0
LINE
8
Layer 1
10
128.343948
20
79.755833
11
128.495068
21
80.679730
0
LINE
8
Layer 1
10
128.495068
20
80.679730
11
128.370406
21
82.075347
0
LINE
8
Layer 1
10
128.370406
20
82.075347
11
128.132983
21
82.684462
0
LINE
8
Layer 1
10
128.132983
20
82.684462
11
127.744226
21
83.301250
0
LINE
8
Layer 1
10
127.744226
20
83.301250
11
128.141101
21
83.803958
0
LINE
8
Layer 1
10
128.141101
20
83.803958
11
128.677292
21
84.829455
0
LINE
8
Layer 1
10
128.677292
20
84.829455
11
129.015948
21
85.891070
0
LINE
8
Layer 1
10
129.015948
20
85.891070
11
129.234712
21
87.975556
0
LINE
8
Layer 1
10
129.234712
20
87.975556
11
129.096088
21
89.202778
0
LINE
8
Layer 1
10
129.096088
20
89.202778
11
128.736793
21
90.511906
0
LINE
8
Layer 1
10
128.736793
20
90.511906
11
128.207533
21
91.750098
0
LINE
8
Layer 1
10
128.207533
20
91.750098
11
127.559017
21
92.764514
0
LINE
8
Layer 1
10
127.559017
20
92.764514
11
126.375371
21
93.995181
0
LINE
8
Layer 1
10
126.375371
20
93.995181
11
125.024086
21
95.013955
0
LINE
8
Layer 1
10
125.024086
20
95.013955
11
123.524745
21
95.851690
0
LINE
8
Layer 1
10
123.524745
20
95.851690
11
121.896934
21
96.539236
0
LINE
8
Layer 1
10
121.896934
20
96.539236
11
119.251101
21
97.562292
0
LINE
8
Layer 1
10
119.251101
20
97.562292
11
117.406905
21
98.216696
0
LINE
8
Layer 1
10
117.406905
20
98.216696
11
115.432281
21
98.735278
0
LINE
8
Layer 1
10
115.432281
20
98.735278
11
115.000128
21
98.832292
0
LINE
8
Layer 1
10
115.000128
20
98.832292
11
115.026587
21
99.061597
0
LINE
8
Layer 1
10
115.026587
20
99.061597
11
115.056710
21
100.827766
0
LINE
8
Layer 1
10
115.056710
20
100.827766
11
114.814920
21
102.580556
0
LINE
8
Layer 1
10
114.814920
20
102.580556
11
114.094639
21
104.332271
0
LINE
8
Layer 1
10
114.094639
20
104.332271
11
113.051031
21
105.755556
0
LINE
8
Layer 1
10
113.051031
20
105.755556
11
110.782914
21
107.743420
0
LINE
8
Layer 1
10
110.782914
20
107.743420
11
108.068045
21
109.495000
0
LINE
8
Layer 1
10
108.068045
20
109.495000
11
108.332628
21
109.918333
0
LINE
8
Layer 1
10
108.332628
20
109.918333
11
108.869641
21
111.444571
0
LINE
8
Layer 1
10
108.869641
20
111.444571
11
109.170476
21
113.005139
0
LINE
8
Layer 1
10
109.170476
20
113.005139
11
109.611448
21
115.060070
0
LINE
8
Layer 1
10
109.611448
20
115.060070
11
111.587003
21
116.136042
0
LINE
8
Layer 1
10
111.587003
20
116.136042
11
113.253878
21
117.079722
0
LINE
8
Layer 1
10
113.253878
20
117.079722
11
114.029990
21
117.670625
0
LINE
8
Layer 1
10
114.029990
20
117.670625
11
114.538734
21
118.087104
0
LINE
8
Layer 1
10
114.538734
20
118.087104
11
115.229434
21
119.346320
0
LINE
8
Layer 1
10
115.229434
20
119.346320
11
115.299990
21
119.681458
0
LINE
8
Layer 1
10
115.299990
20
119.681458
11
115.441101
21
119.655000
0
LINE
8
Layer 1
10
115.441101
20
119.655000
11
116.334363
21
119.691449
0
LINE
8
Layer 1
10
116.334363
20
119.691449
11
117.054156
21
119.847225
0
LINE
8
Layer 1
10
117.054156
20
119.847225
11
118.034017
21
120.237083
0
LINE
8
Layer 1
10
118.034017
20
120.237083
11
119.846279
21
121.228178
0
LINE
8
Layer 1
10
119.846279
20
121.228178
11
121.411335
21
122.559994
0
LINE
8
Layer 1
10
121.411335
20
122.559994
11
122.601830
21
124.209817
0
LINE
8
Layer 1
10
122.601830
20
124.209817
11
123.016818
21
125.146882
0
LINE
8
Layer 1
10
123.016818
20
125.146882
11
123.290406
21
126.154931
0
LINE
8
Layer 1
10
123.290406
20
126.154931
11
123.407821
21
127.190934
0
LINE
8
Layer 1
10
123.407821
20
127.190934
11
123.373606
21
128.209749
0
LINE
8
Layer 1
10
123.373606
20
128.209749
11
122.902500
21
130.171764
0
LINE
8
Layer 1
10
122.902500
20
130.171764
11
121.981528
21
131.992879
0
LINE
8
Layer 1
10
121.981528
20
131.992879
11
120.715128
21
133.625000
0
LINE
8
Layer 1
10
120.715128
20
133.625000
11
119.817454
21
134.483907
0
LINE
8
Layer 1
10
119.817454
20
134.483907
11
119.034154
21
135.033064
0
LINE
8
Layer 1
10
119.034154
20
135.033064
11
117.478392
21
135.812222
0
LINE
8
Layer 1
10
117.478392
20
135.812222
11
115.793676
21
136.614210
0
LINE
8
Layer 1
10
115.793676
20
136.614210
11
113.897698
21
137.205695
0
LINE
8
Layer 1
10
113.897698
20
137.205695
11
110.835160
21
137.742036
0
LINE
8
Layer 1
10
110.835160
20
137.742036
11
107.327212
21
138.184653
0
LINE
8
Layer 1
10
107.327212
20
138.184653
11
107.559503
21
139.044780
0
LINE
8
Layer 1
10
107.559503
20
139.044780
11
107.653531
21
139.966181
0
LINE
8
Layer 1
10
107.653531
20
139.966181
11
107.507325
21
141.458203
0
LINE
8
Layer 1
10
107.507325
20
141.458203
11
107.095671
21
142.566570
0
LINE
8
Layer 1
10
107.095671
20
142.566570
11
106.519770
21
143.426461
0
LINE
8
Layer 1
10
106.519770
20
143.426461
11
105.880823
21
144.173056
0
LINE
8
Layer 1
10
105.880823
20
144.173056
11
104.471894
21
145.529973
0
LINE
8
Layer 1
10
104.471894
20
145.529973
11
102.661726
21
146.607222
0
LINE
8
Layer 1
10
102.661726
20
146.607222
11
100.599093
21
147.418841
0
LINE
8
Layer 1
10
100.599093
20
147.418841
11
98.402353
21
148.041568
0
LINE
8
Layer 1
10
98.402353
20
148.041568
11
95.638754
21
148.573303
0
LINE
8
Layer 1
10
95.638754
20
148.573303
11
91.875545
21
149.111945
0
LINE
8
Layer 1
10
91.875545
20
149.111945
11
92.234591
21
149.756636
0
LINE
8
Layer 1
10
92.234591
20
149.756636
11
92.422351
21
151.175695
0
LINE
8
Layer 1
10
92.422351
20
151.175695
11
92.276898
21
152.448633
0
LINE
8
Layer 1
10
92.276898
20
152.448633
11
92.043115
21
152.877847
0
LINE
8
Layer 1
10
92.043115
20
152.877847
11
91.707976
21
153.556945
0
LINE
8
Layer 1
10
91.707976
20
153.556945
11
91.072976
21
154.588820
0
LINE
8
Layer 1
10
91.072976
20
154.588820
11
91.734434
21
155.250278
0
LINE
8
Layer 1
10
91.734434
20
155.250278
11
92.387073
21
156.185139
0
LINE
8
Layer 1
10
92.387073
20
156.185139
11
92.589920
21
156.555556
0
LINE
8
Layer 1
10
92.589920
20
156.555556
11
93.286656
21
156.282153
0
LINE
8
Layer 1
10
93.286656
20
156.282153
11
94.859855
21
156.145079
0
LINE
8
Layer 1
10
94.859855
20
156.145079
11
96.438984
21
156.429534
0
LINE
8
Layer 1
10
96.438984
20
156.429534
11
97.888338
21
157.098909
0
LINE
8
Layer 1
10
97.888338
20
157.098909
11
99.072212
21
158.116597
0
LINE
8
Layer 1
10
99.072212
20
158.116597
11
99.897809
21
159.378718
0
LINE
8
Layer 1
10
99.897809
20
159.378718
11
100.379618
21
160.764896
0
LINE
8
Layer 1
10
100.379618
20
160.764896
11
100.542863
21
162.213782
0
LINE
8
Layer 1
10
100.542863
20
162.213782
11
100.412767
21
163.664028
0
LINE
8
Layer 1
10
100.412767
20
163.664028
11
99.922234
21
165.211861
0
LINE
8
Layer 1
10
99.922234
20
165.211861
11
99.087207
21
166.700861
0
LINE
8
Layer 1
10
99.087207
20
166.700861
11
97.995533
21
168.020820
0
LINE
8
Layer 1
10
97.995533
20
168.020820
11
96.735059
21
169.061528
0
LINE
8
Layer 1
10
96.735059
20
169.061528
11
95.242554
21
169.885452
0
LINE
8
Layer 1
10
95.242554
20
169.885452
11
93.348392
21
170.534375
0
LINE
8
Layer 1
10
93.348392
20
170.534375
11
91.071961
21
170.912711
0
LINE
8
Layer 1
10
91.071961
20
170.912711
11
87.712767
21
171.292847
0
LINE
8
Layer 1
10
87.712767
20
171.292847
11
82.156517
21
171.954306
0
LINE
8
Layer 1
10
82.156517
20
171.954306
11
81.971309
21
171.989583
0
LINE
8
Layer 1
10
81.971309
20
171.989583
11
81.353948
21
172.324722
0
LINE
8
Layer 1
10
81.353948
20
172.324722
11
80.357351
21
172.633403
0
LINE
8
Layer 1
10
80.357351
20
172.633403
11
79.202003
21
173.497708
0
LINE
8
Layer 1
10
79.202003
20
173.497708
11
78.011849
21
174.773897
0
LINE
8
Layer 1
10
78.011849
20
174.773897
11
77.701290
21
175.115469
0
LINE
8
Layer 1
10
77.701290
20
175.115469
11
77.755615
21
174.882358
0
LINE
8
Layer 1
10
77.755615
20
174.882358
11
76.873670
21
177.413540
0
LINE
8
Layer 1
10
76.873670
20
177.413540
11
78.364156
21
177.263610
0
LINE
8
Layer 1
10
78.364156
20
177.263610
11
79.367103
21
177.440088
0
LINE
8
Layer 1
10
79.367103
20
177.440088
11
80.440558
21
177.919954
0
LINE
8
Layer 1
10
80.440558
20
177.919954
11
81.406263
21
178.622863
0
LINE
8
Layer 1
10
81.406263
20
178.622863
11
82.085962
21
179.468471
0
LINE
8
Layer 1
10
82.085962
20
179.468471
11
82.445466
21
180.293914
0
LINE
8
Layer 1
10
82.445466
20
180.293914
11
82.613665
21
181.003638
0
LINE
8
Layer 1
10
82.613665
20
181.003638
11
82.641587
21
182.158403
0
LINE
8
Layer 1
10
82.641587
20
182.158403
11
82.373327
21
184.434021
0
LINE
8
Layer 1
10
82.373327
20
184.434021
11
81.724365
21
186.621042
0
LINE
8
Layer 1
10
81.724365
20
186.621042
11
81.583253
21
186.982639
0
LINE
8
Layer 1
10
81.583253
20
186.982639
11
81.706726
21
187.044375
0
LINE
8
Layer 1
10
81.706726
20
187.044375
11
81.733184
21
187.053195
0
LINE
8
Layer 1
10
81.733184
20
187.053195
11
82.509747
21
187.395914
0
LINE
8
Layer 1
10
82.509747
20
187.395914
11
83.215559
21
187.888048
0
LINE
8
Layer 1
10
83.215559
20
187.888048
11
83.812979
21
188.487512
0
LINE
8
Layer 1
10
83.812979
20
188.487512
11
84.264365
21
189.152222
0
LINE
8
Layer 1
10
84.264365
20
189.152222
11
84.733239
21
190.507432
0
LINE
8
Layer 1
10
84.733239
20
190.507432
11
84.775892
21
191.771597
0
LINE
8
Layer 1
10
84.775892
20
191.771597
11
84.529815
21
192.933517
0
LINE
8
Layer 1
10
84.529815
20
192.933517
11
84.018465
21
193.999286
0
LINE
8
Layer 1
10
84.018465
20
193.999286
11
83.237600
21
194.925759
0
LINE
8
Layer 1
10
83.237600
20
194.925759
11
82.182976
21
195.669792
0
LINE
8
Layer 1
10
82.182976
20
195.669792
11
80.965645
21
196.220173
0
LINE
8
Layer 1
10
80.965645
20
196.220173
11
80.034086
21
196.437064
0
LINE
8
Layer 1
10
80.034086
20
196.437064
11
78.311240
21
196.384167
0
LINE
8
Layer 1
10
78.311240
20
196.384167
11
78.284781
21
196.384167
0
LINE
8
Layer 1
10
78.284781
20
196.384167
11
78.206103
21
197.541299
0
LINE
8
Layer 1
10
78.206103
20
197.541299
11
77.940823
21
198.738958
0
LINE
8
Layer 1
10
77.940823
20
198.738958
11
77.598769
21
199.567459
0
LINE
8
Layer 1
10
77.598769
20
199.567459
11
77.017121
21
200.462936
0
LINE
8
Layer 1
10
77.017121
20
200.462936
11
76.143261
21
201.276945
0
LINE
8
Layer 1
10
76.143261
20
201.276945
11
74.924573
21
201.861042
0
LINE
8
Layer 1
10
74.924573
20
201.861042
11
73.592837
21
202.037431
0
LINE
8
Layer 1
10
73.592837
20
202.037431
11
73.592837
21
202.037431
0
LINE
8
Layer 1
10
73.698670
20
198.333264
11
74.095379
21
198.197055
0
LINE
8
Layer 1
10
74.095379
20
198.197055
11
74.392074
21
197.750450
0
LINE
8
Layer 1
10
74.392074
20
197.750450
11
74.577987
21
196.995530
0
LINE
8
Layer 1
10
74.577987
20
196.995530
11
74.642351
21
195.934375
0
LINE
8
Layer 1
10
74.642351
20
195.934375
11
74.740018
21
194.713792
0
LINE
8
Layer 1
10
74.740018
20
194.713792
11
74.977490
21
193.658958
0
LINE
8
Layer 1
10
74.977490
20
193.658958
11
75.299366
21
193.057453
0
LINE
8
Layer 1
10
75.299366
20
193.057453
11
75.859378
21
192.734893
0
LINE
8
Layer 1
10
75.859378
20
192.734893
11
76.873620
21
192.634036
0
LINE
8
Layer 1
10
76.873620
20
192.634036
11
78.558184
21
192.697639
0
LINE
8
Layer 1
10
78.558184
20
192.697639
11
79.628405
21
192.645636
0
LINE
8
Layer 1
10
79.628405
20
192.645636
11
80.463184
21
192.415417
0
LINE
8
Layer 1
10
80.463184
20
192.415417
11
80.931144
21
191.979224
0
LINE
8
Layer 1
10
80.931144
20
191.979224
11
81.127031
21
191.419071
0
LINE
8
Layer 1
10
81.127031
20
191.419071
11
81.035092
21
190.896275
0
LINE
8
Layer 1
10
81.035092
20
190.896275
11
80.639573
21
190.572153
0
LINE
8
Layer 1
10
80.639573
20
190.572153
11
79.581240
21
190.104722
0
LINE
8
Layer 1
10
79.581240
20
190.104722
11
78.240684
21
189.399167
0
LINE
8
Layer 1
10
78.240684
20
189.399167
11
77.725900
21
188.973915
0
LINE
8
Layer 1
10
77.725900
20
188.973915
11
77.476796
21
188.358350
0
LINE
8
Layer 1
10
77.476796
20
188.358350
11
77.494984
21
187.562048
0
LINE
8
Layer 1
10
77.494984
20
187.562048
11
77.782073
21
186.594583
0
LINE
8
Layer 1
10
77.782073
20
186.594583
11
78.320059
21
185.245208
0
LINE
8
Layer 1
10
78.320059
20
185.245208
11
78.756319
21
183.714830
0
LINE
8
Layer 1
10
78.756319
20
183.714830
11
78.972698
21
181.999653
0
LINE
8
Layer 1
10
78.972698
20
181.999653
11
78.859358
21
181.216998
0
LINE
8
Layer 1
10
78.859358
20
181.216998
11
78.675341
21
181.021519
0
LINE
8
Layer 1
10
78.675341
20
181.021519
11
78.399497
21
180.956801
0
LINE
8
Layer 1
10
78.399497
20
180.956801
11
77.551549
21
181.220234
0
LINE
8
Layer 1
10
77.551549
20
181.220234
11
76.273948
21
182.008472
0
LINE
8
Layer 1
10
76.273948
20
182.008472
11
74.870911
21
183.129674
0
LINE
8
Layer 1
10
74.870911
20
183.129674
11
73.769226
21
184.239792
0
LINE
8
Layer 1
10
73.769226
20
184.239792
11
72.887281
21
185.333403
0
LINE
8
Layer 1
10
72.887281
20
185.333403
11
71.590823
21
184.513195
0
LINE
8
Layer 1
10
71.590823
20
184.513195
11
70.545013
21
183.930291
0
LINE
8
Layer 1
10
70.545013
20
183.930291
11
69.853392
21
183.684167
0
LINE
8
Layer 1
10
69.853392
20
183.684167
11
69.339592
21
183.518887
0
LINE
8
Layer 1
10
69.339592
20
183.518887
11
68.715684
21
183.128542
0
LINE
8
Layer 1
10
68.715684
20
183.128542
11
68.100400
21
182.730698
0
LINE
8
Layer 1
10
68.100400
20
182.730698
11
67.571414
21
182.546690
0
LINE
8
Layer 1
10
67.571414
20
182.546690
11
67.144969
21
182.558407
0
LINE
8
Layer 1
10
67.144969
20
182.558407
11
66.837309
21
182.747734
0
LINE
8
Layer 1
10
66.837309
20
182.747734
11
66.664675
21
183.096559
0
LINE
8
Layer 1
10
66.664675
20
183.096559
11
66.643311
21
183.586768
0
LINE
8
Layer 1
10
66.643311
20
183.586768
11
67.119365
21
184.918889
0
LINE
8
Layer 1
10
67.119365
20
184.918889
11
67.745505
21
186.164592
0
LINE
8
Layer 1
10
67.745505
20
186.164592
11
67.891158
21
186.985724
0
LINE
8
Layer 1
10
67.891158
20
186.985724
11
67.520828
21
187.600261
0
LINE
8
Layer 1
10
67.520828
20
187.600261
11
66.599017
21
188.226181
0
LINE
8
Layer 1
10
66.599017
20
188.226181
11
64.032559
21
189.602014
0
LINE
8
Layer 1
10
64.032559
20
189.602014
11
63.091997
21
190.120119
0
LINE
8
Layer 1
10
63.091997
20
190.120119
11
62.511683
21
190.608413
0
LINE
8
Layer 1
10
62.511683
20
190.608413
11
62.283907
21
191.076372
0
LINE
8
Layer 1
10
62.283907
20
191.076372
11
62.400962
21
191.533472
0
LINE
8
Layer 1
10
62.400962
20
191.533472
11
62.672850
21
191.763224
0
LINE
8
Layer 1
10
62.672850
20
191.763224
11
63.227920
21
191.906563
0
LINE
8
Layer 1
10
63.227920
20
191.906563
11
65.743531
21
192.018542
0
LINE
8
Layer 1
10
65.743531
20
192.018542
11
68.480428
21
192.152397
0
LINE
8
Layer 1
10
68.480428
20
192.152397
11
69.017643
21
192.396225
0
LINE
8
Layer 1
10
69.017643
20
192.396225
11
69.438878
21
192.856389
0
LINE
8
Layer 1
10
69.438878
20
192.856389
11
70.453115
21
194.390972
0
LINE
8
Layer 1
10
70.453115
20
194.390972
11
71.925962
21
196.745764
0
LINE
8
Layer 1
10
71.925962
20
196.745764
11
72.905662
21
197.924657
0
LINE
8
Layer 1
10
72.905662
20
197.924657
11
73.698670
21
198.333264
0
LINE
8
Layer 1
10
73.698670
20
198.333264
11
73.698670
21
198.333264
0
LINE
8
Layer 1
10
72.807906
20
194.558542
11
71.467351
21
192.530070
0
LINE
8
Layer 1
10
71.467351
20
192.530070
11
70.378911
21
191.061362
0
LINE
8
Layer 1
10
70.378911
20
191.061362
11
69.632906
21
190.369306
0
LINE
8
Layer 1
10
69.632906
20
190.369306
11
68.177698
21
190.034167
0
LINE
8
Layer 1
10
68.177698
20
190.034167
11
67.529125
21
189.828487
0
LINE
8
Layer 1
10
67.529125
20
189.828487
11
67.484333
21
189.718147
0
LINE
8
Layer 1
10
67.484333
20
189.718147
11
67.613253
21
189.593195
0
LINE
8
Layer 1
10
67.613253
20
189.593195
11
68.724503
21
189.337431
0
LINE
8
Layer 1
10
68.724503
20
189.337431
11
69.579351
21
189.095195
0
LINE
8
Layer 1
10
69.579351
20
189.095195
11
70.051737
21
188.448531
0
LINE
8
Layer 1
10
70.051737
20
188.448531
11
70.107450
21
187.498870
0
LINE
8
Layer 1
10
70.107450
20
187.498870
11
69.712281
21
186.347639
0
LINE
8
Layer 1
10
69.712281
20
186.347639
11
69.403601
21
185.439236
0
LINE
8
Layer 1
10
69.403601
20
185.439236
11
70.841170
21
186.277083
0
LINE
8
Layer 1
10
70.841170
20
186.277083
11
72.587420
21
187.502986
0
LINE
8
Layer 1
10
72.587420
20
187.502986
11
72.877153
21
187.544709
0
LINE
8
Layer 1
10
72.877153
20
187.544709
11
73.306263
21
187.301822
0
LINE
8
Layer 1
10
73.306263
20
187.301822
11
74.880476
21
185.739097
0
LINE
8
Layer 1
10
74.880476
20
185.739097
11
76.811934
21
183.692986
0
LINE
8
Layer 1
10
76.811934
20
183.692986
11
76.291587
21
185.174653
0
LINE
8
Layer 1
10
76.291587
20
185.174653
11
75.462559
21
187.141389
0
LINE
8
Layer 1
10
75.462559
20
187.141389
11
75.206795
21
188.596597
0
LINE
8
Layer 1
10
75.206795
20
188.596597
11
75.382658
21
189.483875
0
LINE
8
Layer 1
10
75.382658
20
189.483875
11
76.097559
21
190.131181
0
LINE
8
Layer 1
10
76.097559
20
190.131181
11
76.988323
21
190.695625
0
LINE
8
Layer 1
10
76.988323
20
190.695625
11
75.400823
21
190.889653
0
LINE
8
Layer 1
10
75.400823
20
190.889653
11
74.261569
21
191.135697
0
LINE
8
Layer 1
10
74.261569
20
191.135697
11
73.520226
21
191.588951
0
LINE
8
Layer 1
10
73.520226
20
191.588951
11
73.093001
21
192.334171
0
LINE
8
Layer 1
10
73.093001
20
192.334171
11
72.896101
21
193.456111
0
LINE
8
Layer 1
10
72.896101
20
193.456111
11
72.807906
21
194.558542
0
LINE
8
Layer 1
10
72.807906
20
194.558542
11
72.807906
21
194.558542
0
LINE
8
Layer 1
10
72.631517
20
184.178056
11
73.125406
21
183.939931
0
LINE
8
Layer 1
10
73.125406
20
183.939931
11
73.400822
21
183.206633
0
LINE
8
Layer 1
10
73.400822
20
183.206633
11
73.510724
21
181.890183
0
LINE
8
Layer 1
10
73.510724
20
181.890183
11
73.447811
21
180.430030
0
LINE
8
Layer 1
10
73.447811
20
180.430030
11
73.204781
21
179.265624
0
LINE
8
Layer 1
10
73.204781
20
179.265624
11
73.057440
21
178.246297
0
LINE
8
Layer 1
10
73.057440
20
178.246297
11
73.223260
21
176.858041
0
LINE
8
Layer 1
10
73.223260
20
176.858041
11
73.684111
21
175.194115
0
LINE
8
Layer 1
10
73.684111
20
175.194115
11
74.421865
21
173.347778
0
LINE
8
Layer 1
10
74.421865
20
173.347778
11
75.343216
21
172.103578
0
LINE
8
Layer 1
10
75.343216
20
172.103578
11
76.844525
21
170.678086
0
LINE
8
Layer 1
10
76.844525
20
170.678086
11
78.413323
21
169.504853
0
LINE
8
Layer 1
10
78.413323
20
169.504853
11
79.537142
21
169.017431
0
LINE
8
Layer 1
10
79.537142
20
169.017431
11
80.119226
21
168.761667
0
LINE
8
Layer 1
10
80.119226
20
168.761667
11
80.507804
21
168.531418
0
LINE
8
Layer 1
10
80.507804
20
168.531418
11
81.603206
21
168.301554
0
LINE
8
Layer 1
10
81.603206
20
168.301554
11
87.342351
21
167.615139
0
LINE
8
Layer 1
10
87.342351
20
167.615139
11
92.575430
21
166.929315
0
LINE
8
Layer 1
10
92.575430
20
166.929315
11
93.744746
21
166.550902
0
LINE
8
Layer 1
10
93.744746
20
166.550902
11
94.733045
21
165.974722
0
LINE
8
Layer 1
10
94.733045
20
165.974722
11
95.555034
21
165.348835
0
LINE
8
Layer 1
10
95.555034
20
165.348835
11
96.148012
21
164.680508
0
LINE
8
Layer 1
10
96.148012
20
164.680508
11
96.551649
21
163.911840
0
LINE
8
Layer 1
10
96.551649
20
163.911840
11
96.805615
21
162.984931
0
LINE
8
Layer 1
10
96.805615
20
162.984931
11
96.800199
21
161.584165
0
LINE
8
Layer 1
10
96.800199
20
161.584165
11
96.284753
21
160.515019
0
LINE
8
Layer 1
10
96.284753
20
160.515019
11
95.869831
21
160.144561
0
LINE
8
Layer 1
10
95.869831
20
160.144561
11
95.368279
21
159.904718
0
LINE
8
Layer 1
10
95.368279
20
159.904718
11
94.793720
21
159.811392
0
LINE
8
Layer 1
10
94.793720
20
159.811392
11
94.159781
21
159.880486
0
LINE
8
Layer 1
10
94.159781
20
159.880486
11
93.440566
21
160.170936
0
LINE
8
Layer 1
10
93.440566
20
160.170936
11
92.791160
21
160.636998
0
LINE
8
Layer 1
10
92.791160
20
160.636998
11
92.321151
21
161.179006
0
LINE
8
Layer 1
10
92.321151
20
161.179006
11
92.140128
21
161.697292
0
LINE
8
Layer 1
10
92.140128
20
161.697292
11
92.280664
21
162.427728
0
LINE
8
Layer 1
10
92.280664
20
162.427728
11
92.649386
21
163.119725
0
LINE
8
Layer 1
10
92.649386
20
163.119725
11
93.166969
21
163.662744
0
LINE
8
Layer 1
10
93.166969
20
163.662744
11
93.754087
21
163.946250
0
LINE
8
Layer 1
10
93.754087
20
163.946250
11
94.539017
21
164.096181
0
LINE
8
Layer 1
10
94.539017
20
164.096181
11
93.551240
21
164.554792
0
LINE
8
Layer 1
10
93.551240
20
164.554792
11
92.535487
21
164.962320
0
LINE
8
Layer 1
10
92.535487
20
164.962320
11
91.404750
21
165.238497
0
LINE
8
Layer 1
10
91.404750
20
165.238497
11
87.483462
21
165.630764
0
LINE
8
Layer 1
10
87.483462
20
165.630764
11
82.653850
21
166.073369
0
LINE
8
Layer 1
10
82.653850
20
166.073369
11
81.448323
21
166.289567
0
LINE
8
Layer 1
10
81.448323
20
166.289567
11
80.965892
21
166.512708
0
LINE
8
Layer 1
10
80.965892
20
166.512708
11
80.663113
21
166.686866
0
LINE
8
Layer 1
10
80.663113
20
166.686866
11
80.145684
21
166.759653
0
LINE
8
Layer 1
10
80.145684
20
166.759653
11
79.619675
21
166.842556
0
LINE
8
Layer 1
10
79.619675
20
166.842556
11
79.299017
21
167.041875
0
LINE
8
Layer 1
10
79.299017
20
167.041875
11
79.046713
21
167.241195
0
LINE
8
Layer 1
10
79.046713
20
167.241195
11
78.690476
21
167.324097
0
LINE
8
Layer 1
10
78.690476
20
167.324097
11
78.073780
21
167.557742
0
LINE
8
Layer 1
10
78.073780
20
167.557742
11
77.069450
21
168.158080
0
LINE
8
Layer 1
10
77.069450
20
168.158080
11
74.818740
21
169.855278
0
LINE
8
Layer 1
10
74.818740
20
169.855278
11
73.961652
21
170.749606
0
LINE
8
Layer 1
10
73.961652
20
170.749606
11
73.177879
21
171.794677
0
LINE
8
Layer 1
10
73.177879
20
171.794677
11
72.605995
21
172.782861
0
LINE
8
Layer 1
10
72.605995
20
172.782861
11
72.384573
21
173.506528
0
LINE
8
Layer 1
10
72.384573
20
173.506528
11
72.301670
21
173.922458
0
LINE
8
Layer 1
10
72.301670
20
173.922458
11
72.102351
21
174.097428
0
LINE
8
Layer 1
10
72.102351
20
174.097428
11
71.903031
21
173.980393
0
LINE
8
Layer 1
10
71.903031
20
173.980393
11
71.820128
21
173.700553
0
LINE
8
Layer 1
10
71.820128
20
173.700553
11
71.547640
21
172.859586
0
LINE
8
Layer 1
10
71.547640
20
172.859586
11
70.885500
21
171.548395
0
LINE
8
Layer 1
10
70.885500
20
171.548395
11
70.066699
21
170.186599
0
LINE
8
Layer 1
10
70.066699
20
170.186599
11
69.324226
21
169.193820
0
LINE
8
Layer 1
10
69.324226
20
169.193820
11
68.100331
21
168.168543
0
LINE
8
Layer 1
10
68.100331
20
168.168543
11
66.197627
21
166.791977
0
LINE
8
Layer 1
10
66.197627
20
166.791977
11
64.367736
21
165.584457
0
LINE
8
Layer 1
10
64.367736
20
165.584457
11
63.362281
21
165.066320
0
LINE
8
Layer 1
10
63.362281
20
165.066320
11
63.071240
21
164.854653
0
LINE
8
Layer 1
10
63.071240
20
164.854653
11
62.745646
21
164.547465
0
LINE
8
Layer 1
10
62.745646
20
164.547465
11
61.920769
21
164.071997
0
LINE
8
Layer 1
10
61.920769
20
164.071997
11
59.684573
21
163.090764
0
LINE
8
Layer 1
10
59.684573
20
163.090764
11
57.834991
21
162.346747
0
LINE
8
Layer 1
10
57.834991
20
162.346747
11
56.715624
21
161.606819
0
LINE
8
Layer 1
10
56.715624
20
161.606819
11
56.163509
21
160.713690
0
LINE
8
Layer 1
10
56.163509
20
160.713690
11
56.015684
21
159.510070
0
LINE
8
Layer 1
10
56.015684
20
159.510070
11
56.091240
21
158.664164
0
LINE
8
Layer 1
10
56.091240
20
158.664164
11
56.267880
21
158.193246
0
LINE
8
Layer 1
10
56.267880
20
158.193246
11
56.470556
21
158.191123
0
LINE
8
Layer 1
10
56.470556
20
158.191123
11
56.624226
21
158.751597
0
LINE
8
Layer 1
10
56.624226
20
158.751597
11
56.821310
21
159.397259
0
LINE
8
Layer 1
10
56.821310
20
159.397259
11
57.212636
21
159.802300
0
LINE
8
Layer 1
10
57.212636
20
159.802300
11
57.770573
21
159.950983
0
LINE
8
Layer 1
10
57.770573
20
159.950983
11
58.467490
21
159.827570
0
LINE
8
Layer 1
10
58.467490
20
159.827570
11
59.094196
21
159.354944
0
LINE
8
Layer 1
10
59.094196
20
159.354944
11
59.375328
21
158.591814
0
LINE
8
Layer 1
10
59.375328
20
158.591814
11
59.292941
21
157.688089
0
LINE
8
Layer 1
10
59.292941
20
157.688089
11
58.829087
21
156.793681
0
LINE
8
Layer 1
10
58.829087
20
156.793681
11
58.029721
21
156.180924
0
LINE
8
Layer 1
10
58.029721
20
156.180924
11
57.033934
21
155.980398
0
LINE
8
Layer 1
10
57.033934
20
155.980398
11
56.011886
21
156.190924
0
LINE
8
Layer 1
10
56.011886
20
156.190924
11
55.133740
21
156.811320
0
LINE
8
Layer 1
10
55.133740
20
156.811320
11
54.403057
21
157.744284
0
LINE
8
Layer 1
10
54.403057
20
157.744284
11
54.002611
21
158.612059
0
LINE
8
Layer 1
10
54.002611
20
158.612059
11
53.907556
21
159.503302
0
LINE
8
Layer 1
10
53.907556
20
159.503302
11
54.093045
21
160.506667
0
LINE
8
Layer 1
10
54.093045
20
160.506667
11
54.568046
21
161.616027
0
LINE
8
Layer 1
10
54.568046
20
161.616027
11
55.195476
21
162.508681
0
LINE
8
Layer 1
10
55.195476
20
162.508681
11
56.962737
21
163.725520
0
LINE
8
Layer 1
10
56.962737
20
163.725520
11
59.261240
21
164.792917
0
LINE
8
Layer 1
10
59.261240
20
164.792917
11
61.037439
21
165.562355
0
LINE
8
Layer 1
10
61.037439
20
165.562355
11
63.071240
21
166.759653
0
LINE
8
Layer 1
10
63.071240
20
166.759653
11
65.452490
21
168.179583
0
LINE
8
Layer 1
10
65.452490
20
168.179583
11
66.521079
21
168.909487
0
LINE
8
Layer 1
10
66.521079
20
168.909487
11
67.680486
21
170.000173
0
LINE
8
Layer 1
10
67.680486
20
170.000173
11
68.726902
21
171.236693
0
LINE
8
Layer 1
10
68.726902
20
171.236693
11
69.456517
21
172.404097
0
LINE
8
Layer 1
10
69.456517
20
172.404097
11
70.301163
21
174.654809
0
LINE
8
Layer 1
10
70.301163
20
174.654809
11
70.938184
21
177.625207
0
LINE
8
Layer 1
10
70.938184
20
177.625207
11
71.405615
21
180.306320
0
LINE
8
Layer 1
10
71.405615
20
180.306320
11
71.723115
21
182.608195
0
LINE
8
Layer 1
10
71.723115
20
182.608195
11
72.049799
21
183.796543
0
LINE
8
Layer 1
10
72.049799
20
183.796543
11
72.313517
21
184.093329
0
LINE
8
Layer 1
10
72.313517
20
184.093329
11
72.631517
21
184.178056
0
LINE
8
Layer 1
10
72.631517
20
184.178056
11
72.631517
21
184.178056
0
LINE
8
Layer 1
10
79.510684
20
172.712778
11
80.330892
21
172.642222
0
LINE
8
Layer 1
10
80.330892
20
172.642222
11
79.510684
21
172.712778
0
LINE
8
Layer 1
10
79.510684
20
172.712778
11
79.510684
21
172.712778
0
LINE
8
Layer 1
10
72.552142
20
166.909583
11
73.257698
21
166.742014
0
LINE
8
Layer 1
10
73.257698
20
166.742014
11
73.542415
21
166.531112
0
LINE
8
Layer 1
10
73.542415
20
166.531112
11
73.697460
21
166.216311
0
LINE
8
Layer 1
10
73.697460
20
166.216311
11
73.707490
21
164.889931
0
LINE
8
Layer 1
10
73.707490
20
164.889931
11
73.686928
21
163.471552
0
LINE
8
Layer 1
10
73.686928
20
163.471552
11
73.836508
21
161.963380
0
LINE
8
Layer 1
10
73.836508
20
161.963380
11
74.686448
21
158.434097
0
LINE
8
Layer 1
10
74.686448
20
158.434097
11
75.579487
21
156.221090
0
LINE
8
Layer 1
10
75.579487
20
156.221090
11
75.918440
21
155.752123
0
LINE
8
Layer 1
10
75.918440
20
155.752123
11
76.017640
21
155.755391
0
LINE
8
Layer 1
10
76.017640
20
155.755391
11
76.053462
21
155.947014
0
LINE
8
Layer 1
10
76.053462
20
155.947014
11
76.511122
21
156.316420
0
LINE
8
Layer 1
10
76.511122
20
156.316420
11
77.614503
21
156.758403
0
LINE
8
Layer 1
10
77.614503
20
156.758403
11
78.702944
21
157.211839
0
LINE
8
Layer 1
10
78.702944
20
157.211839
11
79.547000
21
157.790855
0
LINE
8
Layer 1
10
79.547000
20
157.790855
11
80.092881
21
158.448957
0
LINE
8
Layer 1
10
80.092881
20
158.448957
11
80.286795
21
159.139653
0
LINE
8
Layer 1
10
80.286795
20
159.139653
11
80.710128
21
160.656597
0
LINE
8
Layer 1
10
80.710128
20
160.656597
11
81.195355
21
161.462973
0
LINE
8
Layer 1
10
81.195355
20
161.462973
11
81.839017
21
161.679653
0
LINE
8
Layer 1
10
81.839017
20
161.679653
11
82.402337
21
161.535333
0
LINE
8
Layer 1
10
82.402337
20
161.535333
11
82.544573
21
160.965278
0
LINE
8
Layer 1
10
82.544573
20
160.965278
11
82.731104
21
160.178875
0
LINE
8
Layer 1
10
82.731104
20
160.178875
11
83.179573
21
159.280764
0
LINE
8
Layer 1
10
83.179573
20
159.280764
11
83.907645
21
158.465305
0
LINE
8
Layer 1
10
83.907645
20
158.465305
11
84.996378
21
158.292986
0
LINE
8
Layer 1
10
84.996378
20
158.292986
11
85.883451
21
158.375168
0
LINE
8
Layer 1
10
85.883451
20
158.375168
11
86.354573
21
158.575208
0
LINE
8
Layer 1
10
86.354573
20
158.575208
11
86.883462
21
158.774529
0
LINE
8
Layer 1
10
86.883462
20
158.774529
11
87.915615
21
158.857431
0
LINE
8
Layer 1
10
87.915615
20
158.857431
11
89.060614
21
158.759735
0
LINE
8
Layer 1
10
89.060614
20
158.759735
11
89.265243
21
158.596214
0
LINE
8
Layer 1
10
89.265243
20
158.596214
11
89.317906
21
158.319445
0
LINE
8
Layer 1
10
89.317906
20
158.319445
11
88.907455
21
157.594078
0
LINE
8
Layer 1
10
88.907455
20
157.594078
11
87.906795
21
156.599653
0
LINE
8
Layer 1
10
87.906795
20
156.599653
11
87.082523
21
155.811457
0
LINE
8
Layer 1
10
87.082523
20
155.811457
11
86.606918
21
155.130617
0
LINE
8
Layer 1
10
86.606918
20
155.130617
11
86.494619
21
154.586777
0
LINE
8
Layer 1
10
86.494619
20
154.586777
11
86.760267
21
154.209583
0
LINE
8
Layer 1
10
86.760267
20
154.209583
11
87.907182
21
152.736031
0
LINE
8
Layer 1
10
87.907182
20
152.736031
11
88.753462
21
151.175695
0
LINE
8
Layer 1
10
88.753462
20
151.175695
11
88.312490
21
150.373125
0
LINE
8
Layer 1
10
88.312490
20
150.373125
11
87.920001
21
150.098046
0
LINE
8
Layer 1
10
87.920001
20
150.098046
11
87.337845
21
150.088032
0
LINE
8
Layer 1
10
87.337845
20
150.088032
11
84.872906
21
150.999306
0
LINE
8
Layer 1
10
84.872906
20
150.999306
11
83.523531
21
151.519653
0
LINE
8
Layer 1
10
83.523531
20
151.519653
11
82.500476
21
150.531875
0
LINE
8
Layer 1
10
82.500476
20
150.531875
11
81.788461
21
149.894332
0
LINE
8
Layer 1
10
81.788461
20
149.894332
11
81.100613
21
149.575325
0
LINE
8
Layer 1
10
81.100613
20
149.575325
11
80.530613
21
149.597891
0
LINE
8
Layer 1
10
80.530613
20
149.597891
11
80.172142
21
149.985070
0
LINE
8
Layer 1
10
80.172142
20
149.985070
11
79.819365
21
151.942986
0
LINE
8
Layer 1
10
79.819365
20
151.942986
11
79.695451
21
152.812438
0
LINE
8
Layer 1
10
79.695451
20
152.812438
11
79.496406
21
153.311252
0
LINE
8
Layer 1
10
79.496406
20
153.311252
11
79.088423
21
153.617617
0
LINE
8
Layer 1
10
79.088423
20
153.617617
11
78.337698
21
153.909722
0
LINE
8
Layer 1
10
78.337698
20
153.909722
11
76.512073
21
154.659375
0
LINE
8
Layer 1
10
76.512073
20
154.659375
11
76.179125
21
154.817677
0
LINE
8
Layer 1
10
76.179125
20
154.817677
11
76.215133
21
154.591016
0
LINE
8
Layer 1
10
76.215133
20
154.591016
11
77.984920
21
151.845972
0
LINE
8
Layer 1
10
77.984920
20
151.845972
11
79.334678
21
149.991937
0
LINE
8
Layer 1
10
79.334678
20
149.991937
11
80.401448
21
148.838542
0
LINE
8
Layer 1
10
80.401448
20
148.838542
11
82.447648
21
147.545991
0
LINE
8
Layer 1
10
82.447648
20
147.545991
11
83.327042
21
147.149981
0
LINE
8
Layer 1
10
83.327042
20
147.149981
11
83.946865
21
147.004097
0
LINE
8
Layer 1
10
83.946865
20
147.004097
11
84.379288
21
146.921196
0
LINE
8
Layer 1
10
84.379288
20
146.921196
11
84.661240
21
146.721875
0
LINE
8
Layer 1
10
84.661240
20
146.721875
11
85.022653
21
146.522557
0
LINE
8
Layer 1
10
85.022653
20
146.522557
11
85.649017
21
146.439653
0
LINE
8
Layer 1
10
85.649017
20
146.439653
11
87.113045
21
146.175070
0
LINE
8
Layer 1
10
87.113045
20
146.175070
11
90.305684
21
145.601806
0
LINE
8
Layer 1
10
90.305684
20
145.601806
11
94.501682
21
145.043621
0
LINE
8
Layer 1
10
94.501682
20
145.043621
11
97.249561
21
144.562608
0
LINE
8
Layer 1
10
97.249561
20
144.562608
11
99.250710
21
144.005881
0
LINE
8
Layer 1
10
99.250710
20
144.005881
11
101.206517
21
143.220556
0
LINE
8
Layer 1
10
101.206517
20
143.220556
11
102.220341
21
142.602352
0
LINE
8
Layer 1
10
102.220341
20
142.602352
11
103.113759
21
141.755361
0
LINE
8
Layer 1
10
103.113759
20
141.755361
11
103.748087
21
140.838399
0
LINE
8
Layer 1
10
103.748087
20
140.838399
11
103.984642
21
140.010278
0
LINE
8
Layer 1
10
103.984642
20
140.010278
11
103.838982
21
139.247922
0
LINE
8
Layer 1
10
103.838982
20
139.247922
11
103.452307
21
138.593721
0
LINE
8
Layer 1
10
103.452307
20
138.593721
11
102.871596
21
138.065968
0
LINE
8
Layer 1
10
102.871596
20
138.065968
11
102.143830
21
137.682956
0
LINE
8
Layer 1
10
102.143830
20
137.682956
11
101.315987
21
137.462977
0
LINE
8
Layer 1
10
101.315987
20
137.462977
11
100.435047
21
137.424324
0
LINE
8
Layer 1
10
100.435047
20
137.424324
11
99.547990
21
137.585290
0
LINE
8
Layer 1
10
99.547990
20
137.585290
11
98.701795
21
137.964167
0
LINE
8
Layer 1
10
98.701795
20
137.964167
11
98.060323
21
138.544916
0
LINE
8
Layer 1
10
98.060323
20
138.544916
11
97.783804
21
139.243609
0
LINE
8
Layer 1
10
97.783804
20
139.243609
11
97.880291
21
139.997112
0
LINE
8
Layer 1
10
97.880291
20
139.997112
11
98.357837
21
140.742292
0
LINE
8
Layer 1
10
98.357837
20
140.742292
11
98.804878
21
141.169200
0
LINE
8
Layer 1
10
98.804878
20
141.169200
11
99.165152
21
141.319728
0
LINE
8
Layer 1
10
99.165152
20
141.319728
11
99.551717
21
141.199177
0
LINE
8
Layer 1
10
99.551717
20
141.199177
11
100.077628
21
140.812847
0
LINE
8
Layer 1
10
100.077628
20
140.812847
11
100.542968
21
140.307183
0
LINE
8
Layer 1
10
100.542968
20
140.307183
11
100.395128
21
139.913264
0
LINE
8
Layer 1
10
100.395128
20
139.913264
11
100.042351
21
139.322361
0
LINE
8
Layer 1
10
100.042351
20
139.322361
11
100.203909
21
139.134448
0
LINE
8
Layer 1
10
100.203909
20
139.134448
11
100.603263
21
139.108785
0
LINE
8
Layer 1
10
100.603263
20
139.108785
11
101.603392
21
139.489931
0
LINE
8
Layer 1
10
101.603392
20
139.489931
11
101.988105
21
139.940234
0
LINE
8
Layer 1
10
101.988105
20
139.940234
11
101.744503
21
140.618820
0
LINE
8
Layer 1
10
101.744503
20
140.618820
11
101.321253
21
141.140609
0
LINE
8
Layer 1
10
101.321253
20
141.140609
11
100.853740
21
141.359653
0
LINE
8
Layer 1
10
100.853740
20
141.359653
11
100.451429
21
141.442557
0
LINE
8
Layer 1
10
100.451429
20
141.442557
11
100.183462
21
141.641875
0
LINE
8
Layer 1
10
100.183462
20
141.641875
11
99.862802
21
141.841196
0
LINE
8
Layer 1
10
99.862802
20
141.841196
11
99.336795
21
141.924097
0
LINE
8
Layer 1
10
99.336795
20
141.924097
11
98.815631
21
141.995794
0
LINE
8
Layer 1
10
98.815631
20
141.995794
11
98.507767
21
142.171042
0
LINE
8
Layer 1
10
98.507767
20
142.171042
11
98.086045
21
142.401803
0
LINE
8
Layer 1
10
98.086045
20
142.401803
11
97.290684
21
142.603195
0
LINE
8
Layer 1
10
97.290684
20
142.603195
11
94.680128
21
143.070625
0
LINE
8
Layer 1
10
94.680128
20
143.070625
11
91.011240
21
143.608611
0
LINE
8
Layer 1
10
91.011240
20
143.608611
11
85.125009
21
144.517548
0
LINE
8
Layer 1
10
85.125009
20
144.517548
11
83.289899
21
145.034165
0
LINE
8
Layer 1
10
83.289899
20
145.034165
11
81.839017
21
145.672361
0
LINE
8
Layer 1
10
81.839017
20
145.672361
11
80.507281
21
146.360278
0
LINE
8
Layer 1
10
80.507281
20
146.360278
11
79.660499
21
146.997097
0
LINE
8
Layer 1
10
79.660499
20
146.997097
11
78.562436
21
148.078189
0
LINE
8
Layer 1
10
78.562436
20
148.078189
11
77.482091
21
149.316766
0
LINE
8
Layer 1
10
77.482091
20
149.316766
11
76.688462
21
150.426042
0
LINE
8
Layer 1
10
76.688462
20
150.426042
11
75.991726
21
151.237431
0
LINE
8
Layer 1
10
75.991726
20
151.237431
11
75.835825
21
151.369448
0
LINE
8
Layer 1
10
75.835825
20
151.369448
11
75.771240
21
151.687222
0
LINE
8
Layer 1
10
75.771240
20
151.687222
11
75.259712
21
152.886667
0
LINE
8
Layer 1
10
75.259712
20
152.886667
11
74.216803
21
154.799690
0
LINE
8
Layer 1
10
74.216803
20
154.799690
11
73.222420
21
157.022986
0
LINE
8
Layer 1
10
73.222420
20
157.022986
11
72.702073
21
158.372361
0
LINE
8
Layer 1
10
72.702073
20
158.372361
11
72.384573
21
160.012778
0
LINE
8
Layer 1
10
72.384573
20
160.012778
11
72.305069
21
160.575963
0
LINE
8
Layer 1
10
72.305069
20
160.575963
11
72.102351
21
160.691875
0
LINE
8
Layer 1
10
72.102351
20
160.691875
11
71.903031
21
160.201699
0
LINE
8
Layer 1
10
71.903031
20
160.201699
11
71.820128
21
159.271945
0
LINE
8
Layer 1
10
71.820128
20
159.271945
11
71.564365
21
157.384583
0
LINE
8
Layer 1
10
71.564365
20
157.384583
11
70.938184
21
155.470764
0
LINE
8
Layer 1
10
70.938184
20
155.470764
11
70.116854
21
153.401387
0
LINE
8
Layer 1
10
70.116854
20
153.401387
11
68.451101
21
150.249653
0
LINE
8
Layer 1
10
68.451101
20
150.249653
11
67.457268
21
148.884583
0
LINE
8
Layer 1
10
67.457268
20
148.884583
11
65.971945
21
147.258335
0
LINE
8
Layer 1
10
65.971945
20
147.258335
11
64.392259
21
145.773961
0
LINE
8
Layer 1
10
64.392259
20
145.773961
11
63.115337
21
144.834514
0
LINE
8
Layer 1
10
63.115337
20
144.834514
11
61.519017
21
143.979028
0
LINE
8
Layer 1
10
61.519017
20
143.979028
11
59.517615
21
143.106286
0
LINE
8
Layer 1
10
59.517615
20
143.106286
11
57.275288
21
142.461199
0
LINE
8
Layer 1
10
57.275288
20
142.461199
11
54.872794
21
142.061294
0
LINE
8
Layer 1
10
54.872794
20
142.061294
11
52.390892
21
141.924097
0
LINE
8
Layer 1
10
52.390892
20
141.924097
11
48.706987
21
141.679493
0
LINE
8
Layer 1
10
48.706987
20
141.679493
11
45.573462
21
140.998056
0
LINE
8
Layer 1
10
45.573462
20
140.998056
11
44.164738
21
140.251757
0
LINE
8
Layer 1
10
44.164738
20
140.251757
11
43.191596
21
139.201261
0
LINE
8
Layer 1
10
43.191596
20
139.201261
11
42.916313
21
138.638026
0
LINE
8
Layer 1
10
42.916313
20
138.638026
11
42.807460
21
138.090047
0
LINE
8
Layer 1
10
42.807460
20
138.090047
11
42.884214
21
137.587759
0
LINE
8
Layer 1
10
42.884214
20
137.587759
11
43.165753
21
137.161597
0
LINE
8
Layer 1
10
43.165753
20
137.161597
11
43.635731
21
136.867468
0
LINE
8
Layer 1
10
43.635731
20
136.867468
11
44.074156
21
137.337986
0
LINE
8
Layer 1
10
44.074156
20
137.337986
11
44.509202
21
137.750354
0
LINE
8
Layer 1
10
44.509202
20
137.750354
11
45.048797
21
137.944650
0
LINE
8
Layer 1
10
45.048797
20
137.944650
11
45.601574
21
137.908375
0
LINE
8
Layer 1
10
45.601574
20
137.908375
11
46.076170
21
137.629028
0
LINE
8
Layer 1
10
46.076170
20
137.629028
11
46.330566
21
137.219640
0
LINE
8
Layer 1
10
46.330566
20
137.219640
11
46.383329
21
136.744164
0
LINE
8
Layer 1
10
46.383329
20
136.744164
11
45.988772
21
135.743727
0
LINE
8
Layer 1
10
45.988772
20
135.743727
11
45.102133
21
134.925263
0
LINE
8
Layer 1
10
45.102133
20
134.925263
11
44.539793
21
134.677254
0
LINE
8
Layer 1
10
44.539793
20
134.677254
11
43.933045
21
134.586320
0
LINE
8
Layer 1
10
43.933045
20
134.586320
11
42.982632
21
134.833525
0
LINE
8
Layer 1
10
42.982632
20
134.833525
11
41.904573
21
135.715208
0
LINE
8
Layer 1
10
41.904573
20
135.715208
11
40.969881
21
136.871155
0
LINE
8
Layer 1
10
40.969881
20
136.871155
11
40.813230
21
137.417609
0
LINE
8
Layer 1
10
40.813230
20
137.417609
11
40.775684
21
138.131736
0
LINE
8
Layer 1
10
40.775684
20
138.131736
11
40.815950
21
138.873874
0
LINE
8
Layer 1
10
40.815950
20
138.873874
11
41.010204
21
139.458308
0
LINE
8
Layer 1
10
41.010204
20
139.458308
11
42.301448
21
140.953958
0
LINE
8
Layer 1
10
42.301448
20
140.953958
11
43.543571
21
142.037599
0
LINE
8
Layer 1
10
43.543571
20
142.037599
11
44.374017
21
142.488542
0
LINE
8
Layer 1
10
44.374017
20
142.488542
11
45.114851
21
142.691389
0
LINE
8
Layer 1
10
45.114851
20
142.691389
11
45.862377
21
143.045121
0
LINE
8
Layer 1
10
45.862377
20
143.045121
11
47.231589
21
143.331003
0
LINE
8
Layer 1
10
47.231589
20
143.331003
11
51.147351
21
143.599792
0
LINE
8
Layer 1
10
51.147351
20
143.599792
11
54.322351
21
143.758542
0
LINE
8
Layer 1
10
54.322351
20
143.758542
11
54.066587
21
144.393542
0
LINE
8
Layer 1
10
54.066587
20
144.393542
11
53.484503
21
145.610625
0
LINE
8
Layer 1
10
53.484503
20
145.610625
11
53.004717
21
146.136429
0
LINE
8
Layer 1
10
53.004717
20
146.136429
11
52.165871
21
146.581205
0
LINE
8
Layer 1
10
52.165871
20
146.581205
11
51.108806
21
146.889059
0
LINE
8
Layer 1
10
51.108806
20
146.889059
11
49.974365
21
147.004097
0
LINE
8
Layer 1
10
49.974365
20
147.004097
11
49.421404
21
147.116688
0
LINE
8
Layer 1
10
49.421404
20
147.116688
11
48.993026
21
147.408700
0
LINE
8
Layer 1
10
48.993026
20
147.408700
11
48.755457
21
147.811501
0
LINE
8
Layer 1
10
48.755457
20
147.811501
11
48.774920
21
148.256458
0
LINE
8
Layer 1
10
48.774920
20
148.256458
11
49.244873
21
148.645829
0
LINE
8
Layer 1
10
49.244873
20
148.645829
11
50.150753
21
148.988472
0
LINE
8
Layer 1
10
50.150753
20
148.988472
11
51.212744
21
149.420801
0
LINE
8
Layer 1
10
51.212744
20
149.420801
11
51.482595
21
149.777093
0
LINE
8
Layer 1
10
51.482595
20
149.777093
11
51.694156
21
150.329028
0
LINE
8
Layer 1
10
51.694156
20
150.329028
11
51.875207
21
151.431163
0
LINE
8
Layer 1
10
51.875207
20
151.431163
11
51.711795
21
152.683820
0
LINE
8
Layer 1
10
51.711795
20
152.683820
11
51.551687
21
153.743140
0
LINE
8
Layer 1
10
51.551687
20
153.743140
11
51.588323
21
154.447708
0
LINE
8
Layer 1
10
51.588323
20
154.447708
11
51.909288
21
154.823445
0
LINE
8
Layer 1
10
51.909288
20
154.823445
11
52.379864
21
154.882001
0
LINE
8
Layer 1
10
52.379864
20
154.882001
11
52.884618
21
154.644036
0
LINE
8
Layer 1
10
52.884618
20
154.644036
11
53.308115
21
154.130208
0
LINE
8
Layer 1
10
53.308115
20
154.130208
11
54.578115
21
152.366320
0
LINE
8
Layer 1
10
54.578115
20
152.366320
11
55.390684
21
151.606013
0
LINE
8
Layer 1
10
55.390684
20
151.606013
11
55.680691
21
151.577208
0
LINE
8
Layer 1
10
55.680691
20
151.577208
11
56.006865
21
151.731320
0
LINE
8
Layer 1
10
56.006865
20
151.731320
11
56.871170
21
152.084097
0
LINE
8
Layer 1
10
56.871170
20
152.084097
11
58.696795
21
152.824931
0
LINE
8
Layer 1
10
58.696795
20
152.824931
11
59.893145
21
153.299644
0
LINE
8
Layer 1
10
59.893145
20
153.299644
11
60.645892
21
153.398195
0
LINE
8
Layer 1
10
60.645892
20
153.398195
11
60.953055
21
153.076527
0
LINE
8
Layer 1
10
60.953055
20
153.076527
11
61.076497
21
152.542381
0
LINE
8
Layer 1
10
61.076497
20
152.542381
11
61.006686
21
151.986349
0
LINE
8
Layer 1
10
61.006686
20
151.986349
11
60.734087
21
151.599028
0
LINE
8
Layer 1
10
60.734087
20
151.599028
11
59.587559
21
150.152639
0
LINE
8
Layer 1
10
59.587559
20
150.152639
11
58.978640
21
149.047233
0
LINE
8
Layer 1
10
58.978640
20
149.047233
11
59.036067
21
148.783511
0
LINE
8
Layer 1
10
59.036067
20
148.783511
11
59.305337
21
148.538681
0
LINE
8
Layer 1
10
59.305337
20
148.538681
11
60.152003
21
148.141806
0
LINE
8
Layer 1
10
60.152003
20
148.141806
11
60.619455
21
147.886838
0
LINE
8
Layer 1
10
60.619455
20
147.886838
11
61.280892
21
147.286320
0
LINE
8
Layer 1
10
61.280892
20
147.286320
11
61.952839
21
146.688362
0
LINE
8
Layer 1
10
61.952839
20
146.688362
11
62.445059
21
146.439653
0
LINE
8
Layer 1
10
62.445059
20
146.439653
11
63.250657
21
146.980492
0
LINE
8
Layer 1
10
63.250657
20
146.980492
11
64.595900
21
148.248629
0
LINE
8
Layer 1
10
64.595900
20
148.248629
11
65.954923
21
149.712504
0
LINE
8
Layer 1
10
65.954923
20
149.712504
11
66.801865
21
150.840556
0
LINE
8
Layer 1
10
66.801865
20
150.840556
11
68.806528
21
154.818385
0
LINE
8
Layer 1
10
68.806528
20
154.818385
11
69.800476
21
158.151875
0
LINE
8
Layer 1
10
69.800476
20
158.151875
11
70.276726
21
160.409653
0
LINE
8
Layer 1
10
70.276726
20
160.409653
11
70.700059
21
162.667431
0
LINE
8
Layer 1
10
70.700059
20
162.667431
11
71.114573
21
164.642986
0
LINE
8
Layer 1
10
71.114573
20
164.642986
11
71.703437
21
166.298745
0
LINE
8
Layer 1
10
71.703437
20
166.298745
11
72.095681
21
166.734591
0
LINE
8
Layer 1
10
72.095681
20
166.734591
11
72.552142
21
166.909583
0
LINE
8
Layer 1
10
72.552142
20
166.909583
11
72.552142
21
166.909583
0
LINE
8
Layer 1
10
94.953531
20
163.514097
11
94.530198
21
162.702708
0
LINE
8
Layer 1
10
94.530198
20
162.702708
11
94.143699
21
161.817023
0
LINE
8
Layer 1
10
94.143699
20
161.817023
11
94.244220
21
161.699196
0
LINE
8
Layer 1
10
94.244220
20
161.699196
11
94.539017
21
161.679653
0
LINE
8
Layer 1
10
94.539017
20
161.679653
11
94.855401
21
161.902790
0
LINE
8
Layer 1
10
94.855401
20
161.902790
11
94.953531
21
162.596875
0
LINE
8
Layer 1
10
94.953531
20
162.596875
11
94.953531
21
163.514097
0
LINE
8
Layer 1
10
94.953531
20
163.514097
11
94.953531
21
163.514097
0
LINE
8
Layer 1
10
81.697906
20
158.010764
11
81.498587
21
157.825458
0
LINE
8
Layer 1
10
81.498587
20
157.825458
11
81.415684
21
157.384583
0
LINE
8
Layer 1
10
81.415684
20
157.384583
11
81.192859
21
156.714502
0
LINE
8
Layer 1
10
81.192859
20
156.714502
11
80.657212
21
155.973472
0
LINE
8
Layer 1
10
80.657212
20
155.973472
11
80.147008
21
155.344348
0
LINE
8
Layer 1
10
80.147008
20
155.344348
11
80.173910
21
155.222440
0
LINE
8
Layer 1
10
80.173910
20
155.222440
11
80.374990
21
155.188542
0
LINE
8
Layer 1
10
80.374990
20
155.188542
11
80.976340
21
155.006322
0
LINE
8
Layer 1
10
80.976340
20
155.006322
11
81.490432
21
154.546810
0
LINE
8
Layer 1
10
81.490432
20
154.546810
11
81.815015
21
153.940734
0
LINE
8
Layer 1
10
81.815015
20
153.940734
11
81.847837
21
153.318820
0
LINE
8
Layer 1
10
81.847837
20
153.318820
11
81.789965
21
152.778157
0
LINE
8
Layer 1
10
81.789965
20
152.778157
11
82.359365
21
153.071875
0
LINE
8
Layer 1
10
82.359365
20
153.071875
11
82.977406
21
153.320776
0
LINE
8
Layer 1
10
82.977406
20
153.320776
11
83.691886
21
153.345613
0
LINE
8
Layer 1
10
83.691886
20
153.345613
11
84.454480
21
153.152001
0
LINE
8
Layer 1
10
84.454480
20
153.152001
11
85.216865
21
152.745556
0
LINE
8
Layer 1
10
85.216865
20
152.745556
11
85.690646
21
152.443764
0
LINE
8
Layer 1
10
85.690646
20
152.443764
11
85.832579
21
152.437320
0
LINE
8
Layer 1
10
85.832579
20
152.437320
11
85.102212
21
153.459931
0
LINE
8
Layer 1
10
85.102212
20
153.459931
11
84.574101
21
154.268752
0
LINE
8
Layer 1
10
84.574101
20
154.268752
11
84.279769
21
155.006931
0
LINE
8
Layer 1
10
84.279769
20
155.006931
11
84.251138
21
155.544873
0
LINE
8
Layer 1
10
84.251138
20
155.544873
11
84.520128
21
155.752986
0
LINE
8
Layer 1
10
84.520128
20
155.752986
11
84.719448
21
155.834781
0
LINE
8
Layer 1
10
84.719448
20
155.834781
11
84.802351
21
156.035208
0
LINE
8
Layer 1
10
84.802351
20
156.035208
11
84.598268
21
156.190474
0
LINE
8
Layer 1
10
84.598268
20
156.190474
11
84.079156
21
156.141042
0
LINE
8
Layer 1
10
84.079156
20
156.141042
11
83.364967
21
156.145688
0
LINE
8
Layer 1
10
83.364967
20
156.145688
11
82.668045
21
156.608472
0
LINE
8
Layer 1
10
82.668045
20
156.608472
11
82.181789
21
157.176517
0
LINE
8
Layer 1
10
82.181789
20
157.176517
11
81.980128
21
157.631528
0
LINE
8
Layer 1
10
81.980128
20
157.631528
11
81.897226
21
157.898312
0
LINE
8
Layer 1
10
81.897226
20
157.898312
11
81.697906
21
158.010764
0
LINE
8
Layer 1
10
81.697906
20
158.010764
11
81.697906
21
158.010764
0
LINE
8
Layer 1
10
53.599156
20
150.505417
11
53.660892
21
149.720486
0
LINE
8
Layer 1
10
53.660892
20
149.720486
11
53.705407
21
148.956554
0
LINE
8
Layer 1
10
53.705407
20
148.956554
11
53.510962
21
148.697431
0
LINE
8
Layer 1
10
53.510962
20
148.697431
11
53.286388
21
148.614529
0
LINE
8
Layer 1
10
53.286388
20
148.614529
11
53.193462
21
148.415208
0
LINE
8
Layer 1
10
53.193462
20
148.415208
11
53.340041
21
148.215890
0
LINE
8
Layer 1
10
53.340041
20
148.215890
11
53.696170
21
148.132986
0
LINE
8
Layer 1
10
53.696170
20
148.132986
11
54.154428
21
148.030858
0
LINE
8
Layer 1
10
54.154428
20
148.030858
11
54.542837
21
147.789028
0
LINE
8
Layer 1
10
54.542837
20
147.789028
11
54.784666
21
147.400620
0
LINE
8
Layer 1
10
54.784666
20
147.400620
11
54.886795
21
146.942361
0
LINE
8
Layer 1
10
54.886795
20
146.942361
11
54.946763
21
146.566837
0
LINE
8
Layer 1
10
54.946763
20
146.566837
11
55.112854
21
146.458062
0
LINE
8
Layer 1
10
55.112854
20
146.458062
11
55.680545
21
147.030556
0
LINE
8
Layer 1
10
55.680545
20
147.030556
11
56.155269
21
147.473163
0
LINE
8
Layer 1
10
56.155269
20
147.473163
11
56.932906
21
147.453889
0
LINE
8
Layer 1
10
56.932906
20
147.453889
11
57.806031
21
147.277500
0
LINE
8
Layer 1
10
57.806031
20
147.277500
11
57.144573
21
147.991875
0
LINE
8
Layer 1
10
57.144573
20
147.991875
11
56.474295
21
148.697431
0
LINE
8
Layer 1
10
56.474295
20
148.697431
11
57.100476
21
149.544097
0
LINE
8
Layer 1
10
57.100476
20
149.544097
11
57.547505
21
150.333712
0
LINE
8
Layer 1
10
57.547505
20
150.333712
11
56.844712
21
150.099722
0
LINE
8
Layer 1
10
56.844712
20
150.099722
11
56.042488
21
149.831359
0
LINE
8
Layer 1
10
56.042488
20
149.831359
11
55.158266
21
149.771132
0
LINE
8
Layer 1
10
55.158266
20
149.771132
11
54.372023
21
149.910477
0
LINE
8
Layer 1
10
54.372023
20
149.910477
11
53.863740
21
150.240833
0
LINE
8
Layer 1
10
53.863740
20
150.240833
11
53.599156
21
150.505417
0
LINE
8
Layer 1
10
53.599156
20
150.505417
11
53.599156
21
150.505417
0
LINE
8
Layer 1
10
71.079295
20
146.413195
11
71.383728
21
146.329812
0
LINE
8
Layer 1
10
71.383728
20
146.329812
11
71.687837
21
146.033958
0
LINE
8
Layer 1
10
71.687837
20
146.033958
11
71.978996
21
145.372341
0
LINE
8
Layer 1
10
71.978996
20
145.372341
11
72.102351
21
144.552292
0
LINE
8
Layer 1
10
72.102351
20
144.552292
11
72.243842
21
143.561444
0
LINE
8
Layer 1
10
72.243842
20
143.561444
11
72.587420
21
142.488542
0
LINE
8
Layer 1
10
72.587420
20
142.488542
11
73.010948
21
141.727142
0
LINE
8
Layer 1
10
73.010948
20
141.727142
11
73.552501
21
141.402826
0
LINE
8
Layer 1
10
73.552501
20
141.402826
11
74.407469
21
141.480256
0
LINE
8
Layer 1
10
74.407469
20
141.480256
11
75.771240
21
141.924097
0
LINE
8
Layer 1
10
75.771240
20
141.924097
11
77.829204
21
142.460788
0
LINE
8
Layer 1
10
77.829204
20
142.460788
11
78.440113
21
142.384465
0
LINE
8
Layer 1
10
78.440113
20
142.384465
11
78.858045
21
142.082847
0
LINE
8
Layer 1
10
78.858045
20
142.082847
11
79.038057
21
141.658461
0
LINE
8
Layer 1
10
79.038057
20
141.658461
11
78.865580
21
141.119686
0
LINE
8
Layer 1
10
78.865580
20
141.119686
11
77.208809
21
139.260625
0
LINE
8
Layer 1
10
77.208809
20
139.260625
11
75.797698
21
137.875972
0
LINE
8
Layer 1
10
75.797698
20
137.875972
11
77.208809
21
136.094445
0
LINE
8
Layer 1
10
77.208809
20
136.094445
11
78.155366
21
134.753046
0
LINE
8
Layer 1
10
78.155366
20
134.753046
11
78.537212
21
133.800397
0
LINE
8
Layer 1
10
78.537212
20
133.800397
11
78.517662
21
133.460146
0
LINE
8
Layer 1
10
78.517662
20
133.460146
11
78.358486
21
133.205432
0
LINE
8
Layer 1
10
78.358486
20
133.205432
11
77.623323
21
132.937083
0
LINE
8
Layer 1
10
77.623323
20
132.937083
11
77.069154
21
132.910315
0
LINE
8
Layer 1
10
77.069154
20
132.910315
11
76.505770
21
133.024092
0
LINE
8
Layer 1
10
76.505770
20
133.024092
11
74.404226
21
133.977778
0
LINE
8
Layer 1
10
74.404226
20
133.977778
11
72.763809
21
134.586320
0
LINE
8
Layer 1
10
72.763809
20
134.586320
11
72.184955
21
134.350041
0
LINE
8
Layer 1
10
72.184955
20
134.350041
11
71.262621
21
133.726936
0
LINE
8
Layer 1
10
71.262621
20
133.726936
11
69.077281
21
131.834653
0
LINE
8
Layer 1
10
69.077281
20
131.834653
11
68.402792
21
131.240499
0
LINE
8
Layer 1
10
68.402792
20
131.240499
11
67.865789
21
130.967554
0
LINE
8
Layer 1
10
67.865789
20
130.967554
11
67.418595
21
131.004686
0
LINE
8
Layer 1
10
67.418595
20
131.004686
11
67.013531
21
131.340764
0
LINE
8
Layer 1
10
67.013531
20
131.340764
11
66.862111
21
131.613590
0
LINE
8
Layer 1
10
66.862111
20
131.613590
11
66.845892
21
131.964366
0
LINE
8
Layer 1
10
66.845892
20
131.964366
11
67.260476
21
133.210486
0
LINE
8
Layer 1
10
67.260476
20
133.210486
11
67.685517
21
134.426231
0
LINE
8
Layer 1
10
67.685517
20
134.426231
11
67.847905
21
135.379470
0
LINE
8
Layer 1
10
67.847905
20
135.379470
11
67.745242
21
136.039762
0
LINE
8
Layer 1
10
67.745242
20
136.039762
11
67.375128
21
136.376667
0
LINE
8
Layer 1
10
67.375128
20
136.376667
11
65.470128
21
137.364445
0
LINE
8
Layer 1
10
65.470128
20
137.364445
11
64.326519
21
138.193424
0
LINE
8
Layer 1
10
64.326519
20
138.193424
11
64.115233
21
138.564761
0
LINE
8
Layer 1
10
64.115233
20
138.564761
11
64.059017
21
139.004861
0
LINE
8
Layer 1
10
64.059017
20
139.004861
11
64.089320
21
139.455994
0
LINE
8
Layer 1
10
64.089320
20
139.455994
11
64.257416
21
139.700876
0
LINE
8
Layer 1
10
64.257416
20
139.700876
11
65.470128
21
139.851528
0
LINE
8
Layer 1
10
65.470128
20
139.851528
11
68.142420
21
140.133750
0
LINE
8
Layer 1
10
68.142420
20
140.133750
11
68.944415
21
140.310503
0
LINE
8
Layer 1
10
68.944415
20
140.310503
11
69.389264
21
140.777577
0
LINE
8
Layer 1
10
69.389264
20
140.777577
11
69.691351
21
142.031783
0
LINE
8
Layer 1
10
69.691351
20
142.031783
11
70.065059
21
144.569931
0
LINE
8
Layer 1
10
70.065059
20
144.569931
11
70.466965
21
145.910719
0
LINE
8
Layer 1
10
70.466965
20
145.910719
11
70.756238
21
146.275224
0
LINE
8
Layer 1
10
70.756238
20
146.275224
11
71.079295
21
146.413195
0
LINE
8
Layer 1
10
71.079295
20
146.413195
11
71.079295
21
146.413195
0
LINE
8
Layer 1
10
58.608601
20
145.310764
11
57.148135
21
145.204878
0
LINE
8
Layer 1
10
57.148135
20
145.204878
11
56.800520
21
145.032892
0
LINE
8
Layer 1
10
56.800520
20
145.032892
11
56.580128
21
144.746320
0
LINE
8
Layer 1
10
56.580128
20
144.746320
11
56.420459
21
144.357242
0
LINE
8
Layer 1
10
56.420459
20
144.357242
11
56.583958
21
144.209265
0
LINE
8
Layer 1
10
56.583958
20
144.209265
11
58.441031
21
144.596389
0
LINE
8
Layer 1
10
58.441031
20
144.596389
11
60.196101
21
145.160833
0
LINE
8
Layer 1
10
60.196101
20
145.160833
11
59.789249
21
145.265793
0
LINE
8
Layer 1
10
59.789249
20
145.265793
11
58.608601
21
145.310764
0
LINE
8
Layer 1
10
58.608601
20
145.310764
11
58.608601
21
145.310764
0
LINE
8
Layer 1
10
89.891170
20
142.135764
11
90.717679
21
141.702171
0
LINE
8
Layer 1
10
90.717679
20
141.702171
11
92.087212
21
140.539445
0
LINE
8
Layer 1
10
92.087212
20
140.539445
11
93.550808
21
139.229803
0
LINE
8
Layer 1
10
93.550808
20
139.229803
11
94.609573
21
138.449236
0
LINE
8
Layer 1
10
94.609573
20
138.449236
11
98.490128
21
136.544236
0
LINE
8
Layer 1
10
98.490128
20
136.544236
11
100.183462
21
135.829861
0
LINE
8
Layer 1
10
100.183462
20
135.829861
11
102.579208
21
135.092159
0
LINE
8
Layer 1
10
102.579208
20
135.092159
11
106.392351
21
134.577500
0
LINE
8
Layer 1
10
106.392351
20
134.577500
11
110.055226
21
134.129044
0
LINE
8
Layer 1
10
110.055226
20
134.129044
11
113.165684
21
133.589722
0
LINE
8
Layer 1
10
113.165684
20
133.589722
11
114.370851
21
133.190804
0
LINE
8
Layer 1
10
114.370851
20
133.190804
11
115.826977
21
132.521941
0
LINE
8
Layer 1
10
115.826977
20
132.521941
11
117.167334
21
131.769607
0
LINE
8
Layer 1
10
117.167334
20
131.769607
11
118.025198
21
131.120278
0
LINE
8
Layer 1
10
118.025198
20
131.120278
11
118.896462
21
130.011166
0
LINE
8
Layer 1
10
118.896462
20
130.011166
11
119.461673
21
128.917252
0
LINE
8
Layer 1
10
119.461673
20
128.917252
11
119.724036
21
127.855671
0
LINE
8
Layer 1
10
119.724036
20
127.855671
11
119.686755
21
126.843561
0
LINE
8
Layer 1
10
119.686755
20
126.843561
11
119.353034
21
125.898060
0
LINE
8
Layer 1
10
119.353034
20
125.898060
11
118.726076
21
125.036302
0
LINE
8
Layer 1
10
118.726076
20
125.036302
11
117.809086
21
124.275427
0
LINE
8
Layer 1
10
117.809086
20
124.275427
11
116.605267
21
123.632570
0
LINE
8
Layer 1
10
116.605267
20
123.632570
11
115.644150
21
123.343690
0
LINE
8
Layer 1
10
115.644150
20
123.343690
11
114.532698
21
123.729583
0
LINE
8
Layer 1
10
114.532698
20
123.729583
11
113.751511
21
124.205675
0
LINE
8
Layer 1
10
113.751511
20
124.205675
11
113.089882
21
124.853009
0
LINE
8
Layer 1
10
113.089882
20
124.853009
11
112.631518
21
125.569221
0
LINE
8
Layer 1
10
112.631518
20
125.569221
11
112.460128
21
126.251945
0
LINE
8
Layer 1
10
112.460128
20
126.251945
11
112.571922
21
126.858923
0
LINE
8
Layer 1
10
112.571922
20
126.858923
11
112.868148
21
127.309014
0
LINE
8
Layer 1
10
112.868148
20
127.309014
11
113.290072
21
127.597731
0
LINE
8
Layer 1
10
113.290072
20
127.597731
11
113.778958
21
127.720584
0
LINE
8
Layer 1
10
113.778958
20
127.720584
11
114.276073
21
127.673087
0
LINE
8
Layer 1
10
114.276073
20
127.673087
11
114.722680
21
127.450751
0
LINE
8
Layer 1
10
114.722680
20
127.450751
11
115.060045
21
127.049089
0
LINE
8
Layer 1
10
115.060045
20
127.049089
11
115.229434
21
126.463611
0
LINE
8
Layer 1
10
115.229434
20
126.463611
11
115.426790
21
125.729712
0
LINE
8
Layer 1
10
115.426790
20
125.729712
11
115.979087
21
125.555208
0
LINE
8
Layer 1
10
115.979087
20
125.555208
11
116.694768
21
125.773947
0
LINE
8
Layer 1
10
116.694768
20
125.773947
11
117.279692
21
126.336217
0
LINE
8
Layer 1
10
117.279692
20
126.336217
11
117.633237
21
127.101089
0
LINE
8
Layer 1
10
117.633237
20
127.101089
11
117.654781
21
127.927639
0
LINE
8
Layer 1
10
117.654781
20
127.927639
11
117.081517
21
129.374028
0
LINE
8
Layer 1
10
117.081517
20
129.374028
11
116.502320
21
129.939612
0
LINE
8
Layer 1
10
116.502320
20
129.939612
11
115.598216
21
130.536023
0
LINE
8
Layer 1
10
115.598216
20
130.536023
11
114.639807
21
131.007842
0
LINE
8
Layer 1
10
114.639807
20
131.007842
11
113.897698
21
131.199653
0
LINE
8
Layer 1
10
113.897698
20
131.199653
11
113.148045
21
131.446597
0
LINE
8
Layer 1
10
113.148045
20
131.446597
11
112.380810
21
131.705547
0
LINE
8
Layer 1
10
112.380810
20
131.705547
11
110.598218
21
132.011556
0
LINE
8
Layer 1
10
110.598218
20
132.011556
11
104.134573
21
132.743056
0
LINE
8
Layer 1
10
104.134573
20
132.743056
11
102.625477
21
132.933610
0
LINE
8
Layer 1
10
102.625477
20
132.933610
11
101.308381
21
133.235084
0
LINE
8
Layer 1
10
101.308381
20
133.235084
11
98.066795
21
134.515764
0
LINE
8
Layer 1
10
98.066795
20
134.515764
11
95.764920
21
135.538820
0
LINE
8
Layer 1
10
95.764920
20
135.538820
11
94.535790
21
136.297427
0
LINE
8
Layer 1
10
94.535790
20
136.297427
11
92.758518
21
137.609546
0
LINE
8
Layer 1
10
92.758518
20
137.609546
11
89.785337
21
140.169028
0
LINE
8
Layer 1
10
89.785337
20
140.169028
11
89.459884
21
140.742101
0
LINE
8
Layer 1
10
89.459884
20
140.742101
11
89.374200
21
141.358171
0
LINE
8
Layer 1
10
89.374200
20
141.358171
11
89.520542
21
141.871353
0
LINE
8
Layer 1
10
89.520542
20
141.871353
11
89.891170
21
142.135764
0
LINE
8
Layer 1
10
89.891170
20
142.135764
11
89.891170
21
142.135764
0
LINE
8
Layer 1
10
71.158670
20
140.512986
11
71.010702
21
140.461277
0
LINE
8
Layer 1
10
71.010702
20
140.461277
11
71.052837
21
140.336597
0
LINE
8
Layer 1
10
71.052837
20
140.336597
11
71.057604
21
139.979835
0
LINE
8
Layer 1
10
71.057604
20
139.979835
11
70.823531
21
139.375278
0
LINE
8
Layer 1
10
70.823531
20
139.375278
11
70.282764
21
138.740009
0
LINE
8
Layer 1
10
70.282764
20
138.740009
11
69.430059
21
138.413958
0
LINE
8
Layer 1
10
69.430059
20
138.413958
11
68.742971
21
138.222654
0
LINE
8
Layer 1
10
68.742971
20
138.222654
11
68.478067
21
137.982731
0
LINE
8
Layer 1
10
68.478067
20
137.982731
11
68.634038
21
137.689428
0
LINE
8
Layer 1
10
68.634038
20
137.689428
11
69.209573
21
137.337986
0
LINE
8
Layer 1
10
69.209573
20
137.337986
11
69.674090
21
137.030644
0
LINE
8
Layer 1
10
69.674090
20
137.030644
11
69.893791
21
136.625401
0
LINE
8
Layer 1
10
69.893791
20
136.625401
11
69.890445
21
136.029644
0
LINE
8
Layer 1
10
69.890445
20
136.029644
11
69.685823
21
135.150764
0
LINE
8
Layer 1
10
69.685823
20
135.150764
11
69.622106
21
134.822659
0
LINE
8
Layer 1
10
69.622106
20
134.822659
11
69.729320
21
134.776859
0
LINE
8
Layer 1
10
69.729320
20
134.776859
11
70.682420
21
135.644653
0
LINE
8
Layer 1
10
70.682420
20
135.644653
11
72.146448
21
136.844097
0
LINE
8
Layer 1
10
72.146448
20
136.844097
11
73.575198
21
136.279653
0
LINE
8
Layer 1
10
73.575198
20
136.279653
11
74.413456
21
135.928283
0
LINE
8
Layer 1
10
74.413456
20
135.928283
11
74.826176
21
135.870595
0
LINE
8
Layer 1
10
74.826176
20
135.870595
11
74.783181
21
136.092402
0
LINE
8
Layer 1
10
74.783181
20
136.092402
11
74.254295
21
136.579514
0
LINE
8
Layer 1
10
74.254295
20
136.579514
11
73.729472
21
137.148630
0
LINE
8
Layer 1
10
73.729472
20
137.148630
11
73.513462
21
137.690764
0
LINE
8
Layer 1
10
73.513462
20
137.690764
11
73.729472
21
138.232901
0
LINE
8
Layer 1
10
73.729472
20
138.232901
11
74.254295
21
138.802014
0
LINE
8
Layer 1
10
74.254295
20
138.802014
11
74.729885
21
139.272567
0
LINE
8
Layer 1
10
74.729885
20
139.272567
11
74.818740
21
139.578125
0
LINE
8
Layer 1
10
74.818740
20
139.578125
11
74.588485
21
139.615411
0
LINE
8
Layer 1
10
74.588485
20
139.615411
11
74.298392
21
139.437014
0
LINE
8
Layer 1
10
74.298392
20
139.437014
11
73.783439
21
139.200565
0
LINE
8
Layer 1
10
73.783439
20
139.200565
11
73.019573
21
139.101875
0
LINE
8
Layer 1
10
73.019573
20
139.101875
11
72.214509
21
139.249734
0
LINE
8
Layer 1
10
72.214509
20
139.249734
11
71.767212
21
139.807431
0
LINE
8
Layer 1
10
71.767212
20
139.807431
11
71.455202
21
140.305730
0
LINE
8
Layer 1
10
71.455202
20
140.305730
11
71.158670
21
140.512986
0
LINE
8
Layer 1
10
71.158670
20
140.512986
11
71.158670
21
140.512986
0
LINE
8
Layer 1
10
51.120892
20
139.340000
11
51.297281
21
139.331181
0
LINE
8
Layer 1
10
51.297281
20
139.331181
11
51.660695
21
139.218077
0
LINE
8
Layer 1
10
51.660695
20
139.218077
11
51.895246
21
139.008253
0
LINE
8
Layer 1
10
51.895246
20
139.008253
11
52.008252
21
138.340854
0
LINE
8
Layer 1
10
52.008252
20
138.340854
11
51.697285
21
137.413801
0
LINE
8
Layer 1
10
51.697285
20
137.413801
11
51.023334
21
136.311910
0
LINE
8
Layer 1
10
51.023334
20
136.311910
11
50.047385
21
135.119997
0
LINE
8
Layer 1
10
50.047385
20
135.119997
11
48.830425
21
133.922879
0
LINE
8
Layer 1
10
48.830425
20
133.922879
11
47.433441
21
132.805372
0
LINE
8
Layer 1
10
47.433441
20
132.805372
11
45.917420
21
131.852292
0
LINE
8
Layer 1
10
45.917420
20
131.852292
11
43.880128
21
130.732222
0
LINE
8
Layer 1
10
43.880128
20
130.732222
11
42.346154
21
130.060903
0
LINE
8
Layer 1
10
42.346154
20
130.060903
11
39.364573
21
129.215278
0
LINE
8
Layer 1
10
39.364573
20
129.215278
11
37.441934
21
128.624375
0
LINE
8
Layer 1
10
37.441934
20
128.624375
11
35.977906
21
128.377431
0
LINE
8
Layer 1
10
35.977906
20
128.377431
11
35.356386
21
128.301325
0
LINE
8
Layer 1
10
35.356386
20
128.301325
11
35.007767
21
128.121667
0
LINE
8
Layer 1
10
35.007767
20
128.121667
11
34.627497
21
127.902783
0
LINE
8
Layer 1
10
34.627497
20
127.902783
11
33.931795
21
127.724792
0
LINE
8
Layer 1
10
33.931795
20
127.724792
11
31.885684
21
127.275000
0
LINE
8
Layer 1
10
31.885684
20
127.275000
11
29.910131
21
126.816389
0
LINE
8
Layer 1
10
29.910131
20
126.816389
11
28.499020
21
126.410695
0
LINE
8
Layer 1
10
28.499020
20
126.410695
11
25.951310
21
125.231966
0
LINE
8
Layer 1
10
25.951310
20
125.231966
11
24.331516
21
124.117141
0
LINE
8
Layer 1
10
24.331516
20
124.117141
11
23.827021
21
123.543819
0
LINE
8
Layer 1
10
23.827021
20
123.543819
11
23.503426
21
122.938625
0
LINE
8
Layer 1
10
23.503426
20
122.938625
11
23.343703
21
122.285608
0
LINE
8
Layer 1
10
23.343703
20
122.285608
11
23.330825
21
121.568820
0
LINE
8
Layer 1
10
23.330825
20
121.568820
11
23.565717
21
120.485335
0
LINE
8
Layer 1
10
23.565717
20
120.485335
11
24.318603
21
119.831389
0
LINE
8
Layer 1
10
24.318603
20
119.831389
11
25.120932
21
119.491948
0
LINE
8
Layer 1
10
25.120932
20
119.491948
11
25.694437
21
119.566806
0
LINE
8
Layer 1
10
25.694437
20
119.566806
11
25.975097
21
119.813015
0
LINE
8
Layer 1
10
25.975097
20
119.813015
11
25.853187
21
120.025417
0
LINE
8
Layer 1
10
25.853187
20
120.025417
11
25.571293
21
120.456555
0
LINE
8
Layer 1
10
25.571293
20
120.456555
11
25.540385
21
121.105804
0
LINE
8
Layer 1
10
25.540385
20
121.105804
11
25.736433
21
121.777098
0
LINE
8
Layer 1
10
25.736433
20
121.777098
11
26.135409
21
122.274375
0
LINE
8
Layer 1
10
26.135409
20
122.274375
11
26.775328
21
122.557450
0
LINE
8
Layer 1
10
26.775328
20
122.557450
11
27.546520
21
122.283195
0
LINE
8
Layer 1
10
27.546520
20
122.283195
11
27.976777
21
122.018462
0
LINE
8
Layer 1
10
27.976777
20
122.018462
11
28.221972
21
121.705568
0
LINE
8
Layer 1
10
28.221972
20
121.705568
11
28.357909
21
120.475208
0
LINE
8
Layer 1
10
28.357909
20
120.475208
11
28.202961
21
119.196478
0
LINE
8
Layer 1
10
28.202961
20
119.196478
11
27.918183
21
118.793689
0
LINE
8
Layer 1
10
27.918183
20
118.793689
11
27.414228
21
118.367361
0
LINE
8
Layer 1
10
27.414228
20
118.367361
11
26.339473
21
117.846072
0
LINE
8
Layer 1
10
26.339473
20
117.846072
11
25.040161
21
117.627287
0
LINE
8
Layer 1
10
25.040161
20
117.627287
11
23.774741
21
117.723418
0
LINE
8
Layer 1
10
23.774741
20
117.723418
11
22.801659
21
118.146875
0
LINE
8
Layer 1
10
22.801659
20
118.146875
11
22.161280
21
118.837890
0
LINE
8
Layer 1
10
22.161280
20
118.837890
11
21.589103
21
119.762525
0
LINE
8
Layer 1
10
21.589103
20
119.762525
11
21.177823
21
120.739230
0
LINE
8
Layer 1
10
21.177823
20
120.739230
11
21.020131
21
121.586458
0
LINE
8
Layer 1
10
21.020131
20
121.586458
11
21.206829
21
122.555084
0
LINE
8
Layer 1
10
21.206829
20
122.555084
11
21.705406
21
123.645014
0
LINE
8
Layer 1
10
21.705406
20
123.645014
11
22.423585
21
124.693444
0
LINE
8
Layer 1
10
22.423585
20
124.693444
11
23.269089
21
125.537570
0
LINE
8
Layer 1
10
23.269089
20
125.537570
11
25.667316
21
127.083112
0
LINE
8
Layer 1
10
25.667316
20
127.083112
11
26.767021
21
127.610390
0
LINE
8
Layer 1
10
26.767021
20
127.610390
11
27.502423
21
127.812986
0
LINE
8
Layer 1
10
27.502423
20
127.812986
11
27.925297
21
127.884681
0
LINE
8
Layer 1
10
27.925297
20
127.884681
11
28.190339
21
128.059931
0
LINE
8
Layer 1
10
28.190339
20
128.059931
11
28.570610
21
128.283172
0
LINE
8
Layer 1
10
28.570610
20
128.283172
11
29.266312
21
128.465625
0
LINE
8
Layer 1
10
29.266312
20
128.465625
11
31.207093
21
128.844691
0
LINE
8
Layer 1
10
31.207093
20
128.844691
11
32.450128
21
129.224097
0
LINE
8
Layer 1
10
32.450128
20
129.224097
11
33.861240
21
129.638611
0
LINE
8
Layer 1
10
33.861240
20
129.638611
11
35.836795
21
130.097222
0
LINE
8
Layer 1
10
35.836795
20
130.097222
11
37.882906
21
130.547014
0
LINE
8
Layer 1
10
37.882906
20
130.547014
11
38.578608
21
130.725006
0
LINE
8
Layer 1
10
38.578608
20
130.725006
11
38.958878
21
130.943889
0
LINE
8
Layer 1
10
38.958878
20
130.943889
11
39.312300
21
131.123549
0
LINE
8
Layer 1
10
39.312300
20
131.123549
11
39.946656
21
131.199653
0
LINE
8
Layer 1
10
39.946656
20
131.199653
11
40.749328
21
131.322212
0
LINE
8
Layer 1
10
40.749328
20
131.322212
11
41.771453
21
131.664346
0
LINE
8
Layer 1
10
41.771453
20
131.664346
11
44.203924
21
132.854081
0
LINE
8
Layer 1
10
44.203924
20
132.854081
11
46.703803
21
134.462348
0
LINE
8
Layer 1
10
46.703803
20
134.462348
11
48.730823
21
136.182639
0
LINE
8
Layer 1
10
48.730823
20
136.182639
11
49.599006
21
137.264949
0
LINE
8
Layer 1
10
49.599006
20
137.264949
11
50.221309
21
138.343403
0
LINE
8
Layer 1
10
50.221309
20
138.343403
11
50.645499
21
139.118355
0
LINE
8
Layer 1
10
50.645499
20
139.118355
11
51.120892
21
139.340000
0
LINE
8
Layer 1
10
51.120892
20
139.340000
11
51.120892
21
139.340000
0
LINE
8
Layer 1
10
72.102351
20
132.901806
11
72.532255
21
132.835803
0
LINE
8
Layer 1
10
72.532255
20
132.835803
11
72.982810
21
132.544159
0
LINE
8
Layer 1
10
72.982810
20
132.544159
11
74.033809
21
131.270208
0
LINE
8
Layer 1
10
74.033809
20
131.270208
11
75.297955
21
129.641870
0
LINE
8
Layer 1
10
75.297955
20
129.641870
11
76.818520
21
128.079258
0
LINE
8
Layer 1
10
76.818520
20
128.079258
11
78.629038
21
126.551080
0
LINE
8
Layer 1
10
78.629038
20
126.551080
11
80.763045
21
125.026042
0
LINE
8
Layer 1
10
80.763045
20
125.026042
11
83.585267
21
123.288611
0
LINE
8
Layer 1
10
83.585267
20
123.288611
11
84.520128
21
122.732986
0
LINE
8
Layer 1
10
84.520128
20
122.732986
11
85.199574
21
122.338229
0
LINE
8
Layer 1
10
85.199574
20
122.338229
11
85.843045
21
122.168542
0
LINE
8
Layer 1
10
85.843045
20
122.168542
11
86.331479
21
122.084346
0
LINE
8
Layer 1
10
86.331479
20
122.084346
11
86.636795
21
121.886320
0
LINE
8
Layer 1
10
86.636795
20
121.886320
11
86.957453
21
121.686999
0
LINE
8
Layer 1
10
86.957453
20
121.686999
11
87.483462
21
121.604097
0
LINE
8
Layer 1
10
87.483462
20
121.604097
11
88.009470
21
121.521194
0
LINE
8
Layer 1
10
88.009470
20
121.521194
11
88.330128
21
121.321875
0
LINE
8
Layer 1
10
88.330128
20
121.321875
11
88.594784
21
121.122555
0
LINE
8
Layer 1
10
88.594784
20
121.122555
11
88.991587
21
121.039653
0
LINE
8
Layer 1
10
88.991587
20
121.039653
11
90.658462
21
120.475208
0
LINE
8
Layer 1
10
90.658462
20
120.475208
11
92.122490
21
119.910764
0
LINE
8
Layer 1
10
92.122490
20
119.910764
11
92.916240
21
119.672639
0
LINE
8
Layer 1
10
92.916240
20
119.672639
11
95.405418
21
118.502718
0
LINE
8
Layer 1
10
95.405418
20
118.502718
11
96.311726
21
118.217431
0
LINE
8
Layer 1
10
96.311726
20
118.217431
11
97.558005
21
118.919984
0
LINE
8
Layer 1
10
97.558005
20
118.919984
11
99.574920
21
120.528125
0
LINE
8
Layer 1
10
99.574920
20
120.528125
11
99.869234
21
120.821531
0
LINE
8
Layer 1
10
99.869234
20
120.821531
11
99.937682
21
121.083320
0
LINE
8
Layer 1
10
99.937682
20
121.083320
11
99.301517
21
122.045070
0
LINE
8
Layer 1
10
99.301517
20
122.045070
11
97.237767
21
124.355764
0
LINE
8
Layer 1
10
97.237767
20
124.355764
11
96.308791
21
125.462782
0
LINE
8
Layer 1
10
96.308791
20
125.462782
11
96.201037
21
125.804158
0
LINE
8
Layer 1
10
96.201037
20
125.804158
11
96.285267
21
126.084375
0
LINE
8
Layer 1
10
96.285267
20
126.084375
11
96.734171
21
126.418157
0
LINE
8
Layer 1
10
96.734171
20
126.418157
11
97.439342
21
126.611703
0
LINE
8
Layer 1
10
97.439342
20
126.611703
11
98.176017
21
126.631984
0
LINE
8
Layer 1
10
98.176017
20
126.631984
11
98.719434
21
126.445972
0
LINE
8
Layer 1
10
98.719434
20
126.445972
11
100.492142
21
125.987361
0
LINE
8
Layer 1
10
100.492142
20
125.987361
11
101.929712
21
125.793333
0
LINE
8
Layer 1
10
101.929712
20
125.793333
11
103.596587
21
127.768889
0
LINE
8
Layer 1
10
103.596587
20
127.768889
11
105.616240
21
129.894375
0
LINE
8
Layer 1
10
105.616240
20
129.894375
11
106.061483
21
129.974865
0
LINE
8
Layer 1
10
106.061483
20
129.974865
11
106.445144
21
129.837680
0
LINE
8
Layer 1
10
106.445144
20
129.837680
11
106.714214
21
129.519381
0
LINE
8
Layer 1
10
106.714214
20
129.519381
11
106.815684
21
129.056528
0
LINE
8
Layer 1
10
106.815684
20
129.056528
11
106.518633
21
127.166832
0
LINE
8
Layer 1
10
106.518633
20
127.166832
11
105.951378
21
125.131875
0
LINE
8
Layer 1
10
105.951378
20
125.131875
11
105.572142
21
123.667847
0
LINE
8
Layer 1
10
105.572142
20
123.667847
11
105.422212
21
122.777083
0
LINE
8
Layer 1
10
105.422212
20
122.777083
11
107.036170
21
122.644792
0
LINE
8
Layer 1
10
107.036170
20
122.644792
11
109.257364
21
122.352028
0
LINE
8
Layer 1
10
109.257364
20
122.352028
11
110.825836
21
121.911679
0
LINE
8
Layer 1
10
110.825836
20
121.911679
11
111.692304
21
121.343997
0
LINE
8
Layer 1
10
111.692304
20
121.343997
11
111.846887
21
121.018735
0
LINE
8
Layer 1
10
111.846887
20
121.018735
11
111.807490
21
120.669236
0
LINE
8
Layer 1
10
111.807490
20
120.669236
11
111.214084
21
120.143110
0
LINE
8
Layer 1
10
111.214084
20
120.143110
11
110.008323
21
119.460972
0
LINE
8
Layer 1
10
110.008323
20
119.460972
11
107.344851
21
118.005764
0
LINE
8
Layer 1
10
107.344851
20
118.005764
11
106.725285
21
117.526954
0
LINE
8
Layer 1
10
106.725285
20
117.526954
11
106.311684
21
116.868037
0
LINE
8
Layer 1
10
106.311684
20
116.868037
11
105.563323
21
113.701875
0
LINE
8
Layer 1
10
105.563323
20
113.701875
11
105.012078
21
111.486520
0
LINE
8
Layer 1
10
105.012078
20
111.486520
11
104.713821
21
111.111638
0
LINE
8
Layer 1
10
104.713821
20
111.111638
11
104.302142
21
111.020764
0
LINE
8
Layer 1
10
104.302142
20
111.020764
11
103.870717
21
111.114787
0
LINE
8
Layer 1
10
103.870717
20
111.114787
11
103.514016
21
111.530199
0
LINE
8
Layer 1
10
103.514016
20
111.530199
11
102.591170
21
114.125208
0
LINE
8
Layer 1
10
102.591170
20
114.125208
11
101.823878
21
116.197778
0
LINE
8
Layer 1
10
101.823878
20
116.197778
11
101.560664
21
116.719383
0
LINE
8
Layer 1
10
101.560664
20
116.719383
11
101.291842
21
116.983459
0
LINE
8
Layer 1
10
101.291842
20
116.983459
11
100.889958
21
117.053132
0
LINE
8
Layer 1
10
100.889958
20
117.053132
11
100.227559
21
116.991528
0
LINE
8
Layer 1
10
100.227559
20
116.991528
11
98.531248
21
116.749941
0
LINE
8
Layer 1
10
98.531248
20
116.749941
11
97.633711
21
116.486384
0
LINE
8
Layer 1
10
97.633711
20
116.486384
11
97.281240
21
116.060885
0
LINE
8
Layer 1
10
97.281240
20
116.060885
11
97.220128
21
115.333472
0
LINE
8
Layer 1
10
97.220128
20
115.333472
11
97.024890
21
114.210090
0
LINE
8
Layer 1
10
97.024890
20
114.210090
11
96.347003
21
113.102153
0
LINE
8
Layer 1
10
96.347003
20
113.102153
11
95.442454
21
112.207089
0
LINE
8
Layer 1
10
95.442454
20
112.207089
11
94.993033
21
112.048822
0
LINE
8
Layer 1
10
94.993033
20
112.048822
11
94.415545
21
112.008542
0
LINE
8
Layer 1
10
94.415545
20
112.008542
11
93.451777
21
112.169697
0
LINE
8
Layer 1
10
93.451777
20
112.169697
11
92.490921
21
112.608801
0
LINE
8
Layer 1
10
92.490921
20
112.608801
11
91.643505
21
113.259303
0
LINE
8
Layer 1
10
91.643505
20
113.259303
11
91.020059
21
114.054653
0
LINE
8
Layer 1
10
91.020059
20
114.054653
11
90.742400
21
114.785499
0
LINE
8
Layer 1
10
90.742400
20
114.785499
11
91.152351
21
115.377570
0
LINE
8
Layer 1
10
91.152351
20
115.377570
11
91.864991
21
115.879609
0
LINE
8
Layer 1
10
91.864991
20
115.879609
11
92.654508
21
116.139528
0
LINE
8
Layer 1
10
92.654508
20
116.139528
11
93.336766
21
116.126506
0
LINE
8
Layer 1
10
93.336766
20
116.126506
11
93.727628
21
115.809722
0
LINE
8
Layer 1
10
93.727628
20
115.809722
11
93.758868
21
115.297220
0
LINE
8
Layer 1
10
93.758868
20
115.297220
11
93.568878
21
114.760208
0
LINE
8
Layer 1
10
93.568878
20
114.760208
11
93.354640
21
114.321832
0
LINE
8
Layer 1
10
93.354640
20
114.321832
11
93.403102
21
114.079812
0
LINE
8
Layer 1
10
93.403102
20
114.079812
11
93.735094
21
114.017035
0
LINE
8
Layer 1
10
93.735094
20
114.017035
11
94.371448
21
114.116389
0
LINE
8
Layer 1
10
94.371448
20
114.116389
11
94.980229
21
114.348931
0
LINE
8
Layer 1
10
94.980229
20
114.348931
11
95.347013
21
114.700903
0
LINE
8
Layer 1
10
95.347013
20
114.700903
11
95.484570
21
115.137482
0
LINE
8
Layer 1
10
95.484570
20
115.137482
11
95.405666
21
115.623849
0
LINE
8
Layer 1
10
95.405666
20
115.623849
11
95.123071
21
116.125182
0
LINE
8
Layer 1
10
95.123071
20
116.125182
11
94.649553
21
116.606660
0
LINE
8
Layer 1
10
94.649553
20
116.606660
11
93.997881
21
117.033461
0
LINE
8
Layer 1
10
93.997881
20
117.033461
11
93.180823
21
117.370764
0
LINE
8
Layer 1
10
93.180823
20
117.370764
11
91.725615
21
117.979306
0
LINE
8
Layer 1
10
91.725615
20
117.979306
11
90.826031
21
118.217431
0
LINE
8
Layer 1
10
90.826031
20
118.217431
11
90.330279
21
118.300332
0
LINE
8
Layer 1
10
90.330279
20
118.300332
11
90.023462
21
118.499653
0
LINE
8
Layer 1
10
90.023462
20
118.499653
11
89.702804
21
118.698971
0
LINE
8
Layer 1
10
89.702804
20
118.698971
11
89.176795
21
118.781875
0
LINE
8
Layer 1
10
89.176795
20
118.781875
11
88.650786
21
118.864777
0
LINE
8
Layer 1
10
88.650786
20
118.864777
11
88.330128
21
119.064097
0
LINE
8
Layer 1
10
88.330128
20
119.064097
11
88.009470
21
119.263416
0
LINE
8
Layer 1
10
88.009470
20
119.263416
11
87.483462
21
119.346320
0
LINE
8
Layer 1
10
87.483462
20
119.346320
11
86.957453
21
119.429221
0
LINE
8
Layer 1
10
86.957453
20
119.429221
11
86.636795
21
119.628542
0
LINE
8
Layer 1
10
86.636795
20
119.628542
11
86.331479
21
119.832930
0
LINE
8
Layer 1
10
86.331479
20
119.832930
11
85.843045
21
119.928403
0
LINE
8
Layer 1
10
85.843045
20
119.928403
11
84.806958
21
120.223316
0
LINE
8
Layer 1
10
84.806958
20
120.223316
11
83.307790
21
120.988080
0
LINE
8
Layer 1
10
83.307790
20
120.988080
11
79.542620
21
123.472834
0
LINE
8
Layer 1
10
79.542620
20
123.472834
11
75.792349
21
126.474019
0
LINE
8
Layer 1
10
75.792349
20
126.474019
11
74.311807
21
127.884320
0
LINE
8
Layer 1
10
74.311807
20
127.884320
11
73.301795
21
129.082986
0
LINE
8
Layer 1
10
73.301795
20
129.082986
11
72.194745
21
130.474856
0
LINE
8
Layer 1
10
72.194745
20
130.474856
11
71.914307
21
130.607657
0
LINE
8
Layer 1
10
71.914307
20
130.607657
11
71.820128
21
130.361806
0
LINE
8
Layer 1
10
71.820128
20
130.361806
11
71.327944
21
129.348843
0
LINE
8
Layer 1
10
71.327944
20
129.348843
11
70.053435
21
127.637255
0
LINE
8
Layer 1
10
70.053435
20
127.637255
11
68.299668
21
125.601223
0
LINE
8
Layer 1
10
68.299668
20
125.601223
11
66.369712
21
123.614931
0
LINE
8
Layer 1
10
66.369712
20
123.614931
11
63.296715
21
120.865775
0
LINE
8
Layer 1
10
63.296715
20
120.865775
11
59.852142
21
118.041042
0
LINE
8
Layer 1
10
59.852142
20
118.041042
11
54.101865
21
114.936597
0
LINE
8
Layer 1
10
54.101865
20
114.936597
11
50.697521
21
113.134232
0
LINE
8
Layer 1
10
50.697521
20
113.134232
11
48.505649
21
111.726710
0
LINE
8
Layer 1
10
48.505649
20
111.726710
11
47.332561
21
110.565937
0
LINE
8
Layer 1
10
47.332561
20
110.565937
11
47.067535
21
110.031802
0
LINE
8
Layer 1
10
47.067535
20
110.031802
11
46.984573
21
109.503820
0
LINE
8
Layer 1
10
46.984573
20
109.503820
11
47.087232
21
108.859211
0
LINE
8
Layer 1
10
47.087232
20
108.859211
11
47.378129
21
108.392633
0
LINE
8
Layer 1
10
47.378129
20
108.392633
11
47.831639
21
108.131076
0
LINE
8
Layer 1
10
47.831639
20
108.131076
11
48.422142
21
108.101528
0
LINE
8
Layer 1
10
48.422142
20
108.101528
11
48.879589
21
108.270440
0
LINE
8
Layer 1
10
48.879589
20
108.270440
11
49.152389
21
108.541488
0
LINE
8
Layer 1
10
49.152389
20
108.541488
11
49.172514
21
108.793199
0
LINE
8
Layer 1
10
49.172514
20
108.793199
11
48.871934
21
108.904097
0
LINE
8
Layer 1
10
48.871934
20
108.904097
11
48.398192
21
109.029216
0
LINE
8
Layer 1
10
48.398192
20
109.029216
11
48.082455
21
109.353872
0
LINE
8
Layer 1
10
48.082455
20
109.353872
11
47.967430
21
109.802009
0
LINE
8
Layer 1
10
47.967430
20
109.802009
11
48.095823
21
110.297570
0
LINE
8
Layer 1
10
48.095823
20
110.297570
11
48.580209
21
110.750619
0
LINE
8
Layer 1
10
48.580209
20
110.750619
11
49.489295
21
110.879653
0
LINE
8
Layer 1
10
49.489295
20
110.879653
11
50.318478
21
110.759355
0
LINE
8
Layer 1
10
50.318478
20
110.759355
11
50.952481
21
110.417751
0
LINE
8
Layer 1
10
50.952481
20
110.417751
11
51.357599
21
109.883764
0
LINE
8
Layer 1
10
51.357599
20
109.883764
11
51.500128
21
109.186320
0
LINE
8
Layer 1
10
51.500128
20
109.186320
11
51.294369
21
108.445160
0
LINE
8
Layer 1
10
51.294369
20
108.445160
11
50.762552
21
107.593842
0
LINE
8
Layer 1
10
50.762552
20
107.593842
11
50.032875
21
106.797930
0
LINE
8
Layer 1
10
50.032875
20
106.797930
11
49.233531
21
106.222986
0
LINE
8
Layer 1
10
49.233531
20
106.222986
11
48.239470
21
105.850544
0
LINE
8
Layer 1
10
48.239470
20
105.850544
11
47.011031
21
106.187708
0
LINE
8
Layer 1
10
47.011031
20
106.187708
11
46.278047
21
106.550912
0
LINE
8
Layer 1
10
46.278047
20
106.550912
11
45.675355
21
107.046528
0
LINE
8
Layer 1
10
45.675355
20
107.046528
11
45.212440
21
107.646235
0
LINE
8
Layer 1
10
45.212440
20
107.646235
11
44.898789
21
108.321707
0
LINE
8
Layer 1
10
44.898789
20
108.321707
11
44.743886
21
109.044623
0
LINE
8
Layer 1
10
44.743886
20
109.044623
11
44.757216
21
109.786658
0
LINE
8
Layer 1
10
44.757216
20
109.786658
11
44.948265
21
110.519489
0
LINE
8
Layer 1
10
44.948265
20
110.519489
11
45.326517
21
111.214792
0
LINE
8
Layer 1
10
45.326517
20
111.214792
11
45.653745
21
111.818526
0
LINE
8
Layer 1
10
45.653745
20
111.818526
11
45.633363
21
112.236582
0
LINE
8
Layer 1
10
45.633363
20
112.236582
11
45.258916
21
112.481086
0
LINE
8
Layer 1
10
45.258916
20
112.481086
11
44.523948
21
112.564167
0
LINE
8
Layer 1
10
44.523948
20
112.564167
11
44.039924
21
112.652370
0
LINE
8
Layer 1
10
44.039924
20
112.652370
11
43.739017
21
112.855208
0
LINE
8
Layer 1
10
43.739017
20
112.855208
11
43.433661
21
113.115228
0
LINE
8
Layer 1
10
43.433661
20
113.115228
11
43.042461
21
113.048592
0
LINE
8
Layer 1
10
43.042461
20
113.048592
11
42.567386
21
112.655959
0
LINE
8
Layer 1
10
42.567386
20
112.655959
11
42.010406
21
111.937986
0
LINE
8
Layer 1
10
42.010406
20
111.937986
11
41.057906
21
110.597431
0
LINE
8
Layer 1
10
41.057906
20
110.597431
11
40.440545
21
109.609653
0
LINE
8
Layer 1
10
40.440545
20
109.609653
11
39.919881
21
108.976511
0
LINE
8
Layer 1
10
39.919881
20
108.976511
11
39.311656
21
108.762986
0
LINE
8
Layer 1
10
39.311656
20
108.762986
11
38.942365
21
108.820048
0
LINE
8
Layer 1
10
38.942365
20
108.820048
11
38.730624
21
109.138578
0
LINE
8
Layer 1
10
38.730624
20
109.138578
11
38.517906
21
111.444097
0
LINE
8
Layer 1
10
38.517906
20
111.444097
11
38.376795
21
114.125208
0
LINE
8
Layer 1
10
38.376795
20
114.125208
11
36.965684
21
114.310417
0
LINE
8
Layer 1
10
36.965684
20
114.310417
11
34.259065
21
114.844049
0
LINE
8
Layer 1
10
34.259065
20
114.844049
11
33.728202
21
115.182187
0
LINE
8
Layer 1
10
33.728202
20
115.182187
11
33.579017
21
115.633333
0
LINE
8
Layer 1
10
33.579017
20
115.633333
11
33.664643
21
116.055355
0
LINE
8
Layer 1
10
33.664643
20
116.055355
11
33.995500
21
116.431709
0
LINE
8
Layer 1
10
33.995500
20
116.431709
11
35.836795
21
117.397222
0
LINE
8
Layer 1
10
35.836795
20
117.397222
11
37.835449
21
118.535110
0
LINE
8
Layer 1
10
37.835449
20
118.535110
11
38.338998
21
119.056067
0
LINE
8
Layer 1
10
38.338998
20
119.056067
11
38.509087
21
119.540347
0
LINE
8
Layer 1
10
38.509087
20
119.540347
11
38.597120
21
120.028780
0
LINE
8
Layer 1
10
38.597120
20
120.028780
11
38.800128
21
120.334097
0
LINE
8
Layer 1
10
38.800128
20
120.334097
11
38.999448
21
120.696206
0
LINE
8
Layer 1
10
38.999448
20
120.696206
11
39.082351
21
121.321875
0
LINE
8
Layer 1
10
39.082351
20
121.321875
11
39.165253
21
121.947542
0
LINE
8
Layer 1
10
39.165253
20
121.947542
11
39.364573
21
122.309653
0
LINE
8
Layer 1
10
39.364573
20
122.309653
11
39.563892
21
122.640687
0
LINE
8
Layer 1
10
39.563892
20
122.640687
11
39.646795
21
123.191597
0
LINE
8
Layer 1
10
39.646795
20
123.191597
11
39.734077
21
123.898774
0
LINE
8
Layer 1
10
39.734077
20
123.898774
11
39.973621
21
124.469898
0
LINE
8
Layer 1
10
39.973621
20
124.469898
11
40.331975
21
124.851663
0
LINE
8
Layer 1
10
40.331975
20
124.851663
11
40.775684
21
124.990764
0
LINE
8
Layer 1
10
40.775684
20
124.990764
11
41.229680
21
124.848590
0
LINE
8
Layer 1
10
41.229680
20
124.848590
11
41.586890
21
124.452151
0
LINE
8
Layer 1
10
41.586890
20
124.452151
11
41.820720
21
123.846563
0
LINE
8
Layer 1
10
41.820720
20
123.846563
11
41.904573
21
123.076945
0
LINE
8
Layer 1
10
41.904573
20
123.076945
11
42.303662
21
121.482449
0
LINE
8
Layer 1
10
42.303662
20
121.482449
11
42.643762
21
120.771620
0
LINE
8
Layer 1
10
42.643762
20
120.771620
11
42.936448
21
120.475208
0
LINE
8
Layer 1
10
42.936448
20
120.475208
11
43.836031
21
120.977917
0
LINE
8
Layer 1
10
43.836031
20
120.977917
11
46.103319
21
122.221476
0
LINE
8
Layer 1
10
46.103319
20
122.221476
11
47.084874
21
122.589792
0
LINE
8
Layer 1
10
47.084874
20
122.589792
11
47.716587
21
122.680070
0
LINE
8
Layer 1
10
47.716587
20
122.680070
11
48.208147
21
122.398595
0
LINE
8
Layer 1
10
48.208147
20
122.398595
11
48.256642
21
121.785860
0
LINE
8
Layer 1
10
48.256642
20
121.785860
11
47.847696
21
120.780178
0
LINE
8
Layer 1
10
47.847696
20
120.780178
11
46.966934
21
119.319861
0
LINE
8
Layer 1
10
46.966934
20
119.319861
11
45.494087
21
117.079722
0
LINE
8
Layer 1
10
45.494087
20
117.079722
11
45.979156
21
115.818542
0
LINE
8
Layer 1
10
45.979156
20
115.818542
11
46.719990
21
114.389792
0
LINE
8
Layer 1
10
46.719990
20
114.389792
11
46.905905
21
114.110831
0
LINE
8
Layer 1
10
46.905905
20
114.110831
11
46.984573
21
113.666597
0
LINE
8
Layer 1
10
46.984573
20
113.666597
11
47.014793
21
113.378481
0
LINE
8
Layer 1
10
47.014793
20
113.378481
11
47.165114
21
113.310490
0
LINE
8
Layer 1
10
47.165114
20
113.310490
11
48.184017
21
113.904722
0
LINE
8
Layer 1
10
48.184017
20
113.904722
11
50.089017
21
115.015972
0
LINE
8
Layer 1
10
50.089017
20
115.015972
11
54.770938
21
117.289958
0
LINE
8
Layer 1
10
54.770938
20
117.289958
11
58.679156
21
119.443333
0
LINE
8
Layer 1
10
58.679156
20
119.443333
11
61.729437
21
121.724516
0
LINE
8
Layer 1
10
61.729437
20
121.724516
11
65.012019
21
124.631707
0
LINE
8
Layer 1
10
65.012019
20
124.631707
11
67.796052
21
127.471481
0
LINE
8
Layer 1
10
67.796052
20
127.471481
11
68.772721
21
128.649393
0
LINE
8
Layer 1
10
68.772721
20
128.649393
11
69.350684
21
129.550417
0
LINE
8
Layer 1
10
69.350684
20
129.550417
11
70.664781
21
131.693542
0
LINE
8
Layer 1
10
70.664781
20
131.693542
11
71.422890
21
132.563381
0
LINE
8
Layer 1
10
71.422890
20
132.563381
11
72.102351
21
132.901806
0
LINE
8
Layer 1
10
72.102351
20
132.901806
11
72.102351
21
132.901806
0
LINE
8
Layer 1
10
104.187490
20
125.652222
11
103.367281
21
124.726181
0
LINE
8
Layer 1
10
103.367281
20
124.726181
11
102.468736
21
123.973870
0
LINE
8
Layer 1
10
102.468736
20
123.973870
11
101.285892
21
123.905972
0
LINE
8
Layer 1
10
101.285892
20
123.905972
11
100.406308
21
123.917509
0
LINE
8
Layer 1
10
100.406308
20
123.917509
11
100.042351
21
123.808958
0
LINE
8
Layer 1
10
100.042351
20
123.808958
11
101.171240
21
122.653611
0
LINE
8
Layer 1
10
101.171240
20
122.653611
11
101.968516
21
121.851788
0
LINE
8
Layer 1
10
101.968516
20
121.851788
11
102.300128
21
121.277778
0
LINE
8
Layer 1
10
102.300128
20
121.277778
11
102.051419
21
120.746736
0
LINE
8
Layer 1
10
102.051419
20
120.746736
11
101.453462
21
120.051875
0
LINE
8
Layer 1
10
101.453462
20
120.051875
11
100.844070
21
119.414002
0
LINE
8
Layer 1
10
100.844070
20
119.414002
11
100.656905
21
119.045067
0
LINE
8
Layer 1
10
100.656905
20
119.045067
11
100.896681
21
118.908338
0
LINE
8
Layer 1
10
100.896681
20
118.908338
11
101.568115
21
118.967083
0
LINE
8
Layer 1
10
101.568115
20
118.967083
11
102.129893
21
119.025802
0
LINE
8
Layer 1
10
102.129893
20
119.025802
11
102.500979
21
118.889249
0
LINE
8
Layer 1
10
102.500979
20
118.889249
11
103.261448
21
117.529514
0
LINE
8
Layer 1
10
103.261448
20
117.529514
11
104.019920
21
115.598056
0
LINE
8
Layer 1
10
104.019920
20
115.598056
11
104.056108
21
115.453943
0
LINE
8
Layer 1
10
104.056108
20
115.453943
11
104.117675
21
115.499760
0
LINE
8
Layer 1
10
104.117675
20
115.499760
11
104.281418
21
116.012976
0
LINE
8
Layer 1
10
104.281418
20
116.012976
11
104.522628
21
117.688264
0
LINE
8
Layer 1
10
104.522628
20
117.688264
11
104.578129
21
118.269774
0
LINE
8
Layer 1
10
104.578129
20
118.269774
11
104.782570
21
118.672618
0
LINE
8
Layer 1
10
104.782570
20
118.672618
11
106.101309
21
119.469792
0
LINE
8
Layer 1
10
106.101309
20
119.469792
11
107.785823
21
120.457570
0
LINE
8
Layer 1
10
107.785823
20
120.457570
11
107.370618
21
120.675433
0
LINE
8
Layer 1
10
107.370618
20
120.675433
11
106.171865
21
120.880903
0
LINE
8
Layer 1
10
106.171865
20
120.880903
11
104.786581
21
121.151768
0
LINE
8
Layer 1
10
104.786581
20
121.151768
11
103.922906
21
121.524722
0
LINE
8
Layer 1
10
103.922906
20
121.524722
11
103.606161
21
122.022229
0
LINE
8
Layer 1
10
103.606161
20
122.022229
11
103.443990
21
122.683546
0
LINE
8
Layer 1
10
103.443990
20
122.683546
11
103.459540
21
123.307846
0
LINE
8
Layer 1
10
103.459540
20
123.307846
11
103.675962
21
123.694306
0
LINE
8
Layer 1
10
103.675962
20
123.694306
11
103.889829
21
124.069655
0
LINE
8
Layer 1
10
103.889829
20
124.069655
11
104.055198
21
124.752639
0
LINE
8
Layer 1
10
104.055198
20
124.752639
11
104.187490
21
125.652222
0
LINE
8
Layer 1
10
104.187490
20
125.652222
11
104.187490
21
125.652222
0
LINE
8
Layer 1
10
40.652212
20
120.290000
11
40.458184
21
120.025417
0
LINE
8
Layer 1
10
40.458184
20
120.025417
11
40.228878
21
118.720139
0
LINE
8
Layer 1
10
40.228878
20
118.720139
11
40.030082
21
118.113812
0
LINE
8
Layer 1
10
40.030082
20
118.113812
11
39.512078
21
117.471496
0
LINE
8
Layer 1
10
39.512078
20
117.471496
11
38.748342
21
116.864804
0
LINE
8
Layer 1
10
38.748342
20
116.864804
11
37.812351
21
116.365347
0
LINE
8
Layer 1
10
37.812351
20
116.365347
11
37.602541
21
116.241577
0
LINE
8
Layer 1
10
37.602541
20
116.241577
11
37.655149
21
116.142530
0
LINE
8
Layer 1
10
37.655149
20
116.142530
11
38.659017
21
115.968472
0
LINE
8
Layer 1
10
38.659017
20
115.968472
11
40.070128
21
115.818542
0
LINE
8
Layer 1
10
40.070128
20
115.818542
11
40.149503
21
114.336875
0
LINE
8
Layer 1
10
40.149503
20
114.336875
11
40.273796
21
113.290447
0
LINE
8
Layer 1
10
40.273796
20
113.290447
11
40.449365
21
112.855208
0
LINE
8
Layer 1
10
40.449365
20
112.855208
11
41.181378
21
114.125208
0
LINE
8
Layer 1
10
41.181378
20
114.125208
11
41.615766
21
114.950155
0
LINE
8
Layer 1
10
41.615766
20
114.950155
11
42.097840
21
115.344476
0
LINE
8
Layer 1
10
42.097840
20
115.344476
11
42.692742
21
115.332009
0
LINE
8
Layer 1
10
42.692742
20
115.332009
11
43.465615
21
114.936597
0
LINE
8
Layer 1
10
43.465615
20
114.936597
11
44.047355
21
114.627544
0
LINE
8
Layer 1
10
44.047355
20
114.627544
11
44.162351
21
114.918958
0
LINE
8
Layer 1
10
44.162351
20
114.918958
11
44.079448
21
115.282236
0
LINE
8
Layer 1
10
44.079448
20
115.282236
11
43.880128
21
115.536320
0
LINE
8
Layer 1
10
43.880128
20
115.536320
11
43.632514
21
116.009834
0
LINE
8
Layer 1
10
43.632514
20
116.009834
11
43.612546
21
116.811911
0
LINE
8
Layer 1
10
43.612546
20
116.811911
11
43.796925
21
117.699387
0
LINE
8
Layer 1
10
43.796925
20
117.699387
11
44.162351
21
118.429097
0
LINE
8
Layer 1
10
44.162351
20
118.429097
11
44.542017
21
118.994389
0
LINE
8
Layer 1
10
44.542017
20
118.994389
11
44.568610
21
119.253566
0
LINE
8
Layer 1
10
44.568610
20
119.253566
11
44.259781
21
119.195318
0
LINE
8
Layer 1
10
44.259781
20
119.195318
11
43.633184
21
118.808333
0
LINE
8
Layer 1
10
43.633184
20
118.808333
11
42.768553
21
118.313406
0
LINE
8
Layer 1
10
42.768553
20
118.313406
11
42.103204
21
118.236959
0
LINE
8
Layer 1
10
42.103204
20
118.236959
11
41.581075
21
118.591721
0
LINE
8
Layer 1
10
41.581075
20
118.591721
11
41.146101
21
119.390417
0
LINE
8
Layer 1
10
41.146101
20
119.390417
11
40.652212
21
120.290000
0
LINE
8
Layer 1
10
40.652212
20
120.290000
11
40.652212
21
120.290000
0
LINE
8
Layer 1
10
84.969920
20
116.929792
11
85.443111
21
116.812302
0
LINE
8
Layer 1
10
85.443111
20
116.812302
11
86.084496
21
116.394490
0
LINE
8
Layer 1
10
86.084496
20
116.394490
11
88.047906
21
114.539722
0
LINE
8
Layer 1
10
88.047906
20
114.539722
11
89.457908
21
113.270294
0
LINE
8
Layer 1
10
89.457908
20
113.270294
11
91.242816
21
111.885823
0
LINE
8
Layer 1
10
91.242816
20
111.885823
11
92.874453
21
110.772173
0
LINE
8
Layer 1
10
92.874453
20
110.772173
11
93.824642
21
110.315208
0
LINE
8
Layer 1
10
93.824642
20
110.315208
11
94.609573
21
110.068264
0
LINE
8
Layer 1
10
94.609573
20
110.068264
11
96.231958
21
109.471663
0
LINE
8
Layer 1
10
96.231958
20
109.471663
11
97.722837
21
109.186320
0
LINE
8
Layer 1
10
97.722837
20
109.186320
11
99.664584
21
108.868851
0
LINE
8
Layer 1
10
99.664584
20
108.868851
11
101.515198
21
108.304375
0
LINE
8
Layer 1
10
101.515198
20
108.304375
11
102.441240
21
108.057431
0
LINE
8
Layer 1
10
102.441240
20
108.057431
11
103.499573
21
107.731111
0
LINE
8
Layer 1
10
103.499573
20
107.731111
11
104.663740
21
107.140208
0
LINE
8
Layer 1
10
104.663740
20
107.140208
11
107.962323
21
105.212777
0
LINE
8
Layer 1
10
107.962323
20
105.212777
11
109.320231
21
104.198189
0
LINE
8
Layer 1
10
109.320231
20
104.198189
11
110.387559
21
103.215556
0
LINE
8
Layer 1
10
110.387559
20
103.215556
11
110.928222
21
102.508024
0
LINE
8
Layer 1
10
110.928222
20
102.508024
11
111.249889
21
101.698279
0
LINE
8
Layer 1
10
111.249889
20
101.698279
11
111.385130
21
100.657190
0
LINE
8
Layer 1
10
111.385130
20
100.657190
11
111.366517
21
99.255625
0
LINE
8
Layer 1
10
111.366517
20
99.255625
11
111.228402
21
98.743653
0
LINE
8
Layer 1
10
111.228402
20
98.743653
11
110.896476
21
98.270831
0
LINE
8
Layer 1
10
110.896476
20
98.270831
11
109.817246
21
97.518934
0
LINE
8
Layer 1
10
109.817246
20
97.518934
11
108.460934
21
97.152518
0
LINE
8
Layer 1
10
108.460934
20
97.152518
11
107.782654
21
97.161548
0
LINE
8
Layer 1
10
107.782654
20
97.161548
11
107.159642
21
97.324167
0
LINE
8
Layer 1
10
107.159642
20
97.324167
11
106.574831
21
97.805822
0
LINE
8
Layer 1
10
106.574831
20
97.805822
11
106.057212
21
98.585347
0
LINE
8
Layer 1
10
106.057212
20
98.585347
11
105.728241
21
99.514960
0
LINE
8
Layer 1
10
105.728241
20
99.514960
11
106.101309
21
100.146389
0
LINE
8
Layer 1
10
106.101309
20
100.146389
11
106.501756
21
100.463793
0
LINE
8
Layer 1
10
106.501756
20
100.463793
11
106.965909
21
100.641114
0
LINE
8
Layer 1
10
106.965909
20
100.641114
11
107.913045
21
100.623276
0
LINE
8
Layer 1
10
107.913045
20
100.623276
11
108.598132
21
100.188401
0
LINE
8
Layer 1
10
108.598132
20
100.188401
11
108.734725
21
99.844426
0
LINE
8
Layer 1
10
108.734725
20
99.844426
11
108.676587
21
99.432014
0
LINE
8
Layer 1
10
108.676587
20
99.432014
11
108.662274
21
99.111201
0
LINE
8
Layer 1
10
108.662274
20
99.111201
11
109.002906
21
99.079236
0
LINE
8
Layer 1
10
109.002906
20
99.079236
11
109.427785
21
99.473859
0
LINE
8
Layer 1
10
109.427785
20
99.473859
11
109.606377
21
100.264631
0
LINE
8
Layer 1
10
109.606377
20
100.264631
11
109.522922
21
101.170466
0
LINE
8
Layer 1
10
109.522922
20
101.170466
11
109.161656
21
101.910278
0
LINE
8
Layer 1
10
109.161656
20
101.910278
11
107.095205
21
103.520993
0
LINE
8
Layer 1
10
107.095205
20
103.520993
11
104.628462
21
104.970625
0
LINE
8
Layer 1
10
104.628462
20
104.970625
11
103.711240
21
105.579167
0
LINE
8
Layer 1
10
103.711240
20
105.579167
11
103.546407
21
105.733408
0
LINE
8
Layer 1
10
103.546407
20
105.733408
11
103.155615
21
105.799653
0
LINE
8
Layer 1
10
103.155615
20
105.799653
11
102.721420
21
105.882555
0
LINE
8
Layer 1
10
102.721420
20
105.882555
11
102.441240
21
106.081875
0
LINE
8
Layer 1
10
102.441240
20
106.081875
11
102.079129
21
106.281194
0
LINE
8
Layer 1
10
102.079129
20
106.281194
11
101.453462
21
106.364097
0
LINE
8
Layer 1
10
101.453462
20
106.364097
11
100.832101
21
106.436657
0
LINE
8
Layer 1
10
100.832101
20
106.436657
11
100.483323
21
106.611042
0
LINE
8
Layer 1
10
100.483323
20
106.611042
11
99.938315
21
106.834389
0
LINE
8
Layer 1
10
99.938315
20
106.834389
11
98.842906
21
107.025556
0
LINE
8
Layer 1
10
98.842906
20
107.025556
11
96.285724
21
107.382937
0
LINE
8
Layer 1
10
96.285724
20
107.382937
11
94.821240
21
107.757570
0
LINE
8
Layer 1
10
94.821240
20
107.757570
11
91.293462
21
109.486181
0
LINE
8
Layer 1
10
91.293462
20
109.486181
11
90.049920
21
110.385764
0
LINE
8
Layer 1
10
90.049920
20
110.385764
11
88.534659
21
111.623324
0
LINE
8
Layer 1
10
88.534659
20
111.623324
11
86.604238
21
113.437571
0
LINE
8
Layer 1
10
86.604238
20
113.437571
11
84.943655
21
115.154664
0
LINE
8
Layer 1
10
84.943655
20
115.154664
11
84.237906
21
116.100764
0
LINE
8
Layer 1
10
84.237906
20
116.100764
11
84.355493
21
116.450433
0
LINE
8
Layer 1
10
84.355493
20
116.450433
11
84.643601
21
116.797500
0
LINE
8
Layer 1
10
84.643601
20
116.797500
11
84.969920
21
116.929792
0
LINE
8
Layer 1
10
84.969920
20
116.929792
11
84.969920
21
116.929792
0
LINE
8
Layer 1
10
54.242976
20
110.879653
11
54.782722
21
110.680650
0
LINE
8
Layer 1
10
54.782722
20
110.680650
11
54.835554
21
110.090277
0
LINE
8
Layer 1
10
54.835554
20
110.090277
11
54.404684
21
109.118481
0
LINE
8
Layer 1
10
54.404684
20
109.118481
11
53.493323
21
107.775208
0
LINE
8
Layer 1
10
53.493323
20
107.775208
11
52.197749
21
106.290695
0
LINE
8
Layer 1
10
52.197749
20
106.290695
11
50.510253
21
104.650159
0
LINE
8
Layer 1
10
50.510253
20
104.650159
11
48.806166
21
103.196314
0
LINE
8
Layer 1
10
48.806166
20
103.196314
11
47.460823
21
102.271875
0
LINE
8
Layer 1
10
47.460823
20
102.271875
11
46.279017
21
101.645695
0
LINE
8
Layer 1
10
46.279017
20
101.645695
11
43.350848
21
100.291118
0
LINE
8
Layer 1
10
43.350848
20
100.291118
11
40.493462
21
99.317361
0
LINE
8
Layer 1
10
40.493462
20
99.317361
11
38.350337
21
98.726458
0
LINE
8
Layer 1
10
38.350337
20
98.726458
11
36.886309
21
98.461875
0
LINE
8
Layer 1
10
36.886309
20
98.461875
11
36.415237
21
98.378971
0
LINE
8
Layer 1
10
36.415237
20
98.378971
11
36.119017
21
98.179653
0
LINE
8
Layer 1
10
36.119017
20
98.179653
11
35.756908
21
97.980332
0
LINE
8
Layer 1
10
35.756908
20
97.980332
11
35.131240
21
97.897431
0
LINE
8
Layer 1
10
35.131240
20
97.897431
11
34.505571
21
97.814527
0
LINE
8
Layer 1
10
34.505571
20
97.814527
11
34.143462
21
97.615208
0
LINE
8
Layer 1
10
34.143462
20
97.615208
11
33.855252
21
97.415888
0
LINE
8
Layer 1
10
33.855252
20
97.415888
11
33.411448
21
97.332986
0
LINE
8
Layer 1
10
33.411448
20
97.332986
11
32.370753
21
97.077222
0
LINE
8
Layer 1
10
32.370753
20
97.077222
11
29.486798
21
95.842500
0
LINE
8
Layer 1
10
29.486798
20
95.842500
11
27.837923
21
95.125513
0
LINE
8
Layer 1
10
27.837923
20
95.125513
11
27.158464
21
94.651875
0
LINE
8
Layer 1
10
27.158464
20
94.651875
11
26.989244
21
94.281747
0
LINE
8
Layer 1
10
26.989244
20
94.281747
11
26.965977
21
93.854020
0
LINE
8
Layer 1
10
26.965977
20
93.854020
11
27.343673
21
92.940903
0
LINE
8
Layer 1
10
27.343673
20
92.940903
11
27.581126
21
92.647444
0
LINE
8
Layer 1
10
27.581126
20
92.647444
11
27.770007
21
92.574955
0
LINE
8
Layer 1
10
27.770007
20
92.574955
11
28.349090
21
93.170208
0
LINE
8
Layer 1
10
28.349090
20
93.170208
11
28.967379
21
93.705300
0
LINE
8
Layer 1
10
28.967379
20
93.705300
11
29.678556
21
93.932200
0
LINE
8
Layer 1
10
29.678556
20
93.932200
11
30.386459
21
93.842046
0
LINE
8
Layer 1
10
30.386459
20
93.842046
11
30.994923
21
93.425972
0
LINE
8
Layer 1
10
30.994923
20
93.425972
11
31.350291
21
92.927611
0
LINE
8
Layer 1
10
31.350291
20
92.927611
11
31.410107
21
92.476699
0
LINE
8
Layer 1
10
31.410107
20
92.476699
11
31.158702
21
91.988896
0
LINE
8
Layer 1
10
31.158702
20
91.988896
11
30.580409
21
91.379861
0
LINE
8
Layer 1
10
30.580409
20
91.379861
11
30.037343
21
90.791123
0
LINE
8
Layer 1
10
30.037343
20
90.791123
11
29.993684
21
90.645540
0
LINE
8
Layer 1
10
29.993684
20
90.645540
11
30.105146
21
90.599469
0
LINE
8
Layer 1
10
30.105146
20
90.599469
11
32.150267
21
91.415139
0
LINE
8
Layer 1
10
32.150267
20
91.415139
11
34.169235
21
92.620434
0
LINE
8
Layer 1
10
34.169235
20
92.620434
11
34.782823
21
93.249701
0
LINE
8
Layer 1
10
34.782823
20
93.249701
11
35.245892
21
93.990417
0
LINE
8
Layer 1
10
35.245892
20
93.990417
11
35.657679
21
94.606250
0
LINE
8
Layer 1
10
35.657679
20
94.606250
11
36.109314
21
94.941733
0
LINE
8
Layer 1
10
36.109314
20
94.941733
11
36.570210
21
94.984562
0
LINE
8
Layer 1
10
36.570210
20
94.984562
11
37.009781
21
94.722431
0
LINE
8
Layer 1
10
37.009781
20
94.722431
11
37.341102
21
94.196273
0
LINE
8
Layer 1
10
37.341102
20
94.196273
11
37.080337
21
93.478889
0
LINE
8
Layer 1
10
37.080337
20
93.478889
11
36.567572
21
92.673034
0
LINE
8
Layer 1
10
36.567572
20
92.673034
11
35.900029
21
91.913332
0
LINE
8
Layer 1
10
35.900029
20
91.913332
11
34.059980
21
90.508737
0
LINE
8
Layer 1
10
34.059980
20
90.508737
11
31.478947
21
89.217795
0
LINE
8
Layer 1
10
31.478947
20
89.217795
11
28.075687
21
87.993195
0
LINE
8
Layer 1
10
28.075687
20
87.993195
11
24.830131
21
86.881945
0
LINE
8
Layer 1
10
24.830131
20
86.881945
11
23.277909
21
86.343958
0
LINE
8
Layer 1
10
23.277909
20
86.343958
11
21.514020
21
85.735417
0
LINE
8
Layer 1
10
21.514020
20
85.735417
11
20.711450
21
85.479653
0
LINE
8
Layer 1
10
20.711450
20
85.479653
11
17.986242
21
84.297847
0
LINE
8
Layer 1
10
17.986242
20
84.297847
11
16.037326
21
83.176844
0
LINE
8
Layer 1
10
16.037326
20
83.176844
11
14.303257
21
81.878268
0
LINE
8
Layer 1
10
14.303257
20
81.878268
11
13.012799
21
80.596652
0
LINE
8
Layer 1
10
13.012799
20
80.596652
11
12.394714
21
79.526528
0
LINE
8
Layer 1
10
12.394714
20
79.526528
11
12.471715
21
78.685682
0
LINE
8
Layer 1
10
12.471715
20
78.685682
11
12.965907
21
77.871442
0
LINE
8
Layer 1
10
12.965907
20
77.871442
11
13.725718
21
77.256359
0
LINE
8
Layer 1
10
13.725718
20
77.256359
11
14.599575
21
77.012986
0
LINE
8
Layer 1
10
14.599575
20
77.012986
11
15.472700
21
77.012986
0
LINE
8
Layer 1
10
15.472700
20
77.012986
11
14.828881
21
77.692083
0
LINE
8
Layer 1
10
14.828881
20
77.692083
11
14.394518
21
78.365827
0
LINE
8
Layer 1
10
14.394518
20
78.365827
11
14.290895
21
79.032639
0
LINE
8
Layer 1
10
14.290895
20
79.032639
11
14.382507
21
79.369330
0
LINE
8
Layer 1
10
14.382507
20
79.369330
11
14.575823
21
79.584281
0
LINE
8
Layer 1
10
14.575823
20
79.584281
11
15.472700
21
79.782292
0
LINE
8
Layer 1
10
15.472700
20
79.782292
11
16.207433
21
79.752327
0
LINE
8
Layer 1
10
16.207433
20
79.752327
11
16.803099
21
79.549125
0
LINE
8
Layer 1
10
16.803099
20
79.549125
11
17.248996
21
79.200116
0
LINE
8
Layer 1
10
17.248996
20
79.200116
11
17.534420
21
78.732731
0
LINE
8
Layer 1
10
17.534420
20
78.732731
11
17.648671
21
78.174402
0
LINE
8
Layer 1
10
17.648671
20
78.174402
11
17.581044
21
77.552559
0
LINE
8
Layer 1
10
17.581044
20
77.552559
11
17.320839
21
76.894633
0
LINE
8
Layer 1
10
17.320839
20
76.894633
11
16.857353
21
76.228056
0
LINE
8
Layer 1
10
16.857353
20
76.228056
11
16.140584
21
75.633914
0
LINE
8
Layer 1
10
16.140584
20
75.633914
11
15.241125
21
75.253018
0
LINE
8
Layer 1
10
15.241125
20
75.253018
11
14.250196
21
75.110491
0
LINE
8
Layer 1
10
14.250196
20
75.110491
11
13.259020
21
75.231458
0
LINE
8
Layer 1
10
13.259020
20
75.231458
11
12.061564
21
75.797083
0
LINE
8
Layer 1
10
12.061564
20
75.797083
11
11.124522
21
76.723839
0
LINE
8
Layer 1
10
11.124522
20
76.723839
11
10.513896
21
77.920845
0
LINE
8
Layer 1
10
10.513896
20
77.920845
11
10.295687
21
79.297222
0
LINE
8
Layer 1
10
10.295687
20
79.297222
11
10.347950
21
79.997144
0
LINE
8
Layer 1
10
10.347950
20
79.997144
11
10.611445
21
80.604038
0
LINE
8
Layer 1
10
10.611445
20
80.604038
11
12.412353
21
82.507500
0
LINE
8
Layer 1
10
12.412353
20
82.507500
11
14.241941
21
84.104185
0
LINE
8
Layer 1
10
14.241941
20
84.104185
11
15.657909
21
85.082778
0
LINE
8
Layer 1
10
15.657909
20
85.082778
11
16.777978
21
85.832431
0
LINE
8
Layer 1
10
16.777978
20
85.832431
11
17.077839
21
86.044097
0
LINE
8
Layer 1
10
17.077839
20
86.044097
11
18.541867
21
86.608542
0
LINE
8
Layer 1
10
18.541867
20
86.608542
11
20.208742
21
87.172986
0
LINE
8
Layer 1
10
20.208742
20
87.172986
11
20.609955
21
87.255888
0
LINE
8
Layer 1
10
20.609955
20
87.255888
11
20.879020
21
87.455208
0
LINE
8
Layer 1
10
20.879020
20
87.455208
11
21.162820
21
87.654527
0
LINE
8
Layer 1
10
21.162820
20
87.654527
11
21.602214
21
87.737431
0
LINE
8
Layer 1
10
21.602214
20
87.737431
11
22.642909
21
87.993195
0
LINE
8
Layer 1
10
22.642909
20
87.993195
11
24.406798
21
88.601736
0
LINE
8
Layer 1
10
24.406798
20
88.601736
11
25.941381
21
89.192639
0
LINE
8
Layer 1
10
25.941381
20
89.192639
11
26.840964
21
89.430764
0
LINE
8
Layer 1
10
26.840964
20
89.430764
11
27.341128
21
89.513666
0
LINE
8
Layer 1
10
27.341128
20
89.513666
11
27.652353
21
89.712986
0
LINE
8
Layer 1
10
27.652353
20
89.712986
11
27.973011
21
89.912305
0
LINE
8
Layer 1
10
27.973011
20
89.912305
11
28.499020
21
89.995208
0
LINE
8
Layer 1
10
28.499020
20
89.995208
11
29.028632
21
90.087309
0
LINE
8
Layer 1
10
29.028632
20
90.087309
11
29.363326
21
90.312708
0
LINE
8
Layer 1
10
29.363326
20
90.312708
11
29.321937
21
90.523077
0
LINE
8
Layer 1
10
29.321937
20
90.523077
11
28.745965
21
90.480278
0
LINE
8
Layer 1
10
28.745965
20
90.480278
11
27.790431
21
90.480369
0
LINE
8
Layer 1
10
27.790431
20
90.480369
11
26.908541
21
90.811860
0
LINE
8
Layer 1
10
26.908541
20
90.811860
11
26.144068
21
91.401959
0
LINE
8
Layer 1
10
26.144068
20
91.401959
11
25.540786
21
92.177869
0
LINE
8
Layer 1
10
25.540786
20
92.177869
11
25.142471
21
93.066798
0
LINE
8
Layer 1
10
25.142471
20
93.066798
11
24.992895
21
93.995951
0
LINE
8
Layer 1
10
24.992895
20
93.995951
11
25.135834
21
94.892533
0
LINE
8
Layer 1
10
25.135834
20
94.892533
11
25.615062
21
95.683750
0
LINE
8
Layer 1
10
25.615062
20
95.683750
11
26.565362
21
96.407383
0
LINE
8
Layer 1
10
26.565362
20
96.407383
11
27.943395
21
97.165417
0
LINE
8
Layer 1
10
27.943395
20
97.165417
11
30.112978
21
98.197292
0
LINE
8
Layer 1
10
30.112978
20
98.197292
11
31.039020
21
98.461875
0
LINE
8
Layer 1
10
31.039020
20
98.461875
11
31.956240
21
98.708820
0
LINE
8
Layer 1
10
31.956240
20
98.708820
11
33.548206
21
99.369432
0
LINE
8
Layer 1
10
33.548206
20
99.369432
11
35.554573
21
99.864167
0
LINE
8
Layer 1
10
35.554573
20
99.864167
11
37.732976
21
100.463889
0
LINE
8
Layer 1
10
37.732976
20
100.463889
11
38.703115
21
100.719653
0
LINE
8
Layer 1
10
38.703115
20
100.719653
11
39.928292
21
100.967226
0
LINE
8
Layer 1
10
39.928292
20
100.967226
11
41.763462
21
101.575139
0
LINE
8
Layer 1
10
41.763462
20
101.575139
11
43.315684
21
102.130764
0
LINE
8
Layer 1
10
43.315684
20
102.130764
11
45.921249
21
103.283515
0
LINE
8
Layer 1
10
45.921249
20
103.283515
11
48.342258
21
104.878023
0
LINE
8
Layer 1
10
48.342258
20
104.878023
11
50.540831
21
106.884839
0
LINE
8
Layer 1
10
50.540831
20
106.884839
11
52.479087
21
109.274514
0
LINE
8
Layer 1
10
52.479087
20
109.274514
11
53.489692
21
110.510014
0
LINE
8
Layer 1
10
53.489692
20
110.510014
11
53.885382
21
110.791199
0
LINE
8
Layer 1
10
53.885382
20
110.791199
11
54.242976
21
110.879653
0
LINE
8
Layer 1
10
54.242976
20
110.879653
11
54.242976
21
110.879653
0
LINE
8
Layer 1
10
71.070476
20
106.884445
11
71.533989
21
106.666489
0
LINE
8
Layer 1
10
71.533989
20
106.666489
11
71.943601
21
105.923125
0
LINE
8
Layer 1
10
71.943601
20
105.923125
11
72.384573
21
104.335625
0
LINE
8
Layer 1
10
72.384573
20
104.335625
11
72.684434
21
103.215556
0
LINE
8
Layer 1
10
72.684434
20
103.215556
11
73.043595
21
102.801748
0
LINE
8
Layer 1
10
73.043595
20
102.801748
11
73.663392
21
103.092083
0
LINE
8
Layer 1
10
73.663392
20
103.092083
11
74.291186
21
103.408254
0
LINE
8
Layer 1
10
74.291186
20
103.408254
11
74.854017
21
103.541875
0
LINE
8
Layer 1
10
74.854017
20
103.541875
11
75.647767
21
103.815278
0
LINE
8
Layer 1
10
75.647767
20
103.815278
11
76.127207
21
104.031159
0
LINE
8
Layer 1
10
76.127207
20
104.031159
11
76.900128
21
104.168056
0
LINE
8
Layer 1
10
76.900128
20
104.168056
11
77.725185
21
104.113469
0
LINE
8
Layer 1
10
77.725185
20
104.113469
11
77.892788
21
103.920926
0
LINE
8
Layer 1
10
77.892788
20
103.920926
11
77.976101
21
103.577153
0
LINE
8
Layer 1
10
77.976101
20
103.577153
11
77.859717
21
102.890474
0
LINE
8
Layer 1
10
77.859717
20
102.890474
11
77.367559
21
102.166042
0
LINE
8
Layer 1
10
77.367559
20
102.166042
11
76.044642
21
100.225764
0
LINE
8
Layer 1
10
76.044642
20
100.225764
11
75.162698
21
98.858750
0
LINE
8
Layer 1
10
75.162698
20
98.858750
11
75.013245
21
98.556410
0
LINE
8
Layer 1
10
75.013245
20
98.556410
11
75.152198
21
97.978463
0
LINE
8
Layer 1
10
75.152198
20
97.978463
11
76.362142
21
95.833681
0
LINE
8
Layer 1
10
76.362142
20
95.833681
11
77.455753
21
93.972778
0
LINE
8
Layer 1
10
77.455753
20
93.972778
11
76.759017
21
93.311320
0
LINE
8
Layer 1
10
76.759017
20
93.311320
11
76.250355
21
93.018890
0
LINE
8
Layer 1
10
76.250355
20
93.018890
11
75.637103
21
93.029888
0
LINE
8
Layer 1
10
75.637103
20
93.029888
11
72.719712
21
94.307917
0
LINE
8
Layer 1
10
72.719712
20
94.307917
11
71.257625
21
94.911493
0
LINE
8
Layer 1
10
71.257625
20
94.911493
11
70.864488
21
94.952070
0
LINE
8
Layer 1
10
70.864488
20
94.952070
11
70.620684
21
94.837083
0
LINE
8
Layer 1
10
70.620684
20
94.837083
11
69.853392
21
94.501945
0
LINE
8
Layer 1
10
69.853392
20
94.501945
11
67.727906
21
93.655278
0
LINE
8
Layer 1
10
67.727906
20
93.655278
11
66.384977
21
93.063557
0
LINE
8
Layer 1
10
66.384977
20
93.063557
11
65.523045
21
92.817431
0
LINE
8
Layer 1
10
65.523045
20
92.817431
11
65.157092
21
92.693268
0
LINE
8
Layer 1
10
65.157092
20
92.693268
11
65.179087
21
92.261806
0
LINE
8
Layer 1
10
65.179087
20
92.261806
11
65.191343
21
91.730358
0
LINE
8
Layer 1
10
65.191343
20
91.730358
11
64.957879
21
91.035148
0
LINE
8
Layer 1
10
64.957879
20
91.035148
11
63.818042
21
89.237215
0
LINE
8
Layer 1
10
63.818042
20
89.237215
11
61.888085
21
87.035553
0
LINE
8
Layer 1
10
61.888085
20
87.035553
11
59.296517
21
84.597708
0
LINE
8
Layer 1
10
59.296517
20
84.597708
11
57.378160
21
83.165403
0
LINE
8
Layer 1
10
57.378160
20
83.165403
11
54.792632
21
81.602451
0
LINE
8
Layer 1
10
54.792632
20
81.602451
11
51.628005
21
79.958447
0
LINE
8
Layer 1
10
51.628005
20
79.958447
11
47.972351
21
78.282986
0
LINE
8
Layer 1
10
47.972351
20
78.282986
11
46.023253
21
77.401042
0
LINE
8
Layer 1
10
46.023253
20
77.401042
11
44.973740
21
77.012986
0
LINE
8
Layer 1
10
44.973740
20
77.012986
11
42.870539
21
75.900669
0
LINE
8
Layer 1
10
42.870539
20
75.900669
11
40.343531
21
74.146667
0
LINE
8
Layer 1
10
40.343531
20
74.146667
11
39.185910
21
72.836993
0
LINE
8
Layer 1
10
39.185910
20
72.836993
11
38.602198
21
71.505707
0
LINE
8
Layer 1
10
38.602198
20
71.505707
11
38.533546
21
70.867579
0
LINE
8
Layer 1
10
38.533546
20
70.867579
11
38.617955
21
70.266793
0
LINE
8
Layer 1
10
38.617955
20
70.266793
11
38.858622
21
69.717596
0
LINE
8
Layer 1
10
38.858622
20
69.717596
11
39.258740
21
69.234236
0
LINE
8
Layer 1
10
39.258740
20
69.234236
11
39.907381
21
68.732899
0
LINE
8
Layer 1
10
39.907381
20
68.732899
11
40.388338
21
68.532277
0
LINE
8
Layer 1
10
40.388338
20
68.532277
11
40.599948
21
68.645153
0
LINE
8
Layer 1
10
40.599948
20
68.645153
11
40.440545
21
69.084306
0
LINE
8
Layer 1
10
40.440545
20
69.084306
11
40.285752
21
69.561301
0
LINE
8
Layer 1
10
40.285752
20
69.561301
11
40.434376
21
70.027242
0
LINE
8
Layer 1
10
40.434376
20
70.027242
11
40.894766
21
70.493555
0
LINE
8
Layer 1
10
40.894766
20
70.493555
11
41.675267
21
70.971667
0
LINE
8
Layer 1
10
41.675267
20
70.971667
11
42.489354
21
71.232958
0
LINE
8
Layer 1
10
42.489354
20
71.232958
11
43.324503
21
70.795278
0
LINE
8
Layer 1
10
43.324503
20
70.795278
11
43.797659
21
70.350151
0
LINE
8
Layer 1
10
43.797659
20
70.350151
11
44.075626
21
69.843557
0
LINE
8
Layer 1
10
44.075626
20
69.843557
11
44.164624
21
69.295011
0
LINE
8
Layer 1
10
44.164624
20
69.295011
11
44.070873
21
68.724029
0
LINE
8
Layer 1
10
44.070873
20
68.724029
11
43.800592
21
68.150125
0
LINE
8
Layer 1
10
43.800592
20
68.150125
11
43.360002
21
67.592816
0
LINE
8
Layer 1
10
43.360002
20
67.592816
11
41.992767
21
66.606042
0
LINE
8
Layer 1
10
41.992767
20
66.606042
11
41.401145
21
66.378035
0
LINE
8
Layer 1
10
41.401145
20
66.378035
11
40.803200
21
66.335085
0
LINE
8
Layer 1
10
40.803200
20
66.335085
11
39.223462
21
66.835347
0
LINE
8
Layer 1
10
39.223462
20
66.835347
11
38.279572
21
67.352226
0
LINE
8
Layer 1
10
38.279572
20
67.352226
11
37.600684
21
67.884861
0
LINE
8
Layer 1
10
37.600684
20
67.884861
11
37.141249
21
68.596686
0
LINE
8
Layer 1
10
37.141249
20
68.596686
11
36.741680
21
69.533948
0
LINE
8
Layer 1
10
36.741680
20
69.533948
11
36.489390
21
70.447031
0
LINE
8
Layer 1
10
36.489390
20
70.447031
11
36.471795
21
71.086320
0
LINE
8
Layer 1
10
36.471795
20
71.086320
11
36.944035
21
72.270493
0
LINE
8
Layer 1
10
36.944035
20
72.270493
11
37.618616
21
73.513236
0
LINE
8
Layer 1
10
37.618616
20
73.513236
11
38.398884
21
74.655976
0
LINE
8
Layer 1
10
38.398884
20
74.655976
11
39.188184
21
75.540139
0
LINE
8
Layer 1
10
39.188184
20
75.540139
11
40.789010
21
76.629906
0
LINE
8
Layer 1
10
40.789010
20
76.629906
11
43.425074
21
78.083722
0
LINE
8
Layer 1
10
43.425074
20
78.083722
11
46.420957
21
79.551180
0
LINE
8
Layer 1
10
46.420957
20
79.551180
11
49.101240
21
80.681875
0
LINE
8
Layer 1
10
49.101240
20
80.681875
11
53.431686
21
82.792315
0
LINE
8
Layer 1
10
53.431686
20
82.792315
11
57.550267
21
85.267986
0
LINE
8
Layer 1
10
57.550267
20
85.267986
11
59.246204
21
86.692056
0
LINE
8
Layer 1
10
59.246204
20
86.692056
11
60.931075
21
88.358568
0
LINE
8
Layer 1
10
60.931075
20
88.358568
11
62.334449
21
89.979095
0
LINE
8
Layer 1
10
62.334449
20
89.979095
11
63.185892
21
91.265208
0
LINE
8
Layer 1
10
63.185892
20
91.265208
11
63.675972
21
92.062274
0
LINE
8
Layer 1
10
63.675972
20
92.062274
11
64.208948
21
92.623403
0
LINE
8
Layer 1
10
64.208948
20
92.623403
11
64.574947
21
93.036036
0
LINE
8
Layer 1
10
64.574947
20
93.036036
11
64.597003
21
93.478889
0
LINE
8
Layer 1
10
64.597003
20
93.478889
11
64.669055
21
94.047946
0
LINE
8
Layer 1
10
64.669055
20
94.047946
11
65.152628
21
94.801806
0
LINE
8
Layer 1
10
65.152628
20
94.801806
11
66.325615
21
96.618611
0
LINE
8
Layer 1
10
66.325615
20
96.618611
11
66.784226
21
97.571111
0
LINE
8
Layer 1
10
66.784226
20
97.571111
11
65.329017
21
99.723056
0
LINE
8
Layer 1
10
65.329017
20
99.723056
11
64.279128
21
101.399168
0
LINE
8
Layer 1
10
64.279128
20
101.399168
11
64.045911
21
101.947262
0
LINE
8
Layer 1
10
64.045911
20
101.947262
11
64.015094
21
102.336695
0
LINE
8
Layer 1
10
64.015094
20
102.336695
11
64.192614
21
102.593451
0
LINE
8
Layer 1
10
64.192614
20
102.593451
11
64.584410
21
102.743514
0
LINE
8
Layer 1
10
64.584410
20
102.743514
11
66.034573
21
102.827500
0
LINE
8
Layer 1
10
66.034573
20
102.827500
11
68.433462
21
102.607014
0
LINE
8
Layer 1
10
68.433462
20
102.607014
11
68.756062
21
102.599220
0
LINE
8
Layer 1
10
68.756062
20
102.599220
11
69.065877
21
102.986821
0
LINE
8
Layer 1
10
69.065877
20
102.986821
11
69.879851
21
105.376320
0
LINE
8
Layer 1
10
69.879851
20
105.376320
11
70.333121
21
106.502833
0
LINE
8
Layer 1
10
70.333121
20
106.502833
11
70.590643
21
106.763724
0
LINE
8
Layer 1
10
70.590643
20
106.763724
11
70.902906
21
106.875625
0
LINE
8
Layer 1
10
70.902906
20
106.875625
11
71.070476
21
106.884445
0
LINE
8
Layer 1
10
71.070476
20
106.884445
11
71.070476
21
106.884445
0
LINE
8
Layer 1
10
94.971170
20
103.153820
11
95.705550
21
102.902810
0
LINE
8
Layer 1
10
95.705550
20
102.902810
11
96.787976
21
102.069028
0
LINE
8
Layer 1
10
96.787976
20
102.069028
11
98.133925
21
100.909688
0
LINE
8
Layer 1
10
98.133925
20
100.909688
11
99.359851
21
100.064152
0
LINE
8
Layer 1
10
99.359851
20
100.064152
11
103.570128
21
98.056181
0
LINE
8
Layer 1
10
103.570128
20
98.056181
11
105.969017
21
97.068403
0
LINE
8
Layer 1
10
105.969017
20
97.068403
11
107.521240
21
96.495139
0
LINE
8
Layer 1
10
107.521240
20
96.495139
11
109.632856
21
95.920056
0
LINE
8
Layer 1
10
109.632856
20
95.920056
11
111.613462
21
95.639653
0
LINE
8
Layer 1
10
111.613462
20
95.639653
11
114.609033
21
95.144026
0
LINE
8
Layer 1
10
114.609033
20
95.144026
11
117.822351
21
94.166806
0
LINE
8
Layer 1
10
117.822351
20
94.166806
11
120.644573
21
93.073195
0
LINE
8
Layer 1
10
120.644573
20
93.073195
11
123.036055
21
91.896937
0
LINE
8
Layer 1
10
123.036055
20
91.896937
11
123.977836
21
91.194133
0
LINE
8
Layer 1
10
123.977836
20
91.194133
11
124.719156
21
90.436181
0
LINE
8
Layer 1
10
124.719156
20
90.436181
11
125.391766
21
89.325169
0
LINE
8
Layer 1
10
125.391766
20
89.325169
11
125.565823
21
87.940278
0
LINE
8
Layer 1
10
125.565823
20
87.940278
11
125.454211
21
86.750547
0
LINE
8
Layer 1
10
125.454211
20
86.750547
11
125.068114
21
85.816444
0
LINE
8
Layer 1
10
125.068114
20
85.816444
11
124.370837
21
85.082156
0
LINE
8
Layer 1
10
124.370837
20
85.082156
11
123.325684
21
84.491875
0
LINE
8
Layer 1
10
123.325684
20
84.491875
11
121.812623
21
83.914517
0
LINE
8
Layer 1
10
121.812623
20
83.914517
11
121.401447
21
83.928089
0
LINE
8
Layer 1
10
121.401447
20
83.928089
11
120.926795
21
84.095000
0
LINE
8
Layer 1
10
120.926795
20
84.095000
11
119.872927
21
84.736545
0
LINE
8
Layer 1
10
119.872927
20
84.736545
11
119.311669
21
85.565814
0
LINE
8
Layer 1
10
119.311669
20
85.565814
11
119.275751
21
86.484294
0
LINE
8
Layer 1
10
119.275751
20
86.484294
11
119.797906
21
87.393472
0
LINE
8
Layer 1
10
119.797906
20
87.393472
11
120.478850
21
87.774657
0
LINE
8
Layer 1
10
120.478850
20
87.774657
11
121.218498
21
87.715406
0
LINE
8
Layer 1
10
121.218498
20
87.715406
11
121.812295
21
87.290135
0
LINE
8
Layer 1
10
121.812295
20
87.290135
11
122.055684
21
86.573264
0
LINE
8
Layer 1
10
122.055684
20
86.573264
11
122.162219
21
86.191896
0
LINE
8
Layer 1
10
122.162219
20
86.191896
11
122.441938
21
86.060902
0
LINE
8
Layer 1
10
122.441938
20
86.060902
11
122.835006
21
86.181680
0
LINE
8
Layer 1
10
122.835006
20
86.181680
11
123.281587
21
86.555625
0
LINE
8
Layer 1
10
123.281587
20
86.555625
11
123.641954
21
87.207358
0
LINE
8
Layer 1
10
123.641954
20
87.207358
11
123.725977
21
87.983079
0
LINE
8
Layer 1
10
123.725977
20
87.983079
11
123.541503
21
88.774883
0
LINE
8
Layer 1
10
123.541503
20
88.774883
11
123.096378
21
89.474861
0
LINE
8
Layer 1
10
123.096378
20
89.474861
11
122.146078
21
90.198495
0
LINE
8
Layer 1
10
122.146078
20
90.198495
11
120.768045
21
90.956528
0
LINE
8
Layer 1
10
120.768045
20
90.956528
11
118.598462
21
91.988403
0
LINE
8
Layer 1
10
118.598462
20
91.988403
11
117.557767
21
92.252986
0
LINE
8
Layer 1
10
117.557767
20
92.252986
11
117.123218
21
92.324681
0
LINE
8
Layer 1
10
117.123218
20
92.324681
11
116.852212
21
92.499931
0
LINE
8
Layer 1
10
116.852212
20
92.499931
11
116.430491
21
92.730691
0
LINE
8
Layer 1
10
116.430491
20
92.730691
11
115.635128
21
92.932083
0
LINE
8
Layer 1
10
115.635128
20
92.932083
11
113.165684
21
93.355417
0
LINE
8
Layer 1
10
113.165684
20
93.355417
11
110.625684
21
93.787570
0
LINE
8
Layer 1
10
110.625684
20
93.787570
11
107.394023
21
94.541115
0
LINE
8
Layer 1
10
107.394023
20
94.541115
11
104.275684
21
95.701389
0
LINE
8
Layer 1
10
104.275684
20
95.701389
11
102.441240
21
96.486320
0
LINE
8
Layer 1
10
102.441240
20
96.486320
11
99.663147
21
97.796431
0
LINE
8
Layer 1
10
99.663147
20
97.796431
11
97.118244
21
99.441497
0
LINE
8
Layer 1
10
97.118244
20
99.441497
11
95.259283
21
101.084027
0
LINE
8
Layer 1
10
95.259283
20
101.084027
11
94.728516
21
101.798874
0
LINE
8
Layer 1
10
94.728516
20
101.798874
11
94.539017
21
102.386528
0
LINE
8
Layer 1
10
94.539017
20
102.386528
11
94.646605
21
102.946902
0
LINE
8
Layer 1
10
94.646605
20
102.946902
11
94.971170
21
103.153820
0
LINE
8
Layer 1
10
94.971170
20
103.153820
11
94.971170
21
103.153820
0
LINE
8
Layer 1
10
70.770615
20
102.809861
11
70.717698
21
102.245417
0
LINE
8
Layer 1
10
70.717698
20
102.245417
11
70.557766
21
101.398229
0
LINE
8
Layer 1
10
70.557766
20
101.398229
11
70.121319
21
100.874847
0
LINE
8
Layer 1
10
70.121319
20
100.874847
11
69.376725
21
100.655309
0
LINE
8
Layer 1
10
69.376725
20
100.655309
11
68.292351
21
100.719653
0
LINE
8
Layer 1
10
68.292351
20
100.719653
11
66.766587
21
100.843125
0
LINE
8
Layer 1
10
66.766587
20
100.843125
11
67.824920
21
99.352639
0
LINE
8
Layer 1
10
67.824920
20
99.352639
11
68.587379
21
98.367857
0
LINE
8
Layer 1
10
68.587379
20
98.367857
11
68.924069
21
97.675671
0
LINE
8
Layer 1
10
68.924069
20
97.675671
11
68.863321
21
97.140667
0
LINE
8
Layer 1
10
68.863321
20
97.140667
11
68.433462
21
96.627431
0
LINE
8
Layer 1
10
68.433462
20
96.627431
11
67.869017
21
95.868958
0
LINE
8
Layer 1
10
67.869017
20
95.868958
11
67.915463
21
95.748594
0
LINE
8
Layer 1
10
67.915463
20
95.748594
11
68.179551
21
95.804321
0
LINE
8
Layer 1
10
68.179551
20
95.804321
11
70.109156
21
96.724445
0
LINE
8
Layer 1
10
70.109156
20
96.724445
11
71.361517
21
97.341806
0
LINE
8
Layer 1
10
71.361517
20
97.341806
11
72.737351
21
96.495139
0
LINE
8
Layer 1
10
72.737351
20
96.495139
11
74.236656
21
95.639653
0
LINE
8
Layer 1
10
74.236656
20
95.639653
11
73.513462
21
96.803820
0
LINE
8
Layer 1
10
73.513462
20
96.803820
11
72.666795
21
98.320764
0
LINE
8
Layer 1
10
72.666795
20
98.320764
11
72.953110
21
98.924913
0
LINE
8
Layer 1
10
72.953110
20
98.924913
11
73.645753
21
99.899445
0
LINE
8
Layer 1
10
73.645753
20
99.899445
11
74.633531
21
101.363472
0
LINE
8
Layer 1
10
74.633531
20
101.363472
11
74.256067
21
101.300763
0
LINE
8
Layer 1
10
74.256067
20
101.300763
11
73.345892
21
100.834306
0
LINE
8
Layer 1
10
73.345892
20
100.834306
11
72.429034
21
100.376220
0
LINE
8
Layer 1
10
72.429034
20
100.376220
11
71.834973
21
100.362381
0
LINE
8
Layer 1
10
71.834973
20
100.362381
11
71.427518
21
100.857907
0
LINE
8
Layer 1
10
71.427518
20
100.857907
11
71.070476
21
101.927917
0
LINE
8
Layer 1
10
71.070476
20
101.927917
11
70.770615
21
102.809861
0
LINE
8
Layer 1
10
70.770615
20
102.809861
11
70.770615
21
102.809861
0
LINE
8
Layer 1
10
81.415684
20
94.669514
11
81.972991
21
94.470902
0
LINE
8
Layer 1
10
81.972991
20
94.470902
11
82.666532
21
93.870835
0
LINE
8
Layer 1
10
82.666532
20
93.870835
11
84.564226
21
91.379861
0
LINE
8
Layer 1
10
84.564226
20
91.379861
11
86.543447
21
88.693740
0
LINE
8
Layer 1
10
86.543447
20
88.693740
11
88.552932
21
86.432817
0
LINE
8
Layer 1
10
88.552932
20
86.432817
11
90.506137
21
84.683090
0
LINE
8
Layer 1
10
90.506137
20
84.683090
11
92.316517
21
83.530556
0
LINE
8
Layer 1
10
92.316517
20
83.530556
11
94.741865
21
82.339931
0
LINE
8
Layer 1
10
94.741865
20
82.339931
11
95.667906
21
82.092986
0
LINE
8
Layer 1
10
95.667906
20
82.092986
11
96.585128
21
81.837222
0
LINE
8
Layer 1
10
96.585128
20
81.837222
11
97.784573
21
81.308056
0
LINE
8
Layer 1
10
97.784573
20
81.308056
11
99.275059
21
80.717153
0
LINE
8
Layer 1
10
99.275059
20
80.717153
11
100.880198
21
80.399653
0
LINE
8
Layer 1
10
100.880198
20
80.399653
11
101.510971
21
80.316749
0
LINE
8
Layer 1
10
101.510971
20
80.316749
11
101.876795
21
80.117431
0
LINE
8
Layer 1
10
101.876795
20
80.117431
11
102.280355
21
79.918110
0
LINE
8
Layer 1
10
102.280355
20
79.918110
11
103.005684
21
79.835208
0
LINE
8
Layer 1
10
103.005684
20
79.835208
11
103.731011
21
79.752305
0
LINE
8
Layer 1
10
103.731011
20
79.752305
11
104.134573
21
79.552986
0
LINE
8
Layer 1
10
104.134573
20
79.552986
11
104.524290
21
79.353666
0
LINE
8
Layer 1
10
104.524290
20
79.353666
11
105.219365
21
79.270764
0
LINE
8
Layer 1
10
105.219365
20
79.270764
11
106.401170
21
79.041458
0
LINE
8
Layer 1
10
106.401170
20
79.041458
11
107.803462
21
78.459375
0
LINE
8
Layer 1
10
107.803462
20
78.459375
11
109.858515
21
77.671182
0
LINE
8
Layer 1
10
109.858515
20
77.671182
11
111.147272
21
76.811072
0
LINE
8
Layer 1
10
111.147272
20
76.811072
11
111.550638
21
76.308853
0
LINE
8
Layer 1
10
111.550638
20
76.308853
11
111.818047
21
75.734419
0
LINE
8
Layer 1
10
111.818047
20
75.734419
11
112.019156
21
74.296597
0
LINE
8
Layer 1
10
112.019156
20
74.296597
11
111.896852
21
72.879707
0
LINE
8
Layer 1
10
111.896852
20
72.879707
11
111.659628
21
72.457806
0
LINE
8
Layer 1
10
111.659628
20
72.457806
11
111.243045
21
72.047639
0
LINE
8
Layer 1
10
111.243045
20
72.047639
11
110.693800
21
71.617986
0
LINE
8
Layer 1
10
110.693800
20
71.617986
11
110.225703
21
71.440353
0
LINE
8
Layer 1
10
110.225703
20
71.440353
11
109.644506
21
71.491398
0
LINE
8
Layer 1
10
109.644506
20
71.491398
11
108.755962
21
71.747778
0
LINE
8
Layer 1
10
108.755962
20
71.747778
11
107.788561
21
72.126565
0
LINE
8
Layer 1
10
107.788561
20
72.126565
11
107.190180
21
72.563337
0
LINE
8
Layer 1
10
107.190180
20
72.563337
11
106.902850
21
73.123701
0
LINE
8
Layer 1
10
106.902850
20
73.123701
11
106.868601
21
73.873264
0
LINE
8
Layer 1
10
106.868601
20
73.873264
11
107.091612
21
74.734128
0
LINE
8
Layer 1
10
107.091612
20
74.734128
11
107.724087
21
75.152083
0
LINE
8
Layer 1
10
107.724087
20
75.152083
11
108.452067
21
75.261961
0
LINE
8
Layer 1
10
108.452067
20
75.261961
11
109.064642
21
74.905139
0
LINE
8
Layer 1
10
109.064642
20
74.905139
11
109.469452
21
74.366010
0
LINE
8
Layer 1
10
109.469452
20
74.366010
11
109.637906
21
73.802708
0
LINE
8
Layer 1
10
109.637906
20
73.802708
11
109.706248
21
73.429672
0
LINE
8
Layer 1
10
109.706248
20
73.429672
11
109.937767
21
73.529306
0
LINE
8
Layer 1
10
109.937767
20
73.529306
11
110.125462
21
73.976283
0
LINE
8
Layer 1
10
110.125462
20
73.976283
11
110.149434
21
74.622917
0
LINE
8
Layer 1
10
110.149434
20
74.622917
11
109.919914
21
75.235432
0
LINE
8
Layer 1
10
109.919914
20
75.235432
11
109.360864
21
75.766312
0
LINE
8
Layer 1
10
109.360864
20
75.766312
11
108.433217
21
76.241431
0
LINE
8
Layer 1
10
108.433217
20
76.241431
11
107.097906
21
76.686667
0
LINE
8
Layer 1
10
107.097906
20
76.686667
11
104.954781
21
77.312847
0
LINE
8
Layer 1
10
104.954781
20
77.312847
11
103.349642
21
77.577431
0
LINE
8
Layer 1
10
103.349642
20
77.577431
11
102.778912
21
77.660332
0
LINE
8
Layer 1
10
102.778912
20
77.660332
11
102.441240
21
77.859653
0
LINE
8
Layer 1
10
102.441240
20
77.859653
11
102.140609
21
78.058971
0
LINE
8
Layer 1
10
102.140609
20
78.058971
11
101.665128
21
78.141875
0
LINE
8
Layer 1
10
101.665128
20
78.141875
11
100.587680
21
78.343544
0
LINE
8
Layer 1
10
100.587680
20
78.343544
11
98.776723
21
78.885447
0
LINE
8
Layer 1
10
98.776723
20
78.885447
11
94.115684
21
80.611320
0
LINE
8
Layer 1
10
94.115684
20
80.611320
11
90.571312
21
82.317243
0
LINE
8
Layer 1
10
90.571312
20
82.317243
11
89.108923
21
83.261731
0
LINE
8
Layer 1
10
89.108923
20
83.261731
11
87.791476
21
84.322577
0
LINE
8
Layer 1
10
87.791476
20
84.322577
11
86.572780
21
85.541287
0
LINE
8
Layer 1
10
86.572780
20
85.541287
11
85.406643
21
86.959365
0
LINE
8
Layer 1
10
85.406643
20
86.959365
11
83.047281
21
90.559653
0
LINE
8
Layer 1
10
83.047281
20
90.559653
11
81.433323
21
92.764514
0
LINE
8
Layer 1
10
81.433323
20
92.764514
11
80.619407
21
93.853806
0
LINE
8
Layer 1
10
80.619407
20
93.853806
11
80.674335
21
94.183535
0
LINE
8
Layer 1
10
80.674335
20
94.183535
11
81.001170
21
94.519583
0
LINE
8
Layer 1
10
81.001170
20
94.519583
11
81.415684
21
94.669514
0
LINE
8
Layer 1
10
81.415684
20
94.669514
11
81.415684
21
94.669514
0
LINE
8
Layer 1
10
123.978323
20
81.713750
11
124.472212
21
81.616736
0
LINE
8
Layer 1
10
124.472212
20
81.616736
11
124.789561
21
81.267263
0
LINE
8
Layer 1
10
124.789561
20
81.267263
11
124.736795
21
80.426111
0
LINE
8
Layer 1
10
124.736795
20
80.426111
11
124.410476
21
77.647986
0
LINE
8
Layer 1
10
124.410476
20
77.647986
11
124.260545
21
75.884097
0
LINE
8
Layer 1
10
124.260545
20
75.884097
11
125.345337
21
75.857639
0
LINE
8
Layer 1
10
125.345337
20
75.857639
11
126.934426
21
75.726732
0
LINE
8
Layer 1
10
126.934426
20
75.726732
11
128.571069
21
75.440848
0
LINE
8
Layer 1
10
128.571069
20
75.440848
11
129.935402
21
75.070113
0
LINE
8
Layer 1
10
129.935402
20
75.070113
11
130.707559
21
74.684653
0
LINE
8
Layer 1
10
130.707559
20
74.684653
11
131.039466
21
74.192123
0
LINE
8
Layer 1
10
131.039466
20
74.192123
11
130.663462
21
73.635139
0
LINE
8
Layer 1
10
130.663462
20
73.635139
11
130.065995
21
73.230278
0
LINE
8
Layer 1
10
130.065995
20
73.230278
11
129.358184
21
73.061875
0
LINE
8
Layer 1
10
129.358184
20
73.061875
11
128.755740
21
72.978971
0
LINE
8
Layer 1
10
128.755740
20
72.978971
11
128.405684
21
72.779653
0
LINE
8
Layer 1
10
128.405684
20
72.779653
11
128.085025
21
72.580332
0
LINE
8
Layer 1
10
128.085025
20
72.580332
11
127.559017
21
72.497431
0
LINE
8
Layer 1
10
127.559017
20
72.497431
11
127.033008
21
72.414527
0
LINE
8
Layer 1
10
127.033008
20
72.414527
11
126.712351
21
72.215208
0
LINE
8
Layer 1
10
126.712351
20
72.215208
11
126.425397
21
72.015888
0
LINE
8
Layer 1
10
126.425397
20
72.015888
11
125.980337
21
71.932986
0
LINE
8
Layer 1
10
125.980337
20
71.932986
11
125.399095
21
71.810317
0
LINE
8
Layer 1
10
125.399095
20
71.810317
11
124.789712
21
71.518472
0
LINE
8
Layer 1
10
124.789712
20
71.518472
11
124.442881
21
71.226144
0
LINE
8
Layer 1
10
124.442881
20
71.226144
11
124.277239
21
70.757370
0
LINE
8
Layer 1
10
124.277239
20
70.757370
11
124.339920
21
68.202361
0
LINE
8
Layer 1
10
124.339920
20
68.202361
11
124.384017
21
64.947986
0
LINE
8
Layer 1
10
124.384017
20
64.947986
11
124.064490
21
64.662463
0
LINE
8
Layer 1
10
124.064490
20
64.662463
11
123.546131
21
64.602335
0
LINE
8
Layer 1
10
123.546131
20
64.602335
11
123.032202
21
64.750311
0
LINE
8
Layer 1
10
123.032202
20
64.750311
11
122.725962
21
65.089097
0
LINE
8
Layer 1
10
122.725962
20
65.089097
11
122.122304
21
66.640746
0
LINE
8
Layer 1
10
122.122304
20
66.640746
11
121.270753
21
68.078889
0
LINE
8
Layer 1
10
121.270753
20
68.078889
11
120.521101
21
69.163681
0
LINE
8
Layer 1
10
120.521101
20
69.163681
11
118.818948
21
69.004931
0
LINE
8
Layer 1
10
118.818948
20
69.004931
11
115.458740
21
68.660972
0
LINE
8
Layer 1
10
115.458740
20
68.660972
11
114.108922
21
68.592578
0
LINE
8
Layer 1
10
114.108922
20
68.592578
11
113.761145
21
68.679042
0
LINE
8
Layer 1
10
113.761145
20
68.679042
11
113.562559
21
68.855000
0
LINE
8
Layer 1
10
113.562559
20
68.855000
11
113.349462
21
69.321643
0
LINE
8
Layer 1
10
113.349462
20
69.321643
11
113.377726
21
69.710365
0
LINE
8
Layer 1
10
113.377726
20
69.710365
11
113.663771
21
70.059459
0
LINE
8
Layer 1
10
113.663771
20
70.059459
11
114.224017
21
70.407222
0
LINE
8
Layer 1
10
114.224017
20
70.407222
11
116.552351
21
72.030000
0
LINE
8
Layer 1
10
116.552351
20
72.030000
11
118.042837
21
73.229445
0
LINE
8
Layer 1
10
118.042837
20
73.229445
11
117.797209
21
73.805296
0
LINE
8
Layer 1
10
117.797209
20
73.805296
11
117.011487
21
75.015426
0
LINE
8
Layer 1
10
117.011487
20
75.015426
11
115.238253
21
77.286389
0
LINE
8
Layer 1
10
115.238253
20
77.286389
11
114.653532
21
77.998987
0
LINE
8
Layer 1
10
114.653532
20
77.998987
11
114.491456
21
78.585193
0
LINE
8
Layer 1
10
114.491456
20
78.585193
11
114.749082
21
79.002656
0
LINE
8
Layer 1
10
114.749082
20
79.002656
11
115.423462
21
79.209028
0
LINE
8
Layer 1
10
115.423462
20
79.209028
11
116.611092
21
78.986986
0
LINE
8
Layer 1
10
116.611092
20
78.986986
11
118.457351
21
78.168333
0
LINE
8
Layer 1
10
118.457351
20
78.168333
11
120.644573
21
77.048264
0
LINE
8
Layer 1
10
120.644573
20
77.048264
11
121.297212
21
77.947847
0
LINE
8
Layer 1
10
121.297212
20
77.947847
11
122.628948
21
80.179167
0
LINE
8
Layer 1
10
122.628948
20
80.179167
11
123.337503
21
81.331416
0
LINE
8
Layer 1
10
123.337503
20
81.331416
11
123.653059
21
81.608937
0
LINE
8
Layer 1
10
123.653059
20
81.608937
11
123.978323
21
81.713750
0
LINE
8
Layer 1
10
123.978323
20
81.713750
11
123.978323
21
81.713750
0
LINE
8
Layer 1
10
122.514295
20
76.651389
11
121.896934
21
75.954653
0
LINE
8
Layer 1
10
121.896934
20
75.954653
11
121.333754
21
75.362636
0
LINE
8
Layer 1
10
121.333754
20
75.362636
11
120.800624
21
75.092591
0
LINE
8
Layer 1
10
120.800624
20
75.092591
11
120.202698
21
75.125695
0
LINE
8
Layer 1
10
120.202698
20
75.125695
11
119.445128
21
75.443125
0
LINE
8
Layer 1
10
119.445128
20
75.443125
11
118.879000
21
75.679514
0
LINE
8
Layer 1
10
118.879000
20
75.679514
11
118.703194
21
75.606985
0
LINE
8
Layer 1
10
118.703194
20
75.606985
11
119.515684
21
74.614097
0
LINE
8
Layer 1
10
119.515684
20
74.614097
11
120.149984
21
73.862092
0
LINE
8
Layer 1
10
120.149984
20
73.862092
11
120.294743
21
73.216243
0
LINE
8
Layer 1
10
120.294743
20
73.216243
11
119.935319
21
72.579199
0
LINE
8
Layer 1
10
119.935319
20
72.579199
11
119.057073
21
71.853611
0
LINE
8
Layer 1
10
119.057073
20
71.853611
11
118.117016
21
71.099526
0
LINE
8
Layer 1
10
118.117016
20
71.099526
11
118.101083
21
70.937386
0
LINE
8
Layer 1
10
118.101083
20
70.937386
11
118.342698
21
70.857014
0
LINE
8
Layer 1
10
118.342698
20
70.857014
11
118.915128
21
70.882777
0
LINE
8
Layer 1
10
118.915128
20
70.882777
11
119.480406
21
71.068681
0
LINE
8
Layer 1
10
119.480406
20
71.068681
11
120.115780
21
71.309475
0
LINE
8
Layer 1
10
120.115780
20
71.309475
11
120.696117
21
71.338696
0
LINE
8
Layer 1
10
120.696117
20
71.338696
11
121.186740
21
71.162354
0
LINE
8
Layer 1
10
121.186740
20
71.162354
11
121.552976
21
70.786458
0
LINE
8
Layer 1
10
121.552976
20
70.786458
11
121.870412
21
70.433035
0
LINE
8
Layer 1
10
121.870412
20
70.433035
11
122.002767
21
71.139236
0
LINE
8
Layer 1
10
122.002767
20
71.139236
11
122.199078
21
71.943141
0
LINE
8
Layer 1
10
122.199078
20
71.943141
11
122.540753
21
72.567986
0
LINE
8
Layer 1
10
122.540753
20
72.567986
11
123.004827
21
72.916794
0
LINE
8
Layer 1
10
123.004827
20
72.916794
11
123.493253
21
73.061875
0
LINE
8
Layer 1
10
123.493253
20
73.061875
11
123.900788
21
73.144777
0
LINE
8
Layer 1
10
123.900788
20
73.144777
11
124.172351
21
73.344097
0
LINE
8
Layer 1
10
124.172351
20
73.344097
11
124.499366
21
73.543416
0
LINE
8
Layer 1
10
124.499366
20
73.543416
11
125.045476
21
73.626320
0
LINE
8
Layer 1
10
125.045476
20
73.626320
11
125.500853
21
73.707654
0
LINE
8
Layer 1
10
125.500853
20
73.707654
11
125.583462
21
73.908542
0
LINE
8
Layer 1
10
125.583462
20
73.908542
11
125.093975
21
74.107860
0
LINE
8
Layer 1
10
125.093975
20
74.107860
11
124.163531
21
74.190764
0
LINE
8
Layer 1
10
124.163531
20
74.190764
11
123.254061
21
74.312718
0
LINE
8
Layer 1
10
123.254061
20
74.312718
11
122.665501
21
74.676931
0
LINE
8
Layer 1
10
122.665501
20
74.676931
11
122.400418
21
75.280925
0
LINE
8
Layer 1
10
122.400418
20
75.280925
11
122.461378
21
76.122222
0
LINE
8
Layer 1
10
122.461378
20
76.122222
11
122.514295
21
76.651389
0
LINE
8
Layer 1
10
122.514295
20
76.651389
11
122.514295
21
76.651389
0
LINE
8
Layer 1
10
17.774575
20
74.190764
11
18.391053
21
73.998204
0
LINE
8
Layer 1
10
18.391053
20
73.998204
11
18.868187
21
73.414653
0
LINE
8
Layer 1
10
18.868187
20
73.414653
11
20.327637
21
71.532535
0
LINE
8
Layer 1
10
20.327637
20
71.532535
11
21.690409
21
70.239653
0
LINE
8
Layer 1
10
21.690409
20
70.239653
11
22.916312
21
70.839375
0
LINE
8
Layer 1
10
22.916312
20
70.839375
11
25.200548
21
72.135833
0
LINE
8
Layer 1
10
25.200548
20
72.135833
11
26.554364
21
72.660012
0
LINE
8
Layer 1
10
26.554364
20
72.660012
11
26.995612
21
72.634830
0
LINE
8
Layer 1
10
26.995612
20
72.634830
11
27.269909
21
72.433252
0
LINE
8
Layer 1
10
27.269909
20
72.433252
11
27.369872
21
72.066614
0
LINE
8
Layer 1
10
27.369872
20
72.066614
11
27.288117
21
71.546255
0
LINE
8
Layer 1
10
27.288117
20
71.546255
11
26.549923
21
70.089722
0
LINE
8
Layer 1
10
26.549923
20
70.089722
11
25.832111
21
68.843592
0
LINE
8
Layer 1
10
25.832111
20
68.843592
11
25.535687
21
68.008333
0
LINE
8
Layer 1
10
25.535687
20
68.008333
11
25.955747
21
67.278788
0
LINE
8
Layer 1
10
25.955747
20
67.278788
11
27.017353
21
66.262083
0
LINE
8
Layer 1
10
27.017353
20
66.262083
11
29.539715
21
64.048403
0
LINE
8
Layer 1
10
29.539715
20
64.048403
11
30.224550
21
63.238635
0
LINE
8
Layer 1
10
30.224550
20
63.238635
11
30.569632
21
62.508058
0
LINE
8
Layer 1
10
30.569632
20
62.508058
11
30.545276
21
61.969981
0
LINE
8
Layer 1
10
30.545276
20
61.969981
11
30.121798
21
61.737708
0
LINE
8
Layer 1
10
30.121798
20
61.737708
11
27.447313
21
61.785537
0
LINE
8
Layer 1
10
27.447313
20
61.785537
11
25.685617
21
62.072847
0
LINE
8
Layer 1
10
25.685617
20
62.072847
11
25.283362
21
62.258346
0
LINE
8
Layer 1
10
25.283362
20
62.258346
11
24.689020
21
62.337431
0
LINE
8
Layer 1
10
24.689020
20
62.337431
11
24.078055
21
62.426636
0
LINE
8
Layer 1
10
24.078055
20
62.426636
11
23.639506
21
62.646111
0
LINE
8
Layer 1
10
23.639506
20
62.646111
11
23.458648
21
62.728945
0
LINE
8
Layer 1
10
23.458648
20
62.728945
11
23.253266
21
62.615876
0
LINE
8
Layer 1
10
23.253266
20
62.615876
11
22.695825
21
61.728889
0
LINE
8
Layer 1
10
22.695825
20
61.728889
11
21.267075
21
59.515208
0
LINE
8
Layer 1
10
21.267075
20
59.515208
11
19.594300
21
57.641347
0
LINE
8
Layer 1
10
19.594300
20
57.641347
11
19.200558
21
57.566216
0
LINE
8
Layer 1
10
19.200558
20
57.566216
11
18.815270
21
57.874792
0
LINE
8
Layer 1
10
18.815270
20
57.874792
11
18.577850
21
58.336589
0
LINE
8
Layer 1
10
18.577850
20
58.336589
11
18.480131
21
58.968403
0
LINE
8
Layer 1
10
18.480131
20
58.968403
11
18.303742
21
60.996875
0
LINE
8
Layer 1
10
18.303742
20
60.996875
11
18.127353
21
62.275695
0
LINE
8
Layer 1
10
18.127353
20
62.275695
11
14.952353
21
62.178681
0
LINE
8
Layer 1
10
14.952353
20
62.178681
11
12.360510
21
62.184446
0
LINE
8
Layer 1
10
12.360510
20
62.184446
11
11.248187
21
62.460903
0
LINE
8
Layer 1
10
11.248187
20
62.460903
11
10.865162
21
62.875317
0
LINE
8
Layer 1
10
10.865162
20
62.875317
11
11.257006
21
63.439861
0
LINE
8
Layer 1
10
11.257006
20
63.439861
11
11.744161
21
63.856987
0
LINE
8
Layer 1
10
11.744161
20
63.856987
11
12.165409
21
64.030764
0
LINE
8
Layer 1
10
12.165409
20
64.030764
11
14.005014
21
64.975050
0
LINE
8
Layer 1
10
14.005014
20
64.975050
11
16.045964
21
66.438472
0
LINE
8
Layer 1
10
16.045964
20
66.438472
11
16.266122
21
66.780562
0
LINE
8
Layer 1
10
16.266122
20
66.780562
11
16.406965
21
67.339964
0
LINE
8
Layer 1
10
16.406965
20
67.339964
11
16.504575
21
69.481181
0
LINE
8
Layer 1
10
16.504575
20
69.481181
11
16.574734
21
71.651293
0
LINE
8
Layer 1
10
16.574734
20
71.651293
11
16.795949
21
73.110852
0
LINE
8
Layer 1
10
16.795949
20
73.110852
11
17.188978
21
73.932972
0
LINE
8
Layer 1
10
17.188978
20
73.932972
11
17.774575
21
74.190764
0
LINE
8
Layer 1
10
17.774575
20
74.190764
11
17.774575
21
74.190764
0
LINE
8
Layer 1
10
101.391726
20
74.040833
11
101.891136
21
73.933598
0
LINE
8
Layer 1
10
101.891136
20
73.933598
11
102.580290
21
73.549763
0
LINE
8
Layer 1
10
102.580290
20
73.549763
11
104.566726
21
71.932986
0
LINE
8
Layer 1
10
104.566726
20
71.932986
11
108.473740
21
68.616875
0
LINE
8
Layer 1
10
108.473740
20
68.616875
11
110.286158
21
67.446655
0
LINE
8
Layer 1
10
110.286158
20
67.446655
11
112.679039
21
66.124411
0
LINE
8
Layer 1
10
112.679039
20
66.124411
11
114.898523
21
65.042982
0
LINE
8
Layer 1
10
114.898523
20
65.042982
11
116.190753
21
64.595208
0
LINE
8
Layer 1
10
116.190753
20
64.595208
11
116.808115
21
64.339445
0
LINE
8
Layer 1
10
116.808115
20
64.339445
11
117.230183
21
64.116494
0
LINE
8
Layer 1
10
117.230183
20
64.116494
11
118.025198
21
63.933750
0
LINE
8
Layer 1
10
118.025198
20
63.933750
11
120.367991
21
63.539738
0
LINE
8
Layer 1
10
120.367991
20
63.539738
11
121.632351
21
63.184097
0
LINE
8
Layer 1
10
121.632351
20
63.184097
11
122.984597
21
62.775898
0
LINE
8
Layer 1
10
122.984597
20
62.775898
11
124.948462
21
62.425625
0
LINE
8
Layer 1
10
124.948462
20
62.425625
11
125.743476
21
62.244274
0
LINE
8
Layer 1
10
125.743476
20
62.244274
11
126.165545
21
62.019931
0
LINE
8
Layer 1
10
126.165545
20
62.019931
11
126.425377
21
61.844400
0
LINE
8
Layer 1
10
126.425377
20
61.844400
11
126.835823
21
61.772986
0
LINE
8
Layer 1
10
126.835823
20
61.772986
11
127.651774
21
61.569727
0
LINE
8
Layer 1
10
127.651774
20
61.569727
11
128.735369
21
61.028853
0
LINE
8
Layer 1
10
128.735369
20
61.028853
11
129.909886
21
60.253708
0
LINE
8
Layer 1
10
129.909886
20
60.253708
11
130.998601
21
59.347639
0
LINE
8
Layer 1
10
130.998601
20
59.347639
11
131.999893
21
58.193189
0
LINE
8
Layer 1
10
131.999893
20
58.193189
11
132.172796
21
57.676210
0
LINE
8
Layer 1
10
132.172796
20
57.676210
11
132.215684
21
57.028125
0
LINE
8
Layer 1
10
132.215684
20
57.028125
11
131.984726
21
55.829937
0
LINE
8
Layer 1
10
131.984726
20
55.829937
11
131.367552
21
54.820866
0
LINE
8
Layer 1
10
131.367552
20
54.820866
11
130.477708
21
54.128289
0
LINE
8
Layer 1
10
130.477708
20
54.128289
11
129.428740
21
53.879583
0
LINE
8
Layer 1
10
129.428740
20
53.879583
11
128.518430
21
54.020582
0
LINE
8
Layer 1
10
128.518430
20
54.020582
11
127.770684
21
54.338195
0
LINE
8
Layer 1
10
127.770684
20
54.338195
11
127.321265
21
54.844070
0
LINE
8
Layer 1
10
127.321265
20
54.844070
11
127.135684
21
55.440625
0
LINE
8
Layer 1
10
127.135684
20
55.440625
11
127.211473
21
55.833875
0
LINE
8
Layer 1
10
127.211473
20
55.833875
11
127.416952
21
56.163839
0
LINE
8
Layer 1
10
127.416952
20
56.163839
11
128.085642
21
56.591205
0
LINE
8
Layer 1
10
128.085642
20
56.591205
11
128.879075
21
56.637308
0
LINE
8
Layer 1
10
128.879075
20
56.637308
11
129.240483
21
56.490695
0
LINE
8
Layer 1
10
129.240483
20
56.490695
11
129.534573
21
56.216736
0
LINE
8
Layer 1
10
129.534573
20
56.216736
11
129.881114
21
55.915774
0
LINE
8
Layer 1
10
129.881114
20
55.915774
11
130.222490
21
56.375486
0
LINE
8
Layer 1
10
130.222490
20
56.375486
11
130.372015
21
56.740723
0
LINE
8
Layer 1
10
130.372015
20
56.740723
11
130.342697
21
57.054404
0
LINE
8
Layer 1
10
130.342697
20
57.054404
11
129.596309
21
57.910070
0
LINE
8
Layer 1
10
129.596309
20
57.910070
11
128.588604
21
58.718986
0
LINE
8
Layer 1
10
128.588604
20
58.718986
11
127.465157
21
59.412567
0
LINE
8
Layer 1
10
127.465157
20
59.412567
11
126.399665
21
59.897295
0
LINE
8
Layer 1
10
126.399665
20
59.897295
11
125.565823
21
60.079653
0
LINE
8
Layer 1
10
125.565823
20
60.079653
11
125.050699
21
60.162555
0
LINE
8
Layer 1
10
125.050699
20
60.162555
11
124.736795
21
60.361875
0
LINE
8
Layer 1
10
124.736795
20
60.361875
11
124.370971
21
60.561194
0
LINE
8
Layer 1
10
124.370971
20
60.561194
11
123.740198
21
60.644097
0
LINE
8
Layer 1
10
123.740198
20
60.644097
11
122.276170
21
60.891042
0
LINE
8
Layer 1
10
122.276170
20
60.891042
11
120.080128
21
61.464306
0
LINE
8
Layer 1
10
120.080128
20
61.464306
11
116.055277
21
62.496232
0
LINE
8
Layer 1
10
116.055277
20
62.496232
11
112.177906
21
64.136597
0
LINE
8
Layer 1
10
112.177906
20
64.136597
11
110.006638
21
65.251744
0
LINE
8
Layer 1
10
110.006638
20
65.251744
11
108.526656
21
66.200347
0
LINE
8
Layer 1
10
108.526656
20
66.200347
11
106.088085
21
68.166236
0
LINE
8
Layer 1
10
106.088085
20
68.166236
11
103.429017
21
70.592431
0
LINE
8
Layer 1
10
103.429017
20
70.592431
11
101.501912
21
72.553557
0
LINE
8
Layer 1
10
101.501912
20
72.553557
11
101.049948
21
73.165064
0
LINE
8
Layer 1
10
101.049948
20
73.165064
11
100.933115
21
73.538125
0
LINE
8
Layer 1
10
100.933115
20
73.538125
11
101.092370
21
73.900280
0
LINE
8
Layer 1
10
101.092370
20
73.900280
11
101.391726
21
74.040833
0
LINE
8
Layer 1
10
101.391726
20
74.040833
11
101.391726
21
74.040833
0
LINE
8
Layer 1
10
49.974365
20
72.426875
11
50.485892
21
72.232847
0
LINE
8
Layer 1
10
50.485892
20
72.232847
11
50.707331
21
72.000066
0
LINE
8
Layer 1
10
50.707331
20
72.000066
11
50.758657
21
71.735109
0
LINE
8
Layer 1
10
50.758657
20
71.735109
11
50.300684
21
70.698264
0
LINE
8
Layer 1
10
50.300684
20
70.698264
11
48.592143
21
68.267043
0
LINE
8
Layer 1
10
48.592143
20
68.267043
11
46.064199
21
65.314162
0
LINE
8
Layer 1
10
46.064199
20
65.314162
11
43.615001
21
62.822012
0
LINE
8
Layer 1
10
43.615001
20
62.822012
11
42.700603
21
62.055709
0
LINE
8
Layer 1
10
42.700603
20
62.055709
11
42.142698
21
61.772986
0
LINE
8
Layer 1
10
42.142698
20
61.772986
11
41.304851
21
61.235000
0
LINE
8
Layer 1
10
41.304851
20
61.235000
11
40.245763
21
60.517306
0
LINE
8
Layer 1
10
40.245763
20
60.517306
11
38.546378
21
59.629997
0
LINE
8
Layer 1
10
38.546378
20
59.629997
11
34.707906
21
58.060000
0
LINE
8
Layer 1
10
34.707906
20
58.060000
11
33.305615
21
57.477917
0
LINE
8
Layer 1
10
33.305615
20
57.477917
11
32.406031
21
57.257431
0
LINE
8
Layer 1
10
32.406031
20
57.257431
11
31.910279
21
57.174527
0
LINE
8
Layer 1
10
31.910279
20
57.174527
11
31.603465
21
56.975208
0
LINE
8
Layer 1
10
31.603465
20
56.975208
11
31.282807
21
56.775888
0
LINE
8
Layer 1
10
31.282807
20
56.775888
11
30.756798
21
56.692986
0
LINE
8
Layer 1
10
30.756798
20
56.692986
11
30.235460
21
56.616600
0
LINE
8
Layer 1
10
30.235460
20
56.616600
11
29.927770
21
56.437222
0
LINE
8
Layer 1
10
29.927770
20
56.437222
11
28.992909
21
56.031528
0
LINE
8
Layer 1
10
28.992909
20
56.031528
11
26.805687
21
55.564097
0
LINE
8
Layer 1
10
26.805687
20
55.564097
11
23.277909
21
54.990833
0
LINE
8
Layer 1
10
23.277909
20
54.990833
11
17.777208
21
54.130764
0
LINE
8
Layer 1
10
17.777208
20
54.130764
11
16.603962
21
53.719741
0
LINE
8
Layer 1
10
16.603962
20
53.719741
11
15.957770
21
53.191667
0
LINE
8
Layer 1
10
15.957770
20
53.191667
11
15.771832
21
52.755888
0
LINE
8
Layer 1
10
15.771832
20
52.755888
11
16.486937
21
53.077014
0
LINE
8
Layer 1
10
16.486937
20
53.077014
11
17.040446
21
53.251679
0
LINE
8
Layer 1
10
17.040446
20
53.251679
11
17.615825
21
52.891806
0
LINE
8
Layer 1
10
17.615825
20
52.891806
11
17.969831
21
52.460398
0
LINE
8
Layer 1
10
17.969831
20
52.460398
11
18.159479
21
51.975575
0
LINE
8
Layer 1
10
18.159479
20
51.975575
11
18.078265
21
50.935712
0
LINE
8
Layer 1
10
18.078265
20
50.935712
11
17.437306
21
49.952263
0
LINE
8
Layer 1
10
17.437306
20
49.952263
11
16.301728
21
49.205278
0
LINE
8
Layer 1
10
16.301728
20
49.205278
11
15.541685
21
48.904588
0
LINE
8
Layer 1
10
15.541685
20
48.904588
11
15.074987
21
48.835907
0
LINE
8
Layer 1
10
15.074987
20
48.835907
11
14.701313
21
49.029082
0
LINE
8
Layer 1
10
14.701313
20
49.029082
11
14.220339
21
49.513958
0
LINE
8
Layer 1
10
14.220339
20
49.513958
11
13.680106
21
50.373705
0
LINE
8
Layer 1
10
13.680106
20
50.373705
11
13.576520
21
51.621806
0
LINE
8
Layer 1
10
13.576520
20
51.621806
11
13.693474
21
52.531145
0
LINE
8
Layer 1
10
13.693474
20
52.531145
11
13.984847
21
53.345634
0
LINE
8
Layer 1
10
13.984847
20
53.345634
11
14.449407
21
54.064372
0
LINE
8
Layer 1
10
14.449407
20
54.064372
11
15.085918
21
54.686459
0
LINE
8
Layer 1
10
15.085918
20
54.686459
11
15.893146
21
55.210994
0
LINE
8
Layer 1
10
15.893146
20
55.210994
11
16.869858
21
55.637076
0
LINE
8
Layer 1
10
16.869858
20
55.637076
11
19.326798
21
56.190278
0
LINE
8
Layer 1
10
19.326798
20
56.190278
11
25.255738
21
57.017405
0
LINE
8
Layer 1
10
25.255738
20
57.017405
11
28.640131
21
57.777778
0
LINE
8
Layer 1
10
28.640131
20
57.777778
11
30.333465
21
58.245208
0
LINE
8
Layer 1
10
30.333465
20
58.245208
11
31.603465
21
58.650903
0
LINE
8
Layer 1
10
31.603465
20
58.650903
11
34.346309
21
59.823889
0
LINE
8
Layer 1
10
34.346309
20
59.823889
11
35.272351
21
60.079653
0
LINE
8
Layer 1
10
35.272351
20
60.079653
11
36.189573
21
60.335417
0
LINE
8
Layer 1
10
36.189573
20
60.335417
11
37.671240
21
61.023333
0
LINE
8
Layer 1
10
37.671240
20
61.023333
11
39.032562
21
61.744061
0
LINE
8
Layer 1
10
39.032562
20
61.744061
11
40.551196
21
62.770915
0
LINE
8
Layer 1
10
40.551196
20
62.770915
11
43.765403
21
65.466669
0
LINE
8
Layer 1
10
43.765403
20
65.466669
11
46.723883
21
68.557925
0
LINE
8
Layer 1
10
46.723883
20
68.557925
11
47.922857
21
70.079157
0
LINE
8
Layer 1
10
47.922857
20
70.079157
11
48.836656
21
71.492014
0
LINE
8
Layer 1
10
48.836656
20
71.492014
11
49.384266
21
72.181501
0
LINE
8
Layer 1
10
49.384266
20
72.181501
11
49.974365
21
72.426875
0
LINE
8
Layer 1
10
49.974365
20
72.426875
11
49.974365
21
72.426875
0
LINE
8
Layer 1
10
18.771173
20
70.239653
11
18.540379
21
69.540433
0
LINE
8
Layer 1
10
18.540379
20
69.540433
11
18.330200
21
67.858403
0
LINE
8
Layer 1
10
18.330200
20
67.858403
11
18.197991
21
66.470878
0
LINE
8
Layer 1
10
18.197991
20
66.470878
11
18.018125
21
65.681880
0
LINE
8
Layer 1
10
18.018125
20
65.681880
11
17.670183
21
65.202827
0
LINE
8
Layer 1
10
17.670183
20
65.202827
11
17.033742
21
64.745139
0
LINE
8
Layer 1
10
17.033742
20
64.745139
11
15.940131
21
63.924931
0
LINE
8
Layer 1
10
15.940131
20
63.924931
11
16.788098
21
63.965737
0
LINE
8
Layer 1
10
16.788098
20
63.965737
11
18.118534
21
64.374722
0
LINE
8
Layer 1
10
18.118534
20
64.374722
11
18.809064
21
64.491268
0
LINE
8
Layer 1
10
18.809064
20
64.491268
11
19.372483
21
64.166626
0
LINE
8
Layer 1
10
19.372483
20
64.166626
11
19.752105
21
63.460963
0
LINE
8
Layer 1
10
19.752105
20
63.460963
11
19.891242
21
62.434445
0
LINE
8
Layer 1
10
19.891242
20
62.434445
11
19.956838
21
61.568578
0
LINE
8
Layer 1
10
19.956838
20
61.568578
11
20.120548
21
61.208542
0
LINE
8
Layer 1
10
20.120548
20
61.208542
11
20.478684
21
61.602329
0
LINE
8
Layer 1
10
20.478684
20
61.602329
11
21.002492
21
62.549097
0
LINE
8
Layer 1
10
21.002492
20
62.549097
11
21.857978
21
64.312986
0
LINE
8
Layer 1
10
21.857978
20
64.312986
11
22.233615
21
64.569689
0
LINE
8
Layer 1
10
22.233615
20
64.569689
11
22.907455
21
64.661970
0
LINE
8
Layer 1
10
22.907455
20
64.661970
11
23.729039
21
64.588579
0
LINE
8
Layer 1
10
23.729039
20
64.588579
11
24.547909
21
64.348264
0
LINE
8
Layer 1
10
24.547909
20
64.348264
11
26.195375
21
63.760662
0
LINE
8
Layer 1
10
26.195375
20
63.760662
11
27.140825
21
63.572153
0
LINE
8
Layer 1
10
27.140825
20
63.572153
11
25.253464
21
65.309583
0
LINE
8
Layer 1
10
25.253464
20
65.309583
11
24.055064
21
66.398543
0
LINE
8
Layer 1
10
24.055064
20
66.398543
11
23.407673
21
67.239086
0
LINE
8
Layer 1
10
23.407673
20
67.239086
11
23.270869
21
67.908628
0
LINE
8
Layer 1
10
23.270869
20
67.908628
11
23.604228
21
68.484583
0
LINE
8
Layer 1
10
23.604228
20
68.484583
11
23.836540
21
68.830352
0
LINE
8
Layer 1
10
23.836540
20
68.830352
11
23.678340
21
68.987656
0
LINE
8
Layer 1
10
23.678340
20
68.987656
11
22.316589
21
68.713889
0
LINE
8
Layer 1
10
22.316589
20
68.713889
11
21.376124
21
68.447694
0
LINE
8
Layer 1
10
21.376124
20
68.447694
11
20.719012
21
68.446282
0
LINE
8
Layer 1
10
20.719012
20
68.446282
11
20.190411
21
68.750653
0
LINE
8
Layer 1
10
20.190411
20
68.750653
11
19.635478
21
69.401806
0
LINE
8
Layer 1
10
19.635478
20
69.401806
11
18.771173
21
70.239653
0
LINE
8
Layer 1
10
18.771173
20
70.239653
11
18.771173
21
70.239653
0
LINE
8
Layer 1
10
42.010406
20
69.013750
11
41.904573
21
68.969653
0
LINE
8
Layer 1
10
41.904573
20
68.969653
11
41.622351
21
68.669792
0
LINE
8
Layer 1
10
41.622351
20
68.669792
11
41.904573
21
68.546320
0
LINE
8
Layer 1
10
41.904573
20
68.546320
11
42.103893
21
68.634605
0
LINE
8
Layer 1
10
42.103893
20
68.634605
11
42.186795
21
68.846181
0
LINE
8
Layer 1
10
42.186795
20
68.846181
11
42.010406
21
69.013750
0
LINE
8
Layer 1
10
42.010406
20
69.013750
11
42.010406
21
69.013750
0
LINE
8
Layer 1
10
88.585892
20
64.930347
11
89.489781
21
64.426694
0
LINE
8
Layer 1
10
89.489781
20
64.426694
11
91.593323
21
62.637292
0
LINE
8
Layer 1
10
91.593323
20
62.637292
11
93.783357
21
60.833019
0
LINE
8
Layer 1
10
93.783357
20
60.833019
11
94.918253
21
60.079653
0
LINE
8
Layer 1
10
94.918253
20
60.079653
11
95.398205
21
60.225519
0
LINE
8
Layer 1
10
95.398205
20
60.225519
11
96.201239
21
60.716591
0
LINE
8
Layer 1
10
96.201239
20
60.716591
11
99.160406
21
62.998889
0
LINE
8
Layer 1
10
99.160406
20
62.998889
11
100.913747
21
64.287979
0
LINE
8
Layer 1
10
100.913747
20
64.287979
11
101.382312
21
64.467075
0
LINE
8
Layer 1
10
101.382312
20
64.467075
11
101.700406
21
64.401181
0
LINE
8
Layer 1
10
101.700406
20
64.401181
11
102.036051
21
64.069255
0
LINE
8
Layer 1
10
102.036051
20
64.069255
11
102.235058
21
63.642264
0
LINE
8
Layer 1
10
102.235058
20
63.642264
11
102.268163
21
63.228725
0
LINE
8
Layer 1
10
102.268163
20
63.228725
11
102.106101
21
62.937153
0
LINE
8
Layer 1
10
102.106101
20
62.937153
11
101.206517
21
61.208542
0
LINE
8
Layer 1
10
101.206517
20
61.208542
11
100.289295
21
59.162431
0
LINE
8
Layer 1
10
100.289295
20
59.162431
11
100.081102
21
58.603896
0
LINE
8
Layer 1
10
100.081102
20
58.603896
11
100.141156
21
58.151273
0
LINE
8
Layer 1
10
100.141156
20
58.151273
11
100.513404
21
57.712545
0
LINE
8
Layer 1
10
100.513404
20
57.712545
11
101.241795
21
57.195695
0
LINE
8
Layer 1
10
101.241795
20
57.195695
11
104.134573
21
54.893820
0
LINE
8
Layer 1
10
104.134573
20
54.893820
11
105.421490
21
53.585013
0
LINE
8
Layer 1
10
105.421490
20
53.585013
11
105.576484
21
53.234361
0
LINE
8
Layer 1
10
105.576484
20
53.234361
11
105.475128
21
52.988820
0
LINE
8
Layer 1
10
105.475128
20
52.988820
11
104.839690
21
52.699377
0
LINE
8
Layer 1
10
104.839690
20
52.699377
11
103.634817
21
52.453877
0
LINE
8
Layer 1
10
103.634817
20
52.453877
11
100.174642
21
52.195070
0
LINE
8
Layer 1
10
100.174642
20
52.195070
11
98.481309
21
52.177431
0
LINE
8
Layer 1
10
98.481309
20
52.177431
11
98.128531
21
51.048542
0
LINE
8
Layer 1
10
98.128531
20
51.048542
11
97.784573
21
49.372847
0
LINE
8
Layer 1
10
97.784573
20
49.372847
11
97.701670
21
48.933328
0
LINE
8
Layer 1
10
97.701670
20
48.933328
11
97.502351
21
48.649653
0
LINE
8
Layer 1
10
97.502351
20
48.649653
11
97.303031
21
48.300078
0
LINE
8
Layer 1
10
97.303031
20
48.300078
11
97.220128
21
47.705972
0
LINE
8
Layer 1
10
97.220128
20
47.705972
11
97.095994
21
46.976082
0
LINE
8
Layer 1
10
97.095994
20
46.976082
11
96.771511
21
46.327862
0
LINE
8
Layer 1
10
96.771511
20
46.327862
11
96.318559
21
45.863784
0
LINE
8
Layer 1
10
96.318559
20
45.863784
11
95.809017
21
45.686320
0
LINE
8
Layer 1
10
95.809017
20
45.686320
11
95.165198
21
45.897986
0
LINE
8
Layer 1
10
95.165198
20
45.897986
11
94.688948
21
47.379653
0
LINE
8
Layer 1
10
94.688948
20
47.379653
11
93.929382
21
49.705595
0
LINE
8
Layer 1
10
93.929382
20
49.705595
11
93.136726
21
51.269028
0
LINE
8
Layer 1
10
93.136726
20
51.269028
11
92.535850
21
51.985829
0
LINE
8
Layer 1
10
92.535850
20
51.985829
11
91.857906
21
52.027500
0
LINE
8
Layer 1
10
91.857906
20
52.027500
11
89.882351
21
51.568889
0
LINE
8
Layer 1
10
89.882351
20
51.568889
11
87.060128
21
51.224931
0
LINE
8
Layer 1
10
87.060128
20
51.224931
11
85.799853
21
51.314939
0
LINE
8
Layer 1
10
85.799853
20
51.314939
11
85.510022
21
51.490384
0
LINE
8
Layer 1
10
85.510022
20
51.490384
11
85.451534
21
51.779111
0
LINE
8
Layer 1
10
85.451534
20
51.779111
11
86.042009
21
52.775376
0
LINE
8
Layer 1
10
86.042009
20
52.775376
11
87.598115
21
54.461667
0
LINE
8
Layer 1
10
87.598115
20
54.461667
11
88.906646
21
55.869449
0
LINE
8
Layer 1
10
88.906646
20
55.869449
11
89.650022
21
56.874912
0
LINE
8
Layer 1
10
89.650022
20
56.874912
11
89.867948
21
57.549082
0
LINE
8
Layer 1
10
89.867948
20
57.549082
11
89.600128
21
57.962986
0
LINE
8
Layer 1
10
89.600128
20
57.962986
11
89.400809
21
58.246785
0
LINE
8
Layer 1
10
89.400809
20
58.246785
11
89.317906
21
58.686181
0
LINE
8
Layer 1
10
89.317906
20
58.686181
11
89.062142
21
59.726875
0
LINE
8
Layer 1
10
89.062142
20
59.726875
11
88.462420
21
61.490764
0
LINE
8
Layer 1
10
88.462420
20
61.490764
11
87.853878
21
63.439861
0
LINE
8
Layer 1
10
87.853878
20
63.439861
11
87.754305
21
64.091704
0
LINE
8
Layer 1
10
87.754305
20
64.091704
11
88.127281
21
64.656945
0
LINE
8
Layer 1
10
88.127281
20
64.656945
11
88.585892
21
64.930347
0
LINE
8
Layer 1
10
88.585892
20
64.930347
11
88.585892
21
64.930347
0
LINE
8
Layer 1
10
50.159573
20
64.498195
11
50.509058
21
64.390839
0
LINE
8
Layer 1
10
50.509058
20
64.390839
11
51.018097
21
64.007305
0
LINE
8
Layer 1
10
51.018097
20
64.007305
11
52.875962
21
62.125764
0
LINE
8
Layer 1
10
52.875962
20
62.125764
11
54.848017
21
60.186824
0
LINE
8
Layer 1
10
54.848017
20
60.186824
11
55.504097
21
59.685484
0
LINE
8
Layer 1
10
55.504097
20
59.685484
11
55.918670
21
59.515208
0
LINE
8
Layer 1
10
55.918670
20
59.515208
11
56.620738
21
59.636213
0
LINE
8
Layer 1
10
56.620738
20
59.636213
11
57.424747
21
60.022362
0
LINE
8
Layer 1
10
57.424747
20
60.022362
11
59.569920
21
61.728889
0
LINE
8
Layer 1
10
59.569920
20
61.728889
11
60.952823
21
62.846307
0
LINE
8
Layer 1
10
60.952823
20
62.846307
11
61.352255
21
62.973185
0
LINE
8
Layer 1
10
61.352255
20
62.973185
11
61.686587
21
62.884236
0
LINE
8
Layer 1
10
61.686587
20
62.884236
11
62.035627
21
62.554676
0
LINE
8
Layer 1
10
62.035627
20
62.554676
11
62.203825
21
62.108730
0
LINE
8
Layer 1
10
62.203825
20
62.108730
11
62.172935
21
61.664687
0
LINE
8
Layer 1
10
62.172935
20
61.664687
11
61.924712
21
61.340833
0
LINE
8
Layer 1
10
61.924712
20
61.340833
11
60.487142
21
58.712639
0
LINE
8
Layer 1
10
60.487142
20
58.712639
11
59.084851
21
55.758125
0
LINE
8
Layer 1
10
59.084851
20
55.758125
11
59.035943
21
55.180092
0
LINE
8
Layer 1
10
59.035943
20
55.180092
11
59.458690
21
54.357286
0
LINE
8
Layer 1
10
59.458690
20
54.357286
11
60.424326
21
53.187591
0
LINE
8
Layer 1
10
60.424326
20
53.187591
11
62.004087
21
51.568889
0
LINE
8
Layer 1
10
62.004087
20
51.568889
11
63.354782
21
50.114410
0
LINE
8
Layer 1
10
63.354782
20
50.114410
11
63.917906
21
49.249375
0
LINE
8
Layer 1
10
63.917906
20
49.249375
11
63.725613
21
48.855005
0
LINE
8
Layer 1
10
63.725613
20
48.855005
11
63.146422
21
48.648986
0
LINE
8
Layer 1
10
63.146422
20
48.648986
11
62.176861
21
48.630713
0
LINE
8
Layer 1
10
62.176861
20
48.630713
11
60.813462
21
48.799583
0
LINE
8
Layer 1
10
60.813462
20
48.799583
11
57.911865
21
49.258195
0
LINE
8
Layer 1
10
57.911865
20
49.258195
11
57.116851
21
49.440803
0
LINE
8
Layer 1
10
57.116851
20
49.440803
11
56.694781
21
49.663889
0
LINE
8
Layer 1
10
56.694781
20
49.663889
11
56.451668
21
49.908272
0
LINE
8
Layer 1
10
56.451668
20
49.908272
11
56.233451
21
49.873715
0
LINE
8
Layer 1
10
56.233451
20
49.873715
11
56.076125
21
49.590929
0
LINE
8
Layer 1
10
56.076125
20
49.590929
11
56.015684
21
49.090625
0
LINE
8
Layer 1
10
56.015684
20
49.090625
11
55.932781
21
48.452704
0
LINE
8
Layer 1
10
55.932781
20
48.452704
11
55.733462
21
48.085208
0
LINE
8
Layer 1
10
55.733462
20
48.085208
11
55.534142
21
47.797001
0
LINE
8
Layer 1
10
55.534142
20
47.797001
11
55.451240
21
47.353195
0
LINE
8
Layer 1
10
55.451240
20
47.353195
11
55.195476
21
46.312500
0
LINE
8
Layer 1
10
55.195476
20
46.312500
11
54.207698
21
43.922431
0
LINE
8
Layer 1
10
54.207698
20
43.922431
11
53.962688
21
43.548069
0
LINE
8
Layer 1
10
53.962688
20
43.548069
11
53.600689
21
43.451170
0
LINE
8
Layer 1
10
53.600689
20
43.451170
11
53.187212
21
43.625180
0
LINE
8
Layer 1
10
53.187212
20
43.625180
11
52.787767
21
44.063542
0
LINE
8
Layer 1
10
52.787767
20
44.063542
11
52.091031
21
45.827431
0
LINE
8
Layer 1
10
52.091031
20
45.827431
11
51.491309
21
48.085208
0
LINE
8
Layer 1
10
51.491309
20
48.085208
11
51.015059
21
49.999028
0
LINE
8
Layer 1
10
51.015059
20
49.999028
11
50.675681
21
50.697313
0
LINE
8
Layer 1
10
50.675681
20
50.697313
11
50.018931
21
51.216509
0
LINE
8
Layer 1
10
50.018931
20
51.216509
11
49.141460
21
51.506200
0
LINE
8
Layer 1
10
49.141460
20
51.506200
11
48.139920
21
51.515972
0
LINE
8
Layer 1
10
48.139920
20
51.515972
11
45.829226
21
51.180833
0
LINE
8
Layer 1
10
45.829226
20
51.180833
11
44.809011
21
51.166707
0
LINE
8
Layer 1
10
44.809011
20
51.166707
11
43.810873
21
51.367169
0
LINE
8
Layer 1
10
43.810873
20
51.367169
11
43.052415
21
51.714792
0
LINE
8
Layer 1
10
43.052415
20
51.714792
11
42.751240
21
52.142153
0
LINE
8
Layer 1
10
42.751240
20
52.142153
11
43.357083
21
53.145871
0
LINE
8
Layer 1
10
43.357083
20
53.145871
11
43.839609
21
53.652948
0
LINE
8
Layer 1
10
43.839609
20
53.652948
11
44.197628
21
53.870764
0
LINE
8
Layer 1
10
44.197628
20
53.870764
11
45.661656
21
54.664514
0
LINE
8
Layer 1
10
45.661656
20
54.664514
11
48.483878
21
56.243195
0
LINE
8
Layer 1
10
48.483878
20
56.243195
11
49.687016
21
56.916064
0
LINE
8
Layer 1
10
49.687016
20
56.916064
11
50.274226
21
57.425000
0
LINE
8
Layer 1
10
50.274226
20
57.425000
11
50.240655
21
58.388039
0
LINE
8
Layer 1
10
50.240655
20
58.388039
11
49.947906
21
60.150208
0
LINE
8
Layer 1
10
49.947906
20
60.150208
11
49.444839
21
63.352236
0
LINE
8
Layer 1
10
49.444839
20
63.352236
11
49.555710
21
64.045955
0
LINE
8
Layer 1
10
49.555710
20
64.045955
11
49.903809
21
64.418820
0
LINE
8
Layer 1
10
49.903809
20
64.418820
11
50.159573
21
64.498195
0
LINE
8
Layer 1
10
50.159573
20
64.498195
11
50.159573
21
64.498195
0
LINE
8
Layer 1
10
90.499712
20
60.785208
11
90.757954
21
60.079619
0
LINE
8
Layer 1
10
90.757954
20
60.079619
11
91.293462
21
59.232986
0
LINE
8
Layer 1
10
91.293462
20
59.232986
11
91.946101
21
58.157014
0
LINE
8
Layer 1
10
91.946101
20
58.157014
11
92.321527
21
57.250616
0
LINE
8
Layer 1
10
92.321527
20
57.250616
11
91.981378
21
56.463681
0
LINE
8
Layer 1
10
91.981378
20
56.463681
11
90.191031
21
54.488125
0
LINE
8
Layer 1
10
90.191031
20
54.488125
11
89.272347
21
53.536758
0
LINE
8
Layer 1
10
89.272347
20
53.536758
11
89.294420
21
53.413853
0
LINE
8
Layer 1
10
89.294420
20
53.413853
11
89.600128
21
53.465070
0
LINE
8
Layer 1
10
89.600128
20
53.465070
11
92.018660
21
53.801984
0
LINE
8
Layer 1
10
92.018660
20
53.801984
11
93.077376
21
53.768067
0
LINE
8
Layer 1
10
93.077376
20
53.768067
11
93.692351
21
53.588542
0
LINE
8
Layer 1
10
93.692351
20
53.588542
11
94.806161
21
51.973491
0
LINE
8
Layer 1
10
94.806161
20
51.973491
11
95.526795
21
50.307708
0
LINE
8
Layer 1
10
95.526795
20
50.307708
11
95.603291
21
49.898845
0
LINE
8
Layer 1
10
95.603291
20
49.898845
11
95.795459
21
50.000019
0
LINE
8
Layer 1
10
95.795459
20
50.000019
11
96.302906
21
51.410139
0
LINE
8
Layer 1
10
96.302906
20
51.410139
11
96.655684
21
53.368056
0
LINE
8
Layer 1
10
96.655684
20
53.368056
11
96.759315
21
53.763772
0
LINE
8
Layer 1
10
96.759315
20
53.763772
11
97.008462
21
54.055972
0
LINE
8
Layer 1
10
97.008462
20
54.055972
11
97.770415
21
54.274407
0
LINE
8
Layer 1
10
97.770415
20
54.274407
11
100.183462
21
54.399931
0
LINE
8
Layer 1
10
100.183462
20
54.399931
11
101.298996
21
54.505176
0
LINE
8
Layer 1
10
101.298996
20
54.505176
11
101.305741
21
54.635853
0
LINE
8
Layer 1
10
101.305741
20
54.635853
11
101.030128
21
54.867361
0
LINE
8
Layer 1
10
101.030128
20
54.867361
11
100.015892
21
55.634653
0
LINE
8
Layer 1
10
100.015892
20
55.634653
11
98.745892
21
56.454861
0
LINE
8
Layer 1
10
98.745892
20
56.454861
11
98.059903
21
56.966075
0
LINE
8
Layer 1
10
98.059903
20
56.966075
11
97.819954
21
57.579690
0
LINE
8
Layer 1
10
97.819954
20
57.579690
11
98.020925
21
58.481967
0
LINE
8
Layer 1
10
98.020925
20
58.481967
11
98.657698
21
59.859167
0
LINE
8
Layer 1
10
98.657698
20
59.859167
11
98.863629
21
60.342279
0
LINE
8
Layer 1
10
98.863629
20
60.342279
11
98.739524
21
60.424417
0
LINE
8
Layer 1
10
98.739524
20
60.424417
11
97.149573
21
59.241806
0
LINE
8
Layer 1
10
97.149573
20
59.241806
11
95.739707
21
58.239468
0
LINE
8
Layer 1
10
95.739707
20
58.239468
11
94.821240
21
57.830695
0
LINE
8
Layer 1
10
94.821240
20
57.830695
11
93.882341
21
58.288340
0
LINE
8
Layer 1
10
93.882341
20
58.288340
11
92.422351
21
59.365278
0
LINE
8
Layer 1
10
92.422351
20
59.365278
11
90.499712
21
60.785208
0
LINE
8
Layer 1
10
90.499712
20
60.785208
11
90.499712
21
60.785208
0
LINE
8
Layer 1
10
51.835267
20
60.644097
11
51.958740
21
59.444653
0
LINE
8
Layer 1
10
51.958740
20
59.444653
11
52.188045
21
57.345625
0
LINE
8
Layer 1
10
52.188045
20
57.345625
11
52.202923
21
56.677001
0
LINE
8
Layer 1
10
52.202923
20
56.677001
11
51.868322
21
56.151627
0
LINE
8
Layer 1
10
51.868322
20
56.151627
11
50.915267
21
55.533130
0
LINE
8
Layer 1
10
50.915267
20
55.533130
11
49.074781
21
54.585139
0
LINE
8
Layer 1
10
49.074781
20
54.585139
11
46.570059
21
53.323958
0
LINE
8
Layer 1
10
46.570059
20
53.323958
11
49.083601
21
53.244583
0
LINE
8
Layer 1
10
49.083601
20
53.244583
11
51.327400
21
53.061907
0
LINE
8
Layer 1
10
51.327400
20
53.061907
11
51.762356
21
52.801324
0
LINE
8
Layer 1
10
51.762356
20
52.801324
11
52.091031
21
52.318542
0
LINE
8
Layer 1
10
52.091031
20
52.318542
11
52.444706
21
51.539438
0
LINE
8
Layer 1
10
52.444706
20
51.539438
11
52.602559
21
50.854514
0
LINE
8
Layer 1
10
52.602559
20
50.854514
11
52.692024
21
50.370751
0
LINE
8
Layer 1
10
52.692024
20
50.370751
11
52.875962
21
50.078403
0
LINE
8
Layer 1
10
52.875962
20
50.078403
11
53.107583
21
49.588100
0
LINE
8
Layer 1
10
53.107583
20
49.588100
11
53.316934
21
48.623195
0
LINE
8
Layer 1
10
53.316934
20
48.623195
11
53.539397
21
47.616528
0
LINE
8
Layer 1
10
53.539397
20
47.616528
11
53.674221
21
47.598370
0
LINE
8
Layer 1
10
53.674221
20
47.598370
11
53.872559
21
47.838264
0
LINE
8
Layer 1
10
53.872559
20
47.838264
11
54.185144
21
48.645717
0
LINE
8
Layer 1
10
54.185144
20
48.645717
11
54.428184
21
49.849097
0
LINE
8
Layer 1
10
54.428184
20
49.849097
11
54.780962
21
51.754097
0
LINE
8
Layer 1
10
54.780962
20
51.754097
11
55.095011
21
52.018846
0
LINE
8
Layer 1
10
55.095011
20
52.018846
11
55.654819
21
52.162264
0
LINE
8
Layer 1
10
55.654819
20
52.162264
11
56.251744
21
52.158925
0
LINE
8
Layer 1
10
56.251744
20
52.158925
11
56.677142
21
51.983403
0
LINE
8
Layer 1
10
56.677142
20
51.983403
11
57.967926
21
51.410181
0
LINE
8
Layer 1
10
57.967926
20
51.410181
11
59.490545
21
51.048542
0
LINE
8
Layer 1
10
59.490545
20
51.048542
11
59.698426
21
51.101819
0
LINE
8
Layer 1
10
59.698426
20
51.101819
11
59.686763
21
51.296788
0
LINE
8
Layer 1
10
59.686763
20
51.296788
11
58.917281
21
52.292083
0
LINE
8
Layer 1
10
58.917281
20
52.292083
11
57.303323
21
54.496945
0
LINE
8
Layer 1
10
57.303323
20
54.496945
11
57.015600
21
55.075722
0
LINE
8
Layer 1
10
57.015600
20
55.075722
11
56.944964
21
55.511209
0
LINE
8
Layer 1
10
56.944964
20
55.511209
11
57.541448
21
56.816458
0
LINE
8
Layer 1
10
57.541448
20
56.816458
11
58.158809
21
58.306945
0
LINE
8
Layer 1
10
58.158809
20
58.306945
11
57.813252
21
58.228893
0
LINE
8
Layer 1
10
57.813252
20
58.228893
11
57.179851
21
57.848333
0
LINE
8
Layer 1
10
57.179851
20
57.848333
11
56.437648
21
57.430116
0
LINE
8
Layer 1
10
56.437648
20
57.430116
11
55.821656
21
57.257431
0
LINE
8
Layer 1
10
55.821656
20
57.257431
11
54.935531
21
57.754186
0
LINE
8
Layer 1
10
54.935531
20
57.754186
11
53.555059
21
58.950764
0
LINE
8
Layer 1
10
53.555059
20
58.950764
11
51.835267
21
60.644097
0
LINE
8
Layer 1
10
51.835267
20
60.644097
11
51.835267
21
60.644097
0
LINE
8
Layer 1
10
112.327837
20
55.431806
11
113.032862
21
55.209005
0
LINE
8
Layer 1
10
113.032862
20
55.209005
11
114.029990
21
54.470486
0
LINE
8
Layer 1
10
114.029990
20
54.470486
11
115.204298
21
53.623055
0
LINE
8
Layer 1
10
115.204298
20
53.623055
11
116.912371
21
52.615338
0
LINE
8
Layer 1
10
116.912371
20
52.615338
11
120.785684
21
50.748681
0
LINE
8
Layer 1
10
120.785684
20
50.748681
11
122.527249
21
50.303044
0
LINE
8
Layer 1
10
122.527249
20
50.303044
11
125.865684
21
49.910833
0
LINE
8
Layer 1
10
125.865684
20
49.910833
11
130.090511
21
49.421080
0
LINE
8
Layer 1
10
130.090511
20
49.421080
11
133.116582
21
48.823140
0
LINE
8
Layer 1
10
133.116582
20
48.823140
11
135.405572
21
47.995140
0
LINE
8
Layer 1
10
135.405572
20
47.995140
11
137.419156
21
46.815208
0
LINE
8
Layer 1
10
137.419156
20
46.815208
11
138.646903
21
45.776896
0
LINE
8
Layer 1
10
138.646903
20
45.776896
11
139.485036
21
44.590597
0
LINE
8
Layer 1
10
139.485036
20
44.590597
11
139.964916
21
43.191483
0
LINE
8
Layer 1
10
139.964916
20
43.191483
11
140.117906
21
41.514722
0
LINE
8
Layer 1
10
140.117906
20
41.514722
11
140.099007
21
40.343913
0
LINE
8
Layer 1
10
140.099007
20
40.343913
11
139.969026
21
39.640224
0
LINE
8
Layer 1
10
139.969026
20
39.640224
11
139.618034
21
39.121926
0
LINE
8
Layer 1
10
139.618034
20
39.121926
11
138.936101
21
38.507292
0
LINE
8
Layer 1
10
138.936101
20
38.507292
11
137.712371
21
37.678732
0
LINE
8
Layer 1
10
137.712371
20
37.678732
11
136.325545
21
37.510695
0
LINE
8
Layer 1
10
136.325545
20
37.510695
11
135.084845
21
37.644662
0
LINE
8
Layer 1
10
135.084845
20
37.644662
11
134.138323
21
37.978125
0
LINE
8
Layer 1
10
134.138323
20
37.978125
11
133.585688
21
38.469924
0
LINE
8
Layer 1
10
133.585688
20
38.469924
11
133.293340
21
39.065216
0
LINE
8
Layer 1
10
133.293340
20
39.065216
11
133.275759
21
39.705659
0
LINE
8
Layer 1
10
133.275759
20
39.705659
11
133.547420
21
40.332917
0
LINE
8
Layer 1
10
133.547420
20
40.332917
11
134.111396
21
40.759135
0
LINE
8
Layer 1
10
134.111396
20
40.759135
11
134.839799
21
40.851398
0
LINE
8
Layer 1
10
134.839799
20
40.851398
11
135.545989
21
40.627094
0
LINE
8
Layer 1
10
135.545989
20
40.627094
11
136.043323
21
40.103611
0
LINE
8
Layer 1
10
136.043323
20
40.103611
11
136.357606
21
39.534950
0
LINE
8
Layer 1
10
136.357606
20
39.534950
11
136.619214
21
39.284935
0
LINE
8
Layer 1
10
136.619214
20
39.284935
11
136.903762
21
39.322990
0
LINE
8
Layer 1
10
136.903762
20
39.322990
11
137.286865
21
39.618542
0
LINE
8
Layer 1
10
137.286865
20
39.618542
11
137.682876
21
40.261320
0
LINE
8
Layer 1
10
137.682876
20
40.261320
11
137.825434
21
41.154295
0
LINE
8
Layer 1
10
137.825434
20
41.154295
11
137.747995
21
42.193936
0
LINE
8
Layer 1
10
137.747995
20
42.193936
11
137.484020
21
43.276711
0
LINE
8
Layer 1
10
137.484020
20
43.276711
11
137.066967
21
44.299091
0
LINE
8
Layer 1
10
137.066967
20
44.299091
11
136.530296
21
45.157543
0
LINE
8
Layer 1
10
136.530296
20
45.157543
11
135.907465
21
45.748537
0
LINE
8
Layer 1
10
135.907465
20
45.748537
11
135.231934
21
45.968542
0
LINE
8
Layer 1
10
135.231934
20
45.968542
11
134.596934
21
46.197847
0
LINE
8
Layer 1
10
134.596934
20
46.197847
11
133.062351
21
46.797570
0
LINE
8
Layer 1
10
133.062351
20
46.797570
11
131.086795
21
47.388472
0
LINE
8
Layer 1
10
131.086795
20
47.388472
11
128.264573
21
47.767708
0
LINE
8
Layer 1
10
128.264573
20
47.767708
11
123.538372
21
48.162128
0
LINE
8
Layer 1
10
123.538372
20
48.162128
11
121.632351
21
48.490903
0
LINE
8
Layer 1
10
121.632351
20
48.490903
11
117.770968
21
50.216970
0
LINE
8
Layer 1
10
117.770968
20
50.216970
11
114.683992
21
51.950121
0
LINE
8
Layer 1
10
114.683992
20
51.950121
11
112.637029
21
53.519114
0
LINE
8
Layer 1
10
112.637029
20
53.519114
11
112.086554
21
54.188539
0
LINE
8
Layer 1
10
112.086554
20
54.188539
11
111.895684
21
54.752708
0
LINE
8
Layer 1
10
111.895684
20
54.752708
11
112.005220
21
55.250610
0
LINE
8
Layer 1
10
112.005220
20
55.250610
11
112.327837
21
55.431806
0
LINE
8
Layer 1
10
112.327837
20
55.431806
11
112.327837
21
55.431806
0
LINE
8
Layer 1
10
36.912767
20
51.489514
11
37.183077
21
51.314527
0
LINE
8
Layer 1
10
37.183077
20
51.314527
11
37.327281
21
50.845695
0
LINE
8
Layer 1
10
37.327281
20
50.845695
11
37.279769
21
50.510122
0
LINE
8
Layer 1
10
37.279769
20
50.510122
11
37.038927
21
50.096715
0
LINE
8
Layer 1
10
37.038927
20
50.096715
11
35.924990
21
48.967153
0
LINE
8
Layer 1
10
35.924990
20
48.967153
11
34.196378
21
47.661875
0
LINE
8
Layer 1
10
34.196378
20
47.661875
11
32.732351
21
46.815208
0
LINE
8
Layer 1
10
32.732351
20
46.815208
11
31.188951
21
45.968542
0
LINE
8
Layer 1
10
31.188951
20
45.968542
11
30.395201
21
45.712778
0
LINE
8
Layer 1
10
30.395201
20
45.712778
11
27.087598
21
44.360821
0
LINE
8
Layer 1
10
27.087598
20
44.360821
11
25.524689
21
43.891973
0
LINE
8
Layer 1
10
25.524689
20
43.891973
11
24.468534
21
43.710764
0
LINE
8
Layer 1
10
24.468534
20
43.710764
11
24.002307
21
43.634661
0
LINE
8
Layer 1
10
24.002307
20
43.634661
11
23.718881
21
43.455000
0
LINE
8
Layer 1
10
23.718881
20
43.455000
11
22.642909
21
43.049306
0
LINE
8
Layer 1
10
22.642909
20
43.049306
11
18.197909
21
42.052708
0
LINE
8
Layer 1
10
18.197909
20
42.052708
11
14.529020
21
41.020833
0
LINE
8
Layer 1
10
14.529020
20
41.020833
11
12.024298
21
39.953681
0
LINE
8
Layer 1
10
12.024298
20
39.953681
11
10.765515
21
39.235005
0
LINE
8
Layer 1
10
10.765515
20
39.235005
11
10.031699
21
38.549539
0
LINE
8
Layer 1
10
10.031699
20
38.549539
11
9.789269
21
37.849565
0
LINE
8
Layer 1
10
9.789269
20
37.849565
11
10.004645
21
37.087361
0
LINE
8
Layer 1
10
10.004645
20
37.087361
11
10.368456
21
36.559936
0
LINE
8
Layer 1
10
10.368456
20
36.559936
11
10.806827
21
36.260023
0
LINE
8
Layer 1
10
10.806827
20
36.260023
11
11.382094
21
36.164317
0
LINE
8
Layer 1
10
11.382094
20
36.164317
11
12.156589
21
36.249514
0
LINE
8
Layer 1
10
12.156589
20
36.249514
11
13.100270
21
36.434722
0
LINE
8
Layer 1
10
13.100270
20
36.434722
11
12.474089
21
36.946250
0
LINE
8
Layer 1
10
12.474089
20
36.946250
11
12.108187
21
37.406465
0
LINE
8
Layer 1
10
12.108187
20
37.406465
11
12.102530
21
37.885327
0
LINE
8
Layer 1
10
12.102530
20
37.885327
11
12.454631
21
38.377515
0
LINE
8
Layer 1
10
12.454631
20
38.377515
11
13.162006
21
38.877708
0
LINE
8
Layer 1
10
13.162006
20
38.877708
11
13.863756
21
39.123388
0
LINE
8
Layer 1
10
13.863756
20
39.123388
11
14.608395
21
38.780695
0
LINE
8
Layer 1
10
14.608395
20
38.780695
11
15.216941
21
38.168980
0
LINE
8
Layer 1
10
15.216941
20
38.168980
11
15.375687
21
37.228472
0
LINE
8
Layer 1
10
15.375687
20
37.228472
11
15.275890
21
36.382618
0
LINE
8
Layer 1
10
15.275890
20
36.382618
11
14.843509
21
35.752235
0
LINE
8
Layer 1
10
14.843509
20
35.752235
11
13.879057
21
35.161029
0
LINE
8
Layer 1
10
13.879057
20
35.161029
11
12.183048
21
34.432708
0
LINE
8
Layer 1
10
12.183048
20
34.432708
11
11.591783
21
34.211801
0
LINE
8
Layer 1
10
11.591783
20
34.211801
11
11.162826
21
34.172974
0
LINE
8
Layer 1
10
11.162826
20
34.172974
11
9.907631
21
34.785486
0
LINE
8
Layer 1
10
9.907631
20
34.785486
11
8.816333
21
35.642765
0
LINE
8
Layer 1
10
8.816333
20
35.642765
11
8.211855
21
36.617427
0
LINE
8
Layer 1
10
8.211855
20
36.617427
11
8.071572
21
37.662651
0
LINE
8
Layer 1
10
8.071572
20
37.662651
11
8.372860
21
38.731616
0
LINE
8
Layer 1
10
8.372860
20
38.731616
11
9.093095
21
39.777502
0
LINE
8
Layer 1
10
9.093095
20
39.777502
11
10.209654
21
40.753487
0
LINE
8
Layer 1
10
10.209654
20
40.753487
11
11.699911
21
41.612751
0
LINE
8
Layer 1
10
11.699911
20
41.612751
11
13.541242
21
42.308472
0
LINE
8
Layer 1
10
13.541242
20
42.308472
11
15.155200
21
42.899375
0
LINE
8
Layer 1
10
15.155200
20
42.899375
11
16.204714
21
43.146320
0
LINE
8
Layer 1
10
16.204714
20
43.146320
11
17.404159
21
43.393264
0
LINE
8
Layer 1
10
17.404159
20
43.393264
11
21.725687
21
44.601528
0
LINE
8
Layer 1
10
21.725687
20
44.601528
11
25.817909
21
45.686320
0
LINE
8
Layer 1
10
25.817909
20
45.686320
11
27.793464
21
46.277222
0
LINE
8
Layer 1
10
27.793464
20
46.277222
11
29.652473
21
47.002108
0
LINE
8
Layer 1
10
29.652473
20
47.002108
11
33.129226
21
48.817222
0
LINE
8
Layer 1
10
33.129226
20
48.817222
11
34.336974
21
49.608414
0
LINE
8
Layer 1
10
34.336974
20
49.608414
11
35.492837
21
50.563472
0
LINE
8
Layer 1
10
35.492837
20
50.563472
11
36.343830
21
51.275038
0
LINE
8
Layer 1
10
36.343830
20
51.275038
11
36.912767
21
51.489514
0
LINE
8
Layer 1
10
36.912767
20
51.489514
11
36.912767
21
51.489514
0
LINE
8
Layer 1
10
84.440753
20
43.084583
11
86.213462
21
43.022847
0
LINE
8
Layer 1
10
86.213462
20
43.022847
11
90.164573
21
42.564236
0
LINE
8
Layer 1
10
90.164573
20
42.564236
11
92.775128
21
42.114445
0
LINE
8
Layer 1
10
92.775128
20
42.114445
11
93.570141
21
41.926952
0
LINE
8
Layer 1
10
93.570141
20
41.926952
11
93.992212
21
41.699931
0
LINE
8
Layer 1
10
93.992212
20
41.699931
11
94.341702
21
41.524397
0
LINE
8
Layer 1
10
94.341702
20
41.524397
11
94.962351
21
41.452986
0
LINE
8
Layer 1
10
94.962351
20
41.452986
11
95.588019
21
41.370086
0
LINE
8
Layer 1
10
95.588019
20
41.370086
11
95.950128
21
41.170764
0
LINE
8
Layer 1
10
95.950128
20
41.170764
11
96.312238
21
40.971447
0
LINE
8
Layer 1
10
96.312238
20
40.971447
11
96.937906
21
40.888542
0
LINE
8
Layer 1
10
96.937906
20
40.888542
11
97.563575
21
40.805641
0
LINE
8
Layer 1
10
97.563575
20
40.805641
11
97.925684
21
40.606320
0
LINE
8
Layer 1
10
97.925684
20
40.606320
11
98.250936
21
40.407002
0
LINE
8
Layer 1
10
98.250936
20
40.407002
11
98.789990
21
40.324097
0
LINE
8
Layer 1
10
98.789990
20
40.324097
11
99.971795
21
40.068333
0
LINE
8
Layer 1
10
99.971795
20
40.068333
11
101.735684
21
39.468611
0
LINE
8
Layer 1
10
101.735684
20
39.468611
11
103.570128
21
38.912986
0
LINE
8
Layer 1
10
103.570128
20
38.912986
11
105.404573
21
38.348542
0
LINE
8
Layer 1
10
105.404573
20
38.348542
11
107.318392
21
37.748820
0
LINE
8
Layer 1
10
107.318392
20
37.748820
11
108.641309
21
37.501875
0
LINE
8
Layer 1
10
108.641309
20
37.501875
11
109.162993
21
37.426055
0
LINE
8
Layer 1
10
109.162993
20
37.426055
11
109.470337
21
37.246111
0
LINE
8
Layer 1
10
109.470337
20
37.246111
11
109.933857
21
37.018646
0
LINE
8
Layer 1
10
109.933857
20
37.018646
11
110.828531
21
36.822778
0
LINE
8
Layer 1
10
110.828531
20
36.822778
11
113.871240
21
36.381806
0
LINE
8
Layer 1
10
113.871240
20
36.381806
11
116.524122
21
35.855216
0
LINE
8
Layer 1
10
116.524122
20
35.855216
11
118.510642
21
35.131301
0
LINE
8
Layer 1
10
118.510642
20
35.131301
11
119.787010
21
34.232274
0
LINE
8
Layer 1
10
119.787010
20
34.232274
11
120.145202
21
33.724035
0
LINE
8
Layer 1
10
120.145202
20
33.724035
11
120.309434
21
33.180347
0
LINE
8
Layer 1
10
120.309434
20
33.180347
11
120.212140
21
32.416946
0
LINE
8
Layer 1
10
120.212140
20
32.416946
11
119.825231
21
31.636893
0
LINE
8
Layer 1
10
119.825231
20
31.636893
11
119.252681
21
30.993567
0
LINE
8
Layer 1
10
119.252681
20
30.993567
11
118.598462
21
30.640347
0
LINE
8
Layer 1
10
118.598462
20
30.640347
11
117.399017
21
30.322847
0
LINE
8
Layer 1
10
117.399017
20
30.322847
11
116.634135
21
30.392818
0
LINE
8
Layer 1
10
116.634135
20
30.392818
11
115.564573
21
30.816736
0
LINE
8
Layer 1
10
115.564573
20
30.816736
11
114.545366
21
31.497879
0
LINE
8
Layer 1
10
114.545366
20
31.497879
11
113.880059
21
32.210208
0
LINE
8
Layer 1
10
113.880059
20
32.210208
11
113.631332
21
32.912937
0
LINE
8
Layer 1
10
113.631332
20
32.912937
11
114.144642
21
33.489028
0
LINE
8
Layer 1
10
114.144642
20
33.489028
11
114.649413
21
33.985148
0
LINE
8
Layer 1
10
114.649413
20
33.985148
11
114.276934
21
34.212222
0
LINE
8
Layer 1
10
114.276934
20
34.212222
11
108.932351
21
35.147083
0
LINE
8
Layer 1
10
108.932351
20
35.147083
11
107.530059
21
35.552778
0
LINE
8
Layer 1
10
107.530059
20
35.552778
11
106.630476
21
35.808542
0
LINE
8
Layer 1
10
106.630476
20
35.808542
11
106.134722
21
35.891447
0
LINE
8
Layer 1
10
106.134722
20
35.891447
11
105.827906
21
36.090764
0
LINE
8
Layer 1
10
105.827906
20
36.090764
11
105.507247
21
36.290086
0
LINE
8
Layer 1
10
105.507247
20
36.290086
11
104.981240
21
36.372986
0
LINE
8
Layer 1
10
104.981240
20
36.372986
11
104.455230
21
36.455891
0
LINE
8
Layer 1
10
104.455230
20
36.455891
11
104.134573
21
36.655208
0
LINE
8
Layer 1
10
104.134573
20
36.655208
11
103.804911
21
36.854530
0
LINE
8
Layer 1
10
103.804911
20
36.854530
11
103.261448
21
36.937431
0
LINE
8
Layer 1
10
103.261448
20
36.937431
11
102.079642
21
37.193195
0
LINE
8
Layer 1
10
102.079642
20
37.193195
11
100.324573
21
37.784097
0
LINE
8
Layer 1
10
100.324573
20
37.784097
11
98.490128
21
38.348542
0
LINE
8
Layer 1
10
98.490128
20
38.348542
11
96.655684
21
38.912986
0
LINE
8
Layer 1
10
96.655684
20
38.912986
11
94.821240
21
39.486250
0
LINE
8
Layer 1
10
94.821240
20
39.486250
11
93.127906
21
39.900764
0
LINE
8
Layer 1
10
93.127906
20
39.900764
11
90.729017
21
40.368195
0
LINE
8
Layer 1
10
90.729017
20
40.368195
11
87.836203
21
40.803115
0
LINE
8
Layer 1
10
87.836203
20
40.803115
11
86.866087
21
40.807688
0
LINE
8
Layer 1
10
86.866087
20
40.807688
11
86.495684
21
40.650417
0
LINE
8
Layer 1
10
86.495684
20
40.650417
11
86.777906
21
40.182986
0
LINE
8
Layer 1
10
86.777906
20
40.182986
11
87.048116
21
39.813977
0
LINE
8
Layer 1
10
87.048116
20
39.813977
11
86.976531
21
39.288523
0
LINE
8
Layer 1
10
86.976531
20
39.288523
11
86.580738
21
38.650266
0
LINE
8
Layer 1
10
86.580738
20
38.650266
11
85.878323
21
37.942847
0
LINE
8
Layer 1
10
85.878323
20
37.942847
11
84.510482
21
37.067187
0
LINE
8
Layer 1
10
84.510482
20
37.067187
11
83.883257
21
36.903811
0
LINE
8
Layer 1
10
83.883257
20
36.903811
11
83.289866
21
36.924065
0
LINE
8
Layer 1
10
83.289866
20
36.924065
11
82.727337
21
37.128441
0
LINE
8
Layer 1
10
82.727337
20
37.128441
11
82.192697
21
37.517435
0
LINE
8
Layer 1
10
82.192697
20
37.517435
11
81.195198
21
38.851250
0
LINE
8
Layer 1
10
81.195198
20
38.851250
11
81.063670
21
39.703883
0
LINE
8
Layer 1
10
81.063670
20
39.703883
11
81.364297
21
40.758045
0
LINE
8
Layer 1
10
81.364297
20
40.758045
11
81.999298
21
41.793671
0
LINE
8
Layer 1
10
81.999298
20
41.793671
11
82.870892
21
42.590695
0
LINE
8
Layer 1
10
82.870892
20
42.590695
11
83.585170
21
42.950064
0
LINE
8
Layer 1
10
83.585170
20
42.950064
11
84.440753
21
43.084583
0
LINE
8
Layer 1
10
84.440753
20
43.084583
11
84.440753
21
43.084583
0
LINE
8
Layer 1
10
115.917351
20
42.555417
11
116.712754
21
42.145705
0
LINE
8
Layer 1
10
116.712754
20
42.145705
11
117.866448
21
41.029653
0
LINE
8
Layer 1
10
117.866448
20
41.029653
11
119.538947
21
39.540210
0
LINE
8
Layer 1
10
119.538947
20
39.540210
11
121.914573
21
38.207431
0
LINE
8
Layer 1
10
121.914573
20
38.207431
11
124.860267
21
36.937431
0
LINE
8
Layer 1
10
124.860267
20
36.937431
11
125.654017
21
36.672847
0
LINE
8
Layer 1
10
125.654017
20
36.672847
11
129.252351
21
35.111806
0
LINE
8
Layer 1
10
129.252351
20
35.111806
11
131.232111
21
34.405831
0
LINE
8
Layer 1
10
131.232111
20
34.405831
11
132.559642
21
34.115208
0
LINE
8
Layer 1
10
132.559642
20
34.115208
11
133.357349
21
33.905692
0
LINE
8
Layer 1
10
133.357349
20
33.905692
11
134.334849
21
33.377899
0
LINE
8
Layer 1
10
134.334849
20
33.377899
11
135.258184
21
32.682980
0
LINE
8
Layer 1
10
135.258184
20
32.682980
11
135.893392
21
31.972083
0
LINE
8
Layer 1
10
135.893392
20
31.972083
11
136.554230
21
30.500815
0
LINE
8
Layer 1
10
136.554230
20
30.500815
11
136.640568
21
29.852084
0
LINE
8
Layer 1
10
136.640568
20
29.852084
11
136.563035
21
29.257356
0
LINE
8
Layer 1
10
136.563035
20
29.257356
11
136.320768
21
28.713684
0
LINE
8
Layer 1
10
136.320768
20
28.713684
11
135.912904
21
28.218118
0
LINE
8
Layer 1
10
135.912904
20
28.218118
11
134.596934
21
27.359514
0
LINE
8
Layer 1
10
134.596934
20
27.359514
11
133.753634
21
26.976883
0
LINE
8
Layer 1
10
133.753634
20
26.976883
11
133.207400
21
26.837846
0
LINE
8
Layer 1
10
133.207400
20
26.837846
11
132.690065
21
26.930980
0
LINE
8
Layer 1
10
132.690065
20
26.930980
11
131.933462
21
27.244861
0
LINE
8
Layer 1
10
131.933462
20
27.244861
11
130.712488
21
27.895953
0
LINE
8
Layer 1
10
130.712488
20
27.895953
11
129.727103
21
28.652531
0
LINE
8
Layer 1
10
129.727103
20
28.652531
11
129.068785
21
29.428469
0
LINE
8
Layer 1
10
129.068785
20
29.428469
11
128.829017
21
30.137639
0
LINE
8
Layer 1
10
128.829017
20
30.137639
11
128.958435
21
30.767036
0
LINE
8
Layer 1
10
128.958435
20
30.767036
11
129.299812
21
31.318139
0
LINE
8
Layer 1
10
129.299812
20
31.318139
11
129.782822
21
31.708940
0
LINE
8
Layer 1
10
129.782822
20
31.708940
11
130.337142
21
31.857431
0
LINE
8
Layer 1
10
130.337142
20
31.857431
11
131.054395
21
31.706084
0
LINE
8
Layer 1
10
131.054395
20
31.706084
11
131.653062
21
31.298026
0
LINE
8
Layer 1
10
131.653062
20
31.298026
11
132.063405
21
30.702240
0
LINE
8
Layer 1
10
132.063405
20
30.702240
11
132.215684
21
29.987708
0
LINE
8
Layer 1
10
132.215684
20
29.987708
11
132.238129
21
29.448059
0
LINE
8
Layer 1
10
132.238129
20
29.448059
11
132.369613
21
29.164062
0
LINE
8
Layer 1
10
132.369613
20
29.164062
11
132.706354
21
29.053763
0
LINE
8
Layer 1
10
132.706354
20
29.053763
11
133.344573
21
29.035208
0
LINE
8
Layer 1
10
133.344573
20
29.035208
11
134.141850
21
29.109646
0
LINE
8
Layer 1
10
134.141850
20
29.109646
11
134.473462
21
29.290972
0
LINE
8
Layer 1
10
134.473462
20
29.290972
11
134.623392
21
29.961250
0
LINE
8
Layer 1
10
134.623392
20
29.961250
11
134.625265
21
30.310313
0
LINE
8
Layer 1
10
134.625265
20
30.310313
11
134.414351
21
30.703273
0
LINE
8
Layer 1
10
134.414351
20
30.703273
11
133.518492
21
31.509385
0
LINE
8
Layer 1
10
133.518492
20
31.509385
11
132.264476
21
32.156586
0
LINE
8
Layer 1
10
132.264476
20
32.156586
11
130.980962
21
32.421875
0
LINE
8
Layer 1
10
130.980962
20
32.421875
11
129.322906
21
32.986320
0
LINE
8
Layer 1
10
129.322906
20
32.986320
11
127.920615
21
33.550764
0
LINE
8
Layer 1
10
127.920615
20
33.550764
11
126.350753
21
34.141667
0
LINE
8
Layer 1
10
126.350753
20
34.141667
11
123.890128
21
35.235278
0
LINE
8
Layer 1
10
123.890128
20
35.235278
11
120.719000
21
36.714307
0
LINE
8
Layer 1
10
120.719000
20
36.714307
11
118.669017
21
37.889931
0
LINE
8
Layer 1
10
118.669017
20
37.889931
11
117.213633
21
39.015362
0
LINE
8
Layer 1
10
117.213633
20
39.015362
11
116.098497
21
40.201978
0
LINE
8
Layer 1
10
116.098497
20
40.201978
11
115.444003
21
41.295313
0
LINE
8
Layer 1
10
115.444003
20
41.295313
11
115.327120
21
41.758730
0
LINE
8
Layer 1
10
115.327120
20
41.758730
11
115.370545
21
42.140903
0
LINE
8
Layer 1
10
115.370545
20
42.140903
11
115.592525
21
42.469502
0
LINE
8
Layer 1
10
115.592525
20
42.469502
11
115.917351
21
42.555417
0
LINE
8
Layer 1
10
115.917351
20
42.555417
11
115.917351
21
42.555417
0
LINE
8
Layer 1
10
49.947906
20
42.087986
11
50.263454
21
41.880342
0
LINE
8
Layer 1
10
50.263454
20
41.880342
11
50.371240
21
41.320695
0
LINE
8
Layer 1
10
50.371240
20
41.320695
11
50.225413
21
40.816580
0
LINE
8
Layer 1
10
50.225413
20
40.816580
11
49.828268
21
40.224376
0
LINE
8
Layer 1
10
49.828268
20
40.224376
11
48.522031
21
38.967171
0
LINE
8
Layer 1
10
48.522031
20
38.967171
11
46.936544
21
37.932023
0
LINE
8
Layer 1
10
46.936544
20
37.932023
11
46.190336
21
37.617390
0
LINE
8
Layer 1
10
46.190336
20
37.617390
11
45.555823
21
37.501875
0
LINE
8
Layer 1
10
45.555823
20
37.501875
11
45.140358
21
37.418974
0
LINE
8
Layer 1
10
45.140358
20
37.418974
11
44.867906
21
37.219653
0
LINE
8
Layer 1
10
44.867906
20
37.219653
11
44.505797
21
37.020336
0
LINE
8
Layer 1
10
44.505797
20
37.020336
11
43.880128
21
36.937431
0
LINE
8
Layer 1
10
43.880128
20
36.937431
11
43.258508
21
36.864448
0
LINE
8
Layer 1
10
43.258508
20
36.864448
11
42.909990
21
36.690486
0
LINE
8
Layer 1
10
42.909990
20
36.690486
11
42.466646
21
36.456053
0
LINE
8
Layer 1
10
42.466646
20
36.456053
11
41.506420
21
36.266185
0
LINE
8
Layer 1
10
41.506420
20
36.266185
11
38.357324
21
36.031591
0
LINE
8
Layer 1
10
38.357324
20
36.031591
11
34.106715
21
36.009586
0
LINE
8
Layer 1
10
34.106715
20
36.009586
11
29.398603
21
36.223056
0
LINE
8
Layer 1
10
29.398603
20
36.223056
11
26.637468
21
36.316719
0
LINE
8
Layer 1
10
26.637468
20
36.316719
11
25.893177
21
36.162495
0
LINE
8
Layer 1
10
25.893177
20
36.162495
11
25.165270
21
35.835000
0
LINE
8
Layer 1
10
25.165270
20
35.835000
11
24.228630
21
35.179835
0
LINE
8
Layer 1
10
24.228630
20
35.179835
11
23.422759
21
34.327047
0
LINE
8
Layer 1
10
23.422759
20
34.327047
11
22.901650
21
33.474173
0
LINE
8
Layer 1
10
22.901650
20
33.474173
11
22.819298
21
32.818750
0
LINE
8
Layer 1
10
22.819298
20
32.818750
11
23.169524
21
32.482592
0
LINE
8
Layer 1
10
23.169524
20
32.482592
11
23.703874
21
32.407471
0
LINE
8
Layer 1
10
23.703874
20
32.407471
11
24.192811
21
32.573267
0
LINE
8
Layer 1
10
24.192811
20
32.573267
11
24.406798
21
32.959861
0
LINE
8
Layer 1
10
24.406798
20
32.959861
11
24.613278
21
33.491729
0
LINE
8
Layer 1
10
24.613278
20
33.491729
11
25.121308
21
34.053669
0
LINE
8
Layer 1
10
25.121308
20
34.053669
11
25.763766
21
34.498652
0
LINE
8
Layer 1
10
25.763766
20
34.498652
11
26.373534
21
34.679653
0
LINE
8
Layer 1
10
26.373534
20
34.679653
11
26.899798
21
34.520633
0
LINE
8
Layer 1
10
26.899798
20
34.520633
11
27.354077
21
34.099049
0
LINE
8
Layer 1
10
27.354077
20
34.099049
11
27.673067
21
33.498132
0
LINE
8
Layer 1
10
27.673067
20
33.498132
11
27.793464
21
32.801111
0
LINE
8
Layer 1
10
27.793464
20
32.801111
11
27.626253
21
32.090558
0
LINE
8
Layer 1
10
27.626253
20
32.090558
11
27.199842
21
31.421081
0
LINE
8
Layer 1
10
27.199842
20
31.421081
11
26.627065
21
30.923476
0
LINE
8
Layer 1
10
26.627065
20
30.923476
11
26.020756
21
30.728542
0
LINE
8
Layer 1
10
26.020756
20
30.728542
11
25.648962
21
30.645641
0
LINE
8
Layer 1
10
25.648962
20
30.645641
11
25.394575
21
30.446320
0
LINE
8
Layer 1
10
25.394575
20
30.446320
11
24.836795
21
30.164172
0
LINE
8
Layer 1
10
24.836795
20
30.164172
11
23.888675
21
30.166918
0
LINE
8
Layer 1
10
23.888675
20
30.166918
11
22.829199
21
30.419607
0
LINE
8
Layer 1
10
22.829199
20
30.419607
11
21.937353
21
30.887292
0
LINE
8
Layer 1
10
21.937353
20
30.887292
11
21.182198
21
31.708771
0
LINE
8
Layer 1
10
21.182198
20
31.708771
11
21.020131
21
32.880486
0
LINE
8
Layer 1
10
21.020131
20
32.880486
11
21.162798
21
33.894618
0
LINE
8
Layer 1
10
21.162798
20
33.894618
11
21.556388
21
34.905137
0
LINE
8
Layer 1
10
21.556388
20
34.905137
11
22.149279
21
35.809529
0
LINE
8
Layer 1
10
22.149279
20
35.809529
11
22.889853
21
36.505278
0
LINE
8
Layer 1
10
22.889853
20
36.505278
11
24.227311
21
37.365605
0
LINE
8
Layer 1
10
24.227311
20
37.365605
11
25.431160
21
37.832009
0
LINE
8
Layer 1
10
25.431160
20
37.832009
11
26.995952
21
38.023104
0
LINE
8
Layer 1
10
26.995952
20
38.023104
11
29.416242
21
38.057500
0
LINE
8
Layer 1
10
29.416242
20
38.057500
11
32.693981
21
37.975600
0
LINE
8
Layer 1
10
32.693981
20
37.975600
11
35.131240
21
37.784097
0
LINE
8
Layer 1
10
35.131240
20
37.784097
11
36.860031
21
37.683938
0
LINE
8
Layer 1
10
36.860031
20
37.683938
11
38.963102
21
37.766430
0
LINE
8
Layer 1
10
38.963102
20
37.766430
11
40.949408
21
37.994457
0
LINE
8
Layer 1
10
40.949408
20
37.994457
11
42.327906
21
38.330903
0
LINE
8
Layer 1
10
42.327906
20
38.330903
11
44.162351
21
38.930625
0
LINE
8
Layer 1
10
44.162351
20
38.930625
11
45.696934
21
39.521528
0
LINE
8
Layer 1
10
45.696934
20
39.521528
11
46.464226
21
39.759653
0
LINE
8
Layer 1
10
46.464226
20
39.759653
11
47.195287
21
40.126677
0
LINE
8
Layer 1
10
47.195287
20
40.126677
11
48.254573
21
41.012014
0
LINE
8
Layer 1
10
48.254573
20
41.012014
11
49.253825
21
41.838149
0
LINE
8
Layer 1
10
49.253825
20
41.838149
11
49.947906
21
42.087986
0
LINE
8
Layer 1
10
49.947906
20
42.087986
11
49.947906
21
42.087986
0
LINE
8
Layer 1
10
73.733948
20
42.008611
11
74.053929
21
41.916362
0
LINE
8
Layer 1
10
74.053929
20
41.916362
11
74.224701
21
41.662885
0
LINE
8
Layer 1
10
74.224701
20
41.662885
11
74.207422
21
41.269181
0
LINE
8
Layer 1
10
74.207422
20
41.269181
11
73.963253
21
40.756250
0
LINE
8
Layer 1
10
73.963253
20
40.756250
11
73.336645
21
40.167715
0
LINE
8
Layer 1
10
73.336645
20
40.167715
11
72.254409
21
39.504544
0
LINE
8
Layer 1
10
72.254409
20
39.504544
11
70.891091
21
38.860889
0
LINE
8
Layer 1
10
70.891091
20
38.860889
11
69.421240
21
38.330903
0
LINE
8
Layer 1
10
69.421240
20
38.330903
11
67.780823
21
37.740000
0
LINE
8
Layer 1
10
67.780823
20
37.740000
11
65.428015
21
37.475563
0
LINE
8
Layer 1
10
65.428015
20
37.475563
11
60.478323
21
37.202014
0
LINE
8
Layer 1
10
60.478323
20
37.202014
11
54.558647
21
36.866065
0
LINE
8
Layer 1
10
54.558647
20
36.866065
11
53.283939
21
36.637219
0
LINE
8
Layer 1
10
53.283939
20
36.637219
11
52.399712
21
36.284792
0
LINE
8
Layer 1
10
52.399712
20
36.284792
11
51.345752
21
35.635292
0
LINE
8
Layer 1
10
51.345752
20
35.635292
11
50.583987
21
34.927049
0
LINE
8
Layer 1
10
50.583987
20
34.927049
11
50.207533
21
34.271498
0
LINE
8
Layer 1
10
50.207533
20
34.271498
11
50.309503
21
33.780070
0
LINE
8
Layer 1
10
50.309503
20
33.780070
11
50.484347
21
33.660898
0
LINE
8
Layer 1
10
50.484347
20
33.660898
11
50.635584
21
33.700194
0
LINE
8
Layer 1
10
50.635584
20
33.700194
11
50.944503
21
34.318056
0
LINE
8
Layer 1
10
50.944503
20
34.318056
11
51.234334
21
34.861277
0
LINE
8
Layer 1
10
51.234334
20
34.861277
11
51.632339
21
35.228299
0
LINE
8
Layer 1
10
51.632339
20
35.228299
11
52.093267
21
35.424106
0
LINE
8
Layer 1
10
52.093267
20
35.424106
11
52.571864
21
35.453683
0
LINE
8
Layer 1
10
52.571864
20
35.453683
11
53.022879
21
35.322014
0
LINE
8
Layer 1
10
53.022879
20
35.322014
11
53.401059
21
35.034084
0
LINE
8
Layer 1
10
53.401059
20
35.034084
11
53.661152
21
34.594876
0
LINE
8
Layer 1
10
53.661152
20
34.594876
11
53.757906
21
34.009375
0
LINE
8
Layer 1
10
53.757906
20
34.009375
11
53.674123
21
33.438055
0
LINE
8
Layer 1
10
53.674123
20
33.438055
11
53.435767
21
32.927837
0
LINE
8
Layer 1
10
53.435767
20
32.927837
11
52.573283
21
32.134964
0
LINE
8
Layer 1
10
52.573283
20
32.134964
11
51.326357
21
31.719261
0
LINE
8
Layer 1
10
51.326357
20
31.719261
11
49.850892
21
31.769236
0
LINE
8
Layer 1
10
49.850892
20
31.769236
11
49.099740
21
32.035965
0
LINE
8
Layer 1
10
49.099740
20
32.035965
11
48.555796
21
32.484442
0
LINE
8
Layer 1
10
48.555796
20
32.484442
11
48.225042
21
33.106688
0
LINE
8
Layer 1
10
48.225042
20
33.106688
11
48.113462
21
33.894722
0
LINE
8
Layer 1
10
48.113462
20
33.894722
11
48.258436
21
34.725248
0
LINE
8
Layer 1
10
48.258436
20
34.725248
11
48.670994
21
35.539559
0
LINE
8
Layer 1
10
48.670994
20
35.539559
11
49.317584
21
36.313734
0
LINE
8
Layer 1
10
49.317584
20
36.313734
11
50.164658
21
37.023856
0
LINE
8
Layer 1
10
50.164658
20
37.023856
11
51.178665
21
37.646004
0
LINE
8
Layer 1
10
51.178665
20
37.646004
11
52.326057
21
38.156260
0
LINE
8
Layer 1
10
52.326057
20
38.156260
11
53.573284
21
38.530704
0
LINE
8
Layer 1
10
53.573284
20
38.530704
11
54.886795
21
38.745417
0
LINE
8
Layer 1
10
54.886795
20
38.745417
11
61.519017
21
39.045278
0
LINE
8
Layer 1
10
61.519017
20
39.045278
11
66.753200
21
39.408111
0
LINE
8
Layer 1
10
66.753200
20
39.408111
11
68.337110
21
39.724734
0
LINE
8
Layer 1
10
68.337110
20
39.724734
11
69.165476
21
40.121250
0
LINE
8
Layer 1
10
69.165476
20
40.121250
11
70.012142
21
40.324097
0
LINE
8
Layer 1
10
70.012142
20
40.324097
11
70.518655
21
40.407002
0
LINE
8
Layer 1
10
70.518655
20
40.407002
11
70.832351
21
40.606320
0
LINE
8
Layer 1
10
70.832351
20
40.606320
11
71.097048
21
40.805641
0
LINE
8
Layer 1
10
71.097048
20
40.805641
11
71.493809
21
40.888542
0
LINE
8
Layer 1
10
71.493809
20
40.888542
11
72.022069
21
41.054349
0
LINE
8
Layer 1
10
72.022069
20
41.054349
11
72.596240
21
41.452986
0
LINE
8
Layer 1
10
72.596240
20
41.452986
11
73.207767
21
41.878612
0
LINE
8
Layer 1
10
73.207767
20
41.878612
11
73.733948
21
42.008611
0
LINE
8
Layer 1
10
73.733948
20
42.008611
11
73.733948
21
42.008611
0
LINE
8
Layer 1
10
84.528948
20
41.170764
11
83.842192
21
40.891355
0
LINE
8
Layer 1
10
83.842192
20
40.891355
11
83.315249
21
40.229437
0
LINE
8
Layer 1
10
83.315249
20
40.229437
11
83.086474
21
39.449484
0
LINE
8
Layer 1
10
83.086474
20
39.449484
11
83.127137
21
39.097894
0
LINE
8
Layer 1
10
83.127137
20
39.097894
11
83.294226
21
38.815972
0
LINE
8
Layer 1
10
83.294226
20
38.815972
11
83.568668
21
38.629133
0
LINE
8
Layer 1
10
83.568668
20
38.629133
11
83.751572
21
38.684841
0
LINE
8
Layer 1
10
83.751572
20
38.684841
11
83.779295
21
39.442153
0
LINE
8
Layer 1
10
83.779295
20
39.442153
11
83.780899
21
40.180861
0
LINE
8
Layer 1
10
83.780899
20
40.180861
11
84.264365
21
40.712153
0
LINE
8
Layer 1
10
84.264365
20
40.712153
11
84.625537
21
41.041643
0
LINE
8
Layer 1
10
84.625537
20
41.041643
11
84.528948
21
41.170764
0
LINE
8
Layer 1
10
84.528948
20
41.170764
11
84.528948
21
41.170764
0
LINE
8
Layer 1
10
78.487628
20
35.111806
11
78.902142
21
34.776667
0
LINE
8
Layer 1
10
78.902142
20
34.776667
11
79.088279
21
34.348637
0
LINE
8
Layer 1
10
79.088279
20
34.348637
11
79.210543
21
33.532556
0
LINE
8
Layer 1
10
79.210543
20
33.532556
11
79.299017
21
30.322847
0
LINE
8
Layer 1
10
79.299017
20
30.322847
11
79.517584
21
23.608002
0
LINE
8
Layer 1
10
79.517584
20
23.608002
11
79.737759
21
20.997121
0
LINE
8
Layer 1
10
79.737759
20
20.997121
11
79.986934
21
19.580764
0
LINE
8
Layer 1
10
79.986934
20
19.580764
11
80.593002
21
17.777030
0
LINE
8
Layer 1
10
80.593002
20
17.777030
11
80.851240
21
16.520417
0
LINE
8
Layer 1
10
80.851240
20
16.520417
11
81.182851
21
15.857359
0
LINE
8
Layer 1
10
81.182851
20
15.857359
11
81.980128
21
14.924097
0
LINE
8
Layer 1
10
81.980128
20
14.924097
11
83.102040
21
14.011333
0
LINE
8
Layer 1
10
83.102040
20
14.011333
11
84.202628
21
13.795208
0
LINE
8
Layer 1
10
84.202628
20
13.795208
11
85.086556
21
13.913106
0
LINE
8
Layer 1
10
85.086556
20
13.913106
11
85.649017
21
14.218542
0
LINE
8
Layer 1
10
85.649017
20
14.218542
11
85.874720
21
14.613515
0
LINE
8
Layer 1
10
85.874720
20
14.613515
11
85.810925
21
14.821571
0
LINE
8
Layer 1
10
85.810925
20
14.821571
11
85.529475
21
14.803078
0
LINE
8
Layer 1
10
85.529475
20
14.803078
11
85.102212
21
14.518403
0
LINE
8
Layer 1
10
85.102212
20
14.518403
11
84.609934
21
14.207010
0
LINE
8
Layer 1
10
84.609934
20
14.207010
11
84.115783
21
14.135040
0
LINE
8
Layer 1
10
84.115783
20
14.135040
11
83.660645
21
14.298849
0
LINE
8
Layer 1
10
83.660645
20
14.298849
11
83.285406
21
14.694792
0
LINE
8
Layer 1
10
83.285406
20
14.694792
11
83.186500
21
15.229432
0
LINE
8
Layer 1
10
83.186500
20
15.229432
11
83.673462
21
15.911875
0
LINE
8
Layer 1
10
83.673462
20
15.911875
11
84.487079
21
16.496260
0
LINE
8
Layer 1
10
84.487079
20
16.496260
11
85.772490
21
16.555695
0
LINE
8
Layer 1
10
85.772490
20
16.555695
11
87.004412
21
16.352140
0
LINE
8
Layer 1
10
87.004412
20
16.352140
11
87.315260
21
16.108761
0
LINE
8
Layer 1
10
87.315260
20
16.108761
11
87.554017
21
15.709028
0
LINE
8
Layer 1
10
87.554017
20
15.709028
11
87.768391
21
14.816678
0
LINE
8
Layer 1
10
87.768391
20
14.816678
11
87.595407
21
13.972187
0
LINE
8
Layer 1
10
87.595407
20
13.972187
11
87.102680
21
13.218469
0
LINE
8
Layer 1
10
87.102680
20
13.218469
11
86.357825
21
12.598441
0
LINE
8
Layer 1
10
86.357825
20
12.598441
11
85.428458
21
12.155018
0
LINE
8
Layer 1
10
85.428458
20
12.155018
11
84.382194
21
11.931116
0
LINE
8
Layer 1
10
84.382194
20
11.931116
11
83.286647
21
11.969653
0
LINE
8
Layer 1
10
83.286647
20
11.969653
11
82.209434
21
12.313542
0
LINE
8
Layer 1
10
82.209434
20
12.313542
11
81.267553
21
12.843903
0
LINE
8
Layer 1
10
81.267553
20
12.843903
11
80.536894
21
13.425072
0
LINE
8
Layer 1
10
80.536894
20
13.425072
11
79.974431
21
14.098705
0
LINE
8
Layer 1
10
79.974431
20
14.098705
11
79.537142
21
14.906458
0
LINE
8
Layer 1
10
79.537142
20
14.906458
11
78.509438
21
17.643707
0
LINE
8
Layer 1
10
78.509438
20
17.643707
11
77.875199
21
20.493919
0
LINE
8
Layer 1
10
77.875199
20
20.493919
11
77.553790
21
23.989983
0
LINE
8
Layer 1
10
77.553790
20
23.989983
11
77.464573
21
28.664792
0
LINE
8
Layer 1
10
77.464573
20
28.664792
11
77.545802
21
33.488876
0
LINE
8
Layer 1
10
77.545802
20
33.488876
11
77.702304
21
34.369073
0
LINE
8
Layer 1
10
77.702304
20
34.369073
11
77.984920
21
34.785486
0
LINE
8
Layer 1
10
77.984920
20
34.785486
11
78.487628
21
35.111806
0
LINE
8
Layer 1
10
78.487628
20
35.111806
11
78.487628
21
35.111806
0
LINE
8
Layer 1
10
61.448462
20
34.917778
11
61.933244
21
34.722790
0
LINE
8
Layer 1
10
61.933244
20
34.722790
11
62.365684
21
34.106389
0
LINE
8
Layer 1
10
62.365684
20
34.106389
11
62.595418
21
33.471271
0
LINE
8
Layer 1
10
62.595418
20
33.471271
11
62.715499
21
32.495828
0
LINE
8
Layer 1
10
62.715499
20
32.495828
11
62.692003
21
28.373750
0
LINE
8
Layer 1
10
62.692003
20
28.373750
11
62.464649
21
23.785903
0
LINE
8
Layer 1
10
62.464649
20
23.785903
11
61.995379
21
20.566346
0
LINE
8
Layer 1
10
61.995379
20
20.566346
11
61.631229
21
19.302878
0
LINE
8
Layer 1
10
61.631229
20
19.302878
11
61.160046
21
18.181324
0
LINE
8
Layer 1
10
61.160046
20
18.181324
11
59.834503
21
16.097083
0
LINE
8
Layer 1
10
59.834503
20
16.097083
11
57.998263
21
13.960925
0
LINE
8
Layer 1
10
57.998263
20
13.960925
11
57.167203
21
13.280704
0
LINE
8
Layer 1
10
57.167203
20
13.280704
11
56.218531
21
12.692778
0
LINE
8
Layer 1
10
56.218531
20
12.692778
11
55.222211
21
12.243053
0
LINE
8
Layer 1
10
55.222211
20
12.243053
11
54.412756
21
12.134080
0
LINE
8
Layer 1
10
54.412756
20
12.134080
11
53.719054
21
12.372807
0
LINE
8
Layer 1
10
53.719054
20
12.372807
11
53.069990
21
12.966181
0
LINE
8
Layer 1
10
53.069990
20
12.966181
11
52.505166
21
13.783649
0
LINE
8
Layer 1
10
52.505166
20
13.783649
11
52.170406
21
14.527222
0
LINE
8
Layer 1
10
52.170406
20
14.527222
11
52.203202
21
15.613697
0
LINE
8
Layer 1
10
52.203202
20
15.613697
11
52.716649
21
16.655429
0
LINE
8
Layer 1
10
52.716649
20
16.655429
11
53.552287
21
17.437833
0
LINE
8
Layer 1
10
53.552287
20
17.437833
11
54.041409
21
17.664727
0
LINE
8
Layer 1
10
54.041409
20
17.664727
11
54.551656
21
17.746320
0
LINE
8
Layer 1
10
54.551656
20
17.746320
11
55.156174
21
17.566914
0
LINE
8
Layer 1
10
55.156174
20
17.566914
11
55.856934
21
17.137778
0
LINE
8
Layer 1
10
55.856934
20
17.137778
11
56.446997
21
16.478776
0
LINE
8
Layer 1
10
56.446997
20
16.478776
11
56.500753
21
15.664931
0
LINE
8
Layer 1
10
56.500753
20
15.664931
11
56.449418
21
15.196294
0
LINE
8
Layer 1
10
56.449418
20
15.196294
11
56.548657
21
15.098257
0
LINE
8
Layer 1
10
56.548657
20
15.098257
11
57.594365
21
16.202917
0
LINE
8
Layer 1
10
57.594365
20
16.202917
11
58.922521
21
17.998368
0
LINE
8
Layer 1
10
58.922521
20
17.998368
11
59.810374
21
19.990922
0
LINE
8
Layer 1
10
59.810374
20
19.990922
11
60.366334
21
22.521435
0
LINE
8
Layer 1
10
60.366334
20
22.521435
11
60.698809
21
25.930764
0
LINE
8
Layer 1
10
60.698809
20
25.930764
11
60.856595
21
29.982694
0
LINE
8
Layer 1
10
60.856595
20
29.982694
11
60.751726
21
33.550764
0
LINE
8
Layer 1
10
60.751726
20
33.550764
11
60.787264
21
34.621961
0
LINE
8
Layer 1
10
60.787264
20
34.621961
11
60.964169
21
34.821871
0
LINE
8
Layer 1
10
60.964169
20
34.821871
11
61.289712
21
34.908958
0
LINE
8
Layer 1
10
61.289712
20
34.908958
11
61.448462
21
34.917778
0
LINE
8
Layer 1
10
61.448462
20
34.917778
11
61.448462
21
34.917778
0
LINE
8
Layer 1
10
72.349295
20
34.565000
11
72.931378
21
34.406250
0
LINE
8
Layer 1
10
72.931378
20
34.406250
11
73.269215
21
34.105262
0
LINE
8
Layer 1
10
73.269215
20
34.105262
11
73.432165
21
33.270138
0
LINE
8
Layer 1
10
73.432165
20
33.270138
11
73.407628
21
27.580000
0
LINE
8
Layer 1
10
73.407628
20
27.580000
11
73.250958
21
22.918623
0
LINE
8
Layer 1
10
73.250958
20
22.918623
11
73.037212
21
20.833125
0
LINE
8
Layer 1
10
73.037212
20
20.833125
11
72.505381
21
20.525626
0
LINE
8
Layer 1
10
72.505381
20
20.525626
11
71.816034
21
20.382879
0
LINE
8
Layer 1
10
71.816034
20
20.382879
11
71.175036
21
20.421158
0
LINE
8
Layer 1
10
71.175036
20
20.421158
11
70.788253
21
20.656736
0
LINE
8
Layer 1
10
70.788253
20
20.656736
11
70.673437
21
21.815544
0
LINE
8
Layer 1
10
70.673437
20
21.815544
11
70.735337
21
23.999306
0
LINE
8
Layer 1
10
70.735337
20
23.999306
11
71.123392
21
30.366945
0
LINE
8
Layer 1
10
71.123392
20
30.366945
11
71.386335
21
33.218965
0
LINE
8
Layer 1
10
71.386335
20
33.218965
11
71.571313
21
33.891742
0
LINE
8
Layer 1
10
71.571313
20
33.891742
11
71.828948
21
34.265139
0
LINE
8
Layer 1
10
71.828948
20
34.265139
11
72.349295
21
34.565000
0
LINE
8
Layer 1
10
72.349295
20
34.565000
11
72.349295
21
34.565000
0
LINE
8
Layer 1
10
117.187351
20
33.541945
11
117.037860
21
33.382402
0
LINE
8
Layer 1
10
117.037860
20
33.382402
11
116.975684
21
32.986320
0
LINE
8
Layer 1
10
116.975684
20
32.986320
11
117.134433
21
32.548877
0
LINE
8
Layer 1
10
117.134433
20
32.548877
11
117.681240
21
32.421875
0
LINE
8
Layer 1
10
117.681240
20
32.421875
11
118.386795
21
32.598264
0
LINE
8
Layer 1
10
118.386795
20
32.598264
11
117.897913
21
33.147511
0
LINE
8
Layer 1
10
117.897913
20
33.147511
11
117.187351
21
33.541945
0
LINE
8
Layer 1
10
117.187351
20
33.541945
11
117.187351
21
33.541945
0
LINE
8
Layer 1
10
66.528462
20
33.171528
11
67.295903
21
32.955009
0
LINE
8
Layer 1
10
67.295903
20
32.955009
11
68.133601
21
32.298403
0
LINE
8
Layer 1
10
68.133601
20
32.298403
11
68.768601
21
31.619306
0
LINE
8
Layer 1
10
68.768601
20
31.619306
11
68.318809
21
27.253681
0
LINE
8
Layer 1
10
68.318809
20
27.253681
11
67.869017
21
20.506806
0
LINE
8
Layer 1
10
67.869017
20
20.506806
11
67.759718
21
18.456409
0
LINE
8
Layer 1
10
67.759718
20
18.456409
11
67.582345
21
17.922164
0
LINE
8
Layer 1
10
67.582345
20
17.922164
11
67.286934
21
17.517014
0
LINE
8
Layer 1
10
67.286934
20
17.517014
11
66.825448
21
17.084933
0
LINE
8
Layer 1
10
66.825448
20
17.084933
11
66.449328
21
16.932933
0
LINE
8
Layer 1
10
66.449328
20
16.932933
11
66.070883
21
17.059743
0
LINE
8
Layer 1
10
66.070883
20
17.059743
11
65.602420
21
17.464097
0
LINE
8
Layer 1
10
65.602420
20
17.464097
11
65.244428
21
18.168990
0
LINE
8
Layer 1
10
65.244428
20
18.168990
11
65.124689
21
19.687833
0
LINE
8
Layer 1
10
65.124689
20
19.687833
11
65.602420
21
27.315417
0
LINE
8
Layer 1
10
65.602420
20
27.315417
11
65.770595
21
30.213434
0
LINE
8
Layer 1
10
65.770595
20
30.213434
11
65.743531
21
31.857431
0
LINE
8
Layer 1
10
65.743531
20
31.857431
11
65.703998
21
32.423096
0
LINE
8
Layer 1
10
65.703998
20
32.423096
11
65.844054
21
32.835531
0
LINE
8
Layer 1
10
65.844054
20
32.835531
11
66.130081
21
33.087440
0
LINE
8
Layer 1
10
66.130081
20
33.087440
11
66.528462
21
33.171528
0
LINE
8
Layer 1
10
66.528462
20
33.171528
11
66.528462
21
33.171528
0
LINE
8
Layer 1
10
54.251795
20
15.162222
11
54.145962
21
15.126945
0
LINE
8
Layer 1
10
54.145962
20
15.126945
11
54.109250
21
14.847570
0
LINE
8
Layer 1
10
54.109250
20
14.847570
11
54.317182
21
14.512158
0
LINE
8
Layer 1
10
54.317182
20
14.512158
11
54.637942
21
14.265857
0
LINE
8
Layer 1
10
54.637942
20
14.265857
11
54.939712
21
14.253820
0
LINE
8
Layer 1
10
54.939712
20
14.253820
11
55.016764
21
14.501761
0
LINE
8
Layer 1
10
55.016764
20
14.501761
11
54.772142
21
14.871181
0
LINE
8
Layer 1
10
54.772142
20
14.871181
11
54.251795
21
15.162222
0
LINE
8
Layer 1
10
54.251795
20
15.162222
11
54.251795
21
15.162222
0
LINE
8
Layer 1
10
43.633184
20
14.818264
11
44.576865
21
14.518403
0
LINE
8
Layer 1
10
44.576865
20
14.518403
11
45.354322
21
14.051179
0
LINE
8
Layer 1
10
45.354322
20
14.051179
11
45.821158
21
13.528248
0
LINE
8
Layer 1
10
45.821158
20
13.528248
11
45.985553
21
12.935950
0
LINE
8
Layer 1
10
45.985553
20
12.935950
11
45.855684
21
12.260625
0
LINE
8
Layer 1
10
45.855684
20
12.260625
11
45.721426
21
11.693485
0
LINE
8
Layer 1
10
45.721426
20
11.693485
11
45.952698
21
11.537431
0
LINE
8
Layer 1
10
45.952698
20
11.537431
11
47.676079
21
12.227872
0
LINE
8
Layer 1
10
47.676079
20
12.227872
11
49.515753
21
13.363056
0
LINE
8
Layer 1
10
49.515753
20
13.363056
11
50.028351
21
13.671783
0
LINE
8
Layer 1
10
50.028351
20
13.671783
11
50.533351
21
13.725971
0
LINE
8
Layer 1
10
50.533351
20
13.725971
11
50.941861
21
13.539170
0
LINE
8
Layer 1
10
50.941861
20
13.539170
11
51.164990
21
13.124931
0
LINE
8
Layer 1
10
51.164990
20
13.124931
11
51.155135
21
12.748500
0
LINE
8
Layer 1
10
51.155135
20
12.748500
11
50.981156
21
12.357865
0
LINE
8
Layer 1
10
50.981156
20
12.357865
11
50.129489
21
11.525508
0
LINE
8
Layer 1
10
50.129489
20
11.525508
11
48.587309
21
10.610918
0
LINE
8
Layer 1
10
48.587309
20
10.610918
11
46.331934
21
9.597153
0
LINE
8
Layer 1
10
46.331934
20
9.597153
11
45.337401
21
9.371960
0
LINE
8
Layer 1
10
45.337401
20
9.371960
11
44.056517
21
9.279653
0
LINE
8
Layer 1
10
44.056517
20
9.279653
11
42.684404
21
9.433374
0
LINE
8
Layer 1
10
42.684404
20
9.433374
11
42.232873
21
9.710556
0
LINE
8
Layer 1
10
42.232873
20
9.710556
11
41.745823
21
10.196875
0
LINE
8
Layer 1
10
41.745823
20
10.196875
11
40.577829
21
11.740230
0
LINE
8
Layer 1
10
40.577829
20
11.740230
11
40.348318
21
12.310052
0
LINE
8
Layer 1
10
40.348318
20
12.310052
11
40.361170
21
12.736875
0
LINE
8
Layer 1
10
40.361170
20
12.736875
11
40.915809
21
13.279859
0
LINE
8
Layer 1
10
40.915809
20
13.279859
11
42.045684
21
14.050972
0
LINE
8
Layer 1
10
42.045684
20
14.050972
11
43.031958
21
14.622798
0
LINE
8
Layer 1
10
43.031958
20
14.622798
11
43.633184
21
14.818264
0
LINE
8
Layer 1
10
43.633184
20
14.818264
11
43.633184
21
14.818264
0
LINE
8
Layer 1
10
95.235753
20
13.759931
11
95.856474
21
13.660216
0
LINE
8
Layer 1
10
95.856474
20
13.660216
11
96.576309
21
13.363056
0
LINE
8
Layer 1
10
96.576309
20
13.363056
11
97.340565
21
12.852251
0
LINE
8
Layer 1
10
97.340565
20
12.852251
11
97.895792
21
12.191252
0
LINE
8
Layer 1
10
97.895792
20
12.191252
11
98.234455
21
11.390756
0
LINE
8
Layer 1
10
98.234455
20
11.390756
11
98.349017
21
10.461458
0
LINE
8
Layer 1
10
98.349017
20
10.461458
11
98.198378
21
9.637832
0
LINE
8
Layer 1
10
98.198378
20
9.637832
11
97.779623
21
8.926969
0
LINE
8
Layer 1
10
97.779623
20
8.926969
11
97.142497
21
8.348415
0
LINE
8
Layer 1
10
97.142497
20
8.348415
11
96.336744
21
7.921713
0
LINE
8
Layer 1
10
96.336744
20
7.921713
11
95.412108
21
7.666407
0
LINE
8
Layer 1
10
95.412108
20
7.666407
11
94.418334
21
7.602041
0
LINE
8
Layer 1
10
94.418334
20
7.602041
11
93.405167
21
7.748159
0
LINE
8
Layer 1
10
93.405167
20
7.748159
11
92.422351
21
8.124306
0
LINE
8
Layer 1
10
92.422351
20
8.124306
11
90.587906
21
9.085625
0
LINE
8
Layer 1
10
90.587906
20
9.085625
11
88.588724
21
10.616815
0
LINE
8
Layer 1
10
88.588724
20
10.616815
11
87.708317
21
11.490369
0
LINE
8
Layer 1
10
87.708317
20
11.490369
11
87.342351
21
12.040139
0
LINE
8
Layer 1
10
87.342351
20
12.040139
11
87.765684
21
12.666320
0
LINE
8
Layer 1
10
87.765684
20
12.666320
11
88.028321
21
12.811677
0
LINE
8
Layer 1
10
88.028321
20
12.811677
11
88.338873
21
12.799422
0
LINE
8
Layer 1
10
88.338873
20
12.799422
11
89.388462
21
12.225347
0
LINE
8
Layer 1
10
89.388462
20
12.225347
11
92.126930
21
10.627235
0
LINE
8
Layer 1
10
92.126930
20
10.627235
11
93.974573
21
9.844097
0
LINE
8
Layer 1
10
93.974573
20
9.844097
11
94.055313
21
9.908165
0
LINE
8
Layer 1
10
94.055313
20
9.908165
11
93.997858
21
10.083291
0
LINE
8
Layer 1
10
93.997858
20
10.083291
11
93.524781
21
10.664306
0
LINE
8
Layer 1
10
93.524781
20
10.664306
11
92.933061
21
11.364384
0
LINE
8
Layer 1
10
92.933061
20
11.364384
11
92.753807
21
11.935168
0
LINE
8
Layer 1
10
92.753807
20
11.935168
11
92.990908
21
12.472448
0
LINE
8
Layer 1
10
92.990908
20
12.472448
11
93.648253
21
13.072014
0
LINE
8
Layer 1
10
93.648253
20
13.072014
11
94.480261
21
13.591031
0
LINE
8
Layer 1
10
94.480261
20
13.591031
11
95.235753
21
13.759931
0
LINE
8
Layer 1
10
95.235753
20
13.759931
11
95.235753
21
13.759931
0
LINE
8
Layer 1
10
61.536656
20
12.719236
11
62.312767
21
12.719236
0
LINE
8
Layer 1
10
62.312767
20
12.719236
11
63.737947
21
12.681316
0
LINE
8
Layer 1
10
63.737947
20
12.681316
11
64.839719
21
12.397407
0
LINE
8
Layer 1
10
64.839719
20
12.397407
11
66.254490
21
11.588701
0
LINE
8
Layer 1
10
66.254490
20
11.588701
11
68.618670
21
9.976389
0
LINE
8
Layer 1
10
68.618670
20
9.976389
11
70.443458
21
8.861450
0
LINE
8
Layer 1
10
70.443458
20
8.861450
11
71.966324
21
8.288291
0
LINE
8
Layer 1
10
71.966324
20
8.288291
11
73.321283
21
8.228452
0
LINE
8
Layer 1
10
73.321283
20
8.228452
11
74.642351
21
8.653472
0
LINE
8
Layer 1
10
74.642351
20
8.653472
11
75.409529
21
9.191003
0
LINE
8
Layer 1
10
75.409529
20
9.191003
11
75.700684
21
9.844097
0
LINE
8
Layer 1
10
75.700684
20
9.844097
11
75.771240
21
10.549653
0
LINE
8
Layer 1
10
75.771240
20
10.549653
11
75.312628
21
9.914653
0
LINE
8
Layer 1
10
75.312628
20
9.914653
11
74.846264
21
9.466186
0
LINE
8
Layer 1
10
74.846264
20
9.466186
11
74.368948
21
9.279653
0
LINE
8
Layer 1
10
74.368948
20
9.279653
11
73.896289
21
9.424879
0
LINE
8
Layer 1
10
73.896289
20
9.424879
11
73.436054
21
9.791126
0
LINE
8
Layer 1
10
73.436054
20
9.791126
11
73.087283
21
10.274258
0
LINE
8
Layer 1
10
73.087283
20
10.274258
11
72.949017
21
10.770139
0
LINE
8
Layer 1
10
72.949017
20
10.770139
11
73.230845
21
11.324204
0
LINE
8
Layer 1
10
73.230845
20
11.324204
11
73.912223
21
11.947373
0
LINE
8
Layer 1
10
73.912223
20
11.947373
11
74.746999
21
12.455970
0
LINE
8
Layer 1
10
74.746999
20
12.455970
11
75.489017
21
12.666320
0
LINE
8
Layer 1
10
75.489017
20
12.666320
11
76.297195
21
12.448724
0
LINE
8
Layer 1
10
76.297195
20
12.448724
11
77.124620
21
11.908935
0
LINE
8
Layer 1
10
77.124620
20
11.908935
11
77.769243
21
11.216468
0
LINE
8
Layer 1
10
77.769243
20
11.216468
11
78.029017
21
10.540833
0
LINE
8
Layer 1
10
78.029017
20
10.540833
11
77.873094
21
9.642650
0
LINE
8
Layer 1
10
77.873094
20
9.642650
11
77.447858
21
8.713561
0
LINE
8
Layer 1
10
77.447858
20
8.713561
11
76.817108
21
7.860262
0
LINE
8
Layer 1
10
76.817108
20
7.860262
11
76.044642
21
7.189445
0
LINE
8
Layer 1
10
76.044642
20
7.189445
11
75.055245
21
6.731308
0
LINE
8
Layer 1
10
75.055245
20
6.731308
11
73.790661
21
6.417154
0
LINE
8
Layer 1
10
73.790661
20
6.417154
11
72.455828
21
6.281888
0
LINE
8
Layer 1
10
72.455828
20
6.281888
11
71.255684
21
6.360417
0
LINE
8
Layer 1
10
71.255684
20
6.360417
11
70.311225
21
6.626084
0
LINE
8
Layer 1
10
70.311225
20
6.626084
11
69.300286
21
7.104024
0
LINE
8
Layer 1
10
69.300286
20
7.104024
11
66.810684
21
8.856320
0
LINE
8
Layer 1
10
66.810684
20
8.856320
11
65.319959
21
9.944537
0
LINE
8
Layer 1
10
65.319959
20
9.944537
11
64.420615
21
10.399722
0
LINE
8
Layer 1
10
64.420615
20
10.399722
11
64.036250
21
10.487773
0
LINE
8
Layer 1
10
64.036250
20
10.487773
11
63.776795
21
10.690764
0
LINE
8
Layer 1
10
63.776795
20
10.690764
11
63.196419
21
10.890086
0
LINE
8
Layer 1
10
63.196419
20
10.890086
11
62.048184
21
10.972986
0
LINE
8
Layer 1
10
62.048184
20
10.972986
11
61.182046
21
10.934194
0
LINE
8
Layer 1
10
61.182046
20
10.934194
11
60.479224
21
10.775462
0
LINE
8
Layer 1
10
60.479224
20
10.775462
11
58.837906
21
9.844097
0
LINE
8
Layer 1
10
58.837906
20
9.844097
11
57.679293
21
9.133317
0
LINE
8
Layer 1
10
57.679293
20
9.133317
11
56.818012
21
8.782031
0
LINE
8
Layer 1
10
56.818012
20
8.782031
11
56.234664
21
8.785389
0
LINE
8
Layer 1
10
56.234664
20
8.785389
11
55.909851
21
9.138542
0
LINE
8
Layer 1
10
55.909851
20
9.138542
11
55.825638
21
9.588013
0
LINE
8
Layer 1
10
55.825638
20
9.588013
11
55.964019
21
10.002444
0
LINE
8
Layer 1
10
55.964019
20
10.002444
11
57.029920
21
10.920070
0
LINE
8
Layer 1
10
57.029920
20
10.920070
11
59.506719
21
12.350661
0
LINE
8
Layer 1
10
59.506719
20
12.350661
11
60.451780
21
12.624853
0
LINE
8
Layer 1
10
60.451780
20
12.624853
11
61.536656
21
12.719236
0
LINE
8
Layer 1
10
61.536656
20
12.719236
11
61.536656
21
12.719236
0
LINE
8
Layer 1
10
43.377420
20
12.631042
11
42.892351
21
12.384097
0
LINE
8
Layer 1
10
42.892351
20
12.384097
11
42.613465
21
12.015569
0
LINE
8
Layer 1
10
42.613465
20
12.015569
11
42.795337
21
11.616806
0
LINE
8
Layer 1
10
42.795337
20
11.616806
11
43.116408
21
11.394240
0
LINE
8
Layer 1
10
43.116408
20
11.394240
11
43.368601
21
11.837292
0
LINE
8
Layer 1
10
43.368601
20
11.837292
11
43.465615
21
12.604583
0
LINE
8
Layer 1
10
43.465615
20
12.604583
11
43.377420
21
12.631042
0
LINE
8
Layer 1
10
43.377420
20
12.631042
11
43.377420
21
12.631042
0
LINE
8
Layer 1
10
95.685545
20
11.510972
11
95.586782
21
11.453230
0
LINE
8
Layer 1
10
95.586782
20
11.453230
11
95.650267
21
11.272847
0
LINE
8
Layer 1
10
95.650267
20
11.272847
11
95.646849
21
10.863694
0
LINE
8
Layer 1
10
95.646849
20
10.863694
11
95.341587
21
10.355625
0
LINE
8
Layer 1
10
95.341587
20
10.355625
11
94.982742
21
9.868943
0
LINE
8
Layer 1
10
94.982742
20
9.868943
11
95.526795
21
9.879375
0
LINE
8
Layer 1
10
95.526795
20
9.879375
11
96.078224
21
10.107597
0
LINE
8
Layer 1
10
96.078224
20
10.107597
11
96.232351
21
10.664306
0
LINE
8
Layer 1
10
96.232351
20
10.664306
11
96.114776
21
11.183715
0
LINE
8
Layer 1
10
96.114776
20
11.183715
11
95.835476
21
11.475695
0
LINE
8
Layer 1
10
95.835476
20
11.475695
11
95.685545
21
11.510972
0
LINE
8
Layer 1
10
95.685545
20
11.510972
11
95.685545
21
11.510972
 0 
ENDSEC
 0 
EOF
