999
"DXF R12 Output" (www.mydxf.blogspot.com)
 0 
SECTION
 2 
HEADER
 9 
$ACADVER
 1 
AC1009
 9 
$EXTMIN
 10 
 0 
 20 
 0 
 9 
$EXTMAX
 10 
 8.5 
 20 
 11 
 0 
ENDSEC
 0 
SECTION
 2 
ENTITIES
0
LINE
8
Layer 1
10
65.781496
20
200.095495
11
60.700088
21
199.840171
0
LINE
8
Layer 1
10
60.700088
20
199.840171
11
55.680213
21
199.106864
0
LINE
8
Layer 1
10
55.680213
20
199.106864
11
50.754933
21
197.914805
0
LINE
8
Layer 1
10
50.754933
20
197.914805
11
45.957307
21
196.283222
0
LINE
8
Layer 1
10
45.957307
20
196.283222
11
41.320396
21
194.231347
0
LINE
8
Layer 1
10
41.320396
20
194.231347
11
36.877259
21
191.778408
0
LINE
8
Layer 1
10
36.877259
20
191.778408
11
32.660958
21
188.943636
0
LINE
8
Layer 1
10
32.660958
20
188.943636
11
28.704551
21
185.746259
0
LINE
8
Layer 1
10
28.704551
20
185.746259
11
28.279709
21
184.756272
0
LINE
8
Layer 1
10
28.279709
20
184.756272
11
28.239867
21
183.694577
0
LINE
8
Layer 1
10
28.239867
20
183.694577
11
28.518316
21
182.579187
0
LINE
8
Layer 1
10
28.518316
20
182.579187
11
29.048349
21
181.428112
0
LINE
8
Layer 1
10
29.048349
20
181.428112
11
30.596335
21
179.090957
0
LINE
8
Layer 1
10
30.596335
20
179.090957
11
32.350164
21
176.827210
0
LINE
8
Layer 1
10
32.350164
20
176.827210
11
33.776173
21
174.780965
0
LINE
8
Layer 1
10
33.776173
20
174.780965
11
34.199476
21
173.884436
0
LINE
8
Layer 1
10
34.199476
20
173.884436
11
34.340700
21
173.096319
0
LINE
8
Layer 1
10
34.340700
20
173.096319
11
34.133139
21
172.434625
0
LINE
8
Layer 1
10
34.133139
20
172.434625
11
33.510084
21
171.917367
0
LINE
8
Layer 1
10
33.510084
20
171.917367
11
32.404828
21
171.562556
0
LINE
8
Layer 1
10
32.404828
20
171.562556
11
30.750662
21
171.388205
0
LINE
8
Layer 1
10
30.750662
20
171.388205
11
29.520963
21
171.433837
0
LINE
8
Layer 1
10
29.520963
20
171.433837
11
28.543790
21
171.247982
0
LINE
8
Layer 1
10
28.543790
20
171.247982
11
27.799550
21
170.858862
0
LINE
8
Layer 1
10
27.799550
20
170.858862
11
27.268651
21
170.294695
0
LINE
8
Layer 1
10
27.268651
20
170.294695
11
26.931500
21
169.583703
0
LINE
8
Layer 1
10
26.931500
20
169.583703
11
26.768504
21
168.754106
0
LINE
8
Layer 1
10
26.768504
20
168.754106
11
26.886607
21
166.851982
0
LINE
8
Layer 1
10
26.886607
20
166.851982
11
27.466220
21
164.814085
0
LINE
8
Layer 1
10
27.466220
20
164.814085
11
28.350601
21
162.866182
0
LINE
8
Layer 1
10
28.350601
20
162.866182
11
29.383010
21
161.234036
0
LINE
8
Layer 1
10
29.383010
20
161.234036
11
30.406704
21
160.143413
0
LINE
8
Layer 1
10
30.406704
20
160.143413
11
31.066128
21
159.286777
0
LINE
8
Layer 1
10
31.066128
20
159.286777
11
31.834985
21
158.549320
0
LINE
8
Layer 1
10
31.834985
20
158.549320
11
32.698064
21
157.939652
0
LINE
8
Layer 1
10
32.698064
20
157.939652
11
33.640155
21
157.466385
0
LINE
8
Layer 1
10
33.640155
20
157.466385
11
34.646046
21
157.138128
0
LINE
8
Layer 1
10
34.646046
20
157.138128
11
35.700526
21
156.963492
0
LINE
8
Layer 1
10
35.700526
20
156.963492
11
36.788386
21
156.951087
0
LINE
8
Layer 1
10
36.788386
20
156.951087
11
37.894412
21
157.109524
0
LINE
8
Layer 1
10
37.894412
20
157.109524
11
37.461816
21
156.801226
0
LINE
8
Layer 1
10
37.461816
20
156.801226
11
36.372243
21
156.341144
0
LINE
8
Layer 1
10
36.372243
20
156.341144
11
34.895658
21
155.694872
0
LINE
8
Layer 1
10
34.895658
20
155.694872
11
33.302027
21
154.828005
0
LINE
8
Layer 1
10
33.302027
20
154.828005
11
31.861315
21
153.706136
0
LINE
8
Layer 1
10
31.861315
20
153.706136
11
31.282669
21
153.038825
0
LINE
8
Layer 1
10
31.282669
20
153.038825
11
30.843490
21
152.294861
0
LINE
8
Layer 1
10
30.843490
20
152.294861
11
30.577523
21
151.469944
0
LINE
8
Layer 1
10
30.577523
20
151.469944
11
30.518515
21
150.559773
0
LINE
8
Layer 1
10
30.518515
20
150.559773
11
30.700211
21
149.560049
0
LINE
8
Layer 1
10
30.700211
20
149.560049
11
31.156357
21
148.466469
0
LINE
8
Layer 1
10
31.156357
20
148.466469
11
31.481960
21
147.194431
0
LINE
8
Layer 1
10
31.481960
20
147.194431
11
32.014560
21
146.162647
0
LINE
8
Layer 1
10
32.014560
20
146.162647
11
32.714780
21
145.334906
0
LINE
8
Layer 1
10
32.714780
20
145.334906
11
33.543247
21
144.674995
0
LINE
8
Layer 1
10
33.543247
20
144.674995
11
35.427419
21
143.713823
0
LINE
8
Layer 1
10
35.427419
20
143.713823
11
37.352077
21
142.989442
0
LINE
8
Layer 1
10
37.352077
20
142.989442
11
39.002222
21
142.212163
0
LINE
8
Layer 1
10
39.002222
20
142.212163
11
39.625916
21
141.713160
0
LINE
8
Layer 1
10
39.625916
20
141.713160
11
40.062856
21
141.092298
0
LINE
8
Layer 1
10
40.062856
20
141.092298
11
40.273669
21
140.313368
0
LINE
8
Layer 1
10
40.273669
20
140.313368
11
40.218979
21
139.340157
0
LINE
8
Layer 1
10
40.218979
20
139.340157
11
39.859412
21
138.136456
0
LINE
8
Layer 1
10
39.859412
20
138.136456
11
39.155593
21
136.666052
0
LINE
8
Layer 1
10
39.155593
20
136.666052
11
39.137849
21
134.686423
0
LINE
8
Layer 1
10
39.137849
20
134.686423
11
39.336335
21
132.677858
0
LINE
8
Layer 1
10
39.336335
20
132.677858
11
39.561684
21
130.786598
0
LINE
8
Layer 1
10
39.561684
20
130.786598
11
39.624533
21
129.158879
0
LINE
8
Layer 1
10
39.624533
20
129.158879
11
39.335519
21
127.940942
0
LINE
8
Layer 1
10
39.335519
20
127.940942
11
38.999886
21
127.531341
0
LINE
8
Layer 1
10
38.999886
20
127.531341
11
38.505276
21
127.279025
0
LINE
8
Layer 1
10
38.505276
20
127.279025
11
37.828018
21
127.202273
0
LINE
8
Layer 1
10
37.828018
20
127.202273
11
36.944441
21
127.319366
0
LINE
8
Layer 1
10
36.944441
20
127.319366
11
34.463649
21
128.208205
0
LINE
8
Layer 1
10
34.463649
20
128.208205
11
31.733033
21
128.334471
0
LINE
8
Layer 1
10
31.733033
20
128.334471
11
28.850761
21
128.160025
0
LINE
8
Layer 1
10
28.850761
20
128.160025
11
25.903355
21
127.729620
0
LINE
8
Layer 1
10
25.903355
20
127.729620
11
22.977337
21
127.088010
0
LINE
8
Layer 1
10
22.977337
20
127.088010
11
20.159231
21
126.279948
0
LINE
8
Layer 1
10
20.159231
20
126.279948
11
17.535559
21
125.350189
0
LINE
8
Layer 1
10
17.535559
20
125.350189
11
15.192844
21
124.343486
0
LINE
8
Layer 1
10
15.192844
20
124.343486
11
13.217609
21
123.304594
0
LINE
8
Layer 1
10
13.217609
20
123.304594
11
11.686314
21
123.020970
0
LINE
8
Layer 1
10
11.686314
20
123.020970
11
10.042215
21
122.350441
0
LINE
8
Layer 1
10
10.042215
20
122.350441
11
8.454638
21
121.369803
0
LINE
8
Layer 1
10
8.454638
20
121.369803
11
7.092907
21
120.155849
0
LINE
8
Layer 1
10
7.092907
20
120.155849
11
6.126347
21
118.785376
0
LINE
8
Layer 1
10
6.126347
20
118.785376
11
5.844170
21
118.065443
0
LINE
8
Layer 1
10
5.844170
20
118.065443
11
5.724283
21
117.335178
0
LINE
8
Layer 1
10
5.724283
20
117.335178
11
5.787851
21
116.604181
0
LINE
8
Layer 1
10
5.787851
20
116.604181
11
6.056040
21
115.882051
0
LINE
8
Layer 1
10
6.056040
20
115.882051
11
6.550015
21
115.178386
0
LINE
8
Layer 1
10
6.550015
20
115.178386
11
7.290942
21
114.502788
0
LINE
8
Layer 1
10
7.290942
20
114.502788
11
9.173954
21
110.060469
0
LINE
8
Layer 1
10
9.173954
20
110.060469
11
10.536294
21
107.514692
0
LINE
8
Layer 1
10
10.536294
20
107.514692
11
11.371122
21
106.295342
0
LINE
8
Layer 1
10
11.371122
20
106.295342
11
12.326845
21
105.162996
0
LINE
8
Layer 1
10
12.326845
20
105.162996
11
12.542485
21
104.411087
0
LINE
8
Layer 1
10
12.542485
20
104.411087
11
12.867621
21
103.777721
0
LINE
8
Layer 1
10
12.867621
20
103.777721
11
13.748986
21
102.794498
0
LINE
8
Layer 1
10
13.748986
20
102.794498
11
15.754325
21
101.457245
0
LINE
8
Layer 1
10
15.754325
20
101.457245
11
16.488723
21
100.814734
0
LINE
8
Layer 1
10
16.488723
20
100.814734
11
16.703633
21
100.436902
0
LINE
8
Layer 1
10
16.703633
20
100.436902
11
16.784553
21
99.997312
0
LINE
8
Layer 1
10
16.784553
20
99.997312
11
16.707135
21
99.477934
0
LINE
8
Layer 1
10
16.707135
20
99.477934
11
16.447028
21
98.860739
0
LINE
8
Layer 1
10
16.447028
20
98.860739
11
15.281359
21
97.260774
0
LINE
8
Layer 1
10
15.281359
20
97.260774
11
14.225371
21
96.231083
0
LINE
8
Layer 1
10
14.225371
20
96.231083
11
13.441382
21
95.201338
0
LINE
8
Layer 1
10
13.441382
20
95.201338
11
12.910885
21
94.177049
0
LINE
8
Layer 1
10
12.910885
20
94.177049
11
12.615373
21
93.163724
0
LINE
8
Layer 1
10
12.615373
20
93.163724
11
12.536337
21
92.166871
0
LINE
8
Layer 1
10
12.536337
20
92.166871
11
12.655270
21
91.191999
0
LINE
8
Layer 1
10
12.655270
20
91.191999
11
12.953664
21
90.244615
0
LINE
8
Layer 1
10
12.953664
20
90.244615
11
13.413012
21
89.330229
0
LINE
8
Layer 1
10
13.413012
20
89.330229
11
14.740539
21
87.622481
0
LINE
8
Layer 1
10
14.740539
20
87.622481
11
16.489790
21
86.112822
0
LINE
8
Layer 1
10
16.489790
20
86.112822
11
18.512704
21
84.845319
0
LINE
8
Layer 1
10
18.512704
20
84.845319
11
20.661220
21
83.864038
0
LINE
8
Layer 1
10
20.661220
20
83.864038
11
21.783000
21
83.448445
0
LINE
8
Layer 1
10
21.783000
20
83.448445
11
22.822410
21
82.883312
0
LINE
8
Layer 1
10
22.822410
20
82.883312
11
24.695363
21
81.372941
0
LINE
8
Layer 1
10
24.695363
20
81.372941
11
26.362558
21
79.469960
0
LINE
8
Layer 1
10
26.362558
20
79.469960
11
27.906473
21
77.311405
0
LINE
8
Layer 1
10
27.906473
20
77.311405
11
30.954383
21
72.775717
0
LINE
8
Layer 1
10
30.954383
20
72.775717
11
32.623336
21
70.672655
0
LINE
8
Layer 1
10
32.623336
20
70.672655
11
34.498926
21
68.862163
0
LINE
8
Layer 1
10
34.498926
20
68.862163
11
34.477095
21
67.546442
0
LINE
8
Layer 1
10
34.477095
20
67.546442
11
34.263486
21
66.178556
0
LINE
8
Layer 1
10
34.263486
20
66.178556
11
33.375458
21
63.301579
0
LINE
8
Layer 1
10
33.375458
20
63.301579
11
32.063897
21
60.261811
0
LINE
8
Layer 1
10
32.063897
20
60.261811
11
30.557857
21
57.089835
0
LINE
8
Layer 1
10
30.557857
20
57.089835
11
29.086390
21
53.816231
0
LINE
8
Layer 1
10
29.086390
20
53.816231
11
27.878551
21
50.471581
0
LINE
8
Layer 1
10
27.878551
20
50.471581
11
27.445071
21
48.782171
0
LINE
8
Layer 1
10
27.445071
20
48.782171
11
27.163393
21
47.086467
0
LINE
8
Layer 1
10
27.163393
20
47.086467
11
27.062149
21
45.388292
0
LINE
8
Layer 1
10
27.062149
20
45.388292
11
27.169970
21
43.691469
0
LINE
8
Layer 1
10
27.169970
20
43.691469
11
27.042584
21
38.167809
0
LINE
8
Layer 1
10
27.042584
20
38.167809
11
26.926111
21
35.626352
0
LINE
8
Layer 1
10
26.926111
20
35.626352
11
26.582342
21
33.266330
0
LINE
8
Layer 1
10
26.582342
20
33.266330
11
25.867195
21
31.113635
0
LINE
8
Layer 1
10
25.867195
20
31.113635
11
25.325330
21
30.123126
0
LINE
8
Layer 1
10
25.325330
20
30.123126
11
24.636590
21
29.194157
0
LINE
8
Layer 1
10
24.636590
20
29.194157
11
23.782965
21
28.329965
0
LINE
8
Layer 1
10
23.782965
20
28.329965
11
22.746445
21
27.533786
0
LINE
8
Layer 1
10
22.746445
20
27.533786
11
21.509020
21
26.808857
0
LINE
8
Layer 1
10
21.509020
20
26.808857
11
20.052678
21
26.158413
0
LINE
8
Layer 1
10
20.052678
20
26.158413
11
18.970354
21
25.394543
0
LINE
8
Layer 1
10
18.970354
20
25.394543
11
18.172010
21
24.486092
0
LINE
8
Layer 1
10
18.172010
20
24.486092
11
17.616727
21
23.458403
0
LINE
8
Layer 1
10
17.616727
20
23.458403
11
17.263587
21
22.336816
0
LINE
8
Layer 1
10
17.263587
20
22.336816
11
17.000057
21
19.913321
0
LINE
8
Layer 1
10
17.000057
20
19.913321
11
17.054067
21
17.418344
0
LINE
8
Layer 1
10
17.054067
20
17.418344
11
17.193219
21
15.826109
0
LINE
8
Layer 1
10
17.193219
20
15.826109
11
17.116236
21
14.088057
0
LINE
8
Layer 1
10
17.116236
20
14.088057
11
16.769305
21
10.454355
0
LINE
8
Layer 1
10
16.769305
20
10.454355
11
16.727074
21
8.698629
0
LINE
8
Layer 1
10
16.727074
20
8.698629
11
16.924146
21
7.076936
0
LINE
8
Layer 1
10
16.924146
20
7.076936
11
17.474381
21
5.659237
0
LINE
8
Layer 1
10
17.474381
20
5.659237
11
17.917515
21
5.048749
0
LINE
8
Layer 1
10
17.917515
20
5.048749
11
18.491637
21
4.515496
0
LINE
8
Layer 1
10
18.491637
20
4.515496
11
155.342954
21
4.515496
0
LINE
8
Layer 1
10
155.342954
20
4.515496
11
156.462804
21
6.241729
0
LINE
8
Layer 1
10
156.462804
20
6.241729
11
157.351870
21
8.417475
0
LINE
8
Layer 1
10
157.351870
20
8.417475
11
157.939829
21
11.096242
0
LINE
8
Layer 1
10
157.939829
20
11.096242
11
158.156357
21
14.331538
0
LINE
8
Layer 1
10
158.156357
20
14.331538
11
158.185444
21
18.594458
0
LINE
8
Layer 1
10
158.185444
20
18.594458
11
158.327954
21
22.872648
0
LINE
8
Layer 1
10
158.327954
20
22.872648
11
158.375846
21
27.140075
0
LINE
8
Layer 1
10
158.375846
20
27.140075
11
158.121079
21
31.370705
0
LINE
8
Layer 1
10
158.121079
20
31.370705
11
157.095857
21
32.164169
0
LINE
8
Layer 1
10
157.095857
20
32.164169
11
156.005205
21
32.798754
0
LINE
8
Layer 1
10
156.005205
20
32.798754
11
154.857915
21
33.284558
0
LINE
8
Layer 1
10
154.857915
20
33.284558
11
153.662777
21
33.631680
0
LINE
8
Layer 1
10
153.662777
20
33.631680
11
151.164120
21
33.950282
0
LINE
8
Layer 1
10
151.164120
20
33.950282
11
148.579562
21
33.835357
0
LINE
8
Layer 1
10
148.579562
20
33.835357
11
145.979430
21
33.367701
0
LINE
8
Layer 1
10
145.979430
20
33.367701
11
143.434051
21
32.628113
0
LINE
8
Layer 1
10
143.434051
20
32.628113
11
141.013751
21
31.697390
0
LINE
8
Layer 1
10
141.013751
20
31.697390
11
138.788857
21
30.656330
0
LINE
8
Layer 1
10
138.788857
20
30.656330
11
138.354512
21
30.927450
0
LINE
8
Layer 1
10
138.354512
20
30.927450
11
138.026200
21
31.408886
0
LINE
8
Layer 1
10
138.026200
20
31.408886
11
137.630931
21
32.909254
0
LINE
8
Layer 1
10
137.630931
20
32.909254
11
137.489565
21
34.970526
0
LINE
8
Layer 1
10
137.489565
20
34.970526
11
137.488616
21
37.405795
0
LINE
8
Layer 1
10
137.488616
20
37.405795
11
137.454026
21
42.650693
0
LINE
8
Layer 1
10
137.454026
20
42.650693
11
137.193413
21
45.086508
0
LINE
8
Layer 1
10
137.193413
20
45.086508
11
136.619274
21
47.148691
0
LINE
8
Layer 1
10
136.619274
20
47.148691
11
135.685467
21
51.731872
0
LINE
8
Layer 1
10
135.685467
20
51.731872
11
134.387003
21
56.249697
0
LINE
8
Layer 1
10
134.387003
20
56.249697
11
132.716441
21
60.647698
0
LINE
8
Layer 1
10
132.716441
20
60.647698
11
130.666342
21
64.871407
0
LINE
8
Layer 1
10
130.666342
20
64.871407
11
128.229266
21
68.866356
0
LINE
8
Layer 1
10
128.229266
20
68.866356
11
125.397772
21
72.578078
0
LINE
8
Layer 1
10
125.397772
20
72.578078
11
122.164421
21
75.952105
0
LINE
8
Layer 1
10
122.164421
20
75.952105
11
118.521774
21
78.933969
0
LINE
8
Layer 1
10
118.521774
20
78.933969
11
119.206176
21
79.921282
0
LINE
8
Layer 1
10
119.206176
20
79.921282
11
119.689382
21
81.062527
0
LINE
8
Layer 1
10
119.689382
20
81.062527
11
120.008699
21
82.318843
0
LINE
8
Layer 1
10
120.008699
20
82.318843
11
120.201435
21
83.651365
0
LINE
8
Layer 1
10
120.201435
20
83.651365
11
120.356397
21
86.389584
0
LINE
8
Layer 1
10
120.356397
20
86.389584
11
120.452735
21
88.966285
0
LINE
8
Layer 1
10
120.452735
20
88.966285
11
120.788914
21
91.070570
0
LINE
8
Layer 1
10
120.788914
20
91.070570
11
121.140214
21
91.848400
0
LINE
8
Layer 1
10
121.140214
20
91.848400
11
121.663399
21
92.391540
0
LINE
8
Layer 1
10
121.663399
20
92.391540
11
122.395777
21
92.661126
0
LINE
8
Layer 1
10
122.395777
20
92.661126
11
123.374655
21
92.618296
0
LINE
8
Layer 1
10
123.374655
20
92.618296
11
124.637343
21
92.224189
0
LINE
8
Layer 1
10
124.637343
20
92.224189
11
126.221149
21
91.439941
0
LINE
8
Layer 1
10
126.221149
20
91.439941
11
128.634048
21
91.051695
0
LINE
8
Layer 1
10
128.634048
20
91.051695
11
131.101354
21
90.864150
0
LINE
8
Layer 1
10
131.101354
20
90.864150
11
133.599449
21
90.875881
0
LINE
8
Layer 1
10
133.599449
20
90.875881
11
136.104714
21
91.085464
0
LINE
8
Layer 1
10
136.104714
20
91.085464
11
138.593530
21
91.491474
0
LINE
8
Layer 1
10
138.593530
20
91.491474
11
141.042278
21
92.092487
0
LINE
8
Layer 1
10
141.042278
20
92.092487
11
143.427340
21
92.887078
0
LINE
8
Layer 1
10
143.427340
20
92.887078
11
145.725096
21
93.873822
0
LINE
8
Layer 1
10
145.725096
20
93.873822
11
147.911928
21
95.051297
0
LINE
8
Layer 1
10
147.911928
20
95.051297
11
149.964217
21
96.418076
0
LINE
8
Layer 1
10
149.964217
20
96.418076
11
151.858345
21
97.972735
0
LINE
8
Layer 1
10
151.858345
20
97.972735
11
153.570692
21
99.713851
0
LINE
8
Layer 1
10
153.570692
20
99.713851
11
155.077639
21
101.639998
0
LINE
8
Layer 1
10
155.077639
20
101.639998
11
156.355569
21
103.749753
0
LINE
8
Layer 1
10
156.355569
20
103.749753
11
157.380862
21
106.041690
0
LINE
8
Layer 1
10
157.380862
20
106.041690
11
158.129899
21
108.514385
0
LINE
8
Layer 1
10
158.129899
20
108.514385
11
158.410320
21
110.875516
0
LINE
8
Layer 1
10
158.410320
20
110.875516
11
158.838580
21
113.212971
0
LINE
8
Layer 1
10
158.838580
20
113.212971
11
159.838297
21
117.933029
0
LINE
8
Layer 1
10
159.838297
20
117.933029
11
160.259596
21
120.373718
0
LINE
8
Layer 1
10
160.259596
20
120.373718
11
160.528416
21
122.906907
0
LINE
8
Layer 1
10
160.528416
20
122.906907
11
160.569677
21
125.561638
0
LINE
8
Layer 1
10
160.569677
20
125.561638
11
160.308301
21
128.366955
0
LINE
8
Layer 1
10
160.308301
20
128.366955
11
160.264847
21
131.776308
0
LINE
8
Layer 1
10
160.264847
20
131.776308
11
160.403086
21
135.230739
0
LINE
8
Layer 1
10
160.403086
20
135.230739
11
160.346207
21
138.637739
0
LINE
8
Layer 1
10
160.346207
20
138.637739
11
160.126845
21
140.294544
0
LINE
8
Layer 1
10
160.126845
20
140.294544
11
159.717399
21
141.904802
0
LINE
8
Layer 1
10
159.717399
20
141.904802
11
159.098927
21
142.108412
0
LINE
8
Layer 1
10
159.098927
20
142.108412
11
158.809120
21
142.343246
0
LINE
8
Layer 1
10
158.809120
20
142.343246
11
158.800057
21
142.611756
0
LINE
8
Layer 1
10
158.800057
20
142.611756
11
159.023813
21
142.916397
0
LINE
8
Layer 1
10
159.023813
20
142.916397
11
161.288583
21
144.545330
0
LINE
8
Layer 1
10
161.288583
20
144.545330
11
162.571896
21
145.640366
0
LINE
8
Layer 1
10
162.571896
20
145.640366
11
163.083556
21
146.266613
0
LINE
8
Layer 1
10
163.083556
20
146.266613
11
163.444653
21
146.948617
0
LINE
8
Layer 1
10
163.444653
20
146.948617
11
163.607265
21
147.688832
0
LINE
8
Layer 1
10
163.607265
20
147.688832
11
163.523471
21
148.489711
0
LINE
8
Layer 1
10
163.523471
20
148.489711
11
163.145346
21
149.353707
0
LINE
8
Layer 1
10
163.145346
20
149.353707
11
162.424968
21
150.283274
0
LINE
8
Layer 1
10
162.424968
20
150.283274
11
162.401947
21
151.207672
0
LINE
8
Layer 1
10
162.401947
20
151.207672
11
162.239486
21
152.065378
0
LINE
8
Layer 1
10
162.239486
20
152.065378
11
161.563337
21
153.546782
0
LINE
8
Layer 1
10
161.563337
20
153.546782
11
160.530706
21
154.659630
0
LINE
8
Layer 1
10
160.530706
20
154.659630
11
159.275777
21
155.336066
0
LINE
8
Layer 1
10
159.275777
20
155.336066
11
157.932735
21
155.508234
0
LINE
8
Layer 1
10
157.932735
20
155.508234
11
157.270104
21
155.384013
0
LINE
8
Layer 1
10
157.270104
20
155.384013
11
156.635764
21
155.108278
0
LINE
8
Layer 1
10
156.635764
20
155.108278
11
156.046488
21
154.672548
0
LINE
8
Layer 1
10
156.046488
20
154.672548
11
155.519049
21
154.068340
0
LINE
8
Layer 1
10
155.519049
20
154.068340
11
155.070220
21
153.287174
0
LINE
8
Layer 1
10
155.070220
20
153.287174
11
154.716774
21
152.320566
0
LINE
8
Layer 1
10
154.716774
20
152.320566
11
154.371762
21
153.907621
0
LINE
8
Layer 1
10
154.371762
20
153.907621
11
153.788770
21
155.307019
0
LINE
8
Layer 1
10
153.788770
20
155.307019
11
152.995546
21
156.524951
0
LINE
8
Layer 1
10
152.995546
20
156.524951
11
152.019840
21
157.567608
0
LINE
8
Layer 1
10
152.019840
20
157.567608
11
150.889400
21
158.441181
0
LINE
8
Layer 1
10
150.889400
20
158.441181
11
149.631974
21
159.151862
0
LINE
8
Layer 1
10
149.631974
20
159.151862
11
148.275313
21
159.705843
0
LINE
8
Layer 1
10
148.275313
20
159.705843
11
146.847164
21
160.109315
0
LINE
8
Layer 1
10
146.847164
20
160.109315
11
143.887401
21
160.489498
0
LINE
8
Layer 1
10
143.887401
20
160.489498
11
140.974675
21
160.341943
0
LINE
8
Layer 1
10
140.974675
20
160.341943
11
138.330978
21
159.716182
0
LINE
8
Layer 1
10
138.330978
20
159.716182
11
137.179388
21
159.239453
0
LINE
8
Layer 1
10
137.179388
20
159.239453
11
136.178301
21
158.661746
0
LINE
8
Layer 1
10
136.178301
20
158.661746
11
134.668601
21
158.963489
0
LINE
8
Layer 1
10
134.668601
20
158.963489
11
133.259200
21
158.907014
0
LINE
8
Layer 1
10
133.259200
20
158.907014
11
131.958244
21
158.533640
0
LINE
8
Layer 1
10
131.958244
20
158.533640
11
130.773876
21
157.884687
0
LINE
8
Layer 1
10
130.773876
20
157.884687
11
129.714243
21
157.001473
0
LINE
8
Layer 1
10
129.714243
20
157.001473
11
128.787487
21
155.925317
0
LINE
8
Layer 1
10
128.787487
20
155.925317
11
128.001754
21
154.697540
0
LINE
8
Layer 1
10
128.001754
20
154.697540
11
127.365188
21
153.359460
0
LINE
8
Layer 1
10
127.365188
20
153.359460
11
126.885934
21
151.952397
0
LINE
8
Layer 1
10
126.885934
20
151.952397
11
126.572137
21
150.517669
0
LINE
8
Layer 1
10
126.572137
20
150.517669
11
126.431940
21
149.096596
0
LINE
8
Layer 1
10
126.431940
20
149.096596
11
126.473490
21
147.730498
0
LINE
8
Layer 1
10
126.473490
20
147.730498
11
126.704930
21
146.460693
0
LINE
8
Layer 1
10
126.704930
20
146.460693
11
127.134405
21
145.328501
0
LINE
8
Layer 1
10
127.134405
20
145.328501
11
127.770059
21
144.375241
0
LINE
8
Layer 1
10
127.770059
20
144.375241
11
128.620037
21
143.642232
0
LINE
8
Layer 1
10
128.620037
20
143.642232
11
127.753087
21
143.098194
0
LINE
8
Layer 1
10
127.753087
20
143.098194
11
127.066915
21
142.429185
0
LINE
8
Layer 1
10
127.066915
20
142.429185
11
126.541948
21
141.649135
0
LINE
8
Layer 1
10
126.541948
20
141.649135
11
126.158610
21
140.771971
0
LINE
8
Layer 1
10
126.158610
20
140.771971
11
125.738522
21
138.782012
0
LINE
8
Layer 1
10
125.738522
20
138.782012
11
125.650050
21
136.570727
0
LINE
8
Layer 1
10
125.650050
20
136.570727
11
125.841553
21
131.929871
0
LINE
8
Layer 1
10
125.841553
20
131.929871
11
125.808327
21
129.723142
0
LINE
8
Layer 1
10
125.808327
20
129.723142
11
125.480315
21
127.740774
0
LINE
8
Layer 1
10
125.480315
20
127.740774
11
124.930266
21
123.519099
0
LINE
8
Layer 1
10
124.930266
20
123.519099
11
124.878008
21
121.287053
0
LINE
8
Layer 1
10
124.878008
20
121.287053
11
125.052559
21
119.163997
0
LINE
8
Layer 1
10
125.052559
20
119.163997
11
125.512640
21
117.292278
0
LINE
8
Layer 1
10
125.512640
20
117.292278
11
126.316976
21
115.814245
0
LINE
8
Layer 1
10
126.316976
20
115.814245
11
126.866590
21
115.267344
0
LINE
8
Layer 1
10
126.866590
20
115.267344
11
127.524289
21
114.872244
0
LINE
8
Layer 1
10
127.524289
20
114.872244
11
128.297412
21
114.646738
0
LINE
8
Layer 1
10
128.297412
20
114.646738
11
129.193301
21
114.608621
0
LINE
8
Layer 1
10
129.193301
20
114.608621
11
127.934448
21
113.638031
0
LINE
8
Layer 1
10
127.934448
20
113.638031
11
126.721337
21
113.107913
0
LINE
8
Layer 1
10
126.721337
20
113.107913
11
125.546036
21
112.965250
0
LINE
8
Layer 1
10
125.546036
20
112.965250
11
124.400615
21
113.157025
0
LINE
8
Layer 1
10
124.400615
20
113.157025
11
123.277141
21
113.630221
0
LINE
8
Layer 1
10
123.277141
20
113.630221
11
122.167685
21
114.331821
0
LINE
8
Layer 1
10
122.167685
20
114.331821
11
119.959098
21
116.208164
0
LINE
8
Layer 1
10
119.959098
20
116.208164
11
117.711406
21
118.361917
0
LINE
8
Layer 1
10
117.711406
20
118.361917
11
115.361159
21
120.368942
0
LINE
8
Layer 1
10
115.361159
20
120.368942
11
114.127750
21
121.184889
0
LINE
8
Layer 1
10
114.127750
20
121.184889
11
112.844908
21
121.805102
0
LINE
8
Layer 1
10
112.844908
20
121.805102
11
111.504703
21
122.176565
0
LINE
8
Layer 1
10
111.504703
20
122.176565
11
110.099204
21
122.246260
0
LINE
8
Layer 1
10
110.099204
20
122.246260
11
108.692662
21
122.453107
0
LINE
8
Layer 1
10
108.692662
20
122.453107
11
107.411161
21
122.805997
0
LINE
8
Layer 1
10
107.411161
20
122.805997
11
106.251023
21
123.294579
0
LINE
8
Layer 1
10
106.251023
20
123.294579
11
105.208567
21
123.908499
0
LINE
8
Layer 1
10
105.208567
20
123.908499
11
104.280113
21
124.637404
0
LINE
8
Layer 1
10
104.280113
20
124.637404
11
103.461983
21
125.470941
0
LINE
8
Layer 1
10
103.461983
20
125.470941
11
102.141973
21
127.410500
0
LINE
8
Layer 1
10
102.141973
20
127.410500
11
101.219099
21
129.644351
0
LINE
8
Layer 1
10
101.219099
20
129.644351
11
100.663925
21
132.089669
0
LINE
8
Layer 1
10
100.663925
20
132.089669
11
100.447013
21
134.663631
0
LINE
8
Layer 1
10
100.447013
20
134.663631
11
100.538926
21
137.283413
0
LINE
8
Layer 1
10
100.538926
20
137.283413
11
100.567684
21
138.809165
0
LINE
8
Layer 1
10
100.567684
20
138.809165
11
100.350213
21
140.323369
0
LINE
8
Layer 1
10
100.350213
20
140.323369
11
99.919793
21
141.820612
0
LINE
8
Layer 1
10
99.919793
20
141.820612
11
99.309702
21
143.295477
0
LINE
8
Layer 1
10
99.309702
20
143.295477
11
97.683627
21
146.156410
0
LINE
8
Layer 1
10
97.683627
20
146.156410
11
95.738218
21
148.862844
0
LINE
8
Layer 1
10
95.738218
20
148.862844
11
91.954328
21
153.638915
0
LINE
8
Layer 1
10
91.954328
20
153.638915
11
90.648310
21
155.621904
0
LINE
8
Layer 1
10
90.648310
20
155.621904
11
90.258258
21
156.493181
0
LINE
8
Layer 1
10
90.258258
20
156.493181
11
90.087885
21
157.277094
0
LINE
8
Layer 1
10
90.087885
20
157.277094
11
92.057265
21
158.245291
0
LINE
8
Layer 1
10
92.057265
20
158.245291
11
93.533845
21
159.427844
0
LINE
8
Layer 1
10
93.533845
20
159.427844
11
94.554798
21
160.769928
0
LINE
8
Layer 1
10
94.554798
20
160.769928
11
95.157299
21
162.216720
0
LINE
8
Layer 1
10
95.157299
20
162.216720
11
95.378521
21
163.713398
0
LINE
8
Layer 1
10
95.378521
20
163.713398
11
95.255639
21
165.205138
0
LINE
8
Layer 1
10
95.255639
20
165.205138
11
94.825825
21
166.637117
0
LINE
8
Layer 1
10
94.825825
20
166.637117
11
94.126253
21
167.954513
0
LINE
8
Layer 1
10
94.126253
20
167.954513
11
93.194098
21
169.102500
0
LINE
8
Layer 1
10
93.194098
20
169.102500
11
92.066533
21
170.026258
0
LINE
8
Layer 1
10
92.066533
20
170.026258
11
90.780733
21
170.670962
0
LINE
8
Layer 1
10
90.780733
20
170.670962
11
89.373870
21
170.981790
0
LINE
8
Layer 1
10
89.373870
20
170.981790
11
87.883119
21
170.903917
0
LINE
8
Layer 1
10
87.883119
20
170.903917
11
86.345653
21
170.382522
0
LINE
8
Layer 1
10
86.345653
20
170.382522
11
84.798647
21
169.362781
0
LINE
8
Layer 1
10
84.798647
20
169.362781
11
83.279274
21
167.789871
0
LINE
8
Layer 1
10
83.279274
20
167.789871
11
82.335821
21
166.995311
0
LINE
8
Layer 1
10
82.335821
20
166.995311
11
81.569173
21
166.616898
0
LINE
8
Layer 1
10
81.569173
20
166.616898
11
80.962979
21
166.610697
0
LINE
8
Layer 1
10
80.962979
20
166.610697
11
80.500892
21
166.932772
0
LINE
8
Layer 1
10
80.500892
20
166.932772
11
80.166563
21
167.539187
0
LINE
8
Layer 1
10
80.166563
20
167.539187
11
79.943644
21
168.386006
0
LINE
8
Layer 1
10
79.943644
20
168.386006
11
79.766644
21
170.625113
0
LINE
8
Layer 1
10
79.766644
20
170.625113
11
79.839104
21
173.298603
0
LINE
8
Layer 1
10
79.839104
20
173.298603
11
80.030238
21
176.054988
0
LINE
8
Layer 1
10
80.030238
20
176.054988
11
80.245385
21
180.410495
0
LINE
8
Layer 1
10
80.245385
20
180.410495
11
80.357416
21
182.543946
0
LINE
8
Layer 1
10
80.357416
20
182.543946
11
80.601629
21
184.690355
0
LINE
8
Layer 1
10
80.601629
20
184.690355
11
81.245153
21
188.999139
0
LINE
8
Layer 1
10
81.245153
20
188.999139
11
81.693064
21
193.291031
0
LINE
8
Layer 1
10
81.693064
20
193.291031
11
81.692760
21
195.416326
0
LINE
8
Layer 1
10
81.692760
20
195.416326
11
81.462468
21
197.520217
0
LINE
8
Layer 1
10
81.462468
20
197.520217
11
80.062386
21
198.380449
0
LINE
8
Layer 1
10
80.062386
20
198.380449
11
78.538204
21
199.001948
0
LINE
8
Layer 1
10
78.538204
20
199.001948
11
76.920631
21
199.426075
0
LINE
8
Layer 1
10
76.920631
20
199.426075
11
75.240376
21
199.694191
0
LINE
8
Layer 1
10
75.240376
20
199.694191
11
71.814652
21
199.927833
0
LINE
8
Layer 1
10
71.814652
20
199.927833
11
68.506704
21
200.033759
0
LINE
8
Layer 1
10
68.506704
20
200.033759
11
65.781496
21
200.095495
0
LINE
8
Layer 1
10
65.781496
20
200.095495
11
65.781496
21
200.095495
0
LINE
8
Layer 1
10
55.445107
20
172.640566
11
55.601492
21
172.590375
0
LINE
8
Layer 1
10
55.601492
20
172.590375
11
55.683761
21
172.384996
0
LINE
8
Layer 1
10
55.683761
20
172.384996
11
55.718510
21
171.335288
0
LINE
8
Layer 1
10
55.718510
20
171.335288
11
55.938996
21
168.680635
0
LINE
8
Layer 1
10
55.938996
20
168.680635
11
56.041631
21
167.680670
0
LINE
8
Layer 1
10
56.041631
20
167.680670
11
55.913488
21
167.519419
0
LINE
8
Layer 1
10
55.913488
20
167.519419
11
55.639135
21
167.481191
0
LINE
8
Layer 1
10
55.639135
20
167.481191
11
55.156649
21
167.392668
0
LINE
8
Layer 1
10
55.156649
20
167.392668
11
54.679167
21
167.120619
0
LINE
8
Layer 1
10
54.679167
20
167.120619
11
53.628301
21
165.946607
0
LINE
8
Layer 1
10
53.628301
20
165.946607
11
52.913926
21
164.544316
0
LINE
8
Layer 1
10
52.913926
20
164.544316
11
52.809598
21
164.250123
0
LINE
8
Layer 1
10
52.809598
20
164.250123
11
52.560716
21
164.104044
0
LINE
8
Layer 1
10
52.560716
20
164.104044
11
51.167676
21
164.147441
0
LINE
8
Layer 1
10
51.167676
20
164.147441
11
49.518440
21
164.306191
0
LINE
8
Layer 1
10
49.518440
20
164.306191
11
50.259274
21
164.976469
0
LINE
8
Layer 1
10
50.259274
20
164.976469
11
50.742980
21
165.616308
0
LINE
8
Layer 1
10
50.742980
20
165.616308
11
51.120514
21
166.443464
0
LINE
8
Layer 1
10
51.120514
20
166.443464
11
51.307758
21
167.218424
0
LINE
8
Layer 1
10
51.307758
20
167.218424
11
51.220593
21
167.701677
0
LINE
8
Layer 1
10
51.220593
20
167.701677
11
50.718953
21
167.389610
0
LINE
8
Layer 1
10
50.718953
20
167.389610
11
49.775509
21
166.514276
0
LINE
8
Layer 1
10
49.775509
20
166.514276
11
48.862282
21
165.544725
0
LINE
8
Layer 1
10
48.862282
20
165.544725
11
48.451287
21
164.950010
0
LINE
8
Layer 1
10
48.451287
20
164.950010
11
48.204343
21
164.738344
0
LINE
8
Layer 1
10
48.204343
20
164.738344
11
48.089681
21
165.031646
0
LINE
8
Layer 1
10
48.089681
20
165.031646
11
48.186704
21
165.761399
0
LINE
8
Layer 1
10
48.186704
20
165.761399
11
48.327815
21
167.101955
0
LINE
8
Layer 1
10
48.327815
20
167.101955
11
48.030603
21
168.599632
0
LINE
8
Layer 1
10
48.030603
20
168.599632
11
48.152190
21
168.892115
0
LINE
8
Layer 1
10
48.152190
20
168.892115
11
48.460107
21
168.971677
0
LINE
8
Layer 1
10
48.460107
20
168.971677
11
49.146163
21
169.182528
0
LINE
8
Layer 1
10
49.146163
20
169.182528
11
49.916605
21
169.733952
0
LINE
8
Layer 1
10
49.916605
20
169.733952
11
50.613642
21
170.486322
0
LINE
8
Layer 1
10
50.613642
20
170.486322
11
51.079482
21
171.300010
0
LINE
8
Layer 1
10
51.079482
20
171.300010
11
51.302525
21
171.806543
0
LINE
8
Layer 1
10
51.302525
20
171.806543
11
51.587320
21
172.086109
0
LINE
8
Layer 1
10
51.587320
20
172.086109
11
52.922746
21
172.261330
0
LINE
8
Layer 1
10
52.922746
20
172.261330
11
55.083510
21
172.534732
0
LINE
8
Layer 1
10
55.083510
20
172.534732
11
55.445107
21
172.640566
0
LINE
8
Layer 1
10
55.445107
20
172.640566
11
55.445107
21
172.640566
0
LINE
8
Layer 1
10
35.592537
20
169.042232
11
35.627815
21
169.042232
0
LINE
8
Layer 1
10
35.627815
20
169.042232
11
36.704214
21
167.571738
0
LINE
8
Layer 1
10
36.704214
20
167.571738
11
37.298170
21
167.129830
0
LINE
8
Layer 1
10
37.298170
20
167.129830
11
38.070801
21
166.749177
0
LINE
8
Layer 1
10
38.070801
20
166.749177
11
39.180842
21
166.154302
0
LINE
8
Layer 1
10
39.180842
20
166.154302
11
39.336030
21
165.888986
0
LINE
8
Layer 1
10
39.336030
20
165.888986
11
39.305524
21
165.567371
0
LINE
8
Layer 1
10
39.305524
20
165.567371
11
39.120315
21
163.565357
0
LINE
8
Layer 1
10
39.120315
20
163.565357
11
39.111496
21
162.154246
0
LINE
8
Layer 1
10
39.111496
20
162.154246
11
38.397121
21
163.080288
0
LINE
8
Layer 1
10
38.397121
20
163.080288
11
37.783514
21
163.733216
0
LINE
8
Layer 1
10
37.783514
20
163.733216
11
37.312329
21
164.006330
0
LINE
8
Layer 1
10
37.312329
20
164.006330
11
36.946345
21
164.135134
0
LINE
8
Layer 1
10
36.946345
20
164.135134
11
36.589135
21
164.438482
0
LINE
8
Layer 1
10
36.589135
20
164.438482
11
36.107375
21
164.740905
0
LINE
8
Layer 1
10
36.107375
20
164.740905
11
35.433787
21
164.870635
0
LINE
8
Layer 1
10
35.433787
20
164.870635
11
34.757307
21
164.774074
0
LINE
8
Layer 1
10
34.757307
20
164.774074
11
34.631785
21
164.643697
0
LINE
8
Layer 1
10
34.631785
20
164.643697
11
34.648929
21
164.456453
0
LINE
8
Layer 1
10
34.648929
20
164.456453
11
35.113779
21
163.904951
0
LINE
8
Layer 1
10
35.113779
20
163.904951
11
36.156982
21
163.106746
0
LINE
8
Layer 1
10
36.156982
20
163.106746
11
37.603371
21
161.792649
0
LINE
8
Layer 1
10
37.603371
20
161.792649
11
37.736034
21
161.496389
0
LINE
8
Layer 1
10
37.736034
20
161.496389
11
37.634879
21
161.302450
0
LINE
8
Layer 1
10
37.634879
20
161.302450
11
36.395107
21
160.998899
0
LINE
8
Layer 1
10
36.395107
20
160.998899
11
35.113272
21
160.862906
0
LINE
8
Layer 1
10
35.113272
20
160.862906
11
34.906113
21
160.976114
0
LINE
8
Layer 1
10
34.906113
20
160.976114
11
34.860524
21
161.228205
0
LINE
8
Layer 1
10
34.860524
20
161.228205
11
34.617091
21
161.875532
0
LINE
8
Layer 1
10
34.617091
20
161.875532
11
34.022319
21
162.617152
0
LINE
8
Layer 1
10
34.022319
20
162.617152
11
33.295433
21
163.228744
0
LINE
8
Layer 1
10
33.295433
20
163.228744
11
32.655662
21
163.485982
0
LINE
8
Layer 1
10
32.655662
20
163.485982
11
32.354736
21
163.530289
0
LINE
8
Layer 1
10
32.354736
20
163.530289
11
32.176449
21
163.689304
0
LINE
8
Layer 1
10
32.176449
20
163.689304
11
32.073579
21
164.553135
0
LINE
8
Layer 1
10
32.073579
20
164.553135
11
31.892754
21
165.635266
0
LINE
8
Layer 1
10
31.892754
20
165.635266
11
31.447399
21
166.749177
0
LINE
8
Layer 1
10
31.447399
20
166.749177
11
30.812399
21
167.878066
0
LINE
8
Layer 1
10
30.812399
20
167.878066
11
31.729621
21
167.939802
0
LINE
8
Layer 1
10
31.729621
20
167.939802
11
34.119690
21
168.557163
0
LINE
8
Layer 1
10
34.119690
20
168.557163
11
35.592537
21
169.042232
0
LINE
8
Layer 1
10
35.592537
20
169.042232
11
35.592537
21
169.042232
0
LINE
8
Layer 1
10
71.134899
20
167.049038
11
73.595524
21
167.022580
0
LINE
8
Layer 1
10
73.595524
20
167.022580
11
75.512427
21
166.915291
0
LINE
8
Layer 1
10
75.512427
20
166.915291
11
76.338371
21
166.643344
0
LINE
8
Layer 1
10
76.338371
20
166.643344
11
77.154518
21
163.932634
0
LINE
8
Layer 1
10
77.154518
20
163.932634
11
77.758301
21
160.963621
0
LINE
8
Layer 1
10
77.758301
20
160.963621
11
77.319177
21
160.511352
0
LINE
8
Layer 1
10
77.319177
20
160.511352
11
76.267815
21
159.958205
0
LINE
8
Layer 1
10
76.267815
20
159.958205
11
74.292260
21
159.076260
0
LINE
8
Layer 1
10
74.292260
20
159.076260
11
73.715878
21
158.869285
0
LINE
8
Layer 1
10
73.715878
20
158.869285
11
73.258555
21
158.888712
0
LINE
8
Layer 1
10
73.258555
20
158.888712
11
72.905775
21
159.138615
0
LINE
8
Layer 1
10
72.905775
20
159.138615
11
72.643024
21
159.623066
0
LINE
8
Layer 1
10
72.643024
20
159.623066
11
71.979528
21
162.134480
0
LINE
8
Layer 1
10
71.979528
20
162.134480
11
71.373024
21
165.426260
0
LINE
8
Layer 1
10
71.373024
20
165.426260
11
71.134899
21
167.049038
0
LINE
8
Layer 1
10
71.134899
20
167.049038
11
71.134899
21
167.049038
0
LINE
8
Layer 1
10
69.873718
20
166.855010
11
70.402885
21
164.905913
0
LINE
8
Layer 1
10
70.402885
20
164.905913
11
71.822815
21
158.538274
0
LINE
8
Layer 1
10
71.822815
20
158.538274
11
71.029065
21
158.044385
0
LINE
8
Layer 1
10
71.029065
20
158.044385
11
69.318093
21
157.479941
0
LINE
8
Layer 1
10
69.318093
20
157.479941
11
68.484572
21
157.384055
0
LINE
8
Layer 1
10
68.484572
20
157.384055
11
68.279823
21
157.581943
0
LINE
8
Layer 1
10
68.279823
20
157.581943
11
68.101010
21
157.991469
0
LINE
8
Layer 1
10
68.101010
20
157.991469
11
67.589482
21
160.028760
0
LINE
8
Layer 1
10
67.589482
20
160.028760
11
66.913376
21
163.213671
0
LINE
8
Layer 1
10
66.913376
20
163.213671
11
66.266565
21
165.514455
0
LINE
8
Layer 1
10
66.266565
20
165.514455
11
66.063718
21
166.440496
0
LINE
8
Layer 1
10
66.063718
20
166.440496
11
68.021635
21
166.705080
0
LINE
8
Layer 1
10
68.021635
20
166.705080
11
69.873718
21
166.855010
0
LINE
8
Layer 1
10
69.873718
20
166.855010
11
69.873718
21
166.855010
0
LINE
8
Layer 1
10
64.802537
20
166.290566
11
65.111218
21
165.073482
0
LINE
8
Layer 1
10
65.111218
20
165.073482
11
65.913787
21
162.295357
0
LINE
8
Layer 1
10
65.913787
20
162.295357
11
66.329774
21
160.591693
0
LINE
8
Layer 1
10
66.329774
20
160.591693
11
66.610524
21
158.688205
0
LINE
8
Layer 1
10
66.610524
20
158.688205
11
66.677066
21
156.945258
0
LINE
8
Layer 1
10
66.677066
20
156.945258
11
66.523138
21
156.701859
0
LINE
8
Layer 1
10
66.523138
20
156.701859
11
66.204829
21
156.659732
0
LINE
8
Layer 1
10
66.204829
20
156.659732
11
64.405662
21
156.157024
0
LINE
8
Layer 1
10
64.405662
20
156.157024
11
61.336496
21
155.310357
0
LINE
8
Layer 1
10
61.336496
20
155.310357
11
57.517676
21
154.357857
0
LINE
8
Layer 1
10
57.517676
20
154.357857
11
53.839968
21
153.414177
0
LINE
8
Layer 1
10
53.839968
20
153.414177
11
50.867815
21
152.717441
0
LINE
8
Layer 1
10
50.867815
20
152.717441
11
48.283718
21
152.241191
0
LINE
8
Layer 1
10
48.283718
20
152.241191
11
46.978440
21
152.135357
0
LINE
8
Layer 1
10
46.978440
20
152.135357
11
47.657537
21
153.114316
0
LINE
8
Layer 1
10
47.657537
20
153.114316
11
48.140279
21
154.036766
0
LINE
8
Layer 1
10
48.140279
20
154.036766
11
48.345454
21
154.878205
0
LINE
8
Layer 1
10
48.345454
20
154.878205
11
48.531863
21
155.568498
0
LINE
8
Layer 1
10
48.531863
20
155.568498
11
49.271496
21
155.962996
0
LINE
8
Layer 1
10
49.271496
20
155.962996
11
50.076576
21
156.419325
0
LINE
8
Layer 1
10
50.076576
20
156.419325
11
50.785482
21
157.192826
0
LINE
8
Layer 1
10
50.785482
20
157.192826
11
51.337118
21
158.198079
0
LINE
8
Layer 1
10
51.337118
20
158.198079
11
51.670385
21
159.349663
0
LINE
8
Layer 1
10
51.670385
20
159.349663
11
51.750887
21
160.012095
0
LINE
8
Layer 1
10
51.750887
20
160.012095
11
51.674712
21
160.505087
0
LINE
8
Layer 1
10
51.674712
20
160.505087
11
50.788440
21
161.660357
0
LINE
8
Layer 1
10
50.788440
20
161.660357
11
49.694829
21
162.824524
0
LINE
8
Layer 1
10
49.694829
20
162.824524
11
50.964829
21
162.621677
0
LINE
8
Layer 1
10
50.964829
20
162.621677
11
53.116774
21
162.260080
0
LINE
8
Layer 1
10
53.116774
20
162.260080
11
53.849383
21
162.236058
0
LINE
8
Layer 1
10
53.849383
20
162.236058
11
54.139829
21
162.665774
0
LINE
8
Layer 1
10
54.139829
20
162.665774
11
54.462469
21
163.166681
0
LINE
8
Layer 1
10
54.462469
20
163.166681
11
55.129448
21
163.693647
0
LINE
8
Layer 1
10
55.129448
20
163.693647
11
57.260272
21
164.734354
0
LINE
8
Layer 1
10
57.260272
20
164.734354
11
60.059989
21
165.605076
0
LINE
8
Layer 1
10
60.059989
20
165.605076
11
63.056287
21
166.122996
0
LINE
8
Layer 1
10
63.056287
20
166.122996
11
64.802537
21
166.290566
0
LINE
8
Layer 1
10
64.802537
20
166.290566
11
64.802537
21
166.290566
0
LINE
8
Layer 1
10
43.009690
20
162.859802
11
43.962243
21
162.666846
0
LINE
8
Layer 1
10
43.962243
20
162.666846
11
44.852954
21
162.048413
0
LINE
8
Layer 1
10
44.852954
20
162.048413
11
45.297342
21
161.471598
0
LINE
8
Layer 1
10
45.297342
20
161.471598
11
45.537279
21
160.873404
0
LINE
8
Layer 1
10
45.537279
20
160.873404
11
45.580009
21
160.271486
0
LINE
8
Layer 1
10
45.580009
20
160.271486
11
45.432775
21
159.683496
0
LINE
8
Layer 1
10
45.432775
20
159.683496
11
45.102821
21
159.127089
0
LINE
8
Layer 1
10
45.102821
20
159.127089
11
44.597389
21
158.619918
0
LINE
8
Layer 1
10
44.597389
20
158.619918
11
43.923722
21
158.179637
0
LINE
8
Layer 1
10
43.923722
20
158.179637
11
43.089065
21
157.823899
0
LINE
8
Layer 1
10
43.089065
20
157.823899
11
41.880801
21
157.497580
0
LINE
8
Layer 1
10
41.880801
20
157.497580
11
41.196762
21
157.830353
0
LINE
8
Layer 1
10
41.196762
20
157.830353
11
40.657569
21
158.519745
0
LINE
8
Layer 1
10
40.657569
20
158.519745
11
40.350756
21
159.403609
0
LINE
8
Layer 1
10
40.350756
20
159.403609
11
40.363857
21
160.319802
0
LINE
8
Layer 1
10
40.363857
20
160.319802
11
40.751912
21
161.148830
0
LINE
8
Layer 1
10
40.751912
20
161.148830
11
41.457468
21
161.986677
0
LINE
8
Layer 1
10
41.457468
20
161.986677
11
42.128598
21
162.633243
0
LINE
8
Layer 1
10
42.128598
20
162.633243
11
43.009690
21
162.859802
0
LINE
8
Layer 1
10
43.009690
20
162.859802
11
43.009690
21
162.859802
0
LINE
8
Layer 1
10
48.221982
20
161.898482
11
48.468926
21
161.898482
0
LINE
8
Layer 1
10
48.468926
20
161.898482
11
49.179122
21
161.719180
0
LINE
8
Layer 1
10
49.179122
20
161.719180
11
49.783024
21
161.245844
0
LINE
8
Layer 1
10
49.783024
20
161.245844
11
50.126311
21
160.738071
0
LINE
8
Layer 1
10
50.126311
20
160.738071
11
50.310727
21
160.162287
0
LINE
8
Layer 1
10
50.310727
20
160.162287
11
50.241365
21
158.939932
0
LINE
8
Layer 1
10
50.241365
20
158.939932
11
49.651792
21
157.845272
0
LINE
8
Layer 1
10
49.651792
20
157.845272
11
49.185941
21
157.429108
0
LINE
8
Layer 1
10
49.185941
20
157.429108
11
48.618857
21
157.144802
0
LINE
8
Layer 1
10
48.618857
20
157.144802
11
47.537078
21
156.887307
0
LINE
8
Layer 1
10
47.537078
20
156.887307
11
46.731496
21
157.409385
0
LINE
8
Layer 1
10
46.731496
20
157.409385
11
46.269886
21
157.958974
0
LINE
8
Layer 1
10
46.269886
20
157.958974
11
46.387537
21
158.511816
0
LINE
8
Layer 1
10
46.387537
20
158.511816
11
46.606414
21
159.275704
0
LINE
8
Layer 1
10
46.606414
20
159.275704
11
46.705037
21
160.328621
0
LINE
8
Layer 1
10
46.705037
20
160.328621
11
46.833150
21
161.385392
0
LINE
8
Layer 1
10
46.833150
20
161.385392
11
47.029695
21
161.617730
0
LINE
8
Layer 1
10
47.029695
20
161.617730
11
47.357676
21
161.748552
0
LINE
8
Layer 1
10
47.357676
20
161.748552
11
48.221982
21
161.898482
0
LINE
8
Layer 1
10
48.221982
20
161.898482
11
48.221982
21
161.898482
0
LINE
8
Layer 1
10
42.515801
20
161.810288
11
41.916079
21
161.413413
0
LINE
8
Layer 1
10
41.916079
20
161.413413
11
41.521999
21
160.868442
0
LINE
8
Layer 1
10
41.521999
20
160.868442
11
41.369747
21
160.272143
0
LINE
8
Layer 1
10
41.369747
20
160.272143
11
41.461997
21
159.671011
0
LINE
8
Layer 1
10
41.461997
20
159.671011
11
41.801426
21
159.111538
0
LINE
8
Layer 1
10
41.801426
20
159.111538
11
42.232895
21
158.736162
0
LINE
8
Layer 1
10
42.232895
20
158.736162
11
42.654518
21
158.617202
0
LINE
8
Layer 1
10
42.654518
20
158.617202
11
43.097183
21
158.754229
0
LINE
8
Layer 1
10
43.097183
20
158.754229
11
43.591774
21
159.146816
0
LINE
8
Layer 1
10
43.591774
20
159.146816
11
44.045896
21
159.774392
0
LINE
8
Layer 1
10
44.045896
20
159.774392
11
44.150651
21
160.396188
0
LINE
8
Layer 1
10
44.150651
20
160.396188
11
43.909821
21
160.973177
0
LINE
8
Layer 1
10
43.909821
20
160.973177
11
43.327190
21
161.466330
0
LINE
8
Layer 1
10
43.327190
20
161.466330
11
42.515801
21
161.810288
0
LINE
8
Layer 1
10
42.515801
20
161.810288
11
42.515801
21
161.810288
0
LINE
8
Layer 1
10
48.230801
20
160.990080
11
47.692815
21
160.840149
0
LINE
8
Layer 1
10
47.692815
20
160.840149
11
47.143750
21
160.331272
0
LINE
8
Layer 1
10
47.143750
20
160.331272
11
46.940564
21
159.591928
0
LINE
8
Layer 1
10
46.940564
20
159.591928
11
47.091454
21
158.846104
0
LINE
8
Layer 1
10
47.091454
20
158.846104
11
47.604621
21
158.317788
0
LINE
8
Layer 1
10
47.604621
20
158.317788
11
48.377466
21
158.040088
0
LINE
8
Layer 1
10
48.377466
20
158.040088
11
48.943841
21
158.110583
0
LINE
8
Layer 1
10
48.943841
20
158.110583
11
49.356543
21
158.558083
0
LINE
8
Layer 1
10
49.356543
20
158.558083
11
49.668371
21
159.411399
0
LINE
8
Layer 1
10
49.668371
20
159.411399
11
49.684425
21
160.111400
0
LINE
8
Layer 1
10
49.684425
20
160.111400
11
49.130385
21
160.654941
0
LINE
8
Layer 1
10
49.130385
20
160.654941
11
48.643169
21
160.921400
0
LINE
8
Layer 1
10
48.643169
20
160.921400
11
48.230801
21
160.990080
0
LINE
8
Layer 1
10
48.230801
20
160.990080
11
48.230801
21
160.990080
0
LINE
8
Layer 1
10
42.674551
20
160.513830
11
43.000376
21
160.416610
0
LINE
8
Layer 1
10
43.000376
20
160.416610
11
43.159621
21
160.134594
0
LINE
8
Layer 1
10
43.159621
20
160.134594
11
43.027110
21
159.914932
0
LINE
8
Layer 1
10
43.027110
20
159.914932
11
42.683371
21
159.772996
0
LINE
8
Layer 1
10
42.683371
20
159.772996
11
42.319259
21
159.828070
0
LINE
8
Layer 1
10
42.319259
20
159.828070
11
42.189482
21
160.143413
0
LINE
8
Layer 1
10
42.189482
20
160.143413
11
42.343908
21
160.422069
0
LINE
8
Layer 1
10
42.343908
20
160.422069
11
42.674551
21
160.513830
0
LINE
8
Layer 1
10
42.674551
20
160.513830
11
42.674551
21
160.513830
0
LINE
8
Layer 1
10
48.292537
20
159.834732
11
48.398371
21
159.799455
0
LINE
8
Layer 1
10
48.398371
20
159.799455
11
48.671774
21
159.358482
0
LINE
8
Layer 1
10
48.671774
20
159.358482
11
48.588312
21
159.170831
0
LINE
8
Layer 1
10
48.588312
20
159.170831
11
48.389551
21
159.093899
0
LINE
8
Layer 1
10
48.389551
20
159.093899
11
48.193726
21
159.224231
0
LINE
8
Layer 1
10
48.193726
20
159.224231
11
48.116149
21
159.534871
0
LINE
8
Layer 1
10
48.116149
20
159.534871
11
48.292537
21
159.834732
0
LINE
8
Layer 1
10
48.292537
20
159.834732
11
48.292537
21
159.834732
0
LINE
8
Layer 1
10
142.440107
20
157.409385
11
143.101565
21
156.968413
0
LINE
8
Layer 1
10
143.101565
20
156.968413
11
143.672654
21
156.057431
0
LINE
8
Layer 1
10
143.672654
20
156.057431
11
144.054032
21
154.656742
0
LINE
8
Layer 1
10
144.054032
20
154.656742
11
144.228169
21
152.866281
0
LINE
8
Layer 1
10
144.228169
20
152.866281
11
144.177537
21
150.785982
0
LINE
8
Layer 1
10
144.177537
20
150.785982
11
143.927426
21
148.765772
0
LINE
8
Layer 1
10
143.927426
20
148.765772
11
143.586635
21
147.275844
0
LINE
8
Layer 1
10
143.586635
20
147.275844
11
143.189760
21
146.164594
0
LINE
8
Layer 1
10
143.189760
20
146.164594
11
143.004551
21
147.143552
0
LINE
8
Layer 1
10
143.004551
20
147.143552
11
142.070464
21
149.976648
0
LINE
8
Layer 1
10
142.070464
20
149.976648
11
140.843787
21
152.479316
0
LINE
8
Layer 1
10
140.843787
20
152.479316
11
140.491762
21
153.205137
0
LINE
8
Layer 1
10
140.491762
20
153.205137
11
140.349899
21
153.996260
0
LINE
8
Layer 1
10
140.349899
20
153.996260
11
140.487463
21
154.868270
0
LINE
8
Layer 1
10
140.487463
20
154.868270
11
140.836520
21
155.784612
0
LINE
8
Layer 1
10
140.836520
20
155.784612
11
141.325913
21
156.598323
0
LINE
8
Layer 1
10
141.325913
20
156.598323
11
141.884482
21
157.162441
0
LINE
8
Layer 1
10
141.884482
20
157.162441
11
142.360732
21
157.400566
0
LINE
8
Layer 1
10
142.360732
20
157.400566
11
142.440107
21
157.409385
0
LINE
8
Layer 1
10
142.440107
20
157.409385
11
142.440107
21
157.409385
0
LINE
8
Layer 1
10
45.637885
20
156.862580
11
46.091813
21
156.696807
0
LINE
8
Layer 1
10
46.091813
20
156.696807
11
46.511537
21
156.278760
0
LINE
8
Layer 1
10
46.511537
20
156.278760
11
46.818549
21
155.713855
0
LINE
8
Layer 1
10
46.818549
20
155.713855
11
46.934343
21
155.107510
0
LINE
8
Layer 1
10
46.934343
20
155.107510
11
46.759585
21
154.380008
0
LINE
8
Layer 1
10
46.759585
20
154.380008
11
46.343440
21
153.643482
0
LINE
8
Layer 1
10
46.343440
20
153.643482
11
45.605211
21
153.050744
0
LINE
8
Layer 1
10
45.605211
20
153.050744
11
44.376704
21
152.929107
0
LINE
8
Layer 1
10
44.376704
20
152.929107
11
43.382537
21
153.060267
0
LINE
8
Layer 1
10
43.382537
20
153.060267
11
42.690109
21
153.411458
0
LINE
8
Layer 1
10
42.690109
20
153.411458
11
42.333861
21
153.953627
0
LINE
8
Layer 1
10
42.333861
20
153.953627
11
42.348232
21
154.657719
0
LINE
8
Layer 1
10
42.348232
20
154.657719
11
42.522513
21
155.033409
0
LINE
8
Layer 1
10
42.522513
20
155.033409
11
42.734013
21
155.184094
0
LINE
8
Layer 1
10
42.734013
20
155.184094
11
42.911373
21
155.098050
0
LINE
8
Layer 1
10
42.911373
20
155.098050
11
42.983232
21
154.763552
0
LINE
8
Layer 1
10
42.983232
20
154.763552
11
43.193445
21
154.352962
0
LINE
8
Layer 1
10
43.193445
20
154.352962
11
43.711432
21
154.050902
0
LINE
8
Layer 1
10
43.711432
20
154.050902
11
44.354798
21
153.924369
0
LINE
8
Layer 1
10
44.354798
20
153.924369
11
44.941149
21
154.040357
0
LINE
8
Layer 1
10
44.941149
20
154.040357
11
45.359925
21
154.444110
0
LINE
8
Layer 1
10
45.359925
20
154.444110
11
45.638218
21
155.043707
0
LINE
8
Layer 1
10
45.638218
20
155.043707
11
45.722317
21
155.659771
0
LINE
8
Layer 1
10
45.722317
20
155.659771
11
45.558510
21
156.112927
0
LINE
8
Layer 1
10
45.558510
20
156.112927
11
45.275404
21
156.644820
0
LINE
8
Layer 1
10
45.275404
20
156.644820
11
45.376515
21
156.805640
0
LINE
8
Layer 1
10
45.376515
20
156.805640
11
45.637885
21
156.862580
0
LINE
8
Layer 1
10
45.637885
20
156.862580
11
45.637885
21
156.862580
0
LINE
8
Layer 1
10
44.129760
20
155.962996
11
44.520497
21
155.770310
0
LINE
8
Layer 1
10
44.520497
20
155.770310
11
44.685385
21
155.301538
0
LINE
8
Layer 1
10
44.685385
20
155.301538
11
44.614250
21
155.010083
0
LINE
8
Layer 1
10
44.614250
20
155.010083
11
44.431269
21
154.912943
0
LINE
8
Layer 1
10
44.431269
20
154.912943
11
43.865176
21
155.301538
0
LINE
8
Layer 1
10
43.865176
20
155.301538
11
43.687523
21
155.649394
0
LINE
8
Layer 1
10
43.687523
20
155.649394
11
43.829899
21
155.883621
0
LINE
8
Layer 1
10
43.829899
20
155.883621
11
44.129760
21
155.962996
0
LINE
8
Layer 1
10
44.129760
20
155.962996
11
44.129760
21
155.962996
0
LINE
8
Layer 1
10
80.192468
20
155.380913
11
82.094487
21
155.219618
0
LINE
8
Layer 1
10
82.094487
20
155.219618
11
83.850473
21
154.782626
0
LINE
8
Layer 1
10
83.850473
20
154.782626
11
85.574417
21
154.034030
0
LINE
8
Layer 1
10
85.574417
20
154.034030
11
87.380315
21
152.937927
0
LINE
8
Layer 1
10
87.380315
20
152.937927
11
89.465297
21
151.361728
0
LINE
8
Layer 1
10
89.465297
20
151.361728
11
91.115253
21
149.699864
0
LINE
8
Layer 1
10
91.115253
20
149.699864
11
92.513903
21
147.729983
0
LINE
8
Layer 1
10
92.513903
20
147.729983
11
93.844968
21
145.229732
0
LINE
8
Layer 1
10
93.844968
20
145.229732
11
95.253711
21
142.013590
0
LINE
8
Layer 1
10
95.253711
20
142.013590
11
96.335983
21
138.960939
0
LINE
8
Layer 1
10
96.335983
20
138.960939
11
97.061306
21
136.171956
0
LINE
8
Layer 1
10
97.061306
20
136.171956
11
97.399204
21
133.746816
0
LINE
8
Layer 1
10
97.399204
20
133.746816
11
97.305120
21
131.046679
0
LINE
8
Layer 1
10
97.305120
20
131.046679
11
96.721427
21
128.324780
0
LINE
8
Layer 1
10
96.721427
20
128.324780
11
95.682104
21
125.633461
0
LINE
8
Layer 1
10
95.682104
20
125.633461
11
94.221130
21
123.025064
0
LINE
8
Layer 1
10
94.221130
20
123.025064
11
92.372486
21
120.551928
0
LINE
8
Layer 1
10
92.372486
20
120.551928
11
90.170149
21
118.266397
0
LINE
8
Layer 1
10
90.170149
20
118.266397
11
87.648099
21
116.220810
0
LINE
8
Layer 1
10
87.648099
20
116.220810
11
84.840315
21
114.467510
0
LINE
8
Layer 1
10
84.840315
20
114.467510
11
81.490830
21
112.832327
0
LINE
8
Layer 1
10
81.490830
20
112.832327
11
78.111079
21
111.812857
0
LINE
8
Layer 1
10
78.111079
20
111.812857
11
74.151149
21
110.807441
0
LINE
8
Layer 1
10
74.151149
20
110.807441
11
71.329788
21
110.367716
0
LINE
8
Layer 1
10
71.329788
20
110.367716
11
66.522329
21
110.207719
0
LINE
8
Layer 1
10
66.522329
20
110.207719
11
61.424578
21
110.257415
0
LINE
8
Layer 1
10
61.424578
20
110.257415
11
60.139435
21
110.499845
0
LINE
8
Layer 1
10
60.139435
20
110.499845
11
58.725940
21
110.983830
0
LINE
8
Layer 1
10
58.725940
20
110.983830
11
56.254413
21
111.994835
0
LINE
8
Layer 1
10
56.254413
20
111.994835
11
54.109670
21
113.112714
0
LINE
8
Layer 1
10
54.109670
20
113.112714
11
52.224745
21
114.378825
0
LINE
8
Layer 1
10
52.224745
20
114.378825
11
50.532676
21
115.834524
0
LINE
8
Layer 1
10
50.532676
20
115.834524
11
48.741922
21
117.825869
0
LINE
8
Layer 1
10
48.741922
20
117.825869
11
46.947194
21
120.251693
0
LINE
8
Layer 1
10
46.947194
20
120.251693
11
45.410624
21
122.724505
0
LINE
8
Layer 1
10
45.410624
20
122.724505
11
44.394343
21
124.856816
0
LINE
8
Layer 1
10
44.394343
20
124.856816
11
43.629400
21
127.237888
0
LINE
8
Layer 1
10
43.629400
20
127.237888
11
43.068230
21
129.618179
0
LINE
8
Layer 1
10
43.068230
20
129.618179
11
42.711452
21
131.978890
0
LINE
8
Layer 1
10
42.711452
20
131.978890
11
42.559685
21
134.301224
0
LINE
8
Layer 1
10
42.559685
20
134.301224
11
42.613549
21
136.566384
0
LINE
8
Layer 1
10
42.613549
20
136.566384
11
42.873661
21
138.755573
0
LINE
8
Layer 1
10
42.873661
20
138.755573
11
43.340641
21
140.849992
0
LINE
8
Layer 1
10
43.340641
20
140.849992
11
44.015107
21
142.830844
0
LINE
8
Layer 1
10
44.015107
20
142.830844
11
44.552221
21
143.988586
0
LINE
8
Layer 1
10
44.552221
20
143.988586
11
45.153425
21
144.925199
0
LINE
8
Layer 1
10
45.153425
20
144.925199
11
45.882207
21
145.725241
0
LINE
8
Layer 1
10
45.882207
20
145.725241
11
46.802051
21
146.473274
0
LINE
8
Layer 1
10
46.802051
20
146.473274
11
47.838875
21
147.153290
0
LINE
8
Layer 1
10
47.838875
20
147.153290
11
49.137874
21
147.698062
0
LINE
8
Layer 1
10
49.137874
20
147.698062
11
55.348093
21
149.321955
0
LINE
8
Layer 1
10
55.348093
20
149.321955
11
62.465385
21
151.191677
0
LINE
8
Layer 1
10
62.465385
20
151.191677
11
66.043437
21
152.214329
0
LINE
8
Layer 1
10
66.043437
20
152.214329
11
71.736574
21
153.618948
0
LINE
8
Layer 1
10
71.736574
20
153.618948
11
77.225887
21
154.857241
0
LINE
8
Layer 1
10
77.225887
20
154.857241
11
80.192468
21
155.380913
0
LINE
8
Layer 1
10
80.192468
20
155.380913
11
80.192468
21
155.380913
0
LINE
8
Layer 1
10
131.592190
20
148.828066
11
133.219474
21
148.593688
0
LINE
8
Layer 1
10
133.219474
20
148.593688
11
135.067051
21
147.902024
0
LINE
8
Layer 1
10
135.067051
20
147.902024
11
137.209886
21
146.603160
0
LINE
8
Layer 1
10
137.209886
20
146.603160
11
140.393996
21
144.233135
0
LINE
8
Layer 1
10
140.393996
20
144.233135
11
140.796402
21
143.821004
0
LINE
8
Layer 1
10
140.796402
20
143.821004
11
140.076496
21
144.047927
0
LINE
8
Layer 1
10
140.076496
20
144.047927
11
136.839760
21
144.938691
0
LINE
8
Layer 1
10
136.839760
20
144.938691
11
132.864318
21
146.091383
0
LINE
8
Layer 1
10
132.864318
20
146.091383
11
131.776686
21
146.650762
0
LINE
8
Layer 1
10
131.776686
20
146.650762
11
130.974829
21
147.328760
0
LINE
8
Layer 1
10
130.974829
20
147.328760
11
130.315379
21
148.153905
0
LINE
8
Layer 1
10
130.315379
20
148.153905
11
130.358341
21
148.377213
0
LINE
8
Layer 1
10
130.358341
20
148.377213
11
130.613232
21
148.598760
0
LINE
8
Layer 1
10
130.613232
20
148.598760
11
131.592190
21
148.828066
0
LINE
8
Layer 1
10
131.592190
20
148.828066
11
131.592190
21
148.828066
0
LINE
8
Layer 1
10
78.208093
20
148.325357
11
77.934690
21
148.316538
0
LINE
8
Layer 1
10
77.934690
20
148.316538
11
76.849899
21
148.228344
0
LINE
8
Layer 1
10
76.849899
20
148.228344
11
75.284459
21
147.978401
0
LINE
8
Layer 1
10
75.284459
20
147.978401
11
74.556843
21
147.522788
0
LINE
8
Layer 1
10
74.556843
20
147.522788
11
74.080685
21
147.140608
0
LINE
8
Layer 1
10
74.080685
20
147.140608
11
73.489690
21
146.984802
0
LINE
8
Layer 1
10
73.489690
20
146.984802
11
72.952711
21
146.844994
0
LINE
8
Layer 1
10
72.952711
20
146.844994
11
72.810593
21
146.270427
0
LINE
8
Layer 1
10
72.810593
20
146.270427
11
73.092815
21
145.000427
0
LINE
8
Layer 1
10
73.092815
20
145.000427
11
73.407922
21
144.617947
0
LINE
8
Layer 1
10
73.407922
20
144.617947
11
73.785220
21
144.460164
0
LINE
8
Layer 1
10
73.785220
20
144.460164
11
74.142635
21
144.537234
0
LINE
8
Layer 1
10
74.142635
20
144.537234
11
74.398093
21
144.859316
0
LINE
8
Layer 1
10
74.398093
20
144.859316
11
74.540943
21
145.058072
0
LINE
8
Layer 1
10
74.540943
20
145.058072
11
74.803508
21
145.162134
0
LINE
8
Layer 1
10
74.803508
20
145.162134
11
75.870940
21
145.115080
0
LINE
8
Layer 1
10
75.870940
20
145.115080
11
77.100936
21
145.094498
0
LINE
8
Layer 1
10
77.100936
20
145.094498
11
78.111079
21
145.511955
0
LINE
8
Layer 1
10
78.111079
20
145.511955
11
78.801889
21
146.013674
0
LINE
8
Layer 1
10
78.801889
20
146.013674
11
79.176654
21
146.506024
0
LINE
8
Layer 1
10
79.176654
20
146.506024
11
79.258962
21
147.043735
0
LINE
8
Layer 1
10
79.258962
20
147.043735
11
79.072399
21
147.681538
0
LINE
8
Layer 1
10
79.072399
20
147.681538
11
78.775361
21
148.171324
0
LINE
8
Layer 1
10
78.775361
20
148.171324
11
78.208093
21
148.325357
0
LINE
8
Layer 1
10
78.208093
20
148.325357
11
78.208093
21
148.325357
0
LINE
8
Layer 1
10
61.530524
20
144.286052
11
61.075190
21
144.152167
0
LINE
8
Layer 1
10
61.075190
20
144.152167
11
60.622121
21
143.739246
0
LINE
8
Layer 1
10
60.622121
20
143.739246
11
60.368472
21
143.457995
0
LINE
8
Layer 1
10
60.368472
20
143.457995
11
60.057955
21
143.333276
0
LINE
8
Layer 1
10
60.057955
20
143.333276
11
58.822954
21
143.483482
0
LINE
8
Layer 1
10
58.822954
20
143.483482
11
57.592407
21
143.626528
0
LINE
8
Layer 1
10
57.592407
20
143.626528
11
57.245789
21
143.516247
0
LINE
8
Layer 1
10
57.245789
20
143.516247
11
56.944412
21
143.271816
0
LINE
8
Layer 1
10
56.944412
20
143.271816
11
56.566243
21
142.668085
0
LINE
8
Layer 1
10
56.566243
20
142.668085
11
56.378194
21
141.907230
0
LINE
8
Layer 1
10
56.378194
20
141.907230
11
56.398289
21
141.151775
0
LINE
8
Layer 1
10
56.398289
20
141.151775
11
56.644551
21
140.564246
0
LINE
8
Layer 1
10
56.644551
20
140.564246
11
57.079026
21
140.234599
0
LINE
8
Layer 1
10
57.079026
20
140.234599
11
57.657517
21
140.111559
0
LINE
8
Layer 1
10
57.657517
20
140.111559
11
58.346886
21
140.197223
0
LINE
8
Layer 1
10
58.346886
20
140.197223
11
59.113996
21
140.493691
0
LINE
8
Layer 1
10
59.113996
20
140.493691
11
59.824349
21
140.738143
0
LINE
8
Layer 1
10
59.824349
20
140.738143
11
60.392815
21
140.749455
0
LINE
8
Layer 1
10
60.392815
20
140.749455
11
60.773328
21
140.723707
0
LINE
8
Layer 1
10
60.773328
20
140.723707
11
61.036635
21
140.881746
0
LINE
8
Layer 1
10
61.036635
20
140.881746
11
61.348615
21
141.093114
0
LINE
8
Layer 1
10
61.348615
20
141.093114
11
61.830385
21
141.181607
0
LINE
8
Layer 1
10
61.830385
20
141.181607
11
62.373327
21
141.302646
0
LINE
8
Layer 1
10
62.373327
20
141.302646
11
62.900799
21
141.616870
0
LINE
8
Layer 1
10
62.900799
20
141.616870
11
63.300964
21
142.035372
0
LINE
8
Layer 1
10
63.300964
20
142.035372
11
63.461982
21
142.469246
0
LINE
8
Layer 1
10
63.461982
20
142.469246
11
63.217536
21
142.864079
0
LINE
8
Layer 1
10
63.217536
20
142.864079
11
62.624135
21
143.289455
0
LINE
8
Layer 1
10
62.624135
20
143.289455
11
62.030935
21
143.686403
0
LINE
8
Layer 1
10
62.030935
20
143.686403
11
61.786287
21
144.012649
0
LINE
8
Layer 1
10
61.786287
20
144.012649
11
61.717253
21
144.213001
0
LINE
8
Layer 1
10
61.717253
20
144.213001
11
61.530524
21
144.286052
0
LINE
8
Layer 1
10
61.530524
20
144.286052
11
61.530524
21
144.286052
0
LINE
8
Layer 1
10
131.071843
20
139.893969
11
132.200732
21
139.893969
0
LINE
8
Layer 1
10
132.200732
20
139.893969
11
136.460524
21
139.673482
0
LINE
8
Layer 1
10
136.460524
20
139.673482
11
139.635524
21
139.452996
0
LINE
8
Layer 1
10
139.635524
20
139.452996
11
139.600246
21
135.854663
0
LINE
8
Layer 1
10
139.600246
20
135.854663
11
139.564968
21
132.247510
0
LINE
8
Layer 1
10
139.564968
20
132.247510
11
137.659968
21
132.176955
0
LINE
8
Layer 1
10
137.659968
20
132.176955
11
133.383645
21
132.294030
0
LINE
8
Layer 1
10
133.383645
20
132.294030
11
129.898857
21
132.714941
0
LINE
8
Layer 1
10
129.898857
20
132.714941
11
129.131565
21
132.935427
0
LINE
8
Layer 1
10
129.131565
20
132.935427
11
129.325593
21
136.075149
0
LINE
8
Layer 1
10
129.325593
20
136.075149
11
129.634274
21
139.576469
0
LINE
8
Layer 1
10
129.634274
20
139.576469
11
130.021045
21
139.796524
0
LINE
8
Layer 1
10
130.021045
20
139.796524
11
131.071843
21
139.893969
0
LINE
8
Layer 1
10
131.071843
20
139.893969
11
131.071843
21
139.893969
0
LINE
8
Layer 1
10
148.525524
20
139.347163
11
149.839621
21
139.347163
0
LINE
8
Layer 1
10
149.839621
20
139.347163
11
154.099412
21
139.197232
0
LINE
8
Layer 1
10
154.099412
20
139.197232
11
156.851079
21
139.029663
0
LINE
8
Layer 1
10
156.851079
20
139.029663
11
156.815801
21
135.387232
0
LINE
8
Layer 1
10
156.815801
20
135.387232
11
156.771704
21
131.753621
0
LINE
8
Layer 1
10
156.771704
20
131.753621
11
152.467815
21
131.850635
0
LINE
8
Layer 1
10
152.467815
20
131.850635
11
146.823371
21
132.053482
0
LINE
8
Layer 1
10
146.823371
20
132.053482
11
145.473996
21
132.176955
0
LINE
8
Layer 1
10
145.473996
20
132.176955
11
145.588649
21
135.766469
0
LINE
8
Layer 1
10
145.588649
20
135.766469
11
145.703301
21
139.338344
0
LINE
8
Layer 1
10
145.703301
20
139.338344
11
148.525524
21
139.347163
0
LINE
8
Layer 1
10
148.525524
20
139.347163
11
148.525524
21
139.347163
0
LINE
8
Layer 1
10
72.096218
20
139.003205
11
71.540113
21
138.923887
0
LINE
8
Layer 1
10
71.540113
20
138.923887
11
70.843857
21
138.632788
0
LINE
8
Layer 1
10
70.843857
20
138.632788
11
69.989962
21
138.305557
0
LINE
8
Layer 1
10
69.989962
20
138.305557
11
69.379829
21
138.482857
0
LINE
8
Layer 1
10
69.379829
20
138.482857
11
68.815252
21
138.655454
0
LINE
8
Layer 1
10
68.815252
20
138.655454
11
68.171565
21
138.306469
0
LINE
8
Layer 1
10
68.171565
20
138.306469
11
66.945662
21
137.697927
0
LINE
8
Layer 1
10
66.945662
20
137.697927
11
66.589049
21
137.507953
0
LINE
8
Layer 1
10
66.589049
20
137.507953
11
66.365791
21
137.133951
0
LINE
8
Layer 1
10
66.365791
20
137.133951
11
66.285389
21
136.091250
0
LINE
8
Layer 1
10
66.285389
20
136.091250
11
66.636547
21
135.084595
0
LINE
8
Layer 1
10
66.636547
20
135.084595
11
66.952740
21
134.755652
0
LINE
8
Layer 1
10
66.952740
20
134.755652
11
67.351357
21
134.628760
0
LINE
8
Layer 1
10
67.351357
20
134.628760
11
67.984811
21
134.458790
0
LINE
8
Layer 1
10
67.984811
20
134.458790
11
68.665454
21
134.055496
0
LINE
8
Layer 1
10
68.665454
20
134.055496
11
69.472527
21
133.544919
0
LINE
8
Layer 1
10
69.472527
20
133.544919
11
70.153555
21
133.505571
0
LINE
8
Layer 1
10
70.153555
20
133.505571
11
70.833571
21
133.979311
0
LINE
8
Layer 1
10
70.833571
20
133.979311
11
71.637607
21
135.007996
0
LINE
8
Layer 1
10
71.637607
20
135.007996
11
72.520644
21
136.569485
0
LINE
8
Layer 1
10
72.520644
20
136.569485
11
72.875785
21
137.825448
0
LINE
8
Layer 1
10
72.875785
20
137.825448
11
72.726489
21
138.671487
0
LINE
8
Layer 1
10
72.726489
20
138.671487
11
72.470009
21
138.908161
0
LINE
8
Layer 1
10
72.470009
20
138.908161
11
72.096218
21
139.003205
0
LINE
8
Layer 1
10
72.096218
20
139.003205
11
72.096218
21
139.003205
0
LINE
8
Layer 1
10
81.383093
20
136.101607
11
80.863966
21
135.926246
0
LINE
8
Layer 1
10
80.863966
20
135.926246
11
80.421774
21
135.351955
0
LINE
8
Layer 1
10
80.421774
20
135.351955
11
79.959621
21
134.759855
0
LINE
8
Layer 1
10
79.959621
20
134.759855
11
79.336982
21
134.293621
0
LINE
8
Layer 1
10
79.336982
20
134.293621
11
78.605135
21
133.599234
0
LINE
8
Layer 1
10
78.605135
20
133.599234
11
77.881774
21
132.388621
0
LINE
8
Layer 1
10
77.881774
20
132.388621
11
77.147892
21
131.130548
0
LINE
8
Layer 1
10
77.147892
20
131.130548
11
76.804591
21
130.919392
0
LINE
8
Layer 1
10
76.804591
20
130.919392
11
76.364829
21
130.871677
0
LINE
8
Layer 1
10
76.364829
20
130.871677
11
75.769740
21
130.779248
0
LINE
8
Layer 1
10
75.769740
20
130.779248
11
75.247364
21
130.462111
0
LINE
8
Layer 1
10
75.247364
20
130.462111
11
74.750144
21
129.880122
0
LINE
8
Layer 1
10
74.750144
20
129.880122
11
74.230524
21
128.993135
0
LINE
8
Layer 1
10
74.230524
20
128.993135
11
73.704011
21
128.281418
0
LINE
8
Layer 1
10
73.704011
20
128.281418
11
72.986982
21
128.234663
0
LINE
8
Layer 1
10
72.986982
20
128.234663
11
72.119170
21
128.228915
0
LINE
8
Layer 1
10
72.119170
20
128.228915
11
71.117260
21
128.005357
0
LINE
8
Layer 1
10
71.117260
20
128.005357
11
70.064763
21
127.765168
0
LINE
8
Layer 1
10
70.064763
20
127.765168
11
69.168162
21
128.058274
0
LINE
8
Layer 1
10
69.168162
20
128.058274
11
68.261919
21
128.348909
0
LINE
8
Layer 1
10
68.261919
20
128.348909
11
67.219065
21
128.217024
0
LINE
8
Layer 1
10
67.219065
20
128.217024
11
66.406309
21
128.094665
0
LINE
8
Layer 1
10
66.406309
20
128.094665
11
65.984343
21
128.190566
0
LINE
8
Layer 1
10
65.984343
20
128.190566
11
65.278787
21
128.446330
0
LINE
8
Layer 1
10
65.278787
20
128.446330
11
64.891616
21
128.558805
0
LINE
8
Layer 1
10
64.891616
20
128.558805
11
64.731982
21
128.825566
0
LINE
8
Layer 1
10
64.731982
20
128.825566
11
64.596628
21
129.219983
0
LINE
8
Layer 1
10
64.596628
20
129.219983
11
64.224614
21
129.627606
0
LINE
8
Layer 1
10
64.224614
20
129.627606
11
63.020777
21
130.368006
0
LINE
8
Layer 1
10
63.020777
20
130.368006
11
61.620825
21
130.817846
0
LINE
8
Layer 1
10
61.620825
20
130.817846
11
61.003664
21
130.862268
0
LINE
8
Layer 1
10
61.003664
20
130.862268
11
60.525107
21
130.748205
0
LINE
8
Layer 1
10
60.525107
20
130.748205
11
60.118933
21
130.292329
0
LINE
8
Layer 1
10
60.118933
20
130.292329
11
59.949042
21
129.554416
0
LINE
8
Layer 1
10
59.949042
20
129.554416
11
60.023086
21
128.661539
0
LINE
8
Layer 1
10
60.023086
20
128.661539
11
60.348718
21
127.740774
0
LINE
8
Layer 1
10
60.348718
20
127.740774
11
60.763232
21
126.435496
0
LINE
8
Layer 1
10
60.763232
20
126.435496
11
60.965343
21
125.949052
0
LINE
8
Layer 1
10
60.965343
20
125.949052
11
61.475483
21
125.594611
0
LINE
8
Layer 1
10
61.475483
20
125.594611
11
62.138820
21
125.440125
0
LINE
8
Layer 1
10
62.138820
20
125.440125
11
62.800524
21
125.553552
0
LINE
8
Layer 1
10
62.800524
20
125.553552
11
63.515096
21
125.712033
0
LINE
8
Layer 1
10
63.515096
20
125.712033
11
64.325399
21
125.689388
0
LINE
8
Layer 1
10
64.325399
20
125.689388
11
64.988420
21
125.517245
0
LINE
8
Layer 1
10
64.988420
20
125.517245
11
65.261149
21
125.227232
0
LINE
8
Layer 1
10
65.261149
20
125.227232
11
65.693301
21
124.265913
0
LINE
8
Layer 1
10
65.693301
20
124.265913
11
66.198159
21
123.799107
0
LINE
8
Layer 1
10
66.198159
20
123.799107
11
66.829324
21
123.655386
0
LINE
8
Layer 1
10
66.829324
20
123.655386
11
67.553935
21
123.834567
0
LINE
8
Layer 1
10
67.553935
20
123.834567
11
68.339135
21
124.336469
0
LINE
8
Layer 1
10
68.339135
20
124.336469
11
69.232931
21
124.893894
0
LINE
8
Layer 1
10
69.232931
20
124.893894
11
70.226496
21
124.715705
0
LINE
8
Layer 1
10
70.226496
20
124.715705
11
71.273340
21
124.495494
0
LINE
8
Layer 1
10
71.273340
20
124.495494
11
72.265879
21
124.541391
0
LINE
8
Layer 1
10
72.265879
20
124.541391
11
73.127286
21
124.839809
0
LINE
8
Layer 1
10
73.127286
20
124.839809
11
73.780732
21
125.377163
0
LINE
8
Layer 1
10
73.780732
20
125.377163
11
74.505370
21
125.956839
0
LINE
8
Layer 1
10
74.505370
20
125.956839
11
75.738649
21
126.082719
0
LINE
8
Layer 1
10
75.738649
20
126.082719
11
76.775837
21
126.181019
0
LINE
8
Layer 1
10
76.775837
20
126.181019
11
77.559029
21
126.511772
0
LINE
8
Layer 1
10
77.559029
20
126.511772
11
78.111127
21
127.093223
0
LINE
8
Layer 1
10
78.111127
20
127.093223
11
78.455037
21
127.943621
0
LINE
8
Layer 1
10
78.455037
20
127.943621
11
78.694314
21
128.690949
0
LINE
8
Layer 1
10
78.694314
20
128.690949
11
78.977943
21
129.112437
0
LINE
8
Layer 1
10
78.977943
20
129.112437
11
79.344078
21
129.238353
0
LINE
8
Layer 1
10
79.344078
20
129.238353
11
79.830871
21
129.098969
0
LINE
8
Layer 1
10
79.830871
20
129.098969
11
80.553995
21
128.925705
0
LINE
8
Layer 1
10
80.553995
20
128.925705
11
81.133973
21
129.143502
0
LINE
8
Layer 1
10
81.133973
20
129.143502
11
81.562903
21
129.746932
0
LINE
8
Layer 1
10
81.562903
20
129.746932
11
81.832885
21
130.730566
0
LINE
8
Layer 1
10
81.832885
20
130.730566
11
82.441426
21
132.838413
0
LINE
8
Layer 1
10
82.441426
20
132.838413
11
82.750601
21
133.613539
0
LINE
8
Layer 1
10
82.750601
20
133.613539
11
82.825526
21
134.328720
0
LINE
8
Layer 1
10
82.825526
20
134.328720
11
82.666509
21
134.982254
0
LINE
8
Layer 1
10
82.666509
20
134.982254
11
82.273857
21
135.572441
0
LINE
8
Layer 1
10
82.273857
20
135.572441
11
81.818337
21
135.959182
0
LINE
8
Layer 1
10
81.818337
20
135.959182
11
81.383093
21
136.101607
0
LINE
8
Layer 1
10
81.383093
20
136.101607
11
81.383093
21
136.101607
0
LINE
8
Layer 1
10
129.546079
20
126.197371
11
134.352676
21
126.100357
0
LINE
8
Layer 1
10
134.352676
20
126.100357
11
139.503232
21
125.959246
0
LINE
8
Layer 1
10
139.503232
20
125.959246
11
139.467954
21
122.660774
0
LINE
8
Layer 1
10
139.467954
20
122.660774
11
139.361912
21
120.210804
0
LINE
8
Layer 1
10
139.361912
20
120.210804
11
139.159274
21
118.947788
0
LINE
8
Layer 1
10
139.159274
20
118.947788
11
138.560099
21
118.674324
0
LINE
8
Layer 1
10
138.560099
20
118.674324
11
137.142020
21
118.536894
0
LINE
8
Layer 1
10
137.142020
20
118.536894
11
131.468718
21
118.656746
0
LINE
8
Layer 1
10
131.468718
20
118.656746
11
128.734690
21
118.789038
0
LINE
8
Layer 1
10
128.734690
20
118.789038
11
128.664135
21
119.979663
0
LINE
8
Layer 1
10
128.664135
20
119.979663
11
128.783976
21
123.524690
0
LINE
8
Layer 1
10
128.783976
20
123.524690
11
129.096287
21
126.179732
0
LINE
8
Layer 1
10
129.096287
20
126.179732
11
129.546079
21
126.197371
0
LINE
8
Layer 1
10
129.546079
20
126.197371
11
129.546079
21
126.197371
0
LINE
8
Layer 1
10
145.509274
20
125.941607
11
147.370176
21
125.915149
0
LINE
8
Layer 1
10
147.370176
20
125.915149
11
152.794135
21
125.544732
0
LINE
8
Layer 1
10
152.794135
20
125.544732
11
156.357190
21
125.183135
0
LINE
8
Layer 1
10
156.357190
20
125.183135
11
156.507121
21
123.066469
0
LINE
8
Layer 1
10
156.507121
20
123.066469
11
156.648232
21
119.573969
0
LINE
8
Layer 1
10
156.648232
20
119.573969
11
156.639412
21
118.206955
0
LINE
8
Layer 1
10
156.639412
20
118.206955
11
150.853857
21
118.259871
0
LINE
8
Layer 1
10
150.853857
20
118.259871
11
145.068301
21
118.321607
0
LINE
8
Layer 1
10
145.068301
20
118.321607
11
145.103579
21
121.073274
0
LINE
8
Layer 1
10
145.103579
20
121.073274
11
145.315246
21
124.883274
0
LINE
8
Layer 1
10
145.315246
20
124.883274
11
145.509274
21
125.941607
0
LINE
8
Layer 1
10
145.509274
20
125.941607
11
145.509274
21
125.941607
0
LINE
8
Layer 1
10
97.478579
20
125.535913
11
98.220245
21
125.318009
0
LINE
8
Layer 1
10
98.220245
20
125.318009
11
99.604065
21
124.653969
0
LINE
8
Layer 1
10
99.604065
20
124.653969
11
101.263478
21
123.608667
0
LINE
8
Layer 1
10
101.263478
20
123.608667
11
102.505662
21
122.184524
0
LINE
8
Layer 1
10
102.505662
20
122.184524
11
103.599274
21
120.394177
0
LINE
8
Layer 1
10
103.599274
20
120.394177
11
103.440602
21
120.205514
0
LINE
8
Layer 1
10
103.440602
20
120.205514
11
103.066406
21
120.167298
0
LINE
8
Layer 1
10
103.066406
20
120.167298
11
102.621299
21
120.268979
0
LINE
8
Layer 1
10
102.621299
20
120.268979
11
102.249899
21
120.500010
0
LINE
8
Layer 1
10
102.249899
20
120.500010
11
101.914760
21
121.179107
0
LINE
8
Layer 1
10
101.914760
20
121.179107
11
101.737241
21
121.681338
0
LINE
8
Layer 1
10
101.737241
20
121.681338
11
101.308114
21
122.283660
0
LINE
8
Layer 1
10
101.308114
20
122.283660
11
100.794255
21
122.790112
0
LINE
8
Layer 1
10
100.794255
20
122.790112
11
100.362537
21
123.004732
0
LINE
8
Layer 1
10
100.362537
20
123.004732
11
99.911420
21
123.177190
0
LINE
8
Layer 1
10
99.911420
20
123.177190
11
99.392399
21
123.586816
0
LINE
8
Layer 1
10
99.392399
20
123.586816
11
98.746666
21
124.049172
0
LINE
8
Layer 1
10
98.746666
20
124.049172
11
97.990107
21
124.345288
0
LINE
8
Layer 1
10
97.990107
20
124.345288
11
97.355947
21
124.607745
0
LINE
8
Layer 1
10
97.355947
20
124.607745
11
97.152260
21
125.050844
0
LINE
8
Layer 1
10
97.152260
20
125.050844
11
97.222445
21
125.412186
0
LINE
8
Layer 1
10
97.222445
20
125.412186
11
97.478579
21
125.535913
0
LINE
8
Layer 1
10
97.478579
20
125.535913
11
97.478579
21
125.535913
0
LINE
8
Layer 1
10
32.161774
20
124.407024
11
33.640100
21
124.245699
0
LINE
8
Layer 1
10
33.640100
20
124.245699
11
34.054329
21
124.037853
0
LINE
8
Layer 1
10
34.054329
20
124.037853
11
34.199065
21
123.754385
0
LINE
8
Layer 1
10
34.199065
20
123.754385
11
34.373169
21
123.328063
0
LINE
8
Layer 1
10
34.373169
20
123.328063
11
34.799135
21
122.838992
0
LINE
8
Layer 1
10
34.799135
20
122.838992
11
35.321941
21
122.432791
0
LINE
8
Layer 1
10
35.321941
20
122.432791
11
35.786565
21
122.255080
0
LINE
8
Layer 1
10
35.786565
20
122.255080
11
35.975160
21
122.081902
0
LINE
8
Layer 1
10
35.975160
20
122.081902
11
35.954135
21
121.664177
0
LINE
8
Layer 1
10
35.954135
20
121.664177
11
36.001996
21
121.066373
0
LINE
8
Layer 1
10
36.001996
20
121.066373
11
36.421565
21
120.420635
0
LINE
8
Layer 1
10
36.421565
20
120.420635
11
36.895081
21
119.737078
0
LINE
8
Layer 1
10
36.895081
20
119.737078
11
36.518579
21
119.035982
0
LINE
8
Layer 1
10
36.518579
20
119.035982
11
35.801115
21
118.448678
0
LINE
8
Layer 1
10
35.801115
20
118.448678
11
34.798787
21
118.039385
0
LINE
8
Layer 1
10
34.798787
20
118.039385
11
33.543003
21
117.812532
0
LINE
8
Layer 1
10
33.543003
20
117.812532
11
33.275004
21
118.003738
0
LINE
8
Layer 1
10
33.275004
20
118.003738
11
32.946704
21
118.462719
0
LINE
8
Layer 1
10
32.946704
20
118.462719
11
32.619133
21
119.164993
0
LINE
8
Layer 1
10
32.619133
20
119.164993
11
32.770315
21
119.926746
0
LINE
8
Layer 1
10
32.770315
20
119.926746
11
32.891133
21
120.455362
0
LINE
8
Layer 1
10
32.891133
20
120.455362
11
32.783187
21
120.884042
0
LINE
8
Layer 1
10
32.783187
20
120.884042
11
32.430680
21
121.237563
0
LINE
8
Layer 1
10
32.430680
20
121.237563
11
31.817815
21
121.540705
0
LINE
8
Layer 1
10
31.817815
20
121.540705
11
31.659639
21
121.717134
0
LINE
8
Layer 1
10
31.659639
20
121.717134
11
31.853093
21
122.025774
0
LINE
8
Layer 1
10
31.853093
20
122.025774
11
32.199407
21
122.548782
0
LINE
8
Layer 1
10
32.199407
20
122.548782
11
32.191778
21
123.001875
0
LINE
8
Layer 1
10
32.191778
20
123.001875
11
31.842827
21
123.354974
0
LINE
8
Layer 1
10
31.842827
20
123.354974
11
31.165176
21
123.577996
0
LINE
8
Layer 1
10
31.165176
20
123.577996
11
29.700829
21
123.986121
0
LINE
8
Layer 1
10
29.700829
20
123.986121
11
29.941467
21
124.151110
0
LINE
8
Layer 1
10
29.941467
20
124.151110
11
30.821218
21
124.310010
0
LINE
8
Layer 1
10
30.821218
20
124.310010
11
32.161774
21
124.407024
0
LINE
8
Layer 1
10
32.161774
20
124.407024
11
32.161774
21
124.407024
0
LINE
8
Layer 1
10
27.072956
20
124.301191
11
27.720324
21
124.241044
0
LINE
8
Layer 1
10
27.720324
20
124.241044
11
27.998998
21
124.036607
0
LINE
8
Layer 1
10
27.998998
20
124.036607
11
28.154694
21
123.617524
0
LINE
8
Layer 1
10
28.154694
20
123.617524
11
28.570610
21
123.245981
0
LINE
8
Layer 1
10
28.570610
20
123.245981
11
29.157125
21
122.978709
0
LINE
8
Layer 1
10
29.157125
20
122.978709
11
29.824621
21
122.872441
0
LINE
8
Layer 1
10
29.824621
20
122.872441
11
30.461108
21
122.800995
0
LINE
8
Layer 1
10
30.461108
20
122.800995
11
30.877463
21
122.629733
0
LINE
8
Layer 1
10
30.877463
20
122.629733
11
31.014341
21
122.401231
0
LINE
8
Layer 1
10
31.014341
20
122.401231
11
30.812399
21
122.158066
0
LINE
8
Layer 1
10
30.812399
20
122.158066
11
30.547381
21
121.857834
0
LINE
8
Layer 1
10
30.547381
20
121.857834
11
30.564686
21
121.486536
0
LINE
8
Layer 1
10
30.564686
20
121.486536
11
30.846958
21
121.091610
0
LINE
8
Layer 1
10
30.846958
20
121.091610
11
31.376843
21
120.720496
0
LINE
8
Layer 1
10
31.376843
20
120.720496
11
32.050876
21
120.216900
0
LINE
8
Layer 1
10
32.050876
20
120.216900
11
32.064760
21
119.556330
0
LINE
8
Layer 1
10
32.064760
20
119.556330
11
32.009417
21
118.954797
0
LINE
8
Layer 1
10
32.009417
20
118.954797
11
32.144135
21
118.506816
0
LINE
8
Layer 1
10
32.144135
20
118.506816
11
32.292800
21
118.179159
0
LINE
8
Layer 1
10
32.292800
20
118.179159
11
32.175966
21
117.839757
0
LINE
8
Layer 1
10
32.175966
20
117.839757
11
31.032885
21
116.972232
0
LINE
8
Layer 1
10
31.032885
20
116.972232
11
29.859899
21
116.381330
0
LINE
8
Layer 1
10
29.859899
20
116.381330
11
28.962990
21
117.896036
0
LINE
8
Layer 1
10
28.962990
20
117.896036
11
28.237121
21
119.750357
0
LINE
8
Layer 1
10
28.237121
20
119.750357
11
27.948532
21
120.163185
0
LINE
8
Layer 1
10
27.948532
20
120.163185
11
27.249345
21
120.685219
0
LINE
8
Layer 1
10
27.249345
20
120.685219
11
26.453234
21
121.294091
0
LINE
8
Layer 1
10
26.453234
20
121.294091
11
26.469739
21
121.564498
0
LINE
8
Layer 1
10
26.469739
20
121.564498
11
26.702539
21
121.955219
0
LINE
8
Layer 1
10
26.702539
20
121.955219
11
26.988937
21
122.627484
0
LINE
8
Layer 1
10
26.988937
20
122.627484
11
26.482053
21
123.313413
0
LINE
8
Layer 1
10
26.482053
20
123.313413
11
26.021253
21
123.897535
0
LINE
8
Layer 1
10
26.021253
20
123.897535
11
26.041679
21
124.053120
0
LINE
8
Layer 1
10
26.041679
20
124.053120
11
26.217470
21
124.160080
0
LINE
8
Layer 1
10
26.217470
20
124.160080
11
27.072956
21
124.301191
0
LINE
8
Layer 1
10
27.072956
20
124.301191
11
27.072956
21
124.301191
0
LINE
8
Layer 1
10
34.913440
20
124.212996
11
35.742468
21
124.212996
0
LINE
8
Layer 1
10
35.742468
20
124.212996
11
37.435801
21
123.930774
0
LINE
8
Layer 1
10
37.435801
20
123.930774
11
39.067399
21
123.489802
0
LINE
8
Layer 1
10
39.067399
20
123.489802
11
39.641764
21
123.236154
0
LINE
8
Layer 1
10
39.641764
20
123.236154
11
39.834690
21
122.810705
0
LINE
8
Layer 1
10
39.834690
20
122.810705
11
39.996081
21
122.295016
0
LINE
8
Layer 1
10
39.996081
20
122.295016
11
40.390315
21
121.778830
0
LINE
8
Layer 1
10
40.390315
20
121.778830
11
40.785916
21
121.176825
0
LINE
8
Layer 1
10
40.785916
20
121.176825
11
40.945940
21
120.455913
0
LINE
8
Layer 1
10
40.945940
20
120.455913
11
41.043013
21
119.883532
0
LINE
8
Layer 1
10
41.043013
20
119.883532
11
41.289899
21
119.635705
0
LINE
8
Layer 1
10
41.289899
20
119.635705
11
41.373666
21
119.553082
0
LINE
8
Layer 1
10
41.373666
20
119.553082
11
41.078232
21
119.388760
0
LINE
8
Layer 1
10
41.078232
20
119.388760
11
39.164412
21
118.983066
0
LINE
8
Layer 1
10
39.164412
20
118.983066
11
38.009631
21
118.924963
0
LINE
8
Layer 1
10
38.009631
20
118.924963
11
37.855476
21
119.116507
0
LINE
8
Layer 1
10
37.855476
20
119.116507
11
37.832676
21
119.512232
0
LINE
8
Layer 1
10
37.832676
20
119.512232
11
37.662344
21
120.146395
0
LINE
8
Layer 1
10
37.662344
20
120.146395
11
37.215315
21
120.667580
0
LINE
8
Layer 1
10
37.215315
20
120.667580
11
36.753662
21
121.144894
0
LINE
8
Layer 1
10
36.753662
20
121.144894
11
36.977190
21
121.734732
0
LINE
8
Layer 1
10
36.977190
20
121.734732
11
37.202535
21
122.317498
0
LINE
8
Layer 1
10
37.202535
20
122.317498
11
36.756704
21
122.784246
0
LINE
8
Layer 1
10
36.756704
20
122.784246
11
35.530801
21
123.727927
0
LINE
8
Layer 1
10
35.530801
20
123.727927
11
34.913440
21
124.212996
0
LINE
8
Layer 1
10
34.913440
20
124.212996
11
34.913440
21
124.212996
0
LINE
8
Layer 1
10
24.215456
20
123.683830
11
24.615171
21
123.550233
0
LINE
8
Layer 1
10
24.615171
20
123.550233
11
25.123859
21
123.198760
0
LINE
8
Layer 1
10
25.123859
20
123.198760
11
25.772045
21
122.543047
0
LINE
8
Layer 1
10
25.772045
20
122.543047
11
25.801279
21
122.233711
0
LINE
8
Layer 1
10
25.801279
20
122.233711
11
25.679484
21
121.831746
0
LINE
8
Layer 1
10
25.679484
20
121.831746
11
25.572312
21
121.146175
0
LINE
8
Layer 1
10
25.572312
20
121.146175
11
26.049900
21
120.597024
0
LINE
8
Layer 1
10
26.049900
20
120.597024
11
27.037678
21
120.076677
0
LINE
8
Layer 1
10
27.037678
20
120.076677
11
27.283735
21
119.884740
0
LINE
8
Layer 1
10
27.283735
20
119.884740
11
27.381637
21
119.432857
0
LINE
8
Layer 1
10
27.381637
20
119.432857
11
27.590849
21
118.665934
0
LINE
8
Layer 1
10
27.590849
20
118.665934
11
28.096012
21
117.721885
0
LINE
8
Layer 1
10
28.096012
20
117.721885
11
28.539405
21
116.864680
0
LINE
8
Layer 1
10
28.539405
20
116.864680
11
28.617222
21
116.167964
0
LINE
8
Layer 1
10
28.617222
20
116.167964
11
28.328601
21
115.619823
0
LINE
8
Layer 1
10
28.328601
20
115.619823
11
27.672678
21
115.208344
0
LINE
8
Layer 1
10
27.672678
20
115.208344
11
26.473234
21
114.529246
0
LINE
8
Layer 1
10
26.473234
20
114.529246
11
26.008349
21
114.313928
0
LINE
8
Layer 1
10
26.008349
20
114.313928
11
25.485456
21
114.573344
0
LINE
8
Layer 1
10
25.485456
20
114.573344
11
25.185886
21
114.823751
0
LINE
8
Layer 1
10
25.185886
20
114.823751
11
25.086981
21
115.058132
0
LINE
8
Layer 1
10
25.086981
20
115.058132
11
25.494275
21
115.984455
0
LINE
8
Layer 1
10
25.494275
20
115.984455
11
25.926428
21
117.069246
0
LINE
8
Layer 1
10
25.926428
20
117.069246
11
24.965109
21
117.448482
0
LINE
8
Layer 1
10
24.965109
20
117.448482
11
24.384245
21
117.777879
0
LINE
8
Layer 1
10
24.384245
20
117.777879
11
24.241914
21
118.154038
0
LINE
8
Layer 1
10
24.241914
20
118.154038
11
24.465571
21
119.057783
0
LINE
8
Layer 1
10
24.465571
20
119.057783
11
24.454487
21
119.622024
0
LINE
8
Layer 1
10
24.454487
20
119.622024
11
24.147499
21
120.040969
0
LINE
8
Layer 1
10
24.147499
20
120.040969
11
23.483442
21
120.508830
0
LINE
8
Layer 1
10
23.483442
20
120.508830
11
22.530162
21
121.034115
0
LINE
8
Layer 1
10
22.530162
20
121.034115
11
21.843025
21
121.258482
0
LINE
8
Layer 1
10
21.843025
20
121.258482
11
21.527984
21
121.315138
0
LINE
8
Layer 1
10
21.527984
20
121.315138
11
21.728373
21
121.505427
0
LINE
8
Layer 1
10
21.728373
20
121.505427
11
21.961980
21
121.839178
0
LINE
8
Layer 1
10
21.961980
20
121.839178
11
21.940039
21
122.325635
0
LINE
8
Layer 1
10
21.940039
20
122.325635
11
21.897975
21
122.636104
0
LINE
8
Layer 1
10
21.897975
20
122.636104
11
22.027915
21
122.879903
0
LINE
8
Layer 1
10
22.027915
20
122.879903
11
23.016012
21
123.366330
0
LINE
8
Layer 1
10
23.016012
20
123.366330
11
24.215456
21
123.683830
0
LINE
8
Layer 1
10
24.215456
20
123.683830
11
24.215456
21
123.683830
0
LINE
8
Layer 1
10
96.570176
20
123.666191
11
96.720107
21
123.622094
0
LINE
8
Layer 1
10
96.720107
20
123.622094
11
97.769621
21
123.207580
0
LINE
8
Layer 1
10
97.769621
20
123.207580
11
98.318215
21
122.948542
0
LINE
8
Layer 1
10
98.318215
20
122.948542
11
98.545732
21
122.599038
0
LINE
8
Layer 1
10
98.545732
20
122.599038
11
98.628769
21
122.347132
0
LINE
8
Layer 1
10
98.628769
20
122.347132
11
98.921462
21
122.148708
0
LINE
8
Layer 1
10
98.921462
20
122.148708
11
100.362537
21
121.814107
0
LINE
8
Layer 1
10
100.362537
20
121.814107
11
100.841262
21
121.474844
0
LINE
8
Layer 1
10
100.841262
20
121.474844
11
101.138649
21
120.535288
0
LINE
8
Layer 1
10
101.138649
20
120.535288
11
101.289087
21
119.885185
0
LINE
8
Layer 1
10
101.289087
20
119.885185
11
101.492945
21
119.500983
0
LINE
8
Layer 1
10
101.492945
20
119.500983
11
101.837154
21
119.285565
0
LINE
8
Layer 1
10
101.837154
20
119.285565
11
102.408649
21
119.141816
0
LINE
8
Layer 1
10
102.408649
20
119.141816
11
103.249001
21
118.838495
0
LINE
8
Layer 1
10
103.249001
20
118.838495
11
103.810940
21
118.400982
0
LINE
8
Layer 1
10
103.810940
20
118.400982
11
104.146828
21
118.078954
0
LINE
8
Layer 1
10
104.146828
20
118.078954
11
104.437121
21
118.039385
0
LINE
8
Layer 1
10
104.437121
20
118.039385
11
104.699447
21
117.931532
0
LINE
8
Layer 1
10
104.699447
20
117.931532
11
104.874585
21
117.356055
0
LINE
8
Layer 1
10
104.874585
20
117.356055
11
104.860454
21
115.446469
0
LINE
8
Layer 1
10
104.860454
20
115.446469
11
104.296010
21
113.488552
0
LINE
8
Layer 1
10
104.296010
20
113.488552
11
103.910722
21
112.956778
0
LINE
8
Layer 1
10
103.910722
20
112.956778
11
103.484621
21
113.294524
0
LINE
8
Layer 1
10
103.484621
20
113.294524
11
102.867260
21
114.564524
0
LINE
8
Layer 1
10
102.867260
20
114.564524
11
102.581543
21
115.154888
0
LINE
8
Layer 1
10
102.581543
20
115.154888
11
102.135246
21
115.508205
0
LINE
8
Layer 1
10
102.135246
20
115.508205
11
101.694812
21
115.861552
0
LINE
8
Layer 1
10
101.694812
20
115.861552
11
101.420871
21
116.451885
0
LINE
8
Layer 1
10
101.420871
20
116.451885
11
101.023847
21
117.722118
0
LINE
8
Layer 1
10
101.023847
20
117.722118
11
100.709452
21
117.959591
0
LINE
8
Layer 1
10
100.709452
20
117.959591
11
100.194968
21
118.101121
0
LINE
8
Layer 1
10
100.194968
20
118.101121
11
99.506966
21
118.401604
0
LINE
8
Layer 1
10
99.506966
20
118.401604
11
99.357121
21
119.097719
0
LINE
8
Layer 1
10
99.357121
20
119.097719
11
99.214554
21
119.800631
0
LINE
8
Layer 1
10
99.214554
20
119.800631
11
98.829408
21
120.427460
0
LINE
8
Layer 1
10
98.829408
20
120.427460
11
98.286990
21
120.878898
0
LINE
8
Layer 1
10
98.286990
20
120.878898
11
97.672607
21
121.055635
0
LINE
8
Layer 1
10
97.672607
20
121.055635
11
97.026218
21
121.236738
0
LINE
8
Layer 1
10
97.026218
20
121.236738
11
96.287954
21
121.664177
0
LINE
8
Layer 1
10
96.287954
20
121.664177
11
95.662562
21
122.291655
0
LINE
8
Layer 1
10
95.662562
20
122.291655
11
95.711624
21
122.596629
0
LINE
8
Layer 1
10
95.711624
20
122.596629
11
95.961635
21
123.057649
0
LINE
8
Layer 1
10
95.961635
20
123.057649
11
96.278607
21
123.480864
0
LINE
8
Layer 1
10
96.278607
20
123.480864
11
96.570176
21
123.666191
0
LINE
8
Layer 1
10
96.570176
20
123.666191
11
96.570176
21
123.666191
0
LINE
8
Layer 1
10
40.840107
20
122.704871
11
41.651496
21
122.369732
0
LINE
8
Layer 1
10
41.651496
20
122.369732
11
42.745107
21
121.893482
0
LINE
8
Layer 1
10
42.745107
20
121.893482
11
43.307756
21
121.555956
0
LINE
8
Layer 1
10
43.307756
20
121.555956
11
44.119024
21
120.783592
0
LINE
8
Layer 1
10
44.119024
20
120.783592
11
44.847465
21
119.926764
0
LINE
8
Layer 1
10
44.847465
20
119.926764
11
45.161635
21
119.335844
0
LINE
8
Layer 1
10
45.161635
20
119.335844
11
45.091079
21
119.088899
0
LINE
8
Layer 1
10
45.091079
20
119.088899
11
44.173857
21
119.309385
0
LINE
8
Layer 1
10
44.173857
20
119.309385
11
43.274428
21
119.601946
0
LINE
8
Layer 1
10
43.274428
20
119.601946
11
42.608840
21
120.015747
0
LINE
8
Layer 1
10
42.608840
20
120.015747
11
42.234077
21
120.501906
0
LINE
8
Layer 1
10
42.234077
20
120.501906
11
42.207121
21
121.011538
0
LINE
8
Layer 1
10
42.207121
20
121.011538
11
42.177360
21
121.562758
0
LINE
8
Layer 1
10
42.177360
20
121.562758
11
41.519204
21
122.052232
0
LINE
8
Layer 1
10
41.519204
20
122.052232
11
40.938138
21
122.429435
0
LINE
8
Layer 1
10
40.938138
20
122.429435
11
40.787190
21
122.678413
0
LINE
8
Layer 1
10
40.787190
20
122.678413
11
40.840107
21
122.704871
0
LINE
8
Layer 1
10
40.840107
20
122.704871
11
40.840107
21
122.704871
0
LINE
8
Layer 1
10
19.946845
20
122.122788
11
20.229067
21
122.122788
0
LINE
8
Layer 1
10
20.229067
20
122.122788
11
20.698685
21
122.037299
0
LINE
8
Layer 1
10
20.698685
20
122.037299
11
20.767053
21
121.822927
0
LINE
8
Layer 1
10
20.767053
20
121.822927
11
20.725373
21
121.313299
0
LINE
8
Layer 1
10
20.725373
20
121.313299
11
21.095500
21
120.764966
0
LINE
8
Layer 1
10
21.095500
20
120.764966
11
21.762220
21
120.291411
0
LINE
8
Layer 1
10
21.762220
20
120.291411
11
22.610317
21
120.006121
0
LINE
8
Layer 1
10
22.610317
20
120.006121
11
23.561362
21
119.737643
0
LINE
8
Layer 1
10
23.561362
20
119.737643
11
23.666110
21
119.523537
0
LINE
8
Layer 1
10
23.666110
20
119.523537
11
23.606914
21
119.185913
0
LINE
8
Layer 1
10
23.606914
20
119.185913
11
23.225050
21
117.472105
0
LINE
8
Layer 1
10
23.225050
20
117.472105
11
23.429035
21
117.165880
0
LINE
8
Layer 1
10
23.429035
20
117.165880
11
23.942053
21
116.919316
0
LINE
8
Layer 1
10
23.942053
20
116.919316
11
24.624879
21
116.503087
0
LINE
8
Layer 1
10
24.624879
20
116.503087
11
24.585281
21
116.263141
0
LINE
8
Layer 1
10
24.585281
20
116.263141
11
24.338928
21
115.887441
0
LINE
8
Layer 1
10
24.338928
20
115.887441
11
24.020644
21
115.218998
0
LINE
8
Layer 1
10
24.020644
20
115.218998
11
24.321289
21
114.476330
0
LINE
8
Layer 1
10
24.321289
20
114.476330
11
24.571153
21
113.862179
0
LINE
8
Layer 1
10
24.571153
20
113.862179
11
24.559414
21
113.444455
0
LINE
8
Layer 1
10
24.559414
20
113.444455
11
23.993541
21
112.868932
0
LINE
8
Layer 1
10
23.993541
20
112.868932
11
23.214024
21
112.326558
0
LINE
8
Layer 1
10
23.214024
20
112.326558
11
22.463382
21
111.961691
0
LINE
8
Layer 1
10
22.463382
20
111.961691
11
21.984137
21
111.918691
0
LINE
8
Layer 1
10
21.984137
20
111.918691
11
21.753097
21
112.312779
0
LINE
8
Layer 1
10
21.753097
20
112.312779
11
22.001775
21
113.223969
0
LINE
8
Layer 1
10
22.001775
20
113.223969
11
22.218601
21
114.034015
0
LINE
8
Layer 1
10
22.218601
20
114.034015
11
22.116428
21
114.388135
0
LINE
8
Layer 1
10
22.116428
20
114.388135
11
21.335763
21
114.761916
0
LINE
8
Layer 1
10
21.335763
20
114.761916
11
20.669942
21
115.268972
0
LINE
8
Layer 1
10
20.669942
20
115.268972
11
20.180558
21
115.851548
0
LINE
8
Layer 1
10
20.180558
20
115.851548
11
19.929206
21
116.451885
0
LINE
8
Layer 1
10
19.929206
20
116.451885
11
19.565642
21
117.268267
0
LINE
8
Layer 1
10
19.565642
20
117.268267
11
18.782678
21
117.933552
0
LINE
8
Layer 1
10
18.782678
20
117.933552
11
17.997867
21
118.533340
0
LINE
8
Layer 1
10
17.997867
20
118.533340
11
18.017748
21
118.801940
0
LINE
8
Layer 1
10
18.017748
20
118.801940
11
18.253512
21
119.194732
0
LINE
8
Layer 1
10
18.253512
20
119.194732
11
18.522469
21
119.771568
0
LINE
8
Layer 1
10
18.522469
20
119.771568
11
18.537447
21
120.262945
0
LINE
8
Layer 1
10
18.537447
20
120.262945
11
18.313444
21
120.606067
0
LINE
8
Layer 1
10
18.313444
20
120.606067
11
17.865456
21
120.738135
0
LINE
8
Layer 1
10
17.865456
20
120.738135
11
17.348952
21
120.806954
0
LINE
8
Layer 1
10
17.348952
20
120.806954
11
17.168325
21
120.988967
0
LINE
8
Layer 1
10
17.168325
20
120.988967
11
17.325240
21
121.268255
0
LINE
8
Layer 1
10
17.325240
20
121.268255
11
17.821359
21
121.628899
0
LINE
8
Layer 1
10
17.821359
20
121.628899
11
18.814285
21
121.980506
0
LINE
8
Layer 1
10
18.814285
20
121.980506
11
19.946845
21
122.122788
0
LINE
8
Layer 1
10
19.946845
20
122.122788
11
19.946845
21
122.122788
0
LINE
8
Layer 1
10
95.291357
20
121.046816
11
95.589477
21
120.879889
0
LINE
8
Layer 1
10
95.589477
20
120.879889
11
95.846982
21
120.438274
0
LINE
8
Layer 1
10
95.846982
20
120.438274
11
96.266933
21
119.939756
0
LINE
8
Layer 1
10
96.266933
20
119.939756
11
97.152260
21
119.873830
0
LINE
8
Layer 1
10
97.152260
20
119.873830
11
97.889830
21
119.808929
0
LINE
8
Layer 1
10
97.889830
20
119.808929
11
98.318104
21
119.497536
0
LINE
8
Layer 1
10
98.318104
20
119.497536
11
98.434654
21
118.944342
0
LINE
8
Layer 1
10
98.434654
20
118.944342
11
98.237051
21
118.154038
0
LINE
8
Layer 1
10
98.237051
20
118.154038
11
98.108682
21
117.751789
0
LINE
8
Layer 1
10
98.108682
20
117.751789
11
98.177358
21
117.516908
0
LINE
8
Layer 1
10
98.177358
20
117.516908
11
99.224829
21
117.245635
0
LINE
8
Layer 1
10
99.224829
20
117.245635
11
100.299485
21
116.931894
0
LINE
8
Layer 1
10
100.299485
20
116.931894
11
100.520154
21
116.647681
0
LINE
8
Layer 1
10
100.520154
20
116.647681
11
100.644760
21
116.196121
0
LINE
8
Layer 1
10
100.644760
20
116.196121
11
100.921120
21
115.486933
0
LINE
8
Layer 1
10
100.921120
20
115.486933
11
101.359135
21
114.961399
0
LINE
8
Layer 1
10
101.359135
20
114.961399
11
101.750473
21
114.479711
0
LINE
8
Layer 1
10
101.750473
20
114.479711
11
101.711912
21
113.744316
0
LINE
8
Layer 1
10
101.711912
20
113.744316
11
101.663323
21
113.042833
0
LINE
8
Layer 1
10
101.663323
20
113.042833
11
102.055871
21
112.756538
0
LINE
8
Layer 1
10
102.055871
20
112.756538
11
102.564139
21
112.391781
0
LINE
8
Layer 1
10
102.564139
20
112.391781
11
102.747589
21
111.722924
0
LINE
8
Layer 1
10
102.747589
20
111.722924
11
102.602819
21
110.841065
0
LINE
8
Layer 1
10
102.602819
20
110.841065
11
102.126426
21
109.837302
0
LINE
8
Layer 1
10
102.126426
20
109.837302
11
101.113703
21
108.567999
0
LINE
8
Layer 1
10
101.113703
20
108.567999
11
100.780960
21
108.487623
0
LINE
8
Layer 1
10
100.780960
20
108.487623
11
100.556565
21
108.770149
0
LINE
8
Layer 1
10
100.556565
20
108.770149
11
100.319001
21
109.060464
0
LINE
8
Layer 1
10
100.319001
20
109.060464
11
99.965662
21
109.184663
0
LINE
8
Layer 1
10
99.965662
20
109.184663
11
99.650417
21
109.369222
0
LINE
8
Layer 1
10
99.650417
20
109.369222
11
99.542329
21
109.881399
0
LINE
8
Layer 1
10
99.542329
20
109.881399
11
99.358887
21
110.524124
0
LINE
8
Layer 1
10
99.358887
20
110.524124
11
98.836774
21
111.063205
0
LINE
8
Layer 1
10
98.836774
20
111.063205
11
98.302489
21
111.599119
0
LINE
8
Layer 1
10
98.302489
20
111.599119
11
98.307607
21
112.315566
0
LINE
8
Layer 1
10
98.307607
20
112.315566
11
98.306496
21
113.054351
0
LINE
8
Layer 1
10
98.306496
20
113.054351
11
97.848996
21
113.691399
0
LINE
8
Layer 1
10
97.848996
20
113.691399
11
97.380617
21
114.298332
0
LINE
8
Layer 1
10
97.380617
20
114.298332
11
97.134621
21
114.917302
0
LINE
8
Layer 1
10
97.134621
20
114.917302
11
96.927514
21
115.652255
0
LINE
8
Layer 1
10
96.927514
20
115.652255
11
96.548104
21
116.253719
0
LINE
8
Layer 1
10
96.548104
20
116.253719
11
96.020980
21
116.694093
0
LINE
8
Layer 1
10
96.020980
20
116.694093
11
95.370732
21
116.945774
0
LINE
8
Layer 1
10
95.370732
20
116.945774
11
94.667680
21
117.217954
0
LINE
8
Layer 1
10
94.667680
20
117.217954
11
94.638718
21
117.774802
0
LINE
8
Layer 1
10
94.638718
20
117.774802
11
94.706022
21
118.290510
0
LINE
8
Layer 1
10
94.706022
20
118.290510
11
94.610423
21
118.696278
0
LINE
8
Layer 1
10
94.610423
20
118.696278
11
94.352582
21
118.987470
0
LINE
8
Layer 1
10
94.352582
20
118.987470
11
93.933162
21
119.159455
0
LINE
8
Layer 1
10
93.933162
20
119.159455
11
93.698084
21
119.245263
0
LINE
8
Layer 1
10
93.698084
20
119.245263
11
93.649058
21
119.401214
0
LINE
8
Layer 1
10
93.649058
20
119.401214
11
94.171287
21
120.173691
0
LINE
8
Layer 1
10
94.171287
20
120.173691
11
94.744664
21
120.790858
0
LINE
8
Layer 1
10
94.744664
20
120.790858
11
95.194343
21
121.037996
0
LINE
8
Layer 1
10
95.194343
20
121.037996
11
95.291357
21
121.046816
0
LINE
8
Layer 1
10
95.291357
20
121.046816
11
95.291357
21
121.046816
0
LINE
8
Layer 1
10
15.572400
20
120.305982
11
16.445525
21
120.129594
0
LINE
8
Layer 1
10
16.445525
20
120.129594
11
17.420831
21
119.707690
0
LINE
8
Layer 1
10
17.420831
20
119.707690
11
17.418650
21
119.486522
0
LINE
8
Layer 1
10
17.418650
20
119.486522
11
17.195178
21
119.115357
0
LINE
8
Layer 1
10
17.195178
20
119.115357
11
16.975132
21
118.578331
0
LINE
8
Layer 1
10
16.975132
20
118.578331
11
17.055655
21
118.099748
0
LINE
8
Layer 1
10
17.055655
20
118.099748
11
17.448475
21
117.657130
0
LINE
8
Layer 1
10
17.448475
20
117.657130
11
18.165317
21
117.227996
0
LINE
8
Layer 1
10
18.165317
20
117.227996
11
18.959460
21
116.671869
0
LINE
8
Layer 1
10
18.959460
20
116.671869
11
19.320664
21
115.975635
0
LINE
8
Layer 1
10
19.320664
20
115.975635
11
19.831835
21
114.417390
0
LINE
8
Layer 1
10
19.831835
20
114.417390
11
20.160601
21
114.055960
0
LINE
8
Layer 1
10
20.160601
20
114.055960
11
20.555387
21
113.938344
0
LINE
8
Layer 1
10
20.555387
20
113.938344
11
20.930033
21
113.904436
0
LINE
8
Layer 1
10
20.930033
20
113.904436
11
21.089760
21
113.780093
0
LINE
8
Layer 1
10
21.089760
20
113.780093
11
20.828789
21
113.065219
0
LINE
8
Layer 1
10
20.828789
20
113.065219
11
20.681142
21
112.525345
0
LINE
8
Layer 1
10
20.681142
20
112.525345
11
20.872887
21
111.971607
0
LINE
8
Layer 1
10
20.872887
20
111.971607
11
21.033089
21
111.384003
0
LINE
8
Layer 1
10
21.033089
20
111.384003
11
20.537748
21
110.701607
0
LINE
8
Layer 1
10
20.537748
20
110.701607
11
19.895505
21
110.124779
0
LINE
8
Layer 1
10
19.895505
20
110.124779
11
19.643007
21
110.048152
0
LINE
8
Layer 1
10
19.643007
20
110.048152
11
19.400918
21
110.138409
0
LINE
8
Layer 1
10
19.400918
20
110.138409
11
18.841951
21
110.896659
0
LINE
8
Layer 1
10
18.841951
20
110.896659
11
18.006567
21
112.553691
0
LINE
8
Layer 1
10
18.006567
20
112.553691
11
16.454345
21
115.296538
0
LINE
8
Layer 1
10
16.454345
20
115.296538
11
15.784067
21
116.398969
0
LINE
8
Layer 1
10
15.784067
20
116.398969
11
14.955039
21
117.986469
0
LINE
8
Layer 1
10
14.955039
20
117.986469
11
14.385251
21
118.974203
0
LINE
8
Layer 1
10
14.385251
20
118.974203
11
14.180065
21
119.543660
0
LINE
8
Layer 1
10
14.180065
20
119.543660
11
14.329294
21
119.872507
0
LINE
8
Layer 1
10
14.329294
20
119.872507
11
14.822748
21
120.138413
0
LINE
8
Layer 1
10
14.822748
20
120.138413
11
15.572400
21
120.305982
0
LINE
8
Layer 1
10
15.572400
20
120.305982
11
15.572400
21
120.305982
0
LINE
8
Layer 1
10
105.812954
20
119.000705
11
106.659621
21
118.991885
0
LINE
8
Layer 1
10
106.659621
20
118.991885
11
109.536138
21
118.515230
0
LINE
8
Layer 1
10
109.536138
20
118.515230
11
112.877329
21
117.527857
0
LINE
8
Layer 1
10
112.877329
20
117.527857
11
114.335205
21
116.762542
0
LINE
8
Layer 1
10
114.335205
20
116.762542
11
115.681912
21
115.728691
0
LINE
8
Layer 1
10
115.681912
20
115.728691
11
119.500732
21
112.006885
0
LINE
8
Layer 1
10
119.500732
20
112.006885
11
122.296496
21
109.502163
0
LINE
8
Layer 1
10
122.296496
20
109.502163
11
124.915871
21
109.228760
0
LINE
8
Layer 1
10
124.915871
20
109.228760
11
126.906177
21
109.134172
0
LINE
8
Layer 1
10
126.906177
20
109.134172
11
128.631276
21
109.286744
0
LINE
8
Layer 1
10
128.631276
20
109.286744
11
130.026641
21
109.674907
0
LINE
8
Layer 1
10
130.026641
20
109.674907
11
131.027746
21
110.287094
0
LINE
8
Layer 1
10
131.027746
20
110.287094
11
131.654380
21
111.152916
0
LINE
8
Layer 1
10
131.654380
20
111.152916
11
132.200732
21
112.350844
0
LINE
8
Layer 1
10
132.200732
20
112.350844
11
133.065509
21
114.303768
0
LINE
8
Layer 1
10
133.065509
20
114.303768
11
134.065042
21
115.695756
0
LINE
8
Layer 1
10
134.065042
20
115.695756
11
134.565808
21
116.129638
0
LINE
8
Layer 1
10
134.565808
20
116.129638
11
135.040823
21
116.361173
0
LINE
8
Layer 1
10
135.040823
20
116.361173
11
135.470272
21
116.369657
0
LINE
8
Layer 1
10
135.470272
20
116.369657
11
135.834343
21
116.134385
0
LINE
8
Layer 1
10
135.834343
20
116.134385
11
136.522260
21
114.529246
0
LINE
8
Layer 1
10
136.522260
20
114.529246
11
136.770862
21
113.864456
0
LINE
8
Layer 1
10
136.770862
20
113.864456
11
137.117919
21
113.401640
0
LINE
8
Layer 1
10
137.117919
20
113.401640
11
137.590350
21
113.142654
0
LINE
8
Layer 1
10
137.590350
20
113.142654
11
138.215072
21
113.089357
0
LINE
8
Layer 1
10
138.215072
20
113.089357
11
140.029065
21
113.607262
0
LINE
8
Layer 1
10
140.029065
20
113.607262
11
142.775246
21
114.970219
0
LINE
8
Layer 1
10
142.775246
20
114.970219
11
144.598566
21
115.871687
0
LINE
8
Layer 1
10
144.598566
20
115.871687
11
146.099165
21
116.359507
0
LINE
8
Layer 1
10
146.099165
20
116.359507
11
147.520894
21
116.487821
0
LINE
8
Layer 1
10
147.520894
20
116.487821
11
149.107607
21
116.310774
0
LINE
8
Layer 1
10
149.107607
20
116.310774
11
151.261126
21
115.705264
0
LINE
8
Layer 1
10
151.261126
20
115.705264
11
153.059668
21
114.769131
0
LINE
8
Layer 1
10
153.059668
20
114.769131
11
154.350617
21
113.605017
0
LINE
8
Layer 1
10
154.350617
20
113.605017
11
154.758052
21
112.969544
0
LINE
8
Layer 1
10
154.758052
20
112.969544
11
154.981357
21
112.315566
0
LINE
8
Layer 1
10
154.981357
20
112.315566
11
154.876105
21
111.093365
0
LINE
8
Layer 1
10
154.876105
20
111.093365
11
154.375592
21
109.175833
0
LINE
8
Layer 1
10
154.375592
20
109.175833
11
153.615723
21
107.006952
0
LINE
8
Layer 1
10
153.615723
20
107.006952
11
152.732399
21
105.030705
0
LINE
8
Layer 1
10
152.732399
20
105.030705
11
152.066793
21
103.937041
0
LINE
8
Layer 1
10
152.066793
20
103.937041
11
151.212653
21
102.838397
0
LINE
8
Layer 1
10
151.212653
20
102.838397
11
149.032838
21
100.704193
0
LINE
8
Layer 1
10
149.032838
20
100.704193
11
146.381084
21
98.784148
0
LINE
8
Layer 1
10
146.381084
20
98.784148
11
143.445524
21
97.234316
0
LINE
8
Layer 1
10
143.445524
20
97.234316
11
141.387346
21
96.514970
0
LINE
8
Layer 1
10
141.387346
20
96.514970
11
138.630107
21
95.743830
0
LINE
8
Layer 1
10
138.630107
20
95.743830
11
135.319451
21
95.095464
0
LINE
8
Layer 1
10
135.319451
20
95.095464
11
131.847954
21
94.879524
0
LINE
8
Layer 1
10
131.847954
20
94.879524
11
128.429395
21
94.935641
0
LINE
8
Layer 1
10
128.429395
20
94.935641
11
125.528281
21
95.277980
0
LINE
8
Layer 1
10
125.528281
20
95.277980
11
122.872178
21
95.956872
0
LINE
8
Layer 1
10
122.872178
20
95.956872
11
120.188649
21
97.022649
0
LINE
8
Layer 1
10
120.188649
20
97.022649
11
117.207676
21
98.398482
0
LINE
8
Layer 1
10
117.207676
20
98.398482
11
116.096426
21
100.673899
0
LINE
8
Layer 1
10
116.096426
20
100.673899
11
114.211840
21
103.842740
0
LINE
8
Layer 1
10
114.211840
20
103.842740
11
111.674886
21
107.136666
0
LINE
8
Layer 1
10
111.674886
20
107.136666
11
108.899101
21
110.069937
0
LINE
8
Layer 1
10
108.899101
20
110.069937
11
107.550878
21
111.249534
0
LINE
8
Layer 1
10
107.550878
20
111.249534
11
106.298024
21
112.156816
0
LINE
8
Layer 1
10
106.298024
20
112.156816
11
105.301426
21
112.791816
0
LINE
8
Layer 1
10
105.301426
20
112.791816
11
105.715940
21
114.273482
0
LINE
8
Layer 1
10
105.715940
20
114.273482
11
105.979288
21
115.791185
0
LINE
8
Layer 1
10
105.979288
20
115.791185
11
105.971704
21
117.377927
0
LINE
8
Layer 1
10
105.971704
20
117.377927
11
105.812954
21
119.000705
0
LINE
8
Layer 1
10
105.812954
20
119.000705
11
105.812954
21
119.000705
0
LINE
8
Layer 1
10
93.368718
20
118.233413
11
93.650987
21
118.110027
0
LINE
8
Layer 1
10
93.650987
20
118.110027
11
93.642121
21
117.545496
0
LINE
8
Layer 1
10
93.642121
20
117.545496
11
93.726067
21
116.822515
0
LINE
8
Layer 1
10
93.726067
20
116.822515
11
94.382954
21
116.337232
0
LINE
8
Layer 1
10
94.382954
20
116.337232
11
95.239940
21
115.862242
0
LINE
8
Layer 1
10
95.239940
20
115.862242
11
95.756849
21
115.409621
0
LINE
8
Layer 1
10
95.756849
20
115.409621
11
95.985891
21
114.913688
0
LINE
8
Layer 1
10
95.985891
20
114.913688
11
95.979274
21
114.308760
0
LINE
8
Layer 1
10
95.979274
20
114.308760
11
96.007083
21
113.592994
0
LINE
8
Layer 1
10
96.007083
20
113.592994
11
96.596635
21
113.285705
0
LINE
8
Layer 1
10
96.596635
20
113.285705
11
97.003437
21
113.148921
0
LINE
8
Layer 1
10
97.003437
20
113.148921
11
97.203551
21
112.942769
0
LINE
8
Layer 1
10
97.203551
20
112.942769
11
97.152260
21
111.901052
0
LINE
8
Layer 1
10
97.152260
20
111.901052
11
97.110699
21
110.833558
0
LINE
8
Layer 1
10
97.110699
20
110.833558
11
97.334606
21
110.581110
0
LINE
8
Layer 1
10
97.334606
20
110.581110
11
97.787260
21
110.357649
0
LINE
8
Layer 1
10
97.787260
20
110.357649
11
98.411400
21
109.948143
0
LINE
8
Layer 1
10
98.411400
20
109.948143
11
98.483996
21
109.378691
0
LINE
8
Layer 1
10
98.483996
20
109.378691
11
98.550948
21
108.807169
0
LINE
8
Layer 1
10
98.550948
20
108.807169
11
99.074899
21
108.364455
0
LINE
8
Layer 1
10
99.074899
20
108.364455
11
99.474762
21
108.123664
0
LINE
8
Layer 1
10
99.474762
20
108.123664
11
99.631528
21
107.908220
0
LINE
8
Layer 1
10
99.631528
20
107.908220
11
99.295385
21
107.120913
0
LINE
8
Layer 1
10
99.295385
20
107.120913
11
98.619796
21
106.296126
0
LINE
8
Layer 1
10
98.619796
20
106.296126
11
97.690246
21
105.489316
0
LINE
8
Layer 1
10
97.690246
20
105.489316
11
96.411426
21
104.730844
0
LINE
8
Layer 1
10
96.411426
20
104.730844
11
96.003153
21
105.004242
0
LINE
8
Layer 1
10
96.003153
20
105.004242
11
95.534408
21
105.565944
0
LINE
8
Layer 1
10
95.534408
20
105.565944
11
95.149190
21
106.212804
0
LINE
8
Layer 1
10
95.149190
20
106.212804
11
94.991496
21
106.741677
0
LINE
8
Layer 1
10
94.991496
20
106.741677
11
94.872006
21
107.319100
0
LINE
8
Layer 1
10
94.872006
20
107.319100
11
94.568162
21
107.852927
0
LINE
8
Layer 1
10
94.568162
20
107.852927
11
94.277906
21
108.366076
0
LINE
8
Layer 1
10
94.277906
20
108.366076
11
94.444690
21
108.937719
0
LINE
8
Layer 1
10
94.444690
20
108.937719
11
94.652192
21
109.575027
0
LINE
8
Layer 1
10
94.652192
20
109.575027
11
94.536919
21
110.139391
0
LINE
8
Layer 1
10
94.536919
20
110.139391
11
94.099924
21
110.629880
0
LINE
8
Layer 1
10
94.099924
20
110.629880
11
93.342260
21
111.045566
0
LINE
8
Layer 1
10
93.342260
20
111.045566
11
92.248649
21
111.504177
0
LINE
8
Layer 1
10
92.248649
20
111.504177
11
92.425037
21
112.906469
0
LINE
8
Layer 1
10
92.425037
20
112.906469
11
92.473704
21
114.153479
0
LINE
8
Layer 1
10
92.473704
20
114.153479
11
92.275381
21
114.414057
0
LINE
8
Layer 1
10
92.275381
20
114.414057
11
91.869412
21
114.608621
0
LINE
8
Layer 1
10
91.869412
20
114.608621
11
91.265743
21
115.047607
0
LINE
8
Layer 1
10
91.265743
20
115.047607
11
91.137399
21
115.993274
0
LINE
8
Layer 1
10
91.137399
20
115.993274
11
91.247558
21
116.802843
0
LINE
8
Layer 1
10
91.247558
20
116.802843
11
91.571853
21
117.418356
0
LINE
8
Layer 1
10
91.571853
20
117.418356
11
92.128712
21
117.861519
0
LINE
8
Layer 1
10
92.128712
20
117.861519
11
92.936565
21
118.154038
0
LINE
8
Layer 1
10
92.936565
20
118.154038
11
93.368718
21
118.233413
0
LINE
8
Layer 1
10
93.368718
20
118.233413
11
93.368718
21
118.233413
0
LINE
8
Layer 1
10
44.808857
20
117.130982
11
45.752537
21
116.936955
0
LINE
8
Layer 1
10
45.752537
20
116.936955
11
46.941105
21
116.558527
0
LINE
8
Layer 1
10
46.941105
20
116.558527
11
48.211395
21
115.980702
0
LINE
8
Layer 1
10
48.211395
20
115.980702
11
49.222396
21
115.380501
0
LINE
8
Layer 1
10
49.222396
20
115.380501
11
49.633093
21
114.934941
0
LINE
8
Layer 1
10
49.633093
20
114.934941
11
49.405170
21
114.573973
0
LINE
8
Layer 1
10
49.405170
20
114.573973
11
48.856982
21
114.202927
0
LINE
8
Layer 1
10
48.856982
20
114.202927
11
47.895662
21
113.735496
0
LINE
8
Layer 1
10
47.895662
20
113.735496
11
47.718640
21
113.807487
0
LINE
8
Layer 1
10
47.718640
20
113.807487
11
47.551704
21
114.088274
0
LINE
8
Layer 1
10
47.551704
20
114.088274
11
47.228925
21
114.486793
0
LINE
8
Layer 1
10
47.228925
20
114.486793
11
46.678579
21
114.846746
0
LINE
8
Layer 1
10
46.678579
20
114.846746
11
46.178544
21
115.194500
0
LINE
8
Layer 1
10
46.178544
20
115.194500
11
45.973024
21
115.561121
0
LINE
8
Layer 1
10
45.973024
20
115.561121
11
45.803870
21
116.000580
0
LINE
8
Layer 1
10
45.803870
20
116.000580
11
45.390940
21
116.531260
0
LINE
8
Layer 1
10
45.390940
20
116.531260
11
44.808857
21
117.130982
0
LINE
8
Layer 1
10
44.808857
20
117.130982
11
44.808857
21
117.130982
0
LINE
8
Layer 1
10
41.916079
20
116.795844
11
42.669866
21
116.711517
0
LINE
8
Layer 1
10
42.669866
20
116.711517
11
43.397746
21
116.407788
0
LINE
8
Layer 1
10
43.397746
20
116.407788
11
44.632468
21
115.834524
0
LINE
8
Layer 1
10
44.632468
20
115.834524
11
44.982159
21
115.555128
0
LINE
8
Layer 1
10
44.982159
20
115.555128
11
45.126357
21
115.102510
0
LINE
8
Layer 1
10
45.126357
20
115.102510
11
45.317595
21
114.595842
0
LINE
8
Layer 1
10
45.317595
20
114.595842
11
45.814274
21
114.202927
0
LINE
8
Layer 1
10
45.814274
20
114.202927
11
46.336814
21
113.862378
0
LINE
8
Layer 1
10
46.336814
20
113.862378
11
46.634482
21
113.497371
0
LINE
8
Layer 1
10
46.634482
20
113.497371
11
46.388480
21
112.984776
0
LINE
8
Layer 1
10
46.388480
20
112.984776
11
45.514412
21
112.262649
0
LINE
8
Layer 1
10
45.514412
20
112.262649
11
44.253232
21
111.424802
0
LINE
8
Layer 1
10
44.253232
20
111.424802
11
44.085662
21
112.112719
0
LINE
8
Layer 1
10
44.085662
20
112.112719
11
43.831564
21
112.747305
0
LINE
8
Layer 1
10
43.831564
20
112.747305
11
43.414823
21
113.241295
0
LINE
8
Layer 1
10
43.414823
20
113.241295
11
42.848433
21
113.583306
0
LINE
8
Layer 1
10
42.848433
20
113.583306
11
42.145385
21
113.761955
0
LINE
8
Layer 1
10
42.145385
20
113.761955
11
41.691367
21
113.844058
0
LINE
8
Layer 1
10
41.691367
20
113.844058
11
41.448858
21
113.996104
0
LINE
8
Layer 1
10
41.448858
20
113.996104
11
41.395732
21
114.785010
0
LINE
8
Layer 1
10
41.395732
20
114.785010
11
41.492746
21
115.702232
0
LINE
8
Layer 1
10
41.492746
20
115.702232
11
39.993440
21
115.719871
0
LINE
8
Layer 1
10
39.993440
20
115.719871
11
38.494135
21
115.755149
0
LINE
8
Layer 1
10
38.494135
20
115.755149
11
39.914065
21
116.293135
0
LINE
8
Layer 1
10
39.914065
20
116.293135
11
41.030192
21
116.657565
0
LINE
8
Layer 1
10
41.030192
20
116.657565
11
41.916079
21
116.795844
0
LINE
8
Layer 1
10
41.916079
20
116.795844
11
41.916079
21
116.795844
0
LINE
8
Layer 1
10
89.805662
20
115.314177
11
90.172803
21
115.155785
0
LINE
8
Layer 1
10
90.172803
20
115.155785
11
90.273093
21
114.626260
0
LINE
8
Layer 1
10
90.273093
20
114.626260
11
90.455650
21
114.175516
0
LINE
8
Layer 1
10
90.455650
20
114.175516
11
90.987468
21
113.894246
0
LINE
8
Layer 1
10
90.987468
20
113.894246
11
91.375379
21
113.761983
0
LINE
8
Layer 1
10
91.375379
20
113.761983
11
91.570511
21
113.566334
0
LINE
8
Layer 1
10
91.570511
20
113.566334
11
91.525454
21
112.633066
0
LINE
8
Layer 1
10
91.525454
20
112.633066
11
91.463021
21
111.723351
0
LINE
8
Layer 1
10
91.463021
20
111.723351
11
91.645275
21
111.034236
0
LINE
8
Layer 1
10
91.645275
20
111.034236
11
92.076299
21
110.558043
0
LINE
8
Layer 1
10
92.076299
20
110.558043
11
92.760176
21
110.287094
0
LINE
8
Layer 1
10
92.760176
20
110.287094
11
93.311836
21
110.076603
0
LINE
8
Layer 1
10
93.311836
20
110.076603
11
93.574382
21
109.761270
0
LINE
8
Layer 1
10
93.574382
20
109.761270
11
93.535658
21
109.378120
0
LINE
8
Layer 1
10
93.535658
20
109.378120
11
93.183510
21
108.964177
0
LINE
8
Layer 1
10
93.183510
20
108.964177
11
92.845272
21
108.569346
0
LINE
8
Layer 1
10
92.845272
20
108.569346
11
92.780304
21
108.181266
0
LINE
8
Layer 1
10
92.780304
20
108.181266
11
92.983084
21
107.831863
0
LINE
8
Layer 1
10
92.983084
20
107.831863
11
93.448093
21
107.553066
0
LINE
8
Layer 1
10
93.448093
20
107.553066
11
93.914482
21
107.274271
0
LINE
8
Layer 1
10
93.914482
20
107.274271
11
94.120294
21
106.924869
0
LINE
8
Layer 1
10
94.120294
20
106.924869
11
94.058357
21
106.536788
0
LINE
8
Layer 1
10
94.058357
20
106.536788
11
93.721496
21
106.141955
0
LINE
8
Layer 1
10
93.721496
20
106.141955
11
93.388557
21
105.804730
0
LINE
8
Layer 1
10
93.388557
20
105.804730
11
93.335812
21
105.532326
0
LINE
8
Layer 1
10
93.335812
20
105.532326
11
93.577333
21
105.291334
0
LINE
8
Layer 1
10
93.577333
20
105.291334
11
94.127190
21
105.048344
0
LINE
8
Layer 1
10
94.127190
20
105.048344
11
94.676219
21
104.757460
0
LINE
8
Layer 1
10
94.676219
20
104.757460
11
94.932513
21
104.399960
0
LINE
8
Layer 1
10
94.932513
20
104.399960
11
94.887569
21
104.000645
0
LINE
8
Layer 1
10
94.887569
20
104.000645
11
94.532885
21
103.584316
0
LINE
8
Layer 1
10
94.532885
20
103.584316
11
92.662425
21
102.581455
0
LINE
8
Layer 1
10
92.662425
20
102.581455
11
91.740026
21
102.222114
0
LINE
8
Layer 1
10
91.740026
20
102.222114
11
91.437260
21
102.226121
0
LINE
8
Layer 1
10
91.437260
20
102.226121
11
91.553525
21
102.725211
0
LINE
8
Layer 1
10
91.553525
20
102.725211
11
91.412657
21
103.290509
0
LINE
8
Layer 1
10
91.412657
20
103.290509
11
91.076834
21
103.784428
0
LINE
8
Layer 1
10
91.076834
20
103.784428
11
90.608232
21
104.069385
0
LINE
8
Layer 1
10
90.608232
20
104.069385
11
90.260044
21
104.194511
0
LINE
8
Layer 1
10
90.260044
20
104.194511
11
90.081413
21
104.381019
0
LINE
8
Layer 1
10
90.081413
20
104.381019
11
90.105524
21
105.198274
0
LINE
8
Layer 1
10
90.105524
20
105.198274
11
90.163560
21
105.728901
0
LINE
8
Layer 1
10
90.163560
20
105.728901
11
90.074990
21
106.097325
0
LINE
8
Layer 1
10
90.074990
20
106.097325
11
89.223579
21
106.776955
0
LINE
8
Layer 1
10
89.223579
20
106.776955
11
88.370761
21
107.461152
0
LINE
8
Layer 1
10
88.370761
20
107.461152
11
88.297448
21
107.836743
0
LINE
8
Layer 1
10
88.297448
20
107.836743
11
88.376912
21
108.390913
0
LINE
8
Layer 1
10
88.376912
20
108.390913
11
88.378330
21
109.363756
0
LINE
8
Layer 1
10
88.378330
20
109.363756
11
87.680176
21
110.304732
0
LINE
8
Layer 1
10
87.680176
20
110.304732
11
87.033112
21
111.167299
0
LINE
8
Layer 1
10
87.033112
20
111.167299
11
87.001079
21
111.848135
0
LINE
8
Layer 1
10
87.001079
20
111.848135
11
87.029919
21
112.435108
0
LINE
8
Layer 1
10
87.029919
20
112.435108
11
86.736496
21
112.977024
0
LINE
8
Layer 1
10
86.736496
20
112.977024
11
86.521274
21
113.286835
0
LINE
8
Layer 1
10
86.521274
20
113.286835
11
86.594211
21
113.562094
0
LINE
8
Layer 1
10
86.594211
20
113.562094
11
87.997676
21
114.502788
0
LINE
8
Layer 1
10
87.997676
20
114.502788
11
89.099815
21
115.097419
0
LINE
8
Layer 1
10
89.099815
20
115.097419
11
89.805662
21
115.314177
0
LINE
8
Layer 1
10
89.805662
20
115.314177
11
89.805662
21
115.314177
0
LINE
8
Layer 1
10
37.356426
20
115.278899
11
37.859135
21
115.190705
0
LINE
8
Layer 1
10
37.859135
20
115.190705
11
38.532934
21
114.970193
0
LINE
8
Layer 1
10
38.532934
20
114.970193
11
39.473093
21
114.873205
0
LINE
8
Layer 1
10
39.473093
20
114.873205
11
40.437553
21
114.741429
0
LINE
8
Layer 1
10
40.437553
20
114.741429
11
40.572086
21
114.487395
0
LINE
8
Layer 1
10
40.572086
20
114.487395
11
40.593162
21
114.017719
0
LINE
8
Layer 1
10
40.593162
20
114.017719
11
40.723089
21
113.315195
0
LINE
8
Layer 1
10
40.723089
20
113.315195
11
41.378093
21
113.162232
0
LINE
8
Layer 1
10
41.378093
20
113.162232
11
42.020457
21
113.072382
0
LINE
8
Layer 1
10
42.020457
20
113.072382
11
42.548574
21
112.807754
0
LINE
8
Layer 1
10
42.548574
20
112.807754
11
42.978725
21
112.354358
0
LINE
8
Layer 1
10
42.978725
20
112.354358
11
43.327190
21
111.698205
0
LINE
8
Layer 1
10
43.327190
20
111.698205
11
43.460140
21
111.267177
0
LINE
8
Layer 1
10
43.460140
20
111.267177
11
43.409515
21
110.905619
0
LINE
8
Layer 1
10
43.409515
20
110.905619
11
42.551079
21
109.916677
0
LINE
8
Layer 1
10
42.551079
20
109.916677
11
41.657556
21
109.185555
0
LINE
8
Layer 1
10
41.657556
20
109.185555
11
41.436083
21
109.157599
0
LINE
8
Layer 1
10
41.436083
20
109.157599
11
41.307537
21
109.325774
0
LINE
8
Layer 1
10
41.307537
20
109.325774
11
40.981707
21
109.685630
0
LINE
8
Layer 1
10
40.981707
20
109.685630
11
40.425593
21
109.943135
0
LINE
8
Layer 1
10
40.425593
20
109.943135
11
39.924357
21
110.171712
0
LINE
8
Layer 1
10
39.924357
20
110.171712
11
39.737676
21
110.454663
0
LINE
8
Layer 1
10
39.737676
20
110.454663
11
39.794748
21
111.277736
0
LINE
8
Layer 1
10
39.794748
20
111.277736
11
39.656173
21
111.761866
0
LINE
8
Layer 1
10
39.656173
20
111.761866
11
39.256284
21
111.993679
0
LINE
8
Layer 1
10
39.256284
20
111.993679
11
38.529412
21
112.059802
0
LINE
8
Layer 1
10
38.529412
20
112.059802
11
37.339662
21
112.126492
0
LINE
8
Layer 1
10
37.339662
20
112.126492
11
36.581257
21
112.308993
0
LINE
8
Layer 1
10
36.581257
20
112.308993
11
36.181773
21
112.638096
0
LINE
8
Layer 1
10
36.181773
20
112.638096
11
36.068787
21
113.144594
0
LINE
8
Layer 1
10
36.068787
20
113.144594
11
36.047366
21
113.523047
0
LINE
8
Layer 1
10
36.047366
20
113.523047
11
35.931060
21
113.714402
0
LINE
8
Layer 1
10
35.931060
20
113.714402
11
35.160385
21
113.691399
0
LINE
8
Layer 1
10
35.160385
20
113.691399
11
33.537607
21
113.347441
0
LINE
8
Layer 1
10
33.537607
20
113.347441
11
32.823232
21
113.162232
0
LINE
8
Layer 1
10
32.823232
20
113.162232
11
33.572885
21
113.753135
0
LINE
8
Layer 1
10
33.572885
20
113.753135
11
34.450038
21
114.318702
0
LINE
8
Layer 1
10
34.450038
20
114.318702
11
35.479541
21
114.796876
0
LINE
8
Layer 1
10
35.479541
20
114.796876
11
37.356426
21
115.278899
0
LINE
8
Layer 1
10
37.356426
20
115.278899
11
37.356426
21
115.278899
0
LINE
8
Layer 1
10
51.079482
20
113.347441
11
51.811496
21
113.003482
0
LINE
8
Layer 1
10
51.811496
20
113.003482
11
51.936044
21
112.677474
0
LINE
8
Layer 1
10
51.936044
20
112.677474
11
51.511635
21
112.368482
0
LINE
8
Layer 1
10
51.511635
20
112.368482
11
51.014368
21
111.912510
0
LINE
8
Layer 1
10
51.014368
20
111.912510
11
50.779621
21
111.169038
0
LINE
8
Layer 1
10
50.779621
20
111.169038
11
50.704115
21
110.679147
0
LINE
8
Layer 1
10
50.704115
20
110.679147
11
50.558868
21
110.433515
0
LINE
8
Layer 1
10
50.558868
20
110.433515
11
49.730107
21
110.445844
0
LINE
8
Layer 1
10
49.730107
20
110.445844
11
49.171238
21
110.486817
0
LINE
8
Layer 1
10
49.171238
20
110.486817
11
48.650875
21
110.336900
0
LINE
8
Layer 1
10
48.650875
20
110.336900
11
47.057815
21
109.140566
0
LINE
8
Layer 1
10
47.057815
20
109.140566
11
45.742546
21
107.863714
0
LINE
8
Layer 1
10
45.742546
20
107.863714
11
45.425707
21
107.390351
0
LINE
8
Layer 1
10
45.425707
20
107.390351
11
45.320385
21
107.006260
0
LINE
8
Layer 1
10
45.320385
20
107.006260
11
45.190264
21
106.502849
0
LINE
8
Layer 1
10
45.190264
20
106.502849
11
44.773579
21
106.353621
0
LINE
8
Layer 1
10
44.773579
20
106.353621
11
44.331158
21
106.275903
0
LINE
8
Layer 1
10
44.331158
20
106.275903
11
44.041565
21
106.080219
0
LINE
8
Layer 1
10
44.041565
20
106.080219
11
43.671149
21
105.806816
0
LINE
8
Layer 1
10
43.671149
20
105.806816
11
42.687829
21
106.315926
0
LINE
8
Layer 1
10
42.687829
20
106.315926
11
41.933718
21
106.953344
0
LINE
8
Layer 1
10
41.933718
20
106.953344
11
42.301910
21
107.550335
0
LINE
8
Layer 1
10
42.301910
20
107.550335
11
43.210180
21
108.546575
0
LINE
8
Layer 1
10
43.210180
20
108.546575
11
45.505593
21
110.578135
0
LINE
8
Layer 1
10
45.505593
20
110.578135
11
48.615717
21
112.389553
0
LINE
8
Layer 1
10
48.615717
20
112.389553
11
50.132339
21
113.076770
0
LINE
8
Layer 1
10
50.132339
20
113.076770
11
51.079482
21
113.347441
0
LINE
8
Layer 1
10
51.079482
20
113.347441
11
51.079482
21
113.347441
0
LINE
8
Layer 1
10
85.140176
20
112.915288
11
85.325385
21
112.906469
0
LINE
8
Layer 1
10
85.325385
20
112.906469
11
85.699702
21
112.800458
0
LINE
8
Layer 1
10
85.699702
20
112.800458
11
85.944968
21
112.536062
0
LINE
8
Layer 1
10
85.944968
20
112.536062
11
86.066218
21
111.521816
0
LINE
8
Layer 1
10
86.066218
20
111.521816
11
86.216074
21
110.713478
0
LINE
8
Layer 1
10
86.216074
20
110.713478
11
86.833510
21
109.846121
0
LINE
8
Layer 1
10
86.833510
20
109.846121
11
87.496113
21
108.919550
0
LINE
8
Layer 1
10
87.496113
20
108.919550
11
87.503787
21
107.897024
0
LINE
8
Layer 1
10
87.503787
20
107.897024
11
87.436555
21
107.317161
0
LINE
8
Layer 1
10
87.436555
20
107.317161
11
87.505910
21
106.905762
0
LINE
8
Layer 1
10
87.505910
20
106.905762
11
88.244621
21
106.124316
0
LINE
8
Layer 1
10
88.244621
20
106.124316
11
88.973713
21
105.394845
0
LINE
8
Layer 1
10
88.973713
20
105.394845
11
88.933708
21
105.098770
0
LINE
8
Layer 1
10
88.933708
20
105.098770
11
88.676774
21
104.677927
0
LINE
8
Layer 1
10
88.676774
20
104.677927
11
88.191704
21
103.848899
0
LINE
8
Layer 1
10
88.191704
20
103.848899
11
89.311774
21
103.399107
0
LINE
8
Layer 1
10
89.311774
20
103.399107
11
90.003292
21
103.114395
0
LINE
8
Layer 1
10
90.003292
20
103.114395
11
90.387884
21
102.822244
0
LINE
8
Layer 1
10
90.387884
20
102.822244
11
90.408605
21
102.595835
0
LINE
8
Layer 1
10
90.408605
20
102.595835
11
90.008510
21
102.508344
0
LINE
8
Layer 1
10
90.008510
20
102.508344
11
89.694378
21
102.305150
0
LINE
8
Layer 1
10
89.694378
20
102.305150
11
89.585176
21
101.696955
0
LINE
8
Layer 1
10
89.585176
20
101.696955
11
89.538401
21
101.261680
0
LINE
8
Layer 1
10
89.538401
20
101.261680
11
89.370125
21
100.948057
0
LINE
8
Layer 1
10
89.370125
20
100.948057
11
88.438649
21
100.435774
0
LINE
8
Layer 1
10
88.438649
20
100.435774
11
86.803884
21
100.021986
0
LINE
8
Layer 1
10
86.803884
20
100.021986
11
86.193974
21
100.029436
0
LINE
8
Layer 1
10
86.193974
20
100.029436
11
85.819274
21
100.188830
0
LINE
8
Layer 1
10
85.819274
20
100.188830
11
85.859676
21
100.546222
0
LINE
8
Layer 1
10
85.859676
20
100.546222
11
86.207329
21
101.150149
0
LINE
8
Layer 1
10
86.207329
20
101.150149
11
86.525120
21
101.744733
0
LINE
8
Layer 1
10
86.525120
20
101.744733
11
86.473118
21
102.224530
0
LINE
8
Layer 1
10
86.473118
20
102.224530
11
86.014819
21
102.656616
0
LINE
8
Layer 1
10
86.014819
20
102.656616
11
85.113718
21
103.108066
0
LINE
8
Layer 1
10
85.113718
20
103.108066
11
84.465259
21
103.504092
0
LINE
8
Layer 1
10
84.465259
20
103.504092
11
84.430190
21
103.719362
0
LINE
8
Layer 1
10
84.430190
20
103.719362
11
84.549274
21
104.007649
0
LINE
8
Layer 1
10
84.549274
20
104.007649
11
84.712362
21
104.470860
0
LINE
8
Layer 1
10
84.712362
20
104.470860
11
84.616685
21
104.854033
0
LINE
8
Layer 1
10
84.616685
20
104.854033
11
84.235949
21
105.199865
0
LINE
8
Layer 1
10
84.235949
20
105.199865
11
83.543857
21
105.551052
0
LINE
8
Layer 1
10
83.543857
20
105.551052
11
83.035849
21
105.798653
0
LINE
8
Layer 1
10
83.035849
20
105.798653
11
82.779824
21
106.058207
0
LINE
8
Layer 1
10
82.779824
20
106.058207
11
82.716198
21
106.447830
0
LINE
8
Layer 1
10
82.716198
20
106.447830
11
82.785385
21
107.085635
0
LINE
8
Layer 1
10
82.785385
20
107.085635
11
82.809319
21
108.029646
0
LINE
8
Layer 1
10
82.809319
20
108.029646
11
82.600176
21
108.646677
0
LINE
8
Layer 1
10
82.600176
20
108.646677
11
82.453185
21
109.179136
0
LINE
8
Layer 1
10
82.453185
20
109.179136
11
82.900037
21
110.066607
0
LINE
8
Layer 1
10
82.900037
20
110.066607
11
83.535037
21
111.080844
0
LINE
8
Layer 1
10
83.535037
20
111.080844
11
82.935315
21
111.230774
0
LINE
8
Layer 1
10
82.935315
20
111.230774
11
82.489285
21
111.405509
0
LINE
8
Layer 1
10
82.489285
20
111.405509
11
82.390860
21
111.612478
0
LINE
8
Layer 1
10
82.390860
20
111.612478
11
83.270454
21
112.236191
0
LINE
8
Layer 1
10
83.270454
20
112.236191
11
84.342352
21
112.718829
0
LINE
8
Layer 1
10
84.342352
20
112.718829
11
85.140176
21
112.915288
0
LINE
8
Layer 1
10
85.140176
20
112.915288
11
85.140176
21
112.915288
0
LINE
8
Layer 1
10
34.922260
20
112.818274
11
35.154367
21
112.651733
0
LINE
8
Layer 1
10
35.154367
20
112.651733
11
35.310315
21
112.121538
0
LINE
8
Layer 1
10
35.310315
20
112.121538
11
35.632816
21
111.395293
0
LINE
8
Layer 1
10
35.632816
20
111.395293
11
36.474482
21
111.072024
0
LINE
8
Layer 1
10
36.474482
20
111.072024
11
38.158996
21
111.001469
0
LINE
8
Layer 1
10
38.158996
20
111.001469
11
38.533629
21
111.042354
0
LINE
8
Layer 1
10
38.533629
20
111.042354
11
38.733686
21
110.950158
0
LINE
8
Layer 1
10
38.733686
20
110.950158
11
38.785176
21
110.110705
0
LINE
8
Layer 1
10
38.785176
20
110.110705
11
38.855103
21
109.244899
0
LINE
8
Layer 1
10
38.855103
20
109.244899
11
39.079377
21
109.081234
0
LINE
8
Layer 1
10
39.079377
20
109.081234
11
39.490732
21
108.999455
0
LINE
8
Layer 1
10
39.490732
20
108.999455
11
40.106580
21
108.775478
0
LINE
8
Layer 1
10
40.106580
20
108.775478
11
40.161010
21
108.091052
0
LINE
8
Layer 1
10
40.161010
20
108.091052
11
39.860587
21
107.226448
0
LINE
8
Layer 1
10
39.860587
20
107.226448
11
39.279065
21
106.283066
0
LINE
8
Layer 1
10
39.279065
20
106.283066
11
38.706116
21
105.614196
0
LINE
8
Layer 1
10
38.706116
20
105.614196
11
38.308767
21
105.341594
0
LINE
8
Layer 1
10
38.308767
20
105.341594
11
38.032765
21
105.451533
0
LINE
8
Layer 1
10
38.032765
20
105.451533
11
37.823857
21
105.930288
0
LINE
8
Layer 1
10
37.823857
20
105.930288
11
37.492873
21
106.734751
0
LINE
8
Layer 1
10
37.492873
20
106.734751
11
37.034797
21
107.227384
0
LINE
8
Layer 1
10
37.034797
20
107.227384
11
36.395783
21
107.441887
0
LINE
8
Layer 1
10
36.395783
20
107.441887
11
35.521982
21
107.411955
0
LINE
8
Layer 1
10
35.521982
20
107.411955
11
34.491761
21
107.354206
0
LINE
8
Layer 1
10
34.491761
20
107.354206
11
34.338899
21
107.489603
0
LINE
8
Layer 1
10
34.338899
20
107.489603
11
34.331357
21
107.764732
0
LINE
8
Layer 1
10
34.331357
20
107.764732
11
34.375031
21
108.444156
0
LINE
8
Layer 1
10
34.375031
20
108.444156
11
34.252052
21
108.816257
0
LINE
8
Layer 1
10
34.252052
20
108.816257
11
33.882094
21
108.962457
0
LINE
8
Layer 1
10
33.882094
20
108.962457
11
33.184829
21
108.964177
0
LINE
8
Layer 1
10
33.184829
20
108.964177
11
32.130957
21
109.056380
0
LINE
8
Layer 1
10
32.130957
20
109.056380
11
31.465037
21
109.669732
0
LINE
8
Layer 1
10
31.465037
20
109.669732
11
30.872620
21
110.241561
0
LINE
8
Layer 1
10
30.872620
20
110.241561
11
30.203857
21
110.454663
0
LINE
8
Layer 1
10
30.203857
20
110.454663
11
29.498301
21
110.454663
0
LINE
8
Layer 1
10
29.498301
20
110.454663
11
30.309690
21
111.407163
0
LINE
8
Layer 1
10
30.309690
20
111.407163
11
30.788324
21
111.902762
0
LINE
8
Layer 1
10
30.788324
20
111.902762
11
31.255826
21
112.203473
0
LINE
8
Layer 1
10
31.255826
20
112.203473
11
32.682121
21
112.456677
0
LINE
8
Layer 1
10
32.682121
20
112.456677
11
34.692954
21
112.765357
0
LINE
8
Layer 1
10
34.692954
20
112.765357
11
34.922260
21
112.818274
0
LINE
8
Layer 1
10
34.922260
20
112.818274
11
34.922260
21
112.818274
0
LINE
8
Layer 1
10
51.582190
20
111.645288
11
53.143232
21
111.627649
0
LINE
8
Layer 1
10
53.143232
20
111.627649
11
54.326752
21
111.522968
0
LINE
8
Layer 1
10
54.326752
20
111.522968
11
54.827746
21
111.257232
0
LINE
8
Layer 1
10
54.827746
20
111.257232
11
54.865539
21
110.656537
0
LINE
8
Layer 1
10
54.865539
20
110.656537
11
54.670598
21
109.957325
0
LINE
8
Layer 1
10
54.670598
20
109.957325
11
54.313902
21
109.330394
0
LINE
8
Layer 1
10
54.313902
20
109.330394
11
53.866426
21
108.946538
0
LINE
8
Layer 1
10
53.866426
20
108.946538
11
53.427172
21
108.625640
0
LINE
8
Layer 1
10
53.427172
20
108.625640
11
53.240246
21
108.240982
0
LINE
8
Layer 1
10
53.240246
20
108.240982
11
52.963864
21
107.819426
0
LINE
8
Layer 1
10
52.963864
20
107.819426
11
52.314204
21
107.403135
0
LINE
8
Layer 1
10
52.314204
20
107.403135
11
51.824315
21
107.141568
0
LINE
8
Layer 1
10
51.824315
20
107.141568
11
51.534318
21
106.837989
0
LINE
8
Layer 1
10
51.534318
20
106.837989
11
51.299968
21
105.674524
0
LINE
8
Layer 1
10
51.299968
20
105.674524
11
51.100827
21
104.600459
0
LINE
8
Layer 1
10
51.100827
20
104.600459
11
50.906772
21
104.348648
0
LINE
8
Layer 1
10
50.906772
20
104.348648
11
50.620871
21
104.219316
0
LINE
8
Layer 1
10
50.620871
20
104.219316
11
50.183982
21
103.918800
0
LINE
8
Layer 1
10
50.183982
20
103.918800
11
50.135801
21
103.143344
0
LINE
8
Layer 1
10
50.135801
20
103.143344
11
50.077204
21
102.344192
0
LINE
8
Layer 1
10
50.077204
20
102.344192
11
49.650732
21
101.917441
0
LINE
8
Layer 1
10
49.650732
20
101.917441
11
49.218487
21
101.534070
0
LINE
8
Layer 1
10
49.218487
20
101.534070
11
48.980454
21
101.009038
0
LINE
8
Layer 1
10
48.980454
20
101.009038
11
48.824733
21
100.559089
0
LINE
8
Layer 1
10
48.824733
20
100.559089
11
48.483496
21
100.459860
0
LINE
8
Layer 1
10
48.483496
20
100.459860
11
47.859366
21
100.727825
0
LINE
8
Layer 1
10
47.859366
20
100.727825
11
46.854968
21
101.379455
0
LINE
8
Layer 1
10
46.854968
20
101.379455
11
46.209615
21
102.072488
0
LINE
8
Layer 1
10
46.209615
20
102.072488
11
45.519684
21
103.153735
0
LINE
8
Layer 1
10
45.519684
20
103.153735
11
44.970433
21
104.291523
0
LINE
8
Layer 1
10
44.970433
20
104.291523
11
44.747121
21
105.154177
0
LINE
8
Layer 1
10
44.747121
20
105.154177
11
44.986644
21
105.404683
0
LINE
8
Layer 1
10
44.986644
20
105.404683
11
45.593787
21
105.498135
0
LINE
8
Layer 1
10
45.593787
20
105.498135
11
46.300887
21
105.631998
0
LINE
8
Layer 1
10
46.300887
20
105.631998
11
46.449274
21
106.335982
0
LINE
8
Layer 1
10
46.449274
20
106.335982
11
46.722664
21
107.249921
0
LINE
8
Layer 1
10
46.722664
20
107.249921
11
47.631079
21
108.329177
0
LINE
8
Layer 1
10
47.631079
20
108.329177
11
48.786505
21
109.267442
0
LINE
8
Layer 1
10
48.786505
20
109.267442
11
49.264104
21
109.374092
0
LINE
8
Layer 1
10
49.264104
20
109.374092
11
49.871218
21
109.325774
0
LINE
8
Layer 1
10
49.871218
20
109.325774
11
50.677149
21
109.289060
0
LINE
8
Layer 1
10
50.677149
20
109.289060
11
51.199125
21
109.482360
0
LINE
8
Layer 1
10
51.199125
20
109.482360
11
51.482686
21
109.943531
0
LINE
8
Layer 1
10
51.482686
20
109.943531
11
51.573371
21
110.710427
0
LINE
8
Layer 1
10
51.573371
20
110.710427
11
51.582190
21
111.645288
0
LINE
8
Layer 1
10
51.582190
20
111.645288
11
51.582190
21
111.645288
0
LINE
8
Layer 1
10
104.701704
20
111.389524
11
105.857051
21
110.754524
0
LINE
8
Layer 1
10
105.857051
20
110.754524
11
107.495813
21
109.487187
0
LINE
8
Layer 1
10
107.495813
20
109.487187
11
109.663356
21
107.368874
0
LINE
8
Layer 1
10
109.663356
20
107.368874
11
111.834952
21
104.947987
0
LINE
8
Layer 1
10
111.834952
20
104.947987
11
113.485871
21
102.772927
0
LINE
8
Layer 1
10
113.485871
20
102.772927
11
114.976063
21
99.901712
0
LINE
8
Layer 1
10
114.976063
20
99.901712
11
116.233501
21
96.422580
0
LINE
8
Layer 1
10
116.233501
20
96.422580
11
117.096082
21
92.875271
0
LINE
8
Layer 1
10
117.096082
20
92.875271
11
117.401704
21
89.799524
0
LINE
8
Layer 1
10
117.401704
20
89.799524
11
117.163816
21
87.518656
0
LINE
8
Layer 1
10
117.163816
20
87.518656
11
116.595839
21
84.606099
0
LINE
8
Layer 1
10
116.595839
20
84.606099
11
115.864145
21
81.798761
0
LINE
8
Layer 1
10
115.864145
20
81.798761
11
115.135107
21
79.833552
0
LINE
8
Layer 1
10
115.135107
20
79.833552
11
113.201534
21
76.761855
0
LINE
8
Layer 1
10
113.201534
20
76.761855
11
110.704726
21
73.748085
0
LINE
8
Layer 1
10
110.704726
20
73.748085
11
107.960278
21
71.131215
0
LINE
8
Layer 1
10
107.960278
20
71.131215
11
106.593814
21
70.077547
0
LINE
8
Layer 1
10
106.593814
20
70.077547
11
105.283787
21
69.250219
0
LINE
8
Layer 1
10
105.283787
20
69.250219
11
102.012307
21
67.643311
0
LINE
8
Layer 1
10
102.012307
20
67.643311
11
98.677949
21
66.435125
0
LINE
8
Layer 1
10
98.677949
20
66.435125
11
95.054792
21
65.556308
0
LINE
8
Layer 1
10
95.054792
20
65.556308
11
90.916912
21
64.937510
0
LINE
8
Layer 1
10
90.916912
20
64.937510
11
87.220914
21
64.637998
0
LINE
8
Layer 1
10
87.220914
20
64.637998
11
83.270475
21
64.519903
0
LINE
8
Layer 1
10
83.270475
20
64.519903
11
79.575789
21
64.586358
0
LINE
8
Layer 1
10
79.575789
20
64.586358
11
76.647051
21
64.840496
0
LINE
8
Layer 1
10
76.647051
20
64.840496
11
72.919312
21
65.478965
0
LINE
8
Layer 1
10
72.919312
20
65.478965
11
71.152537
21
65.934107
0
LINE
8
Layer 1
10
71.152537
20
65.934107
11
71.981565
21
67.089455
0
LINE
8
Layer 1
10
71.981565
20
67.089455
11
73.011238
21
68.610388
0
LINE
8
Layer 1
10
73.011238
20
68.610388
11
73.742194
21
70.235794
0
LINE
8
Layer 1
10
73.742194
20
70.235794
11
74.183739
21
71.992388
0
LINE
8
Layer 1
10
74.183739
20
71.992388
11
74.345176
21
73.906885
0
LINE
8
Layer 1
10
74.345176
20
73.906885
11
74.275005
21
75.307515
0
LINE
8
Layer 1
10
74.275005
20
75.307515
11
73.996505
21
76.494983
0
LINE
8
Layer 1
10
73.996505
20
76.494983
11
73.464597
21
77.601075
0
LINE
8
Layer 1
10
73.464597
20
77.601075
11
72.634204
21
78.757580
0
LINE
8
Layer 1
10
72.634204
20
78.757580
11
71.549412
21
80.089316
0
LINE
8
Layer 1
10
71.549412
20
80.089316
11
72.625385
21
80.592024
0
LINE
8
Layer 1
10
72.625385
20
80.592024
11
73.533906
21
81.181323
0
LINE
8
Layer 1
10
73.533906
20
81.181323
11
73.718036
21
81.566954
0
LINE
8
Layer 1
10
73.718036
20
81.566954
11
73.807190
21
82.126607
0
LINE
8
Layer 1
10
73.807190
20
82.126607
11
73.793787
21
83.027127
0
LINE
8
Layer 1
10
73.793787
20
83.027127
11
73.621982
21
83.722927
0
LINE
8
Layer 1
10
73.621982
20
83.722927
11
73.094431
21
84.294297
0
LINE
8
Layer 1
10
73.094431
20
84.294297
11
72.170700
21
84.954708
0
LINE
8
Layer 1
10
72.170700
20
84.954708
11
71.092871
21
85.552648
0
LINE
8
Layer 1
10
71.092871
20
85.552648
11
70.103024
21
85.936607
0
LINE
8
Layer 1
10
70.103024
20
85.936607
11
69.656240
21
86.083389
0
LINE
8
Layer 1
10
69.656240
20
86.083389
11
69.440090
21
86.326698
0
LINE
8
Layer 1
10
69.440090
20
86.326698
11
69.476843
21
87.744594
0
LINE
8
Layer 1
10
69.476843
20
87.744594
11
69.691401
21
88.965590
0
LINE
8
Layer 1
10
69.691401
20
88.965590
11
70.059246
21
90.077753
0
LINE
8
Layer 1
10
70.059246
20
90.077753
11
70.543789
21
90.993475
0
LINE
8
Layer 1
10
70.543789
20
90.993475
11
71.108440
21
91.625149
0
LINE
8
Layer 1
10
71.108440
20
91.625149
11
72.386073
21
92.357157
0
LINE
8
Layer 1
10
72.386073
20
92.357157
11
73.735056
21
92.715359
0
LINE
8
Layer 1
10
73.735056
20
92.715359
11
74.943717
21
92.673978
0
LINE
8
Layer 1
10
74.943717
20
92.673978
11
75.429279
21
92.495387
0
LINE
8
Layer 1
10
75.429279
20
92.495387
11
75.800385
21
92.207232
0
LINE
8
Layer 1
10
75.800385
20
92.207232
11
76.099719
21
91.699927
0
LINE
8
Layer 1
10
76.099719
20
91.699927
11
76.250978
21
90.890347
0
LINE
8
Layer 1
10
76.250978
20
90.890347
11
76.179621
21
87.506469
0
LINE
8
Layer 1
10
76.179621
20
87.506469
11
76.273548
21
86.108111
0
LINE
8
Layer 1
10
76.273548
20
86.108111
11
76.702467
21
84.899188
0
LINE
8
Layer 1
10
76.702467
20
84.899188
11
77.434407
21
83.942187
0
LINE
8
Layer 1
10
77.434407
20
83.942187
11
78.437399
21
83.299594
0
LINE
8
Layer 1
10
78.437399
20
83.299594
11
79.928346
21
82.891608
0
LINE
8
Layer 1
10
79.928346
20
82.891608
11
80.572140
21
82.905967
0
LINE
8
Layer 1
10
80.572140
20
82.905967
11
81.171153
21
83.075863
0
LINE
8
Layer 1
10
81.171153
20
83.075863
11
82.303854
21
83.912175
0
LINE
8
Layer 1
10
82.303854
20
83.912175
11
83.464482
21
85.460357
0
LINE
8
Layer 1
10
83.464482
20
85.460357
11
84.041942
21
86.512915
0
LINE
8
Layer 1
10
84.041942
20
86.512915
11
84.465338
21
87.610191
0
LINE
8
Layer 1
10
84.465338
20
87.610191
11
84.734877
21
88.756951
0
LINE
8
Layer 1
10
84.734877
20
88.756951
11
84.850767
21
89.957963
0
LINE
8
Layer 1
10
84.850767
20
89.957963
11
84.622429
21
92.541811
0
LINE
8
Layer 1
10
84.622429
20
92.541811
11
83.781982
21
95.399871
0
LINE
8
Layer 1
10
83.781982
20
95.399871
11
83.120524
21
97.128482
0
LINE
8
Layer 1
10
83.120524
20
97.128482
11
84.857954
21
97.692927
0
LINE
8
Layer 1
10
84.857954
20
97.692927
11
88.142696
21
98.886588
0
LINE
8
Layer 1
10
88.142696
20
98.886588
11
91.233125
21
100.224628
0
LINE
8
Layer 1
10
91.233125
20
100.224628
11
94.097957
21
101.686554
0
LINE
8
Layer 1
10
94.097957
20
101.686554
11
96.705908
21
103.251871
0
LINE
8
Layer 1
10
96.705908
20
103.251871
11
99.025694
21
104.900085
0
LINE
8
Layer 1
10
99.025694
20
104.900085
11
101.026033
21
106.610701
0
LINE
8
Layer 1
10
101.026033
20
106.610701
11
102.675640
21
108.363225
0
LINE
8
Layer 1
10
102.675640
20
108.363225
11
103.943232
21
110.137163
0
LINE
8
Layer 1
10
103.943232
20
110.137163
11
104.701704
21
111.389524
0
LINE
8
Layer 1
10
104.701704
20
111.389524
11
104.701704
21
111.389524
0
LINE
8
Layer 1
10
81.012676
20
111.221955
11
81.157899
21
111.164088
0
LINE
8
Layer 1
10
81.157899
20
111.164088
11
81.206704
21
110.939732
0
LINE
8
Layer 1
10
81.206704
20
110.939732
11
81.349374
21
110.629504
0
LINE
8
Layer 1
10
81.349374
20
110.629504
11
81.691774
21
110.498760
0
LINE
8
Layer 1
10
81.691774
20
110.498760
11
81.997617
21
110.418733
0
LINE
8
Layer 1
10
81.997617
20
110.418733
11
81.824065
21
110.145982
0
LINE
8
Layer 1
10
81.824065
20
110.145982
11
81.577627
21
109.727151
0
LINE
8
Layer 1
10
81.577627
20
109.727151
11
81.483411
21
109.195140
0
LINE
8
Layer 1
10
81.483411
20
109.195140
11
81.546292
21
108.693169
0
LINE
8
Layer 1
10
81.546292
20
108.693169
11
81.771149
21
108.364455
0
LINE
8
Layer 1
10
81.771149
20
108.364455
11
81.925786
21
108.107093
0
LINE
8
Layer 1
10
81.925786
20
108.107093
11
81.944312
21
107.627315
0
LINE
8
Layer 1
10
81.944312
20
107.627315
11
81.577121
21
106.062580
0
LINE
8
Layer 1
10
81.577121
20
106.062580
11
81.512057
21
105.721595
0
LINE
8
Layer 1
10
81.512057
20
105.721595
11
81.614792
21
105.463718
0
LINE
8
Layer 1
10
81.614792
20
105.463718
11
82.529621
21
104.960149
0
LINE
8
Layer 1
10
82.529621
20
104.960149
11
83.596746
21
104.372275
0
LINE
8
Layer 1
10
83.596746
20
104.372275
11
83.615510
21
104.108640
0
LINE
8
Layer 1
10
83.615510
20
104.108640
11
83.349829
21
103.778344
0
LINE
8
Layer 1
10
83.349829
20
103.778344
11
83.190113
21
103.409873
0
LINE
8
Layer 1
10
83.190113
20
103.409873
11
83.383392
21
103.009418
0
LINE
8
Layer 1
10
83.383392
20
103.009418
11
83.897233
21
102.614190
0
LINE
8
Layer 1
10
83.897233
20
102.614190
11
84.699204
21
102.261399
0
LINE
8
Layer 1
10
84.699204
20
102.261399
11
85.686982
21
101.926260
0
LINE
8
Layer 1
10
85.686982
20
101.926260
11
84.919690
21
101.141330
0
LINE
8
Layer 1
10
84.919690
20
101.141330
11
84.152399
21
100.365219
0
LINE
8
Layer 1
10
84.152399
20
100.365219
11
84.725662
21
99.774316
0
LINE
8
Layer 1
10
84.725662
20
99.774316
11
85.056348
21
99.309247
0
LINE
8
Layer 1
10
85.056348
20
99.309247
11
85.016704
21
99.024663
0
LINE
8
Layer 1
10
85.016704
20
99.024663
11
83.261635
21
98.715982
0
LINE
8
Layer 1
10
83.261635
20
98.715982
11
81.931835
21
98.721713
0
LINE
8
Layer 1
10
81.931835
20
98.721713
11
81.541210
21
98.911981
0
LINE
8
Layer 1
10
81.541210
20
98.911981
11
81.162607
21
99.271607
0
LINE
8
Layer 1
10
81.162607
20
99.271607
11
80.718697
21
99.939580
0
LINE
8
Layer 1
10
80.718697
20
99.939580
11
80.536426
21
100.576885
0
LINE
8
Layer 1
10
80.536426
20
100.576885
11
80.383031
21
101.109663
0
LINE
8
Layer 1
10
80.383031
20
101.109663
11
80.007260
21
101.529385
0
LINE
8
Layer 1
10
80.007260
20
101.529385
11
79.672969
21
101.860266
0
LINE
8
Layer 1
10
79.672969
20
101.860266
11
79.610385
21
102.182024
0
LINE
8
Layer 1
10
79.610385
20
102.182024
11
79.490591
21
102.721133
0
LINE
8
Layer 1
10
79.490591
20
102.721133
11
79.028301
21
103.566677
0
LINE
8
Layer 1
10
79.028301
20
103.566677
11
78.366923
21
104.894987
0
LINE
8
Layer 1
10
78.366923
20
104.894987
11
78.378366
21
105.311716
0
LINE
8
Layer 1
10
78.378366
20
105.311716
11
78.613787
21
105.586330
0
LINE
8
Layer 1
10
78.613787
20
105.586330
11
78.869545
21
105.878297
0
LINE
8
Layer 1
10
78.869545
20
105.878297
11
78.859536
21
106.241589
0
LINE
8
Layer 1
10
78.859536
20
106.241589
11
78.603181
21
106.623414
0
LINE
8
Layer 1
10
78.603181
20
106.623414
11
78.119899
21
106.970982
0
LINE
8
Layer 1
10
78.119899
20
106.970982
11
77.690380
21
107.235264
0
LINE
8
Layer 1
10
77.690380
20
107.235264
11
77.479018
21
107.539488
0
LINE
8
Layer 1
10
77.479018
20
107.539488
11
77.511357
21
108.867163
0
LINE
8
Layer 1
10
77.511357
20
108.867163
11
77.670107
21
110.348830
0
LINE
8
Layer 1
10
77.670107
20
110.348830
11
79.098857
21
110.657510
0
LINE
8
Layer 1
10
79.098857
20
110.657510
11
80.862746
21
111.177857
0
LINE
8
Layer 1
10
80.862746
20
111.177857
11
81.012676
21
111.221955
0
LINE
8
Layer 1
10
81.012676
20
111.221955
11
81.012676
21
111.221955
0
LINE
8
Layer 1
10
56.274135
20
110.525219
11
56.406426
21
110.498760
0
LINE
8
Layer 1
10
56.406426
20
110.498760
11
57.985107
21
110.057788
0
LINE
8
Layer 1
10
57.985107
20
110.057788
11
58.992790
21
109.647391
0
LINE
8
Layer 1
10
58.992790
20
109.647391
11
59.140969
21
109.327258
0
LINE
8
Layer 1
10
59.140969
20
109.327258
11
59.166912
21
108.814246
0
LINE
8
Layer 1
10
59.166912
20
108.814246
11
59.088900
21
108.169036
0
LINE
8
Layer 1
10
59.088900
20
108.169036
11
58.911149
21
107.905844
0
LINE
8
Layer 1
10
58.911149
20
107.905844
11
58.554549
21
107.557166
0
LINE
8
Layer 1
10
58.554549
20
107.557166
11
58.046843
21
106.715219
0
LINE
8
Layer 1
10
58.046843
20
106.715219
11
56.706287
21
104.545635
0
LINE
8
Layer 1
10
56.706287
20
104.545635
11
56.309192
21
103.917502
0
LINE
8
Layer 1
10
56.309192
20
103.917502
11
56.144750
21
103.349449
0
LINE
8
Layer 1
10
56.144750
20
103.349449
11
56.199340
21
102.715826
0
LINE
8
Layer 1
10
56.199340
20
102.715826
11
56.459343
21
101.890982
0
LINE
8
Layer 1
10
56.459343
20
101.890982
11
56.415283
21
101.532788
0
LINE
8
Layer 1
10
56.415283
20
101.532788
11
55.797885
21
101.441191
0
LINE
8
Layer 1
10
55.797885
20
101.441191
11
55.085197
21
101.362414
0
LINE
8
Layer 1
10
55.085197
20
101.362414
11
54.659247
21
101.069455
0
LINE
8
Layer 1
10
54.659247
20
101.069455
11
54.478501
21
100.503752
0
LINE
8
Layer 1
10
54.478501
20
100.503752
11
54.501426
21
99.606746
0
LINE
8
Layer 1
10
54.501426
20
99.606746
11
54.514492
21
98.570874
0
LINE
8
Layer 1
10
54.514492
20
98.570874
11
54.370476
21
98.404426
0
LINE
8
Layer 1
10
54.370476
20
98.404426
11
54.095732
21
98.380844
0
LINE
8
Layer 1
10
54.095732
20
98.380844
11
52.760802
21
98.646377
0
LINE
8
Layer 1
10
52.760802
20
98.646377
11
51.347122
21
99.164250
0
LINE
8
Layer 1
10
51.347122
20
99.164250
11
50.227365
21
99.768875
0
LINE
8
Layer 1
10
50.227365
20
99.768875
11
49.774204
21
100.294663
0
LINE
8
Layer 1
10
49.774204
20
100.294663
11
50.031473
21
100.653846
0
LINE
8
Layer 1
10
50.031473
20
100.653846
11
50.647329
21
100.973760
0
LINE
8
Layer 1
10
50.647329
20
100.973760
11
51.160606
21
101.171463
0
LINE
8
Layer 1
10
51.160606
20
101.171463
11
51.369030
21
101.439141
0
LINE
8
Layer 1
10
51.369030
20
101.439141
11
51.017746
21
102.975774
0
LINE
8
Layer 1
10
51.017746
20
102.975774
11
51.014733
21
103.342726
0
LINE
8
Layer 1
10
51.014733
20
103.342726
11
51.308787
21
103.460844
0
LINE
8
Layer 1
10
51.308787
20
103.460844
11
51.782257
21
103.635505
0
LINE
8
Layer 1
10
51.782257
20
103.635505
11
52.109720
21
104.087763
0
LINE
8
Layer 1
10
52.109720
20
104.087763
11
52.237359
21
104.693992
0
LINE
8
Layer 1
10
52.237359
20
104.693992
11
52.111357
21
105.330566
0
LINE
8
Layer 1
10
52.111357
20
105.330566
11
51.975312
21
105.718759
0
LINE
8
Layer 1
10
51.975312
20
105.718759
11
52.035191
21
105.987700
0
LINE
8
Layer 1
10
52.035191
20
105.987700
11
53.010940
21
106.521191
0
LINE
8
Layer 1
10
53.010940
20
106.521191
11
53.727670
21
106.863124
0
LINE
8
Layer 1
10
53.727670
20
106.863124
11
54.227561
21
107.266378
0
LINE
8
Layer 1
10
54.227561
20
107.266378
11
55.189343
21
108.946538
0
LINE
8
Layer 1
10
55.189343
20
108.946538
11
55.855950
21
110.236338
0
LINE
8
Layer 1
10
55.855950
20
110.236338
11
56.069295
21
110.474221
0
LINE
8
Layer 1
10
56.069295
20
110.474221
11
56.274135
21
110.525219
0
LINE
8
Layer 1
10
56.274135
20
110.525219
11
56.274135
21
110.525219
0
LINE
8
Layer 1
10
76.100246
20
109.634455
11
76.329698
21
109.490984
0
LINE
8
Layer 1
10
76.329698
20
109.490984
11
76.391287
21
108.920080
0
LINE
8
Layer 1
10
76.391287
20
108.920080
11
76.265995
21
108.262861
0
LINE
8
Layer 1
10
76.265995
20
108.262861
11
75.959135
21
107.905844
0
LINE
8
Layer 1
10
75.959135
20
107.905844
11
75.586402
21
107.630866
0
LINE
8
Layer 1
10
75.586402
20
107.630866
11
75.571500
21
107.268822
0
LINE
8
Layer 1
10
75.571500
20
107.268822
11
75.887117
21
106.887945
0
LINE
8
Layer 1
10
75.887117
20
106.887945
11
76.505940
21
106.556469
0
LINE
8
Layer 1
10
76.505940
20
106.556469
11
77.042169
21
106.324810
0
LINE
8
Layer 1
10
77.042169
20
106.324810
11
77.335630
21
106.064937
0
LINE
8
Layer 1
10
77.335630
20
106.064937
11
77.456781
21
105.667184
0
LINE
8
Layer 1
10
77.456781
20
105.667184
11
77.476079
21
105.021885
0
LINE
8
Layer 1
10
77.476079
20
105.021885
11
77.622425
21
103.963722
0
LINE
8
Layer 1
10
77.622425
20
103.963722
11
78.181635
21
103.178621
0
LINE
8
Layer 1
10
78.181635
20
103.178621
11
78.714519
21
102.543246
0
LINE
8
Layer 1
10
78.714519
20
102.543246
11
78.656116
21
102.350424
0
LINE
8
Layer 1
10
78.656116
20
102.350424
11
78.402121
21
102.137927
0
LINE
8
Layer 1
10
78.402121
20
102.137927
11
77.881641
21
101.896051
0
LINE
8
Layer 1
10
77.881641
20
101.896051
11
77.326149
21
101.811607
0
LINE
8
Layer 1
10
77.326149
20
101.811607
11
76.449209
21
101.984203
0
LINE
8
Layer 1
10
76.449209
20
101.984203
11
75.472367
21
102.349963
0
LINE
8
Layer 1
10
75.472367
20
102.349963
11
74.679377
21
102.781684
0
LINE
8
Layer 1
10
74.679377
20
102.781684
11
74.353996
21
103.152163
0
LINE
8
Layer 1
10
74.353996
20
103.152163
11
74.234199
21
103.463992
0
LINE
8
Layer 1
10
74.234199
20
103.463992
11
73.939482
21
103.690149
0
LINE
8
Layer 1
10
73.939482
20
103.690149
11
73.650174
21
104.059921
0
LINE
8
Layer 1
10
73.650174
20
104.059921
11
73.701357
21
104.942510
0
LINE
8
Layer 1
10
73.701357
20
104.942510
11
73.745955
21
105.873572
0
LINE
8
Layer 1
10
73.745955
20
105.873572
11
73.339760
21
106.362441
0
LINE
8
Layer 1
10
73.339760
20
106.362441
11
72.936784
21
106.809431
0
LINE
8
Layer 1
10
72.936784
20
106.809431
11
73.075176
21
107.588344
0
LINE
8
Layer 1
10
73.075176
20
107.588344
11
73.454412
21
108.778969
0
LINE
8
Layer 1
10
73.454412
20
108.778969
11
73.809018
21
109.057857
0
LINE
8
Layer 1
10
73.809018
20
109.057857
11
74.556843
21
109.281677
0
LINE
8
Layer 1
10
74.556843
20
109.281677
11
75.994412
21
109.607996
0
LINE
8
Layer 1
10
75.994412
20
109.607996
11
76.100246
21
109.634455
0
LINE
8
Layer 1
10
76.100246
20
109.634455
11
76.100246
21
109.634455
0
LINE
8
Layer 1
10
29.224899
20
109.281677
11
29.489482
21
109.281677
0
LINE
8
Layer 1
10
29.489482
20
109.281677
11
30.095463
21
109.162693
0
LINE
8
Layer 1
10
30.095463
20
109.162693
11
30.591912
21
108.761330
0
LINE
8
Layer 1
10
30.591912
20
108.761330
11
31.324382
21
108.265045
0
LINE
8
Layer 1
10
31.324382
20
108.265045
11
32.302885
21
107.967580
0
LINE
8
Layer 1
10
32.302885
20
107.967580
11
33.225618
21
107.715662
0
LINE
8
Layer 1
10
33.225618
20
107.715662
11
33.435994
21
107.506925
0
LINE
8
Layer 1
10
33.435994
20
107.506925
11
33.528787
21
107.209107
0
LINE
8
Layer 1
10
33.528787
20
107.209107
11
33.626022
21
106.891385
0
LINE
8
Layer 1
10
33.626022
20
106.891385
11
33.878202
21
106.693813
0
LINE
8
Layer 1
10
33.878202
20
106.693813
11
35.230940
21
106.503552
0
LINE
8
Layer 1
10
35.230940
20
106.503552
11
36.532886
21
106.325700
0
LINE
8
Layer 1
10
36.532886
20
106.325700
11
36.779455
21
106.160334
0
LINE
8
Layer 1
10
36.779455
20
106.160334
11
36.844899
21
105.912649
0
LINE
8
Layer 1
10
36.844899
20
105.912649
11
37.250593
21
104.836677
0
LINE
8
Layer 1
10
37.250593
20
104.836677
11
37.445891
21
104.475866
0
LINE
8
Layer 1
10
37.445891
20
104.475866
11
37.463707
21
104.108236
0
LINE
8
Layer 1
10
37.463707
20
104.108236
11
36.871357
21
102.808205
0
LINE
8
Layer 1
10
36.871357
20
102.808205
11
36.283009
21
101.847287
0
LINE
8
Layer 1
10
36.283009
20
101.847287
11
35.811045
21
101.313587
0
LINE
8
Layer 1
10
35.811045
20
101.313587
11
35.498821
21
101.240565
0
LINE
8
Layer 1
10
35.498821
20
101.240565
11
35.389690
21
101.661677
0
LINE
8
Layer 1
10
35.389690
20
101.661677
11
35.223191
21
102.273924
0
LINE
8
Layer 1
10
35.223191
20
102.273924
11
34.776285
21
102.818121
0
LINE
8
Layer 1
10
34.776285
20
102.818121
11
34.146603
21
103.209634
0
LINE
8
Layer 1
10
34.146603
20
103.209634
11
33.431774
21
103.363830
0
LINE
8
Layer 1
10
33.431774
20
103.363830
11
32.762583
21
103.489073
0
LINE
8
Layer 1
10
32.762583
20
103.489073
11
32.593926
21
103.945913
0
LINE
8
Layer 1
10
32.593926
20
103.945913
11
32.498482
21
104.401194
0
LINE
8
Layer 1
10
32.498482
20
104.401194
11
32.179376
21
104.649149
0
LINE
8
Layer 1
10
32.179376
20
104.649149
11
31.604524
21
104.702031
0
LINE
8
Layer 1
10
31.604524
20
104.702031
11
30.741843
21
104.572094
0
LINE
8
Layer 1
10
30.741843
20
104.572094
11
29.844119
21
104.430848
0
LINE
8
Layer 1
10
29.844119
20
104.430848
11
29.299130
21
104.482175
0
LINE
8
Layer 1
10
29.299130
20
104.482175
11
29.065394
21
104.741620
0
LINE
8
Layer 1
10
29.065394
20
104.741620
11
29.101426
21
105.224732
0
LINE
8
Layer 1
10
29.101426
20
105.224732
11
29.113942
21
105.758933
0
LINE
8
Layer 1
10
29.113942
20
105.758933
11
28.826831
21
106.023425
0
LINE
8
Layer 1
10
28.826831
20
106.023425
11
28.275734
21
106.007633
0
LINE
8
Layer 1
10
28.275734
20
106.007633
11
27.496289
21
105.700982
0
LINE
8
Layer 1
10
27.496289
20
105.700982
11
25.758859
21
105.030705
0
LINE
8
Layer 1
10
25.758859
20
105.030705
11
25.110142
21
105.000476
0
LINE
8
Layer 1
10
25.110142
20
105.000476
11
24.991567
21
105.595149
0
LINE
8
Layer 1
10
24.991567
20
105.595149
11
25.105120
21
106.078683
0
LINE
8
Layer 1
10
25.105120
20
106.078683
11
25.409318
21
106.631439
0
LINE
8
Layer 1
10
25.409318
20
106.631439
11
26.423807
21
107.790671
0
LINE
8
Layer 1
10
26.423807
20
107.790671
11
27.703338
21
108.764955
0
LINE
8
Layer 1
10
27.703338
20
108.764955
11
28.916218
21
109.246399
0
LINE
8
Layer 1
10
28.916218
20
109.246399
11
29.224899
21
109.281677
0
LINE
8
Layer 1
10
29.224899
20
109.281677
11
29.224899
21
109.281677
0
LINE
8
Layer 1
10
60.727954
20
108.999455
11
60.904343
21
108.990635
0
LINE
8
Layer 1
10
60.904343
20
108.990635
11
62.350732
21
108.823066
0
LINE
8
Layer 1
10
62.350732
20
108.823066
11
63.382175
21
108.566923
0
LINE
8
Layer 1
10
63.382175
20
108.566923
11
63.510693
21
108.360632
0
LINE
8
Layer 1
10
63.510693
20
108.360632
11
63.470801
21
108.038135
0
LINE
8
Layer 1
10
63.470801
20
108.038135
11
63.203967
21
107.466222
0
LINE
8
Layer 1
10
63.203967
20
107.466222
11
62.782885
21
106.935705
0
LINE
8
Layer 1
10
62.782885
20
106.935705
11
62.388840
21
106.280011
0
LINE
8
Layer 1
10
62.388840
20
106.280011
11
62.191982
21
105.392302
0
LINE
8
Layer 1
10
62.191982
20
105.392302
11
62.068510
21
103.778344
0
LINE
8
Layer 1
10
62.068510
20
103.778344
11
61.962676
21
102.861121
0
LINE
8
Layer 1
10
61.962676
20
102.861121
11
61.824719
21
102.615635
0
LINE
8
Layer 1
10
61.824719
20
102.615635
11
61.539343
21
102.517163
0
LINE
8
Layer 1
10
61.539343
20
102.517163
11
61.159722
21
102.390886
0
LINE
8
Layer 1
10
61.159722
20
102.390886
11
60.789690
21
102.085010
0
LINE
8
Layer 1
10
60.789690
20
102.085010
11
60.608932
21
101.574526
0
LINE
8
Layer 1
10
60.608932
20
101.574526
11
61.036635
21
100.806191
0
LINE
8
Layer 1
10
61.036635
20
100.806191
11
61.645176
21
99.968344
0
LINE
8
Layer 1
10
61.645176
20
99.968344
11
60.772051
21
99.800774
0
LINE
8
Layer 1
10
60.772051
20
99.800774
11
60.120358
21
99.567065
0
LINE
8
Layer 1
10
60.120358
20
99.567065
11
60.084135
21
99.165774
0
LINE
8
Layer 1
10
60.084135
20
99.165774
11
60.410454
21
97.798760
0
LINE
8
Layer 1
10
60.410454
20
97.798760
11
60.457598
21
97.282706
0
LINE
8
Layer 1
10
60.457598
20
97.282706
11
60.380781
21
97.010606
0
LINE
8
Layer 1
10
60.380781
20
97.010606
11
60.111543
21
96.909892
0
LINE
8
Layer 1
10
60.111543
20
96.909892
11
59.581426
21
96.907996
0
LINE
8
Layer 1
10
59.581426
20
96.907996
11
57.147260
21
97.393066
0
LINE
8
Layer 1
10
57.147260
20
97.393066
11
55.972689
21
97.873791
0
LINE
8
Layer 1
10
55.972689
20
97.873791
11
55.745533
21
98.127718
0
LINE
8
Layer 1
10
55.745533
20
98.127718
11
55.683232
21
98.442580
0
LINE
8
Layer 1
10
55.683232
20
98.442580
11
55.515662
21
99.686121
0
LINE
8
Layer 1
10
55.515662
20
99.686121
11
55.515318
21
100.202343
0
LINE
8
Layer 1
10
55.515318
20
100.202343
11
56.062468
21
100.312302
0
LINE
8
Layer 1
10
56.062468
20
100.312302
11
56.690698
21
100.424684
0
LINE
8
Layer 1
10
56.690698
20
100.424684
11
57.118903
21
100.753765
0
LINE
8
Layer 1
10
57.118903
20
100.753765
11
57.323160
21
101.265605
0
LINE
8
Layer 1
10
57.323160
20
101.265605
11
57.279551
21
101.926260
0
LINE
8
Layer 1
10
57.279551
20
101.926260
11
57.118944
21
102.840609
0
LINE
8
Layer 1
10
57.118944
20
102.840609
11
57.143001
21
103.573981
0
LINE
8
Layer 1
10
57.143001
20
103.573981
11
57.363215
21
104.193458
0
LINE
8
Layer 1
10
57.363215
20
104.193458
11
57.791079
21
104.766121
0
LINE
8
Layer 1
10
57.791079
20
104.766121
11
59.420807
21
106.910591
0
LINE
8
Layer 1
10
59.420807
20
106.910591
11
60.044598
21
107.954107
0
LINE
8
Layer 1
10
60.044598
20
107.954107
11
60.295801
21
108.602580
0
LINE
8
Layer 1
10
60.295801
20
108.602580
11
60.378308
21
108.889355
0
LINE
8
Layer 1
10
60.378308
20
108.889355
11
60.727954
21
108.999455
0
LINE
8
Layer 1
10
60.727954
20
108.999455
11
60.727954
21
108.999455
0
LINE
8
Layer 1
10
71.046704
20
108.637857
11
72.023113
21
108.522873
0
LINE
8
Layer 1
10
72.023113
20
108.522873
11
72.322263
21
108.394593
0
LINE
8
Layer 1
10
72.322263
20
108.394593
11
72.431357
21
108.223344
0
LINE
8
Layer 1
10
72.431357
20
108.223344
11
72.302511
21
107.848734
0
LINE
8
Layer 1
10
72.302511
20
107.848734
11
71.999204
21
107.491330
0
LINE
8
Layer 1
10
71.999204
20
107.491330
11
71.670592
21
107.131241
0
LINE
8
Layer 1
10
71.670592
20
107.131241
11
71.610159
21
106.772829
0
LINE
8
Layer 1
10
71.610159
20
106.772829
11
71.825829
21
106.376793
0
LINE
8
Layer 1
10
71.825829
20
106.376793
11
72.325524
21
105.903830
0
LINE
8
Layer 1
10
72.325524
20
105.903830
11
72.901058
21
105.311914
0
LINE
8
Layer 1
10
72.901058
20
105.311914
11
72.849408
21
105.096032
0
LINE
8
Layer 1
10
72.849408
20
105.096032
11
72.598926
21
104.819038
0
LINE
8
Layer 1
10
72.598926
20
104.819038
11
72.236890
21
104.362908
0
LINE
8
Layer 1
10
72.236890
20
104.362908
11
72.136506
21
103.945921
0
LINE
8
Layer 1
10
72.136506
20
103.945921
11
72.300404
21
103.548774
0
LINE
8
Layer 1
10
72.300404
20
103.548774
11
72.731218
21
103.152163
0
LINE
8
Layer 1
10
72.731218
20
103.152163
11
73.366218
21
102.702371
0
LINE
8
Layer 1
10
73.366218
20
102.702371
11
72.466635
21
102.693552
0
LINE
8
Layer 1
10
72.466635
20
102.693552
11
70.905593
21
102.455427
0
LINE
8
Layer 1
10
70.905593
20
102.455427
11
69.494482
21
102.049732
0
LINE
8
Layer 1
10
69.494482
20
102.049732
11
69.071033
21
101.981019
0
LINE
8
Layer 1
10
69.071033
20
101.981019
11
68.820609
21
102.063817
0
LINE
8
Layer 1
10
68.820609
20
102.063817
11
68.568440
21
102.940496
0
LINE
8
Layer 1
10
68.568440
20
102.940496
11
68.303857
21
104.554455
0
LINE
8
Layer 1
10
68.303857
20
104.554455
11
68.414820
21
105.126063
0
LINE
8
Layer 1
10
68.414820
20
105.126063
11
68.956496
21
105.718621
0
LINE
8
Layer 1
10
68.956496
20
105.718621
11
69.732607
21
106.327163
0
LINE
8
Layer 1
10
69.732607
20
106.327163
11
69.097607
21
107.209107
0
LINE
8
Layer 1
10
69.097607
20
107.209107
11
68.462607
21
108.091052
0
LINE
8
Layer 1
10
68.462607
20
108.091052
11
69.194621
21
108.364455
0
LINE
8
Layer 1
10
69.194621
20
108.364455
11
70.720385
21
108.629038
0
LINE
8
Layer 1
10
70.720385
20
108.629038
11
71.046704
21
108.637857
0
LINE
8
Layer 1
10
71.046704
20
108.637857
11
71.046704
21
108.637857
0
LINE
8
Layer 1
10
65.437537
20
108.461469
11
66.363579
21
108.382094
0
LINE
8
Layer 1
10
66.363579
20
108.382094
11
67.294728
21
108.221803
0
LINE
8
Layer 1
10
67.294728
20
108.221803
11
67.554204
21
108.135149
0
LINE
8
Layer 1
10
67.554204
20
108.135149
11
67.513210
21
107.883022
0
LINE
8
Layer 1
10
67.513210
20
107.883022
11
67.721774
21
107.323760
0
LINE
8
Layer 1
10
67.721774
20
107.323760
11
67.952627
21
106.577460
0
LINE
8
Layer 1
10
67.952627
20
106.577460
11
67.554204
21
105.983205
0
LINE
8
Layer 1
10
67.554204
20
105.983205
11
67.195245
21
105.422686
0
LINE
8
Layer 1
10
67.195245
20
105.422686
11
67.174968
21
104.854316
0
LINE
8
Layer 1
10
67.174968
20
104.854316
11
67.397498
21
103.176652
0
LINE
8
Layer 1
10
67.397498
20
103.176652
11
67.345423
21
102.484960
0
LINE
8
Layer 1
10
67.345423
20
102.484960
11
67.183787
21
102.120288
0
LINE
8
Layer 1
10
67.183787
20
102.120288
11
67.080985
21
101.852928
0
LINE
8
Layer 1
10
67.080985
20
101.852928
11
67.298440
21
101.441191
0
LINE
8
Layer 1
10
67.298440
20
101.441191
11
67.545337
21
101.019351
0
LINE
8
Layer 1
10
67.545337
20
101.019351
11
67.324899
21
100.823830
0
LINE
8
Layer 1
10
67.324899
20
100.823830
11
66.705081
21
100.387655
0
LINE
8
Layer 1
10
66.705081
20
100.387655
11
65.791596
21
99.517389
0
LINE
8
Layer 1
10
65.791596
20
99.517389
11
64.202815
21
97.622371
0
LINE
8
Layer 1
10
64.202815
20
97.622371
11
63.913708
21
97.225986
0
LINE
8
Layer 1
10
63.913708
20
97.225986
11
63.588838
21
96.993468
0
LINE
8
Layer 1
10
63.588838
20
96.993468
11
62.483024
21
96.863899
0
LINE
8
Layer 1
10
62.483024
20
96.863899
11
61.552469
21
96.944150
0
LINE
8
Layer 1
10
61.552469
20
96.944150
11
61.451497
21
97.055549
0
LINE
8
Layer 1
10
61.451497
20
97.055549
11
61.548162
21
97.234316
0
LINE
8
Layer 1
10
61.548162
20
97.234316
11
61.724978
21
97.655356
0
LINE
8
Layer 1
10
61.724978
20
97.655356
11
61.715732
21
98.160357
0
LINE
8
Layer 1
10
61.715732
20
98.160357
11
61.768619
21
98.677263
0
LINE
8
Layer 1
10
61.768619
20
98.677263
11
62.297815
21
99.059941
0
LINE
8
Layer 1
10
62.297815
20
99.059941
11
62.816216
21
99.374720
0
LINE
8
Layer 1
10
62.816216
20
99.374720
11
62.987404
21
99.742365
0
LINE
8
Layer 1
10
62.987404
20
99.742365
11
62.811593
21
100.218589
0
LINE
8
Layer 1
10
62.811593
20
100.218589
11
62.288996
21
100.859107
0
LINE
8
Layer 1
10
62.288996
20
100.859107
11
61.548162
21
101.652857
0
LINE
8
Layer 1
10
61.548162
20
101.652857
11
62.324274
21
101.935080
0
LINE
8
Layer 1
10
62.324274
20
101.935080
11
62.726039
21
102.119348
0
LINE
8
Layer 1
10
62.726039
20
102.119348
11
62.951923
21
102.352636
0
LINE
8
Layer 1
10
62.951923
20
102.352636
11
63.038649
21
103.275635
0
LINE
8
Layer 1
10
63.038649
20
103.275635
11
63.069761
21
105.456192
0
LINE
8
Layer 1
10
63.069761
20
105.456192
11
63.232768
21
105.987140
0
LINE
8
Layer 1
10
63.232768
20
105.987140
11
63.497260
21
106.159594
0
LINE
8
Layer 1
10
63.497260
20
106.159594
11
63.949816
21
106.284222
0
LINE
8
Layer 1
10
63.949816
20
106.284222
11
64.342757
21
106.606794
0
LINE
8
Layer 1
10
64.342757
20
106.606794
11
64.597376
21
107.036495
0
LINE
8
Layer 1
10
64.597376
20
107.036495
11
64.634968
21
107.482510
0
LINE
8
Layer 1
10
64.634968
20
107.482510
11
64.590469
21
107.917830
0
LINE
8
Layer 1
10
64.590469
20
107.917830
11
64.698824
21
108.220405
0
LINE
8
Layer 1
10
64.698824
20
108.220405
11
64.975894
21
108.398772
0
LINE
8
Layer 1
10
64.975894
20
108.398772
11
65.437537
21
108.461469
0
LINE
8
Layer 1
10
65.437537
20
108.461469
11
65.437537
21
108.461469
0
LINE
8
Layer 1
10
40.575524
20
105.815635
11
41.580940
21
105.383482
0
LINE
8
Layer 1
10
41.580940
20
105.383482
11
42.448075
21
104.943912
0
LINE
8
Layer 1
10
42.448075
20
104.943912
11
43.128199
21
104.431366
0
LINE
8
Layer 1
10
43.128199
20
104.431366
11
43.676308
21
103.792950
0
LINE
8
Layer 1
10
43.676308
20
103.792950
11
44.147399
21
102.975774
0
LINE
8
Layer 1
10
44.147399
20
102.975774
11
44.647840
21
101.754767
0
LINE
8
Layer 1
10
44.647840
20
101.754767
11
44.924540
21
100.309476
0
LINE
8
Layer 1
10
44.924540
20
100.309476
11
45.046982
21
94.500288
0
LINE
8
Layer 1
10
45.046982
20
94.500288
11
45.117801
21
89.338001
0
LINE
8
Layer 1
10
45.117801
20
89.338001
11
45.305395
21
88.093251
0
LINE
8
Layer 1
10
45.305395
20
88.093251
11
45.655524
21
87.012580
0
LINE
8
Layer 1
10
45.655524
20
87.012580
11
46.291092
21
85.609442
0
LINE
8
Layer 1
10
46.291092
20
85.609442
11
47.021377
21
84.571082
0
LINE
8
Layer 1
10
47.021377
20
84.571082
11
47.906583
21
83.831839
0
LINE
8
Layer 1
10
47.906583
20
83.831839
11
49.006912
21
83.326052
0
LINE
8
Layer 1
10
49.006912
20
83.326052
11
50.828061
21
82.919511
0
LINE
8
Layer 1
10
50.828061
20
82.919511
11
53.101459
21
82.674654
0
LINE
8
Layer 1
10
53.101459
20
82.674654
11
55.309755
21
82.625408
0
LINE
8
Layer 1
10
55.309755
20
82.625408
11
56.935593
21
82.805705
0
LINE
8
Layer 1
10
56.935593
20
82.805705
11
59.757815
21
83.361330
0
LINE
8
Layer 1
10
59.757815
20
83.361330
11
63.292635
21
83.983121
0
LINE
8
Layer 1
10
63.292635
20
83.983121
11
64.280433
21
84.293760
0
LINE
8
Layer 1
10
64.280433
20
84.293760
11
64.776079
21
84.613691
0
LINE
8
Layer 1
10
64.776079
20
84.613691
11
65.040864
21
84.831425
0
LINE
8
Layer 1
10
65.040864
20
84.831425
11
65.481681
21
84.937141
0
LINE
8
Layer 1
10
65.481681
20
84.937141
11
67.377815
21
84.851816
0
LINE
8
Layer 1
10
67.377815
20
84.851816
11
69.158837
21
84.582816
0
LINE
8
Layer 1
10
69.158837
20
84.582816
11
70.641216
21
84.151870
0
LINE
8
Layer 1
10
70.641216
20
84.151870
11
71.750870
21
83.588032
0
LINE
8
Layer 1
10
71.750870
20
83.588032
11
72.413718
21
82.920357
0
LINE
8
Layer 1
10
72.413718
20
82.920357
11
72.606312
21
82.356827
0
LINE
8
Layer 1
10
72.606312
20
82.356827
11
72.341638
21
82.017060
0
LINE
8
Layer 1
10
72.341638
20
82.017060
11
71.557379
21
81.870973
0
LINE
8
Layer 1
10
71.557379
20
81.870973
11
70.191218
21
81.888482
0
LINE
8
Layer 1
10
70.191218
20
81.888482
11
68.621159
21
81.875858
0
LINE
8
Layer 1
10
68.621159
20
81.875858
11
68.359394
21
81.702514
0
LINE
8
Layer 1
10
68.359394
20
81.702514
11
68.259760
21
81.368135
0
LINE
8
Layer 1
10
68.259760
20
81.368135
11
68.284689
21
81.025007
0
LINE
8
Layer 1
10
68.284689
20
81.025007
11
68.491826
21
80.672201
0
LINE
8
Layer 1
10
68.491826
20
80.672201
11
69.600315
21
79.762996
0
LINE
8
Layer 1
10
69.600315
20
79.762996
11
70.576646
21
78.996266
0
LINE
8
Layer 1
10
70.576646
20
78.996266
11
71.400134
21
78.149352
0
LINE
8
Layer 1
10
71.400134
20
78.149352
11
72.067100
21
77.231084
0
LINE
8
Layer 1
10
72.067100
20
77.231084
11
72.573861
21
76.250288
0
LINE
8
Layer 1
10
72.573861
20
76.250288
11
72.916737
21
75.215795
0
LINE
8
Layer 1
10
72.916737
20
75.215795
11
73.092047
21
74.136433
0
LINE
8
Layer 1
10
73.092047
20
74.136433
11
73.096110
21
73.021029
0
LINE
8
Layer 1
10
73.096110
20
73.021029
11
72.925246
21
71.878413
0
LINE
8
Layer 1
10
72.925246
20
71.878413
11
72.550363
21
70.546251
0
LINE
8
Layer 1
10
72.550363
20
70.546251
11
72.026577
21
69.483035
0
LINE
8
Layer 1
10
72.026577
20
69.483035
11
71.217906
21
68.479800
0
LINE
8
Layer 1
10
71.217906
20
68.479800
11
69.988371
21
67.327580
0
LINE
8
Layer 1
10
69.988371
20
67.327580
11
68.336798
21
66.010891
0
LINE
8
Layer 1
10
68.336798
20
66.010891
11
66.797835
21
65.061319
0
LINE
8
Layer 1
10
66.797835
20
65.061319
11
65.286484
21
64.433489
0
LINE
8
Layer 1
10
65.286484
20
64.433489
11
63.717746
21
64.082024
0
LINE
8
Layer 1
10
63.717746
20
64.082024
11
60.566949
21
63.732464
0
LINE
8
Layer 1
10
60.566949
20
63.732464
11
58.717121
21
63.755705
0
LINE
8
Layer 1
10
58.717121
20
63.755705
11
55.057051
21
64.355427
0
LINE
8
Layer 1
10
55.057051
20
64.355427
11
50.541496
21
65.219732
0
LINE
8
Layer 1
10
50.541496
20
65.219732
11
48.001496
21
65.792996
0
LINE
8
Layer 1
10
48.001496
20
65.792996
11
46.428991
21
66.289034
0
LINE
8
Layer 1
10
46.428991
20
66.289034
11
44.024074
21
67.242956
0
LINE
8
Layer 1
10
44.024074
20
67.242956
11
39.737676
21
69.259038
0
LINE
8
Layer 1
10
39.737676
20
69.259038
11
38.680988
21
70.025915
0
LINE
8
Layer 1
10
38.680988
20
70.025915
11
37.439895
21
71.144281
0
LINE
8
Layer 1
10
37.439895
20
71.144281
11
34.670312
21
74.123314
0
LINE
8
Layer 1
10
34.670312
20
74.123314
11
31.960556
21
77.571806
0
LINE
8
Layer 1
10
31.960556
20
77.571806
11
29.842260
21
80.865427
0
LINE
8
Layer 1
10
29.842260
20
80.865427
11
29.369640
21
81.919039
0
LINE
8
Layer 1
10
29.369640
20
81.919039
11
29.242097
21
82.587032
0
LINE
8
Layer 1
10
29.242097
20
82.587032
11
29.302626
21
82.723012
0
LINE
8
Layer 1
10
29.302626
20
82.723012
11
29.443299
21
82.698494
0
LINE
8
Layer 1
10
29.443299
20
82.698494
11
29.956912
21
82.082510
0
LINE
8
Layer 1
10
29.956912
20
82.082510
11
30.428286
21
81.559792
0
LINE
8
Layer 1
10
30.428286
20
81.559792
11
30.962329
21
81.659177
0
LINE
8
Layer 1
10
30.962329
20
81.659177
11
31.358813
21
81.972798
0
LINE
8
Layer 1
10
31.358813
20
81.972798
11
31.526774
21
82.320635
0
LINE
8
Layer 1
10
31.526774
20
82.320635
11
31.714110
21
82.567970
0
LINE
8
Layer 1
10
31.714110
20
82.567970
11
32.276426
21
82.549941
0
LINE
8
Layer 1
10
32.276426
20
82.549941
11
32.872658
21
82.531405
0
LINE
8
Layer 1
10
32.872658
20
82.531405
11
32.858510
21
83.070288
0
LINE
8
Layer 1
10
32.858510
20
83.070288
11
32.591138
21
84.643066
0
LINE
8
Layer 1
10
32.591138
20
84.643066
11
32.500956
21
86.306254
0
LINE
8
Layer 1
10
32.500956
20
86.306254
11
32.587346
21
87.963211
0
LINE
8
Layer 1
10
32.587346
20
87.963211
11
32.849690
21
89.517302
0
LINE
8
Layer 1
10
32.849690
20
89.517302
11
33.907327
21
93.109247
0
LINE
8
Layer 1
10
33.907327
20
93.109247
11
35.363274
21
96.825385
0
LINE
8
Layer 1
10
35.363274
20
96.825385
11
37.097012
21
100.386596
0
LINE
8
Layer 1
10
37.097012
20
100.386596
11
38.988024
21
103.513760
0
LINE
8
Layer 1
10
38.988024
20
103.513760
11
40.575524
21
105.815635
0
LINE
8
Layer 1
10
40.575524
20
105.815635
11
40.575524
21
105.815635
0
LINE
8
Layer 1
10
23.977331
20
104.704385
11
24.418303
21
104.430982
0
LINE
8
Layer 1
10
24.418303
20
104.430982
11
25.065132
21
104.087519
0
LINE
8
Layer 1
10
25.065132
20
104.087519
11
26.023442
21
104.131121
0
LINE
8
Layer 1
10
26.023442
20
104.131121
11
27.408095
21
104.580913
0
LINE
8
Layer 1
10
27.408095
20
104.580913
11
27.773218
21
104.586939
0
LINE
8
Layer 1
10
27.773218
20
104.586939
11
28.219484
21
104.087024
0
LINE
8
Layer 1
10
28.219484
20
104.087024
11
28.521538
21
103.679370
0
LINE
8
Layer 1
10
28.521538
20
103.679370
11
28.855041
21
103.472408
0
LINE
8
Layer 1
10
28.855041
20
103.472408
11
30.203857
21
103.478482
0
LINE
8
Layer 1
10
30.203857
20
103.478482
11
31.490115
21
103.500802
0
LINE
8
Layer 1
10
31.490115
20
103.500802
11
31.706991
21
103.333338
0
LINE
8
Layer 1
10
31.706991
20
103.333338
11
31.791357
21
103.002232
0
LINE
8
Layer 1
10
31.791357
20
103.002232
11
31.882631
21
102.695780
0
LINE
8
Layer 1
10
31.882631
20
102.695780
11
32.087737
21
102.481416
0
LINE
8
Layer 1
10
32.087737
20
102.481416
11
32.999621
21
102.226121
0
LINE
8
Layer 1
10
32.999621
20
102.226121
11
33.907177
21
102.055498
0
LINE
8
Layer 1
10
33.907177
20
102.055498
11
34.429820
21
101.830229
0
LINE
8
Layer 1
10
34.429820
20
101.830229
11
34.640852
21
101.494226
0
LINE
8
Layer 1
10
34.640852
20
101.494226
11
34.613579
21
100.991399
0
LINE
8
Layer 1
10
34.613579
20
100.991399
11
34.597883
21
100.456137
0
LINE
8
Layer 1
10
34.597883
20
100.456137
11
34.754690
21
100.127094
0
LINE
8
Layer 1
10
34.754690
20
100.127094
11
34.764191
21
99.513571
0
LINE
8
Layer 1
10
34.764191
20
99.513571
11
34.296079
21
98.133899
0
LINE
8
Layer 1
10
34.296079
20
98.133899
11
33.445525
21
96.432708
0
LINE
8
Layer 1
10
33.445525
20
96.432708
11
33.197891
21
96.405945
0
LINE
8
Layer 1
10
33.197891
20
96.405945
11
33.008440
21
96.872719
0
LINE
8
Layer 1
10
33.008440
20
96.872719
11
32.679814
21
97.333149
0
LINE
8
Layer 1
10
32.679814
20
97.333149
11
32.047121
21
97.613552
0
LINE
8
Layer 1
10
32.047121
20
97.613552
11
31.358290
21
97.942591
0
LINE
8
Layer 1
10
31.358290
20
97.942591
11
30.900593
21
98.574871
0
LINE
8
Layer 1
10
30.900593
20
98.574871
11
30.395606
21
99.237112
0
LINE
8
Layer 1
10
30.395606
20
99.237112
11
29.410107
21
99.527371
0
LINE
8
Layer 1
10
29.410107
20
99.527371
11
28.422789
21
99.823583
0
LINE
8
Layer 1
10
28.422789
20
99.823583
11
27.655039
21
100.294663
0
LINE
8
Layer 1
10
27.655039
20
100.294663
11
27.048893
21
100.711679
0
LINE
8
Layer 1
10
27.048893
20
100.711679
11
26.482053
21
100.506330
0
LINE
8
Layer 1
10
26.482053
20
100.506330
11
25.568337
21
100.052907
0
LINE
8
Layer 1
10
25.568337
20
100.052907
11
24.784622
21
100.004401
0
LINE
8
Layer 1
10
24.784622
20
100.004401
11
24.119813
21
100.363403
0
LINE
8
Layer 1
10
24.119813
20
100.363403
11
23.562817
21
101.132510
0
LINE
8
Layer 1
10
23.562817
20
101.132510
11
23.136206
21
101.601801
0
LINE
8
Layer 1
10
23.136206
20
101.601801
11
22.539762
21
101.776330
0
LINE
8
Layer 1
10
22.539762
20
101.776330
11
22.040270
21
101.832410
0
LINE
8
Layer 1
10
22.040270
20
101.832410
11
21.913766
21
102.068220
0
LINE
8
Layer 1
10
21.913766
20
102.068220
11
22.874900
21
103.566677
0
LINE
8
Layer 1
10
22.874900
20
103.566677
11
23.568402
21
104.435437
0
LINE
8
Layer 1
10
23.568402
20
104.435437
11
23.977331
21
104.704385
0
LINE
8
Layer 1
10
23.977331
20
104.704385
11
23.977331
21
104.704385
0
LINE
8
Layer 1
10
74.054135
20
100.973760
11
74.997815
21
100.964941
0
LINE
8
Layer 1
10
74.997815
20
100.964941
11
77.152248
21
100.518348
0
LINE
8
Layer 1
10
77.152248
20
100.518348
11
78.175212
21
100.133079
0
LINE
8
Layer 1
10
78.175212
20
100.133079
11
78.710801
21
99.783135
0
LINE
8
Layer 1
10
78.710801
20
99.783135
11
78.715250
21
99.383569
0
LINE
8
Layer 1
10
78.715250
20
99.383569
11
78.392741
21
98.694354
0
LINE
8
Layer 1
10
78.392741
20
98.694354
11
76.682329
21
96.308274
0
LINE
8
Layer 1
10
76.682329
20
96.308274
11
75.446582
21
94.939334
0
LINE
8
Layer 1
10
75.446582
20
94.939334
11
74.987819
21
94.610333
0
LINE
8
Layer 1
10
74.987819
20
94.610333
11
74.618579
21
94.500288
0
LINE
8
Layer 1
10
74.618579
20
94.500288
11
74.257613
21
94.553086
0
LINE
8
Layer 1
10
74.257613
20
94.553086
11
74.073112
21
94.917291
0
LINE
8
Layer 1
10
74.073112
20
94.917291
11
74.018857
21
97.728205
0
LINE
8
Layer 1
10
74.018857
20
97.728205
11
74.054135
21
100.973760
0
LINE
8
Layer 1
10
74.054135
20
100.973760
11
74.054135
21
100.973760
0
LINE
8
Layer 1
10
21.816567
20
100.885566
11
22.543028
21
100.665981
0
LINE
8
Layer 1
10
22.543028
20
100.665981
11
23.386428
21
99.906607
0
LINE
8
Layer 1
10
23.386428
20
99.906607
11
24.338928
21
98.839455
0
LINE
8
Layer 1
10
24.338928
20
98.839455
11
25.467817
21
99.342163
0
LINE
8
Layer 1
10
25.467817
20
99.342163
11
26.596706
21
99.836052
0
LINE
8
Layer 1
10
26.596706
20
99.836052
11
27.505109
21
99.059941
0
LINE
8
Layer 1
10
27.505109
20
99.059941
11
28.382163
21
98.483749
0
LINE
8
Layer 1
10
28.382163
20
98.483749
11
29.198440
21
98.433760
0
LINE
8
Layer 1
10
29.198440
20
98.433760
11
29.840995
21
98.450475
0
LINE
8
Layer 1
10
29.840995
20
98.450475
11
29.992190
21
98.045705
0
LINE
8
Layer 1
10
29.992190
20
98.045705
11
30.117585
21
97.508810
0
LINE
8
Layer 1
10
30.117585
20
97.508810
11
30.462295
21
97.051417
0
LINE
8
Layer 1
10
30.462295
20
97.051417
11
30.962214
21
96.731775
0
LINE
8
Layer 1
10
30.962214
20
96.731775
11
31.553232
21
96.608135
0
LINE
8
Layer 1
10
31.553232
20
96.608135
11
32.047698
21
96.486869
0
LINE
8
Layer 1
10
32.047698
20
96.486869
11
32.232329
21
96.184802
0
LINE
8
Layer 1
10
32.232329
20
96.184802
11
32.367393
21
95.821287
0
LINE
8
Layer 1
10
32.367393
20
95.821287
11
32.699760
21
95.514524
0
LINE
8
Layer 1
10
32.699760
20
95.514524
11
32.948014
21
95.321712
0
LINE
8
Layer 1
10
32.948014
20
95.321712
11
33.024117
21
95.024780
0
LINE
8
Layer 1
10
33.024117
20
95.024780
11
32.638024
21
93.521330
0
LINE
8
Layer 1
10
32.638024
20
93.521330
11
31.932468
21
91.819177
0
LINE
8
Layer 1
10
31.932468
20
91.819177
11
31.403301
21
92.242510
0
LINE
8
Layer 1
10
31.403301
20
92.242510
11
30.911251
21
92.542736
0
LINE
8
Layer 1
10
30.911251
20
92.542736
11
30.230315
21
92.674663
0
LINE
8
Layer 1
10
30.230315
20
92.674663
11
29.537964
21
92.838845
0
LINE
8
Layer 1
10
29.537964
20
92.838845
11
29.330732
21
93.600705
0
LINE
8
Layer 1
10
29.330732
20
93.600705
11
29.260727
21
94.122938
0
LINE
8
Layer 1
10
29.260727
20
94.122938
11
29.080221
21
94.395876
0
LINE
8
Layer 1
10
29.080221
20
94.395876
11
27.866706
21
94.526746
0
LINE
8
Layer 1
10
27.866706
20
94.526746
11
27.078843
21
94.554666
0
LINE
8
Layer 1
10
27.078843
20
94.554666
11
26.635146
21
94.671877
0
LINE
8
Layer 1
10
26.635146
20
94.671877
11
26.399330
21
94.959057
0
LINE
8
Layer 1
10
26.399330
20
94.959057
11
26.235109
21
95.496885
0
LINE
8
Layer 1
10
26.235109
20
95.496885
11
25.988164
21
96.449385
0
LINE
8
Layer 1
10
25.988164
20
96.449385
11
24.594692
21
96.272996
0
LINE
8
Layer 1
10
24.594692
20
96.272996
11
22.821984
21
95.964316
0
LINE
8
Layer 1
10
22.821984
20
95.964316
11
22.637661
21
95.974785
0
LINE
8
Layer 1
10
22.637661
20
95.974785
11
22.471729
21
96.154173
0
LINE
8
Layer 1
10
22.471729
20
96.154173
11
22.186984
21
97.040288
0
LINE
8
Layer 1
10
22.186984
20
97.040288
11
21.987267
21
97.773134
0
LINE
8
Layer 1
10
21.987267
20
97.773134
11
21.704155
21
98.139178
0
LINE
8
Layer 1
10
21.704155
20
98.139178
11
21.232509
21
98.198311
0
LINE
8
Layer 1
10
21.232509
20
98.198311
11
20.467192
21
98.010427
0
LINE
8
Layer 1
10
20.467192
20
98.010427
11
20.004846
21
97.958961
0
LINE
8
Layer 1
10
20.004846
20
97.958961
11
19.857057
21
98.203536
0
LINE
8
Layer 1
10
19.857057
20
98.203536
11
20.023155
21
98.770481
0
LINE
8
Layer 1
10
20.023155
20
98.770481
11
20.502470
21
99.686121
0
LINE
8
Layer 1
10
20.502470
20
99.686121
11
21.154320
21
100.559942
0
LINE
8
Layer 1
10
21.154320
20
100.559942
11
21.816567
21
100.885566
0
LINE
8
Layer 1
10
21.816567
20
100.885566
11
21.816567
21
100.885566
0
LINE
8
Layer 1
10
69.494482
20
100.188830
11
69.855145
21
100.004103
0
LINE
8
Layer 1
10
69.855145
20
100.004103
11
70.070569
21
99.351539
0
LINE
8
Layer 1
10
70.070569
20
99.351539
11
70.270593
21
96.308274
0
LINE
8
Layer 1
10
70.270593
20
96.308274
11
70.276496
21
93.553208
0
LINE
8
Layer 1
10
70.276496
20
93.553208
11
70.138719
21
92.940574
0
LINE
8
Layer 1
10
70.138719
20
92.940574
11
69.873718
21
92.542371
0
LINE
8
Layer 1
10
69.873718
20
92.542371
11
69.185801
21
91.995566
0
LINE
8
Layer 1
10
69.185801
20
91.995566
11
67.730593
21
94.888344
0
LINE
8
Layer 1
10
67.730593
20
94.888344
11
66.912914
21
96.826204
0
LINE
8
Layer 1
10
66.912914
20
96.826204
11
66.702595
21
97.982305
0
LINE
8
Layer 1
10
66.702595
20
97.982305
11
66.840806
21
98.396000
0
LINE
8
Layer 1
10
66.840806
20
98.396000
11
67.149591
21
98.768821
0
LINE
8
Layer 1
10
67.149591
20
98.768821
11
68.303857
21
99.597927
0
LINE
8
Layer 1
10
68.303857
20
99.597927
11
68.998992
21
100.019534
0
LINE
8
Layer 1
10
68.998992
20
100.019534
11
69.494482
21
100.188830
0
LINE
8
Layer 1
10
69.494482
20
100.188830
11
69.494482
21
100.188830
0
LINE
8
Layer 1
10
46.705037
20
99.553830
11
47.878024
21
98.910010
0
LINE
8
Layer 1
10
47.878024
20
98.910010
11
50.421083
21
97.752179
0
LINE
8
Layer 1
10
50.421083
20
97.752179
11
53.431907
21
96.777460
0
LINE
8
Layer 1
10
53.431907
20
96.777460
11
56.992925
21
95.962818
0
LINE
8
Layer 1
10
56.992925
20
95.962818
11
61.186565
21
95.285219
0
LINE
8
Layer 1
10
61.186565
20
95.285219
11
62.641774
21
95.091191
0
LINE
8
Layer 1
10
62.641774
20
95.091191
11
62.103787
21
93.635982
0
LINE
8
Layer 1
10
62.103787
20
93.635982
11
60.904343
21
88.908760
0
LINE
8
Layer 1
10
60.904343
20
88.908760
11
60.234065
21
85.654385
0
LINE
8
Layer 1
10
60.234065
20
85.654385
11
58.805315
21
85.231052
0
LINE
8
Layer 1
10
58.805315
20
85.231052
11
55.542121
21
84.516677
0
LINE
8
Layer 1
10
55.542121
20
84.516677
11
53.516264
21
84.315624
0
LINE
8
Layer 1
10
53.516264
20
84.315624
11
51.751639
21
84.374599
0
LINE
8
Layer 1
10
51.751639
20
84.374599
11
50.144825
21
84.705256
0
LINE
8
Layer 1
10
50.144825
20
84.705256
11
48.592399
21
85.319246
0
LINE
8
Layer 1
10
48.592399
20
85.319246
11
47.820061
21
85.837823
0
LINE
8
Layer 1
10
47.820061
20
85.837823
11
47.259854
21
86.596151
0
LINE
8
Layer 1
10
47.259854
20
86.596151
11
46.852187
21
87.710419
0
LINE
8
Layer 1
10
46.852187
20
87.710419
11
46.537468
21
89.296816
0
LINE
8
Layer 1
10
46.537468
20
89.296816
11
46.356705
21
91.452224
0
LINE
8
Layer 1
10
46.356705
20
91.452224
11
46.292783
21
94.289666
0
LINE
8
Layer 1
10
46.292783
20
94.289666
11
46.346794
21
96.994293
0
LINE
8
Layer 1
10
46.346794
20
96.994293
11
46.519829
21
98.751260
0
LINE
8
Layer 1
10
46.519829
20
98.751260
11
46.705037
21
99.553830
0
LINE
8
Layer 1
10
46.705037
20
99.553830
11
46.705037
21
99.553830
0
LINE
8
Layer 1
10
20.687678
20
96.996191
11
21.074732
21
96.740385
0
LINE
8
Layer 1
10
21.074732
20
96.740385
11
21.384414
21
96.078969
0
LINE
8
Layer 1
10
21.384414
20
96.078969
11
21.640178
21
95.152927
0
LINE
8
Layer 1
10
21.640178
20
95.152927
11
23.606914
21
95.135288
0
LINE
8
Layer 1
10
23.606914
20
95.135288
11
25.263398
21
95.025559
0
LINE
8
Layer 1
10
25.263398
20
95.025559
11
25.562755
21
94.853091
0
LINE
8
Layer 1
10
25.562755
20
94.853091
11
25.679484
21
94.553205
0
LINE
8
Layer 1
10
25.679484
20
94.553205
11
25.877973
21
93.909386
0
LINE
8
Layer 1
10
25.877973
20
93.909386
11
26.218197
21
93.509401
0
LINE
8
Layer 1
10
26.218197
20
93.509401
11
26.736651
21
93.329252
0
LINE
8
Layer 1
10
26.736651
20
93.329252
11
27.469831
21
93.344941
0
LINE
8
Layer 1
10
27.469831
20
93.344941
11
28.338486
21
93.354985
0
LINE
8
Layer 1
10
28.338486
20
93.354985
11
28.491338
21
93.215717
0
LINE
8
Layer 1
10
28.491338
20
93.215717
11
28.528162
21
92.956885
0
LINE
8
Layer 1
10
28.528162
20
92.956885
11
28.589811
21
92.279124
0
LINE
8
Layer 1
10
28.589811
20
92.279124
11
28.818398
21
91.847635
0
LINE
8
Layer 1
10
28.818398
20
91.847635
11
29.254645
21
91.617992
0
LINE
8
Layer 1
10
29.254645
20
91.617992
11
29.939274
21
91.545774
0
LINE
8
Layer 1
10
29.939274
20
91.545774
11
30.868100
21
91.395661
0
LINE
8
Layer 1
10
30.868100
20
91.395661
11
31.064649
21
91.136558
0
LINE
8
Layer 1
10
31.064649
20
91.136558
11
31.191635
21
90.681469
0
LINE
8
Layer 1
10
31.191635
20
90.681469
11
31.259520
21
89.834028
0
LINE
8
Layer 1
10
31.259520
20
89.834028
11
31.173996
21
88.988135
0
LINE
8
Layer 1
10
31.173996
20
88.988135
11
30.794760
21
88.159107
0
LINE
8
Layer 1
10
30.794760
20
88.159107
11
29.026534
21
88.949365
0
LINE
8
Layer 1
10
29.026534
20
88.949365
11
26.517331
21
90.478621
0
LINE
8
Layer 1
10
26.517331
20
90.478621
11
23.686289
21
92.180774
0
LINE
8
Layer 1
10
23.686289
20
92.180774
11
20.750621
21
93.719850
0
LINE
8
Layer 1
10
20.750621
20
93.719850
11
19.020803
21
94.844246
0
LINE
8
Layer 1
10
19.020803
20
94.844246
11
18.770579
21
95.388896
0
LINE
8
Layer 1
10
18.770579
20
95.388896
11
18.818941
21
96.010765
0
LINE
8
Layer 1
10
18.818941
20
96.010765
11
19.098322
21
96.483733
0
LINE
8
Layer 1
10
19.098322
20
96.483733
11
19.541150
21
96.581677
0
LINE
8
Layer 1
10
19.541150
20
96.581677
11
19.951480
21
96.548912
0
LINE
8
Layer 1
10
19.951480
20
96.548912
11
20.229067
21
96.705149
0
LINE
8
Layer 1
10
20.229067
20
96.705149
11
20.449285
21
96.936481
0
LINE
8
Layer 1
10
20.449285
20
96.936481
11
20.687678
21
96.996191
0
LINE
8
Layer 1
10
20.687678
20
96.996191
11
20.687678
21
96.996191
0
LINE
8
Layer 1
10
81.832885
20
95.814385
11
82.185785
21
95.444423
0
LINE
8
Layer 1
10
82.185785
20
95.444423
11
82.670571
21
94.590489
0
LINE
8
Layer 1
10
82.670571
20
94.590489
11
83.098111
21
93.629718
0
LINE
8
Layer 1
10
83.098111
20
93.629718
11
83.279274
21
92.939246
0
LINE
8
Layer 1
10
83.279274
20
92.939246
11
82.556376
21
92.187382
0
LINE
8
Layer 1
10
82.556376
20
92.187382
11
80.580524
21
90.937232
0
LINE
8
Layer 1
10
80.580524
20
90.937232
11
77.881774
21
89.402649
0
LINE
8
Layer 1
10
77.881774
20
89.402649
11
77.899412
21
90.734385
0
LINE
8
Layer 1
10
77.899412
20
90.734385
11
77.951841
21
91.517200
0
LINE
8
Layer 1
10
77.951841
20
91.517200
11
78.185508
21
92.147567
0
LINE
8
Layer 1
10
78.185508
20
92.147567
11
79.769135
21
93.944663
0
LINE
8
Layer 1
10
79.769135
20
93.944663
11
81.832885
21
95.814385
0
LINE
8
Layer 1
10
81.832885
20
95.814385
11
81.832885
21
95.814385
0
LINE
8
Layer 1
10
90.511218
20
94.173969
11
88.813004
21
93.951073
0
LINE
8
Layer 1
10
88.813004
20
93.951073
11
87.706635
21
93.486052
0
LINE
8
Layer 1
10
87.706635
20
93.486052
11
87.494226
21
92.761197
0
LINE
8
Layer 1
10
87.494226
20
92.761197
11
87.327399
21
91.325288
0
LINE
8
Layer 1
10
87.327399
20
91.325288
11
87.307173
21
89.904578
0
LINE
8
Layer 1
10
87.307173
20
89.904578
11
87.515403
21
88.998658
0
LINE
8
Layer 1
10
87.515403
20
88.998658
11
88.000047
21
88.510810
0
LINE
8
Layer 1
10
88.000047
20
88.510810
11
88.809065
21
88.344316
0
LINE
8
Layer 1
10
88.809065
20
88.344316
11
89.484523
21
88.208782
0
LINE
8
Layer 1
10
89.484523
20
88.208782
11
89.849760
21
87.929802
0
LINE
8
Layer 1
10
89.849760
20
87.929802
11
90.188361
21
87.658670
0
LINE
8
Layer 1
10
90.188361
20
87.658670
11
90.811079
21
87.541746
0
LINE
8
Layer 1
10
90.811079
20
87.541746
11
91.271056
21
87.606066
0
LINE
8
Layer 1
10
91.271056
20
87.606066
11
91.749715
21
87.828224
0
LINE
8
Layer 1
10
91.749715
20
87.828224
11
92.954204
21
88.864663
0
LINE
8
Layer 1
10
92.954204
20
88.864663
11
93.892134
21
89.988045
0
LINE
8
Layer 1
10
93.892134
20
89.988045
11
94.261329
21
90.957930
0
LINE
8
Layer 1
10
94.261329
20
90.957930
11
94.073975
21
91.917466
0
LINE
8
Layer 1
10
94.073975
20
91.917466
11
93.342260
21
93.009802
0
LINE
8
Layer 1
10
93.342260
20
93.009802
11
92.797237
21
93.618811
0
LINE
8
Layer 1
10
92.797237
20
93.618811
11
92.331402
21
93.963613
0
LINE
8
Layer 1
10
92.331402
20
93.963613
11
91.791117
21
94.122552
0
LINE
8
Layer 1
10
91.791117
20
94.122552
11
91.022746
21
94.173969
0
LINE
8
Layer 1
10
91.022746
20
94.173969
11
90.511218
21
94.173969
0
LINE
8
Layer 1
10
90.511218
20
94.173969
11
90.511218
21
94.173969
0
LINE
8
Layer 1
10
63.911774
20
94.041677
11
64.599106
21
92.983513
0
LINE
8
Layer 1
10
64.599106
20
92.983513
11
65.789018
21
90.574103
0
LINE
8
Layer 1
10
65.789018
20
90.574103
11
66.915638
21
88.017734
0
LINE
8
Layer 1
10
66.915638
20
88.017734
11
67.413093
21
86.518691
0
LINE
8
Layer 1
10
67.413093
20
86.518691
11
65.755037
21
86.386399
0
LINE
8
Layer 1
10
65.755037
20
86.386399
11
64.096982
21
86.404038
0
LINE
8
Layer 1
10
64.096982
20
86.404038
11
63.453162
21
88.026816
0
LINE
8
Layer 1
10
63.453162
20
88.026816
11
63.021986
21
89.354174
0
LINE
8
Layer 1
10
63.021986
20
89.354174
11
62.854078
21
90.523638
0
LINE
8
Layer 1
10
62.854078
20
90.523638
11
62.948229
21
91.593424
0
LINE
8
Layer 1
10
62.948229
20
91.593424
11
63.303232
21
92.621746
0
LINE
8
Layer 1
10
63.303232
20
92.621746
11
63.894135
21
94.015219
0
LINE
8
Layer 1
10
63.894135
20
94.015219
11
63.911774
21
94.041677
0
LINE
8
Layer 1
10
63.911774
20
94.041677
11
63.911774
21
94.041677
0
LINE
8
Layer 1
10
83.270454
20
88.176746
11
83.067607
21
87.550566
0
LINE
8
Layer 1
10
83.067607
20
87.550566
11
82.419938
21
86.085314
0
LINE
8
Layer 1
10
82.419938
20
86.085314
11
81.577121
21
85.010566
0
LINE
8
Layer 1
10
81.577121
20
85.010566
11
80.823023
21
84.550503
0
LINE
8
Layer 1
10
80.823023
20
84.550503
11
79.965475
21
84.351280
0
LINE
8
Layer 1
10
79.965475
20
84.351280
11
79.124409
21
84.422169
0
LINE
8
Layer 1
10
79.124409
20
84.422169
11
78.419760
21
84.772441
0
LINE
8
Layer 1
10
78.419760
20
84.772441
11
77.749482
21
85.328066
0
LINE
8
Layer 1
10
77.749482
20
85.328066
11
79.292885
21
86.068899
0
LINE
8
Layer 1
10
79.292885
20
86.068899
11
82.044551
21
87.488830
0
LINE
8
Layer 1
10
82.044551
20
87.488830
11
83.270454
21
88.176746
0
LINE
8
Layer 1
10
83.270454
20
88.176746
11
83.270454
21
88.176746
0
LINE
8
Layer 1
10
93.157051
20
81.006538
11
92.538687
21
80.822594
0
LINE
8
Layer 1
10
92.538687
20
80.822594
11
91.851774
21
80.265705
0
LINE
8
Layer 1
10
91.851774
20
80.265705
11
90.819163
21
78.846894
0
LINE
8
Layer 1
10
90.819163
20
78.846894
11
90.272384
21
77.418975
0
LINE
8
Layer 1
10
90.272384
20
77.418975
11
90.274970
21
76.283327
0
LINE
8
Layer 1
10
90.274970
20
76.283327
11
90.502129
21
75.919286
0
LINE
8
Layer 1
10
90.502129
20
75.919286
11
90.890454
21
75.741330
0
LINE
8
Layer 1
10
90.890454
20
75.741330
11
91.393606
21
75.440408
0
LINE
8
Layer 1
10
91.393606
20
75.440408
11
91.781218
21
74.788830
0
LINE
8
Layer 1
10
91.781218
20
74.788830
11
92.165000
21
74.112742
0
LINE
8
Layer 1
10
92.165000
20
74.112742
11
92.760176
21
74.074455
0
LINE
8
Layer 1
10
92.760176
20
74.074455
11
95.044412
21
74.400774
0
LINE
8
Layer 1
10
95.044412
20
74.400774
11
96.182209
21
74.620452
0
LINE
8
Layer 1
10
96.182209
20
74.620452
11
96.874479
21
75.008375
0
LINE
8
Layer 1
10
96.874479
20
75.008375
11
97.156629
21
75.599616
0
LINE
8
Layer 1
10
97.156629
20
75.599616
11
97.064065
21
76.429246
0
LINE
8
Layer 1
10
97.064065
20
76.429246
11
96.844011
21
77.540937
0
LINE
8
Layer 1
10
96.844011
20
77.540937
11
96.746565
21
79.516052
0
LINE
8
Layer 1
10
96.746565
20
79.516052
11
96.627847
21
80.373706
0
LINE
8
Layer 1
10
96.627847
20
80.373706
11
96.309377
21
80.850537
0
LINE
8
Layer 1
10
96.309377
20
80.850537
11
95.753095
21
80.973215
0
LINE
8
Layer 1
10
95.753095
20
80.973215
11
94.920940
21
80.768413
0
LINE
8
Layer 1
10
94.920940
20
80.768413
11
94.201398
21
80.606429
0
LINE
8
Layer 1
10
94.201398
20
80.606429
11
93.774412
21
80.741955
0
LINE
8
Layer 1
10
93.774412
20
80.741955
11
93.157051
21
81.006538
0
LINE
8
Layer 1
10
93.157051
20
81.006538
11
93.157051
21
81.006538
0
LINE
8
Layer 1
10
115.011635
20
76.288135
11
116.062186
21
75.760010
0
LINE
8
Layer 1
10
116.062186
20
75.760010
11
117.911370
21
74.471387
0
LINE
8
Layer 1
10
117.911370
20
74.471387
11
119.979766
21
72.852006
0
LINE
8
Layer 1
10
119.979766
20
72.852006
11
121.687954
21
71.331607
0
LINE
8
Layer 1
10
121.687954
20
71.331607
11
123.907777
21
68.832062
0
LINE
8
Layer 1
10
123.907777
20
68.832062
11
125.947600
21
65.936390
0
LINE
8
Layer 1
10
125.947600
20
65.936390
11
127.798429
21
62.666314
0
LINE
8
Layer 1
10
127.798429
20
62.666314
11
129.451270
21
59.043555
0
LINE
8
Layer 1
10
129.451270
20
59.043555
11
130.897129
21
55.089837
0
LINE
8
Layer 1
10
130.897129
20
55.089837
11
132.127014
21
50.826882
0
LINE
8
Layer 1
10
132.127014
20
50.826882
11
133.131930
21
46.276412
0
LINE
8
Layer 1
10
133.131930
20
46.276412
11
133.902885
21
41.460149
0
LINE
8
Layer 1
10
133.902885
20
41.460149
11
134.117011
21
38.216880
0
LINE
8
Layer 1
10
134.117011
20
38.216880
11
134.176287
21
33.901885
0
LINE
8
Layer 1
10
134.176287
20
33.901885
11
134.028237
21
29.393804
0
LINE
8
Layer 1
10
134.028237
20
29.393804
11
133.830805
21
28.192022
0
LINE
8
Layer 1
10
133.830805
20
28.192022
11
133.497190
21
27.137371
0
LINE
8
Layer 1
10
133.497190
20
27.137371
11
132.394760
21
23.803621
0
LINE
8
Layer 1
10
132.394760
20
23.803621
11
131.701790
21
22.170477
0
LINE
8
Layer 1
10
131.701790
20
22.170477
11
130.304551
21
20.575705
0
LINE
8
Layer 1
10
130.304551
20
20.575705
11
128.798131
21
18.864330
0
LINE
8
Layer 1
10
128.798131
20
18.864330
11
127.455871
21
16.968552
0
LINE
8
Layer 1
10
127.455871
20
16.968552
11
126.221149
21
14.940080
0
LINE
8
Layer 1
10
126.221149
20
14.940080
11
125.180454
21
15.336955
0
LINE
8
Layer 1
10
125.180454
20
15.336955
11
123.479191
21
15.888402
0
LINE
8
Layer 1
10
123.479191
20
15.888402
11
121.640212
21
16.299370
0
LINE
8
Layer 1
10
121.640212
20
16.299370
11
119.636651
21
16.570613
0
LINE
8
Layer 1
10
119.636651
20
16.570613
11
117.441642
21
16.702882
0
LINE
8
Layer 1
10
117.441642
20
16.702882
11
112.369822
21
16.553517
0
LINE
8
Layer 1
10
112.369822
20
16.553517
11
106.209829
21
15.857302
0
LINE
8
Layer 1
10
106.209829
20
15.857302
11
101.756010
21
15.019455
0
LINE
8
Layer 1
10
101.756010
20
15.019455
11
99.632098
21
14.474492
0
LINE
8
Layer 1
10
99.632098
20
14.474492
11
98.273069
21
14.308516
0
LINE
8
Layer 1
10
98.273069
20
14.308516
11
97.275267
21
14.531082
0
LINE
8
Layer 1
10
97.275267
20
14.531082
11
96.235037
21
15.151746
0
LINE
8
Layer 1
10
96.235037
20
15.151746
11
93.929187
21
16.580789
0
LINE
8
Layer 1
10
93.929187
20
16.580789
11
90.669968
21
17.938691
0
LINE
8
Layer 1
10
90.669968
20
17.938691
11
87.952973
21
18.798124
0
LINE
8
Layer 1
10
87.952973
20
18.798124
11
84.787348
21
19.512998
0
LINE
8
Layer 1
10
84.787348
20
19.512998
11
81.579856
21
20.007367
0
LINE
8
Layer 1
10
81.579856
20
20.007367
11
78.737260
21
20.205288
0
LINE
8
Layer 1
10
78.737260
20
20.205288
11
74.753317
21
19.930901
0
LINE
8
Layer 1
10
74.753317
20
19.930901
11
69.362190
21
18.997024
0
LINE
8
Layer 1
10
69.362190
20
18.997024
11
67.042676
21
18.520774
0
LINE
8
Layer 1
10
67.042676
20
18.520774
11
65.552190
21
19.535010
0
LINE
8
Layer 1
10
65.552190
20
19.535010
11
61.875658
21
21.919692
0
LINE
8
Layer 1
10
61.875658
20
21.919692
11
59.537329
21
23.203899
0
LINE
8
Layer 1
10
59.537329
20
23.203899
11
58.664204
21
23.556677
0
LINE
8
Layer 1
10
58.664204
20
23.556677
11
59.493232
21
26.705219
0
LINE
8
Layer 1
10
59.493232
20
26.705219
11
60.184066
21
29.905616
0
LINE
8
Layer 1
10
60.184066
20
29.905616
11
60.666218
21
33.187510
0
LINE
8
Layer 1
10
60.666218
20
33.187510
11
61.107190
21
36.724107
0
LINE
8
Layer 1
10
61.107190
20
36.724107
11
61.848024
21
41.407232
0
LINE
8
Layer 1
10
61.848024
20
41.407232
11
62.800524
21
48.030635
0
LINE
8
Layer 1
10
62.800524
20
48.030635
11
63.717746
21
54.371816
0
LINE
8
Layer 1
10
63.717746
20
54.371816
11
64.314744
21
58.143589
0
LINE
8
Layer 1
10
64.314744
20
58.143589
11
64.860096
21
60.774081
0
LINE
8
Layer 1
10
64.860096
20
60.774081
11
65.372258
21
62.335541
0
LINE
8
Layer 1
10
65.372258
20
62.335541
11
65.621662
21
62.737962
0
LINE
8
Layer 1
10
65.621662
20
62.737962
11
65.869690
21
62.900219
0
LINE
8
Layer 1
10
65.869690
20
62.900219
11
68.039274
21
63.949732
0
LINE
8
Layer 1
10
68.039274
20
63.949732
11
69.679690
21
64.884594
0
LINE
8
Layer 1
10
69.679690
20
64.884594
11
72.731218
21
64.179038
0
LINE
8
Layer 1
10
72.731218
20
64.179038
11
75.713019
21
63.592113
0
LINE
8
Layer 1
10
75.713019
20
63.592113
11
78.788042
21
63.190741
0
LINE
8
Layer 1
10
78.788042
20
63.190741
11
81.929087
21
62.974340
0
LINE
8
Layer 1
10
81.929087
20
62.974340
11
85.108952
21
62.942326
0
LINE
8
Layer 1
10
85.108952
20
62.942326
11
88.300437
21
63.094115
0
LINE
8
Layer 1
10
88.300437
20
63.094115
11
91.476341
21
63.429124
0
LINE
8
Layer 1
10
91.476341
20
63.429124
11
94.609465
21
63.946770
0
LINE
8
Layer 1
10
94.609465
20
63.946770
11
97.672607
21
64.646469
0
LINE
8
Layer 1
10
97.672607
20
64.646469
11
102.721576
21
66.205355
0
LINE
8
Layer 1
10
102.721576
20
66.205355
11
104.726211
21
67.003211
0
LINE
8
Layer 1
10
104.726211
20
67.003211
11
106.156912
21
67.733274
0
LINE
8
Layer 1
10
106.156912
20
67.733274
11
107.704584
21
68.883395
0
LINE
8
Layer 1
10
107.704584
20
68.883395
11
109.586945
21
70.556384
0
LINE
8
Layer 1
10
109.586945
20
70.556384
11
111.529203
21
72.491306
0
LINE
8
Layer 1
10
111.529203
20
72.491306
11
113.256565
21
74.427232
0
LINE
8
Layer 1
10
113.256565
20
74.427232
11
115.011635
21
76.288135
0
LINE
8
Layer 1
10
115.011635
20
76.288135
11
115.011635
21
76.288135
0
LINE
8
Layer 1
10
40.478510
20
67.168830
11
41.492746
21
66.604385
0
LINE
8
Layer 1
10
41.492746
20
66.604385
11
44.114902
21
65.442891
0
LINE
8
Layer 1
10
44.114902
20
65.442891
11
47.439844
21
64.338683
0
LINE
8
Layer 1
10
47.439844
20
64.338683
11
50.939778
21
63.445694
0
LINE
8
Layer 1
10
50.939778
20
63.445694
11
54.086912
21
62.917857
0
LINE
8
Layer 1
10
54.086912
20
62.917857
11
56.388787
21
62.512163
0
LINE
8
Layer 1
10
56.388787
20
62.512163
11
56.515560
21
62.168969
0
LINE
8
Layer 1
10
56.515560
20
62.168969
11
56.347153
21
60.771646
0
LINE
8
Layer 1
10
56.347153
20
60.771646
11
54.483787
21
50.932232
0
LINE
8
Layer 1
10
54.483787
20
50.932232
11
53.002121
21
43.188760
0
LINE
8
Layer 1
10
53.002121
20
43.188760
11
51.247051
21
35.163066
0
LINE
8
Layer 1
10
51.247051
20
35.163066
11
49.985871
21
29.033552
0
LINE
8
Layer 1
10
49.985871
20
29.033552
11
49.818016
21
27.876619
0
LINE
8
Layer 1
10
49.818016
20
27.876619
11
49.485061
21
27.362516
0
LINE
8
Layer 1
10
49.485061
20
27.362516
11
48.756487
21
27.388480
0
LINE
8
Layer 1
10
48.756487
20
27.388480
11
47.401774
21
27.851746
0
LINE
8
Layer 1
10
47.401774
20
27.851746
11
43.846975
21
28.807381
0
LINE
8
Layer 1
10
43.846975
20
28.807381
11
38.097260
21
29.933135
0
LINE
8
Layer 1
10
38.097260
20
29.933135
11
35.957528
21
30.152528
0
LINE
8
Layer 1
10
35.957528
20
30.152528
11
33.705176
21
30.127163
0
LINE
8
Layer 1
10
33.705176
20
30.127163
11
31.394482
21
29.959594
0
LINE
8
Layer 1
10
31.394482
20
29.959594
11
31.006426
21
30.753344
0
LINE
8
Layer 1
10
31.006426
20
30.753344
11
30.688780
21
32.902329
0
LINE
8
Layer 1
10
30.688780
20
32.902329
11
30.550977
21
36.817997
0
LINE
8
Layer 1
10
30.550977
20
36.817997
11
30.605621
21
41.220296
0
LINE
8
Layer 1
10
30.605621
20
41.220296
11
30.865315
21
44.829177
0
LINE
8
Layer 1
10
30.865315
20
44.829177
11
31.351357
21
47.889937
0
LINE
8
Layer 1
10
31.351357
20
47.889937
11
31.980415
21
50.924664
0
LINE
8
Layer 1
10
31.980415
20
50.924664
11
32.680309
21
53.617011
0
LINE
8
Layer 1
10
32.680309
20
53.617011
11
33.378857
21
55.650635
0
LINE
8
Layer 1
10
33.378857
20
55.650635
11
34.848106
21
58.863373
0
LINE
8
Layer 1
10
34.848106
20
58.863373
11
36.395735
21
61.742208
0
LINE
8
Layer 1
10
36.395735
20
61.742208
11
37.962894
21
64.188018
0
LINE
8
Layer 1
10
37.962894
20
64.188018
11
39.490732
21
66.101677
0
LINE
8
Layer 1
10
39.490732
20
66.101677
11
40.478510
21
67.168830
0
LINE
8
Layer 1
10
40.478510
20
67.168830
11
40.478510
21
67.168830
0
LINE
8
Layer 1
10
99.868649
20
62.565080
11
99.330662
21
62.388691
0
LINE
8
Layer 1
10
99.330662
20
62.388691
11
98.688539
21
62.182214
0
LINE
8
Layer 1
10
98.688539
20
62.182214
11
97.981287
21
62.194663
0
LINE
8
Layer 1
10
97.981287
20
62.194663
11
97.179830
21
62.163619
0
LINE
8
Layer 1
10
97.179830
20
62.163619
11
96.317847
21
61.812108
0
LINE
8
Layer 1
10
96.317847
20
61.812108
11
95.562185
21
61.235156
0
LINE
8
Layer 1
10
95.562185
20
61.235156
11
95.079690
21
60.527788
0
LINE
8
Layer 1
10
95.079690
20
60.527788
11
94.788649
21
58.719802
0
LINE
8
Layer 1
10
94.788649
20
58.719802
11
94.904592
21
57.827952
0
LINE
8
Layer 1
10
94.904592
20
57.827952
11
95.388371
21
57.485080
0
LINE
8
Layer 1
10
95.388371
20
57.485080
11
95.843638
21
57.192740
0
LINE
8
Layer 1
10
95.843638
20
57.192740
11
95.811704
21
56.470844
0
LINE
8
Layer 1
10
95.811704
20
56.470844
11
95.774859
21
55.745281
0
LINE
8
Layer 1
10
95.774859
20
55.745281
11
96.102746
21
55.341955
0
LINE
8
Layer 1
10
96.102746
20
55.341955
11
96.728926
21
55.156746
0
LINE
8
Layer 1
10
96.728926
20
55.156746
11
98.519274
21
55.562441
0
LINE
8
Layer 1
10
98.519274
20
55.562441
11
99.785634
21
55.919055
0
LINE
8
Layer 1
10
99.785634
20
55.919055
11
100.336079
21
56.347371
0
LINE
8
Layer 1
10
100.336079
20
56.347371
11
101.306218
21
57.670288
0
LINE
8
Layer 1
10
101.306218
20
57.670288
11
101.932345
21
58.532666
0
LINE
8
Layer 1
10
101.932345
20
58.532666
11
102.302815
21
59.416538
0
LINE
8
Layer 1
10
102.302815
20
59.416538
11
102.337587
21
60.211285
0
LINE
8
Layer 1
10
102.337587
20
60.211285
11
101.782468
21
60.642441
0
LINE
8
Layer 1
10
101.782468
20
60.642441
11
101.248835
21
61.049007
0
LINE
8
Layer 1
10
101.248835
20
61.049007
11
100.979899
21
61.550844
0
LINE
8
Layer 1
10
100.979899
20
61.550844
11
100.843640
21
61.987187
0
LINE
8
Layer 1
10
100.843640
20
61.987187
11
100.591888
21
62.312439
0
LINE
8
Layer 1
10
100.591888
20
62.312439
11
100.256329
21
62.510452
0
LINE
8
Layer 1
10
100.256329
20
62.510452
11
99.868649
21
62.565080
0
LINE
8
Layer 1
10
99.868649
20
62.565080
11
99.868649
21
62.565080
0
LINE
8
Layer 1
10
62.712329
20
62.141746
11
62.932815
21
62.141746
0
LINE
8
Layer 1
10
62.932815
20
62.141746
11
63.344444
21
62.004238
0
LINE
8
Layer 1
10
63.344444
20
62.004238
11
63.488440
21
61.639038
0
LINE
8
Layer 1
10
63.488440
20
61.639038
11
63.404687
21
61.037351
0
LINE
8
Layer 1
10
63.404687
20
61.037351
11
63.212945
21
60.736058
0
LINE
8
Layer 1
10
63.212945
20
60.736058
11
62.960514
21
60.764987
0
LINE
8
Layer 1
10
62.960514
20
60.764987
11
62.694690
21
61.153969
0
LINE
8
Layer 1
10
62.694690
20
61.153969
11
62.400188
21
61.956297
0
LINE
8
Layer 1
10
62.400188
20
61.956297
11
62.472827
21
62.098782
0
LINE
8
Layer 1
10
62.472827
20
62.098782
11
62.712329
21
62.141746
0
LINE
8
Layer 1
10
62.712329
20
62.141746
11
62.712329
21
62.141746
0
LINE
8
Layer 1
10
58.426079
20
61.339177
11
58.955645
21
60.867636
0
LINE
8
Layer 1
10
58.955645
20
60.867636
11
59.846010
21
59.451816
0
LINE
8
Layer 1
10
59.846010
20
59.451816
11
61.415871
21
56.885357
0
LINE
8
Layer 1
10
61.415871
20
56.885357
11
61.904541
21
55.954182
0
LINE
8
Layer 1
10
61.904541
20
55.954182
11
62.183162
21
55.130288
0
LINE
8
Layer 1
10
62.183162
20
55.130288
11
62.068510
21
53.119455
0
LINE
8
Layer 1
10
62.068510
20
53.119455
11
61.821565
21
51.849455
0
LINE
8
Layer 1
10
61.821565
20
51.849455
11
61.371774
21
52.563830
0
LINE
8
Layer 1
10
61.371774
20
52.563830
11
58.452537
21
57.511538
0
LINE
8
Layer 1
10
58.452537
20
57.511538
11
57.698640
21
59.128466
0
LINE
8
Layer 1
10
57.698640
20
59.128466
11
57.694733
21
59.687625
0
LINE
8
Layer 1
10
57.694733
20
59.687625
11
57.879274
21
60.395496
0
LINE
8
Layer 1
10
57.879274
20
60.395496
11
58.144108
21
61.104896
0
LINE
8
Layer 1
10
58.144108
20
61.104896
11
58.426079
21
61.339177
0
LINE
8
Layer 1
10
58.426079
20
61.339177
11
58.426079
21
61.339177
0
LINE
8
Layer 1
10
56.362329
20
52.890149
11
57.265882
21
51.705632
0
LINE
8
Layer 1
10
57.265882
20
51.705632
11
60.057676
21
47.016399
0
LINE
8
Layer 1
10
60.057676
20
47.016399
11
60.897254
21
45.287948
0
LINE
8
Layer 1
10
60.897254
20
45.287948
11
60.963776
21
44.595162
0
LINE
8
Layer 1
10
60.963776
20
44.595162
11
60.877885
21
43.682649
0
LINE
8
Layer 1
10
60.877885
20
43.682649
11
60.634124
21
42.310758
0
LINE
8
Layer 1
10
60.634124
20
42.310758
11
60.484430
21
42.004966
0
LINE
8
Layer 1
10
60.484430
20
42.004966
11
60.295033
21
41.961296
0
LINE
8
Layer 1
10
60.295033
20
41.961296
11
59.733635
21
42.686382
0
LINE
8
Layer 1
10
59.733635
20
42.686382
11
58.822954
21
44.538135
0
LINE
8
Layer 1
10
58.822954
20
44.538135
11
56.812121
21
48.453969
0
LINE
8
Layer 1
10
56.812121
20
48.453969
11
55.938997
21
50.267914
0
LINE
8
Layer 1
10
55.938997
20
50.267914
11
55.854997
21
50.905904
0
LINE
8
Layer 1
10
55.854997
20
50.905904
11
55.930176
21
51.637788
0
LINE
8
Layer 1
10
55.930176
20
51.637788
11
56.140501
21
52.524615
0
LINE
8
Layer 1
10
56.140501
20
52.524615
11
56.362329
21
52.890149
0
LINE
8
Layer 1
10
56.362329
20
52.890149
11
56.362329
21
52.890149
0
LINE
8
Layer 1
10
99.727537
20
48.365774
11
99.019920
21
48.138017
0
LINE
8
Layer 1
10
99.019920
20
48.138017
11
98.360524
21
47.545566
0
LINE
8
Layer 1
10
98.360524
20
47.545566
11
97.923293
21
47.235950
0
LINE
8
Layer 1
10
97.923293
20
47.235950
11
97.390385
21
47.104594
0
LINE
8
Layer 1
10
97.390385
20
47.104594
11
96.820256
21
46.992315
0
LINE
8
Layer 1
10
96.820256
20
46.992315
11
96.287954
21
46.725357
0
LINE
8
Layer 1
10
96.287954
20
46.725357
11
96.053622
21
46.394018
0
LINE
8
Layer 1
10
96.053622
20
46.394018
11
95.915147
21
45.859598
0
LINE
8
Layer 1
10
95.915147
20
45.859598
11
95.903866
21
44.407228
0
LINE
8
Layer 1
10
95.903866
20
44.407228
11
96.210306
21
42.819670
0
LINE
8
Layer 1
10
96.210306
20
42.819670
11
96.790662
21
41.548344
0
LINE
8
Layer 1
10
96.790662
20
41.548344
11
97.336259
21
40.955849
0
LINE
8
Layer 1
10
97.336259
20
40.955849
11
97.874872
21
40.665759
0
LINE
8
Layer 1
10
97.874872
20
40.665759
11
98.382907
21
40.684670
0
LINE
8
Layer 1
10
98.382907
20
40.684670
11
98.836774
21
41.019177
0
LINE
8
Layer 1
10
98.836774
20
41.019177
11
99.430884
21
41.306947
0
LINE
8
Layer 1
10
99.430884
20
41.306947
11
100.494829
21
41.371955
0
LINE
8
Layer 1
10
100.494829
20
41.371955
11
102.043508
21
41.500653
0
LINE
8
Layer 1
10
102.043508
20
41.500653
11
102.579666
21
41.751063
0
LINE
8
Layer 1
10
102.579666
20
41.751063
11
102.976354
21
42.153761
0
LINE
8
Layer 1
10
102.976354
20
42.153761
11
103.248060
21
42.729931
0
LINE
8
Layer 1
10
103.248060
20
42.729931
11
103.409271
21
43.500758
0
LINE
8
Layer 1
10
103.409271
20
43.500758
11
103.458162
21
45.711121
0
LINE
8
Layer 1
10
103.458162
20
45.711121
11
103.304072
21
46.594003
0
LINE
8
Layer 1
10
103.304072
20
46.594003
11
103.079225
21
46.740675
0
LINE
8
Layer 1
10
103.079225
20
46.740675
11
102.690871
21
46.778274
0
LINE
8
Layer 1
10
102.690871
20
46.778274
11
102.113283
21
46.915597
0
LINE
8
Layer 1
10
102.113283
20
46.915597
11
101.826565
21
47.298621
0
LINE
8
Layer 1
10
101.826565
20
47.298621
11
101.454424
21
47.768189
0
LINE
8
Layer 1
10
101.454424
20
47.768189
11
100.741774
21
48.171746
0
LINE
8
Layer 1
10
100.741774
20
48.171746
11
99.727537
21
48.365774
0
LINE
8
Layer 1
10
99.727537
20
48.365774
11
99.727537
21
48.365774
0
LINE
8
Layer 1
10
54.668996
20
43.603274
11
55.000742
21
43.435586
0
LINE
8
Layer 1
10
55.000742
20
43.435586
11
55.453926
21
42.827163
0
LINE
8
Layer 1
10
55.453926
20
42.827163
11
57.861635
21
38.558552
0
LINE
8
Layer 1
10
57.861635
20
38.558552
11
59.546149
21
35.365913
0
LINE
8
Layer 1
10
59.546149
20
35.365913
11
59.113996
21
33.205149
0
LINE
8
Layer 1
10
59.113996
20
33.205149
11
58.602468
21
30.973830
0
LINE
8
Layer 1
10
58.602468
20
30.973830
11
58.214412
21
31.511816
0
LINE
8
Layer 1
10
58.214412
20
31.511816
11
54.276524
21
39.527517
0
LINE
8
Layer 1
10
54.276524
20
39.527517
11
53.898917
21
40.836047
0
LINE
8
Layer 1
10
53.898917
20
40.836047
11
54.007537
21
41.742371
0
LINE
8
Layer 1
10
54.007537
20
41.742371
11
54.335023
21
43.109595
0
LINE
8
Layer 1
10
54.335023
20
43.109595
11
54.668996
21
43.603274
0
LINE
8
Layer 1
10
54.668996
20
43.603274
11
54.668996
21
43.603274
0
LINE
8
Layer 1
10
52.375940
20
33.928344
11
52.411218
21
33.928344
0
LINE
8
Layer 1
10
52.411218
20
33.928344
11
53.041248
21
33.084542
0
LINE
8
Layer 1
10
53.041248
20
33.084542
11
54.739551
21
30.047788
0
LINE
8
Layer 1
10
54.739551
20
30.047788
11
56.865875
21
25.770810
0
LINE
8
Layer 1
10
56.865875
20
25.770810
11
57.231839
21
24.551224
0
LINE
8
Layer 1
10
57.231839
20
24.551224
11
57.147260
21
23.909455
0
LINE
8
Layer 1
10
57.147260
20
23.909455
11
56.610083
21
23.554829
0
LINE
8
Layer 1
10
56.610083
20
23.554829
11
56.403734
21
23.660169
0
LINE
8
Layer 1
10
56.403734
20
23.660169
11
56.238857
21
23.953552
0
LINE
8
Layer 1
10
56.238857
20
23.953552
11
54.734803
21
26.474825
0
LINE
8
Layer 1
10
54.734803
20
26.474825
11
53.222607
21
28.601399
0
LINE
8
Layer 1
10
53.222607
20
28.601399
11
53.002121
21
28.971816
0
LINE
8
Layer 1
10
53.002121
20
28.971816
11
52.455315
21
30.418205
0
LINE
8
Layer 1
10
52.455315
20
30.418205
11
52.116015
21
31.293060
0
LINE
8
Layer 1
10
52.116015
20
31.293060
11
51.955978
21
32.104435
0
LINE
8
Layer 1
10
51.955978
20
32.104435
11
51.975055
21
32.866445
0
LINE
8
Layer 1
10
51.975055
20
32.866445
11
52.173093
21
33.593205
0
LINE
8
Layer 1
10
52.173093
20
33.593205
11
52.375940
21
33.928344
0
LINE
8
Layer 1
10
52.375940
20
33.928344
11
52.375940
21
33.928344
0
LINE
8
Layer 1
10
151.109621
20
30.285913
11
151.735801
21
30.285913
0
LINE
8
Layer 1
10
151.735801
20
30.285913
11
153.252652
21
30.164731
0
LINE
8
Layer 1
10
153.252652
20
30.164731
11
154.178787
21
29.774385
0
LINE
8
Layer 1
10
154.178787
20
29.774385
11
154.981357
21
29.245219
0
LINE
8
Layer 1
10
154.981357
20
29.245219
11
154.716774
21
18.670705
0
LINE
8
Layer 1
10
154.716774
20
18.670705
11
154.465732
21
11.152465
0
LINE
8
Layer 1
10
154.465732
20
11.152465
11
154.249343
21
7.919802
0
LINE
8
Layer 1
10
154.249343
20
7.919802
11
146.727200
21
7.857169
0
LINE
8
Layer 1
10
146.727200
20
7.857169
11
128.902260
21
7.963899
0
LINE
8
Layer 1
10
128.902260
20
7.963899
11
109.171668
21
8.056268
0
LINE
8
Layer 1
10
109.171668
20
8.056268
11
97.804899
21
7.937441
0
LINE
8
Layer 1
10
97.804899
20
7.937441
11
90.965631
21
7.775279
0
LINE
8
Layer 1
10
90.965631
20
7.775279
11
82.847121
21
7.752232
0
LINE
8
Layer 1
10
82.847121
20
7.752232
11
75.719053
21
7.721377
0
LINE
8
Layer 1
10
75.719053
20
7.721377
11
71.267190
21
7.540566
0
LINE
8
Layer 1
10
71.267190
20
7.540566
11
63.471823
21
7.379703
0
LINE
8
Layer 1
10
63.471823
20
7.379703
11
46.149412
21
7.434732
0
LINE
8
Layer 1
10
46.149412
20
7.434732
11
29.783297
21
7.490270
0
LINE
8
Layer 1
10
29.783297
20
7.490270
11
22.134067
21
7.390635
0
LINE
8
Layer 1
10
22.134067
20
7.390635
11
20.867929
21
7.313572
0
LINE
8
Layer 1
10
20.867929
20
7.313572
11
20.646641
21
7.503740
0
LINE
8
Layer 1
10
20.646641
20
7.503740
11
20.520109
21
7.902163
0
LINE
8
Layer 1
10
20.520109
20
7.902163
11
20.484831
21
8.986955
0
LINE
8
Layer 1
10
20.484831
20
8.986955
11
20.784692
21
15.795566
0
LINE
8
Layer 1
10
20.784692
20
15.795566
11
20.934623
21
22.224941
0
LINE
8
Layer 1
10
20.934623
20
22.224941
11
22.769067
21
24.050566
0
LINE
8
Layer 1
10
22.769067
20
24.050566
11
24.242891
21
25.380702
0
LINE
8
Layer 1
10
24.242891
20
25.380702
11
25.723107
21
26.439337
0
LINE
8
Layer 1
10
25.723107
20
26.439337
11
27.267500
21
27.264906
0
LINE
8
Layer 1
10
27.267500
20
27.264906
11
28.933857
21
27.895844
0
LINE
8
Layer 1
10
28.933857
20
27.895844
11
29.901596
21
28.128187
0
LINE
8
Layer 1
10
29.901596
20
28.128187
11
31.160589
21
28.244275
0
LINE
8
Layer 1
10
31.160589
20
28.244275
11
35.989412
21
28.178066
0
LINE
8
Layer 1
10
35.989412
20
28.178066
11
39.850012
21
27.972719
0
LINE
8
Layer 1
10
39.850012
20
27.972719
11
42.890566
21
27.613324
0
LINE
8
Layer 1
10
42.890566
20
27.613324
11
45.498998
21
27.038001
0
LINE
8
Layer 1
10
45.498998
20
27.038001
11
48.063232
21
26.184871
0
LINE
8
Layer 1
10
48.063232
20
26.184871
11
49.460322
21
25.535137
0
LINE
8
Layer 1
10
49.460322
20
25.535137
11
49.655308
21
25.249883
0
LINE
8
Layer 1
10
49.655308
20
25.249883
11
49.641912
21
24.888413
0
LINE
8
Layer 1
10
49.641912
20
24.888413
11
49.767141
21
23.930924
0
LINE
8
Layer 1
10
49.767141
20
23.930924
11
50.276498
21
22.625402
0
LINE
8
Layer 1
10
50.276498
20
22.625402
11
50.977884
21
21.375413
0
LINE
8
Layer 1
10
50.977884
20
21.375413
11
51.679204
21
20.584524
0
LINE
8
Layer 1
10
51.679204
20
20.584524
11
52.658531
21
20.236650
0
LINE
8
Layer 1
10
52.658531
20
20.236650
11
54.192746
21
20.090635
0
LINE
8
Layer 1
10
54.192746
20
20.090635
11
55.237783
21
20.092447
0
LINE
8
Layer 1
10
55.237783
20
20.092447
11
55.917360
21
20.201762
0
LINE
8
Layer 1
10
55.917360
20
20.201762
11
56.460029
21
20.498048
0
LINE
8
Layer 1
10
56.460029
20
20.498048
11
57.094343
21
21.060774
0
LINE
8
Layer 1
10
57.094343
20
21.060774
11
58.152676
21
22.083830
0
LINE
8
Layer 1
10
58.152676
20
22.083830
11
60.957260
21
20.690357
0
LINE
8
Layer 1
10
60.957260
20
20.690357
11
63.182577
21
19.511225
0
LINE
8
Layer 1
10
63.182577
20
19.511225
11
64.809829
21
18.484184
0
LINE
8
Layer 1
10
64.809829
20
18.484184
11
65.807255
21
17.631983
0
LINE
8
Layer 1
10
65.807255
20
17.631983
11
66.143093
21
16.977371
0
LINE
8
Layer 1
10
66.143093
20
16.977371
11
66.333909
21
16.530857
0
LINE
8
Layer 1
10
66.333909
20
16.530857
11
66.892746
21
16.245357
0
LINE
8
Layer 1
10
66.892746
20
16.245357
11
67.839749
21
15.779246
0
LINE
8
Layer 1
10
67.839749
20
15.779246
11
69.044690
21
14.931260
0
LINE
8
Layer 1
10
69.044690
20
14.931260
11
70.275761
21
14.094734
0
LINE
8
Layer 1
10
70.275761
20
14.094734
11
71.231912
21
13.793552
0
LINE
8
Layer 1
10
71.231912
20
13.793552
11
71.772045
21
13.855799
0
LINE
8
Layer 1
10
71.772045
20
13.855799
11
72.008617
21
14.049583
0
LINE
8
Layer 1
10
72.008617
20
14.049583
11
71.938415
21
14.364501
0
LINE
8
Layer 1
10
71.938415
20
14.364501
11
71.558232
21
14.790149
0
LINE
8
Layer 1
10
71.558232
20
14.790149
11
69.979551
21
16.183621
0
LINE
8
Layer 1
10
69.979551
20
16.183621
11
69.146033
21
17.033105
0
LINE
8
Layer 1
10
69.146033
20
17.033105
11
69.169404
21
17.236139
0
LINE
8
Layer 1
10
69.169404
20
17.236139
11
69.432746
21
17.409524
0
LINE
8
Layer 1
10
69.432746
20
17.409524
11
70.409380
21
17.721340
0
LINE
8
Layer 1
10
70.409380
20
17.721340
11
71.935608
21
17.988572
0
LINE
8
Layer 1
10
71.935608
20
17.988572
11
76.036654
21
18.356971
0
LINE
8
Layer 1
10
76.036654
20
18.356971
11
80.535504
21
18.450083
0
LINE
8
Layer 1
10
80.535504
20
18.450083
11
84.231774
21
18.203274
0
LINE
8
Layer 1
10
84.231774
20
18.203274
11
88.165246
21
17.391885
0
LINE
8
Layer 1
10
88.165246
20
17.391885
11
90.341351
21
16.573310
0
LINE
8
Layer 1
10
90.341351
20
16.573310
11
92.915401
21
15.327793
0
LINE
8
Layer 1
10
92.915401
20
15.327793
11
95.497828
21
13.859756
0
LINE
8
Layer 1
10
95.497828
20
13.859756
11
97.699065
21
12.373621
0
LINE
8
Layer 1
10
97.699065
20
12.373621
11
99.562877
21
11.084716
0
LINE
8
Layer 1
10
99.562877
20
11.084716
11
100.056740
21
10.882191
0
LINE
8
Layer 1
10
100.056740
20
10.882191
11
100.327260
21
10.936052
0
LINE
8
Layer 1
10
100.327260
20
10.936052
11
100.505774
21
11.369132
0
LINE
8
Layer 1
10
100.505774
20
11.369132
11
100.336079
21
12.100219
0
LINE
8
Layer 1
10
100.336079
20
12.100219
11
100.182393
21
12.581648
0
LINE
8
Layer 1
10
100.182393
20
12.581648
11
100.196519
21
12.878739
0
LINE
8
Layer 1
10
100.196519
20
12.878739
11
100.918162
21
13.308482
0
LINE
8
Layer 1
10
100.918162
20
13.308482
11
104.639968
21
14.128691
0
LINE
8
Layer 1
10
104.639968
20
14.128691
11
108.820385
21
14.834246
0
LINE
8
Layer 1
10
108.820385
20
14.834246
11
114.050315
21
15.222302
0
LINE
8
Layer 1
10
114.050315
20
15.222302
11
117.853363
21
15.210555
0
LINE
8
Layer 1
10
117.853363
20
15.210555
11
119.329416
21
14.959334
0
LINE
8
Layer 1
10
119.329416
20
14.959334
11
121.299899
21
14.463830
0
LINE
8
Layer 1
10
121.299899
20
14.463830
11
126.443472
21
13.022267
0
LINE
8
Layer 1
10
126.443472
20
13.022267
11
128.981635
21
11.967927
0
LINE
8
Layer 1
10
128.981635
20
11.967927
11
130.855154
21
11.250954
0
LINE
8
Layer 1
10
130.855154
20
11.250954
11
131.376662
21
11.274246
0
LINE
8
Layer 1
10
131.376662
20
11.274246
11
131.556912
21
11.562232
0
LINE
8
Layer 1
10
131.556912
20
11.562232
11
131.410807
21
12.072008
0
LINE
8
Layer 1
10
131.410807
20
12.072008
11
130.981829
21
12.585700
0
LINE
8
Layer 1
10
130.981829
20
12.585700
11
129.237399
21
13.652441
0
LINE
8
Layer 1
10
129.237399
20
13.652441
11
127.658718
21
14.384455
0
LINE
8
Layer 1
10
127.658718
20
14.384455
11
128.681774
21
15.980774
0
LINE
8
Layer 1
10
128.681774
20
15.980774
11
130.085822
21
18.002237
0
LINE
8
Layer 1
10
130.085822
20
18.002237
11
131.586979
21
19.880338
0
LINE
8
Layer 1
10
131.586979
20
19.880338
11
133.187150
21
21.617047
0
LINE
8
Layer 1
10
133.187150
20
21.617047
11
134.888243
21
23.214334
0
LINE
8
Layer 1
10
134.888243
20
23.214334
11
136.692164
21
24.674165
0
LINE
8
Layer 1
10
136.692164
20
24.674165
11
138.600821
21
25.998511
0
LINE
8
Layer 1
10
138.600821
20
25.998511
11
140.616120
21
27.189340
0
LINE
8
Layer 1
10
140.616120
20
27.189340
11
142.739968
21
28.248621
0
LINE
8
Layer 1
10
142.739968
20
28.248621
11
144.993863
21
29.187932
0
LINE
8
Layer 1
10
144.993863
20
29.187932
11
147.007853
21
29.809876
0
LINE
8
Layer 1
10
147.007853
20
29.809876
11
148.980314
21
30.160515
0
LINE
8
Layer 1
10
148.980314
20
30.160515
11
151.109621
21
30.285913
0
LINE
8
Layer 1
10
151.109621
20
30.285913
11
151.109621
21
30.285913
0
LINE
8
Layer 1
10
50.973649
20
25.990844
11
52.111357
21
23.759524
0
LINE
8
Layer 1
10
52.111357
20
23.759524
11
53.152051
21
21.475288
0
LINE
8
Layer 1
10
53.152051
20
21.475288
11
52.569968
21
21.528205
0
LINE
8
Layer 1
10
52.569968
20
21.528205
11
52.079107
21
21.852390
0
LINE
8
Layer 1
10
52.079107
20
21.852390
11
51.645713
21
22.534157
0
LINE
8
Layer 1
10
51.645713
20
22.534157
11
51.308439
21
23.491264
0
LINE
8
Layer 1
10
51.308439
20
23.491264
11
51.105940
21
24.641469
0
LINE
8
Layer 1
10
51.105940
20
24.641469
11
50.973649
21
25.990844
0
LINE
8
Layer 1
10
50.973649
20
25.990844
11
50.973649
21
25.990844
 0 
ENDSEC
 0 
EOF
