999
"DXF R12 Output" (www.mydxf.blogspot.com)
 0 
SECTION
 2 
HEADER
 9 
$ACADVER
 1 
AC1009
 9 
$EXTMIN
 10 
 0 
 20 
 0 
 9 
$EXTMAX
 10 
 8.5 
 20 
 11 
 0 
ENDSEC
 0 
SECTION
 2 
ENTITIES
0
LINE
8
Layer 1
10
104.999999
20
298.536508
11
105.273402
21
298.518869
0
LINE
8
Layer 1
10
105.273402
20
298.518869
11
106.824104
21
298.419221
0
LINE
8
Layer 1
10
106.824104
20
298.419221
11
108.369027
21
298.157272
0
LINE
8
Layer 1
10
108.369027
20
298.157272
11
111.225177
21
297.385533
0
LINE
8
Layer 1
10
111.225177
20
297.385533
11
114.121253
21
296.238758
0
LINE
8
Layer 1
10
114.121253
20
296.238758
11
116.998269
21
294.758004
0
LINE
8
Layer 1
10
116.998269
20
294.758004
11
119.797240
21
292.984330
0
LINE
8
Layer 1
10
119.797240
20
292.984330
11
122.459182
21
290.958793
0
LINE
8
Layer 1
10
122.459182
20
290.958793
11
124.925110
21
288.722450
0
LINE
8
Layer 1
10
124.925110
20
288.722450
11
127.136039
21
286.316358
0
LINE
8
Layer 1
10
127.136039
20
286.316358
11
129.032985
21
283.781577
0
LINE
8
Layer 1
10
129.032985
20
283.781577
11
130.355196
21
281.630053
0
LINE
8
Layer 1
10
130.355196
20
281.630053
11
131.495258
21
279.423540
0
LINE
8
Layer 1
10
131.495258
20
279.423540
11
132.453165
21
277.162030
0
LINE
8
Layer 1
10
132.453165
20
277.162030
11
133.228913
21
274.845512
0
LINE
8
Layer 1
10
133.228913
20
274.845512
11
133.822494
21
272.473980
0
LINE
8
Layer 1
10
133.822494
20
272.473980
11
134.233905
21
270.047422
0
LINE
8
Layer 1
10
134.233905
20
270.047422
11
134.463140
21
267.565831
0
LINE
8
Layer 1
10
134.463140
20
267.565831
11
134.510193
21
265.029197
0
LINE
8
Layer 1
10
134.510193
20
265.029197
11
134.375059
21
262.437512
0
LINE
8
Layer 1
10
134.375059
20
262.437512
11
134.057732
21
259.790767
0
LINE
8
Layer 1
10
134.057732
20
259.790767
11
133.558208
21
257.088952
0
LINE
8
Layer 1
10
133.558208
20
257.088952
11
132.876480
21
254.332058
0
LINE
8
Layer 1
10
132.876480
20
254.332058
11
132.012544
21
251.520078
0
LINE
8
Layer 1
10
132.012544
20
251.520078
11
130.966394
21
248.653001
0
LINE
8
Layer 1
10
130.966394
20
248.653001
11
128.327429
21
242.753522
0
LINE
8
Layer 1
10
128.327429
20
242.753522
11
126.634096
21
239.155189
0
LINE
8
Layer 1
10
126.634096
20
239.155189
11
127.330832
21
238.458453
0
LINE
8
Layer 1
10
127.330832
20
238.458453
11
129.182916
21
239.119911
0
LINE
8
Layer 1
10
129.182916
20
239.119911
11
131.681254
21
239.779169
0
LINE
8
Layer 1
10
131.681254
20
239.779169
11
134.370610
21
240.117196
0
LINE
8
Layer 1
10
134.370610
20
240.117196
11
137.006120
21
240.117536
0
LINE
8
Layer 1
10
137.006120
20
240.117536
11
139.342916
21
239.763730
0
LINE
8
Layer 1
10
139.342916
20
239.763730
11
141.300401
21
239.158650
0
LINE
8
Layer 1
10
141.300401
20
239.158650
11
143.216423
21
238.346479
0
LINE
8
Layer 1
10
143.216423
20
238.346479
11
145.097613
21
237.318547
0
LINE
8
Layer 1
10
145.097613
20
237.318547
11
146.950598
21
236.066184
0
LINE
8
Layer 1
10
146.950598
20
236.066184
11
148.782008
21
234.580719
0
LINE
8
Layer 1
10
148.782008
20
234.580719
11
150.598474
21
232.853481
0
LINE
8
Layer 1
10
150.598474
20
232.853481
11
152.406623
21
230.875801
0
LINE
8
Layer 1
10
152.406623
20
230.875801
11
154.213085
21
228.639006
0
LINE
8
Layer 1
10
154.213085
20
228.639006
11
157.847467
21
223.353394
0
LINE
8
Layer 1
10
157.847467
20
223.353394
11
161.554654
21
216.927280
0
LINE
8
Layer 1
10
161.554654
20
216.927280
11
165.387681
21
209.291301
0
LINE
8
Layer 1
10
165.387681
20
209.291301
11
169.399582
21
200.376091
0
LINE
8
Layer 1
10
169.399582
20
200.376091
11
175.599652
21
185.418314
0
LINE
8
Layer 1
10
175.599652
20
185.418314
11
181.510002
21
171.136282
0
LINE
8
Layer 1
10
181.510002
20
171.136282
11
185.627360
21
161.905675
0
LINE
8
Layer 1
10
185.627360
20
161.905675
11
189.632036
21
153.951764
0
LINE
8
Layer 1
10
189.632036
20
153.951764
11
191.652670
21
150.408780
0
LINE
8
Layer 1
10
191.652670
20
150.408780
11
193.670953
21
147.177202
0
LINE
8
Layer 1
10
193.670953
20
147.177202
11
195.675974
21
144.273597
0
LINE
8
Layer 1
10
195.675974
20
144.273597
11
197.656823
21
141.714533
0
LINE
8
Layer 1
10
197.656823
20
141.714533
11
199.602588
21
139.516578
0
LINE
8
Layer 1
10
199.602588
20
139.516578
11
201.502360
21
137.696300
0
LINE
8
Layer 1
10
201.502360
20
137.696300
11
202.526558
21
136.639590
0
LINE
8
Layer 1
10
202.526558
20
136.639590
11
202.842916
21
135.817758
0
LINE
8
Layer 1
10
202.842916
20
135.817758
11
202.743996
21
135.121302
0
LINE
8
Layer 1
10
202.743996
20
135.121302
11
202.455226
21
134.451804
0
LINE
8
Layer 1
10
202.455226
20
134.451804
11
201.356050
21
133.209222
0
LINE
8
Layer 1
10
201.356050
20
133.209222
11
199.641219
21
132.121096
0
LINE
8
Layer 1
10
199.641219
20
132.121096
11
197.406567
21
131.218505
0
LINE
8
Layer 1
10
197.406567
20
131.218505
11
194.747925
21
130.532530
0
LINE
8
Layer 1
10
194.747925
20
130.532530
11
191.761126
21
130.094254
0
LINE
8
Layer 1
10
191.761126
20
130.094254
11
188.542003
21
129.934756
0
LINE
8
Layer 1
10
188.542003
20
129.934756
11
185.186388
21
130.085119
0
LINE
8
Layer 1
10
185.186388
20
130.085119
11
180.578324
21
130.729179
0
LINE
8
Layer 1
10
180.578324
20
130.729179
11
176.086340
21
131.791736
0
LINE
8
Layer 1
10
176.086340
20
131.791736
11
171.715064
21
133.270607
0
LINE
8
Layer 1
10
171.715064
20
133.270607
11
167.469123
21
135.163608
0
LINE
8
Layer 1
10
167.469123
20
135.163608
11
163.353144
21
137.468555
0
LINE
8
Layer 1
10
163.353144
20
137.468555
11
159.371754
21
140.183266
0
LINE
8
Layer 1
10
159.371754
20
140.183266
11
155.529580
21
143.305557
0
LINE
8
Layer 1
10
155.529580
20
143.305557
11
151.831249
21
146.833244
0
LINE
8
Layer 1
10
151.831249
20
146.833244
11
148.938471
21
149.673105
0
LINE
8
Layer 1
10
148.938471
20
149.673105
11
151.160971
21
145.386855
0
LINE
8
Layer 1
10
151.160971
20
145.386855
11
158.285465
21
131.859473
0
LINE
8
Layer 1
10
158.285465
20
131.859473
11
165.121745
21
118.398984
0
LINE
8
Layer 1
10
165.121745
20
118.398984
11
171.578070
21
105.205105
0
LINE
8
Layer 1
10
171.578070
20
105.205105
11
177.562702
21
92.477556
0
LINE
8
Layer 1
10
177.562702
20
92.477556
11
182.983901
21
80.416058
0
LINE
8
Layer 1
10
182.983901
20
80.416058
11
187.749929
21
69.220327
0
LINE
8
Layer 1
10
187.749929
20
69.220327
11
191.769046
21
59.090085
0
LINE
8
Layer 1
10
191.769046
20
59.090085
11
194.949513
21
50.225050
0
LINE
8
Layer 1
10
194.949513
20
50.225050
11
197.321827
21
42.600379
0
LINE
8
Layer 1
10
197.321827
20
42.600379
11
198.918214
21
36.181741
0
LINE
8
Layer 1
10
198.918214
20
36.181741
11
199.782611
21
30.756668
0
LINE
8
Layer 1
10
199.782611
20
30.756668
11
199.954044
21
28.350321
0
LINE
8
Layer 1
10
199.954044
20
28.350321
11
199.958957
21
26.112689
0
LINE
8
Layer 1
10
199.958957
20
26.112689
11
199.770650
21
23.506173
0
LINE
8
Layer 1
10
199.770650
20
23.506173
11
199.330716
21
21.644463
0
LINE
8
Layer 1
10
199.330716
20
21.644463
11
198.497142
21
20.153758
0
LINE
8
Layer 1
10
198.497142
20
20.153758
11
197.127916
21
18.660258
0
LINE
8
Layer 1
10
197.127916
20
18.660258
11
194.715131
21
16.565348
0
LINE
8
Layer 1
10
194.715131
20
16.565348
11
191.954000
21
14.585572
0
LINE
8
Layer 1
10
191.954000
20
14.585572
11
188.843844
21
12.720773
0
LINE
8
Layer 1
10
188.843844
20
12.720773
11
185.383984
21
10.970791
0
LINE
8
Layer 1
10
185.383984
20
10.970791
11
181.573742
21
9.335470
0
LINE
8
Layer 1
10
181.573742
20
9.335470
11
177.412439
21
7.814652
0
LINE
8
Layer 1
10
177.412439
20
7.814652
11
172.899397
21
6.408179
0
LINE
8
Layer 1
10
172.899397
20
6.408179
11
168.033937
21
5.115894
0
LINE
8
Layer 1
10
168.033937
20
5.115894
11
162.815381
21
3.937638
0
LINE
8
Layer 1
10
162.815381
20
3.937638
11
157.243050
21
2.873253
0
LINE
8
Layer 1
10
157.243050
20
2.873253
11
151.316266
21
1.922583
0
LINE
8
Layer 1
10
151.316266
20
1.922583
11
145.034351
21
1.085469
0
LINE
8
Layer 1
10
145.034351
20
1.085469
11
131.402412
21
-0.248722
0
LINE
8
Layer 1
10
131.402412
20
-0.248722
11
116.341804
21
-1.130581
0
LINE
8
Layer 1
10
116.341804
20
-1.130581
11
110.659157
21
-1.396462
0
LINE
8
Layer 1
10
110.659157
20
-1.396462
11
104.973541
21
-1.536275
0
LINE
8
Layer 1
10
104.973541
20
-1.536275
11
93.658193
21
-1.130581
0
LINE
8
Layer 1
10
93.658193
20
-1.130581
11
78.597586
21
-0.248722
0
LINE
8
Layer 1
10
78.597586
20
-0.248722
11
64.965647
21
1.085469
0
LINE
8
Layer 1
10
64.965647
20
1.085469
11
58.683731
21
1.922583
0
LINE
8
Layer 1
10
58.683731
20
1.922583
11
52.756948
21
2.873253
0
LINE
8
Layer 1
10
52.756948
20
2.873253
11
47.184617
21
3.937638
0
LINE
8
Layer 1
10
47.184617
20
3.937638
11
41.966061
21
5.115894
0
LINE
8
Layer 1
10
41.966061
20
5.115894
11
37.100601
21
6.408179
0
LINE
8
Layer 1
10
37.100601
20
6.408179
11
32.587559
21
7.814652
0
LINE
8
Layer 1
10
32.587559
20
7.814652
11
28.426256
21
9.335470
0
LINE
8
Layer 1
10
28.426256
20
9.335470
11
24.616014
21
10.970791
0
LINE
8
Layer 1
10
24.616014
20
10.970791
11
21.156154
21
12.720773
0
LINE
8
Layer 1
10
21.156154
20
12.720773
11
18.045998
21
14.585572
0
LINE
8
Layer 1
10
18.045998
20
14.585572
11
15.284867
21
16.565348
0
LINE
8
Layer 1
10
15.284867
20
16.565348
11
12.872082
21
18.660258
0
LINE
8
Layer 1
10
12.872082
20
18.660258
11
11.502856
21
20.153760
0
LINE
8
Layer 1
10
11.502856
20
20.153760
11
10.669282
21
21.644462
0
LINE
8
Layer 1
10
10.669282
20
21.644462
11
10.229348
21
23.506170
0
LINE
8
Layer 1
10
10.229348
20
23.506170
11
10.041041
21
26.112689
0
LINE
8
Layer 1
10
10.041041
20
26.112689
11
10.045954
21
28.350323
0
LINE
8
Layer 1
10
10.045954
20
28.350323
11
10.217387
21
30.756671
0
LINE
8
Layer 1
10
10.217387
20
30.756671
11
11.081784
21
36.181741
0
LINE
8
Layer 1
10
11.081784
20
36.181741
11
12.678171
21
42.600376
0
LINE
8
Layer 1
10
12.678171
20
42.600376
11
15.050485
21
50.225050
0
LINE
8
Layer 1
10
15.050485
20
50.225050
11
18.230952
21
59.090088
0
LINE
8
Layer 1
10
18.230952
20
59.090088
11
22.250069
21
69.220331
0
LINE
8
Layer 1
10
22.250069
20
69.220331
11
27.016097
21
80.416060
0
LINE
8
Layer 1
10
27.016097
20
80.416060
11
32.437296
21
92.477556
0
LINE
8
Layer 1
10
32.437296
20
92.477556
11
38.421928
21
105.205103
0
LINE
8
Layer 1
10
38.421928
20
105.205103
11
44.878253
21
118.398980
0
LINE
8
Layer 1
10
44.878253
20
118.398980
11
51.714532
21
131.859471
0
LINE
8
Layer 1
10
51.714532
20
131.859471
11
58.839027
21
145.386855
0
LINE
8
Layer 1
10
58.839027
20
145.386855
11
61.061527
21
149.673105
0
LINE
8
Layer 1
10
61.061527
20
149.673105
11
58.168749
21
146.833244
0
LINE
8
Layer 1
10
58.168749
20
146.833244
11
54.470418
21
143.305560
0
LINE
8
Layer 1
10
54.470418
20
143.305560
11
50.628244
21
140.183269
0
LINE
8
Layer 1
10
50.628244
20
140.183269
11
46.646854
21
137.468557
0
LINE
8
Layer 1
10
46.646854
20
137.468557
11
42.530874
21
135.163608
0
LINE
8
Layer 1
10
42.530874
20
135.163608
11
38.284933
21
133.270605
0
LINE
8
Layer 1
10
38.284933
20
133.270605
11
33.913658
21
131.791733
0
LINE
8
Layer 1
10
33.913658
20
131.791733
11
29.421674
21
130.729177
0
LINE
8
Layer 1
10
29.421674
20
130.729177
11
24.813610
21
130.085119
0
LINE
8
Layer 1
10
24.813610
20
130.085119
11
21.457995
21
129.934759
0
LINE
8
Layer 1
10
21.457995
20
129.934759
11
18.238872
21
130.094257
0
LINE
8
Layer 1
10
18.238872
20
130.094257
11
15.252073
21
130.532532
0
LINE
8
Layer 1
10
15.252073
20
130.532532
11
12.593431
21
131.218505
0
LINE
8
Layer 1
10
12.593431
20
131.218505
11
10.358779
21
132.121094
0
LINE
8
Layer 1
10
10.358779
20
132.121094
11
8.643948
21
133.209219
0
LINE
8
Layer 1
10
8.643948
20
133.209219
11
7.544772
21
134.451801
0
LINE
8
Layer 1
10
7.544772
20
134.451801
11
7.256002
21
135.121300
0
LINE
8
Layer 1
10
7.256002
20
135.121300
11
7.157082
21
135.817758
0
LINE
8
Layer 1
10
7.157082
20
135.817758
11
7.473440
21
136.639590
0
LINE
8
Layer 1
10
7.473440
20
136.639590
11
8.497638
21
137.696300
0
LINE
8
Layer 1
10
8.497638
20
137.696300
11
10.397410
21
139.516582
0
LINE
8
Layer 1
10
10.397410
20
139.516582
11
12.343175
21
141.714539
0
LINE
8
Layer 1
10
12.343175
20
141.714539
11
14.324024
21
144.273604
0
LINE
8
Layer 1
10
14.324024
20
144.273604
11
16.329045
21
147.177209
0
LINE
8
Layer 1
10
16.329045
20
147.177209
11
18.347328
21
150.408786
0
LINE
8
Layer 1
10
18.347328
20
150.408786
11
20.367962
21
153.951768
0
LINE
8
Layer 1
10
20.367962
20
153.951768
11
24.372638
21
161.905675
0
LINE
8
Layer 1
10
24.372638
20
161.905675
11
28.489996
21
171.136282
0
LINE
8
Layer 1
10
28.489996
20
171.136282
11
34.400346
21
185.418314
0
LINE
8
Layer 1
10
34.400346
20
185.418314
11
40.600416
21
200.376091
0
LINE
8
Layer 1
10
40.600416
20
200.376091
11
44.612317
21
209.291299
0
LINE
8
Layer 1
10
44.612317
20
209.291299
11
48.445343
21
216.927278
0
LINE
8
Layer 1
10
48.445343
20
216.927278
11
52.152530
21
223.353392
0
LINE
8
Layer 1
10
52.152530
20
223.353392
11
55.786913
21
228.639004
0
LINE
8
Layer 1
10
55.786913
20
228.639004
11
57.593375
21
230.875799
0
LINE
8
Layer 1
10
57.593375
20
230.875799
11
59.401524
21
232.853480
0
LINE
8
Layer 1
10
59.401524
20
232.853480
11
61.217989
21
234.580718
0
LINE
8
Layer 1
10
61.217989
20
234.580718
11
63.049400
21
236.066183
0
LINE
8
Layer 1
10
63.049400
20
236.066183
11
64.902385
21
237.318547
0
LINE
8
Layer 1
10
64.902385
20
237.318547
11
66.783574
21
238.346479
0
LINE
8
Layer 1
10
66.783574
20
238.346479
11
68.699597
21
239.158650
0
LINE
8
Layer 1
10
68.699597
20
239.158650
11
70.657082
21
239.763730
0
LINE
8
Layer 1
10
70.657082
20
239.763730
11
72.993878
21
240.117536
0
LINE
8
Layer 1
10
72.993878
20
240.117536
11
75.629387
21
240.117196
0
LINE
8
Layer 1
10
75.629387
20
240.117196
11
78.318744
21
239.779169
0
LINE
8
Layer 1
10
78.318744
20
239.779169
11
80.817082
21
239.119911
0
LINE
8
Layer 1
10
80.817082
20
239.119911
11
82.669166
21
238.458453
0
LINE
8
Layer 1
10
82.669166
20
238.458453
11
83.365902
21
239.155189
0
LINE
8
Layer 1
10
83.365902
20
239.155189
11
81.672568
21
242.753522
0
LINE
8
Layer 1
10
81.672568
20
242.753522
11
79.033604
21
248.653001
0
LINE
8
Layer 1
10
79.033604
20
248.653001
11
77.987454
21
251.520078
0
LINE
8
Layer 1
10
77.987454
20
251.520078
11
77.123517
21
254.332058
0
LINE
8
Layer 1
10
77.123517
20
254.332058
11
76.441790
21
257.088952
0
LINE
8
Layer 1
10
76.441790
20
257.088952
11
75.942265
21
259.790767
0
LINE
8
Layer 1
10
75.942265
20
259.790767
11
75.624939
21
262.437512
0
LINE
8
Layer 1
10
75.624939
20
262.437512
11
75.489805
21
265.029197
0
LINE
8
Layer 1
10
75.489805
20
265.029197
11
75.536858
21
267.565831
0
LINE
8
Layer 1
10
75.536858
20
267.565831
11
75.766092
21
270.047422
0
LINE
8
Layer 1
10
75.766092
20
270.047422
11
76.177503
21
272.473979
0
LINE
8
Layer 1
10
76.177503
20
272.473979
11
76.771085
21
274.845512
0
LINE
8
Layer 1
10
76.771085
20
274.845512
11
77.546832
21
277.162030
0
LINE
8
Layer 1
10
77.546832
20
277.162030
11
78.504740
21
279.423540
0
LINE
8
Layer 1
10
78.504740
20
279.423540
11
79.644802
21
281.630053
0
LINE
8
Layer 1
10
79.644802
20
281.630053
11
80.967013
21
283.781577
0
LINE
8
Layer 1
10
80.967013
20
283.781577
11
82.863958
21
286.316359
0
LINE
8
Layer 1
10
82.863958
20
286.316359
11
85.074888
21
288.722450
0
LINE
8
Layer 1
10
85.074888
20
288.722450
11
87.540816
21
290.958793
0
LINE
8
Layer 1
10
87.540816
20
290.958793
11
90.202758
21
292.984330
0
LINE
8
Layer 1
10
90.202758
20
292.984330
11
93.001729
21
294.758005
0
LINE
8
Layer 1
10
93.001729
20
294.758005
11
95.878745
21
296.238758
0
LINE
8
Layer 1
10
95.878745
20
296.238758
11
98.774820
21
297.385533
0
LINE
8
Layer 1
10
98.774820
20
297.385533
11
101.630971
21
298.157272
0
LINE
8
Layer 1
10
101.630971
20
298.157272
11
103.175893
21
298.419221
0
LINE
8
Layer 1
10
103.175893
20
298.419221
11
104.726596
21
298.518869
0
LINE
8
Layer 1
10
104.726596
20
298.518869
11
104.999999
21
298.536508
0
LINE
8
Layer 1
10
104.999999
20
298.536508
11
104.999999
21
298.536508
0
LINE
8
Layer 1
10
104.973541
20
296.772619
11
104.726596
21
296.763799
0
LINE
8
Layer 1
10
104.726596
20
296.763799
11
102.995318
21
296.582754
0
LINE
8
Layer 1
10
102.995318
20
296.582754
11
100.686900
21
296.120575
0
LINE
8
Layer 1
10
100.686900
20
296.120575
11
98.054563
21
295.345008
0
LINE
8
Layer 1
10
98.054563
20
295.345008
11
95.351527
21
294.223799
0
LINE
8
Layer 1
10
95.351527
20
294.223799
11
92.023728
21
292.358758
0
LINE
8
Layer 1
10
92.023728
20
292.358758
11
88.974889
21
290.184925
0
LINE
8
Layer 1
10
88.974889
20
290.184925
11
86.225319
21
287.730351
0
LINE
8
Layer 1
10
86.225319
20
287.730351
11
83.795328
21
285.023086
0
LINE
8
Layer 1
10
83.795328
20
285.023086
11
81.705226
21
282.091179
0
LINE
8
Layer 1
10
81.705226
20
282.091179
11
79.975324
21
278.962680
0
LINE
8
Layer 1
10
79.975324
20
278.962680
11
78.625932
21
275.665638
0
LINE
8
Layer 1
10
78.625932
20
275.665638
11
77.677360
21
272.228105
0
LINE
8
Layer 1
10
77.677360
20
272.228105
11
77.273980
21
269.306927
0
LINE
8
Layer 1
10
77.273980
20
269.306927
11
77.117478
21
265.832504
0
LINE
8
Layer 1
10
77.117478
20
265.832504
11
77.212253
21
262.301506
0
LINE
8
Layer 1
10
77.212253
20
262.301506
11
77.562707
21
259.210605
0
LINE
8
Layer 1
10
77.562707
20
259.210605
11
78.118870
21
256.549344
0
LINE
8
Layer 1
10
78.118870
20
256.549344
11
78.854524
21
253.824882
0
LINE
8
Layer 1
10
78.854524
20
253.824882
11
80.862834
21
248.189909
0
LINE
8
Layer 1
10
80.862834
20
248.189909
11
83.584691
21
242.312802
0
LINE
8
Layer 1
10
83.584691
20
242.312802
11
87.017152
21
236.200675
0
LINE
8
Layer 1
10
87.017152
20
236.200675
11
85.897082
21
235.089425
0
LINE
8
Layer 1
10
85.897082
20
235.089425
11
84.222790
21
236.104007
0
LINE
8
Layer 1
10
84.222790
20
236.104007
11
82.436504
21
236.960780
0
LINE
8
Layer 1
10
82.436504
20
236.960780
11
80.574018
21
237.651664
0
LINE
8
Layer 1
10
80.574018
20
237.651664
11
78.671129
21
238.168580
0
LINE
8
Layer 1
10
78.671129
20
238.168580
11
76.763633
21
238.503449
0
LINE
8
Layer 1
10
76.763633
20
238.503449
11
74.887325
21
238.648191
0
LINE
8
Layer 1
10
74.887325
20
238.648191
11
73.078001
21
238.594728
0
LINE
8
Layer 1
10
73.078001
20
238.594728
11
71.371457
21
238.334980
0
LINE
8
Layer 1
10
71.371457
20
238.334980
11
69.779431
21
237.901077
0
LINE
8
Layer 1
10
69.779431
20
237.901077
11
68.213197
21
237.311127
0
LINE
8
Layer 1
10
68.213197
20
237.311127
11
66.668901
21
236.560727
0
LINE
8
Layer 1
10
66.668901
20
236.560727
11
65.142689
21
235.645472
0
LINE
8
Layer 1
10
65.142689
20
235.645472
11
62.129101
21
233.302787
0
LINE
8
Layer 1
10
62.129101
20
233.302787
11
59.141599
21
230.247845
0
LINE
8
Layer 1
10
59.141599
20
230.247845
11
56.149348
21
226.445418
0
LINE
8
Layer 1
10
56.149348
20
226.445418
11
53.121514
21
221.860279
0
LINE
8
Layer 1
10
53.121514
20
221.860279
11
50.027264
21
216.457199
0
LINE
8
Layer 1
10
50.027264
20
216.457199
11
46.835763
21
210.200953
0
LINE
8
Layer 1
10
46.835763
20
210.200953
11
42.360873
21
200.472448
0
LINE
8
Layer 1
10
42.360873
20
200.472448
11
36.049582
21
185.312480
0
LINE
8
Layer 1
10
36.049582
20
185.312480
11
28.188889
21
166.680639
0
LINE
8
Layer 1
10
28.188889
20
166.680639
11
24.954746
21
159.615276
0
LINE
8
Layer 1
10
24.954746
20
159.615276
11
22.037493
21
153.770252
0
LINE
8
Layer 1
10
22.037493
20
153.770252
11
19.326695
21
148.935541
0
LINE
8
Layer 1
10
19.326695
20
148.935541
11
16.711916
21
144.901118
0
LINE
8
Layer 1
10
16.711916
20
144.901118
11
14.082723
21
141.456958
0
LINE
8
Layer 1
10
14.082723
20
141.456958
11
11.328680
21
138.393036
0
LINE
8
Layer 1
10
11.328680
20
138.393036
11
8.568194
21
135.535536
0
LINE
8
Layer 1
10
8.568194
20
135.535536
11
9.106180
21
134.847619
0
LINE
8
Layer 1
10
9.106180
20
134.847619
11
9.893189
21
134.162523
0
LINE
8
Layer 1
10
9.893189
20
134.162523
11
11.148362
21
133.439991
0
LINE
8
Layer 1
10
11.148362
20
133.439991
11
12.729614
21
132.750995
0
LINE
8
Layer 1
10
12.729614
20
132.750995
11
14.494860
21
132.166508
0
LINE
8
Layer 1
10
14.494860
20
132.166508
11
17.550114
21
131.732533
0
LINE
8
Layer 1
10
17.550114
20
131.732533
11
21.801661
21
131.616235
0
LINE
8
Layer 1
10
21.801661
20
131.616235
11
26.240675
21
131.808146
0
LINE
8
Layer 1
10
26.240675
20
131.808146
11
29.858332
21
132.298800
0
LINE
8
Layer 1
10
29.858332
20
132.298800
11
32.776644
21
133.040059
0
LINE
8
Layer 1
10
32.776644
20
133.040059
11
35.659578
21
133.959672
0
LINE
8
Layer 1
10
35.659578
20
133.959672
11
38.498811
21
135.053603
0
LINE
8
Layer 1
10
38.498811
20
135.053603
11
41.286021
21
136.317817
0
LINE
8
Layer 1
10
41.286021
20
136.317817
11
44.012887
21
137.748278
0
LINE
8
Layer 1
10
44.012887
20
137.748278
11
46.671086
21
139.340950
0
LINE
8
Layer 1
10
46.671086
20
139.340950
11
49.252295
21
141.091798
0
LINE
8
Layer 1
10
49.252295
20
141.091798
11
51.748193
21
142.996786
0
LINE
8
Layer 1
10
51.748193
20
142.996786
11
54.173027
21
145.151091
0
LINE
8
Layer 1
10
54.173027
20
145.151091
11
57.002638
21
147.951002
0
LINE
8
Layer 1
10
57.002638
20
147.951002
11
59.758256
21
150.904204
0
LINE
8
Layer 1
10
59.758256
20
150.904204
11
61.961110
21
153.518383
0
LINE
8
Layer 1
10
61.961110
20
153.518383
11
65.587744
21
158.644942
0
LINE
8
Layer 1
10
65.587744
20
158.644942
11
68.681527
21
163.748939
0
LINE
8
Layer 1
10
68.681527
20
163.748939
11
70.348402
21
163.413800
0
LINE
8
Layer 1
10
70.348402
20
163.413800
11
69.466457
21
161.808661
0
LINE
8
Layer 1
10
69.466457
20
161.808661
11
61.504361
21
147.088162
0
LINE
8
Layer 1
10
61.504361
20
147.088162
11
52.656050
21
130.147197
0
LINE
8
Layer 1
10
52.656050
20
130.147197
11
44.118898
21
113.311895
0
LINE
8
Layer 1
10
44.118898
20
113.311895
11
37.090277
21
98.908383
0
LINE
8
Layer 1
10
37.090277
20
98.908383
11
30.940657
21
85.610740
0
LINE
8
Layer 1
10
30.940657
20
85.610740
11
25.614545
21
73.446067
0
LINE
8
Layer 1
10
25.614545
20
73.446067
11
21.121036
21
62.440531
0
LINE
8
Layer 1
10
21.121036
20
62.440531
11
17.469230
21
52.620302
0
LINE
8
Layer 1
10
17.469230
20
52.620302
11
14.668222
21
44.011547
0
LINE
8
Layer 1
10
14.668222
20
44.011547
11
12.727112
21
36.640435
0
LINE
8
Layer 1
10
12.727112
20
36.640435
11
12.081861
21
33.427173
0
LINE
8
Layer 1
10
12.081861
20
33.427173
11
11.654996
21
30.533135
0
LINE
8
Layer 1
10
11.654996
20
30.533135
11
11.447653
21
27.961591
0
LINE
8
Layer 1
10
11.447653
20
27.961591
11
11.460971
21
25.715814
0
LINE
8
Layer 1
10
11.460971
20
25.715814
11
11.697776
21
23.540557
0
LINE
8
Layer 1
10
11.697776
20
23.540557
11
12.195444
21
21.922489
0
LINE
8
Layer 1
10
12.195444
20
21.922489
11
13.090963
21
20.567280
0
LINE
8
Layer 1
10
13.090963
20
20.567280
11
14.521319
21
19.180605
0
LINE
8
Layer 1
10
14.521319
20
19.180605
11
16.927858
21
17.272475
0
LINE
8
Layer 1
10
16.927858
20
17.272475
11
19.591809
21
15.471285
0
LINE
8
Layer 1
10
19.591809
20
15.471285
11
22.518726
21
13.775627
0
LINE
8
Layer 1
10
22.518726
20
13.775627
11
25.714164
21
12.184094
0
LINE
8
Layer 1
10
25.714164
20
12.184094
11
29.183678
21
10.695277
0
LINE
8
Layer 1
10
29.183678
20
10.695277
11
32.932822
21
9.307771
0
LINE
8
Layer 1
10
32.932822
20
9.307771
11
36.967151
21
8.020166
0
LINE
8
Layer 1
10
36.967151
20
8.020166
11
41.292221
21
6.831055
0
LINE
8
Layer 1
10
41.292221
20
6.831055
11
45.913584
21
5.739031
0
LINE
8
Layer 1
10
45.913584
20
5.739031
11
50.836797
21
4.742687
0
LINE
8
Layer 1
10
50.836797
20
4.742687
11
61.610990
21
3.031405
0
LINE
8
Layer 1
10
61.610990
20
3.031405
11
73.659235
21
1.685949
0
LINE
8
Layer 1
10
73.659235
20
1.685949
11
87.025971
21
0.695058
0
LINE
8
Layer 1
10
87.025971
20
0.695058
11
95.995729
21
0.272826
0
LINE
8
Layer 1
10
95.995729
20
0.272826
11
104.973541
21
0.121780
0
LINE
8
Layer 1
10
104.973541
20
0.121780
11
113.978032
21
0.270243
0
LINE
8
Layer 1
10
113.978032
20
0.270243
11
122.974027
21
0.695058
0
LINE
8
Layer 1
10
122.974027
20
0.695058
11
136.340763
21
1.685933
0
LINE
8
Layer 1
10
136.340763
20
1.685933
11
148.389008
21
3.031381
0
LINE
8
Layer 1
10
148.389008
20
3.031381
11
159.163200
21
4.742662
0
LINE
8
Layer 1
10
159.163200
20
4.742662
11
164.086413
21
5.739008
0
LINE
8
Layer 1
10
164.086413
20
5.739008
11
168.707777
21
6.831034
0
LINE
8
Layer 1
10
168.707777
20
6.831034
11
173.032846
21
8.020147
0
LINE
8
Layer 1
10
173.032846
20
8.020147
11
177.067176
21
9.307756
0
LINE
8
Layer 1
10
177.067176
20
9.307756
11
180.816320
21
10.695266
0
LINE
8
Layer 1
10
180.816320
20
10.695266
11
184.285834
21
12.184086
0
LINE
8
Layer 1
10
184.285834
20
12.184086
11
187.481272
21
13.775622
0
LINE
8
Layer 1
10
187.481272
20
13.775622
11
190.408189
21
15.471283
0
LINE
8
Layer 1
10
190.408189
20
15.471283
11
193.072140
21
17.272475
0
LINE
8
Layer 1
10
193.072140
20
17.272475
11
195.478679
21
19.180605
0
LINE
8
Layer 1
10
195.478679
20
19.180605
11
196.909035
21
20.567284
0
LINE
8
Layer 1
10
196.909035
20
20.567284
11
197.804554
21
21.922489
0
LINE
8
Layer 1
10
197.804554
20
21.922489
11
198.302222
21
23.540554
0
LINE
8
Layer 1
10
198.302222
20
23.540554
11
198.539027
21
25.715814
0
LINE
8
Layer 1
10
198.539027
20
25.715814
11
198.552345
21
27.961593
0
LINE
8
Layer 1
10
198.552345
20
27.961593
11
198.345002
21
30.533137
0
LINE
8
Layer 1
10
198.345002
20
30.533137
11
197.918137
21
33.427176
0
LINE
8
Layer 1
10
197.918137
20
33.427176
11
197.272886
21
36.640438
0
LINE
8
Layer 1
10
197.272886
20
36.640438
11
195.331776
21
44.011549
0
LINE
8
Layer 1
10
195.331776
20
44.011549
11
192.530768
21
52.620302
0
LINE
8
Layer 1
10
192.530768
20
52.620302
11
188.878962
21
62.440529
0
LINE
8
Layer 1
10
188.878962
20
62.440529
11
184.385453
21
73.446064
0
LINE
8
Layer 1
10
184.385453
20
73.446064
11
179.059341
21
85.610737
0
LINE
8
Layer 1
10
179.059341
20
85.610737
11
172.909721
21
98.908383
0
LINE
8
Layer 1
10
172.909721
20
98.908383
11
165.881100
21
113.311901
0
LINE
8
Layer 1
10
165.881100
20
113.311901
11
157.343948
21
130.147203
0
LINE
8
Layer 1
10
157.343948
20
130.147203
11
148.495637
21
147.088166
0
LINE
8
Layer 1
10
148.495637
20
147.088166
11
140.533541
21
161.808661
0
LINE
8
Layer 1
10
140.533541
20
161.808661
11
139.651596
21
163.413800
0
LINE
8
Layer 1
10
139.651596
20
163.413800
11
141.318471
21
163.748939
0
LINE
8
Layer 1
10
141.318471
20
163.748939
11
144.412254
21
158.644942
0
LINE
8
Layer 1
10
144.412254
20
158.644942
11
148.038888
21
153.518383
0
LINE
8
Layer 1
10
148.038888
20
153.518383
11
150.241741
21
150.904200
0
LINE
8
Layer 1
10
150.241741
20
150.904200
11
152.997359
21
147.950996
0
LINE
8
Layer 1
10
152.997359
20
147.950996
11
155.826971
21
145.151086
0
LINE
8
Layer 1
10
155.826971
20
145.151086
11
158.251804
21
142.996786
0
LINE
8
Layer 1
10
158.251804
20
142.996786
11
160.747702
21
141.091800
0
LINE
8
Layer 1
10
160.747702
20
141.091800
11
163.328912
21
139.340953
0
LINE
8
Layer 1
10
163.328912
20
139.340953
11
165.987110
21
137.748280
0
LINE
8
Layer 1
10
165.987110
20
137.748280
11
168.713976
21
136.317817
0
LINE
8
Layer 1
10
168.713976
20
136.317817
11
171.501187
21
135.053601
0
LINE
8
Layer 1
10
171.501187
20
135.053601
11
174.340420
21
133.959669
0
LINE
8
Layer 1
10
174.340420
20
133.959669
11
177.223354
21
133.040056
0
LINE
8
Layer 1
10
177.223354
20
133.040056
11
180.141666
21
132.298800
0
LINE
8
Layer 1
10
180.141666
20
132.298800
11
183.759323
21
131.808149
0
LINE
8
Layer 1
10
183.759323
20
131.808149
11
188.198337
21
131.616235
0
LINE
8
Layer 1
10
188.198337
20
131.616235
11
192.449884
21
131.732530
0
LINE
8
Layer 1
10
192.449884
20
131.732530
11
195.505138
21
132.166508
0
LINE
8
Layer 1
10
195.505138
20
132.166508
11
197.270384
21
132.750998
0
LINE
8
Layer 1
10
197.270384
20
132.750998
11
198.851636
21
133.439991
0
LINE
8
Layer 1
10
198.851636
20
133.439991
11
200.106809
21
134.162519
0
LINE
8
Layer 1
10
200.106809
20
134.162519
11
200.893818
21
134.847619
0
LINE
8
Layer 1
10
200.893818
20
134.847619
11
201.431804
21
135.535536
0
LINE
8
Layer 1
10
201.431804
20
135.535536
11
198.671318
21
138.393036
0
LINE
8
Layer 1
10
198.671318
20
138.393036
11
195.917275
21
141.456961
0
LINE
8
Layer 1
10
195.917275
20
141.456961
11
193.288082
21
144.901123
0
LINE
8
Layer 1
10
193.288082
20
144.901123
11
190.673304
21
148.935547
0
LINE
8
Layer 1
10
190.673304
20
148.935547
11
187.962505
21
153.770258
0
LINE
8
Layer 1
10
187.962505
20
153.770258
11
185.045252
21
159.615281
0
LINE
8
Layer 1
10
185.045252
20
159.615281
11
181.811109
21
166.680643
0
LINE
8
Layer 1
10
181.811109
20
166.680643
11
173.950416
21
185.312480
0
LINE
8
Layer 1
10
173.950416
20
185.312480
11
167.639125
21
200.472448
0
LINE
8
Layer 1
10
167.639125
20
200.472448
11
163.164235
21
210.200953
0
LINE
8
Layer 1
10
163.164235
20
210.200953
11
159.972734
21
216.457198
0
LINE
8
Layer 1
10
159.972734
20
216.457198
11
156.878484
21
221.860276
0
LINE
8
Layer 1
10
156.878484
20
221.860276
11
153.850650
21
226.445416
0
LINE
8
Layer 1
10
153.850650
20
226.445416
11
150.858399
21
230.247843
0
LINE
8
Layer 1
10
150.858399
20
230.247843
11
147.870896
21
233.302786
0
LINE
8
Layer 1
10
147.870896
20
233.302786
11
144.857308
21
235.645471
0
LINE
8
Layer 1
10
144.857308
20
235.645471
11
143.331097
21
236.560726
0
LINE
8
Layer 1
10
143.331097
20
236.560726
11
141.786801
21
237.311127
0
LINE
8
Layer 1
10
141.786801
20
237.311127
11
140.220567
21
237.901077
0
LINE
8
Layer 1
10
140.220567
20
237.901077
11
138.628541
21
238.334980
0
LINE
8
Layer 1
10
138.628541
20
238.334980
11
136.921996
21
238.594728
0
LINE
8
Layer 1
10
136.921996
20
238.594728
11
135.112673
21
238.648191
0
LINE
8
Layer 1
10
135.112673
20
238.648191
11
133.236365
21
238.503449
0
LINE
8
Layer 1
10
133.236365
20
238.503449
11
131.328868
21
238.168580
0
LINE
8
Layer 1
10
131.328868
20
238.168580
11
129.425980
21
237.651664
0
LINE
8
Layer 1
10
129.425980
20
237.651664
11
127.563494
21
236.960780
0
LINE
8
Layer 1
10
127.563494
20
236.960780
11
125.777207
21
236.104007
0
LINE
8
Layer 1
10
125.777207
20
236.104007
11
124.102916
21
235.089425
0
LINE
8
Layer 1
10
124.102916
20
235.089425
11
122.982846
21
236.200675
0
LINE
8
Layer 1
10
122.982846
20
236.200675
11
126.415307
21
242.312802
0
LINE
8
Layer 1
10
126.415307
20
242.312802
11
129.137164
21
248.189909
0
LINE
8
Layer 1
10
129.137164
20
248.189909
11
131.145474
21
253.824882
0
LINE
8
Layer 1
10
131.145474
20
253.824882
11
131.881128
21
256.549344
0
LINE
8
Layer 1
10
131.881128
20
256.549344
11
132.437291
21
259.210605
0
LINE
8
Layer 1
10
132.437291
20
259.210605
11
132.787744
21
262.301506
0
LINE
8
Layer 1
10
132.787744
20
262.301506
11
132.882520
21
265.832504
0
LINE
8
Layer 1
10
132.882520
20
265.832504
11
132.726018
21
269.306927
0
LINE
8
Layer 1
10
132.726018
20
269.306927
11
132.322638
21
272.228105
0
LINE
8
Layer 1
10
132.322638
20
272.228105
11
131.374066
21
275.665639
0
LINE
8
Layer 1
10
131.374066
20
275.665639
11
130.024673
21
278.962680
0
LINE
8
Layer 1
10
130.024673
20
278.962680
11
128.294771
21
282.091179
0
LINE
8
Layer 1
10
128.294771
20
282.091179
11
126.204670
21
285.023086
0
LINE
8
Layer 1
10
126.204670
20
285.023086
11
123.774679
21
287.730351
0
LINE
8
Layer 1
10
123.774679
20
287.730351
11
121.025109
21
290.184925
0
LINE
8
Layer 1
10
121.025109
20
290.184925
11
117.976269
21
292.358758
0
LINE
8
Layer 1
10
117.976269
20
292.358758
11
114.648471
21
294.223799
0
LINE
8
Layer 1
10
114.648471
20
294.223799
11
111.945436
21
295.345008
0
LINE
8
Layer 1
10
111.945436
20
295.345008
11
109.313099
21
296.120575
0
LINE
8
Layer 1
10
109.313099
20
296.120575
11
107.004681
21
296.582754
0
LINE
8
Layer 1
10
107.004681
20
296.582754
11
105.273402
21
296.763799
0
LINE
8
Layer 1
10
105.273402
20
296.763799
11
105.026457
21
296.772619
0
LINE
8
Layer 1
10
105.026457
20
296.772619
11
104.973541
21
296.772619
0
LINE
8
Layer 1
10
104.973541
20
296.772619
11
104.973541
21
296.772619
0
LINE
8
Layer 1
10
104.999999
20
291.957202
11
105.861144
21
291.870225
0
LINE
8
Layer 1
10
105.861144
20
291.870225
11
106.662815
21
291.620802
0
LINE
8
Layer 1
10
106.662815
20
291.620802
11
107.387954
21
291.226200
0
LINE
8
Layer 1
10
107.387954
20
291.226200
11
108.019501
21
290.703684
0
LINE
8
Layer 1
10
108.019501
20
290.703684
11
108.540398
21
290.070517
0
LINE
8
Layer 1
10
108.540398
20
290.070517
11
108.933588
21
289.343966
0
LINE
8
Layer 1
10
108.933588
20
289.343966
11
109.182011
21
288.541296
0
LINE
8
Layer 1
10
109.182011
20
288.541296
11
109.268610
21
287.679772
0
LINE
8
Layer 1
10
109.268610
20
287.679772
11
109.182011
21
286.818247
0
LINE
8
Layer 1
10
109.182011
20
286.818247
11
108.933588
21
286.015577
0
LINE
8
Layer 1
10
108.933588
20
286.015577
11
108.540398
21
285.289026
0
LINE
8
Layer 1
10
108.540398
20
285.289026
11
108.019501
21
284.655860
0
LINE
8
Layer 1
10
108.019501
20
284.655860
11
107.387954
21
284.133343
0
LINE
8
Layer 1
10
107.387954
20
284.133343
11
106.662815
21
283.738741
0
LINE
8
Layer 1
10
106.662815
20
283.738741
11
105.861144
21
283.489318
0
LINE
8
Layer 1
10
105.861144
20
283.489318
11
104.999999
21
283.402341
0
LINE
8
Layer 1
10
104.999999
20
283.402341
11
104.138474
21
283.489319
0
LINE
8
Layer 1
10
104.138474
20
283.489319
11
103.335803
21
283.738741
0
LINE
8
Layer 1
10
103.335803
20
283.738741
11
102.609252
21
284.133343
0
LINE
8
Layer 1
10
102.609252
20
284.133343
11
101.976086
21
284.655860
0
LINE
8
Layer 1
10
101.976086
20
284.655860
11
101.453570
21
285.289026
0
LINE
8
Layer 1
10
101.453570
20
285.289026
11
101.058968
21
286.015577
0
LINE
8
Layer 1
10
101.058968
20
286.015577
11
100.809546
21
286.818247
0
LINE
8
Layer 1
10
100.809546
20
286.818247
11
100.722568
21
287.679772
0
LINE
8
Layer 1
10
100.722568
20
287.679772
11
100.809545
21
288.541296
0
LINE
8
Layer 1
10
100.809545
20
288.541296
11
101.058967
21
289.343967
0
LINE
8
Layer 1
10
101.058967
20
289.343967
11
101.453569
21
290.070517
0
LINE
8
Layer 1
10
101.453569
20
290.070517
11
101.976086
21
290.703684
0
LINE
8
Layer 1
10
101.976086
20
290.703684
11
102.609253
21
291.226200
0
LINE
8
Layer 1
10
102.609253
20
291.226200
11
103.335804
21
291.620803
0
LINE
8
Layer 1
10
103.335804
20
291.620803
11
104.138474
21
291.870225
0
LINE
8
Layer 1
10
104.138474
20
291.870225
11
104.999999
21
291.957202
0
LINE
8
Layer 1
10
104.999999
20
291.957202
11
104.999999
21
291.957202
0
LINE
8
Layer 1
10
76.865971
20
223.774078
11
78.180068
21
223.624147
0
LINE
8
Layer 1
10
78.180068
20
223.624147
11
78.268263
21
222.671647
0
LINE
8
Layer 1
10
78.268263
20
222.671647
11
77.607488
21
222.887897
0
LINE
8
Layer 1
10
77.607488
20
222.887897
11
76.712057
21
222.908004
0
LINE
8
Layer 1
10
76.712057
20
222.908004
11
75.706169
21
222.741582
0
LINE
8
Layer 1
10
75.706169
20
222.741582
11
74.714027
21
222.398244
0
LINE
8
Layer 1
10
74.714027
20
222.398244
11
73.117713
21
221.343173
0
LINE
8
Layer 1
10
73.117713
20
221.343173
11
71.107868
21
219.529292
0
LINE
8
Layer 1
10
71.107868
20
219.529292
11
68.936571
21
217.205200
0
LINE
8
Layer 1
10
68.936571
20
217.205200
11
66.855902
21
214.619494
0
LINE
8
Layer 1
10
66.855902
20
214.619494
11
62.567919
21
208.508976
0
LINE
8
Layer 1
10
62.567919
20
208.508976
11
58.045567
21
201.197222
0
LINE
8
Layer 1
10
58.045567
20
201.197222
11
52.283938
21
190.970181
0
LINE
8
Layer 1
10
52.283938
20
190.970181
11
44.278124
21
176.113800
0
LINE
8
Layer 1
10
44.278124
20
176.113800
11
38.246115
21
164.919605
0
LINE
8
Layer 1
10
38.246115
20
164.919605
11
33.901147
21
157.165834
0
LINE
8
Layer 1
10
33.901147
20
157.165834
11
30.804581
21
152.099483
0
LINE
8
Layer 1
10
30.804581
20
152.099483
11
28.517777
21
148.967550
0
LINE
8
Layer 1
10
28.517777
20
148.967550
11
28.023888
21
149.805397
0
LINE
8
Layer 1
10
28.023888
20
149.805397
11
30.362430
21
153.041266
0
LINE
8
Layer 1
10
30.362430
20
153.041266
11
33.519043
21
158.221726
0
LINE
8
Layer 1
10
33.519043
20
158.221726
11
37.777767
21
165.837268
0
LINE
8
Layer 1
10
37.777767
20
165.837268
11
43.422638
21
176.378383
0
LINE
8
Layer 1
10
43.422638
20
176.378383
11
52.092800
21
192.530308
0
LINE
8
Layer 1
10
52.092800
20
192.530308
11
58.568140
21
203.923707
0
LINE
8
Layer 1
10
58.568140
20
203.923707
11
61.225890
21
208.243651
0
LINE
8
Layer 1
10
61.225890
20
208.243651
11
63.626701
21
211.863194
0
LINE
8
Layer 1
10
63.626701
20
211.863194
11
65.867828
21
214.945413
0
LINE
8
Layer 1
10
65.867828
20
214.945413
11
68.046527
21
217.653383
0
LINE
8
Layer 1
10
68.046527
20
217.653383
11
70.570836
21
220.377040
0
LINE
8
Layer 1
10
70.570836
20
220.377040
11
72.854973
21
222.286521
0
LINE
8
Layer 1
10
72.854973
20
222.286521
11
74.939747
21
223.409606
0
LINE
8
Layer 1
10
74.939747
20
223.409606
11
75.920127
21
223.684932
0
LINE
8
Layer 1
10
75.920127
20
223.684932
11
76.865971
21
223.774078
0
LINE
8
Layer 1
10
76.865971
20
223.774078
11
76.865971
21
223.774078
0
LINE
8
Layer 1
10
133.134027
20
223.774078
11
134.079870
21
223.684931
0
LINE
8
Layer 1
10
134.079870
20
223.684931
11
135.060250
21
223.409605
0
LINE
8
Layer 1
10
135.060250
20
223.409605
11
137.145025
21
222.286521
0
LINE
8
Layer 1
10
137.145025
20
222.286521
11
139.429161
21
220.377041
0
LINE
8
Layer 1
10
139.429161
20
220.377041
11
141.953471
21
217.653383
0
LINE
8
Layer 1
10
141.953471
20
217.653383
11
144.132170
21
214.945411
0
LINE
8
Layer 1
10
144.132170
20
214.945411
11
146.373297
21
211.863193
0
LINE
8
Layer 1
10
146.373297
20
211.863193
11
148.774108
21
208.243650
0
LINE
8
Layer 1
10
148.774108
20
208.243650
11
151.431858
21
203.923707
0
LINE
8
Layer 1
10
151.431858
20
203.923707
11
157.907198
21
192.530310
0
LINE
8
Layer 1
10
157.907198
20
192.530310
11
166.577360
21
176.378383
0
LINE
8
Layer 1
10
166.577360
20
176.378383
11
172.222231
21
165.837264
0
LINE
8
Layer 1
10
172.222231
20
165.837264
11
176.480954
21
158.221719
0
LINE
8
Layer 1
10
176.480954
20
158.221719
11
179.637568
21
153.041260
0
LINE
8
Layer 1
10
179.637568
20
153.041260
11
181.976110
21
149.805397
0
LINE
8
Layer 1
10
181.976110
20
149.805397
11
181.482221
21
148.967550
0
LINE
8
Layer 1
10
181.482221
20
148.967550
11
179.195417
21
152.099489
0
LINE
8
Layer 1
10
179.195417
20
152.099489
11
176.098851
21
157.165840
0
LINE
8
Layer 1
10
176.098851
20
157.165840
11
171.753883
21
164.919609
0
LINE
8
Layer 1
10
171.753883
20
164.919609
11
165.721874
21
176.113800
0
LINE
8
Layer 1
10
165.721874
20
176.113800
11
157.716060
21
190.970179
0
LINE
8
Layer 1
10
157.716060
20
190.970179
11
151.954431
21
201.197222
0
LINE
8
Layer 1
10
151.954431
20
201.197222
11
147.432079
21
208.508978
0
LINE
8
Layer 1
10
147.432079
20
208.508978
11
143.144096
21
214.619494
0
LINE
8
Layer 1
10
143.144096
20
214.619494
11
141.063426
21
217.205198
0
LINE
8
Layer 1
10
141.063426
20
217.205198
11
138.892130
21
219.529292
0
LINE
8
Layer 1
10
138.892130
20
219.529292
11
136.882285
21
221.343175
0
LINE
8
Layer 1
10
136.882285
20
221.343175
11
135.285971
21
222.398244
0
LINE
8
Layer 1
10
135.285971
20
222.398244
11
134.293828
21
222.741580
0
LINE
8
Layer 1
10
134.293828
20
222.741580
11
133.287941
21
222.908004
0
LINE
8
Layer 1
10
133.287941
20
222.908004
11
132.392509
21
222.887898
0
LINE
8
Layer 1
10
132.392509
20
222.887898
11
131.731735
21
222.671647
0
LINE
8
Layer 1
10
131.731735
20
222.671647
11
131.819929
21
223.624147
0
LINE
8
Layer 1
10
131.819929
20
223.624147
11
133.134027
21
223.774078
0
LINE
8
Layer 1
10
133.134027
20
223.774078
11
133.134027
21
223.774078
0
LINE
8
Layer 1
10
75.737082
20
207.916716
11
75.816457
21
206.831925
0
LINE
8
Layer 1
10
75.816457
20
206.831925
11
74.348537
21
206.255232
0
LINE
8
Layer 1
10
74.348537
20
206.255232
11
72.807454
21
205.075062
0
LINE
8
Layer 1
10
72.807454
20
205.075062
11
71.153806
21
203.229998
0
LINE
8
Layer 1
10
71.153806
20
203.229998
11
69.348189
21
200.658625
0
LINE
8
Layer 1
10
69.348189
20
200.658625
11
67.351201
21
197.299527
0
LINE
8
Layer 1
10
67.351201
20
197.299527
11
65.123440
21
193.091286
0
LINE
8
Layer 1
10
65.123440
20
193.091286
11
59.817985
21
181.881716
0
LINE
8
Layer 1
10
59.817985
20
181.881716
11
54.263852
21
170.072752
0
LINE
8
Layer 1
10
54.263852
20
170.072752
11
51.871747
21
165.424845
0
LINE
8
Layer 1
10
51.871747
20
165.424845
11
49.696201
21
161.546813
0
LINE
8
Layer 1
10
49.696201
20
161.546813
11
47.707149
21
158.387775
0
LINE
8
Layer 1
10
47.707149
20
158.387775
11
45.874529
21
155.896850
0
LINE
8
Layer 1
10
45.874529
20
155.896850
11
44.168278
21
154.023157
0
LINE
8
Layer 1
10
44.168278
20
154.023157
11
42.558332
21
152.715814
0
LINE
8
Layer 1
10
42.558332
20
152.715814
11
42.064443
21
153.474286
0
LINE
8
Layer 1
10
42.064443
20
153.474286
11
44.302549
21
155.584219
0
LINE
8
Layer 1
10
44.302549
20
155.584219
11
46.385971
21
158.025119
0
LINE
8
Layer 1
10
46.385971
20
158.025119
11
48.833903
21
161.721040
0
LINE
8
Layer 1
10
48.833903
20
161.721040
11
51.616098
21
166.729238
0
LINE
8
Layer 1
10
51.616098
20
166.729238
11
54.925156
21
173.420082
0
LINE
8
Layer 1
10
54.925156
20
173.420082
11
58.953679
21
182.163939
0
LINE
8
Layer 1
10
58.953679
20
182.163939
11
62.934869
21
190.744799
0
LINE
8
Layer 1
10
62.934869
20
190.744799
11
66.237627
21
197.243938
0
LINE
8
Layer 1
10
66.237627
20
197.243938
11
69.027109
21
201.964379
0
LINE
8
Layer 1
10
69.027109
20
201.964379
11
71.468471
21
205.209147
0
LINE
8
Layer 1
10
71.468471
20
205.209147
11
72.411871
21
206.097455
0
LINE
8
Layer 1
10
72.411871
20
206.097455
11
73.537784
21
206.902821
0
LINE
8
Layer 1
10
73.537784
20
206.902821
11
74.696194
21
207.538242
0
LINE
8
Layer 1
10
74.696194
20
207.538242
11
75.737082
21
207.916716
0
LINE
8
Layer 1
10
75.737082
20
207.916716
11
75.737082
21
207.916716
0
LINE
8
Layer 1
10
134.262916
20
207.916716
11
135.303803
21
207.538240
0
LINE
8
Layer 1
10
135.303803
20
207.538240
11
136.462213
21
206.902821
0
LINE
8
Layer 1
10
136.462213
20
206.902821
11
137.588127
21
206.097457
0
LINE
8
Layer 1
10
137.588127
20
206.097457
11
138.531527
21
205.209147
0
LINE
8
Layer 1
10
138.531527
20
205.209147
11
140.972889
21
201.964378
0
LINE
8
Layer 1
10
140.972889
20
201.964378
11
143.762371
21
197.243938
0
LINE
8
Layer 1
10
143.762371
20
197.243938
11
147.065129
21
190.744800
0
LINE
8
Layer 1
10
147.065129
20
190.744800
11
151.046318
21
182.163939
0
LINE
8
Layer 1
10
151.046318
20
182.163939
11
155.074842
21
173.420081
0
LINE
8
Layer 1
10
155.074842
20
173.420081
11
158.383900
21
166.729238
0
LINE
8
Layer 1
10
158.383900
20
166.729238
11
161.166094
21
161.721042
0
LINE
8
Layer 1
10
161.166094
20
161.721042
11
163.614027
21
158.025119
0
LINE
8
Layer 1
10
163.614027
20
158.025119
11
165.697450
21
155.584219
0
LINE
8
Layer 1
10
165.697450
20
155.584219
11
167.935554
21
153.474286
0
LINE
8
Layer 1
10
167.935554
20
153.474286
11
167.441666
21
152.715814
0
LINE
8
Layer 1
10
167.441666
20
152.715814
11
165.831720
21
154.023155
0
LINE
8
Layer 1
10
165.831720
20
154.023155
11
164.125469
21
155.896848
0
LINE
8
Layer 1
10
164.125469
20
155.896848
11
162.292849
21
158.387774
0
LINE
8
Layer 1
10
162.292849
20
158.387774
11
160.303797
21
161.546813
0
LINE
8
Layer 1
10
160.303797
20
161.546813
11
158.128250
21
165.424846
0
LINE
8
Layer 1
10
158.128250
20
165.424846
11
155.736146
21
170.072754
0
LINE
8
Layer 1
10
155.736146
20
170.072754
11
150.182013
21
181.881716
0
LINE
8
Layer 1
10
150.182013
20
181.881716
11
144.876558
21
193.091285
0
LINE
8
Layer 1
10
144.876558
20
193.091285
11
142.648796
21
197.299526
0
LINE
8
Layer 1
10
142.648796
20
197.299526
11
140.651809
21
200.658625
0
LINE
8
Layer 1
10
140.651809
20
200.658625
11
138.846192
21
203.229999
0
LINE
8
Layer 1
10
138.846192
20
203.229999
11
137.192543
21
205.075063
0
LINE
8
Layer 1
10
137.192543
20
205.075063
11
135.651460
21
206.255233
0
LINE
8
Layer 1
10
135.651460
20
206.255233
11
134.183541
21
206.831925
0
LINE
8
Layer 1
10
134.183541
20
206.831925
11
134.262916
21
207.916716
0
LINE
8
Layer 1
10
134.262916
20
207.916716
11
134.262916
21
207.916716
0
LINE
8
Layer 1
10
66.697152
20
142.582272
11
67.437985
21
142.238314
0
LINE
8
Layer 1
10
67.437985
20
142.238314
11
65.336398
21
137.125963
0
LINE
8
Layer 1
10
65.336398
20
137.125963
11
62.111041
21
129.811716
0
LINE
8
Layer 1
10
62.111041
20
129.811716
11
56.402051
21
117.622464
0
LINE
8
Layer 1
10
56.402051
20
117.622464
11
48.582013
21
101.739425
0
LINE
8
Layer 1
10
48.582013
20
101.739425
11
38.436278
21
81.067573
0
LINE
8
Layer 1
10
38.436278
20
81.067573
11
34.615169
21
72.902204
0
LINE
8
Layer 1
10
34.615169
20
72.902204
11
31.511158
21
65.910121
0
LINE
8
Layer 1
10
31.511158
20
65.910121
11
29.036185
21
59.886011
0
LINE
8
Layer 1
10
29.036185
20
59.886011
11
27.102194
21
54.624561
0
LINE
8
Layer 1
10
27.102194
20
54.624561
11
25.621128
21
49.920456
0
LINE
8
Layer 1
10
25.621128
20
49.920456
11
24.504930
21
45.568383
0
LINE
8
Layer 1
10
24.504930
20
45.568383
11
23.897739
21
42.089514
0
LINE
8
Layer 1
10
23.897739
20
42.089514
11
23.588570
21
38.519627
0
LINE
8
Layer 1
10
23.588570
20
38.519627
11
23.594266
21
35.235177
0
LINE
8
Layer 1
10
23.594266
20
35.235177
11
23.931666
21
32.612619
0
LINE
8
Layer 1
10
23.931666
20
32.612619
11
24.861319
21
29.899524
0
LINE
8
Layer 1
10
24.861319
20
29.899524
11
26.271540
21
27.532351
0
LINE
8
Layer 1
10
26.271540
20
27.532351
11
27.141309
21
26.499273
0
LINE
8
Layer 1
10
27.141309
20
26.499273
11
28.112553
21
25.577621
0
LINE
8
Layer 1
10
28.112553
20
25.577621
11
29.179051
21
24.775710
0
LINE
8
Layer 1
10
29.179051
20
24.775710
11
30.334582
21
24.101855
0
LINE
8
Layer 1
10
30.334582
20
24.101855
11
32.706085
21
23.164091
0
LINE
8
Layer 1
10
32.706085
20
23.164091
11
35.589803
21
22.454799
0
LINE
8
Layer 1
10
35.589803
20
22.454799
11
38.820269
21
21.997976
0
LINE
8
Layer 1
10
38.820269
20
21.997976
11
42.232013
21
21.817619
0
LINE
8
Layer 1
10
42.232013
20
21.817619
11
42.117360
21
21.041508
0
LINE
8
Layer 1
10
42.117360
20
21.041508
11
37.968385
21
21.181287
0
LINE
8
Layer 1
10
37.968385
20
21.181287
11
35.352846
21
21.535397
0
LINE
8
Layer 1
10
35.352846
20
21.535397
11
32.308225
21
22.396591
0
LINE
8
Layer 1
10
32.308225
20
22.396591
11
29.699620
21
23.545106
0
LINE
8
Layer 1
10
29.699620
20
23.545106
11
27.517813
21
24.992066
0
LINE
8
Layer 1
10
27.517813
20
24.992066
11
25.753587
21
26.748595
0
LINE
8
Layer 1
10
25.753587
20
26.748595
11
24.397723
21
28.825818
0
LINE
8
Layer 1
10
24.397723
20
28.825818
11
23.441003
21
31.234859
0
LINE
8
Layer 1
10
23.441003
20
31.234859
11
22.874210
21
33.986844
0
LINE
8
Layer 1
10
22.874210
20
33.986844
11
22.688124
21
37.092897
0
LINE
8
Layer 1
10
22.688124
20
37.092897
11
22.779131
21
39.635078
0
LINE
8
Layer 1
10
22.779131
20
39.635078
11
23.057918
21
42.280058
0
LINE
8
Layer 1
10
23.057918
20
42.280058
11
23.535867
21
45.072038
0
LINE
8
Layer 1
10
23.535867
20
45.072038
11
24.224365
21
48.055218
0
LINE
8
Layer 1
10
24.224365
20
48.055218
11
26.278543
21
54.771978
0
LINE
8
Layer 1
10
26.278543
20
54.771978
11
29.311527
21
62.783939
0
LINE
8
Layer 1
10
29.311527
20
62.783939
11
31.744393
21
68.587240
0
LINE
8
Layer 1
10
31.744393
20
68.587240
11
34.817625
21
75.341871
0
LINE
8
Layer 1
10
34.817625
20
75.341871
11
46.668193
21
99.755050
0
LINE
8
Layer 1
10
46.668193
20
99.755050
11
60.008451
21
127.330008
0
LINE
8
Layer 1
10
60.008451
20
127.330008
11
63.860162
21
135.802655
0
LINE
8
Layer 1
10
63.860162
20
135.802655
11
66.697152
21
142.582272
0
LINE
8
Layer 1
10
66.697152
20
142.582272
11
66.697152
21
142.582272
0
LINE
8
Layer 1
10
143.302846
20
142.582272
11
146.139836
21
135.802658
0
LINE
8
Layer 1
10
146.139836
20
135.802658
11
149.991547
21
127.330008
0
LINE
8
Layer 1
10
149.991547
20
127.330008
11
163.331804
21
99.755050
0
LINE
8
Layer 1
10
163.331804
20
99.755050
11
175.182372
21
75.341871
0
LINE
8
Layer 1
10
175.182372
20
75.341871
11
178.255605
21
68.587237
0
LINE
8
Layer 1
10
178.255605
20
68.587237
11
180.688471
21
62.783939
0
LINE
8
Layer 1
10
180.688471
20
62.783939
11
183.721454
21
54.771982
0
LINE
8
Layer 1
10
183.721454
20
54.771982
11
185.775632
21
48.055218
0
LINE
8
Layer 1
10
185.775632
20
48.055218
11
186.464130
21
45.072036
0
LINE
8
Layer 1
10
186.464130
20
45.072036
11
186.942080
21
42.280055
0
LINE
8
Layer 1
10
186.942080
20
42.280055
11
187.220867
21
39.635075
0
LINE
8
Layer 1
10
187.220867
20
39.635075
11
187.311874
21
37.092897
0
LINE
8
Layer 1
10
187.311874
20
37.092897
11
187.125788
21
33.986847
0
LINE
8
Layer 1
10
187.125788
20
33.986847
11
186.558995
21
31.234862
0
LINE
8
Layer 1
10
186.558995
20
31.234862
11
185.602275
21
28.825820
0
LINE
8
Layer 1
10
185.602275
20
28.825820
11
184.246411
21
26.748595
0
LINE
8
Layer 1
10
184.246411
20
26.748595
11
182.482185
21
24.992064
0
LINE
8
Layer 1
10
182.482185
20
24.992064
11
180.300378
21
23.545103
0
LINE
8
Layer 1
10
180.300378
20
23.545103
11
177.691773
21
22.396589
0
LINE
8
Layer 1
10
177.691773
20
22.396589
11
174.647152
21
21.535397
0
LINE
8
Layer 1
10
174.647152
20
21.535397
11
172.031610
21
21.181286
0
LINE
8
Layer 1
10
172.031610
20
21.181286
11
167.882638
21
21.041508
0
LINE
8
Layer 1
10
167.882638
20
21.041508
11
167.767985
21
21.817619
0
LINE
8
Layer 1
10
167.767985
20
21.817619
11
171.179729
21
21.997979
0
LINE
8
Layer 1
10
171.179729
20
21.997979
11
174.410194
21
22.454799
0
LINE
8
Layer 1
10
174.410194
20
22.454799
11
177.293913
21
23.164088
0
LINE
8
Layer 1
10
177.293913
20
23.164088
11
179.665416
21
24.101855
0
LINE
8
Layer 1
10
179.665416
20
24.101855
11
180.820946
21
24.775713
0
LINE
8
Layer 1
10
180.820946
20
24.775713
11
181.887445
21
25.577624
0
LINE
8
Layer 1
10
181.887445
20
25.577624
11
182.858689
21
26.499275
0
LINE
8
Layer 1
10
182.858689
20
26.499275
11
183.728458
21
27.532351
0
LINE
8
Layer 1
10
183.728458
20
27.532351
11
185.138679
21
29.899521
0
LINE
8
Layer 1
10
185.138679
20
29.899521
11
186.068332
21
32.612619
0
LINE
8
Layer 1
10
186.068332
20
32.612619
11
186.405732
21
35.235180
0
LINE
8
Layer 1
10
186.405732
20
35.235180
11
186.411428
21
38.519627
0
LINE
8
Layer 1
10
186.411428
20
38.519627
11
186.102259
21
42.089510
0
LINE
8
Layer 1
10
186.102259
20
42.089510
11
185.495068
21
45.568383
0
LINE
8
Layer 1
10
185.495068
20
45.568383
11
184.378870
21
49.920459
0
LINE
8
Layer 1
10
184.378870
20
49.920459
11
182.897804
21
54.624564
0
LINE
8
Layer 1
10
182.897804
20
54.624564
11
180.963813
21
59.886013
0
LINE
8
Layer 1
10
180.963813
20
59.886013
11
178.488840
21
65.910121
0
LINE
8
Layer 1
10
178.488840
20
65.910121
11
175.384828
21
72.902202
0
LINE
8
Layer 1
10
175.384828
20
72.902202
11
171.563720
21
81.067570
0
LINE
8
Layer 1
10
171.563720
20
81.067570
11
161.417985
21
101.739425
0
LINE
8
Layer 1
10
161.417985
20
101.739425
11
153.597947
21
117.622464
0
LINE
8
Layer 1
10
153.597947
20
117.622464
11
147.888957
21
129.811716
0
LINE
8
Layer 1
10
147.888957
20
129.811716
11
144.663601
21
137.125963
0
LINE
8
Layer 1
10
144.663601
20
137.125963
11
142.562013
21
142.238314
0
LINE
8
Layer 1
10
142.562013
20
142.238314
11
143.302846
21
142.582272
0
LINE
8
Layer 1
10
143.302846
20
142.582272
11
143.302846
21
142.582272
0
LINE
8
Layer 1
10
77.245207
20
136.029425
11
77.977221
21
135.914772
0
LINE
8
Layer 1
10
77.977221
20
135.914772
11
77.924304
21
131.152272
0
LINE
8
Layer 1
10
77.924304
20
131.152272
11
77.667856
21
125.308985
0
LINE
8
Layer 1
10
77.667856
20
125.308985
11
77.059999
21
120.780605
0
LINE
8
Layer 1
10
77.059999
20
120.780605
11
76.175159
21
116.319070
0
LINE
8
Layer 1
10
76.175159
20
116.319070
11
75.060086
21
111.752263
0
LINE
8
Layer 1
10
75.060086
20
111.752263
11
73.654393
21
106.908395
0
LINE
8
Layer 1
10
73.654393
20
106.908395
11
71.897694
21
101.615681
0
LINE
8
Layer 1
10
71.897694
20
101.615681
11
69.729604
21
95.702332
0
LINE
8
Layer 1
10
69.729604
20
95.702332
11
67.089736
21
88.996561
0
LINE
8
Layer 1
10
67.089736
20
88.996561
11
60.153124
21
72.520605
0
LINE
8
Layer 1
10
60.153124
20
72.520605
11
55.368834
21
61.287673
0
LINE
8
Layer 1
10
55.368834
20
61.287673
11
52.073235
21
53.053576
0
LINE
8
Layer 1
10
52.073235
20
53.053576
11
49.867475
21
46.763219
0
LINE
8
Layer 1
10
49.867475
20
46.763219
11
48.352707
21
41.361508
0
LINE
8
Layer 1
10
48.352707
20
41.361508
11
47.639058
21
38.138304
0
LINE
8
Layer 1
10
47.639058
20
38.138304
11
47.196352
21
35.317115
0
LINE
8
Layer 1
10
47.196352
20
35.317115
11
47.001095
21
32.689286
0
LINE
8
Layer 1
10
47.001095
20
32.689286
11
47.029791
21
30.046161
0
LINE
8
Layer 1
10
47.029791
20
30.046161
11
47.397867
21
26.772600
0
LINE
8
Layer 1
10
47.397867
20
26.772600
11
47.740802
21
25.366317
0
LINE
8
Layer 1
10
47.740802
20
25.366317
11
48.203719
21
24.080637
0
LINE
8
Layer 1
10
48.203719
20
24.080637
11
48.797155
21
22.890766
0
LINE
8
Layer 1
10
48.797155
20
22.890766
11
49.531651
21
21.771906
0
LINE
8
Layer 1
10
49.531651
20
21.771906
11
51.465971
21
19.648036
0
LINE
8
Layer 1
10
51.465971
20
19.648036
11
52.827759
21
18.521262
0
LINE
8
Layer 1
10
52.827759
20
18.521262
11
54.329755
21
17.549602
0
LINE
8
Layer 1
10
54.329755
20
17.549602
11
56.012059
21
16.721343
0
LINE
8
Layer 1
10
56.012059
20
16.721343
11
57.914766
21
16.024771
0
LINE
8
Layer 1
10
57.914766
20
16.024771
11
60.077977
21
15.448173
0
LINE
8
Layer 1
10
60.077977
20
15.448173
11
62.541786
21
14.979835
0
LINE
8
Layer 1
10
62.541786
20
14.979835
11
68.531596
21
14.321086
0
LINE
8
Layer 1
10
68.531596
20
14.321086
11
68.311110
21
13.456780
0
LINE
8
Layer 1
10
68.311110
20
13.456780
11
65.093207
21
13.745763
0
LINE
8
Layer 1
10
65.093207
20
13.745763
11
62.199384
21
14.152097
0
LINE
8
Layer 1
10
62.199384
20
14.152097
11
59.606810
21
14.682916
0
LINE
8
Layer 1
10
59.606810
20
14.682916
11
57.292652
21
15.345356
0
LINE
8
Layer 1
10
57.292652
20
15.345356
11
55.234078
21
16.146551
0
LINE
8
Layer 1
10
55.234078
20
16.146551
11
53.408256
21
17.093634
0
LINE
8
Layer 1
10
53.408256
20
17.093634
11
51.792354
21
18.193742
0
LINE
8
Layer 1
10
51.792354
20
18.193742
11
50.363541
21
19.454008
0
LINE
8
Layer 1
10
50.363541
20
19.454008
11
48.802499
21
21.015050
0
LINE
8
Layer 1
10
48.802499
20
21.015050
11
47.920554
21
22.531994
0
LINE
8
Layer 1
10
47.920554
20
22.531994
11
47.121290
21
24.580334
0
LINE
8
Layer 1
10
47.121290
20
24.580334
11
46.606921
21
26.351504
0
LINE
8
Layer 1
10
46.606921
20
26.351504
11
46.310601
21
28.139968
0
LINE
8
Layer 1
10
46.310601
20
28.139968
11
46.165485
21
30.240189
0
LINE
8
Layer 1
10
46.165485
20
30.240189
11
46.231171
21
34.111474
0
LINE
8
Layer 1
10
46.231171
20
34.111474
11
46.767787
21
38.197000
0
LINE
8
Layer 1
10
46.767787
20
38.197000
11
47.832281
21
42.806447
0
LINE
8
Layer 1
10
47.832281
20
42.806447
11
49.481596
21
48.249494
0
LINE
8
Layer 1
10
49.481596
20
48.249494
11
51.020874
21
52.650594
0
LINE
8
Layer 1
10
51.020874
20
52.650594
11
53.050588
21
57.882574
0
LINE
8
Layer 1
10
53.050588
20
57.882574
11
59.668054
21
73.543661
0
LINE
8
Layer 1
10
59.668054
20
73.543661
11
67.045899
21
91.072590
0
LINE
8
Layer 1
10
67.045899
20
91.072590
11
69.456331
21
97.364455
0
LINE
8
Layer 1
10
69.456331
20
97.364455
11
71.530207
21
103.300466
0
LINE
8
Layer 1
10
71.530207
20
103.300466
11
74.046425
21
111.387919
0
LINE
8
Layer 1
10
74.046425
20
111.387919
11
75.715339
21
118.271443
0
LINE
8
Layer 1
10
75.715339
20
118.271443
11
76.276306
21
121.485691
0
LINE
8
Layer 1
10
76.276306
20
121.485691
11
76.678545
21
124.667708
0
LINE
8
Layer 1
10
76.678545
20
124.667708
11
77.077638
21
131.293383
0
LINE
8
Layer 1
10
77.077638
20
131.293383
11
77.245207
21
136.029425
0
LINE
8
Layer 1
10
77.245207
20
136.029425
11
77.245207
21
136.029425
0
LINE
8
Layer 1
10
132.754791
20
136.029425
11
132.922360
21
131.293383
0
LINE
8
Layer 1
10
132.922360
20
131.293383
11
133.321453
21
124.667711
0
LINE
8
Layer 1
10
133.321453
20
124.667711
11
133.723692
21
121.485693
0
LINE
8
Layer 1
10
133.723692
20
121.485693
11
134.284659
21
118.271443
0
LINE
8
Layer 1
10
134.284659
20
118.271443
11
135.953573
21
111.387916
0
LINE
8
Layer 1
10
135.953573
20
111.387916
11
138.469791
21
103.300466
0
LINE
8
Layer 1
10
138.469791
20
103.300466
11
140.543666
21
97.364458
0
LINE
8
Layer 1
10
140.543666
20
97.364458
11
142.954099
21
91.072590
0
LINE
8
Layer 1
10
142.954099
20
91.072590
11
150.331943
21
73.543661
0
LINE
8
Layer 1
10
150.331943
20
73.543661
11
156.949410
21
57.882574
0
LINE
8
Layer 1
10
156.949410
20
57.882574
11
158.979123
21
52.650591
0
LINE
8
Layer 1
10
158.979123
20
52.650591
11
160.518402
21
48.249494
0
LINE
8
Layer 1
10
160.518402
20
48.249494
11
162.167717
21
42.806450
0
LINE
8
Layer 1
10
162.167717
20
42.806450
11
163.232210
21
38.197000
0
LINE
8
Layer 1
10
163.232210
20
38.197000
11
163.768827
21
34.111471
0
LINE
8
Layer 1
10
163.768827
20
34.111471
11
163.834513
21
30.240189
0
LINE
8
Layer 1
10
163.834513
20
30.240189
11
163.689397
21
28.139971
0
LINE
8
Layer 1
10
163.689397
20
28.139971
11
163.393077
21
26.351504
0
LINE
8
Layer 1
10
163.393077
20
26.351504
11
162.878708
21
24.580331
0
LINE
8
Layer 1
10
162.878708
20
24.580331
11
162.079443
21
22.531994
0
LINE
8
Layer 1
10
162.079443
20
22.531994
11
161.197499
21
21.015050
0
LINE
8
Layer 1
10
161.197499
20
21.015050
11
159.636457
21
19.454008
0
LINE
8
Layer 1
10
159.636457
20
19.454008
11
158.208023
21
18.193746
0
LINE
8
Layer 1
10
158.208023
20
18.193746
11
156.593120
21
17.093640
0
LINE
8
Layer 1
10
156.593120
20
17.093640
11
154.768711
21
16.146557
0
LINE
8
Layer 1
10
154.768711
20
16.146557
11
152.711756
21
15.345361
0
LINE
8
Layer 1
10
152.711756
20
15.345361
11
150.399217
21
14.682920
0
LINE
8
Layer 1
10
150.399217
20
14.682920
11
147.808055
21
14.152099
0
LINE
8
Layer 1
10
147.808055
20
14.152099
11
144.915231
21
13.745763
0
LINE
8
Layer 1
10
144.915231
20
13.745763
11
141.697707
21
13.456780
0
LINE
8
Layer 1
10
141.697707
20
13.456780
11
141.468402
21
14.321086
0
LINE
8
Layer 1
10
141.468402
20
14.321086
11
147.458211
21
14.979829
0
LINE
8
Layer 1
10
147.458211
20
14.979829
11
149.922021
21
15.448166
0
LINE
8
Layer 1
10
149.922021
20
15.448166
11
152.085231
21
16.024764
0
LINE
8
Layer 1
10
152.085231
20
16.024764
11
153.987939
21
16.721336
0
LINE
8
Layer 1
10
153.987939
20
16.721336
11
155.670243
21
17.549597
0
LINE
8
Layer 1
10
155.670243
20
17.549597
11
157.172239
21
18.521259
0
LINE
8
Layer 1
10
157.172239
20
18.521259
11
158.534027
21
19.648036
0
LINE
8
Layer 1
10
158.534027
20
19.648036
11
160.468347
21
21.771908
0
LINE
8
Layer 1
10
160.468347
20
21.771908
11
161.202842
21
22.890767
0
LINE
8
Layer 1
10
161.202842
20
22.890767
11
161.796279
21
24.080636
0
LINE
8
Layer 1
10
161.796279
20
24.080636
11
162.259196
21
25.366314
0
LINE
8
Layer 1
10
162.259196
20
25.366314
11
162.602130
21
26.772596
0
LINE
8
Layer 1
10
162.602130
20
26.772596
11
162.970207
21
30.046161
0
LINE
8
Layer 1
10
162.970207
20
30.046161
11
162.998903
21
32.689289
0
LINE
8
Layer 1
10
162.998903
20
32.689289
11
162.803646
21
35.317115
0
LINE
8
Layer 1
10
162.803646
20
35.317115
11
162.360940
21
38.138301
0
LINE
8
Layer 1
10
162.360940
20
38.138301
11
161.647291
21
41.361508
0
LINE
8
Layer 1
10
161.647291
20
41.361508
11
160.132522
21
46.763223
0
LINE
8
Layer 1
10
160.132522
20
46.763223
11
157.926763
21
53.053576
0
LINE
8
Layer 1
10
157.926763
20
53.053576
11
154.631163
21
61.287670
0
LINE
8
Layer 1
10
154.631163
20
61.287670
11
149.846874
21
72.520605
0
LINE
8
Layer 1
10
149.846874
20
72.520605
11
142.910262
21
88.996565
0
LINE
8
Layer 1
10
142.910262
20
88.996565
11
140.270394
21
95.702334
0
LINE
8
Layer 1
10
140.270394
20
95.702334
11
138.102303
21
101.615681
0
LINE
8
Layer 1
10
138.102303
20
101.615681
11
136.345605
21
106.908393
0
LINE
8
Layer 1
10
136.345605
20
106.908393
11
134.939912
21
111.752259
0
LINE
8
Layer 1
10
134.939912
20
111.752259
11
133.824838
21
116.319067
0
LINE
8
Layer 1
10
133.824838
20
116.319067
11
132.939999
21
120.780605
0
LINE
8
Layer 1
10
132.939999
20
120.780605
11
132.332142
21
125.308985
0
LINE
8
Layer 1
10
132.332142
20
125.308985
11
132.075693
21
131.152272
0
LINE
8
Layer 1
10
132.075693
20
131.152272
11
132.022777
21
135.914772
0
LINE
8
Layer 1
10
132.022777
20
135.914772
11
132.754791
21
136.029425
0
LINE
8
Layer 1
10
132.754791
20
136.029425
11
132.754791
21
136.029425
0
LINE
8
Layer 1
10
90.033402
20
132.819147
11
90.131928
21
128.640417
0
LINE
8
Layer 1
10
90.131928
20
128.640417
11
89.839374
21
124.158453
0
LINE
8
Layer 1
10
89.839374
20
124.158453
11
89.351320
21
120.772688
0
LINE
8
Layer 1
10
89.351320
20
120.772688
11
88.685692
21
117.263273
0
LINE
8
Layer 1
10
88.685692
20
117.263273
11
87.793112
21
113.460237
0
LINE
8
Layer 1
10
87.793112
20
113.460237
11
86.624203
21
109.193607
0
LINE
8
Layer 1
10
86.624203
20
109.193607
11
83.259882
21
98.589679
0
LINE
8
Layer 1
10
83.259882
20
98.589679
11
78.197707
21
84.091716
0
LINE
8
Layer 1
10
78.197707
20
84.091716
11
71.980600
21
66.020509
0
LINE
8
Layer 1
10
71.980600
20
66.020509
11
69.798451
21
58.957219
0
LINE
8
Layer 1
10
69.798451
20
58.957219
11
68.160429
21
52.910694
0
LINE
8
Layer 1
10
68.160429
20
52.910694
11
67.011430
21
47.657352
0
LINE
8
Layer 1
10
67.011430
20
47.657352
11
66.296346
21
42.973612
0
LINE
8
Layer 1
10
66.296346
20
42.973612
11
65.960071
21
38.635890
0
LINE
8
Layer 1
10
65.960071
20
38.635890
11
65.947499
21
34.420605
0
LINE
8
Layer 1
10
65.947499
20
34.420605
11
66.166340
21
30.715698
0
LINE
8
Layer 1
10
66.166340
20
30.715698
11
66.621005
21
27.723663
0
LINE
8
Layer 1
10
66.621005
20
27.723663
11
67.398170
21
25.048414
0
LINE
8
Layer 1
10
67.398170
20
25.048414
11
68.584513
21
22.293869
0
LINE
8
Layer 1
10
68.584513
20
22.293869
11
69.339989
21
20.837343
0
LINE
8
Layer 1
10
69.339989
20
20.837343
11
70.092258
21
19.673332
0
LINE
8
Layer 1
10
70.092258
20
19.673332
11
72.323957
21
17.213869
0
LINE
8
Layer 1
10
72.323957
20
17.213869
11
75.035144
21
14.860328
0
LINE
8
Layer 1
10
75.035144
20
14.860328
11
77.979628
21
12.980079
0
LINE
8
Layer 1
10
77.979628
20
12.980079
11
81.313169
21
11.490315
0
LINE
8
Layer 1
10
81.313169
20
11.490315
11
85.191527
21
10.308224
0
LINE
8
Layer 1
10
85.191527
20
10.308224
11
88.248246
21
9.620529
0
LINE
8
Layer 1
10
88.248246
20
9.620529
11
91.270689
21
9.140495
0
LINE
8
Layer 1
10
91.270689
20
9.140495
11
94.615964
21
8.836429
0
LINE
8
Layer 1
10
94.615964
20
8.836429
11
98.641179
21
8.676641
0
LINE
8
Layer 1
10
98.641179
20
8.676641
11
98.544166
21
7.741780
0
LINE
8
Layer 1
10
98.544166
20
7.741780
11
94.028799
21
8.035454
0
LINE
8
Layer 1
10
94.028799
20
8.035454
11
89.908075
21
8.527890
0
LINE
8
Layer 1
10
89.908075
20
8.527890
11
86.162609
21
9.224063
0
LINE
8
Layer 1
10
86.162609
20
9.224063
11
82.773016
21
10.128945
0
LINE
8
Layer 1
10
82.773016
20
10.128945
11
79.719913
21
11.247511
0
LINE
8
Layer 1
10
79.719913
20
11.247511
11
76.983914
21
12.584735
0
LINE
8
Layer 1
10
76.983914
20
12.584735
11
74.545635
21
14.145590
0
LINE
8
Layer 1
10
74.545635
20
14.145590
11
72.385693
21
15.935050
0
LINE
8
Layer 1
10
72.385693
20
15.935050
11
70.478092
21
17.930634
0
LINE
8
Layer 1
10
70.478092
20
17.930634
11
68.878627
21
20.057614
0
LINE
8
Layer 1
10
68.878627
20
20.057614
11
67.575501
21
22.350745
0
LINE
8
Layer 1
10
67.575501
20
22.350745
11
66.556915
21
24.844781
0
LINE
8
Layer 1
10
66.556915
20
24.844781
11
65.811071
21
27.574476
0
LINE
8
Layer 1
10
65.811071
20
27.574476
11
65.326171
21
30.574583
0
LINE
8
Layer 1
10
65.326171
20
30.574583
11
65.090418
21
33.879856
0
LINE
8
Layer 1
10
65.090418
20
33.879856
11
65.092013
21
37.525050
0
LINE
8
Layer 1
10
65.092013
20
37.525050
11
65.502855
21
43.123017
0
LINE
8
Layer 1
10
65.502855
20
43.123017
11
66.455549
21
49.069966
0
LINE
8
Layer 1
10
66.455549
20
49.069966
11
68.038367
21
55.806123
0
LINE
8
Layer 1
10
68.038367
20
55.806123
11
70.339582
21
63.771716
0
LINE
8
Layer 1
10
70.339582
20
63.771716
11
73.061031
21
72.134136
0
LINE
8
Layer 1
10
73.061031
20
72.134136
11
78.788610
21
88.325050
0
LINE
8
Layer 1
10
78.788610
20
88.325050
11
82.543091
21
99.127123
0
LINE
8
Layer 1
10
82.543091
20
99.127123
11
85.268244
21
107.683171
0
LINE
8
Layer 1
10
85.268244
20
107.683171
11
87.176722
21
114.709324
0
LINE
8
Layer 1
10
87.176722
20
114.709324
11
88.481179
21
120.921716
0
LINE
8
Layer 1
10
88.481179
20
120.921716
11
89.006193
21
124.912569
0
LINE
8
Layer 1
10
89.006193
20
124.912569
11
89.142638
21
129.882272
0
LINE
8
Layer 1
10
89.142638
20
129.882272
11
89.177916
21
132.704494
0
LINE
8
Layer 1
10
89.177916
20
132.704494
11
90.033402
21
132.819147
0
LINE
8
Layer 1
10
90.033402
20
132.819147
11
90.033402
21
132.819147
0
LINE
8
Layer 1
10
119.975416
20
132.819147
11
120.830902
21
132.704494
0
LINE
8
Layer 1
10
120.830902
20
132.704494
11
120.857360
21
129.882272
0
LINE
8
Layer 1
10
120.857360
20
129.882272
11
120.993805
21
124.912569
0
LINE
8
Layer 1
10
120.993805
20
124.912569
11
121.518818
21
120.921716
0
LINE
8
Layer 1
10
121.518818
20
120.921716
11
122.823276
21
114.709328
0
LINE
8
Layer 1
10
122.823276
20
114.709328
11
124.731754
21
107.683171
0
LINE
8
Layer 1
10
124.731754
20
107.683171
11
127.456906
21
99.127120
0
LINE
8
Layer 1
10
127.456906
20
99.127120
11
131.211388
21
88.325050
0
LINE
8
Layer 1
10
131.211388
20
88.325050
11
136.938967
21
72.134136
0
LINE
8
Layer 1
10
136.938967
20
72.134136
11
139.660416
21
63.771716
0
LINE
8
Layer 1
10
139.660416
20
63.771716
11
141.961630
21
55.806127
0
LINE
8
Layer 1
10
141.961630
20
55.806127
11
143.544449
21
49.069966
0
LINE
8
Layer 1
10
143.544449
20
49.069966
11
144.497143
21
43.123013
0
LINE
8
Layer 1
10
144.497143
20
43.123013
11
144.907985
21
37.525050
0
LINE
8
Layer 1
10
144.907985
20
37.525050
11
144.909580
21
33.879859
0
LINE
8
Layer 1
10
144.909580
20
33.879859
11
144.673826
21
30.574586
0
LINE
8
Layer 1
10
144.673826
20
30.574586
11
144.188927
21
27.574478
0
LINE
8
Layer 1
10
144.188927
20
27.574478
11
143.443083
21
24.844781
0
LINE
8
Layer 1
10
143.443083
20
24.844781
11
142.424497
21
22.350743
0
LINE
8
Layer 1
10
142.424497
20
22.350743
11
141.121370
21
20.057611
0
LINE
8
Layer 1
10
141.121370
20
20.057611
11
139.521906
21
17.930631
0
LINE
8
Layer 1
10
139.521906
20
17.930631
11
137.614304
21
15.935050
0
LINE
8
Layer 1
10
137.614304
20
15.935050
11
135.454741
21
14.145591
0
LINE
8
Layer 1
10
135.454741
20
14.145591
11
133.017462
21
12.584739
0
LINE
8
Layer 1
10
133.017462
20
12.584739
11
130.282876
21
11.247519
0
LINE
8
Layer 1
10
130.282876
20
11.247519
11
127.231391
21
10.128956
0
LINE
8
Layer 1
10
127.231391
20
10.128956
11
123.843418
21
9.224075
0
LINE
8
Layer 1
10
123.843418
20
9.224075
11
120.099364
21
8.527902
0
LINE
8
Layer 1
10
120.099364
20
8.527902
11
115.979639
21
8.035462
0
LINE
8
Layer 1
10
115.979639
20
8.035462
11
111.464652
21
7.741780
0
LINE
8
Layer 1
10
111.464652
20
7.741780
11
111.358818
21
8.676641
0
LINE
8
Layer 1
10
111.358818
20
8.676641
11
115.384034
21
8.836425
0
LINE
8
Layer 1
10
115.384034
20
8.836425
11
118.729308
21
9.140484
0
LINE
8
Layer 1
10
118.729308
20
9.140484
11
121.751751
21
9.620517
0
LINE
8
Layer 1
10
121.751751
20
9.620517
11
124.808471
21
10.308224
0
LINE
8
Layer 1
10
124.808471
20
10.308224
11
128.686829
21
11.490315
0
LINE
8
Layer 1
10
128.686829
20
11.490315
11
132.020370
21
12.980079
0
LINE
8
Layer 1
10
132.020370
20
12.980079
11
134.964854
21
14.860328
0
LINE
8
Layer 1
10
134.964854
20
14.860328
11
137.676041
21
17.213869
0
LINE
8
Layer 1
10
137.676041
20
17.213869
11
139.907739
21
19.673331
0
LINE
8
Layer 1
10
139.907739
20
19.673331
11
140.660009
21
20.837339
0
LINE
8
Layer 1
10
140.660009
20
20.837339
11
141.415485
21
22.293869
0
LINE
8
Layer 1
10
141.415485
20
22.293869
11
142.601828
21
25.048418
0
LINE
8
Layer 1
10
142.601828
20
25.048418
11
143.378993
21
27.723663
0
LINE
8
Layer 1
10
143.378993
20
27.723663
11
143.833658
21
30.715695
0
LINE
8
Layer 1
10
143.833658
20
30.715695
11
144.052499
21
34.420605
0
LINE
8
Layer 1
10
144.052499
20
34.420605
11
144.039927
21
38.635893
0
LINE
8
Layer 1
10
144.039927
20
38.635893
11
143.703652
21
42.973615
0
LINE
8
Layer 1
10
143.703652
20
42.973615
11
142.988568
21
47.657354
0
LINE
8
Layer 1
10
142.988568
20
47.657354
11
141.839568
21
52.910694
0
LINE
8
Layer 1
10
141.839568
20
52.910694
11
140.201547
21
58.957217
0
LINE
8
Layer 1
10
140.201547
20
58.957217
11
138.019398
21
66.020506
0
LINE
8
Layer 1
10
138.019398
20
66.020506
11
131.802291
21
84.091716
0
LINE
8
Layer 1
10
131.802291
20
84.091716
11
126.740116
21
98.589683
0
LINE
8
Layer 1
10
126.740116
20
98.589683
11
123.375795
21
109.193607
0
LINE
8
Layer 1
10
123.375795
20
109.193607
11
122.206885
21
113.460235
0
LINE
8
Layer 1
10
122.206885
20
113.460235
11
121.314305
21
117.263270
0
LINE
8
Layer 1
10
121.314305
20
117.263270
11
120.648678
21
120.772685
0
LINE
8
Layer 1
10
120.648678
20
120.772685
11
120.160624
21
124.158453
0
LINE
8
Layer 1
10
120.160624
20
124.158453
11
119.872477
21
128.640417
0
LINE
8
Layer 1
10
119.872477
20
128.640417
11
119.975416
21
132.819147
0
LINE
8
Layer 1
10
119.975416
20
132.819147
11
119.975416
21
132.819147
 0 
ENDSEC
 0 
EOF
