  0
SECTION
  2
BLOCKS
  0
ENDSEC
  0
SECTION
  2
ENTITIES
  0
LINE
  8
0
 10
202.772
 20
-50.9848
 11
202.94
 21
-50.9397
  0
LINE
  8
0
 10
202.94
 20
-50.9397
 11
203.098
 21
-50.866
  0
LINE
  8
0
 10
203.098
 20
-50.866
 11
203.241
 21
-50.766
  0
LINE
  8
0
 10
203.241
 20
-50.766
 11
203.364
 21
-50.6428
  0
LINE
  8
0
 10
203.364
 20
-50.6428
 11
203.464
 21
-50.5
  0
LINE
  8
0
 10
203.464
 20
-50.5
 11
203.538
 21
-50.342
  0
LINE
  8
0
 10
203.538
 20
-50.342
 11
203.583
 21
-50.1736
  0
LINE
  8
0
 10
203.583
 20
-50.1736
 11
203.598
 21
-50
  0
LINE
  8
0
 10
203.598
 20
-50
 11
204.346
 21
-40.652
  0
LINE
  8
0
 10
204.346
 20
-40.652
 11
220.656
 21
-49.0803
  0
LINE
  8
0
 10
220.656
 20
-49.0803
 11
220.814
 21
-49.154
  0
LINE
  8
0
 10
220.814
 20
-49.154
 11
220.982
 21
-49.1991
  0
LINE
  8
0
 10
220.982
 20
-49.1991
 11
221.156
 21
-49.2143
  0
LINE
  8
0
 10
221.156
 20
-49.2143
 11
221.329
 21
-49.1991
  0
LINE
  8
0
 10
221.329
 20
-49.1991
 11
221.498
 21
-49.154
  0
LINE
  8
0
 10
221.498
 20
-49.154
 11
221.656
 21
-49.0803
  0
LINE
  8
0
 10
221.656
 20
-49.0803
 11
221.799
 21
-48.9803
  0
LINE
  8
0
 10
221.799
 20
-48.9803
 11
221.922
 21
-48.8571
  0
LINE
  8
0
 10
221.922
 20
-48.8571
 11
222.022
 21
-48.7143
  0
LINE
  8
0
 10
222.022
 20
-48.7143
 11
222.095
 21
-48.5563
  0
LINE
  8
0
 10
222.095
 20
-48.5563
 11
222.141
 21
-48.3879
  0
LINE
  8
0
 10
222.141
 20
-48.3879
 11
222.156
 21
-48.2143
  0
LINE
  8
0
 10
222.156
 20
-48.2143
 11
222.141
 21
-48.0406
  0
LINE
  8
0
 10
222.141
 20
-48.0406
 11
222.095
 21
-47.8723
  0
LINE
  8
0
 10
222.095
 20
-47.8723
 11
222.022
 21
-47.7143
  0
LINE
  8
0
 10
222.022
 20
-47.7143
 11
221.922
 21
-47.5715
  0
LINE
  8
0
 10
221.922
 20
-47.5715
 11
221.799
 21
-47.4482
  0
LINE
  8
0
 10
221.799
 20
-47.4482
 11
221.656
 21
-47.3483
  0
LINE
  8
0
 10
221.656
 20
-47.3483
 11
204.681
 21
-36.4625
  0
LINE
  8
0
 10
204.681
 20
-36.4625
 11
205.314
 21
-28.5443
  0
LINE
  8
0
 10
205.314
 20
-28.5443
 11
214.47
 21
-33.0089
  0
LINE
  8
0
 10
214.47
 20
-33.0089
 11
214.628
 21
-33.0825
  0
LINE
  8
0
 10
214.628
 20
-33.0825
 11
214.796
 21
-33.1277
  0
LINE
  8
0
 10
214.796
 20
-33.1277
 11
214.97
 21
-33.1429
  0
LINE
  8
0
 10
214.97
 20
-33.1429
 11
215.143
 21
-33.1277
  0
LINE
  8
0
 10
215.143
 20
-33.1277
 11
215.312
 21
-33.0825
  0
LINE
  8
0
 10
215.312
 20
-33.0825
 11
215.47
 21
-33.0089
  0
LINE
  8
0
 10
215.47
 20
-33.0089
 11
215.613
 21
-32.9089
  0
LINE
  8
0
 10
215.613
 20
-32.9089
 11
215.736
 21
-32.7856
  0
LINE
  8
0
 10
215.736
 20
-32.7856
 11
215.836
 21
-32.6429
  0
LINE
  8
0
 10
215.836
 20
-32.6429
 11
215.91
 21
-32.4849
  0
LINE
  8
0
 10
215.91
 20
-32.4849
 11
215.955
 21
-32.3165
  0
LINE
  8
0
 10
215.955
 20
-32.3165
 11
215.97
 21
-32.1429
  0
LINE
  8
0
 10
215.97
 20
-32.1429
 11
215.955
 21
-31.9692
  0
LINE
  8
0
 10
215.955
 20
-31.9692
 11
215.91
 21
-31.8008
  0
LINE
  8
0
 10
215.91
 20
-31.8008
 11
215.836
 21
-31.6429
  0
LINE
  8
0
 10
215.836
 20
-31.6429
 11
215.736
 21
-31.5001
  0
LINE
  8
0
 10
215.736
 20
-31.5001
 11
215.613
 21
-31.3768
  0
LINE
  8
0
 10
215.613
 20
-31.3768
 11
215.47
 21
-31.2768
  0
LINE
  8
0
 10
215.47
 20
-31.2768
 11
205.627
 21
-24.6368
  0
LINE
  8
0
 10
205.627
 20
-24.6368
 11
206.306
 21
-16.15
  0
LINE
  8
0
 10
206.306
 20
-16.15
 11
208.442
 21
-17.0111
  0
LINE
  8
0
 10
208.442
 20
-17.0111
 11
208.61
 21
-17.0562
  0
LINE
  8
0
 10
208.61
 20
-17.0562
 11
208.784
 21
-17.0714
  0
LINE
  8
0
 10
208.784
 20
-17.0714
 11
208.958
 21
-17.0562
  0
LINE
  8
0
 10
208.958
 20
-17.0562
 11
209.126
 21
-17.0111
  0
LINE
  8
0
 10
209.126
 20
-17.0111
 11
209.284
 21
-16.9374
  0
LINE
  8
0
 10
209.284
 20
-16.9374
 11
209.427
 21
-16.8375
  0
LINE
  8
0
 10
209.427
 20
-16.8375
 11
209.55
 21
-16.7142
  0
LINE
  8
0
 10
209.55
 20
-16.7142
 11
209.65
 21
-16.5714
  0
LINE
  8
0
 10
209.65
 20
-16.5714
 11
209.724
 21
-16.4134
  0
LINE
  8
0
 10
209.724
 20
-16.4134
 11
209.769
 21
-16.2451
  0
LINE
  8
0
 10
209.769
 20
-16.2451
 11
209.784
 21
-16.0714
  0
LINE
  8
0
 10
209.784
 20
-16.0714
 11
209.769
 21
-15.8978
  0
LINE
  8
0
 10
209.769
 20
-15.8978
 11
209.724
 21
-15.7294
  0
LINE
  8
0
 10
209.724
 20
-15.7294
 11
209.65
 21
-15.5714
  0
LINE
  8
0
 10
209.65
 20
-15.5714
 11
209.55
 21
-15.4286
  0
LINE
  8
0
 10
209.55
 20
-15.4286
 11
209.427
 21
-15.3054
  0
LINE
  8
0
 10
209.427
 20
-15.3054
 11
206.553
 21
-13.0571
  0
LINE
  8
0
 10
206.553
 20
-13.0571
 11
206.99
 21
-7.60628
  0
LINE
  8
0
 10
206.99
 20
-7.60628
 11
211.928
 21
-9.95404
  0
LINE
  8
0
 10
211.928
 20
-9.95404
 11
212.439
 21
-13.5665
  0
LINE
  8
0
 10
212.439
 20
-13.5665
 11
212.484
 21
-13.7349
  0
LINE
  8
0
 10
212.484
 20
-13.7349
 11
212.557
 21
-13.8928
  0
LINE
  8
0
 10
212.557
 20
-13.8928
 11
212.657
 21
-14.0356
  0
LINE
  8
0
 10
212.657
 20
-14.0356
 11
212.781
 21
-14.1589
  0
LINE
  8
0
 10
212.781
 20
-14.1589
 11
212.923
 21
-14.2589
  0
LINE
  8
0
 10
212.923
 20
-14.2589
 11
213.081
 21
-14.3325
  0
LINE
  8
0
 10
213.081
 20
-14.3325
 11
213.25
 21
-14.3776
  0
LINE
  8
0
 10
213.25
 20
-14.3776
 11
213.423
 21
-14.3928
  0
LINE
  8
0
 10
213.423
 20
-14.3928
 11
213.597
 21
-14.3776
  0
LINE
  8
0
 10
213.597
 20
-14.3776
 11
213.765
 21
-14.3325
  0
LINE
  8
0
 10
213.765
 20
-14.3325
 11
213.923
 21
-14.2589
  0
LINE
  8
0
 10
213.923
 20
-14.2589
 11
214.066
 21
-14.1589
  0
LINE
  8
0
 10
214.066
 20
-14.1589
 11
214.189
 21
-14.0356
  0
LINE
  8
0
 10
214.189
 20
-14.0356
 11
214.289
 21
-13.8928
  0
LINE
  8
0
 10
214.289
 20
-13.8928
 11
214.363
 21
-13.7349
  0
LINE
  8
0
 10
214.363
 20
-13.7349
 11
214.408
 21
-13.5665
  0
LINE
  8
0
 10
214.408
 20
-13.5665
 11
214.73
 21
-11.2862
  0
LINE
  8
0
 10
214.73
 20
-11.2862
 11
222.42
 21
-14.9416
  0
LINE
  8
0
 10
222.42
 20
-14.9416
 11
223.249
 21
-26.7857
  0
LINE
  8
0
 10
223.249
 20
-26.7857
 11
223.264
 21
-26.9593
  0
LINE
  8
0
 10
223.264
 20
-26.9593
 11
223.309
 21
-27.1277
  0
LINE
  8
0
 10
223.309
 20
-27.1277
 11
223.383
 21
-27.2857
  0
LINE
  8
0
 10
223.383
 20
-27.2857
 11
223.483
 21
-27.4285
  0
LINE
  8
0
 10
223.483
 20
-27.4285
 11
223.606
 21
-27.5517
  0
LINE
  8
0
 10
223.606
 20
-27.5517
 11
223.749
 21
-27.6517
  0
LINE
  8
0
 10
223.749
 20
-27.6517
 11
223.907
 21
-27.7254
  0
LINE
  8
0
 10
223.907
 20
-27.7254
 11
224.075
 21
-27.7705
  0
LINE
  8
0
 10
224.075
 20
-27.7705
 11
224.249
 21
-27.7857
  0
LINE
  8
0
 10
224.249
 20
-27.7857
 11
224.422
 21
-27.7705
  0
LINE
  8
0
 10
224.422
 20
-27.7705
 11
224.591
 21
-27.7254
  0
LINE
  8
0
 10
224.591
 20
-27.7254
 11
224.749
 21
-27.6517
  0
LINE
  8
0
 10
224.749
 20
-27.6517
 11
224.891
 21
-27.5517
  0
LINE
  8
0
 10
224.891
 20
-27.5517
 11
225.015
 21
-27.4285
  0
LINE
  8
0
 10
225.015
 20
-27.4285
 11
225.115
 21
-27.2857
  0
LINE
  8
0
 10
225.115
 20
-27.2857
 11
225.188
 21
-27.1277
  0
LINE
  8
0
 10
225.188
 20
-27.1277
 11
225.233
 21
-26.9594
  0
LINE
  8
0
 10
225.233
 20
-26.9594
 11
225.249
 21
-26.7857
  0
LINE
  8
0
 10
225.249
 20
-26.7857
 11
225.96
 21
-16.6247
  0
LINE
  8
0
 10
225.96
 20
-16.6247
 11
233.134
 21
-20.0352
  0
LINE
  8
0
 10
233.134
 20
-20.0352
 11
234.074
 21
-40.1786
  0
LINE
  8
0
 10
234.074
 20
-40.1786
 11
234.089
 21
-40.3522
  0
LINE
  8
0
 10
234.089
 20
-40.3522
 11
234.134
 21
-40.5206
  0
LINE
  8
0
 10
234.134
 20
-40.5206
 11
234.208
 21
-40.6786
  0
LINE
  8
0
 10
234.208
 20
-40.6786
 11
234.308
 21
-40.8213
  0
LINE
  8
0
 10
234.308
 20
-40.8213
 11
234.431
 21
-40.9446
  0
LINE
  8
0
 10
234.431
 20
-40.9446
 11
234.574
 21
-41.0446
  0
LINE
  8
0
 10
234.574
 20
-41.0446
 11
234.732
 21
-41.1182
  0
LINE
  8
0
 10
234.732
 20
-41.1182
 11
234.9
 21
-41.1634
  0
LINE
  8
0
 10
234.9
 20
-41.1634
 11
235.074
 21
-41.1786
  0
LINE
  8
0
 10
235.074
 20
-41.1786
 11
235.248
 21
-41.1634
  0
LINE
  8
0
 10
235.248
 20
-41.1634
 11
235.416
 21
-41.1182
  0
LINE
  8
0
 10
235.416
 20
-41.1182
 11
235.574
 21
-41.0446
  0
LINE
  8
0
 10
235.574
 20
-41.0446
 11
235.717
 21
-40.9446
  0
LINE
  8
0
 10
235.717
 20
-40.9446
 11
235.84
 21
-40.8213
  0
LINE
  8
0
 10
235.84
 20
-40.8213
 11
235.94
 21
-40.6786
  0
LINE
  8
0
 10
235.94
 20
-40.6786
 11
236.014
 21
-40.5206
  0
LINE
  8
0
 10
236.014
 20
-40.5206
 11
236.059
 21
-40.3522
  0
LINE
  8
0
 10
236.059
 20
-40.3522
 11
236.074
 21
-40.1786
  0
LINE
  8
0
 10
236.074
 20
-40.1786
 11
236.93
 21
-21.8397
  0
LINE
  8
0
 10
236.93
 20
-21.8397
 11
245.399
 21
-25.866
  0
LINE
  8
0
 10
245.399
 20
-25.866
 11
245.557
 21
-25.9397
  0
LINE
  8
0
 10
245.557
 20
-25.9397
 11
245.726
 21
-25.9848
  0
LINE
  8
0
 10
245.726
 20
-25.9848
 11
245.899
 21
-26
  0
LINE
  8
0
 10
245.899
 20
-26
 11
246.073
 21
-25.9848
  0
LINE
  8
0
 10
246.073
 20
-25.9848
 11
246.241
 21
-25.9397
  0
LINE
  8
0
 10
246.241
 20
-25.9397
 11
246.399
 21
-25.866
  0
LINE
  8
0
 10
246.399
 20
-25.866
 11
246.542
 21
-25.766
  0
LINE
  8
0
 10
246.542
 20
-25.766
 11
246.665
 21
-25.6428
  0
LINE
  8
0
 10
246.665
 20
-25.6428
 11
246.765
 21
-25.5
  0
LINE
  8
0
 10
246.765
 20
-25.5
 11
246.839
 21
-25.342
  0
LINE
  8
0
 10
246.839
 20
-25.342
 11
246.884
 21
-25.1736
  0
LINE
  8
0
 10
246.884
 20
-25.1736
 11
246.899
 21
-25
  0
LINE
  8
0
 10
246.899
 20
-25
 11
246.884
 21
-24.8264
  0
LINE
  8
0
 10
246.884
 20
-24.8264
 11
246.839
 21
-24.658
  0
LINE
  8
0
 10
246.839
 20
-24.658
 11
246.765
 21
-24.5
  0
LINE
  8
0
 10
246.765
 20
-24.5
 11
246.665
 21
-24.3572
  0
LINE
  8
0
 10
246.665
 20
-24.3572
 11
246.542
 21
-24.2339
  0
LINE
  8
0
 10
246.542
 20
-24.2339
 11
246.399
 21
-24.134
  0
LINE
  8
0
 10
246.399
 20
-24.134
 11
238.678
 21
-18.8123
  0
LINE
  8
0
 10
238.678
 20
-18.8123
 11
254.132
 21
-8.90173
  0
LINE
  8
0
 10
254.132
 20
-8.90173
 11
254.274
 21
-8.80176
  0
LINE
  8
0
 10
254.274
 20
-8.80176
 11
254.398
 21
-8.6785
  0
LINE
  8
0
 10
254.398
 20
-8.6785
 11
254.498
 21
-8.53571
  0
LINE
  8
0
 10
254.498
 20
-8.53571
 11
254.571
 21
-8.37773
  0
LINE
  8
0
 10
254.571
 20
-8.37773
 11
254.617
 21
-8.20935
  0
LINE
  8
0
 10
254.617
 20
-8.20935
 11
254.632
 21
-8.03571
  0
LINE
  8
0
 10
254.632
 20
-8.03571
 11
254.617
 21
-7.86206
  0
LINE
  8
0
 10
254.617
 20
-7.86206
 11
254.571
 21
-7.69368
  0
LINE
  8
0
 10
254.571
 20
-7.69368
 11
254.498
 21
-7.53571
  0
LINE
  8
0
 10
254.498
 20
-7.53571
 11
254.398
 21
-7.39293
  0
LINE
  8
0
 10
254.398
 20
-7.39293
 11
254.274
 21
-7.26967
  0
LINE
  8
0
 10
254.274
 20
-7.26967
 11
254.132
 21
-7.16969
  0
LINE
  8
0
 10
254.132
 20
-7.16969
 11
253.974
 21
-7.09602
  0
LINE
  8
0
 10
253.974
 20
-7.09602
 11
253.805
 21
-7.0509
  0
LINE
  8
0
 10
253.805
 20
-7.0509
 11
253.632
 21
-7.03571
  0
LINE
  8
0
 10
253.632
 20
-7.03571
 11
253.458
 21
-7.05089
  0
LINE
  8
0
 10
253.458
 20
-7.05089
 11
253.29
 21
-7.09601
  0
LINE
  8
0
 10
253.29
 20
-7.09601
 11
253.132
 21
-7.16968
  0
LINE
  8
0
 10
253.132
 20
-7.16968
 11
235.217
 21
-16.4273
  0
LINE
  8
0
 10
235.217
 20
-16.4273
 11
228.676
 21
-11.9196
  0
LINE
  8
0
 10
228.676
 20
-11.9196
 11
237.12
 21
-6.22318
  0
LINE
  8
0
 10
237.12
 20
-6.22318
 11
237.263
 21
-6.12317
  0
LINE
  8
0
 10
237.263
 20
-6.12317
 11
237.387
 21
-5.99992
  0
LINE
  8
0
 10
237.387
 20
-5.99992
 11
237.486
 21
-5.85715
  0
LINE
  8
0
 10
237.486
 20
-5.85715
 11
237.56
 21
-5.69916
  0
LINE
  8
0
 10
237.56
 20
-5.69916
 11
237.605
 21
-5.53078
  0
LINE
  8
0
 10
237.605
 20
-5.53078
 11
237.62
 21
-5.35715
  0
LINE
  8
0
 10
237.62
 20
-5.35715
 11
237.605
 21
-5.18349
  0
LINE
  8
0
 10
237.605
 20
-5.18349
 11
237.56
 21
-5.01512
  0
LINE
  8
0
 10
237.56
 20
-5.01512
 11
237.487
 21
-4.85715
  0
LINE
  8
0
 10
237.487
 20
-4.85715
 11
237.387
 21
-4.71434
  0
LINE
  8
0
 10
237.387
 20
-4.71434
 11
237.263
 21
-4.59109
  0
LINE
  8
0
 10
237.263
 20
-4.59109
 11
237.12
 21
-4.49112
  0
LINE
  8
0
 10
237.12
 20
-4.49112
 11
236.963
 21
-4.41745
  0
LINE
  8
0
 10
236.963
 20
-4.41745
 11
236.794
 21
-4.37233
  0
LINE
  8
0
 10
236.794
 20
-4.37233
 11
236.62
 21
-4.35715
  0
LINE
  8
0
 10
236.62
 20
-4.35715
 11
236.447
 21
-4.37233
  0
LINE
  8
0
 10
236.447
 20
-4.37233
 11
236.278
 21
-4.41745
  0
LINE
  8
0
 10
236.278
 20
-4.41745
 11
236.12
 21
-4.49112
  0
LINE
  8
0
 10
236.12
 20
-4.49112
 11
225.449
 21
-9.69516
  0
LINE
  8
0
 10
225.449
 20
-9.69516
 11
218.438
 21
-4.86378
  0
LINE
  8
0
 10
218.438
 20
-4.86378
 11
220.252
 21
-3.44461
  0
LINE
  8
0
 10
220.252
 20
-3.44461
 11
220.375
 21
-3.32135
  0
LINE
  8
0
 10
220.375
 20
-3.32135
 11
220.475
 21
-3.17857
  0
LINE
  8
0
 10
220.475
 20
-3.17857
 11
220.549
 21
-3.02058
  0
LINE
  8
0
 10
220.549
 20
-3.02058
 11
220.594
 21
-2.85222
  0
LINE
  8
0
 10
220.594
 20
-2.85222
 11
220.609
 21
-2.67857
  0
LINE
  8
0
 10
220.609
 20
-2.67857
 11
220.594
 21
-2.50491
  0
LINE
  8
0
 10
220.594
 20
-2.50491
 11
220.549
 21
-2.33655
  0
LINE
  8
0
 10
220.549
 20
-2.33655
 11
220.475
 21
-2.17857
  0
LINE
  8
0
 10
220.475
 20
-2.17857
 11
220.375
 21
-2.03578
  0
LINE
  8
0
 10
220.375
 20
-2.03578
 11
220.252
 21
-1.91252
  0
LINE
  8
0
 10
220.252
 20
-1.91252
 11
220.109
 21
-1.81255
  0
LINE
  8
0
 10
220.109
 20
-1.81255
 11
219.951
 21
-1.73886
  0
LINE
  8
0
 10
219.951
 20
-1.73886
 11
219.783
 21
-1.69376
  0
LINE
  8
0
 10
219.783
 20
-1.69376
 11
219.609
 21
-1.67857
  0
LINE
  8
0
 10
219.609
 20
-1.67857
 11
219.436
 21
-1.69376
  0
LINE
  8
0
 10
219.436
 20
-1.69376
 11
219.267
 21
-1.73888
  0
LINE
  8
0
 10
219.267
 20
-1.73888
 11
215.884
 21
-3.10303
  0
LINE
  8
0
 10
215.884
 20
-3.10303
 11
211.381
 21
0
  0
LINE
  8
0
 10
211.381
 20
0
 11
215.884
 21
3.10303
  0
LINE
  8
0
 10
215.884
 20
3.10303
 11
219.267
 21
1.73888
  0
LINE
  8
0
 10
219.267
 20
1.73888
 11
219.436
 21
1.69376
  0
LINE
  8
0
 10
219.436
 20
1.69376
 11
219.609
 21
1.67857
  0
LINE
  8
0
 10
219.609
 20
1.67857
 11
219.783
 21
1.69376
  0
LINE
  8
0
 10
219.783
 20
1.69376
 11
219.951
 21
1.73886
  0
LINE
  8
0
 10
219.951
 20
1.73886
 11
220.109
 21
1.81255
  0
LINE
  8
0
 10
220.109
 20
1.81255
 11
220.252
 21
1.91252
  0
LINE
  8
0
 10
220.252
 20
1.91252
 11
220.375
 21
2.03578
  0
LINE
  8
0
 10
220.375
 20
2.03578
 11
220.475
 21
2.17857
  0
LINE
  8
0
 10
220.475
 20
2.17857
 11
220.549
 21
2.33655
  0
LINE
  8
0
 10
220.549
 20
2.33655
 11
220.594
 21
2.50491
  0
LINE
  8
0
 10
220.594
 20
2.50491
 11
220.609
 21
2.67857
  0
LINE
  8
0
 10
220.609
 20
2.67857
 11
220.594
 21
2.85222
  0
LINE
  8
0
 10
220.594
 20
2.85222
 11
220.549
 21
3.02058
  0
LINE
  8
0
 10
220.549
 20
3.02058
 11
220.475
 21
3.17857
  0
LINE
  8
0
 10
220.475
 20
3.17857
 11
220.375
 21
3.32135
  0
LINE
  8
0
 10
220.375
 20
3.32135
 11
220.252
 21
3.44461
  0
LINE
  8
0
 10
220.252
 20
3.44461
 11
218.438
 21
4.86378
  0
LINE
  8
0
 10
218.438
 20
4.86378
 11
225.449
 21
9.69516
  0
LINE
  8
0
 10
225.449
 20
9.69516
 11
236.12
 21
4.49112
  0
LINE
  8
0
 10
236.12
 20
4.49112
 11
236.278
 21
4.41745
  0
LINE
  8
0
 10
236.278
 20
4.41745
 11
236.447
 21
4.37233
  0
LINE
  8
0
 10
236.447
 20
4.37233
 11
236.62
 21
4.35715
  0
LINE
  8
0
 10
236.62
 20
4.35715
 11
236.794
 21
4.37233
  0
LINE
  8
0
 10
236.794
 20
4.37233
 11
236.963
 21
4.41745
  0
LINE
  8
0
 10
236.963
 20
4.41745
 11
237.12
 21
4.49112
  0
LINE
  8
0
 10
237.12
 20
4.49112
 11
237.263
 21
4.59109
  0
LINE
  8
0
 10
237.263
 20
4.59109
 11
237.387
 21
4.71434
  0
LINE
  8
0
 10
237.387
 20
4.71434
 11
237.487
 21
4.85715
  0
LINE
  8
0
 10
237.487
 20
4.85715
 11
237.56
 21
5.01512
  0
LINE
  8
0
 10
237.56
 20
5.01512
 11
237.605
 21
5.18349
  0
LINE
  8
0
 10
237.605
 20
5.18349
 11
237.62
 21
5.35715
  0
LINE
  8
0
 10
237.62
 20
5.35715
 11
237.605
 21
5.53078
  0
LINE
  8
0
 10
237.605
 20
5.53078
 11
237.56
 21
5.69916
  0
LINE
  8
0
 10
237.56
 20
5.69916
 11
237.486
 21
5.85715
  0
LINE
  8
0
 10
237.486
 20
5.85715
 11
237.387
 21
5.99992
  0
LINE
  8
0
 10
237.387
 20
5.99992
 11
237.263
 21
6.12317
  0
LINE
  8
0
 10
237.263
 20
6.12317
 11
237.12
 21
6.22318
  0
LINE
  8
0
 10
237.12
 20
6.22318
 11
228.676
 21
11.9196
  0
LINE
  8
0
 10
228.676
 20
11.9196
 11
235.217
 21
16.4273
  0
LINE
  8
0
 10
235.217
 20
16.4273
 11
253.132
 21
7.16968
  0
LINE
  8
0
 10
253.132
 20
7.16968
 11
253.29
 21
7.09601
  0
LINE
  8
0
 10
253.29
 20
7.09601
 11
253.458
 21
7.05089
  0
LINE
  8
0
 10
253.458
 20
7.05089
 11
253.632
 21
7.03571
  0
LINE
  8
0
 10
253.632
 20
7.03571
 11
253.805
 21
7.0509
  0
LINE
  8
0
 10
253.805
 20
7.0509
 11
253.974
 21
7.09602
  0
LINE
  8
0
 10
253.974
 20
7.09602
 11
254.132
 21
7.16969
  0
LINE
  8
0
 10
254.132
 20
7.16969
 11
254.274
 21
7.26967
  0
LINE
  8
0
 10
254.274
 20
7.26967
 11
254.398
 21
7.39293
  0
LINE
  8
0
 10
254.398
 20
7.39293
 11
254.498
 21
7.53571
  0
LINE
  8
0
 10
254.498
 20
7.53571
 11
254.571
 21
7.69368
  0
LINE
  8
0
 10
254.571
 20
7.69368
 11
254.617
 21
7.86206
  0
LINE
  8
0
 10
254.617
 20
7.86206
 11
254.632
 21
8.03571
  0
LINE
  8
0
 10
254.632
 20
8.03571
 11
254.617
 21
8.20935
  0
LINE
  8
0
 10
254.617
 20
8.20935
 11
254.571
 21
8.37773
  0
LINE
  8
0
 10
254.571
 20
8.37773
 11
254.498
 21
8.53571
  0
LINE
  8
0
 10
254.498
 20
8.53571
 11
254.398
 21
8.6785
  0
LINE
  8
0
 10
254.398
 20
8.6785
 11
254.274
 21
8.80176
  0
LINE
  8
0
 10
254.274
 20
8.80176
 11
254.132
 21
8.90173
  0
LINE
  8
0
 10
254.132
 20
8.90173
 11
238.678
 21
18.8123
  0
LINE
  8
0
 10
238.678
 20
18.8123
 11
246.399
 21
24.134
  0
LINE
  8
0
 10
246.399
 20
24.134
 11
246.542
 21
24.2339
  0
LINE
  8
0
 10
246.542
 20
24.2339
 11
246.665
 21
24.3572
  0
LINE
  8
0
 10
246.665
 20
24.3572
 11
246.765
 21
24.5
  0
LINE
  8
0
 10
246.765
 20
24.5
 11
246.839
 21
24.658
  0
LINE
  8
0
 10
246.839
 20
24.658
 11
246.884
 21
24.8264
  0
LINE
  8
0
 10
246.884
 20
24.8264
 11
246.899
 21
25
  0
LINE
  8
0
 10
246.899
 20
25
 11
246.884
 21
25.1736
  0
LINE
  8
0
 10
246.884
 20
25.1736
 11
246.839
 21
25.342
  0
LINE
  8
0
 10
246.839
 20
25.342
 11
246.765
 21
25.5
  0
LINE
  8
0
 10
246.765
 20
25.5
 11
246.665
 21
25.6428
  0
LINE
  8
0
 10
246.665
 20
25.6428
 11
246.542
 21
25.766
  0
LINE
  8
0
 10
246.542
 20
25.766
 11
246.399
 21
25.866
  0
LINE
  8
0
 10
246.399
 20
25.866
 11
246.241
 21
25.9397
  0
LINE
  8
0
 10
246.241
 20
25.9397
 11
246.073
 21
25.9848
  0
LINE
  8
0
 10
246.073
 20
25.9848
 11
245.899
 21
26
  0
LINE
  8
0
 10
245.899
 20
26
 11
245.726
 21
25.9848
  0
LINE
  8
0
 10
245.726
 20
25.9848
 11
245.557
 21
25.9397
  0
LINE
  8
0
 10
245.557
 20
25.9397
 11
245.399
 21
25.866
  0
LINE
  8
0
 10
245.399
 20
25.866
 11
236.93
 21
21.8397
  0
LINE
  8
0
 10
236.93
 20
21.8397
 11
236.074
 21
40.1786
  0
LINE
  8
0
 10
236.074
 20
40.1786
 11
236.059
 21
40.3522
  0
LINE
  8
0
 10
236.059
 20
40.3522
 11
236.014
 21
40.5206
  0
LINE
  8
0
 10
236.014
 20
40.5206
 11
235.94
 21
40.6786
  0
LINE
  8
0
 10
235.94
 20
40.6786
 11
235.84
 21
40.8213
  0
LINE
  8
0
 10
235.84
 20
40.8213
 11
235.717
 21
40.9446
  0
LINE
  8
0
 10
235.717
 20
40.9446
 11
235.574
 21
41.0446
  0
LINE
  8
0
 10
235.574
 20
41.0446
 11
235.416
 21
41.1182
  0
LINE
  8
0
 10
235.416
 20
41.1182
 11
235.248
 21
41.1634
  0
LINE
  8
0
 10
235.248
 20
41.1634
 11
235.074
 21
41.1786
  0
LINE
  8
0
 10
235.074
 20
41.1786
 11
234.9
 21
41.1634
  0
LINE
  8
0
 10
234.9
 20
41.1634
 11
234.732
 21
41.1182
  0
LINE
  8
0
 10
234.732
 20
41.1182
 11
234.574
 21
41.0446
  0
LINE
  8
0
 10
234.574
 20
41.0446
 11
234.431
 21
40.9446
  0
LINE
  8
0
 10
234.431
 20
40.9446
 11
234.308
 21
40.8213
  0
LINE
  8
0
 10
234.308
 20
40.8213
 11
234.208
 21
40.6786
  0
LINE
  8
0
 10
234.208
 20
40.6786
 11
234.134
 21
40.5206
  0
LINE
  8
0
 10
234.134
 20
40.5206
 11
234.089
 21
40.3522
  0
LINE
  8
0
 10
234.089
 20
40.3522
 11
234.074
 21
40.1786
  0
LINE
  8
0
 10
234.074
 20
40.1786
 11
233.134
 21
20.0352
  0
LINE
  8
0
 10
233.134
 20
20.0352
 11
225.96
 21
16.6247
  0
LINE
  8
0
 10
225.96
 20
16.6247
 11
225.249
 21
26.7857
  0
LINE
  8
0
 10
225.249
 20
26.7857
 11
225.233
 21
26.9594
  0
LINE
  8
0
 10
225.233
 20
26.9594
 11
225.188
 21
27.1277
  0
LINE
  8
0
 10
225.188
 20
27.1277
 11
225.115
 21
27.2857
  0
LINE
  8
0
 10
225.115
 20
27.2857
 11
225.015
 21
27.4285
  0
LINE
  8
0
 10
225.015
 20
27.4285
 11
224.891
 21
27.5517
  0
LINE
  8
0
 10
224.891
 20
27.5517
 11
224.749
 21
27.6517
  0
LINE
  8
0
 10
224.749
 20
27.6517
 11
224.591
 21
27.7254
  0
LINE
  8
0
 10
224.591
 20
27.7254
 11
224.422
 21
27.7705
  0
LINE
  8
0
 10
224.422
 20
27.7705
 11
224.249
 21
27.7857
  0
LINE
  8
0
 10
224.249
 20
27.7857
 11
224.075
 21
27.7705
  0
LINE
  8
0
 10
224.075
 20
27.7705
 11
223.907
 21
27.7254
  0
LINE
  8
0
 10
223.907
 20
27.7254
 11
223.749
 21
27.6517
  0
LINE
  8
0
 10
223.749
 20
27.6517
 11
223.606
 21
27.5517
  0
LINE
  8
0
 10
223.606
 20
27.5517
 11
223.483
 21
27.4285
  0
LINE
  8
0
 10
223.483
 20
27.4285
 11
223.383
 21
27.2857
  0
LINE
  8
0
 10
223.383
 20
27.2857
 11
223.309
 21
27.1277
  0
LINE
  8
0
 10
223.309
 20
27.1277
 11
223.264
 21
26.9593
  0
LINE
  8
0
 10
223.264
 20
26.9593
 11
223.249
 21
26.7857
  0
LINE
  8
0
 10
223.249
 20
26.7857
 11
222.42
 21
14.9416
  0
LINE
  8
0
 10
222.42
 20
14.9416
 11
214.73
 21
11.2862
  0
LINE
  8
0
 10
214.73
 20
11.2862
 11
214.408
 21
13.5665
  0
LINE
  8
0
 10
214.408
 20
13.5665
 11
214.363
 21
13.7349
  0
LINE
  8
0
 10
214.363
 20
13.7349
 11
214.289
 21
13.8928
  0
LINE
  8
0
 10
214.289
 20
13.8928
 11
214.189
 21
14.0356
  0
LINE
  8
0
 10
214.189
 20
14.0356
 11
214.066
 21
14.1589
  0
LINE
  8
0
 10
214.066
 20
14.1589
 11
213.923
 21
14.2589
  0
LINE
  8
0
 10
213.923
 20
14.2589
 11
213.765
 21
14.3325
  0
LINE
  8
0
 10
213.765
 20
14.3325
 11
213.597
 21
14.3776
  0
LINE
  8
0
 10
213.597
 20
14.3776
 11
213.423
 21
14.3928
  0
LINE
  8
0
 10
213.423
 20
14.3928
 11
213.25
 21
14.3776
  0
LINE
  8
0
 10
213.25
 20
14.3776
 11
213.081
 21
14.3325
  0
LINE
  8
0
 10
213.081
 20
14.3325
 11
212.923
 21
14.2589
  0
LINE
  8
0
 10
212.923
 20
14.2589
 11
212.781
 21
14.1589
  0
LINE
  8
0
 10
212.781
 20
14.1589
 11
212.657
 21
14.0356
  0
LINE
  8
0
 10
212.657
 20
14.0356
 11
212.557
 21
13.8928
  0
LINE
  8
0
 10
212.557
 20
13.8928
 11
212.484
 21
13.7349
  0
LINE
  8
0
 10
212.484
 20
13.7349
 11
212.439
 21
13.5665
  0
LINE
  8
0
 10
212.439
 20
13.5665
 11
211.928
 21
9.95404
  0
LINE
  8
0
 10
211.928
 20
9.95404
 11
206.99
 21
7.60629
  0
LINE
  8
0
 10
206.99
 20
7.60629
 11
206.553
 21
13.0571
  0
LINE
  8
0
 10
206.553
 20
13.0571
 11
209.427
 21
15.3054
  0
LINE
  8
0
 10
209.427
 20
15.3054
 11
209.55
 21
15.4286
  0
LINE
  8
0
 10
209.55
 20
15.4286
 11
209.65
 21
15.5714
  0
LINE
  8
0
 10
209.65
 20
15.5714
 11
209.724
 21
15.7294
  0
LINE
  8
0
 10
209.724
 20
15.7294
 11
209.769
 21
15.8978
  0
LINE
  8
0
 10
209.769
 20
15.8978
 11
209.784
 21
16.0714
  0
LINE
  8
0
 10
209.784
 20
16.0714
 11
209.769
 21
16.2451
  0
LINE
  8
0
 10
209.769
 20
16.2451
 11
209.724
 21
16.4134
  0
LINE
  8
0
 10
209.724
 20
16.4134
 11
209.65
 21
16.5714
  0
LINE
  8
0
 10
209.65
 20
16.5714
 11
209.55
 21
16.7142
  0
LINE
  8
0
 10
209.55
 20
16.7142
 11
209.427
 21
16.8375
  0
LINE
  8
0
 10
209.427
 20
16.8375
 11
209.284
 21
16.9374
  0
LINE
  8
0
 10
209.284
 20
16.9374
 11
209.126
 21
17.0111
  0
LINE
  8
0
 10
209.126
 20
17.0111
 11
208.958
 21
17.0562
  0
LINE
  8
0
 10
208.958
 20
17.0562
 11
208.784
 21
17.0714
  0
LINE
  8
0
 10
208.784
 20
17.0714
 11
208.61
 21
17.0562
  0
LINE
  8
0
 10
208.61
 20
17.0562
 11
208.442
 21
17.0111
  0
LINE
  8
0
 10
208.442
 20
17.0111
 11
206.306
 21
16.15
  0
LINE
  8
0
 10
206.306
 20
16.15
 11
205.627
 21
24.6368
  0
LINE
  8
0
 10
205.627
 20
24.6368
 11
215.47
 21
31.2768
  0
LINE
  8
0
 10
215.47
 20
31.2768
 11
215.613
 21
31.3768
  0
LINE
  8
0
 10
215.613
 20
31.3768
 11
215.736
 21
31.5001
  0
LINE
  8
0
 10
215.736
 20
31.5001
 11
215.836
 21
31.6429
  0
LINE
  8
0
 10
215.836
 20
31.6429
 11
215.91
 21
31.8008
  0
LINE
  8
0
 10
215.91
 20
31.8008
 11
215.955
 21
31.9692
  0
LINE
  8
0
 10
215.955
 20
31.9692
 11
215.97
 21
32.1429
  0
LINE
  8
0
 10
215.97
 20
32.1429
 11
215.955
 21
32.3165
  0
LINE
  8
0
 10
215.955
 20
32.3165
 11
215.91
 21
32.4849
  0
LINE
  8
0
 10
215.91
 20
32.4849
 11
215.836
 21
32.6429
  0
LINE
  8
0
 10
215.836
 20
32.6429
 11
215.736
 21
32.7856
  0
LINE
  8
0
 10
215.736
 20
32.7856
 11
215.613
 21
32.9089
  0
LINE
  8
0
 10
215.613
 20
32.9089
 11
215.47
 21
33.0089
  0
LINE
  8
0
 10
215.47
 20
33.0089
 11
215.312
 21
33.0825
  0
LINE
  8
0
 10
215.312
 20
33.0825
 11
215.143
 21
33.1277
  0
LINE
  8
0
 10
215.143
 20
33.1277
 11
214.97
 21
33.1429
  0
LINE
  8
0
 10
214.97
 20
33.1429
 11
214.796
 21
33.1277
  0
LINE
  8
0
 10
214.796
 20
33.1277
 11
214.628
 21
33.0825
  0
LINE
  8
0
 10
214.628
 20
33.0825
 11
214.47
 21
33.0089
  0
LINE
  8
0
 10
214.47
 20
33.0089
 11
205.315
 21
28.5443
  0
LINE
  8
0
 10
205.315
 20
28.5443
 11
204.681
 21
36.4625
  0
LINE
  8
0
 10
204.681
 20
36.4625
 11
221.656
 21
47.3483
  0
LINE
  8
0
 10
221.656
 20
47.3483
 11
221.799
 21
47.4482
  0
LINE
  8
0
 10
221.799
 20
47.4482
 11
221.922
 21
47.5715
  0
LINE
  8
0
 10
221.922
 20
47.5715
 11
222.022
 21
47.7143
  0
LINE
  8
0
 10
222.022
 20
47.7143
 11
222.095
 21
47.8723
  0
LINE
  8
0
 10
222.095
 20
47.8723
 11
222.141
 21
48.0406
  0
LINE
  8
0
 10
222.141
 20
48.0406
 11
222.156
 21
48.2143
  0
LINE
  8
0
 10
222.156
 20
48.2143
 11
222.141
 21
48.3879
  0
LINE
  8
0
 10
222.141
 20
48.3879
 11
222.095
 21
48.5563
  0
LINE
  8
0
 10
222.095
 20
48.5563
 11
222.022
 21
48.7143
  0
LINE
  8
0
 10
222.022
 20
48.7143
 11
221.922
 21
48.8571
  0
LINE
  8
0
 10
221.922
 20
48.8571
 11
221.799
 21
48.9803
  0
LINE
  8
0
 10
221.799
 20
48.9803
 11
221.656
 21
49.0803
  0
LINE
  8
0
 10
221.656
 20
49.0803
 11
221.498
 21
49.154
  0
LINE
  8
0
 10
221.498
 20
49.154
 11
221.329
 21
49.1991
  0
LINE
  8
0
 10
221.329
 20
49.1991
 11
221.156
 21
49.2143
  0
LINE
  8
0
 10
221.156
 20
49.2143
 11
220.982
 21
49.1991
  0
LINE
  8
0
 10
220.982
 20
49.1991
 11
220.814
 21
49.154
  0
LINE
  8
0
 10
220.814
 20
49.154
 11
220.656
 21
49.0803
  0
LINE
  8
0
 10
220.656
 20
49.0803
 11
204.346
 21
40.652
  0
LINE
  8
0
 10
204.346
 20
40.652
 11
203.598
 21
50
  0
LINE
  8
0
 10
203.598
 20
50
 11
203.583
 21
50.1736
  0
LINE
  8
0
 10
203.583
 20
50.1736
 11
203.538
 21
50.342
  0
LINE
  8
0
 10
203.538
 20
50.342
 11
203.464
 21
50.5
  0
LINE
  8
0
 10
203.464
 20
50.5
 11
203.364
 21
50.6428
  0
LINE
  8
0
 10
203.364
 20
50.6428
 11
203.241
 21
50.766
  0
LINE
  8
0
 10
203.241
 20
50.766
 11
203.098
 21
50.866
  0
LINE
  8
0
 10
203.098
 20
50.866
 11
202.94
 21
50.9397
  0
LINE
  8
0
 10
202.94
 20
50.9397
 11
202.772
 21
50.9848
  0
LINE
  8
0
 10
202.772
 20
50.9848
 11
202.598
 21
51
  0
LINE
  8
0
 10
202.598
 20
51
 11
202.598
 21
16.6667
  0
LINE
  8
0
 10
202.598
 20
16.6667
 11
197.402
 21
16.6667
  0
LINE
  8
0
 10
197.402
 20
16.6667
 11
197.402
 21
51
  0
LINE
  8
0
 10
197.402
 20
51
 11
197.228
 21
50.9848
  0
LINE
  8
0
 10
197.228
 20
50.9848
 11
197.06
 21
50.9397
  0
LINE
  8
0
 10
197.06
 20
50.9397
 11
196.902
 21
50.866
  0
LINE
  8
0
 10
196.902
 20
50.866
 11
196.759
 21
50.766
  0
LINE
  8
0
 10
196.759
 20
50.766
 11
196.636
 21
50.6428
  0
LINE
  8
0
 10
196.636
 20
50.6428
 11
196.536
 21
50.5
  0
LINE
  8
0
 10
196.536
 20
50.5
 11
196.462
 21
50.342
  0
LINE
  8
0
 10
196.462
 20
50.342
 11
196.417
 21
50.1736
  0
LINE
  8
0
 10
196.417
 20
50.1736
 11
196.402
 21
50
  0
LINE
  8
0
 10
196.402
 20
50
 11
195.654
 21
40.652
  0
LINE
  8
0
 10
195.654
 20
40.652
 11
179.344
 21
49.0803
  0
LINE
  8
0
 10
179.344
 20
49.0803
 11
179.186
 21
49.154
  0
LINE
  8
0
 10
179.186
 20
49.154
 11
179.018
 21
49.1991
  0
LINE
  8
0
 10
179.018
 20
49.1991
 11
178.844
 21
49.2143
  0
LINE
  8
0
 10
178.844
 20
49.2143
 11
178.671
 21
49.1991
  0
LINE
  8
0
 10
178.671
 20
49.1991
 11
178.502
 21
49.154
  0
LINE
  8
0
 10
178.502
 20
49.154
 11
178.344
 21
49.0803
  0
LINE
  8
0
 10
178.344
 20
49.0803
 11
178.201
 21
48.9803
  0
LINE
  8
0
 10
178.201
 20
48.9803
 11
178.078
 21
48.8571
  0
LINE
  8
0
 10
178.078
 20
48.8571
 11
177.978
 21
48.7143
  0
LINE
  8
0
 10
177.978
 20
48.7143
 11
177.905
 21
48.5563
  0
LINE
  8
0
 10
177.905
 20
48.5563
 11
177.859
 21
48.3879
  0
LINE
  8
0
 10
177.859
 20
48.3879
 11
177.844
 21
48.2143
  0
LINE
  8
0
 10
177.844
 20
48.2143
 11
177.859
 21
48.0406
  0
LINE
  8
0
 10
177.859
 20
48.0406
 11
177.905
 21
47.8723
  0
LINE
  8
0
 10
177.905
 20
47.8723
 11
177.978
 21
47.7143
  0
LINE
  8
0
 10
177.978
 20
47.7143
 11
178.078
 21
47.5715
  0
LINE
  8
0
 10
178.078
 20
47.5715
 11
178.201
 21
47.4482
  0
LINE
  8
0
 10
178.201
 20
47.4482
 11
178.344
 21
47.3483
  0
LINE
  8
0
 10
178.344
 20
47.3483
 11
195.319
 21
36.4625
  0
LINE
  8
0
 10
195.319
 20
36.4625
 11
194.685
 21
28.5443
  0
LINE
  8
0
 10
194.685
 20
28.5443
 11
185.53
 21
33.0089
  0
LINE
  8
0
 10
185.53
 20
33.0089
 11
185.372
 21
33.0825
  0
LINE
  8
0
 10
185.372
 20
33.0825
 11
185.204
 21
33.1277
  0
LINE
  8
0
 10
185.204
 20
33.1277
 11
185.03
 21
33.1429
  0
LINE
  8
0
 10
185.03
 20
33.1429
 11
184.857
 21
33.1277
  0
LINE
  8
0
 10
184.857
 20
33.1277
 11
184.688
 21
33.0825
  0
LINE
  8
0
 10
184.688
 20
33.0825
 11
184.53
 21
33.0089
  0
LINE
  8
0
 10
184.53
 20
33.0089
 11
184.387
 21
32.9089
  0
LINE
  8
0
 10
184.387
 20
32.9089
 11
184.264
 21
32.7856
  0
LINE
  8
0
 10
184.264
 20
32.7856
 11
184.164
 21
32.6429
  0
LINE
  8
0
 10
184.164
 20
32.6429
 11
184.09
 21
32.4849
  0
LINE
  8
0
 10
184.09
 20
32.4849
 11
184.045
 21
32.3165
  0
LINE
  8
0
 10
184.045
 20
32.3165
 11
184.03
 21
32.1429
  0
LINE
  8
0
 10
184.03
 20
32.1429
 11
184.045
 21
31.9692
  0
LINE
  8
0
 10
184.045
 20
31.9692
 11
184.09
 21
31.8008
  0
LINE
  8
0
 10
184.09
 20
31.8008
 11
184.164
 21
31.6429
  0
LINE
  8
0
 10
184.164
 20
31.6429
 11
184.264
 21
31.5001
  0
LINE
  8
0
 10
184.264
 20
31.5001
 11
184.387
 21
31.3768
  0
LINE
  8
0
 10
184.387
 20
31.3768
 11
184.53
 21
31.2768
  0
LINE
  8
0
 10
184.53
 20
31.2768
 11
194.373
 21
24.6368
  0
LINE
  8
0
 10
194.373
 20
24.6368
 11
193.694
 21
16.15
  0
LINE
  8
0
 10
193.694
 20
16.15
 11
191.558
 21
17.0111
  0
LINE
  8
0
 10
191.558
 20
17.0111
 11
191.39
 21
17.0562
  0
LINE
  8
0
 10
191.39
 20
17.0562
 11
191.216
 21
17.0714
  0
LINE
  8
0
 10
191.216
 20
17.0714
 11
191.042
 21
17.0562
  0
LINE
  8
0
 10
191.042
 20
17.0562
 11
190.874
 21
17.0111
  0
LINE
  8
0
 10
190.874
 20
17.0111
 11
190.716
 21
16.9374
  0
LINE
  8
0
 10
190.716
 20
16.9374
 11
190.573
 21
16.8375
  0
LINE
  8
0
 10
190.573
 20
16.8375
 11
190.45
 21
16.7142
  0
LINE
  8
0
 10
190.45
 20
16.7142
 11
190.35
 21
16.5714
  0
LINE
  8
0
 10
190.35
 20
16.5714
 11
190.276
 21
16.4134
  0
LINE
  8
0
 10
190.276
 20
16.4134
 11
190.231
 21
16.2451
  0
LINE
  8
0
 10
190.231
 20
16.2451
 11
190.216
 21
16.0714
  0
LINE
  8
0
 10
190.216
 20
16.0714
 11
190.231
 21
15.8978
  0
LINE
  8
0
 10
190.231
 20
15.8978
 11
190.276
 21
15.7294
  0
LINE
  8
0
 10
190.276
 20
15.7294
 11
190.35
 21
15.5714
  0
LINE
  8
0
 10
190.35
 20
15.5714
 11
190.45
 21
15.4286
  0
LINE
  8
0
 10
190.45
 20
15.4286
 11
190.573
 21
15.3054
  0
LINE
  8
0
 10
190.573
 20
15.3054
 11
193.447
 21
13.0571
  0
LINE
  8
0
 10
193.447
 20
13.0571
 11
193.01
 21
7.60629
  0
LINE
  8
0
 10
193.01
 20
7.60629
 11
188.072
 21
9.95404
  0
LINE
  8
0
 10
188.072
 20
9.95404
 11
187.561
 21
13.5665
  0
LINE
  8
0
 10
187.561
 20
13.5665
 11
187.516
 21
13.7349
  0
LINE
  8
0
 10
187.516
 20
13.7349
 11
187.443
 21
13.8928
  0
LINE
  8
0
 10
187.443
 20
13.8928
 11
187.343
 21
14.0356
  0
LINE
  8
0
 10
187.343
 20
14.0356
 11
187.219
 21
14.1589
  0
LINE
  8
0
 10
187.219
 20
14.1589
 11
187.077
 21
14.2589
  0
LINE
  8
0
 10
187.077
 20
14.2589
 11
186.919
 21
14.3325
  0
LINE
  8
0
 10
186.919
 20
14.3325
 11
186.75
 21
14.3776
  0
LINE
  8
0
 10
186.75
 20
14.3776
 11
186.577
 21
14.3928
  0
LINE
  8
0
 10
186.577
 20
14.3928
 11
186.403
 21
14.3776
  0
LINE
  8
0
 10
186.403
 20
14.3776
 11
186.235
 21
14.3325
  0
LINE
  8
0
 10
186.235
 20
14.3325
 11
186.077
 21
14.2589
  0
LINE
  8
0
 10
186.077
 20
14.2589
 11
185.934
 21
14.1589
  0
LINE
  8
0
 10
185.934
 20
14.1589
 11
185.811
 21
14.0356
  0
LINE
  8
0
 10
185.811
 20
14.0356
 11
185.711
 21
13.8928
  0
LINE
  8
0
 10
185.711
 20
13.8928
 11
185.637
 21
13.7349
  0
LINE
  8
0
 10
185.637
 20
13.7349
 11
185.592
 21
13.5665
  0
LINE
  8
0
 10
185.592
 20
13.5665
 11
185.27
 21
11.2862
  0
LINE
  8
0
 10
185.27
 20
11.2862
 11
177.58
 21
14.9416
  0
LINE
  8
0
 10
177.58
 20
14.9416
 11
176.751
 21
26.7857
  0
LINE
  8
0
 10
176.751
 20
26.7857
 11
176.736
 21
26.9593
  0
LINE
  8
0
 10
176.736
 20
26.9593
 11
176.691
 21
27.1277
  0
LINE
  8
0
 10
176.691
 20
27.1277
 11
176.617
 21
27.2857
  0
LINE
  8
0
 10
176.617
 20
27.2857
 11
176.517
 21
27.4285
  0
LINE
  8
0
 10
176.517
 20
27.4285
 11
176.394
 21
27.5517
  0
LINE
  8
0
 10
176.394
 20
27.5517
 11
176.251
 21
27.6517
  0
LINE
  8
0
 10
176.251
 20
27.6517
 11
176.093
 21
27.7254
  0
LINE
  8
0
 10
176.093
 20
27.7254
 11
175.925
 21
27.7705
  0
LINE
  8
0
 10
175.925
 20
27.7705
 11
175.751
 21
27.7857
  0
LINE
  8
0
 10
175.751
 20
27.7857
 11
175.578
 21
27.7705
  0
LINE
  8
0
 10
175.578
 20
27.7705
 11
175.409
 21
27.7254
  0
LINE
  8
0
 10
175.409
 20
27.7254
 11
175.251
 21
27.6517
  0
LINE
  8
0
 10
175.251
 20
27.6517
 11
175.109
 21
27.5517
  0
LINE
  8
0
 10
175.109
 20
27.5517
 11
174.985
 21
27.4285
  0
LINE
  8
0
 10
174.985
 20
27.4285
 11
174.885
 21
27.2857
  0
LINE
  8
0
 10
174.885
 20
27.2857
 11
174.812
 21
27.1277
  0
LINE
  8
0
 10
174.812
 20
27.1277
 11
174.767
 21
26.9594
  0
LINE
  8
0
 10
174.767
 20
26.9594
 11
174.751
 21
26.7857
  0
LINE
  8
0
 10
174.751
 20
26.7857
 11
174.04
 21
16.6247
  0
LINE
  8
0
 10
174.04
 20
16.6247
 11
166.866
 21
20.0352
  0
LINE
  8
0
 10
166.866
 20
20.0352
 11
165.926
 21
40.1786
  0
LINE
  8
0
 10
165.926
 20
40.1786
 11
165.911
 21
40.3522
  0
LINE
  8
0
 10
165.911
 20
40.3522
 11
165.866
 21
40.5206
  0
LINE
  8
0
 10
165.866
 20
40.5206
 11
165.792
 21
40.6786
  0
LINE
  8
0
 10
165.792
 20
40.6786
 11
165.692
 21
40.8213
  0
LINE
  8
0
 10
165.692
 20
40.8213
 11
165.569
 21
40.9446
  0
LINE
  8
0
 10
165.569
 20
40.9446
 11
165.426
 21
41.0446
  0
LINE
  8
0
 10
165.426
 20
41.0446
 11
165.268
 21
41.1182
  0
LINE
  8
0
 10
165.268
 20
41.1182
 11
165.1
 21
41.1634
  0
LINE
  8
0
 10
165.1
 20
41.1634
 11
164.926
 21
41.1786
  0
LINE
  8
0
 10
164.926
 20
41.1786
 11
164.752
 21
41.1634
  0
LINE
  8
0
 10
164.752
 20
41.1634
 11
164.584
 21
41.1182
  0
LINE
  8
0
 10
164.584
 20
41.1182
 11
164.426
 21
41.0446
  0
LINE
  8
0
 10
164.426
 20
41.0446
 11
164.283
 21
40.9446
  0
LINE
  8
0
 10
164.283
 20
40.9446
 11
164.16
 21
40.8213
  0
LINE
  8
0
 10
164.16
 20
40.8213
 11
164.06
 21
40.6786
  0
LINE
  8
0
 10
164.06
 20
40.6786
 11
163.986
 21
40.5206
  0
LINE
  8
0
 10
163.986
 20
40.5206
 11
163.941
 21
40.3522
  0
LINE
  8
0
 10
163.941
 20
40.3522
 11
163.926
 21
40.1786
  0
LINE
  8
0
 10
163.926
 20
40.1786
 11
163.07
 21
21.8397
  0
LINE
  8
0
 10
163.07
 20
21.8397
 11
154.601
 21
25.866
  0
LINE
  8
0
 10
154.601
 20
25.866
 11
154.443
 21
25.9397
  0
LINE
  8
0
 10
154.443
 20
25.9397
 11
154.274
 21
25.9848
  0
LINE
  8
0
 10
154.274
 20
25.9848
 11
154.101
 21
26
  0
LINE
  8
0
 10
154.101
 20
26
 11
153.927
 21
25.9848
  0
LINE
  8
0
 10
153.927
 20
25.9848
 11
153.759
 21
25.9397
  0
LINE
  8
0
 10
153.759
 20
25.9397
 11
153.601
 21
25.866
  0
LINE
  8
0
 10
153.601
 20
25.866
 11
153.458
 21
25.766
  0
LINE
  8
0
 10
153.458
 20
25.766
 11
153.335
 21
25.6428
  0
LINE
  8
0
 10
153.335
 20
25.6428
 11
153.235
 21
25.5
  0
LINE
  8
0
 10
153.235
 20
25.5
 11
153.161
 21
25.342
  0
LINE
  8
0
 10
153.161
 20
25.342
 11
153.116
 21
25.1736
  0
LINE
  8
0
 10
153.116
 20
25.1736
 11
153.101
 21
25
  0
LINE
  8
0
 10
153.101
 20
25
 11
153.116
 21
24.8264
  0
LINE
  8
0
 10
153.116
 20
24.8264
 11
153.161
 21
24.658
  0
LINE
  8
0
 10
153.161
 20
24.658
 11
153.235
 21
24.5
  0
LINE
  8
0
 10
153.235
 20
24.5
 11
153.335
 21
24.3572
  0
LINE
  8
0
 10
153.335
 20
24.3572
 11
153.458
 21
24.2339
  0
LINE
  8
0
 10
153.458
 20
24.2339
 11
153.601
 21
24.134
  0
LINE
  8
0
 10
153.601
 20
24.134
 11
161.322
 21
18.8123
  0
LINE
  8
0
 10
161.322
 20
18.8123
 11
145.868
 21
8.90173
  0
LINE
  8
0
 10
145.868
 20
8.90173
 11
145.726
 21
8.80176
  0
LINE
  8
0
 10
145.726
 20
8.80176
 11
145.602
 21
8.6785
  0
LINE
  8
0
 10
145.602
 20
8.6785
 11
145.502
 21
8.53571
  0
LINE
  8
0
 10
145.502
 20
8.53571
 11
145.429
 21
8.37773
  0
LINE
  8
0
 10
145.429
 20
8.37773
 11
145.383
 21
8.20935
  0
LINE
  8
0
 10
145.383
 20
8.20935
 11
145.368
 21
8.03571
  0
LINE
  8
0
 10
145.368
 20
8.03571
 11
145.383
 21
7.86206
  0
LINE
  8
0
 10
145.383
 20
7.86206
 11
145.429
 21
7.69368
  0
LINE
  8
0
 10
145.429
 20
7.69368
 11
145.502
 21
7.53571
  0
LINE
  8
0
 10
145.502
 20
7.53571
 11
145.602
 21
7.39293
  0
LINE
  8
0
 10
145.602
 20
7.39293
 11
145.726
 21
7.26967
  0
LINE
  8
0
 10
145.726
 20
7.26967
 11
145.868
 21
7.16969
  0
LINE
  8
0
 10
145.868
 20
7.16969
 11
146.026
 21
7.09602
  0
LINE
  8
0
 10
146.026
 20
7.09602
 11
146.195
 21
7.0509
  0
LINE
  8
0
 10
146.195
 20
7.0509
 11
146.368
 21
7.03571
  0
LINE
  8
0
 10
146.368
 20
7.03571
 11
146.542
 21
7.05089
  0
LINE
  8
0
 10
146.542
 20
7.05089
 11
146.71
 21
7.09601
  0
LINE
  8
0
 10
146.71
 20
7.09601
 11
146.868
 21
7.16968
  0
LINE
  8
0
 10
146.868
 20
7.16968
 11
164.783
 21
16.4273
  0
LINE
  8
0
 10
164.783
 20
16.4273
 11
171.324
 21
11.9196
  0
LINE
  8
0
 10
171.324
 20
11.9196
 11
162.88
 21
6.22318
  0
LINE
  8
0
 10
162.88
 20
6.22318
 11
162.737
 21
6.12317
  0
LINE
  8
0
 10
162.737
 20
6.12317
 11
162.613
 21
5.99992
  0
LINE
  8
0
 10
162.613
 20
5.99992
 11
162.514
 21
5.85715
  0
LINE
  8
0
 10
162.514
 20
5.85715
 11
162.44
 21
5.69916
  0
LINE
  8
0
 10
162.44
 20
5.69916
 11
162.395
 21
5.53078
  0
LINE
  8
0
 10
162.395
 20
5.53078
 11
162.38
 21
5.35715
  0
LINE
  8
0
 10
162.38
 20
5.35715
 11
162.395
 21
5.18349
  0
LINE
  8
0
 10
162.395
 20
5.18349
 11
162.44
 21
5.01512
  0
LINE
  8
0
 10
162.44
 20
5.01512
 11
162.513
 21
4.85715
  0
LINE
  8
0
 10
162.513
 20
4.85715
 11
162.613
 21
4.71434
  0
LINE
  8
0
 10
162.613
 20
4.71434
 11
162.737
 21
4.59109
  0
LINE
  8
0
 10
162.737
 20
4.59109
 11
162.88
 21
4.49112
  0
LINE
  8
0
 10
162.88
 20
4.49112
 11
163.037
 21
4.41745
  0
LINE
  8
0
 10
163.037
 20
4.41745
 11
163.206
 21
4.37233
  0
LINE
  8
0
 10
163.206
 20
4.37233
 11
163.38
 21
4.35715
  0
LINE
  8
0
 10
163.38
 20
4.35715
 11
163.553
 21
4.37233
  0
LINE
  8
0
 10
163.553
 20
4.37233
 11
163.722
 21
4.41745
  0
LINE
  8
0
 10
163.722
 20
4.41745
 11
163.88
 21
4.49112
  0
LINE
  8
0
 10
163.88
 20
4.49112
 11
174.551
 21
9.69516
  0
LINE
  8
0
 10
174.551
 20
9.69516
 11
181.562
 21
4.86378
  0
LINE
  8
0
 10
181.562
 20
4.86378
 11
179.748
 21
3.44461
  0
LINE
  8
0
 10
179.748
 20
3.44461
 11
179.625
 21
3.32135
  0
LINE
  8
0
 10
179.625
 20
3.32135
 11
179.525
 21
3.17857
  0
LINE
  8
0
 10
179.525
 20
3.17857
 11
179.451
 21
3.02058
  0
LINE
  8
0
 10
179.451
 20
3.02058
 11
179.406
 21
2.85222
  0
LINE
  8
0
 10
179.406
 20
2.85222
 11
179.391
 21
2.67857
  0
LINE
  8
0
 10
179.391
 20
2.67857
 11
179.406
 21
2.50491
  0
LINE
  8
0
 10
179.406
 20
2.50491
 11
179.451
 21
2.33655
  0
LINE
  8
0
 10
179.451
 20
2.33655
 11
179.525
 21
2.17857
  0
LINE
  8
0
 10
179.525
 20
2.17857
 11
179.625
 21
2.03578
  0
LINE
  8
0
 10
179.625
 20
2.03578
 11
179.748
 21
1.91252
  0
LINE
  8
0
 10
179.748
 20
1.91252
 11
179.891
 21
1.81255
  0
LINE
  8
0
 10
179.891
 20
1.81255
 11
180.049
 21
1.73886
  0
LINE
  8
0
 10
180.049
 20
1.73886
 11
180.217
 21
1.69376
  0
LINE
  8
0
 10
180.217
 20
1.69376
 11
180.391
 21
1.67857
  0
LINE
  8
0
 10
180.391
 20
1.67857
 11
180.564
 21
1.69376
  0
LINE
  8
0
 10
180.564
 20
1.69376
 11
180.733
 21
1.73888
  0
LINE
  8
0
 10
180.733
 20
1.73888
 11
184.116
 21
3.10303
  0
LINE
  8
0
 10
184.116
 20
3.10303
 11
188.619
 21
0
  0
LINE
  8
0
 10
188.619
 20
0
 11
184.116
 21
-3.10303
  0
LINE
  8
0
 10
184.116
 20
-3.10303
 11
180.733
 21
-1.73888
  0
LINE
  8
0
 10
180.733
 20
-1.73888
 11
180.564
 21
-1.69376
  0
LINE
  8
0
 10
180.564
 20
-1.69376
 11
180.391
 21
-1.67857
  0
LINE
  8
0
 10
180.391
 20
-1.67857
 11
180.217
 21
-1.69376
  0
LINE
  8
0
 10
180.217
 20
-1.69376
 11
180.049
 21
-1.73886
  0
LINE
  8
0
 10
180.049
 20
-1.73886
 11
179.891
 21
-1.81255
  0
LINE
  8
0
 10
179.891
 20
-1.81255
 11
179.748
 21
-1.91252
  0
LINE
  8
0
 10
179.748
 20
-1.91252
 11
179.625
 21
-2.03578
  0
LINE
  8
0
 10
179.625
 20
-2.03578
 11
179.525
 21
-2.17857
  0
LINE
  8
0
 10
179.525
 20
-2.17857
 11
179.451
 21
-2.33655
  0
LINE
  8
0
 10
179.451
 20
-2.33655
 11
179.406
 21
-2.50491
  0
LINE
  8
0
 10
179.406
 20
-2.50491
 11
179.391
 21
-2.67857
  0
LINE
  8
0
 10
179.391
 20
-2.67857
 11
179.406
 21
-2.85222
  0
LINE
  8
0
 10
179.406
 20
-2.85222
 11
179.451
 21
-3.02058
  0
LINE
  8
0
 10
179.451
 20
-3.02058
 11
179.525
 21
-3.17857
  0
LINE
  8
0
 10
179.525
 20
-3.17857
 11
179.625
 21
-3.32135
  0
LINE
  8
0
 10
179.625
 20
-3.32135
 11
179.748
 21
-3.44461
  0
LINE
  8
0
 10
179.748
 20
-3.44461
 11
181.562
 21
-4.86378
  0
LINE
  8
0
 10
181.562
 20
-4.86378
 11
174.551
 21
-9.69516
  0
LINE
  8
0
 10
174.551
 20
-9.69516
 11
163.88
 21
-4.49112
  0
LINE
  8
0
 10
163.88
 20
-4.49112
 11
163.722
 21
-4.41745
  0
LINE
  8
0
 10
163.722
 20
-4.41745
 11
163.553
 21
-4.37233
  0
LINE
  8
0
 10
163.553
 20
-4.37233
 11
163.38
 21
-4.35715
  0
LINE
  8
0
 10
163.38
 20
-4.35715
 11
163.206
 21
-4.37233
  0
LINE
  8
0
 10
163.206
 20
-4.37233
 11
163.037
 21
-4.41745
  0
LINE
  8
0
 10
163.037
 20
-4.41745
 11
162.88
 21
-4.49112
  0
LINE
  8
0
 10
162.88
 20
-4.49112
 11
162.737
 21
-4.59109
  0
LINE
  8
0
 10
162.737
 20
-4.59109
 11
162.613
 21
-4.71434
  0
LINE
  8
0
 10
162.613
 20
-4.71434
 11
162.513
 21
-4.85715
  0
LINE
  8
0
 10
162.513
 20
-4.85715
 11
162.44
 21
-5.01512
  0
LINE
  8
0
 10
162.44
 20
-5.01512
 11
162.395
 21
-5.18349
  0
LINE
  8
0
 10
162.395
 20
-5.18349
 11
162.38
 21
-5.35715
  0
LINE
  8
0
 10
162.38
 20
-5.35715
 11
162.395
 21
-5.53078
  0
LINE
  8
0
 10
162.395
 20
-5.53078
 11
162.44
 21
-5.69916
  0
LINE
  8
0
 10
162.44
 20
-5.69916
 11
162.514
 21
-5.85715
  0
LINE
  8
0
 10
162.514
 20
-5.85715
 11
162.613
 21
-5.99992
  0
LINE
  8
0
 10
162.613
 20
-5.99992
 11
162.737
 21
-6.12317
  0
LINE
  8
0
 10
162.737
 20
-6.12317
 11
162.88
 21
-6.22318
  0
LINE
  8
0
 10
162.88
 20
-6.22318
 11
171.324
 21
-11.9196
  0
LINE
  8
0
 10
171.324
 20
-11.9196
 11
164.783
 21
-16.4273
  0
LINE
  8
0
 10
164.783
 20
-16.4273
 11
146.868
 21
-7.16968
  0
LINE
  8
0
 10
146.868
 20
-7.16968
 11
146.71
 21
-7.09601
  0
LINE
  8
0
 10
146.71
 20
-7.09601
 11
146.542
 21
-7.05089
  0
LINE
  8
0
 10
146.542
 20
-7.05089
 11
146.368
 21
-7.03571
  0
LINE
  8
0
 10
146.368
 20
-7.03571
 11
146.195
 21
-7.0509
  0
LINE
  8
0
 10
146.195
 20
-7.0509
 11
146.026
 21
-7.09602
  0
LINE
  8
0
 10
146.026
 20
-7.09602
 11
145.868
 21
-7.16969
  0
LINE
  8
0
 10
145.868
 20
-7.16969
 11
145.726
 21
-7.26967
  0
LINE
  8
0
 10
145.726
 20
-7.26967
 11
145.602
 21
-7.39293
  0
LINE
  8
0
 10
145.602
 20
-7.39293
 11
145.502
 21
-7.53571
  0
LINE
  8
0
 10
145.502
 20
-7.53571
 11
145.429
 21
-7.69368
  0
LINE
  8
0
 10
145.429
 20
-7.69368
 11
145.383
 21
-7.86206
  0
LINE
  8
0
 10
145.383
 20
-7.86206
 11
145.368
 21
-8.03571
  0
LINE
  8
0
 10
145.368
 20
-8.03571
 11
145.383
 21
-8.20935
  0
LINE
  8
0
 10
145.383
 20
-8.20935
 11
145.429
 21
-8.37773
  0
LINE
  8
0
 10
145.429
 20
-8.37773
 11
145.502
 21
-8.53571
  0
LINE
  8
0
 10
145.502
 20
-8.53571
 11
145.602
 21
-8.6785
  0
LINE
  8
0
 10
145.602
 20
-8.6785
 11
145.726
 21
-8.80176
  0
LINE
  8
0
 10
145.726
 20
-8.80176
 11
145.868
 21
-8.90173
  0
LINE
  8
0
 10
145.868
 20
-8.90173
 11
161.322
 21
-18.8123
  0
LINE
  8
0
 10
161.322
 20
-18.8123
 11
153.601
 21
-24.134
  0
LINE
  8
0
 10
153.601
 20
-24.134
 11
153.458
 21
-24.2339
  0
LINE
  8
0
 10
153.458
 20
-24.2339
 11
153.335
 21
-24.3572
  0
LINE
  8
0
 10
153.335
 20
-24.3572
 11
153.235
 21
-24.5
  0
LINE
  8
0
 10
153.235
 20
-24.5
 11
153.161
 21
-24.658
  0
LINE
  8
0
 10
153.161
 20
-24.658
 11
153.116
 21
-24.8264
  0
LINE
  8
0
 10
153.116
 20
-24.8264
 11
153.101
 21
-25
  0
LINE
  8
0
 10
153.101
 20
-25
 11
153.116
 21
-25.1736
  0
LINE
  8
0
 10
153.116
 20
-25.1736
 11
153.161
 21
-25.342
  0
LINE
  8
0
 10
153.161
 20
-25.342
 11
153.235
 21
-25.5
  0
LINE
  8
0
 10
153.235
 20
-25.5
 11
153.335
 21
-25.6428
  0
LINE
  8
0
 10
153.335
 20
-25.6428
 11
153.458
 21
-25.766
  0
LINE
  8
0
 10
153.458
 20
-25.766
 11
153.601
 21
-25.866
  0
LINE
  8
0
 10
153.601
 20
-25.866
 11
153.759
 21
-25.9397
  0
LINE
  8
0
 10
153.759
 20
-25.9397
 11
153.927
 21
-25.9848
  0
LINE
  8
0
 10
153.927
 20
-25.9848
 11
154.101
 21
-26
  0
LINE
  8
0
 10
154.101
 20
-26
 11
154.274
 21
-25.9848
  0
LINE
  8
0
 10
154.274
 20
-25.9848
 11
154.443
 21
-25.9397
  0
LINE
  8
0
 10
154.443
 20
-25.9397
 11
154.601
 21
-25.866
  0
LINE
  8
0
 10
154.601
 20
-25.866
 11
163.07
 21
-21.8397
  0
LINE
  8
0
 10
163.07
 20
-21.8397
 11
163.926
 21
-40.1786
  0
LINE
  8
0
 10
163.926
 20
-40.1786
 11
163.941
 21
-40.3522
  0
LINE
  8
0
 10
163.941
 20
-40.3522
 11
163.986
 21
-40.5206
  0
LINE
  8
0
 10
163.986
 20
-40.5206
 11
164.06
 21
-40.6786
  0
LINE
  8
0
 10
164.06
 20
-40.6786
 11
164.16
 21
-40.8213
  0
LINE
  8
0
 10
164.16
 20
-40.8213
 11
164.283
 21
-40.9446
  0
LINE
  8
0
 10
164.283
 20
-40.9446
 11
164.426
 21
-41.0446
  0
LINE
  8
0
 10
164.426
 20
-41.0446
 11
164.584
 21
-41.1182
  0
LINE
  8
0
 10
164.584
 20
-41.1182
 11
164.752
 21
-41.1634
  0
LINE
  8
0
 10
164.752
 20
-41.1634
 11
164.926
 21
-41.1786
  0
LINE
  8
0
 10
164.926
 20
-41.1786
 11
165.1
 21
-41.1634
  0
LINE
  8
0
 10
165.1
 20
-41.1634
 11
165.268
 21
-41.1182
  0
LINE
  8
0
 10
165.268
 20
-41.1182
 11
165.426
 21
-41.0446
  0
LINE
  8
0
 10
165.426
 20
-41.0446
 11
165.569
 21
-40.9446
  0
LINE
  8
0
 10
165.569
 20
-40.9446
 11
165.692
 21
-40.8213
  0
LINE
  8
0
 10
165.692
 20
-40.8213
 11
165.792
 21
-40.6786
  0
LINE
  8
0
 10
165.792
 20
-40.6786
 11
165.866
 21
-40.5206
  0
LINE
  8
0
 10
165.866
 20
-40.5206
 11
165.911
 21
-40.3522
  0
LINE
  8
0
 10
165.911
 20
-40.3522
 11
165.926
 21
-40.1786
  0
LINE
  8
0
 10
165.926
 20
-40.1786
 11
166.866
 21
-20.0352
  0
LINE
  8
0
 10
166.866
 20
-20.0352
 11
174.04
 21
-16.6247
  0
LINE
  8
0
 10
174.04
 20
-16.6247
 11
174.751
 21
-26.7857
  0
LINE
  8
0
 10
174.751
 20
-26.7857
 11
174.767
 21
-26.9594
  0
LINE
  8
0
 10
174.767
 20
-26.9594
 11
174.812
 21
-27.1277
  0
LINE
  8
0
 10
174.812
 20
-27.1277
 11
174.885
 21
-27.2857
  0
LINE
  8
0
 10
174.885
 20
-27.2857
 11
174.985
 21
-27.4285
  0
LINE
  8
0
 10
174.985
 20
-27.4285
 11
175.109
 21
-27.5517
  0
LINE
  8
0
 10
175.109
 20
-27.5517
 11
175.251
 21
-27.6517
  0
LINE
  8
0
 10
175.251
 20
-27.6517
 11
175.409
 21
-27.7254
  0
LINE
  8
0
 10
175.409
 20
-27.7254
 11
175.578
 21
-27.7705
  0
LINE
  8
0
 10
175.578
 20
-27.7705
 11
175.751
 21
-27.7857
  0
LINE
  8
0
 10
175.751
 20
-27.7857
 11
175.925
 21
-27.7705
  0
LINE
  8
0
 10
175.925
 20
-27.7705
 11
176.093
 21
-27.7254
  0
LINE
  8
0
 10
176.093
 20
-27.7254
 11
176.251
 21
-27.6517
  0
LINE
  8
0
 10
176.251
 20
-27.6517
 11
176.394
 21
-27.5517
  0
LINE
  8
0
 10
176.394
 20
-27.5517
 11
176.517
 21
-27.4285
  0
LINE
  8
0
 10
176.517
 20
-27.4285
 11
176.617
 21
-27.2857
  0
LINE
  8
0
 10
176.617
 20
-27.2857
 11
176.691
 21
-27.1277
  0
LINE
  8
0
 10
176.691
 20
-27.1277
 11
176.736
 21
-26.9593
  0
LINE
  8
0
 10
176.736
 20
-26.9593
 11
176.751
 21
-26.7857
  0
LINE
  8
0
 10
176.751
 20
-26.7857
 11
177.58
 21
-14.9416
  0
LINE
  8
0
 10
177.58
 20
-14.9416
 11
185.27
 21
-11.2862
  0
LINE
  8
0
 10
185.27
 20
-11.2862
 11
185.592
 21
-13.5665
  0
LINE
  8
0
 10
185.592
 20
-13.5665
 11
185.637
 21
-13.7349
  0
LINE
  8
0
 10
185.637
 20
-13.7349
 11
185.711
 21
-13.8928
  0
LINE
  8
0
 10
185.711
 20
-13.8928
 11
185.811
 21
-14.0356
  0
LINE
  8
0
 10
185.811
 20
-14.0356
 11
185.934
 21
-14.1589
  0
LINE
  8
0
 10
185.934
 20
-14.1589
 11
186.077
 21
-14.2589
  0
LINE
  8
0
 10
186.077
 20
-14.2589
 11
186.235
 21
-14.3325
  0
LINE
  8
0
 10
186.235
 20
-14.3325
 11
186.403
 21
-14.3776
  0
LINE
  8
0
 10
186.403
 20
-14.3776
 11
186.577
 21
-14.3928
  0
LINE
  8
0
 10
186.577
 20
-14.3928
 11
186.75
 21
-14.3776
  0
LINE
  8
0
 10
186.75
 20
-14.3776
 11
186.919
 21
-14.3325
  0
LINE
  8
0
 10
186.919
 20
-14.3325
 11
187.077
 21
-14.2589
  0
LINE
  8
0
 10
187.077
 20
-14.2589
 11
187.219
 21
-14.1589
  0
LINE
  8
0
 10
187.219
 20
-14.1589
 11
187.343
 21
-14.0356
  0
LINE
  8
0
 10
187.343
 20
-14.0356
 11
187.443
 21
-13.8928
  0
LINE
  8
0
 10
187.443
 20
-13.8928
 11
187.516
 21
-13.7349
  0
LINE
  8
0
 10
187.516
 20
-13.7349
 11
187.561
 21
-13.5665
  0
LINE
  8
0
 10
187.561
 20
-13.5665
 11
188.072
 21
-9.95404
  0
LINE
  8
0
 10
188.072
 20
-9.95404
 11
193.01
 21
-7.60628
  0
LINE
  8
0
 10
193.01
 20
-7.60628
 11
193.447
 21
-13.0571
  0
LINE
  8
0
 10
193.447
 20
-13.0571
 11
190.573
 21
-15.3054
  0
LINE
  8
0
 10
190.573
 20
-15.3054
 11
190.45
 21
-15.4286
  0
LINE
  8
0
 10
190.45
 20
-15.4286
 11
190.35
 21
-15.5714
  0
LINE
  8
0
 10
190.35
 20
-15.5714
 11
190.276
 21
-15.7294
  0
LINE
  8
0
 10
190.276
 20
-15.7294
 11
190.231
 21
-15.8978
  0
LINE
  8
0
 10
190.231
 20
-15.8978
 11
190.216
 21
-16.0714
  0
LINE
  8
0
 10
190.216
 20
-16.0714
 11
190.231
 21
-16.2451
  0
LINE
  8
0
 10
190.231
 20
-16.2451
 11
190.276
 21
-16.4134
  0
LINE
  8
0
 10
190.276
 20
-16.4134
 11
190.35
 21
-16.5714
  0
LINE
  8
0
 10
190.35
 20
-16.5714
 11
190.45
 21
-16.7142
  0
LINE
  8
0
 10
190.45
 20
-16.7142
 11
190.573
 21
-16.8375
  0
LINE
  8
0
 10
190.573
 20
-16.8375
 11
190.716
 21
-16.9374
  0
LINE
  8
0
 10
190.716
 20
-16.9374
 11
190.874
 21
-17.0111
  0
LINE
  8
0
 10
190.874
 20
-17.0111
 11
191.042
 21
-17.0562
  0
LINE
  8
0
 10
191.042
 20
-17.0562
 11
191.216
 21
-17.0714
  0
LINE
  8
0
 10
191.216
 20
-17.0714
 11
191.39
 21
-17.0562
  0
LINE
  8
0
 10
191.39
 20
-17.0562
 11
191.558
 21
-17.0111
  0
LINE
  8
0
 10
191.558
 20
-17.0111
 11
193.694
 21
-16.15
  0
LINE
  8
0
 10
193.694
 20
-16.15
 11
194.373
 21
-24.6368
  0
LINE
  8
0
 10
194.373
 20
-24.6368
 11
184.53
 21
-31.2768
  0
LINE
  8
0
 10
184.53
 20
-31.2768
 11
184.387
 21
-31.3768
  0
LINE
  8
0
 10
184.387
 20
-31.3768
 11
184.264
 21
-31.5001
  0
LINE
  8
0
 10
184.264
 20
-31.5001
 11
184.164
 21
-31.6429
  0
LINE
  8
0
 10
184.164
 20
-31.6429
 11
184.09
 21
-31.8008
  0
LINE
  8
0
 10
184.09
 20
-31.8008
 11
184.045
 21
-31.9692
  0
LINE
  8
0
 10
184.045
 20
-31.9692
 11
184.03
 21
-32.1429
  0
LINE
  8
0
 10
184.03
 20
-32.1429
 11
184.045
 21
-32.3165
  0
LINE
  8
0
 10
184.045
 20
-32.3165
 11
184.09
 21
-32.4849
  0
LINE
  8
0
 10
184.09
 20
-32.4849
 11
184.164
 21
-32.6429
  0
LINE
  8
0
 10
184.164
 20
-32.6429
 11
184.264
 21
-32.7856
  0
LINE
  8
0
 10
184.264
 20
-32.7856
 11
184.387
 21
-32.9089
  0
LINE
  8
0
 10
184.387
 20
-32.9089
 11
184.53
 21
-33.0089
  0
LINE
  8
0
 10
184.53
 20
-33.0089
 11
184.688
 21
-33.0825
  0
LINE
  8
0
 10
184.688
 20
-33.0825
 11
184.857
 21
-33.1277
  0
LINE
  8
0
 10
184.857
 20
-33.1277
 11
185.03
 21
-33.1429
  0
LINE
  8
0
 10
185.03
 20
-33.1429
 11
185.204
 21
-33.1277
  0
LINE
  8
0
 10
185.204
 20
-33.1277
 11
185.372
 21
-33.0825
  0
LINE
  8
0
 10
185.372
 20
-33.0825
 11
185.53
 21
-33.0089
  0
LINE
  8
0
 10
185.53
 20
-33.0089
 11
194.686
 21
-28.5443
  0
LINE
  8
0
 10
194.686
 20
-28.5443
 11
195.319
 21
-36.4625
  0
LINE
  8
0
 10
195.319
 20
-36.4625
 11
178.344
 21
-47.3483
  0
LINE
  8
0
 10
178.344
 20
-47.3483
 11
178.201
 21
-47.4482
  0
LINE
  8
0
 10
178.201
 20
-47.4482
 11
178.078
 21
-47.5715
  0
LINE
  8
0
 10
178.078
 20
-47.5715
 11
177.978
 21
-47.7143
  0
LINE
  8
0
 10
177.978
 20
-47.7143
 11
177.905
 21
-47.8723
  0
LINE
  8
0
 10
177.905
 20
-47.8723
 11
177.859
 21
-48.0406
  0
LINE
  8
0
 10
177.859
 20
-48.0406
 11
177.844
 21
-48.2143
  0
LINE
  8
0
 10
177.844
 20
-48.2143
 11
177.859
 21
-48.3879
  0
LINE
  8
0
 10
177.859
 20
-48.3879
 11
177.905
 21
-48.5563
  0
LINE
  8
0
 10
177.905
 20
-48.5563
 11
177.978
 21
-48.7143
  0
LINE
  8
0
 10
177.978
 20
-48.7143
 11
178.078
 21
-48.8571
  0
LINE
  8
0
 10
178.078
 20
-48.8571
 11
178.201
 21
-48.9803
  0
LINE
  8
0
 10
178.201
 20
-48.9803
 11
178.344
 21
-49.0803
  0
LINE
  8
0
 10
178.344
 20
-49.0803
 11
178.502
 21
-49.154
  0
LINE
  8
0
 10
178.502
 20
-49.154
 11
178.671
 21
-49.1991
  0
LINE
  8
0
 10
178.671
 20
-49.1991
 11
178.844
 21
-49.2143
  0
LINE
  8
0
 10
178.844
 20
-49.2143
 11
179.018
 21
-49.1991
  0
LINE
  8
0
 10
179.018
 20
-49.1991
 11
179.186
 21
-49.154
  0
LINE
  8
0
 10
179.186
 20
-49.154
 11
179.344
 21
-49.0803
  0
LINE
  8
0
 10
179.344
 20
-49.0803
 11
195.654
 21
-40.652
  0
LINE
  8
0
 10
195.654
 20
-40.652
 11
196.402
 21
-50
  0
LINE
  8
0
 10
196.402
 20
-50
 11
196.417
 21
-50.1736
  0
LINE
  8
0
 10
196.417
 20
-50.1736
 11
196.462
 21
-50.342
  0
LINE
  8
0
 10
196.462
 20
-50.342
 11
196.536
 21
-50.5
  0
LINE
  8
0
 10
196.536
 20
-50.5
 11
196.636
 21
-50.6428
  0
LINE
  8
0
 10
196.636
 20
-50.6428
 11
196.759
 21
-50.766
  0
LINE
  8
0
 10
196.759
 20
-50.766
 11
196.902
 21
-50.866
  0
LINE
  8
0
 10
196.902
 20
-50.866
 11
197.06
 21
-50.9397
  0
LINE
  8
0
 10
197.06
 20
-50.9397
 11
197.228
 21
-50.9848
  0
LINE
  8
0
 10
197.228
 20
-50.9848
 11
197.402
 21
-51
  0
LINE
  8
0
 10
197.402
 20
-51
 11
197.402
 21
-16.6667
  0
LINE
  8
0
 10
197.402
 20
-16.6667
 11
202.598
 21
-16.6667
  0
LINE
  8
0
 10
202.598
 20
-16.6667
 11
202.598
 21
-51
  0
LINE
  8
0
 10
202.598
 20
-51
 11
202.772
 21
-50.9848
  0
LINE
  8
0
 10
2.7717
 20
-50.9848
 11
2.94006
 21
-50.9397
  0
LINE
  8
0
 10
2.94006
 20
-50.9397
 11
3.09804
 21
-50.866
  0
LINE
  8
0
 10
3.09804
 20
-50.866
 11
3.24083
 21
-50.766
  0
LINE
  8
0
 10
3.24083
 20
-50.766
 11
3.36409
 21
-50.6428
  0
LINE
  8
0
 10
3.36409
 20
-50.6428
 11
3.46407
 21
-50.5
  0
LINE
  8
0
 10
3.46407
 20
-50.5
 11
3.53773
 21
-50.342
  0
LINE
  8
0
 10
3.53773
 20
-50.342
 11
3.58286
 21
-50.1736
  0
LINE
  8
0
 10
3.58286
 20
-50.1736
 11
3.59805
 21
-50
  0
LINE
  8
0
 10
3.59805
 20
-50
 11
4.34589
 21
-40.652
  0
LINE
  8
0
 10
4.34589
 20
-40.652
 11
20.6557
 21
-49.0803
  0
LINE
  8
0
 10
20.6557
 20
-49.0803
 11
20.8137
 21
-49.154
  0
LINE
  8
0
 10
20.8137
 20
-49.154
 11
20.9821
 21
-49.1991
  0
LINE
  8
0
 10
20.9821
 20
-49.1991
 11
21.1557
 21
-49.2143
  0
LINE
  8
0
 10
21.1557
 20
-49.2143
 11
21.3294
 21
-49.1991
  0
LINE
  8
0
 10
21.3294
 20
-49.1991
 11
21.4978
 21
-49.154
  0
LINE
  8
0
 10
21.4978
 20
-49.154
 11
21.6557
 21
-49.0803
  0
LINE
  8
0
 10
21.6557
 20
-49.0803
 11
21.7985
 21
-48.9803
  0
LINE
  8
0
 10
21.7985
 20
-48.9803
 11
21.9218
 21
-48.8571
  0
LINE
  8
0
 10
21.9218
 20
-48.8571
 11
22.0218
 21
-48.7143
  0
LINE
  8
0
 10
22.0218
 20
-48.7143
 11
22.0954
 21
-48.5563
  0
LINE
  8
0
 10
22.0954
 20
-48.5563
 11
22.1405
 21
-48.3879
  0
LINE
  8
0
 10
22.1405
 20
-48.3879
 11
22.1557
 21
-48.2143
  0
LINE
  8
0
 10
22.1557
 20
-48.2143
 11
22.1405
 21
-48.0406
  0
LINE
  8
0
 10
22.1405
 20
-48.0406
 11
22.0954
 21
-47.8723
  0
LINE
  8
0
 10
22.0954
 20
-47.8723
 11
22.0218
 21
-47.7143
  0
LINE
  8
0
 10
22.0218
 20
-47.7143
 11
21.9218
 21
-47.5715
  0
LINE
  8
0
 10
21.9218
 20
-47.5715
 11
21.7985
 21
-47.4482
  0
LINE
  8
0
 10
21.7985
 20
-47.4482
 11
21.6557
 21
-47.3483
  0
LINE
  8
0
 10
21.6557
 20
-47.3483
 11
4.68106
 21
-36.4625
  0
LINE
  8
0
 10
4.68106
 20
-36.4625
 11
5.3145
 21
-28.5443
  0
LINE
  8
0
 10
5.3145
 20
-28.5443
 11
14.4698
 21
-33.0089
  0
LINE
  8
0
 10
14.4698
 20
-33.0089
 11
14.6278
 21
-33.0825
  0
LINE
  8
0
 10
14.6278
 20
-33.0825
 11
14.7962
 21
-33.1277
  0
LINE
  8
0
 10
14.7962
 20
-33.1277
 11
14.9698
 21
-33.1429
  0
LINE
  8
0
 10
14.9698
 20
-33.1429
 11
15.1435
 21
-33.1277
  0
LINE
  8
0
 10
15.1435
 20
-33.1277
 11
15.3119
 21
-33.0825
  0
LINE
  8
0
 10
15.3119
 20
-33.0825
 11
15.4698
 21
-33.0089
  0
LINE
  8
0
 10
15.4698
 20
-33.0089
 11
15.6126
 21
-32.9089
  0
LINE
  8
0
 10
15.6126
 20
-32.9089
 11
15.7359
 21
-32.7856
  0
LINE
  8
0
 10
15.7359
 20
-32.7856
 11
15.8359
 21
-32.6429
  0
LINE
  8
0
 10
15.8359
 20
-32.6429
 11
15.9095
 21
-32.4849
  0
LINE
  8
0
 10
15.9095
 20
-32.4849
 11
15.9547
 21
-32.3165
  0
LINE
  8
0
 10
15.9547
 20
-32.3165
 11
15.9698
 21
-32.1429
  0
LINE
  8
0
 10
15.9698
 20
-32.1429
 11
15.9547
 21
-31.9692
  0
LINE
  8
0
 10
15.9547
 20
-31.9692
 11
15.9095
 21
-31.8008
  0
LINE
  8
0
 10
15.9095
 20
-31.8008
 11
15.8359
 21
-31.6429
  0
LINE
  8
0
 10
15.8359
 20
-31.6429
 11
15.7359
 21
-31.5001
  0
LINE
  8
0
 10
15.7359
 20
-31.5001
 11
15.6126
 21
-31.3768
  0
LINE
  8
0
 10
15.6126
 20
-31.3768
 11
15.4698
 21
-31.2768
  0
LINE
  8
0
 10
15.4698
 20
-31.2768
 11
5.62711
 21
-24.6368
  0
LINE
  8
0
 10
5.62711
 20
-24.6368
 11
6.30605
 21
-16.15
  0
LINE
  8
0
 10
6.30605
 20
-16.15
 11
8.44193
 21
-17.0111
  0
LINE
  8
0
 10
8.44193
 20
-17.0111
 11
8.61029
 21
-17.0562
  0
LINE
  8
0
 10
8.61029
 20
-17.0562
 11
8.78394
 21
-17.0714
  0
LINE
  8
0
 10
8.78394
 20
-17.0714
 11
8.9576
 21
-17.0562
  0
LINE
  8
0
 10
8.9576
 20
-17.0562
 11
9.12596
 21
-17.0111
  0
LINE
  8
0
 10
9.12596
 20
-17.0111
 11
9.28394
 21
-16.9374
  0
LINE
  8
0
 10
9.28394
 20
-16.9374
 11
9.42673
 21
-16.8375
  0
LINE
  8
0
 10
9.42673
 20
-16.8375
 11
9.54999
 21
-16.7142
  0
LINE
  8
0
 10
9.54999
 20
-16.7142
 11
9.64996
 21
-16.5714
  0
LINE
  8
0
 10
9.64996
 20
-16.5714
 11
9.72363
 21
-16.4134
  0
LINE
  8
0
 10
9.72363
 20
-16.4134
 11
9.76875
 21
-16.2451
  0
LINE
  8
0
 10
9.76875
 20
-16.2451
 11
9.78394
 21
-16.0714
  0
LINE
  8
0
 10
9.78394
 20
-16.0714
 11
9.76875
 21
-15.8978
  0
LINE
  8
0
 10
9.76875
 20
-15.8978
 11
9.72363
 21
-15.7294
  0
LINE
  8
0
 10
9.72363
 20
-15.7294
 11
9.64996
 21
-15.5714
  0
LINE
  8
0
 10
9.64996
 20
-15.5714
 11
9.54999
 21
-15.4286
  0
LINE
  8
0
 10
9.54999
 20
-15.4286
 11
9.42673
 21
-15.3054
  0
LINE
  8
0
 10
9.42673
 20
-15.3054
 11
6.55348
 21
-13.0571
  0
LINE
  8
0
 10
6.55348
 20
-13.0571
 11
6.98955
 21
-7.60628
  0
LINE
  8
0
 10
6.98955
 20
-7.60628
 11
11.9281
 21
-9.95404
  0
LINE
  8
0
 10
11.9281
 20
-9.95404
 11
12.4386
 21
-13.5665
  0
LINE
  8
0
 10
12.4386
 20
-13.5665
 11
12.4837
 21
-13.7349
  0
LINE
  8
0
 10
12.4837
 20
-13.7349
 11
12.5574
 21
-13.8928
  0
LINE
  8
0
 10
12.5574
 20
-13.8928
 11
12.6573
 21
-14.0356
  0
LINE
  8
0
 10
12.6573
 20
-14.0356
 11
12.7806
 21
-14.1589
  0
LINE
  8
0
 10
12.7806
 20
-14.1589
 11
12.9234
 21
-14.2589
  0
LINE
  8
0
 10
12.9234
 20
-14.2589
 11
13.0814
 21
-14.3325
  0
LINE
  8
0
 10
13.0814
 20
-14.3325
 11
13.2497
 21
-14.3776
  0
LINE
  8
0
 10
13.2497
 20
-14.3776
 11
13.4234
 21
-14.3928
  0
LINE
  8
0
 10
13.4234
 20
-14.3928
 11
13.597
 21
-14.3776
  0
LINE
  8
0
 10
13.597
 20
-14.3776
 11
13.7654
 21
-14.3325
  0
LINE
  8
0
 10
13.7654
 20
-14.3325
 11
13.9234
 21
-14.2589
  0
LINE
  8
0
 10
13.9234
 20
-14.2589
 11
14.0662
 21
-14.1589
  0
LINE
  8
0
 10
14.0662
 20
-14.1589
 11
14.1894
 21
-14.0356
  0
LINE
  8
0
 10
14.1894
 20
-14.0356
 11
14.2894
 21
-13.8928
  0
LINE
  8
0
 10
14.2894
 20
-13.8928
 11
14.3631
 21
-13.7349
  0
LINE
  8
0
 10
14.3631
 20
-13.7349
 11
14.4082
 21
-13.5665
  0
LINE
  8
0
 10
14.4082
 20
-13.5665
 11
14.7304
 21
-11.2862
  0
LINE
  8
0
 10
14.7304
 20
-11.2862
 11
22.4196
 21
-14.9416
  0
LINE
  8
0
 10
22.4196
 20
-14.9416
 11
23.2487
 21
-26.7857
  0
LINE
  8
0
 10
23.2487
 20
-26.7857
 11
23.2639
 21
-26.9593
  0
LINE
  8
0
 10
23.2639
 20
-26.9593
 11
23.309
 21
-27.1277
  0
LINE
  8
0
 10
23.309
 20
-27.1277
 11
23.3827
 21
-27.2857
  0
LINE
  8
0
 10
23.3827
 20
-27.2857
 11
23.4827
 21
-27.4285
  0
LINE
  8
0
 10
23.4827
 20
-27.4285
 11
23.6059
 21
-27.5517
  0
LINE
  8
0
 10
23.6059
 20
-27.5517
 11
23.7487
 21
-27.6517
  0
LINE
  8
0
 10
23.7487
 20
-27.6517
 11
23.9067
 21
-27.7254
  0
LINE
  8
0
 10
23.9067
 20
-27.7254
 11
24.075
 21
-27.7705
  0
LINE
  8
0
 10
24.075
 20
-27.7705
 11
24.2487
 21
-27.7857
  0
LINE
  8
0
 10
24.2487
 20
-27.7857
 11
24.4223
 21
-27.7705
  0
LINE
  8
0
 10
24.4223
 20
-27.7705
 11
24.5907
 21
-27.7254
  0
LINE
  8
0
 10
24.5907
 20
-27.7254
 11
24.7487
 21
-27.6517
  0
LINE
  8
0
 10
24.7487
 20
-27.6517
 11
24.8915
 21
-27.5517
  0
LINE
  8
0
 10
24.8915
 20
-27.5517
 11
25.0147
 21
-27.4285
  0
LINE
  8
0
 10
25.0147
 20
-27.4285
 11
25.1147
 21
-27.2857
  0
LINE
  8
0
 10
25.1147
 20
-27.2857
 11
25.1884
 21
-27.1277
  0
LINE
  8
0
 10
25.1884
 20
-27.1277
 11
25.2335
 21
-26.9594
  0
LINE
  8
0
 10
25.2335
 20
-26.9594
 11
25.2487
 21
-26.7857
  0
LINE
  8
0
 10
25.2487
 20
-26.7857
 11
25.96
 21
-16.6247
  0
LINE
  8
0
 10
25.96
 20
-16.6247
 11
33.134
 21
-20.0352
  0
LINE
  8
0
 10
33.134
 20
-20.0352
 11
34.074
 21
-40.1786
  0
LINE
  8
0
 10
34.074
 20
-40.1786
 11
34.0892
 21
-40.3522
  0
LINE
  8
0
 10
34.0892
 20
-40.3522
 11
34.1343
 21
-40.5206
  0
LINE
  8
0
 10
34.1343
 20
-40.5206
 11
34.208
 21
-40.6786
  0
LINE
  8
0
 10
34.208
 20
-40.6786
 11
34.308
 21
-40.8213
  0
LINE
  8
0
 10
34.308
 20
-40.8213
 11
34.4312
 21
-40.9446
  0
LINE
  8
0
 10
34.4312
 20
-40.9446
 11
34.574
 21
-41.0446
  0
LINE
  8
0
 10
34.574
 20
-41.0446
 11
34.732
 21
-41.1182
  0
LINE
  8
0
 10
34.732
 20
-41.1182
 11
34.9004
 21
-41.1634
  0
LINE
  8
0
 10
34.9004
 20
-41.1634
 11
35.074
 21
-41.1786
  0
LINE
  8
0
 10
35.074
 20
-41.1786
 11
35.2477
 21
-41.1634
  0
LINE
  8
0
 10
35.2477
 20
-41.1634
 11
35.416
 21
-41.1182
  0
LINE
  8
0
 10
35.416
 20
-41.1182
 11
35.574
 21
-41.0446
  0
LINE
  8
0
 10
35.574
 20
-41.0446
 11
35.7168
 21
-40.9446
  0
LINE
  8
0
 10
35.7168
 20
-40.9446
 11
35.8401
 21
-40.8213
  0
LINE
  8
0
 10
35.8401
 20
-40.8213
 11
35.94
 21
-40.6786
  0
LINE
  8
0
 10
35.94
 20
-40.6786
 11
36.0137
 21
-40.5206
  0
LINE
  8
0
 10
36.0137
 20
-40.5206
 11
36.0588
 21
-40.3522
  0
LINE
  8
0
 10
36.0588
 20
-40.3522
 11
36.074
 21
-40.1786
  0
LINE
  8
0
 10
36.074
 20
-40.1786
 11
36.9298
 21
-21.8397
  0
LINE
  8
0
 10
36.9298
 20
-21.8397
 11
45.3993
 21
-25.866
  0
LINE
  8
0
 10
45.3993
 20
-25.866
 11
45.5573
 21
-25.9397
  0
LINE
  8
0
 10
45.5573
 20
-25.9397
 11
45.7257
 21
-25.9848
  0
LINE
  8
0
 10
45.7257
 20
-25.9848
 11
45.8993
 21
-26
  0
LINE
  8
0
 10
45.8993
 20
-26
 11
46.073
 21
-25.9848
  0
LINE
  8
0
 10
46.073
 20
-25.9848
 11
46.2413
 21
-25.9397
  0
LINE
  8
0
 10
46.2413
 20
-25.9397
 11
46.3993
 21
-25.866
  0
LINE
  8
0
 10
46.3993
 20
-25.866
 11
46.5421
 21
-25.766
  0
LINE
  8
0
 10
46.5421
 20
-25.766
 11
46.6654
 21
-25.6428
  0
LINE
  8
0
 10
46.6654
 20
-25.6428
 11
46.7654
 21
-25.5
  0
LINE
  8
0
 10
46.7654
 20
-25.5
 11
46.839
 21
-25.342
  0
LINE
  8
0
 10
46.839
 20
-25.342
 11
46.8841
 21
-25.1736
  0
LINE
  8
0
 10
46.8841
 20
-25.1736
 11
46.8993
 21
-25
  0
LINE
  8
0
 10
46.8993
 20
-25
 11
46.8841
 21
-24.8264
  0
LINE
  8
0
 10
46.8841
 20
-24.8264
 11
46.839
 21
-24.658
  0
LINE
  8
0
 10
46.839
 20
-24.658
 11
46.7654
 21
-24.5
  0
LINE
  8
0
 10
46.7654
 20
-24.5
 11
46.6654
 21
-24.3572
  0
LINE
  8
0
 10
46.6654
 20
-24.3572
 11
46.5421
 21
-24.2339
  0
LINE
  8
0
 10
46.5421
 20
-24.2339
 11
46.3993
 21
-24.134
  0
LINE
  8
0
 10
46.3993
 20
-24.134
 11
38.6776
 21
-18.8123
  0
LINE
  8
0
 10
38.6776
 20
-18.8123
 11
54.1317
 21
-8.90173
  0
LINE
  8
0
 10
54.1317
 20
-8.90173
 11
54.2745
 21
-8.80176
  0
LINE
  8
0
 10
54.2745
 20
-8.80176
 11
54.3977
 21
-8.6785
  0
LINE
  8
0
 10
54.3977
 20
-8.6785
 11
54.4977
 21
-8.53571
  0
LINE
  8
0
 10
54.4977
 20
-8.53571
 11
54.5714
 21
-8.37773
  0
LINE
  8
0
 10
54.5714
 20
-8.37773
 11
54.6165
 21
-8.20935
  0
LINE
  8
0
 10
54.6165
 20
-8.20935
 11
54.6317
 21
-8.03571
  0
LINE
  8
0
 10
54.6317
 20
-8.03571
 11
54.6165
 21
-7.86206
  0
LINE
  8
0
 10
54.6165
 20
-7.86206
 11
54.5714
 21
-7.69368
  0
LINE
  8
0
 10
54.5714
 20
-7.69368
 11
54.4977
 21
-7.53571
  0
LINE
  8
0
 10
54.4977
 20
-7.53571
 11
54.3977
 21
-7.39293
  0
LINE
  8
0
 10
54.3977
 20
-7.39293
 11
54.2745
 21
-7.26967
  0
LINE
  8
0
 10
54.2745
 20
-7.26967
 11
54.1317
 21
-7.16969
  0
LINE
  8
0
 10
54.1317
 20
-7.16969
 11
53.9737
 21
-7.09602
  0
LINE
  8
0
 10
53.9737
 20
-7.09602
 11
53.8053
 21
-7.0509
  0
LINE
  8
0
 10
53.8053
 20
-7.0509
 11
53.6317
 21
-7.03571
  0
LINE
  8
0
 10
53.6317
 20
-7.03571
 11
53.458
 21
-7.05089
  0
LINE
  8
0
 10
53.458
 20
-7.05089
 11
53.2897
 21
-7.09601
  0
LINE
  8
0
 10
53.2897
 20
-7.09601
 11
53.1317
 21
-7.16968
  0
LINE
  8
0
 10
53.1317
 20
-7.16968
 11
35.217
 21
-16.4273
  0
LINE
  8
0
 10
35.217
 20
-16.4273
 11
28.6764
 21
-11.9196
  0
LINE
  8
0
 10
28.6764
 20
-11.9196
 11
37.1205
 21
-6.22318
  0
LINE
  8
0
 10
37.1205
 20
-6.22318
 11
37.2633
 21
-6.12317
  0
LINE
  8
0
 10
37.2633
 20
-6.12317
 11
37.3865
 21
-5.99992
  0
LINE
  8
0
 10
37.3865
 20
-5.99992
 11
37.4865
 21
-5.85715
  0
LINE
  8
0
 10
37.4865
 20
-5.85715
 11
37.5602
 21
-5.69916
  0
LINE
  8
0
 10
37.5602
 20
-5.69916
 11
37.6053
 21
-5.53078
  0
LINE
  8
0
 10
37.6053
 20
-5.53078
 11
37.6205
 21
-5.35715
  0
LINE
  8
0
 10
37.6205
 20
-5.35715
 11
37.6053
 21
-5.18349
  0
LINE
  8
0
 10
37.6053
 20
-5.18349
 11
37.5602
 21
-5.01512
  0
LINE
  8
0
 10
37.5602
 20
-5.01512
 11
37.4865
 21
-4.85715
  0
LINE
  8
0
 10
37.4865
 20
-4.85715
 11
37.3865
 21
-4.71434
  0
LINE
  8
0
 10
37.3865
 20
-4.71434
 11
37.2633
 21
-4.59109
  0
LINE
  8
0
 10
37.2633
 20
-4.59109
 11
37.1205
 21
-4.49112
  0
LINE
  8
0
 10
37.1205
 20
-4.49112
 11
36.9625
 21
-4.41745
  0
LINE
  8
0
 10
36.9625
 20
-4.41745
 11
36.7941
 21
-4.37233
  0
LINE
  8
0
 10
36.7941
 20
-4.37233
 11
36.6205
 21
-4.35715
  0
LINE
  8
0
 10
36.6205
 20
-4.35715
 11
36.4468
 21
-4.37233
  0
LINE
  8
0
 10
36.4468
 20
-4.37233
 11
36.2785
 21
-4.41745
  0
LINE
  8
0
 10
36.2785
 20
-4.41745
 11
36.1205
 21
-4.49112
  0
LINE
  8
0
 10
36.1205
 20
-4.49112
 11
25.4487
 21
-9.69516
  0
LINE
  8
0
 10
25.4487
 20
-9.69516
 11
18.4384
 21
-4.86378
  0
LINE
  8
0
 10
18.4384
 20
-4.86378
 11
20.252
 21
-3.44461
  0
LINE
  8
0
 10
20.252
 20
-3.44461
 11
20.3753
 21
-3.32135
  0
LINE
  8
0
 10
20.3753
 20
-3.32135
 11
20.4753
 21
-3.17857
  0
LINE
  8
0
 10
20.4753
 20
-3.17857
 11
20.549
 21
-3.02058
  0
LINE
  8
0
 10
20.549
 20
-3.02058
 11
20.5941
 21
-2.85222
  0
LINE
  8
0
 10
20.5941
 20
-2.85222
 11
20.6093
 21
-2.67857
  0
LINE
  8
0
 10
20.6093
 20
-2.67857
 11
20.5941
 21
-2.50491
  0
LINE
  8
0
 10
20.5941
 20
-2.50491
 11
20.549
 21
-2.33655
  0
LINE
  8
0
 10
20.549
 20
-2.33655
 11
20.4753
 21
-2.17857
  0
LINE
  8
0
 10
20.4753
 20
-2.17857
 11
20.3753
 21
-2.03578
  0
LINE
  8
0
 10
20.3753
 20
-2.03578
 11
20.2521
 21
-1.91252
  0
LINE
  8
0
 10
20.2521
 20
-1.91252
 11
20.1093
 21
-1.81255
  0
LINE
  8
0
 10
20.1093
 20
-1.81255
 11
19.9513
 21
-1.73886
  0
LINE
  8
0
 10
19.9513
 20
-1.73886
 11
19.7829
 21
-1.69376
  0
LINE
  8
0
 10
19.7829
 20
-1.69376
 11
19.6093
 21
-1.67857
  0
LINE
  8
0
 10
19.6093
 20
-1.67857
 11
19.4356
 21
-1.69376
  0
LINE
  8
0
 10
19.4356
 20
-1.69376
 11
19.2672
 21
-1.73888
  0
LINE
  8
0
 10
19.2672
 20
-1.73888
 11
15.8835
 21
-3.10303
  0
LINE
  8
0
 10
15.8835
 20
-3.10303
 11
11.3811
 21
0
  0
LINE
  8
0
 10
11.3811
 20
0
 11
15.8835
 21
3.10303
  0
LINE
  8
0
 10
15.8835
 20
3.10303
 11
19.2672
 21
1.73888
  0
LINE
  8
0
 10
19.2672
 20
1.73888
 11
19.4356
 21
1.69376
  0
LINE
  8
0
 10
19.4356
 20
1.69376
 11
19.6093
 21
1.67857
  0
LINE
  8
0
 10
19.6093
 20
1.67857
 11
19.7829
 21
1.69376
  0
LINE
  8
0
 10
19.7829
 20
1.69376
 11
19.9513
 21
1.73886
  0
LINE
  8
0
 10
19.9513
 20
1.73886
 11
20.1093
 21
1.81255
  0
LINE
  8
0
 10
20.1093
 20
1.81255
 11
20.2521
 21
1.91252
  0
LINE
  8
0
 10
20.2521
 20
1.91252
 11
20.3753
 21
2.03578
  0
LINE
  8
0
 10
20.3753
 20
2.03578
 11
20.4753
 21
2.17857
  0
LINE
  8
0
 10
20.4753
 20
2.17857
 11
20.549
 21
2.33655
  0
LINE
  8
0
 10
20.549
 20
2.33655
 11
20.5941
 21
2.50491
  0
LINE
  8
0
 10
20.5941
 20
2.50491
 11
20.6093
 21
2.67857
  0
LINE
  8
0
 10
20.6093
 20
2.67857
 11
20.5941
 21
2.85222
  0
LINE
  8
0
 10
20.5941
 20
2.85222
 11
20.549
 21
3.02058
  0
LINE
  8
0
 10
20.549
 20
3.02058
 11
20.4753
 21
3.17857
  0
LINE
  8
0
 10
20.4753
 20
3.17857
 11
20.3753
 21
3.32135
  0
LINE
  8
0
 10
20.3753
 20
3.32135
 11
20.252
 21
3.44461
  0
LINE
  8
0
 10
20.252
 20
3.44461
 11
18.4384
 21
4.86378
  0
LINE
  8
0
 10
18.4384
 20
4.86378
 11
25.4487
 21
9.69516
  0
LINE
  8
0
 10
25.4487
 20
9.69516
 11
36.1205
 21
4.49112
  0
LINE
  8
0
 10
36.1205
 20
4.49112
 11
36.2785
 21
4.41745
  0
LINE
  8
0
 10
36.2785
 20
4.41745
 11
36.4468
 21
4.37233
  0
LINE
  8
0
 10
36.4468
 20
4.37233
 11
36.6205
 21
4.35715
  0
LINE
  8
0
 10
36.6205
 20
4.35715
 11
36.7941
 21
4.37233
  0
LINE
  8
0
 10
36.7941
 20
4.37233
 11
36.9625
 21
4.41745
  0
LINE
  8
0
 10
36.9625
 20
4.41745
 11
37.1205
 21
4.49112
  0
LINE
  8
0
 10
37.1205
 20
4.49112
 11
37.2633
 21
4.59109
  0
LINE
  8
0
 10
37.2633
 20
4.59109
 11
37.3865
 21
4.71434
  0
LINE
  8
0
 10
37.3865
 20
4.71434
 11
37.4865
 21
4.85715
  0
LINE
  8
0
 10
37.4865
 20
4.85715
 11
37.5602
 21
5.01512
  0
LINE
  8
0
 10
37.5602
 20
5.01512
 11
37.6053
 21
5.18349
  0
LINE
  8
0
 10
37.6053
 20
5.18349
 11
37.6205
 21
5.35715
  0
LINE
  8
0
 10
37.6205
 20
5.35715
 11
37.6053
 21
5.53078
  0
LINE
  8
0
 10
37.6053
 20
5.53078
 11
37.5602
 21
5.69916
  0
LINE
  8
0
 10
37.5602
 20
5.69916
 11
37.4865
 21
5.85715
  0
LINE
  8
0
 10
37.4865
 20
5.85715
 11
37.3865
 21
5.99992
  0
LINE
  8
0
 10
37.3865
 20
5.99992
 11
37.2633
 21
6.12317
  0
LINE
  8
0
 10
37.2633
 20
6.12317
 11
37.1205
 21
6.22318
  0
LINE
  8
0
 10
37.1205
 20
6.22318
 11
28.6764
 21
11.9196
  0
LINE
  8
0
 10
28.6764
 20
11.9196
 11
35.217
 21
16.4273
  0
LINE
  8
0
 10
35.217
 20
16.4273
 11
53.1317
 21
7.16968
  0
LINE
  8
0
 10
53.1317
 20
7.16968
 11
53.2897
 21
7.09601
  0
LINE
  8
0
 10
53.2897
 20
7.09601
 11
53.458
 21
7.05089
  0
LINE
  8
0
 10
53.458
 20
7.05089
 11
53.6317
 21
7.03571
  0
LINE
  8
0
 10
53.6317
 20
7.03571
 11
53.8053
 21
7.0509
  0
LINE
  8
0
 10
53.8053
 20
7.0509
 11
53.9737
 21
7.09602
  0
LINE
  8
0
 10
53.9737
 20
7.09602
 11
54.1317
 21
7.16969
  0
LINE
  8
0
 10
54.1317
 20
7.16969
 11
54.2745
 21
7.26967
  0
LINE
  8
0
 10
54.2745
 20
7.26967
 11
54.3977
 21
7.39293
  0
LINE
  8
0
 10
54.3977
 20
7.39293
 11
54.4977
 21
7.53571
  0
LINE
  8
0
 10
54.4977
 20
7.53571
 11
54.5714
 21
7.69368
  0
LINE
  8
0
 10
54.5714
 20
7.69368
 11
54.6165
 21
7.86206
  0
LINE
  8
0
 10
54.6165
 20
7.86206
 11
54.6317
 21
8.03571
  0
LINE
  8
0
 10
54.6317
 20
8.03571
 11
54.6165
 21
8.20935
  0
LINE
  8
0
 10
54.6165
 20
8.20935
 11
54.5714
 21
8.37773
  0
LINE
  8
0
 10
54.5714
 20
8.37773
 11
54.4977
 21
8.53571
  0
LINE
  8
0
 10
54.4977
 20
8.53571
 11
54.3977
 21
8.6785
  0
LINE
  8
0
 10
54.3977
 20
8.6785
 11
54.2745
 21
8.80176
  0
LINE
  8
0
 10
54.2745
 20
8.80176
 11
54.1317
 21
8.90173
  0
LINE
  8
0
 10
54.1317
 20
8.90173
 11
38.6776
 21
18.8123
  0
LINE
  8
0
 10
38.6776
 20
18.8123
 11
46.3993
 21
24.134
  0
LINE
  8
0
 10
46.3993
 20
24.134
 11
46.5421
 21
24.2339
  0
LINE
  8
0
 10
46.5421
 20
24.2339
 11
46.6654
 21
24.3572
  0
LINE
  8
0
 10
46.6654
 20
24.3572
 11
46.7654
 21
24.5
  0
LINE
  8
0
 10
46.7654
 20
24.5
 11
46.839
 21
24.658
  0
LINE
  8
0
 10
46.839
 20
24.658
 11
46.8841
 21
24.8264
  0
LINE
  8
0
 10
46.8841
 20
24.8264
 11
46.8993
 21
25
  0
LINE
  8
0
 10
46.8993
 20
25
 11
46.8841
 21
25.1736
  0
LINE
  8
0
 10
46.8841
 20
25.1736
 11
46.839
 21
25.342
  0
LINE
  8
0
 10
46.839
 20
25.342
 11
46.7654
 21
25.5
  0
LINE
  8
0
 10
46.7654
 20
25.5
 11
46.6654
 21
25.6428
  0
LINE
  8
0
 10
46.6654
 20
25.6428
 11
46.5421
 21
25.766
  0
LINE
  8
0
 10
46.5421
 20
25.766
 11
46.3993
 21
25.866
  0
LINE
  8
0
 10
46.3993
 20
25.866
 11
46.2413
 21
25.9397
  0
LINE
  8
0
 10
46.2413
 20
25.9397
 11
46.073
 21
25.9848
  0
LINE
  8
0
 10
46.073
 20
25.9848
 11
45.8993
 21
26
  0
LINE
  8
0
 10
45.8993
 20
26
 11
45.7257
 21
25.9848
  0
LINE
  8
0
 10
45.7257
 20
25.9848
 11
45.5573
 21
25.9397
  0
LINE
  8
0
 10
45.5573
 20
25.9397
 11
45.3993
 21
25.866
  0
LINE
  8
0
 10
45.3993
 20
25.866
 11
36.9298
 21
21.8397
  0
LINE
  8
0
 10
36.9298
 20
21.8397
 11
36.074
 21
40.1786
  0
LINE
  8
0
 10
36.074
 20
40.1786
 11
36.0588
 21
40.3522
  0
LINE
  8
0
 10
36.0588
 20
40.3522
 11
36.0137
 21
40.5206
  0
LINE
  8
0
 10
36.0137
 20
40.5206
 11
35.94
 21
40.6786
  0
LINE
  8
0
 10
35.94
 20
40.6786
 11
35.8401
 21
40.8213
  0
LINE
  8
0
 10
35.8401
 20
40.8213
 11
35.7168
 21
40.9446
  0
LINE
  8
0
 10
35.7168
 20
40.9446
 11
35.574
 21
41.0446
  0
LINE
  8
0
 10
35.574
 20
41.0446
 11
35.416
 21
41.1182
  0
LINE
  8
0
 10
35.416
 20
41.1182
 11
35.2477
 21
41.1634
  0
LINE
  8
0
 10
35.2477
 20
41.1634
 11
35.074
 21
41.1786
  0
LINE
  8
0
 10
35.074
 20
41.1786
 11
34.9004
 21
41.1634
  0
LINE
  8
0
 10
34.9004
 20
41.1634
 11
34.732
 21
41.1182
  0
LINE
  8
0
 10
34.732
 20
41.1182
 11
34.574
 21
41.0446
  0
LINE
  8
0
 10
34.574
 20
41.0446
 11
34.4312
 21
40.9446
  0
LINE
  8
0
 10
34.4312
 20
40.9446
 11
34.308
 21
40.8213
  0
LINE
  8
0
 10
34.308
 20
40.8213
 11
34.208
 21
40.6786
  0
LINE
  8
0
 10
34.208
 20
40.6786
 11
34.1343
 21
40.5206
  0
LINE
  8
0
 10
34.1343
 20
40.5206
 11
34.0892
 21
40.3522
  0
LINE
  8
0
 10
34.0892
 20
40.3522
 11
34.074
 21
40.1786
  0
LINE
  8
0
 10
34.074
 20
40.1786
 11
33.134
 21
20.0352
  0
LINE
  8
0
 10
33.134
 20
20.0352
 11
25.96
 21
16.6247
  0
LINE
  8
0
 10
25.96
 20
16.6247
 11
25.2487
 21
26.7857
  0
LINE
  8
0
 10
25.2487
 20
26.7857
 11
25.2335
 21
26.9594
  0
LINE
  8
0
 10
25.2335
 20
26.9594
 11
25.1884
 21
27.1277
  0
LINE
  8
0
 10
25.1884
 20
27.1277
 11
25.1147
 21
27.2857
  0
LINE
  8
0
 10
25.1147
 20
27.2857
 11
25.0147
 21
27.4285
  0
LINE
  8
0
 10
25.0147
 20
27.4285
 11
24.8915
 21
27.5517
  0
LINE
  8
0
 10
24.8915
 20
27.5517
 11
24.7487
 21
27.6517
  0
LINE
  8
0
 10
24.7487
 20
27.6517
 11
24.5907
 21
27.7254
  0
LINE
  8
0
 10
24.5907
 20
27.7254
 11
24.4223
 21
27.7705
  0
LINE
  8
0
 10
24.4223
 20
27.7705
 11
24.2487
 21
27.7857
  0
LINE
  8
0
 10
24.2487
 20
27.7857
 11
24.075
 21
27.7705
  0
LINE
  8
0
 10
24.075
 20
27.7705
 11
23.9067
 21
27.7254
  0
LINE
  8
0
 10
23.9067
 20
27.7254
 11
23.7487
 21
27.6517
  0
LINE
  8
0
 10
23.7487
 20
27.6517
 11
23.6059
 21
27.5517
  0
LINE
  8
0
 10
23.6059
 20
27.5517
 11
23.4827
 21
27.4285
  0
LINE
  8
0
 10
23.4827
 20
27.4285
 11
23.3827
 21
27.2857
  0
LINE
  8
0
 10
23.3827
 20
27.2857
 11
23.309
 21
27.1277
  0
LINE
  8
0
 10
23.309
 20
27.1277
 11
23.2639
 21
26.9593
  0
LINE
  8
0
 10
23.2639
 20
26.9593
 11
23.2487
 21
26.7857
  0
LINE
  8
0
 10
23.2487
 20
26.7857
 11
22.4196
 21
14.9416
  0
LINE
  8
0
 10
22.4196
 20
14.9416
 11
14.7304
 21
11.2862
  0
LINE
  8
0
 10
14.7304
 20
11.2862
 11
14.4082
 21
13.5665
  0
LINE
  8
0
 10
14.4082
 20
13.5665
 11
14.3631
 21
13.7349
  0
LINE
  8
0
 10
14.3631
 20
13.7349
 11
14.2894
 21
13.8928
  0
LINE
  8
0
 10
14.2894
 20
13.8928
 11
14.1894
 21
14.0356
  0
LINE
  8
0
 10
14.1894
 20
14.0356
 11
14.0662
 21
14.1589
  0
LINE
  8
0
 10
14.0662
 20
14.1589
 11
13.9234
 21
14.2589
  0
LINE
  8
0
 10
13.9234
 20
14.2589
 11
13.7654
 21
14.3325
  0
LINE
  8
0
 10
13.7654
 20
14.3325
 11
13.597
 21
14.3776
  0
LINE
  8
0
 10
13.597
 20
14.3776
 11
13.4234
 21
14.3928
  0
LINE
  8
0
 10
13.4234
 20
14.3928
 11
13.2497
 21
14.3776
  0
LINE
  8
0
 10
13.2497
 20
14.3776
 11
13.0814
 21
14.3325
  0
LINE
  8
0
 10
13.0814
 20
14.3325
 11
12.9234
 21
14.2589
  0
LINE
  8
0
 10
12.9234
 20
14.2589
 11
12.7806
 21
14.1589
  0
LINE
  8
0
 10
12.7806
 20
14.1589
 11
12.6573
 21
14.0356
  0
LINE
  8
0
 10
12.6573
 20
14.0356
 11
12.5574
 21
13.8928
  0
LINE
  8
0
 10
12.5574
 20
13.8928
 11
12.4837
 21
13.7349
  0
LINE
  8
0
 10
12.4837
 20
13.7349
 11
12.4386
 21
13.5665
  0
LINE
  8
0
 10
12.4386
 20
13.5665
 11
11.9281
 21
9.95404
  0
LINE
  8
0
 10
11.9281
 20
9.95404
 11
6.98956
 21
7.60629
  0
LINE
  8
0
 10
6.98956
 20
7.60629
 11
6.5535
 21
13.0571
  0
LINE
  8
0
 10
6.5535
 20
13.0571
 11
9.42674
 21
15.3054
  0
LINE
  8
0
 10
9.42674
 20
15.3054
 11
9.55
 21
15.4286
  0
LINE
  8
0
 10
9.55
 20
15.4286
 11
9.64998
 21
15.5714
  0
LINE
  8
0
 10
9.64998
 20
15.5714
 11
9.72365
 21
15.7294
  0
LINE
  8
0
 10
9.72365
 20
15.7294
 11
9.76877
 21
15.8978
  0
LINE
  8
0
 10
9.76877
 20
15.8978
 11
9.78395
 21
16.0714
  0
LINE
  8
0
 10
9.78395
 20
16.0714
 11
9.76877
 21
16.2451
  0
LINE
  8
0
 10
9.76877
 20
16.2451
 11
9.72365
 21
16.4134
  0
LINE
  8
0
 10
9.72365
 20
16.4134
 11
9.64998
 21
16.5714
  0
LINE
  8
0
 10
9.64998
 20
16.5714
 11
9.55
 21
16.7142
  0
LINE
  8
0
 10
9.55
 20
16.7142
 11
9.42674
 21
16.8375
  0
LINE
  8
0
 10
9.42674
 20
16.8375
 11
9.28395
 21
16.9374
  0
LINE
  8
0
 10
9.28395
 20
16.9374
 11
9.12598
 21
17.0111
  0
LINE
  8
0
 10
9.12598
 20
17.0111
 11
8.95761
 21
17.0562
  0
LINE
  8
0
 10
8.95761
 20
17.0562
 11
8.78395
 21
17.0714
  0
LINE
  8
0
 10
8.78395
 20
17.0714
 11
8.61031
 21
17.0562
  0
LINE
  8
0
 10
8.61031
 20
17.0562
 11
8.44194
 21
17.0111
  0
LINE
  8
0
 10
8.44194
 20
17.0111
 11
6.30606
 21
16.15
  0
LINE
  8
0
 10
6.30606
 20
16.15
 11
5.62712
 21
24.6368
  0
LINE
  8
0
 10
5.62712
 20
24.6368
 11
15.4698
 21
31.2768
  0
LINE
  8
0
 10
15.4698
 20
31.2768
 11
15.6126
 21
31.3768
  0
LINE
  8
0
 10
15.6126
 20
31.3768
 11
15.7359
 21
31.5001
  0
LINE
  8
0
 10
15.7359
 20
31.5001
 11
15.8359
 21
31.6429
  0
LINE
  8
0
 10
15.8359
 20
31.6429
 11
15.9095
 21
31.8008
  0
LINE
  8
0
 10
15.9095
 20
31.8008
 11
15.9547
 21
31.9692
  0
LINE
  8
0
 10
15.9547
 20
31.9692
 11
15.9698
 21
32.1429
  0
LINE
  8
0
 10
15.9698
 20
32.1429
 11
15.9547
 21
32.3165
  0
LINE
  8
0
 10
15.9547
 20
32.3165
 11
15.9095
 21
32.4849
  0
LINE
  8
0
 10
15.9095
 20
32.4849
 11
15.8359
 21
32.6429
  0
LINE
  8
0
 10
15.8359
 20
32.6429
 11
15.7359
 21
32.7856
  0
LINE
  8
0
 10
15.7359
 20
32.7856
 11
15.6126
 21
32.9089
  0
LINE
  8
0
 10
15.6126
 20
32.9089
 11
15.4698
 21
33.0089
  0
LINE
  8
0
 10
15.4698
 20
33.0089
 11
15.3119
 21
33.0825
  0
LINE
  8
0
 10
15.3119
 20
33.0825
 11
15.1435
 21
33.1277
  0
LINE
  8
0
 10
15.1435
 20
33.1277
 11
14.9698
 21
33.1429
  0
LINE
  8
0
 10
14.9698
 20
33.1429
 11
14.7962
 21
33.1277
  0
LINE
  8
0
 10
14.7962
 20
33.1277
 11
14.6278
 21
33.0825
  0
LINE
  8
0
 10
14.6278
 20
33.0825
 11
14.4698
 21
33.0089
  0
LINE
  8
0
 10
14.4698
 20
33.0089
 11
5.31451
 21
28.5443
  0
LINE
  8
0
 10
5.31451
 20
28.5443
 11
4.68108
 21
36.4625
  0
LINE
  8
0
 10
4.68108
 20
36.4625
 11
21.6557
 21
47.3483
  0
LINE
  8
0
 10
21.6557
 20
47.3483
 11
21.7985
 21
47.4482
  0
LINE
  8
0
 10
21.7985
 20
47.4482
 11
21.9218
 21
47.5715
  0
LINE
  8
0
 10
21.9218
 20
47.5715
 11
22.0218
 21
47.7143
  0
LINE
  8
0
 10
22.0218
 20
47.7143
 11
22.0954
 21
47.8723
  0
LINE
  8
0
 10
22.0954
 20
47.8723
 11
22.1405
 21
48.0406
  0
LINE
  8
0
 10
22.1405
 20
48.0406
 11
22.1557
 21
48.2143
  0
LINE
  8
0
 10
22.1557
 20
48.2143
 11
22.1405
 21
48.3879
  0
LINE
  8
0
 10
22.1405
 20
48.3879
 11
22.0954
 21
48.5563
  0
LINE
  8
0
 10
22.0954
 20
48.5563
 11
22.0218
 21
48.7143
  0
LINE
  8
0
 10
22.0218
 20
48.7143
 11
21.9218
 21
48.8571
  0
LINE
  8
0
 10
21.9218
 20
48.8571
 11
21.7985
 21
48.9803
  0
LINE
  8
0
 10
21.7985
 20
48.9803
 11
21.6557
 21
49.0803
  0
LINE
  8
0
 10
21.6557
 20
49.0803
 11
21.4978
 21
49.154
  0
LINE
  8
0
 10
21.4978
 20
49.154
 11
21.3294
 21
49.1991
  0
LINE
  8
0
 10
21.3294
 20
49.1991
 11
21.1557
 21
49.2143
  0
LINE
  8
0
 10
21.1557
 20
49.2143
 11
20.9821
 21
49.1991
  0
LINE
  8
0
 10
20.9821
 20
49.1991
 11
20.8137
 21
49.154
  0
LINE
  8
0
 10
20.8137
 20
49.154
 11
20.6557
 21
49.0803
  0
LINE
  8
0
 10
20.6557
 20
49.0803
 11
8.4169
 21
42.7557
  0
LINE
  8
0
 10
8.4169
 20
42.7557
 11
7.92705
 21
44.2634
  0
LINE
  8
0
 10
7.92705
 20
44.2634
 11
6.42705
 21
45.3532
  0
LINE
  8
0
 10
6.42705
 20
45.3532
 11
4.57295
 21
45.3532
  0
LINE
  8
0
 10
4.57295
 20
45.3532
 11
4.00294
 21
44.939
  0
LINE
  8
0
 10
4.00294
 20
44.939
 11
3.59807
 21
50
  0
LINE
  8
0
 10
3.59807
 20
50
 11
3.58287
 21
50.1736
  0
LINE
  8
0
 10
3.58287
 20
50.1736
 11
3.53775
 21
50.342
  0
LINE
  8
0
 10
3.53775
 20
50.342
 11
3.46408
 21
50.5
  0
LINE
  8
0
 10
3.46408
 20
50.5
 11
3.36411
 21
50.6428
  0
LINE
  8
0
 10
3.36411
 20
50.6428
 11
3.24084
 21
50.766
  0
LINE
  8
0
 10
3.24084
 20
50.766
 11
3.09805
 21
50.866
  0
LINE
  8
0
 10
3.09805
 20
50.866
 11
2.94008
 21
50.9397
  0
LINE
  8
0
 10
2.94008
 20
50.9397
 11
2.77171
 21
50.9848
  0
LINE
  8
0
 10
2.77171
 20
50.9848
 11
2.59807
 21
51
  0
LINE
  8
0
 10
2.59807
 20
51
 11
2.59807
 21
42.8018
  0
LINE
  8
0
 10
2.59807
 20
42.8018
 11
2.5
 21
42.5
  0
LINE
  8
0
 10
2.5
 20
42.5
 11
2.59807
 21
42.1982
  0
LINE
  8
0
 10
2.59807
 20
42.1982
 11
2.59807
 21
-16.6667
  0
LINE
  8
0
 10
2.59807
 20
-16.6667
 11
-2.59807
 21
-16.6667
  0
LINE
  8
0
 10
-2.59807
 20
-16.6667
 11
-2.59807
 21
51
  0
LINE
  8
0
 10
-2.59807
 20
51
 11
-2.77171
 21
50.9848
  0
LINE
  8
0
 10
-2.77171
 20
50.9848
 11
-2.94008
 21
50.9397
  0
LINE
  8
0
 10
-2.94008
 20
50.9397
 11
-3.09805
 21
50.866
  0
LINE
  8
0
 10
-3.09805
 20
50.866
 11
-3.24084
 21
50.766
  0
LINE
  8
0
 10
-3.24084
 20
50.766
 11
-3.36411
 21
50.6428
  0
LINE
  8
0
 10
-3.36411
 20
50.6428
 11
-3.46408
 21
50.5
  0
LINE
  8
0
 10
-3.46408
 20
50.5
 11
-3.53775
 21
50.342
  0
LINE
  8
0
 10
-3.53775
 20
50.342
 11
-3.58287
 21
50.1736
  0
LINE
  8
0
 10
-3.58287
 20
50.1736
 11
-3.59807
 21
50
  0
LINE
  8
0
 10
-3.59807
 20
50
 11
-4.3459
 21
40.652
  0
LINE
  8
0
 10
-4.3459
 20
40.652
 11
-20.6557
 21
49.0803
  0
LINE
  8
0
 10
-20.6557
 20
49.0803
 11
-20.8137
 21
49.154
  0
LINE
  8
0
 10
-20.8137
 20
49.154
 11
-20.9821
 21
49.1991
  0
LINE
  8
0
 10
-20.9821
 20
49.1991
 11
-21.1557
 21
49.2143
  0
LINE
  8
0
 10
-21.1557
 20
49.2143
 11
-21.3294
 21
49.1991
  0
LINE
  8
0
 10
-21.3294
 20
49.1991
 11
-21.4978
 21
49.154
  0
LINE
  8
0
 10
-21.4978
 20
49.154
 11
-21.6557
 21
49.0803
  0
LINE
  8
0
 10
-21.6557
 20
49.0803
 11
-21.7985
 21
48.9803
  0
LINE
  8
0
 10
-21.7985
 20
48.9803
 11
-21.9218
 21
48.8571
  0
LINE
  8
0
 10
-21.9218
 20
48.8571
 11
-22.0218
 21
48.7143
  0
LINE
  8
0
 10
-22.0218
 20
48.7143
 11
-22.0954
 21
48.5563
  0
LINE
  8
0
 10
-22.0954
 20
48.5563
 11
-22.1405
 21
48.3879
  0
LINE
  8
0
 10
-22.1405
 20
48.3879
 11
-22.1557
 21
48.2143
  0
LINE
  8
0
 10
-22.1557
 20
48.2143
 11
-22.1405
 21
48.0406
  0
LINE
  8
0
 10
-22.1405
 20
48.0406
 11
-22.0954
 21
47.8723
  0
LINE
  8
0
 10
-22.0954
 20
47.8723
 11
-22.0218
 21
47.7143
  0
LINE
  8
0
 10
-22.0218
 20
47.7143
 11
-21.9218
 21
47.5715
  0
LINE
  8
0
 10
-21.9218
 20
47.5715
 11
-21.7985
 21
47.4482
  0
LINE
  8
0
 10
-21.7985
 20
47.4482
 11
-21.6557
 21
47.3483
  0
LINE
  8
0
 10
-21.6557
 20
47.3483
 11
-4.68108
 21
36.4625
  0
LINE
  8
0
 10
-4.68108
 20
36.4625
 11
-5.31451
 21
28.5443
  0
LINE
  8
0
 10
-5.31451
 20
28.5443
 11
-14.4698
 21
33.0089
  0
LINE
  8
0
 10
-14.4698
 20
33.0089
 11
-14.6278
 21
33.0825
  0
LINE
  8
0
 10
-14.6278
 20
33.0825
 11
-14.7962
 21
33.1277
  0
LINE
  8
0
 10
-14.7962
 20
33.1277
 11
-14.9698
 21
33.1429
  0
LINE
  8
0
 10
-14.9698
 20
33.1429
 11
-15.1435
 21
33.1277
  0
LINE
  8
0
 10
-15.1435
 20
33.1277
 11
-15.3119
 21
33.0825
  0
LINE
  8
0
 10
-15.3119
 20
33.0825
 11
-15.4698
 21
33.0089
  0
LINE
  8
0
 10
-15.4698
 20
33.0089
 11
-15.6126
 21
32.9089
  0
LINE
  8
0
 10
-15.6126
 20
32.9089
 11
-15.7359
 21
32.7856
  0
LINE
  8
0
 10
-15.7359
 20
32.7856
 11
-15.8359
 21
32.6429
  0
LINE
  8
0
 10
-15.8359
 20
32.6429
 11
-15.9095
 21
32.4849
  0
LINE
  8
0
 10
-15.9095
 20
32.4849
 11
-15.9547
 21
32.3165
  0
LINE
  8
0
 10
-15.9547
 20
32.3165
 11
-15.9698
 21
32.1429
  0
LINE
  8
0
 10
-15.9698
 20
32.1429
 11
-15.9547
 21
31.9692
  0
LINE
  8
0
 10
-15.9547
 20
31.9692
 11
-15.9095
 21
31.8008
  0
LINE
  8
0
 10
-15.9095
 20
31.8008
 11
-15.8359
 21
31.6429
  0
LINE
  8
0
 10
-15.8359
 20
31.6429
 11
-15.7359
 21
31.5001
  0
LINE
  8
0
 10
-15.7359
 20
31.5001
 11
-15.6126
 21
31.3768
  0
LINE
  8
0
 10
-15.6126
 20
31.3768
 11
-15.4698
 21
31.2768
  0
LINE
  8
0
 10
-15.4698
 20
31.2768
 11
-5.62712
 21
24.6368
  0
LINE
  8
0
 10
-5.62712
 20
24.6368
 11
-6.30606
 21
16.15
  0
LINE
  8
0
 10
-6.30606
 20
16.15
 11
-8.44194
 21
17.0111
  0
LINE
  8
0
 10
-8.44194
 20
17.0111
 11
-8.61031
 21
17.0562
  0
LINE
  8
0
 10
-8.61031
 20
17.0562
 11
-8.78395
 21
17.0714
  0
LINE
  8
0
 10
-8.78395
 20
17.0714
 11
-8.95761
 21
17.0562
  0
LINE
  8
0
 10
-8.95761
 20
17.0562
 11
-9.12598
 21
17.0111
  0
LINE
  8
0
 10
-9.12598
 20
17.0111
 11
-9.28395
 21
16.9374
  0
LINE
  8
0
 10
-9.28395
 20
16.9374
 11
-9.42674
 21
16.8375
  0
LINE
  8
0
 10
-9.42674
 20
16.8375
 11
-9.55
 21
16.7142
  0
LINE
  8
0
 10
-9.55
 20
16.7142
 11
-9.64998
 21
16.5714
  0
LINE
  8
0
 10
-9.64998
 20
16.5714
 11
-9.72365
 21
16.4134
  0
LINE
  8
0
 10
-9.72365
 20
16.4134
 11
-9.76877
 21
16.2451
  0
LINE
  8
0
 10
-9.76877
 20
16.2451
 11
-9.78395
 21
16.0714
  0
LINE
  8
0
 10
-9.78395
 20
16.0714
 11
-9.76877
 21
15.8978
  0
LINE
  8
0
 10
-9.76877
 20
15.8978
 11
-9.72365
 21
15.7294
  0
LINE
  8
0
 10
-9.72365
 20
15.7294
 11
-9.64998
 21
15.5714
  0
LINE
  8
0
 10
-9.64998
 20
15.5714
 11
-9.55
 21
15.4286
  0
LINE
  8
0
 10
-9.55
 20
15.4286
 11
-9.42674
 21
15.3054
  0
LINE
  8
0
 10
-9.42674
 20
15.3054
 11
-6.5535
 21
13.0571
  0
LINE
  8
0
 10
-6.5535
 20
13.0571
 11
-6.98956
 21
7.60629
  0
LINE
  8
0
 10
-6.98956
 20
7.60629
 11
-11.9281
 21
9.95404
  0
LINE
  8
0
 10
-11.9281
 20
9.95404
 11
-12.4386
 21
13.5665
  0
LINE
  8
0
 10
-12.4386
 20
13.5665
 11
-12.4837
 21
13.7349
  0
LINE
  8
0
 10
-12.4837
 20
13.7349
 11
-12.5574
 21
13.8928
  0
LINE
  8
0
 10
-12.5574
 20
13.8928
 11
-12.6573
 21
14.0356
  0
LINE
  8
0
 10
-12.6573
 20
14.0356
 11
-12.7806
 21
14.1589
  0
LINE
  8
0
 10
-12.7806
 20
14.1589
 11
-12.9234
 21
14.2589
  0
LINE
  8
0
 10
-12.9234
 20
14.2589
 11
-13.0814
 21
14.3325
  0
LINE
  8
0
 10
-13.0814
 20
14.3325
 11
-13.2497
 21
14.3776
  0
LINE
  8
0
 10
-13.2497
 20
14.3776
 11
-13.4234
 21
14.3928
  0
LINE
  8
0
 10
-13.4234
 20
14.3928
 11
-13.597
 21
14.3776
  0
LINE
  8
0
 10
-13.597
 20
14.3776
 11
-13.7654
 21
14.3325
  0
LINE
  8
0
 10
-13.7654
 20
14.3325
 11
-13.9234
 21
14.2589
  0
LINE
  8
0
 10
-13.9234
 20
14.2589
 11
-14.0662
 21
14.1589
  0
LINE
  8
0
 10
-14.0662
 20
14.1589
 11
-14.1894
 21
14.0356
  0
LINE
  8
0
 10
-14.1894
 20
14.0356
 11
-14.2894
 21
13.8928
  0
LINE
  8
0
 10
-14.2894
 20
13.8928
 11
-14.3631
 21
13.7349
  0
LINE
  8
0
 10
-14.3631
 20
13.7349
 11
-14.4082
 21
13.5665
  0
LINE
  8
0
 10
-14.4082
 20
13.5665
 11
-14.7304
 21
11.2862
  0
LINE
  8
0
 10
-14.7304
 20
11.2862
 11
-22.4196
 21
14.9416
  0
LINE
  8
0
 10
-22.4196
 20
14.9416
 11
-23.2487
 21
26.7857
  0
LINE
  8
0
 10
-23.2487
 20
26.7857
 11
-23.2639
 21
26.9593
  0
LINE
  8
0
 10
-23.2639
 20
26.9593
 11
-23.309
 21
27.1277
  0
LINE
  8
0
 10
-23.309
 20
27.1277
 11
-23.3827
 21
27.2857
  0
LINE
  8
0
 10
-23.3827
 20
27.2857
 11
-23.4827
 21
27.4285
  0
LINE
  8
0
 10
-23.4827
 20
27.4285
 11
-23.6059
 21
27.5517
  0
LINE
  8
0
 10
-23.6059
 20
27.5517
 11
-23.7487
 21
27.6517
  0
LINE
  8
0
 10
-23.7487
 20
27.6517
 11
-23.9067
 21
27.7254
  0
LINE
  8
0
 10
-23.9067
 20
27.7254
 11
-24.075
 21
27.7705
  0
LINE
  8
0
 10
-24.075
 20
27.7705
 11
-24.2487
 21
27.7857
  0
LINE
  8
0
 10
-24.2487
 20
27.7857
 11
-24.4223
 21
27.7705
  0
LINE
  8
0
 10
-24.4223
 20
27.7705
 11
-24.5907
 21
27.7254
  0
LINE
  8
0
 10
-24.5907
 20
27.7254
 11
-24.7487
 21
27.6517
  0
LINE
  8
0
 10
-24.7487
 20
27.6517
 11
-24.8915
 21
27.5517
  0
LINE
  8
0
 10
-24.8915
 20
27.5517
 11
-25.0147
 21
27.4285
  0
LINE
  8
0
 10
-25.0147
 20
27.4285
 11
-25.1147
 21
27.2857
  0
LINE
  8
0
 10
-25.1147
 20
27.2857
 11
-25.1884
 21
27.1277
  0
LINE
  8
0
 10
-25.1884
 20
27.1277
 11
-25.2335
 21
26.9594
  0
LINE
  8
0
 10
-25.2335
 20
26.9594
 11
-25.2487
 21
26.7857
  0
LINE
  8
0
 10
-25.2487
 20
26.7857
 11
-25.96
 21
16.6247
  0
LINE
  8
0
 10
-25.96
 20
16.6247
 11
-33.134
 21
20.0352
  0
LINE
  8
0
 10
-33.134
 20
20.0352
 11
-34.074
 21
40.1786
  0
LINE
  8
0
 10
-34.074
 20
40.1786
 11
-34.0892
 21
40.3522
  0
LINE
  8
0
 10
-34.0892
 20
40.3522
 11
-34.1343
 21
40.5206
  0
LINE
  8
0
 10
-34.1343
 20
40.5206
 11
-34.208
 21
40.6786
  0
LINE
  8
0
 10
-34.208
 20
40.6786
 11
-34.308
 21
40.8213
  0
LINE
  8
0
 10
-34.308
 20
40.8213
 11
-34.4312
 21
40.9446
  0
LINE
  8
0
 10
-34.4312
 20
40.9446
 11
-34.574
 21
41.0446
  0
LINE
  8
0
 10
-34.574
 20
41.0446
 11
-34.732
 21
41.1182
  0
LINE
  8
0
 10
-34.732
 20
41.1182
 11
-34.9004
 21
41.1634
  0
LINE
  8
0
 10
-34.9004
 20
41.1634
 11
-35.074
 21
41.1786
  0
LINE
  8
0
 10
-35.074
 20
41.1786
 11
-35.2477
 21
41.1634
  0
LINE
  8
0
 10
-35.2477
 20
41.1634
 11
-35.416
 21
41.1182
  0
LINE
  8
0
 10
-35.416
 20
41.1182
 11
-35.574
 21
41.0446
  0
LINE
  8
0
 10
-35.574
 20
41.0446
 11
-35.7168
 21
40.9446
  0
LINE
  8
0
 10
-35.7168
 20
40.9446
 11
-35.8401
 21
40.8213
  0
LINE
  8
0
 10
-35.8401
 20
40.8213
 11
-35.94
 21
40.6786
  0
LINE
  8
0
 10
-35.94
 20
40.6786
 11
-36.0137
 21
40.5206
  0
LINE
  8
0
 10
-36.0137
 20
40.5206
 11
-36.0588
 21
40.3522
  0
LINE
  8
0
 10
-36.0588
 20
40.3522
 11
-36.074
 21
40.1786
  0
LINE
  8
0
 10
-36.074
 20
40.1786
 11
-36.9298
 21
21.8397
  0
LINE
  8
0
 10
-36.9298
 20
21.8397
 11
-45.3993
 21
25.866
  0
LINE
  8
0
 10
-45.3993
 20
25.866
 11
-45.5573
 21
25.9397
  0
LINE
  8
0
 10
-45.5573
 20
25.9397
 11
-45.7257
 21
25.9848
  0
LINE
  8
0
 10
-45.7257
 20
25.9848
 11
-45.8993
 21
26
  0
LINE
  8
0
 10
-45.8993
 20
26
 11
-46.073
 21
25.9848
  0
LINE
  8
0
 10
-46.073
 20
25.9848
 11
-46.2413
 21
25.9397
  0
LINE
  8
0
 10
-46.2413
 20
25.9397
 11
-46.3993
 21
25.866
  0
LINE
  8
0
 10
-46.3993
 20
25.866
 11
-46.5421
 21
25.766
  0
LINE
  8
0
 10
-46.5421
 20
25.766
 11
-46.6654
 21
25.6428
  0
LINE
  8
0
 10
-46.6654
 20
25.6428
 11
-46.7654
 21
25.5
  0
LINE
  8
0
 10
-46.7654
 20
25.5
 11
-46.839
 21
25.342
  0
LINE
  8
0
 10
-46.839
 20
25.342
 11
-46.8841
 21
25.1736
  0
LINE
  8
0
 10
-46.8841
 20
25.1736
 11
-46.8993
 21
25
  0
LINE
  8
0
 10
-46.8993
 20
25
 11
-46.8841
 21
24.8264
  0
LINE
  8
0
 10
-46.8841
 20
24.8264
 11
-46.839
 21
24.658
  0
LINE
  8
0
 10
-46.839
 20
24.658
 11
-46.7654
 21
24.5
  0
LINE
  8
0
 10
-46.7654
 20
24.5
 11
-46.6654
 21
24.3572
  0
LINE
  8
0
 10
-46.6654
 20
24.3572
 11
-46.5421
 21
24.2339
  0
LINE
  8
0
 10
-46.5421
 20
24.2339
 11
-46.3993
 21
24.134
  0
LINE
  8
0
 10
-46.3993
 20
24.134
 11
-38.6776
 21
18.8123
  0
LINE
  8
0
 10
-38.6776
 20
18.8123
 11
-54.1317
 21
8.90173
  0
LINE
  8
0
 10
-54.1317
 20
8.90173
 11
-54.2745
 21
8.80176
  0
LINE
  8
0
 10
-54.2745
 20
8.80176
 11
-54.3977
 21
8.6785
  0
LINE
  8
0
 10
-54.3977
 20
8.6785
 11
-54.4977
 21
8.53571
  0
LINE
  8
0
 10
-54.4977
 20
8.53571
 11
-54.5714
 21
8.37773
  0
LINE
  8
0
 10
-54.5714
 20
8.37773
 11
-54.6165
 21
8.20935
  0
LINE
  8
0
 10
-54.6165
 20
8.20935
 11
-54.6317
 21
8.03571
  0
LINE
  8
0
 10
-54.6317
 20
8.03571
 11
-54.6165
 21
7.86206
  0
LINE
  8
0
 10
-54.6165
 20
7.86206
 11
-54.5714
 21
7.69368
  0
LINE
  8
0
 10
-54.5714
 20
7.69368
 11
-54.4977
 21
7.53571
  0
LINE
  8
0
 10
-54.4977
 20
7.53571
 11
-54.3977
 21
7.39293
  0
LINE
  8
0
 10
-54.3977
 20
7.39293
 11
-54.2745
 21
7.26967
  0
LINE
  8
0
 10
-54.2745
 20
7.26967
 11
-54.1317
 21
7.16969
  0
LINE
  8
0
 10
-54.1317
 20
7.16969
 11
-53.9737
 21
7.09602
  0
LINE
  8
0
 10
-53.9737
 20
7.09602
 11
-53.8053
 21
7.0509
  0
LINE
  8
0
 10
-53.8053
 20
7.0509
 11
-53.6317
 21
7.03571
  0
LINE
  8
0
 10
-53.6317
 20
7.03571
 11
-53.458
 21
7.05089
  0
LINE
  8
0
 10
-53.458
 20
7.05089
 11
-53.2897
 21
7.09601
  0
LINE
  8
0
 10
-53.2897
 20
7.09601
 11
-53.1317
 21
7.16968
  0
LINE
  8
0
 10
-53.1317
 20
7.16968
 11
-35.217
 21
16.4273
  0
LINE
  8
0
 10
-35.217
 20
16.4273
 11
-28.6764
 21
11.9196
  0
LINE
  8
0
 10
-28.6764
 20
11.9196
 11
-37.1205
 21
6.22318
  0
LINE
  8
0
 10
-37.1205
 20
6.22318
 11
-37.2633
 21
6.12317
  0
LINE
  8
0
 10
-37.2633
 20
6.12317
 11
-37.3865
 21
5.99992
  0
LINE
  8
0
 10
-37.3865
 20
5.99992
 11
-37.4865
 21
5.85715
  0
LINE
  8
0
 10
-37.4865
 20
5.85715
 11
-37.5602
 21
5.69916
  0
LINE
  8
0
 10
-37.5602
 20
5.69916
 11
-37.6053
 21
5.53078
  0
LINE
  8
0
 10
-37.6053
 20
5.53078
 11
-37.6205
 21
5.35715
  0
LINE
  8
0
 10
-37.6205
 20
5.35715
 11
-37.6053
 21
5.18349
  0
LINE
  8
0
 10
-37.6053
 20
5.18349
 11
-37.5602
 21
5.01512
  0
LINE
  8
0
 10
-37.5602
 20
5.01512
 11
-37.4865
 21
4.85715
  0
LINE
  8
0
 10
-37.4865
 20
4.85715
 11
-37.3865
 21
4.71434
  0
LINE
  8
0
 10
-37.3865
 20
4.71434
 11
-37.2633
 21
4.59109
  0
LINE
  8
0
 10
-37.2633
 20
4.59109
 11
-37.1205
 21
4.49112
  0
LINE
  8
0
 10
-37.1205
 20
4.49112
 11
-36.9625
 21
4.41745
  0
LINE
  8
0
 10
-36.9625
 20
4.41745
 11
-36.7941
 21
4.37233
  0
LINE
  8
0
 10
-36.7941
 20
4.37233
 11
-36.6205
 21
4.35715
  0
LINE
  8
0
 10
-36.6205
 20
4.35715
 11
-36.4468
 21
4.37233
  0
LINE
  8
0
 10
-36.4468
 20
4.37233
 11
-36.2785
 21
4.41745
  0
LINE
  8
0
 10
-36.2785
 20
4.41745
 11
-36.1205
 21
4.49112
  0
LINE
  8
0
 10
-36.1205
 20
4.49112
 11
-25.4487
 21
9.69516
  0
LINE
  8
0
 10
-25.4487
 20
9.69516
 11
-18.4384
 21
4.86378
  0
LINE
  8
0
 10
-18.4384
 20
4.86378
 11
-20.252
 21
3.44461
  0
LINE
  8
0
 10
-20.252
 20
3.44461
 11
-20.3753
 21
3.32135
  0
LINE
  8
0
 10
-20.3753
 20
3.32135
 11
-20.4753
 21
3.17857
  0
LINE
  8
0
 10
-20.4753
 20
3.17857
 11
-20.549
 21
3.02058
  0
LINE
  8
0
 10
-20.549
 20
3.02058
 11
-20.5941
 21
2.85222
  0
LINE
  8
0
 10
-20.5941
 20
2.85222
 11
-20.6093
 21
2.67857
  0
LINE
  8
0
 10
-20.6093
 20
2.67857
 11
-20.5941
 21
2.50491
  0
LINE
  8
0
 10
-20.5941
 20
2.50491
 11
-20.549
 21
2.33655
  0
LINE
  8
0
 10
-20.549
 20
2.33655
 11
-20.4753
 21
2.17857
  0
LINE
  8
0
 10
-20.4753
 20
2.17857
 11
-20.3753
 21
2.03578
  0
LINE
  8
0
 10
-20.3753
 20
2.03578
 11
-20.2521
 21
1.91252
  0
LINE
  8
0
 10
-20.2521
 20
1.91252
 11
-20.1093
 21
1.81255
  0
LINE
  8
0
 10
-20.1093
 20
1.81255
 11
-19.9513
 21
1.73886
  0
LINE
  8
0
 10
-19.9513
 20
1.73886
 11
-19.7829
 21
1.69376
  0
LINE
  8
0
 10
-19.7829
 20
1.69376
 11
-19.6093
 21
1.67857
  0
LINE
  8
0
 10
-19.6093
 20
1.67857
 11
-19.4356
 21
1.69376
  0
LINE
  8
0
 10
-19.4356
 20
1.69376
 11
-19.2672
 21
1.73888
  0
LINE
  8
0
 10
-19.2672
 20
1.73888
 11
-15.8835
 21
3.10303
  0
LINE
  8
0
 10
-15.8835
 20
3.10303
 11
-11.3811
 21
0
  0
LINE
  8
0
 10
-11.3811
 20
0
 11
-15.8835
 21
-3.10303
  0
LINE
  8
0
 10
-15.8835
 20
-3.10303
 11
-19.2672
 21
-1.73888
  0
LINE
  8
0
 10
-19.2672
 20
-1.73888
 11
-19.4356
 21
-1.69376
  0
LINE
  8
0
 10
-19.4356
 20
-1.69376
 11
-19.6093
 21
-1.67857
  0
LINE
  8
0
 10
-19.6093
 20
-1.67857
 11
-19.7829
 21
-1.69376
  0
LINE
  8
0
 10
-19.7829
 20
-1.69376
 11
-19.9513
 21
-1.73886
  0
LINE
  8
0
 10
-19.9513
 20
-1.73886
 11
-20.1093
 21
-1.81255
  0
LINE
  8
0
 10
-20.1093
 20
-1.81255
 11
-20.2521
 21
-1.91252
  0
LINE
  8
0
 10
-20.2521
 20
-1.91252
 11
-20.3753
 21
-2.03578
  0
LINE
  8
0
 10
-20.3753
 20
-2.03578
 11
-20.4753
 21
-2.17857
  0
LINE
  8
0
 10
-20.4753
 20
-2.17857
 11
-20.549
 21
-2.33655
  0
LINE
  8
0
 10
-20.549
 20
-2.33655
 11
-20.5941
 21
-2.50491
  0
LINE
  8
0
 10
-20.5941
 20
-2.50491
 11
-20.6093
 21
-2.67857
  0
LINE
  8
0
 10
-20.6093
 20
-2.67857
 11
-20.5941
 21
-2.85222
  0
LINE
  8
0
 10
-20.5941
 20
-2.85222
 11
-20.549
 21
-3.02058
  0
LINE
  8
0
 10
-20.549
 20
-3.02058
 11
-20.4753
 21
-3.17857
  0
LINE
  8
0
 10
-20.4753
 20
-3.17857
 11
-20.3753
 21
-3.32135
  0
LINE
  8
0
 10
-20.3753
 20
-3.32135
 11
-20.252
 21
-3.44461
  0
LINE
  8
0
 10
-20.252
 20
-3.44461
 11
-18.4384
 21
-4.86378
  0
LINE
  8
0
 10
-18.4384
 20
-4.86378
 11
-25.4487
 21
-9.69516
  0
LINE
  8
0
 10
-25.4487
 20
-9.69516
 11
-36.1205
 21
-4.49112
  0
LINE
  8
0
 10
-36.1205
 20
-4.49112
 11
-36.2785
 21
-4.41745
  0
LINE
  8
0
 10
-36.2785
 20
-4.41745
 11
-36.4468
 21
-4.37233
  0
LINE
  8
0
 10
-36.4468
 20
-4.37233
 11
-36.6205
 21
-4.35715
  0
LINE
  8
0
 10
-36.6205
 20
-4.35715
 11
-36.7941
 21
-4.37233
  0
LINE
  8
0
 10
-36.7941
 20
-4.37233
 11
-36.9625
 21
-4.41745
  0
LINE
  8
0
 10
-36.9625
 20
-4.41745
 11
-37.1205
 21
-4.49112
  0
LINE
  8
0
 10
-37.1205
 20
-4.49112
 11
-37.2633
 21
-4.59109
  0
LINE
  8
0
 10
-37.2633
 20
-4.59109
 11
-37.3865
 21
-4.71434
  0
LINE
  8
0
 10
-37.3865
 20
-4.71434
 11
-37.4865
 21
-4.85715
  0
LINE
  8
0
 10
-37.4865
 20
-4.85715
 11
-37.5602
 21
-5.01512
  0
LINE
  8
0
 10
-37.5602
 20
-5.01512
 11
-37.6053
 21
-5.18349
  0
LINE
  8
0
 10
-37.6053
 20
-5.18349
 11
-37.6205
 21
-5.35715
  0
LINE
  8
0
 10
-37.6205
 20
-5.35715
 11
-37.6053
 21
-5.53078
  0
LINE
  8
0
 10
-37.6053
 20
-5.53078
 11
-37.5602
 21
-5.69916
  0
LINE
  8
0
 10
-37.5602
 20
-5.69916
 11
-37.4865
 21
-5.85715
  0
LINE
  8
0
 10
-37.4865
 20
-5.85715
 11
-37.3865
 21
-5.99992
  0
LINE
  8
0
 10
-37.3865
 20
-5.99992
 11
-37.2633
 21
-6.12317
  0
LINE
  8
0
 10
-37.2633
 20
-6.12317
 11
-37.1205
 21
-6.22318
  0
LINE
  8
0
 10
-37.1205
 20
-6.22318
 11
-28.6764
 21
-11.9196
  0
LINE
  8
0
 10
-28.6764
 20
-11.9196
 11
-35.217
 21
-16.4273
  0
LINE
  8
0
 10
-35.217
 20
-16.4273
 11
-53.1317
 21
-7.16968
  0
LINE
  8
0
 10
-53.1317
 20
-7.16968
 11
-53.2897
 21
-7.09601
  0
LINE
  8
0
 10
-53.2897
 20
-7.09601
 11
-53.458
 21
-7.05089
  0
LINE
  8
0
 10
-53.458
 20
-7.05089
 11
-53.6317
 21
-7.03571
  0
LINE
  8
0
 10
-53.6317
 20
-7.03571
 11
-53.8053
 21
-7.0509
  0
LINE
  8
0
 10
-53.8053
 20
-7.0509
 11
-53.9737
 21
-7.09602
  0
LINE
  8
0
 10
-53.9737
 20
-7.09602
 11
-54.1317
 21
-7.16969
  0
LINE
  8
0
 10
-54.1317
 20
-7.16969
 11
-54.2745
 21
-7.26967
  0
LINE
  8
0
 10
-54.2745
 20
-7.26967
 11
-54.3977
 21
-7.39293
  0
LINE
  8
0
 10
-54.3977
 20
-7.39293
 11
-54.4977
 21
-7.53571
  0
LINE
  8
0
 10
-54.4977
 20
-7.53571
 11
-54.5714
 21
-7.69368
  0
LINE
  8
0
 10
-54.5714
 20
-7.69368
 11
-54.6165
 21
-7.86206
  0
LINE
  8
0
 10
-54.6165
 20
-7.86206
 11
-54.6317
 21
-8.03571
  0
LINE
  8
0
 10
-54.6317
 20
-8.03571
 11
-54.6165
 21
-8.20935
  0
LINE
  8
0
 10
-54.6165
 20
-8.20935
 11
-54.5714
 21
-8.37773
  0
LINE
  8
0
 10
-54.5714
 20
-8.37773
 11
-54.4977
 21
-8.53571
  0
LINE
  8
0
 10
-54.4977
 20
-8.53571
 11
-54.3977
 21
-8.6785
  0
LINE
  8
0
 10
-54.3977
 20
-8.6785
 11
-54.2745
 21
-8.80176
  0
LINE
  8
0
 10
-54.2745
 20
-8.80176
 11
-54.1317
 21
-8.90173
  0
LINE
  8
0
 10
-54.1317
 20
-8.90173
 11
-38.6776
 21
-18.8123
  0
LINE
  8
0
 10
-38.6776
 20
-18.8123
 11
-46.3993
 21
-24.134
  0
LINE
  8
0
 10
-46.3993
 20
-24.134
 11
-46.5421
 21
-24.2339
  0
LINE
  8
0
 10
-46.5421
 20
-24.2339
 11
-46.6654
 21
-24.3572
  0
LINE
  8
0
 10
-46.6654
 20
-24.3572
 11
-46.7654
 21
-24.5
  0
LINE
  8
0
 10
-46.7654
 20
-24.5
 11
-46.839
 21
-24.658
  0
LINE
  8
0
 10
-46.839
 20
-24.658
 11
-46.8841
 21
-24.8264
  0
LINE
  8
0
 10
-46.8841
 20
-24.8264
 11
-46.8993
 21
-25
  0
LINE
  8
0
 10
-46.8993
 20
-25
 11
-46.8841
 21
-25.1736
  0
LINE
  8
0
 10
-46.8841
 20
-25.1736
 11
-46.839
 21
-25.342
  0
LINE
  8
0
 10
-46.839
 20
-25.342
 11
-46.7654
 21
-25.5
  0
LINE
  8
0
 10
-46.7654
 20
-25.5
 11
-46.6654
 21
-25.6428
  0
LINE
  8
0
 10
-46.6654
 20
-25.6428
 11
-46.5421
 21
-25.766
  0
LINE
  8
0
 10
-46.5421
 20
-25.766
 11
-46.3993
 21
-25.866
  0
LINE
  8
0
 10
-46.3993
 20
-25.866
 11
-46.2413
 21
-25.9397
  0
LINE
  8
0
 10
-46.2413
 20
-25.9397
 11
-46.073
 21
-25.9848
  0
LINE
  8
0
 10
-46.073
 20
-25.9848
 11
-45.8993
 21
-26
  0
LINE
  8
0
 10
-45.8993
 20
-26
 11
-45.7257
 21
-25.9848
  0
LINE
  8
0
 10
-45.7257
 20
-25.9848
 11
-45.5573
 21
-25.9397
  0
LINE
  8
0
 10
-45.5573
 20
-25.9397
 11
-45.3993
 21
-25.866
  0
LINE
  8
0
 10
-45.3993
 20
-25.866
 11
-36.9298
 21
-21.8397
  0
LINE
  8
0
 10
-36.9298
 20
-21.8397
 11
-36.074
 21
-40.1786
  0
LINE
  8
0
 10
-36.074
 20
-40.1786
 11
-36.0588
 21
-40.3522
  0
LINE
  8
0
 10
-36.0588
 20
-40.3522
 11
-36.0137
 21
-40.5206
  0
LINE
  8
0
 10
-36.0137
 20
-40.5206
 11
-35.94
 21
-40.6786
  0
LINE
  8
0
 10
-35.94
 20
-40.6786
 11
-35.8401
 21
-40.8213
  0
LINE
  8
0
 10
-35.8401
 20
-40.8213
 11
-35.7168
 21
-40.9446
  0
LINE
  8
0
 10
-35.7168
 20
-40.9446
 11
-35.574
 21
-41.0446
  0
LINE
  8
0
 10
-35.574
 20
-41.0446
 11
-35.416
 21
-41.1182
  0
LINE
  8
0
 10
-35.416
 20
-41.1182
 11
-35.2477
 21
-41.1634
  0
LINE
  8
0
 10
-35.2477
 20
-41.1634
 11
-35.074
 21
-41.1786
  0
LINE
  8
0
 10
-35.074
 20
-41.1786
 11
-34.9004
 21
-41.1634
  0
LINE
  8
0
 10
-34.9004
 20
-41.1634
 11
-34.732
 21
-41.1182
  0
LINE
  8
0
 10
-34.732
 20
-41.1182
 11
-34.574
 21
-41.0446
  0
LINE
  8
0
 10
-34.574
 20
-41.0446
 11
-34.4312
 21
-40.9446
  0
LINE
  8
0
 10
-34.4312
 20
-40.9446
 11
-34.308
 21
-40.8213
  0
LINE
  8
0
 10
-34.308
 20
-40.8213
 11
-34.208
 21
-40.6786
  0
LINE
  8
0
 10
-34.208
 20
-40.6786
 11
-34.1343
 21
-40.5206
  0
LINE
  8
0
 10
-34.1343
 20
-40.5206
 11
-34.0892
 21
-40.3522
  0
LINE
  8
0
 10
-34.0892
 20
-40.3522
 11
-34.074
 21
-40.1786
  0
LINE
  8
0
 10
-34.074
 20
-40.1786
 11
-33.134
 21
-20.0352
  0
LINE
  8
0
 10
-33.134
 20
-20.0352
 11
-25.96
 21
-16.6247
  0
LINE
  8
0
 10
-25.96
 20
-16.6247
 11
-25.2487
 21
-26.7857
  0
LINE
  8
0
 10
-25.2487
 20
-26.7857
 11
-25.2335
 21
-26.9594
  0
LINE
  8
0
 10
-25.2335
 20
-26.9594
 11
-25.1884
 21
-27.1277
  0
LINE
  8
0
 10
-25.1884
 20
-27.1277
 11
-25.1147
 21
-27.2857
  0
LINE
  8
0
 10
-25.1147
 20
-27.2857
 11
-25.0147
 21
-27.4285
  0
LINE
  8
0
 10
-25.0147
 20
-27.4285
 11
-24.8915
 21
-27.5517
  0
LINE
  8
0
 10
-24.8915
 20
-27.5517
 11
-24.7487
 21
-27.6517
  0
LINE
  8
0
 10
-24.7487
 20
-27.6517
 11
-24.5907
 21
-27.7254
  0
LINE
  8
0
 10
-24.5907
 20
-27.7254
 11
-24.4223
 21
-27.7705
  0
LINE
  8
0
 10
-24.4223
 20
-27.7705
 11
-24.2487
 21
-27.7857
  0
LINE
  8
0
 10
-24.2487
 20
-27.7857
 11
-24.075
 21
-27.7705
  0
LINE
  8
0
 10
-24.075
 20
-27.7705
 11
-23.9067
 21
-27.7254
  0
LINE
  8
0
 10
-23.9067
 20
-27.7254
 11
-23.7487
 21
-27.6517
  0
LINE
  8
0
 10
-23.7487
 20
-27.6517
 11
-23.6059
 21
-27.5517
  0
LINE
  8
0
 10
-23.6059
 20
-27.5517
 11
-23.4827
 21
-27.4285
  0
LINE
  8
0
 10
-23.4827
 20
-27.4285
 11
-23.3827
 21
-27.2857
  0
LINE
  8
0
 10
-23.3827
 20
-27.2857
 11
-23.309
 21
-27.1277
  0
LINE
  8
0
 10
-23.309
 20
-27.1277
 11
-23.2639
 21
-26.9593
  0
LINE
  8
0
 10
-23.2639
 20
-26.9593
 11
-23.2487
 21
-26.7857
  0
LINE
  8
0
 10
-23.2487
 20
-26.7857
 11
-22.4196
 21
-14.9416
  0
LINE
  8
0
 10
-22.4196
 20
-14.9416
 11
-14.7304
 21
-11.2862
  0
LINE
  8
0
 10
-14.7304
 20
-11.2862
 11
-14.4082
 21
-13.5665
  0
LINE
  8
0
 10
-14.4082
 20
-13.5665
 11
-14.3631
 21
-13.7349
  0
LINE
  8
0
 10
-14.3631
 20
-13.7349
 11
-14.2894
 21
-13.8928
  0
LINE
  8
0
 10
-14.2894
 20
-13.8928
 11
-14.1894
 21
-14.0356
  0
LINE
  8
0
 10
-14.1894
 20
-14.0356
 11
-14.0662
 21
-14.1589
  0
LINE
  8
0
 10
-14.0662
 20
-14.1589
 11
-13.9234
 21
-14.2589
  0
LINE
  8
0
 10
-13.9234
 20
-14.2589
 11
-13.7654
 21
-14.3325
  0
LINE
  8
0
 10
-13.7654
 20
-14.3325
 11
-13.597
 21
-14.3776
  0
LINE
  8
0
 10
-13.597
 20
-14.3776
 11
-13.4234
 21
-14.3928
  0
LINE
  8
0
 10
-13.4234
 20
-14.3928
 11
-13.2497
 21
-14.3776
  0
LINE
  8
0
 10
-13.2497
 20
-14.3776
 11
-13.0814
 21
-14.3325
  0
LINE
  8
0
 10
-13.0814
 20
-14.3325
 11
-12.9234
 21
-14.2589
  0
LINE
  8
0
 10
-12.9234
 20
-14.2589
 11
-12.7806
 21
-14.1589
  0
LINE
  8
0
 10
-12.7806
 20
-14.1589
 11
-12.6573
 21
-14.0356
  0
LINE
  8
0
 10
-12.6573
 20
-14.0356
 11
-12.5574
 21
-13.8928
  0
LINE
  8
0
 10
-12.5574
 20
-13.8928
 11
-12.4837
 21
-13.7349
  0
LINE
  8
0
 10
-12.4837
 20
-13.7349
 11
-12.4386
 21
-13.5665
  0
LINE
  8
0
 10
-12.4386
 20
-13.5665
 11
-11.9281
 21
-9.95404
  0
LINE
  8
0
 10
-11.9281
 20
-9.95404
 11
-6.98955
 21
-7.60628
  0
LINE
  8
0
 10
-6.98955
 20
-7.60628
 11
-6.55348
 21
-13.0571
  0
LINE
  8
0
 10
-6.55348
 20
-13.0571
 11
-9.42673
 21
-15.3054
  0
LINE
  8
0
 10
-9.42673
 20
-15.3054
 11
-9.54999
 21
-15.4286
  0
LINE
  8
0
 10
-9.54999
 20
-15.4286
 11
-9.64996
 21
-15.5714
  0
LINE
  8
0
 10
-9.64996
 20
-15.5714
 11
-9.72363
 21
-15.7294
  0
LINE
  8
0
 10
-9.72363
 20
-15.7294
 11
-9.76875
 21
-15.8978
  0
LINE
  8
0
 10
-9.76875
 20
-15.8978
 11
-9.78394
 21
-16.0714
  0
LINE
  8
0
 10
-9.78394
 20
-16.0714
 11
-9.76875
 21
-16.2451
  0
LINE
  8
0
 10
-9.76875
 20
-16.2451
 11
-9.72363
 21
-16.4134
  0
LINE
  8
0
 10
-9.72363
 20
-16.4134
 11
-9.64996
 21
-16.5714
  0
LINE
  8
0
 10
-9.64996
 20
-16.5714
 11
-9.54999
 21
-16.7142
  0
LINE
  8
0
 10
-9.54999
 20
-16.7142
 11
-9.42673
 21
-16.8375
  0
LINE
  8
0
 10
-9.42673
 20
-16.8375
 11
-9.28394
 21
-16.9374
  0
LINE
  8
0
 10
-9.28394
 20
-16.9374
 11
-9.12596
 21
-17.0111
  0
LINE
  8
0
 10
-9.12596
 20
-17.0111
 11
-8.9576
 21
-17.0562
  0
LINE
  8
0
 10
-8.9576
 20
-17.0562
 11
-8.78394
 21
-17.0714
  0
LINE
  8
0
 10
-8.78394
 20
-17.0714
 11
-8.61029
 21
-17.0562
  0
LINE
  8
0
 10
-8.61029
 20
-17.0562
 11
-8.44193
 21
-17.0111
  0
LINE
  8
0
 10
-8.44193
 20
-17.0111
 11
-6.30605
 21
-16.15
  0
LINE
  8
0
 10
-6.30605
 20
-16.15
 11
-5.62711
 21
-24.6368
  0
LINE
  8
0
 10
-5.62711
 20
-24.6368
 11
-15.4698
 21
-31.2768
  0
LINE
  8
0
 10
-15.4698
 20
-31.2768
 11
-15.6126
 21
-31.3768
  0
LINE
  8
0
 10
-15.6126
 20
-31.3768
 11
-15.7359
 21
-31.5001
  0
LINE
  8
0
 10
-15.7359
 20
-31.5001
 11
-15.8359
 21
-31.6429
  0
LINE
  8
0
 10
-15.8359
 20
-31.6429
 11
-15.9095
 21
-31.8008
  0
LINE
  8
0
 10
-15.9095
 20
-31.8008
 11
-15.9547
 21
-31.9692
  0
LINE
  8
0
 10
-15.9547
 20
-31.9692
 11
-15.9698
 21
-32.1429
  0
LINE
  8
0
 10
-15.9698
 20
-32.1429
 11
-15.9547
 21
-32.3165
  0
LINE
  8
0
 10
-15.9547
 20
-32.3165
 11
-15.9095
 21
-32.4849
  0
LINE
  8
0
 10
-15.9095
 20
-32.4849
 11
-15.8359
 21
-32.6429
  0
LINE
  8
0
 10
-15.8359
 20
-32.6429
 11
-15.7359
 21
-32.7856
  0
LINE
  8
0
 10
-15.7359
 20
-32.7856
 11
-15.6126
 21
-32.9089
  0
LINE
  8
0
 10
-15.6126
 20
-32.9089
 11
-15.4698
 21
-33.0089
  0
LINE
  8
0
 10
-15.4698
 20
-33.0089
 11
-15.3119
 21
-33.0825
  0
LINE
  8
0
 10
-15.3119
 20
-33.0825
 11
-15.1435
 21
-33.1277
  0
LINE
  8
0
 10
-15.1435
 20
-33.1277
 11
-14.9698
 21
-33.1429
  0
LINE
  8
0
 10
-14.9698
 20
-33.1429
 11
-14.7962
 21
-33.1277
  0
LINE
  8
0
 10
-14.7962
 20
-33.1277
 11
-14.6278
 21
-33.0825
  0
LINE
  8
0
 10
-14.6278
 20
-33.0825
 11
-14.4698
 21
-33.0089
  0
LINE
  8
0
 10
-14.4698
 20
-33.0089
 11
-5.3145
 21
-28.5443
  0
LINE
  8
0
 10
-5.3145
 20
-28.5443
 11
-4.68106
 21
-36.4625
  0
LINE
  8
0
 10
-4.68106
 20
-36.4625
 11
-21.6557
 21
-47.3483
  0
LINE
  8
0
 10
-21.6557
 20
-47.3483
 11
-21.7985
 21
-47.4482
  0
LINE
  8
0
 10
-21.7985
 20
-47.4482
 11
-21.9218
 21
-47.5715
  0
LINE
  8
0
 10
-21.9218
 20
-47.5715
 11
-22.0218
 21
-47.7143
  0
LINE
  8
0
 10
-22.0218
 20
-47.7143
 11
-22.0954
 21
-47.8723
  0
LINE
  8
0
 10
-22.0954
 20
-47.8723
 11
-22.1405
 21
-48.0406
  0
LINE
  8
0
 10
-22.1405
 20
-48.0406
 11
-22.1557
 21
-48.2143
  0
LINE
  8
0
 10
-22.1557
 20
-48.2143
 11
-22.1405
 21
-48.3879
  0
LINE
  8
0
 10
-22.1405
 20
-48.3879
 11
-22.0954
 21
-48.5563
  0
LINE
  8
0
 10
-22.0954
 20
-48.5563
 11
-22.0218
 21
-48.7143
  0
LINE
  8
0
 10
-22.0218
 20
-48.7143
 11
-21.9218
 21
-48.8571
  0
LINE
  8
0
 10
-21.9218
 20
-48.8571
 11
-21.7985
 21
-48.9803
  0
LINE
  8
0
 10
-21.7985
 20
-48.9803
 11
-21.6557
 21
-49.0803
  0
LINE
  8
0
 10
-21.6557
 20
-49.0803
 11
-21.4978
 21
-49.154
  0
LINE
  8
0
 10
-21.4978
 20
-49.154
 11
-21.3294
 21
-49.1991
  0
LINE
  8
0
 10
-21.3294
 20
-49.1991
 11
-21.1557
 21
-49.2143
  0
LINE
  8
0
 10
-21.1557
 20
-49.2143
 11
-20.9821
 21
-49.1991
  0
LINE
  8
0
 10
-20.9821
 20
-49.1991
 11
-20.8137
 21
-49.154
  0
LINE
  8
0
 10
-20.8137
 20
-49.154
 11
-20.6557
 21
-49.0803
  0
LINE
  8
0
 10
-20.6557
 20
-49.0803
 11
-4.34589
 21
-40.652
  0
LINE
  8
0
 10
-4.34589
 20
-40.652
 11
-3.59805
 21
-50
  0
LINE
  8
0
 10
-3.59805
 20
-50
 11
-3.58286
 21
-50.1736
  0
LINE
  8
0
 10
-3.58286
 20
-50.1736
 11
-3.53773
 21
-50.342
  0
LINE
  8
0
 10
-3.53773
 20
-50.342
 11
-3.46407
 21
-50.5
  0
LINE
  8
0
 10
-3.46407
 20
-50.5
 11
-3.36409
 21
-50.6428
  0
LINE
  8
0
 10
-3.36409
 20
-50.6428
 11
-3.24083
 21
-50.766
  0
LINE
  8
0
 10
-3.24083
 20
-50.766
 11
-3.09804
 21
-50.866
  0
LINE
  8
0
 10
-3.09804
 20
-50.866
 11
-2.94006
 21
-50.9397
  0
LINE
  8
0
 10
-2.94006
 20
-50.9397
 11
-2.7717
 21
-50.9848
  0
LINE
  8
0
 10
-2.7717
 20
-50.9848
 11
-2.59807
 21
-51
  0
LINE
  8
0
 10
-2.59807
 20
-51
 11
-2.59807
 21
-50
  0
LINE
  8
0
 10
-2.59807
 20
-50
 11
2.59807
 21
-50
  0
LINE
  8
0
 10
2.59807
 20
-50
 11
2.59807
 21
-51
  0
LINE
  8
0
 10
2.59807
 20
-51
 11
2.7717
 21
-50.9848
  0
LINE
  8
0
 10
4.69099
 20
41.9122
 11
4.69099
 21
43.0878
  0
LINE
  8
0
 10
4.69099
 20
43.0878
 11
5.80901
 21
43.451
  0
LINE
  8
0
 10
5.80901
 20
43.451
 11
6.5
 21
42.5
  0
LINE
  8
0
 10
6.5
 20
42.5
 11
5.80901
 21
41.549
  0
LINE
  8
0
 10
5.80901
 20
41.549
 11
4.69099
 21
41.9122
  0
LINE
  8
0
 10
402.772
 20
-50.9848
 11
402.94
 21
-50.9397
  0
LINE
  8
0
 10
402.94
 20
-50.9397
 11
403.098
 21
-50.866
  0
LINE
  8
0
 10
403.098
 20
-50.866
 11
403.241
 21
-50.766
  0
LINE
  8
0
 10
403.241
 20
-50.766
 11
403.364
 21
-50.6428
  0
LINE
  8
0
 10
403.364
 20
-50.6428
 11
403.464
 21
-50.5
  0
LINE
  8
0
 10
403.464
 20
-50.5
 11
403.538
 21
-50.342
  0
LINE
  8
0
 10
403.538
 20
-50.342
 11
403.583
 21
-50.1736
  0
LINE
  8
0
 10
403.583
 20
-50.1736
 11
403.598
 21
-50
  0
LINE
  8
0
 10
403.598
 20
-50
 11
404.346
 21
-40.652
  0
LINE
  8
0
 10
404.346
 20
-40.652
 11
420.656
 21
-49.0803
  0
LINE
  8
0
 10
420.656
 20
-49.0803
 11
420.814
 21
-49.154
  0
LINE
  8
0
 10
420.814
 20
-49.154
 11
420.982
 21
-49.1991
  0
LINE
  8
0
 10
420.982
 20
-49.1991
 11
421.156
 21
-49.2143
  0
LINE
  8
0
 10
421.156
 20
-49.2143
 11
421.329
 21
-49.1991
  0
LINE
  8
0
 10
421.329
 20
-49.1991
 11
421.498
 21
-49.154
  0
LINE
  8
0
 10
421.498
 20
-49.154
 11
421.656
 21
-49.0803
  0
LINE
  8
0
 10
421.656
 20
-49.0803
 11
421.799
 21
-48.9803
  0
LINE
  8
0
 10
421.799
 20
-48.9803
 11
421.922
 21
-48.8571
  0
LINE
  8
0
 10
421.922
 20
-48.8571
 11
422.022
 21
-48.7143
  0
LINE
  8
0
 10
422.022
 20
-48.7143
 11
422.095
 21
-48.5563
  0
LINE
  8
0
 10
422.095
 20
-48.5563
 11
422.141
 21
-48.3879
  0
LINE
  8
0
 10
422.141
 20
-48.3879
 11
422.156
 21
-48.2143
  0
LINE
  8
0
 10
422.156
 20
-48.2143
 11
422.141
 21
-48.0406
  0
LINE
  8
0
 10
422.141
 20
-48.0406
 11
422.095
 21
-47.8723
  0
LINE
  8
0
 10
422.095
 20
-47.8723
 11
422.022
 21
-47.7143
  0
LINE
  8
0
 10
422.022
 20
-47.7143
 11
421.922
 21
-47.5715
  0
LINE
  8
0
 10
421.922
 20
-47.5715
 11
421.799
 21
-47.4482
  0
LINE
  8
0
 10
421.799
 20
-47.4482
 11
421.656
 21
-47.3483
  0
LINE
  8
0
 10
421.656
 20
-47.3483
 11
404.681
 21
-36.4625
  0
LINE
  8
0
 10
404.681
 20
-36.4625
 11
405.314
 21
-28.5443
  0
LINE
  8
0
 10
405.314
 20
-28.5443
 11
414.47
 21
-33.0089
  0
LINE
  8
0
 10
414.47
 20
-33.0089
 11
414.628
 21
-33.0825
  0
LINE
  8
0
 10
414.628
 20
-33.0825
 11
414.796
 21
-33.1277
  0
LINE
  8
0
 10
414.796
 20
-33.1277
 11
414.97
 21
-33.1429
  0
LINE
  8
0
 10
414.97
 20
-33.1429
 11
415.143
 21
-33.1277
  0
LINE
  8
0
 10
415.143
 20
-33.1277
 11
415.312
 21
-33.0825
  0
LINE
  8
0
 10
415.312
 20
-33.0825
 11
415.47
 21
-33.0089
  0
LINE
  8
0
 10
415.47
 20
-33.0089
 11
415.613
 21
-32.9089
  0
LINE
  8
0
 10
415.613
 20
-32.9089
 11
415.736
 21
-32.7856
  0
LINE
  8
0
 10
415.736
 20
-32.7856
 11
415.836
 21
-32.6429
  0
LINE
  8
0
 10
415.836
 20
-32.6429
 11
415.91
 21
-32.4849
  0
LINE
  8
0
 10
415.91
 20
-32.4849
 11
415.955
 21
-32.3165
  0
LINE
  8
0
 10
415.955
 20
-32.3165
 11
415.97
 21
-32.1429
  0
LINE
  8
0
 10
415.97
 20
-32.1429
 11
415.955
 21
-31.9692
  0
LINE
  8
0
 10
415.955
 20
-31.9692
 11
415.91
 21
-31.8008
  0
LINE
  8
0
 10
415.91
 20
-31.8008
 11
415.836
 21
-31.6429
  0
LINE
  8
0
 10
415.836
 20
-31.6429
 11
415.736
 21
-31.5001
  0
LINE
  8
0
 10
415.736
 20
-31.5001
 11
415.613
 21
-31.3768
  0
LINE
  8
0
 10
415.613
 20
-31.3768
 11
415.47
 21
-31.2768
  0
LINE
  8
0
 10
415.47
 20
-31.2768
 11
405.627
 21
-24.6368
  0
LINE
  8
0
 10
405.627
 20
-24.6368
 11
406.306
 21
-16.15
  0
LINE
  8
0
 10
406.306
 20
-16.15
 11
408.442
 21
-17.0111
  0
LINE
  8
0
 10
408.442
 20
-17.0111
 11
408.61
 21
-17.0562
  0
LINE
  8
0
 10
408.61
 20
-17.0562
 11
408.784
 21
-17.0714
  0
LINE
  8
0
 10
408.784
 20
-17.0714
 11
408.958
 21
-17.0562
  0
LINE
  8
0
 10
408.958
 20
-17.0562
 11
409.126
 21
-17.0111
  0
LINE
  8
0
 10
409.126
 20
-17.0111
 11
409.284
 21
-16.9374
  0
LINE
  8
0
 10
409.284
 20
-16.9374
 11
409.427
 21
-16.8375
  0
LINE
  8
0
 10
409.427
 20
-16.8375
 11
409.55
 21
-16.7142
  0
LINE
  8
0
 10
409.55
 20
-16.7142
 11
409.65
 21
-16.5714
  0
LINE
  8
0
 10
409.65
 20
-16.5714
 11
409.724
 21
-16.4134
  0
LINE
  8
0
 10
409.724
 20
-16.4134
 11
409.769
 21
-16.2451
  0
LINE
  8
0
 10
409.769
 20
-16.2451
 11
409.784
 21
-16.0714
  0
LINE
  8
0
 10
409.784
 20
-16.0714
 11
409.769
 21
-15.8978
  0
LINE
  8
0
 10
409.769
 20
-15.8978
 11
409.724
 21
-15.7294
  0
LINE
  8
0
 10
409.724
 20
-15.7294
 11
409.65
 21
-15.5714
  0
LINE
  8
0
 10
409.65
 20
-15.5714
 11
409.55
 21
-15.4286
  0
LINE
  8
0
 10
409.55
 20
-15.4286
 11
409.427
 21
-15.3054
  0
LINE
  8
0
 10
409.427
 20
-15.3054
 11
406.553
 21
-13.0571
  0
LINE
  8
0
 10
406.553
 20
-13.0571
 11
406.99
 21
-7.60628
  0
LINE
  8
0
 10
406.99
 20
-7.60628
 11
411.928
 21
-9.95404
  0
LINE
  8
0
 10
411.928
 20
-9.95404
 11
412.439
 21
-13.5665
  0
LINE
  8
0
 10
412.439
 20
-13.5665
 11
412.484
 21
-13.7349
  0
LINE
  8
0
 10
412.484
 20
-13.7349
 11
412.557
 21
-13.8928
  0
LINE
  8
0
 10
412.557
 20
-13.8928
 11
412.657
 21
-14.0356
  0
LINE
  8
0
 10
412.657
 20
-14.0356
 11
412.781
 21
-14.1589
  0
LINE
  8
0
 10
412.781
 20
-14.1589
 11
412.923
 21
-14.2589
  0
LINE
  8
0
 10
412.923
 20
-14.2589
 11
413.081
 21
-14.3325
  0
LINE
  8
0
 10
413.081
 20
-14.3325
 11
413.25
 21
-14.3776
  0
LINE
  8
0
 10
413.25
 20
-14.3776
 11
413.423
 21
-14.3928
  0
LINE
  8
0
 10
413.423
 20
-14.3928
 11
413.597
 21
-14.3776
  0
LINE
  8
0
 10
413.597
 20
-14.3776
 11
413.765
 21
-14.3325
  0
LINE
  8
0
 10
413.765
 20
-14.3325
 11
413.923
 21
-14.2589
  0
LINE
  8
0
 10
413.923
 20
-14.2589
 11
414.066
 21
-14.1589
  0
LINE
  8
0
 10
414.066
 20
-14.1589
 11
414.189
 21
-14.0356
  0
LINE
  8
0
 10
414.189
 20
-14.0356
 11
414.289
 21
-13.8928
  0
LINE
  8
0
 10
414.289
 20
-13.8928
 11
414.363
 21
-13.7349
  0
LINE
  8
0
 10
414.363
 20
-13.7349
 11
414.408
 21
-13.5665
  0
LINE
  8
0
 10
414.408
 20
-13.5665
 11
414.73
 21
-11.2862
  0
LINE
  8
0
 10
414.73
 20
-11.2862
 11
422.42
 21
-14.9416
  0
LINE
  8
0
 10
422.42
 20
-14.9416
 11
423.249
 21
-26.7857
  0
LINE
  8
0
 10
423.249
 20
-26.7857
 11
423.264
 21
-26.9593
  0
LINE
  8
0
 10
423.264
 20
-26.9593
 11
423.309
 21
-27.1277
  0
LINE
  8
0
 10
423.309
 20
-27.1277
 11
423.383
 21
-27.2857
  0
LINE
  8
0
 10
423.383
 20
-27.2857
 11
423.483
 21
-27.4285
  0
LINE
  8
0
 10
423.483
 20
-27.4285
 11
423.606
 21
-27.5517
  0
LINE
  8
0
 10
423.606
 20
-27.5517
 11
423.749
 21
-27.6517
  0
LINE
  8
0
 10
423.749
 20
-27.6517
 11
423.907
 21
-27.7254
  0
LINE
  8
0
 10
423.907
 20
-27.7254
 11
424.075
 21
-27.7705
  0
LINE
  8
0
 10
424.075
 20
-27.7705
 11
424.249
 21
-27.7857
  0
LINE
  8
0
 10
424.249
 20
-27.7857
 11
424.422
 21
-27.7705
  0
LINE
  8
0
 10
424.422
 20
-27.7705
 11
424.591
 21
-27.7254
  0
LINE
  8
0
 10
424.591
 20
-27.7254
 11
424.749
 21
-27.6517
  0
LINE
  8
0
 10
424.749
 20
-27.6517
 11
424.891
 21
-27.5517
  0
LINE
  8
0
 10
424.891
 20
-27.5517
 11
425.015
 21
-27.4285
  0
LINE
  8
0
 10
425.015
 20
-27.4285
 11
425.115
 21
-27.2857
  0
LINE
  8
0
 10
425.115
 20
-27.2857
 11
425.188
 21
-27.1277
  0
LINE
  8
0
 10
425.188
 20
-27.1277
 11
425.233
 21
-26.9594
  0
LINE
  8
0
 10
425.233
 20
-26.9594
 11
425.249
 21
-26.7857
  0
LINE
  8
0
 10
425.249
 20
-26.7857
 11
425.96
 21
-16.6247
  0
LINE
  8
0
 10
425.96
 20
-16.6247
 11
433.134
 21
-20.0352
  0
LINE
  8
0
 10
433.134
 20
-20.0352
 11
434.074
 21
-40.1786
  0
LINE
  8
0
 10
434.074
 20
-40.1786
 11
434.089
 21
-40.3522
  0
LINE
  8
0
 10
434.089
 20
-40.3522
 11
434.134
 21
-40.5206
  0
LINE
  8
0
 10
434.134
 20
-40.5206
 11
434.208
 21
-40.6786
  0
LINE
  8
0
 10
434.208
 20
-40.6786
 11
434.308
 21
-40.8213
  0
LINE
  8
0
 10
434.308
 20
-40.8213
 11
434.431
 21
-40.9446
  0
LINE
  8
0
 10
434.431
 20
-40.9446
 11
434.574
 21
-41.0446
  0
LINE
  8
0
 10
434.574
 20
-41.0446
 11
434.732
 21
-41.1182
  0
LINE
  8
0
 10
434.732
 20
-41.1182
 11
434.9
 21
-41.1634
  0
LINE
  8
0
 10
434.9
 20
-41.1634
 11
435.074
 21
-41.1786
  0
LINE
  8
0
 10
435.074
 20
-41.1786
 11
435.248
 21
-41.1634
  0
LINE
  8
0
 10
435.248
 20
-41.1634
 11
435.416
 21
-41.1182
  0
LINE
  8
0
 10
435.416
 20
-41.1182
 11
435.574
 21
-41.0446
  0
LINE
  8
0
 10
435.574
 20
-41.0446
 11
435.717
 21
-40.9446
  0
LINE
  8
0
 10
435.717
 20
-40.9446
 11
435.84
 21
-40.8213
  0
LINE
  8
0
 10
435.84
 20
-40.8213
 11
435.94
 21
-40.6786
  0
LINE
  8
0
 10
435.94
 20
-40.6786
 11
436.014
 21
-40.5206
  0
LINE
  8
0
 10
436.014
 20
-40.5206
 11
436.059
 21
-40.3522
  0
LINE
  8
0
 10
436.059
 20
-40.3522
 11
436.074
 21
-40.1786
  0
LINE
  8
0
 10
436.074
 20
-40.1786
 11
436.93
 21
-21.8397
  0
LINE
  8
0
 10
436.93
 20
-21.8397
 11
445.399
 21
-25.866
  0
LINE
  8
0
 10
445.399
 20
-25.866
 11
445.557
 21
-25.9397
  0
LINE
  8
0
 10
445.557
 20
-25.9397
 11
445.726
 21
-25.9848
  0
LINE
  8
0
 10
445.726
 20
-25.9848
 11
445.899
 21
-26
  0
LINE
  8
0
 10
445.899
 20
-26
 11
446.073
 21
-25.9848
  0
LINE
  8
0
 10
446.073
 20
-25.9848
 11
446.241
 21
-25.9397
  0
LINE
  8
0
 10
446.241
 20
-25.9397
 11
446.399
 21
-25.866
  0
LINE
  8
0
 10
446.399
 20
-25.866
 11
446.542
 21
-25.766
  0
LINE
  8
0
 10
446.542
 20
-25.766
 11
446.665
 21
-25.6428
  0
LINE
  8
0
 10
446.665
 20
-25.6428
 11
446.765
 21
-25.5
  0
LINE
  8
0
 10
446.765
 20
-25.5
 11
446.839
 21
-25.342
  0
LINE
  8
0
 10
446.839
 20
-25.342
 11
446.884
 21
-25.1736
  0
LINE
  8
0
 10
446.884
 20
-25.1736
 11
446.899
 21
-25
  0
LINE
  8
0
 10
446.899
 20
-25
 11
446.884
 21
-24.8264
  0
LINE
  8
0
 10
446.884
 20
-24.8264
 11
446.839
 21
-24.658
  0
LINE
  8
0
 10
446.839
 20
-24.658
 11
446.765
 21
-24.5
  0
LINE
  8
0
 10
446.765
 20
-24.5
 11
446.665
 21
-24.3572
  0
LINE
  8
0
 10
446.665
 20
-24.3572
 11
446.542
 21
-24.2339
  0
LINE
  8
0
 10
446.542
 20
-24.2339
 11
446.399
 21
-24.134
  0
LINE
  8
0
 10
446.399
 20
-24.134
 11
438.678
 21
-18.8123
  0
LINE
  8
0
 10
438.678
 20
-18.8123
 11
454.132
 21
-8.90173
  0
LINE
  8
0
 10
454.132
 20
-8.90173
 11
454.274
 21
-8.80176
  0
LINE
  8
0
 10
454.274
 20
-8.80176
 11
454.398
 21
-8.6785
  0
LINE
  8
0
 10
454.398
 20
-8.6785
 11
454.498
 21
-8.53571
  0
LINE
  8
0
 10
454.498
 20
-8.53571
 11
454.571
 21
-8.37773
  0
LINE
  8
0
 10
454.571
 20
-8.37773
 11
454.617
 21
-8.20935
  0
LINE
  8
0
 10
454.617
 20
-8.20935
 11
454.632
 21
-8.03571
  0
LINE
  8
0
 10
454.632
 20
-8.03571
 11
454.617
 21
-7.86206
  0
LINE
  8
0
 10
454.617
 20
-7.86206
 11
454.571
 21
-7.69368
  0
LINE
  8
0
 10
454.571
 20
-7.69368
 11
454.498
 21
-7.53571
  0
LINE
  8
0
 10
454.498
 20
-7.53571
 11
454.398
 21
-7.39293
  0
LINE
  8
0
 10
454.398
 20
-7.39293
 11
454.274
 21
-7.26967
  0
LINE
  8
0
 10
454.274
 20
-7.26967
 11
454.132
 21
-7.16969
  0
LINE
  8
0
 10
454.132
 20
-7.16969
 11
453.974
 21
-7.09602
  0
LINE
  8
0
 10
453.974
 20
-7.09602
 11
453.805
 21
-7.0509
  0
LINE
  8
0
 10
453.805
 20
-7.0509
 11
453.632
 21
-7.03571
  0
LINE
  8
0
 10
453.632
 20
-7.03571
 11
453.458
 21
-7.05089
  0
LINE
  8
0
 10
453.458
 20
-7.05089
 11
453.29
 21
-7.09601
  0
LINE
  8
0
 10
453.29
 20
-7.09601
 11
453.132
 21
-7.16968
  0
LINE
  8
0
 10
453.132
 20
-7.16968
 11
435.217
 21
-16.4273
  0
LINE
  8
0
 10
435.217
 20
-16.4273
 11
428.676
 21
-11.9196
  0
LINE
  8
0
 10
428.676
 20
-11.9196
 11
437.12
 21
-6.22318
  0
LINE
  8
0
 10
437.12
 20
-6.22318
 11
437.263
 21
-6.12317
  0
LINE
  8
0
 10
437.263
 20
-6.12317
 11
437.387
 21
-5.99992
  0
LINE
  8
0
 10
437.387
 20
-5.99992
 11
437.486
 21
-5.85715
  0
LINE
  8
0
 10
437.486
 20
-5.85715
 11
437.56
 21
-5.69916
  0
LINE
  8
0
 10
437.56
 20
-5.69916
 11
437.605
 21
-5.53078
  0
LINE
  8
0
 10
437.605
 20
-5.53078
 11
437.62
 21
-5.35715
  0
LINE
  8
0
 10
437.62
 20
-5.35715
 11
437.605
 21
-5.18349
  0
LINE
  8
0
 10
437.605
 20
-5.18349
 11
437.56
 21
-5.01512
  0
LINE
  8
0
 10
437.56
 20
-5.01512
 11
437.487
 21
-4.85715
  0
LINE
  8
0
 10
437.487
 20
-4.85715
 11
437.387
 21
-4.71434
  0
LINE
  8
0
 10
437.387
 20
-4.71434
 11
437.263
 21
-4.59109
  0
LINE
  8
0
 10
437.263
 20
-4.59109
 11
437.12
 21
-4.49112
  0
LINE
  8
0
 10
437.12
 20
-4.49112
 11
436.963
 21
-4.41745
  0
LINE
  8
0
 10
436.963
 20
-4.41745
 11
436.794
 21
-4.37233
  0
LINE
  8
0
 10
436.794
 20
-4.37233
 11
436.62
 21
-4.35715
  0
LINE
  8
0
 10
436.62
 20
-4.35715
 11
436.447
 21
-4.37233
  0
LINE
  8
0
 10
436.447
 20
-4.37233
 11
436.278
 21
-4.41745
  0
LINE
  8
0
 10
436.278
 20
-4.41745
 11
436.12
 21
-4.49112
  0
LINE
  8
0
 10
436.12
 20
-4.49112
 11
425.449
 21
-9.69516
  0
LINE
  8
0
 10
425.449
 20
-9.69516
 11
418.438
 21
-4.86378
  0
LINE
  8
0
 10
418.438
 20
-4.86378
 11
420.252
 21
-3.44461
  0
LINE
  8
0
 10
420.252
 20
-3.44461
 11
420.375
 21
-3.32135
  0
LINE
  8
0
 10
420.375
 20
-3.32135
 11
420.475
 21
-3.17857
  0
LINE
  8
0
 10
420.475
 20
-3.17857
 11
420.549
 21
-3.02058
  0
LINE
  8
0
 10
420.549
 20
-3.02058
 11
420.594
 21
-2.85222
  0
LINE
  8
0
 10
420.594
 20
-2.85222
 11
420.609
 21
-2.67857
  0
LINE
  8
0
 10
420.609
 20
-2.67857
 11
420.594
 21
-2.50491
  0
LINE
  8
0
 10
420.594
 20
-2.50491
 11
420.549
 21
-2.33655
  0
LINE
  8
0
 10
420.549
 20
-2.33655
 11
420.475
 21
-2.17857
  0
LINE
  8
0
 10
420.475
 20
-2.17857
 11
420.375
 21
-2.03578
  0
LINE
  8
0
 10
420.375
 20
-2.03578
 11
420.252
 21
-1.91252
  0
LINE
  8
0
 10
420.252
 20
-1.91252
 11
420.109
 21
-1.81255
  0
LINE
  8
0
 10
420.109
 20
-1.81255
 11
419.951
 21
-1.73886
  0
LINE
  8
0
 10
419.951
 20
-1.73886
 11
419.783
 21
-1.69376
  0
LINE
  8
0
 10
419.783
 20
-1.69376
 11
419.609
 21
-1.67857
  0
LINE
  8
0
 10
419.609
 20
-1.67857
 11
419.436
 21
-1.69376
  0
LINE
  8
0
 10
419.436
 20
-1.69376
 11
419.267
 21
-1.73888
  0
LINE
  8
0
 10
419.267
 20
-1.73888
 11
415.884
 21
-3.10303
  0
LINE
  8
0
 10
415.884
 20
-3.10303
 11
411.381
 21
0
  0
LINE
  8
0
 10
411.381
 20
0
 11
415.884
 21
3.10303
  0
LINE
  8
0
 10
415.884
 20
3.10303
 11
419.267
 21
1.73888
  0
LINE
  8
0
 10
419.267
 20
1.73888
 11
419.436
 21
1.69376
  0
LINE
  8
0
 10
419.436
 20
1.69376
 11
419.609
 21
1.67857
  0
LINE
  8
0
 10
419.609
 20
1.67857
 11
419.783
 21
1.69376
  0
LINE
  8
0
 10
419.783
 20
1.69376
 11
419.951
 21
1.73886
  0
LINE
  8
0
 10
419.951
 20
1.73886
 11
420.109
 21
1.81255
  0
LINE
  8
0
 10
420.109
 20
1.81255
 11
420.252
 21
1.91252
  0
LINE
  8
0
 10
420.252
 20
1.91252
 11
420.375
 21
2.03578
  0
LINE
  8
0
 10
420.375
 20
2.03578
 11
420.475
 21
2.17857
  0
LINE
  8
0
 10
420.475
 20
2.17857
 11
420.549
 21
2.33655
  0
LINE
  8
0
 10
420.549
 20
2.33655
 11
420.594
 21
2.50491
  0
LINE
  8
0
 10
420.594
 20
2.50491
 11
420.609
 21
2.67857
  0
LINE
  8
0
 10
420.609
 20
2.67857
 11
420.594
 21
2.85222
  0
LINE
  8
0
 10
420.594
 20
2.85222
 11
420.549
 21
3.02058
  0
LINE
  8
0
 10
420.549
 20
3.02058
 11
420.475
 21
3.17857
  0
LINE
  8
0
 10
420.475
 20
3.17857
 11
420.375
 21
3.32135
  0
LINE
  8
0
 10
420.375
 20
3.32135
 11
420.252
 21
3.44461
  0
LINE
  8
0
 10
420.252
 20
3.44461
 11
418.438
 21
4.86378
  0
LINE
  8
0
 10
418.438
 20
4.86378
 11
425.449
 21
9.69516
  0
LINE
  8
0
 10
425.449
 20
9.69516
 11
436.12
 21
4.49112
  0
LINE
  8
0
 10
436.12
 20
4.49112
 11
436.278
 21
4.41745
  0
LINE
  8
0
 10
436.278
 20
4.41745
 11
436.447
 21
4.37233
  0
LINE
  8
0
 10
436.447
 20
4.37233
 11
436.62
 21
4.35715
  0
LINE
  8
0
 10
436.62
 20
4.35715
 11
436.794
 21
4.37233
  0
LINE
  8
0
 10
436.794
 20
4.37233
 11
436.963
 21
4.41745
  0
LINE
  8
0
 10
436.963
 20
4.41745
 11
437.12
 21
4.49112
  0
LINE
  8
0
 10
437.12
 20
4.49112
 11
437.263
 21
4.59109
  0
LINE
  8
0
 10
437.263
 20
4.59109
 11
437.387
 21
4.71434
  0
LINE
  8
0
 10
437.387
 20
4.71434
 11
437.487
 21
4.85715
  0
LINE
  8
0
 10
437.487
 20
4.85715
 11
437.56
 21
5.01512
  0
LINE
  8
0
 10
437.56
 20
5.01512
 11
437.605
 21
5.18349
  0
LINE
  8
0
 10
437.605
 20
5.18349
 11
437.62
 21
5.35715
  0
LINE
  8
0
 10
437.62
 20
5.35715
 11
437.605
 21
5.53078
  0
LINE
  8
0
 10
437.605
 20
5.53078
 11
437.56
 21
5.69916
  0
LINE
  8
0
 10
437.56
 20
5.69916
 11
437.486
 21
5.85715
  0
LINE
  8
0
 10
437.486
 20
5.85715
 11
437.387
 21
5.99992
  0
LINE
  8
0
 10
437.387
 20
5.99992
 11
437.263
 21
6.12317
  0
LINE
  8
0
 10
437.263
 20
6.12317
 11
437.12
 21
6.22318
  0
LINE
  8
0
 10
437.12
 20
6.22318
 11
428.676
 21
11.9196
  0
LINE
  8
0
 10
428.676
 20
11.9196
 11
435.217
 21
16.4273
  0
LINE
  8
0
 10
435.217
 20
16.4273
 11
453.132
 21
7.16968
  0
LINE
  8
0
 10
453.132
 20
7.16968
 11
453.29
 21
7.09601
  0
LINE
  8
0
 10
453.29
 20
7.09601
 11
453.458
 21
7.05089
  0
LINE
  8
0
 10
453.458
 20
7.05089
 11
453.632
 21
7.03571
  0
LINE
  8
0
 10
453.632
 20
7.03571
 11
453.805
 21
7.0509
  0
LINE
  8
0
 10
453.805
 20
7.0509
 11
453.974
 21
7.09602
  0
LINE
  8
0
 10
453.974
 20
7.09602
 11
454.132
 21
7.16969
  0
LINE
  8
0
 10
454.132
 20
7.16969
 11
454.274
 21
7.26967
  0
LINE
  8
0
 10
454.274
 20
7.26967
 11
454.398
 21
7.39293
  0
LINE
  8
0
 10
454.398
 20
7.39293
 11
454.498
 21
7.53571
  0
LINE
  8
0
 10
454.498
 20
7.53571
 11
454.571
 21
7.69368
  0
LINE
  8
0
 10
454.571
 20
7.69368
 11
454.617
 21
7.86206
  0
LINE
  8
0
 10
454.617
 20
7.86206
 11
454.632
 21
8.03571
  0
LINE
  8
0
 10
454.632
 20
8.03571
 11
454.617
 21
8.20935
  0
LINE
  8
0
 10
454.617
 20
8.20935
 11
454.571
 21
8.37773
  0
LINE
  8
0
 10
454.571
 20
8.37773
 11
454.498
 21
8.53571
  0
LINE
  8
0
 10
454.498
 20
8.53571
 11
454.398
 21
8.6785
  0
LINE
  8
0
 10
454.398
 20
8.6785
 11
454.274
 21
8.80176
  0
LINE
  8
0
 10
454.274
 20
8.80176
 11
454.132
 21
8.90173
  0
LINE
  8
0
 10
454.132
 20
8.90173
 11
438.678
 21
18.8123
  0
LINE
  8
0
 10
438.678
 20
18.8123
 11
446.399
 21
24.134
  0
LINE
  8
0
 10
446.399
 20
24.134
 11
446.542
 21
24.2339
  0
LINE
  8
0
 10
446.542
 20
24.2339
 11
446.665
 21
24.3572
  0
LINE
  8
0
 10
446.665
 20
24.3572
 11
446.765
 21
24.5
  0
LINE
  8
0
 10
446.765
 20
24.5
 11
446.839
 21
24.658
  0
LINE
  8
0
 10
446.839
 20
24.658
 11
446.884
 21
24.8264
  0
LINE
  8
0
 10
446.884
 20
24.8264
 11
446.899
 21
25
  0
LINE
  8
0
 10
446.899
 20
25
 11
446.884
 21
25.1736
  0
LINE
  8
0
 10
446.884
 20
25.1736
 11
446.839
 21
25.342
  0
LINE
  8
0
 10
446.839
 20
25.342
 11
446.765
 21
25.5
  0
LINE
  8
0
 10
446.765
 20
25.5
 11
446.665
 21
25.6428
  0
LINE
  8
0
 10
446.665
 20
25.6428
 11
446.542
 21
25.766
  0
LINE
  8
0
 10
446.542
 20
25.766
 11
446.399
 21
25.866
  0
LINE
  8
0
 10
446.399
 20
25.866
 11
446.241
 21
25.9397
  0
LINE
  8
0
 10
446.241
 20
25.9397
 11
446.073
 21
25.9848
  0
LINE
  8
0
 10
446.073
 20
25.9848
 11
445.899
 21
26
  0
LINE
  8
0
 10
445.899
 20
26
 11
445.726
 21
25.9848
  0
LINE
  8
0
 10
445.726
 20
25.9848
 11
445.557
 21
25.9397
  0
LINE
  8
0
 10
445.557
 20
25.9397
 11
445.399
 21
25.866
  0
LINE
  8
0
 10
445.399
 20
25.866
 11
436.93
 21
21.8397
  0
LINE
  8
0
 10
436.93
 20
21.8397
 11
436.074
 21
40.1786
  0
LINE
  8
0
 10
436.074
 20
40.1786
 11
436.059
 21
40.3522
  0
LINE
  8
0
 10
436.059
 20
40.3522
 11
436.014
 21
40.5206
  0
LINE
  8
0
 10
436.014
 20
40.5206
 11
435.94
 21
40.6786
  0
LINE
  8
0
 10
435.94
 20
40.6786
 11
435.84
 21
40.8213
  0
LINE
  8
0
 10
435.84
 20
40.8213
 11
435.717
 21
40.9446
  0
LINE
  8
0
 10
435.717
 20
40.9446
 11
435.574
 21
41.0446
  0
LINE
  8
0
 10
435.574
 20
41.0446
 11
435.416
 21
41.1182
  0
LINE
  8
0
 10
435.416
 20
41.1182
 11
435.248
 21
41.1634
  0
LINE
  8
0
 10
435.248
 20
41.1634
 11
435.074
 21
41.1786
  0
LINE
  8
0
 10
435.074
 20
41.1786
 11
434.9
 21
41.1634
  0
LINE
  8
0
 10
434.9
 20
41.1634
 11
434.732
 21
41.1182
  0
LINE
  8
0
 10
434.732
 20
41.1182
 11
434.574
 21
41.0446
  0
LINE
  8
0
 10
434.574
 20
41.0446
 11
434.431
 21
40.9446
  0
LINE
  8
0
 10
434.431
 20
40.9446
 11
434.308
 21
40.8213
  0
LINE
  8
0
 10
434.308
 20
40.8213
 11
434.208
 21
40.6786
  0
LINE
  8
0
 10
434.208
 20
40.6786
 11
434.134
 21
40.5206
  0
LINE
  8
0
 10
434.134
 20
40.5206
 11
434.089
 21
40.3522
  0
LINE
  8
0
 10
434.089
 20
40.3522
 11
434.074
 21
40.1786
  0
LINE
  8
0
 10
434.074
 20
40.1786
 11
433.134
 21
20.0352
  0
LINE
  8
0
 10
433.134
 20
20.0352
 11
425.96
 21
16.6247
  0
LINE
  8
0
 10
425.96
 20
16.6247
 11
425.249
 21
26.7857
  0
LINE
  8
0
 10
425.249
 20
26.7857
 11
425.233
 21
26.9594
  0
LINE
  8
0
 10
425.233
 20
26.9594
 11
425.188
 21
27.1277
  0
LINE
  8
0
 10
425.188
 20
27.1277
 11
425.115
 21
27.2857
  0
LINE
  8
0
 10
425.115
 20
27.2857
 11
425.015
 21
27.4285
  0
LINE
  8
0
 10
425.015
 20
27.4285
 11
424.891
 21
27.5517
  0
LINE
  8
0
 10
424.891
 20
27.5517
 11
424.749
 21
27.6517
  0
LINE
  8
0
 10
424.749
 20
27.6517
 11
424.591
 21
27.7254
  0
LINE
  8
0
 10
424.591
 20
27.7254
 11
424.422
 21
27.7705
  0
LINE
  8
0
 10
424.422
 20
27.7705
 11
424.249
 21
27.7857
  0
LINE
  8
0
 10
424.249
 20
27.7857
 11
424.075
 21
27.7705
  0
LINE
  8
0
 10
424.075
 20
27.7705
 11
423.907
 21
27.7254
  0
LINE
  8
0
 10
423.907
 20
27.7254
 11
423.749
 21
27.6517
  0
LINE
  8
0
 10
423.749
 20
27.6517
 11
423.606
 21
27.5517
  0
LINE
  8
0
 10
423.606
 20
27.5517
 11
423.483
 21
27.4285
  0
LINE
  8
0
 10
423.483
 20
27.4285
 11
423.383
 21
27.2857
  0
LINE
  8
0
 10
423.383
 20
27.2857
 11
423.309
 21
27.1277
  0
LINE
  8
0
 10
423.309
 20
27.1277
 11
423.264
 21
26.9593
  0
LINE
  8
0
 10
423.264
 20
26.9593
 11
423.249
 21
26.7857
  0
LINE
  8
0
 10
423.249
 20
26.7857
 11
422.42
 21
14.9416
  0
LINE
  8
0
 10
422.42
 20
14.9416
 11
414.73
 21
11.2862
  0
LINE
  8
0
 10
414.73
 20
11.2862
 11
414.408
 21
13.5665
  0
LINE
  8
0
 10
414.408
 20
13.5665
 11
414.363
 21
13.7349
  0
LINE
  8
0
 10
414.363
 20
13.7349
 11
414.289
 21
13.8928
  0
LINE
  8
0
 10
414.289
 20
13.8928
 11
414.189
 21
14.0356
  0
LINE
  8
0
 10
414.189
 20
14.0356
 11
414.066
 21
14.1589
  0
LINE
  8
0
 10
414.066
 20
14.1589
 11
413.923
 21
14.2589
  0
LINE
  8
0
 10
413.923
 20
14.2589
 11
413.765
 21
14.3325
  0
LINE
  8
0
 10
413.765
 20
14.3325
 11
413.597
 21
14.3776
  0
LINE
  8
0
 10
413.597
 20
14.3776
 11
413.423
 21
14.3928
  0
LINE
  8
0
 10
413.423
 20
14.3928
 11
413.25
 21
14.3776
  0
LINE
  8
0
 10
413.25
 20
14.3776
 11
413.081
 21
14.3325
  0
LINE
  8
0
 10
413.081
 20
14.3325
 11
412.923
 21
14.2589
  0
LINE
  8
0
 10
412.923
 20
14.2589
 11
412.781
 21
14.1589
  0
LINE
  8
0
 10
412.781
 20
14.1589
 11
412.657
 21
14.0356
  0
LINE
  8
0
 10
412.657
 20
14.0356
 11
412.557
 21
13.8928
  0
LINE
  8
0
 10
412.557
 20
13.8928
 11
412.484
 21
13.7349
  0
LINE
  8
0
 10
412.484
 20
13.7349
 11
412.439
 21
13.5665
  0
LINE
  8
0
 10
412.439
 20
13.5665
 11
411.928
 21
9.95404
  0
LINE
  8
0
 10
411.928
 20
9.95404
 11
406.99
 21
7.60629
  0
LINE
  8
0
 10
406.99
 20
7.60629
 11
406.553
 21
13.0571
  0
LINE
  8
0
 10
406.553
 20
13.0571
 11
409.427
 21
15.3054
  0
LINE
  8
0
 10
409.427
 20
15.3054
 11
409.55
 21
15.4286
  0
LINE
  8
0
 10
409.55
 20
15.4286
 11
409.65
 21
15.5714
  0
LINE
  8
0
 10
409.65
 20
15.5714
 11
409.724
 21
15.7294
  0
LINE
  8
0
 10
409.724
 20
15.7294
 11
409.769
 21
15.8978
  0
LINE
  8
0
 10
409.769
 20
15.8978
 11
409.784
 21
16.0714
  0
LINE
  8
0
 10
409.784
 20
16.0714
 11
409.769
 21
16.2451
  0
LINE
  8
0
 10
409.769
 20
16.2451
 11
409.724
 21
16.4134
  0
LINE
  8
0
 10
409.724
 20
16.4134
 11
409.65
 21
16.5714
  0
LINE
  8
0
 10
409.65
 20
16.5714
 11
409.55
 21
16.7142
  0
LINE
  8
0
 10
409.55
 20
16.7142
 11
409.427
 21
16.8375
  0
LINE
  8
0
 10
409.427
 20
16.8375
 11
409.284
 21
16.9374
  0
LINE
  8
0
 10
409.284
 20
16.9374
 11
409.126
 21
17.0111
  0
LINE
  8
0
 10
409.126
 20
17.0111
 11
408.958
 21
17.0562
  0
LINE
  8
0
 10
408.958
 20
17.0562
 11
408.784
 21
17.0714
  0
LINE
  8
0
 10
408.784
 20
17.0714
 11
408.61
 21
17.0562
  0
LINE
  8
0
 10
408.61
 20
17.0562
 11
408.442
 21
17.0111
  0
LINE
  8
0
 10
408.442
 20
17.0111
 11
406.306
 21
16.15
  0
LINE
  8
0
 10
406.306
 20
16.15
 11
405.627
 21
24.6368
  0
LINE
  8
0
 10
405.627
 20
24.6368
 11
415.47
 21
31.2768
  0
LINE
  8
0
 10
415.47
 20
31.2768
 11
415.613
 21
31.3768
  0
LINE
  8
0
 10
415.613
 20
31.3768
 11
415.736
 21
31.5001
  0
LINE
  8
0
 10
415.736
 20
31.5001
 11
415.836
 21
31.6429
  0
LINE
  8
0
 10
415.836
 20
31.6429
 11
415.91
 21
31.8008
  0
LINE
  8
0
 10
415.91
 20
31.8008
 11
415.955
 21
31.9692
  0
LINE
  8
0
 10
415.955
 20
31.9692
 11
415.97
 21
32.1429
  0
LINE
  8
0
 10
415.97
 20
32.1429
 11
415.955
 21
32.3165
  0
LINE
  8
0
 10
415.955
 20
32.3165
 11
415.91
 21
32.4849
  0
LINE
  8
0
 10
415.91
 20
32.4849
 11
415.836
 21
32.6429
  0
LINE
  8
0
 10
415.836
 20
32.6429
 11
415.736
 21
32.7856
  0
LINE
  8
0
 10
415.736
 20
32.7856
 11
415.613
 21
32.9089
  0
LINE
  8
0
 10
415.613
 20
32.9089
 11
415.47
 21
33.0089
  0
LINE
  8
0
 10
415.47
 20
33.0089
 11
415.312
 21
33.0825
  0
LINE
  8
0
 10
415.312
 20
33.0825
 11
415.143
 21
33.1277
  0
LINE
  8
0
 10
415.143
 20
33.1277
 11
414.97
 21
33.1429
  0
LINE
  8
0
 10
414.97
 20
33.1429
 11
414.796
 21
33.1277
  0
LINE
  8
0
 10
414.796
 20
33.1277
 11
414.628
 21
33.0825
  0
LINE
  8
0
 10
414.628
 20
33.0825
 11
414.47
 21
33.0089
  0
LINE
  8
0
 10
414.47
 20
33.0089
 11
405.315
 21
28.5443
  0
LINE
  8
0
 10
405.315
 20
28.5443
 11
404.681
 21
36.4625
  0
LINE
  8
0
 10
404.681
 20
36.4625
 11
421.656
 21
47.3483
  0
LINE
  8
0
 10
421.656
 20
47.3483
 11
421.799
 21
47.4482
  0
LINE
  8
0
 10
421.799
 20
47.4482
 11
421.922
 21
47.5715
  0
LINE
  8
0
 10
421.922
 20
47.5715
 11
422.022
 21
47.7143
  0
LINE
  8
0
 10
422.022
 20
47.7143
 11
422.095
 21
47.8723
  0
LINE
  8
0
 10
422.095
 20
47.8723
 11
422.141
 21
48.0406
  0
LINE
  8
0
 10
422.141
 20
48.0406
 11
422.156
 21
48.2143
  0
LINE
  8
0
 10
422.156
 20
48.2143
 11
422.141
 21
48.3879
  0
LINE
  8
0
 10
422.141
 20
48.3879
 11
422.095
 21
48.5563
  0
LINE
  8
0
 10
422.095
 20
48.5563
 11
422.022
 21
48.7143
  0
LINE
  8
0
 10
422.022
 20
48.7143
 11
421.922
 21
48.8571
  0
LINE
  8
0
 10
421.922
 20
48.8571
 11
421.799
 21
48.9803
  0
LINE
  8
0
 10
421.799
 20
48.9803
 11
421.656
 21
49.0803
  0
LINE
  8
0
 10
421.656
 20
49.0803
 11
421.498
 21
49.154
  0
LINE
  8
0
 10
421.498
 20
49.154
 11
421.329
 21
49.1991
  0
LINE
  8
0
 10
421.329
 20
49.1991
 11
421.156
 21
49.2143
  0
LINE
  8
0
 10
421.156
 20
49.2143
 11
420.982
 21
49.1991
  0
LINE
  8
0
 10
420.982
 20
49.1991
 11
420.814
 21
49.154
  0
LINE
  8
0
 10
420.814
 20
49.154
 11
420.656
 21
49.0803
  0
LINE
  8
0
 10
420.656
 20
49.0803
 11
404.346
 21
40.652
  0
LINE
  8
0
 10
404.346
 20
40.652
 11
403.598
 21
50
  0
LINE
  8
0
 10
403.598
 20
50
 11
403.583
 21
50.1736
  0
LINE
  8
0
 10
403.583
 20
50.1736
 11
403.538
 21
50.342
  0
LINE
  8
0
 10
403.538
 20
50.342
 11
403.464
 21
50.5
  0
LINE
  8
0
 10
403.464
 20
50.5
 11
403.364
 21
50.6428
  0
LINE
  8
0
 10
403.364
 20
50.6428
 11
403.241
 21
50.766
  0
LINE
  8
0
 10
403.241
 20
50.766
 11
403.098
 21
50.866
  0
LINE
  8
0
 10
403.098
 20
50.866
 11
402.94
 21
50.9397
  0
LINE
  8
0
 10
402.94
 20
50.9397
 11
402.772
 21
50.9848
  0
LINE
  8
0
 10
402.772
 20
50.9848
 11
402.598
 21
51
  0
LINE
  8
0
 10
402.598
 20
51
 11
402.598
 21
50
  0
LINE
  8
0
 10
402.598
 20
50
 11
397.402
 21
50
  0
LINE
  8
0
 10
397.402
 20
50
 11
397.402
 21
51
  0
LINE
  8
0
 10
397.402
 20
51
 11
397.228
 21
50.9848
  0
LINE
  8
0
 10
397.228
 20
50.9848
 11
397.06
 21
50.9397
  0
LINE
  8
0
 10
397.06
 20
50.9397
 11
396.902
 21
50.866
  0
LINE
  8
0
 10
396.902
 20
50.866
 11
396.759
 21
50.766
  0
LINE
  8
0
 10
396.759
 20
50.766
 11
396.636
 21
50.6428
  0
LINE
  8
0
 10
396.636
 20
50.6428
 11
396.536
 21
50.5
  0
LINE
  8
0
 10
396.536
 20
50.5
 11
396.462
 21
50.342
  0
LINE
  8
0
 10
396.462
 20
50.342
 11
396.417
 21
50.1736
  0
LINE
  8
0
 10
396.417
 20
50.1736
 11
396.402
 21
50
  0
LINE
  8
0
 10
396.402
 20
50
 11
395.654
 21
40.652
  0
LINE
  8
0
 10
395.654
 20
40.652
 11
379.344
 21
49.0803
  0
LINE
  8
0
 10
379.344
 20
49.0803
 11
379.186
 21
49.154
  0
LINE
  8
0
 10
379.186
 20
49.154
 11
379.018
 21
49.1991
  0
LINE
  8
0
 10
379.018
 20
49.1991
 11
378.844
 21
49.2143
  0
LINE
  8
0
 10
378.844
 20
49.2143
 11
378.671
 21
49.1991
  0
LINE
  8
0
 10
378.671
 20
49.1991
 11
378.502
 21
49.154
  0
LINE
  8
0
 10
378.502
 20
49.154
 11
378.344
 21
49.0803
  0
LINE
  8
0
 10
378.344
 20
49.0803
 11
378.201
 21
48.9803
  0
LINE
  8
0
 10
378.201
 20
48.9803
 11
378.078
 21
48.8571
  0
LINE
  8
0
 10
378.078
 20
48.8571
 11
377.978
 21
48.7143
  0
LINE
  8
0
 10
377.978
 20
48.7143
 11
377.905
 21
48.5563
  0
LINE
  8
0
 10
377.905
 20
48.5563
 11
377.859
 21
48.3879
  0
LINE
  8
0
 10
377.859
 20
48.3879
 11
377.844
 21
48.2143
  0
LINE
  8
0
 10
377.844
 20
48.2143
 11
377.859
 21
48.0406
  0
LINE
  8
0
 10
377.859
 20
48.0406
 11
377.905
 21
47.8723
  0
LINE
  8
0
 10
377.905
 20
47.8723
 11
377.978
 21
47.7143
  0
LINE
  8
0
 10
377.978
 20
47.7143
 11
378.078
 21
47.5715
  0
LINE
  8
0
 10
378.078
 20
47.5715
 11
378.201
 21
47.4482
  0
LINE
  8
0
 10
378.201
 20
47.4482
 11
378.344
 21
47.3483
  0
LINE
  8
0
 10
378.344
 20
47.3483
 11
395.319
 21
36.4625
  0
LINE
  8
0
 10
395.319
 20
36.4625
 11
394.685
 21
28.5443
  0
LINE
  8
0
 10
394.685
 20
28.5443
 11
385.53
 21
33.0089
  0
LINE
  8
0
 10
385.53
 20
33.0089
 11
385.372
 21
33.0825
  0
LINE
  8
0
 10
385.372
 20
33.0825
 11
385.204
 21
33.1277
  0
LINE
  8
0
 10
385.204
 20
33.1277
 11
385.03
 21
33.1429
  0
LINE
  8
0
 10
385.03
 20
33.1429
 11
384.857
 21
33.1277
  0
LINE
  8
0
 10
384.857
 20
33.1277
 11
384.688
 21
33.0825
  0
LINE
  8
0
 10
384.688
 20
33.0825
 11
384.53
 21
33.0089
  0
LINE
  8
0
 10
384.53
 20
33.0089
 11
384.387
 21
32.9089
  0
LINE
  8
0
 10
384.387
 20
32.9089
 11
384.264
 21
32.7856
  0
LINE
  8
0
 10
384.264
 20
32.7856
 11
384.164
 21
32.6429
  0
LINE
  8
0
 10
384.164
 20
32.6429
 11
384.09
 21
32.4849
  0
LINE
  8
0
 10
384.09
 20
32.4849
 11
384.045
 21
32.3165
  0
LINE
  8
0
 10
384.045
 20
32.3165
 11
384.03
 21
32.1429
  0
LINE
  8
0
 10
384.03
 20
32.1429
 11
384.045
 21
31.9692
  0
LINE
  8
0
 10
384.045
 20
31.9692
 11
384.09
 21
31.8008
  0
LINE
  8
0
 10
384.09
 20
31.8008
 11
384.164
 21
31.6429
  0
LINE
  8
0
 10
384.164
 20
31.6429
 11
384.264
 21
31.5001
  0
LINE
  8
0
 10
384.264
 20
31.5001
 11
384.387
 21
31.3768
  0
LINE
  8
0
 10
384.387
 20
31.3768
 11
384.53
 21
31.2768
  0
LINE
  8
0
 10
384.53
 20
31.2768
 11
394.373
 21
24.6368
  0
LINE
  8
0
 10
394.373
 20
24.6368
 11
393.694
 21
16.15
  0
LINE
  8
0
 10
393.694
 20
16.15
 11
391.558
 21
17.0111
  0
LINE
  8
0
 10
391.558
 20
17.0111
 11
391.39
 21
17.0562
  0
LINE
  8
0
 10
391.39
 20
17.0562
 11
391.216
 21
17.0714
  0
LINE
  8
0
 10
391.216
 20
17.0714
 11
391.042
 21
17.0562
  0
LINE
  8
0
 10
391.042
 20
17.0562
 11
390.874
 21
17.0111
  0
LINE
  8
0
 10
390.874
 20
17.0111
 11
390.716
 21
16.9374
  0
LINE
  8
0
 10
390.716
 20
16.9374
 11
390.573
 21
16.8375
  0
LINE
  8
0
 10
390.573
 20
16.8375
 11
390.45
 21
16.7142
  0
LINE
  8
0
 10
390.45
 20
16.7142
 11
390.35
 21
16.5714
  0
LINE
  8
0
 10
390.35
 20
16.5714
 11
390.276
 21
16.4134
  0
LINE
  8
0
 10
390.276
 20
16.4134
 11
390.231
 21
16.2451
  0
LINE
  8
0
 10
390.231
 20
16.2451
 11
390.216
 21
16.0714
  0
LINE
  8
0
 10
390.216
 20
16.0714
 11
390.231
 21
15.8978
  0
LINE
  8
0
 10
390.231
 20
15.8978
 11
390.276
 21
15.7294
  0
LINE
  8
0
 10
390.276
 20
15.7294
 11
390.35
 21
15.5714
  0
LINE
  8
0
 10
390.35
 20
15.5714
 11
390.45
 21
15.4286
  0
LINE
  8
0
 10
390.45
 20
15.4286
 11
390.573
 21
15.3054
  0
LINE
  8
0
 10
390.573
 20
15.3054
 11
393.447
 21
13.0571
  0
LINE
  8
0
 10
393.447
 20
13.0571
 11
393.01
 21
7.60629
  0
LINE
  8
0
 10
393.01
 20
7.60629
 11
388.072
 21
9.95404
  0
LINE
  8
0
 10
388.072
 20
9.95404
 11
387.561
 21
13.5665
  0
LINE
  8
0
 10
387.561
 20
13.5665
 11
387.516
 21
13.7349
  0
LINE
  8
0
 10
387.516
 20
13.7349
 11
387.443
 21
13.8928
  0
LINE
  8
0
 10
387.443
 20
13.8928
 11
387.343
 21
14.0356
  0
LINE
  8
0
 10
387.343
 20
14.0356
 11
387.219
 21
14.1589
  0
LINE
  8
0
 10
387.219
 20
14.1589
 11
387.077
 21
14.2589
  0
LINE
  8
0
 10
387.077
 20
14.2589
 11
386.919
 21
14.3325
  0
LINE
  8
0
 10
386.919
 20
14.3325
 11
386.75
 21
14.3776
  0
LINE
  8
0
 10
386.75
 20
14.3776
 11
386.577
 21
14.3928
  0
LINE
  8
0
 10
386.577
 20
14.3928
 11
386.403
 21
14.3776
  0
LINE
  8
0
 10
386.403
 20
14.3776
 11
386.235
 21
14.3325
  0
LINE
  8
0
 10
386.235
 20
14.3325
 11
386.077
 21
14.2589
  0
LINE
  8
0
 10
386.077
 20
14.2589
 11
385.934
 21
14.1589
  0
LINE
  8
0
 10
385.934
 20
14.1589
 11
385.811
 21
14.0356
  0
LINE
  8
0
 10
385.811
 20
14.0356
 11
385.711
 21
13.8928
  0
LINE
  8
0
 10
385.711
 20
13.8928
 11
385.637
 21
13.7349
  0
LINE
  8
0
 10
385.637
 20
13.7349
 11
385.592
 21
13.5665
  0
LINE
  8
0
 10
385.592
 20
13.5665
 11
385.27
 21
11.2862
  0
LINE
  8
0
 10
385.27
 20
11.2862
 11
377.58
 21
14.9416
  0
LINE
  8
0
 10
377.58
 20
14.9416
 11
376.751
 21
26.7857
  0
LINE
  8
0
 10
376.751
 20
26.7857
 11
376.736
 21
26.9593
  0
LINE
  8
0
 10
376.736
 20
26.9593
 11
376.691
 21
27.1277
  0
LINE
  8
0
 10
376.691
 20
27.1277
 11
376.617
 21
27.2857
  0
LINE
  8
0
 10
376.617
 20
27.2857
 11
376.517
 21
27.4285
  0
LINE
  8
0
 10
376.517
 20
27.4285
 11
376.394
 21
27.5517
  0
LINE
  8
0
 10
376.394
 20
27.5517
 11
376.251
 21
27.6517
  0
LINE
  8
0
 10
376.251
 20
27.6517
 11
376.093
 21
27.7254
  0
LINE
  8
0
 10
376.093
 20
27.7254
 11
375.925
 21
27.7705
  0
LINE
  8
0
 10
375.925
 20
27.7705
 11
375.751
 21
27.7857
  0
LINE
  8
0
 10
375.751
 20
27.7857
 11
375.578
 21
27.7705
  0
LINE
  8
0
 10
375.578
 20
27.7705
 11
375.409
 21
27.7254
  0
LINE
  8
0
 10
375.409
 20
27.7254
 11
375.251
 21
27.6517
  0
LINE
  8
0
 10
375.251
 20
27.6517
 11
375.109
 21
27.5517
  0
LINE
  8
0
 10
375.109
 20
27.5517
 11
374.985
 21
27.4285
  0
LINE
  8
0
 10
374.985
 20
27.4285
 11
374.885
 21
27.2857
  0
LINE
  8
0
 10
374.885
 20
27.2857
 11
374.812
 21
27.1277
  0
LINE
  8
0
 10
374.812
 20
27.1277
 11
374.767
 21
26.9594
  0
LINE
  8
0
 10
374.767
 20
26.9594
 11
374.751
 21
26.7857
  0
LINE
  8
0
 10
374.751
 20
26.7857
 11
374.04
 21
16.6247
  0
LINE
  8
0
 10
374.04
 20
16.6247
 11
366.866
 21
20.0352
  0
LINE
  8
0
 10
366.866
 20
20.0352
 11
365.926
 21
40.1786
  0
LINE
  8
0
 10
365.926
 20
40.1786
 11
365.911
 21
40.3522
  0
LINE
  8
0
 10
365.911
 20
40.3522
 11
365.866
 21
40.5206
  0
LINE
  8
0
 10
365.866
 20
40.5206
 11
365.792
 21
40.6786
  0
LINE
  8
0
 10
365.792
 20
40.6786
 11
365.692
 21
40.8213
  0
LINE
  8
0
 10
365.692
 20
40.8213
 11
365.569
 21
40.9446
  0
LINE
  8
0
 10
365.569
 20
40.9446
 11
365.426
 21
41.0446
  0
LINE
  8
0
 10
365.426
 20
41.0446
 11
365.268
 21
41.1182
  0
LINE
  8
0
 10
365.268
 20
41.1182
 11
365.1
 21
41.1634
  0
LINE
  8
0
 10
365.1
 20
41.1634
 11
364.926
 21
41.1786
  0
LINE
  8
0
 10
364.926
 20
41.1786
 11
364.752
 21
41.1634
  0
LINE
  8
0
 10
364.752
 20
41.1634
 11
364.584
 21
41.1182
  0
LINE
  8
0
 10
364.584
 20
41.1182
 11
364.426
 21
41.0446
  0
LINE
  8
0
 10
364.426
 20
41.0446
 11
364.283
 21
40.9446
  0
LINE
  8
0
 10
364.283
 20
40.9446
 11
364.16
 21
40.8213
  0
LINE
  8
0
 10
364.16
 20
40.8213
 11
364.06
 21
40.6786
  0
LINE
  8
0
 10
364.06
 20
40.6786
 11
363.986
 21
40.5206
  0
LINE
  8
0
 10
363.986
 20
40.5206
 11
363.941
 21
40.3522
  0
LINE
  8
0
 10
363.941
 20
40.3522
 11
363.926
 21
40.1786
  0
LINE
  8
0
 10
363.926
 20
40.1786
 11
363.07
 21
21.8397
  0
LINE
  8
0
 10
363.07
 20
21.8397
 11
354.601
 21
25.866
  0
LINE
  8
0
 10
354.601
 20
25.866
 11
354.443
 21
25.9397
  0
LINE
  8
0
 10
354.443
 20
25.9397
 11
354.274
 21
25.9848
  0
LINE
  8
0
 10
354.274
 20
25.9848
 11
354.101
 21
26
  0
LINE
  8
0
 10
354.101
 20
26
 11
353.927
 21
25.9848
  0
LINE
  8
0
 10
353.927
 20
25.9848
 11
353.759
 21
25.9397
  0
LINE
  8
0
 10
353.759
 20
25.9397
 11
353.601
 21
25.866
  0
LINE
  8
0
 10
353.601
 20
25.866
 11
353.458
 21
25.766
  0
LINE
  8
0
 10
353.458
 20
25.766
 11
353.335
 21
25.6428
  0
LINE
  8
0
 10
353.335
 20
25.6428
 11
353.235
 21
25.5
  0
LINE
  8
0
 10
353.235
 20
25.5
 11
353.161
 21
25.342
  0
LINE
  8
0
 10
353.161
 20
25.342
 11
353.116
 21
25.1736
  0
LINE
  8
0
 10
353.116
 20
25.1736
 11
353.101
 21
25
  0
LINE
  8
0
 10
353.101
 20
25
 11
353.116
 21
24.8264
  0
LINE
  8
0
 10
353.116
 20
24.8264
 11
353.161
 21
24.658
  0
LINE
  8
0
 10
353.161
 20
24.658
 11
353.235
 21
24.5
  0
LINE
  8
0
 10
353.235
 20
24.5
 11
353.335
 21
24.3572
  0
LINE
  8
0
 10
353.335
 20
24.3572
 11
353.458
 21
24.2339
  0
LINE
  8
0
 10
353.458
 20
24.2339
 11
353.601
 21
24.134
  0
LINE
  8
0
 10
353.601
 20
24.134
 11
361.322
 21
18.8123
  0
LINE
  8
0
 10
361.322
 20
18.8123
 11
345.868
 21
8.90173
  0
LINE
  8
0
 10
345.868
 20
8.90173
 11
345.726
 21
8.80176
  0
LINE
  8
0
 10
345.726
 20
8.80176
 11
345.602
 21
8.6785
  0
LINE
  8
0
 10
345.602
 20
8.6785
 11
345.502
 21
8.53571
  0
LINE
  8
0
 10
345.502
 20
8.53571
 11
345.429
 21
8.37773
  0
LINE
  8
0
 10
345.429
 20
8.37773
 11
345.383
 21
8.20935
  0
LINE
  8
0
 10
345.383
 20
8.20935
 11
345.368
 21
8.03571
  0
LINE
  8
0
 10
345.368
 20
8.03571
 11
345.383
 21
7.86206
  0
LINE
  8
0
 10
345.383
 20
7.86206
 11
345.429
 21
7.69368
  0
LINE
  8
0
 10
345.429
 20
7.69368
 11
345.502
 21
7.53571
  0
LINE
  8
0
 10
345.502
 20
7.53571
 11
345.602
 21
7.39293
  0
LINE
  8
0
 10
345.602
 20
7.39293
 11
345.726
 21
7.26967
  0
LINE
  8
0
 10
345.726
 20
7.26967
 11
345.868
 21
7.16969
  0
LINE
  8
0
 10
345.868
 20
7.16969
 11
346.026
 21
7.09602
  0
LINE
  8
0
 10
346.026
 20
7.09602
 11
346.195
 21
7.0509
  0
LINE
  8
0
 10
346.195
 20
7.0509
 11
346.368
 21
7.03571
  0
LINE
  8
0
 10
346.368
 20
7.03571
 11
346.542
 21
7.05089
  0
LINE
  8
0
 10
346.542
 20
7.05089
 11
346.71
 21
7.09601
  0
LINE
  8
0
 10
346.71
 20
7.09601
 11
346.868
 21
7.16968
  0
LINE
  8
0
 10
346.868
 20
7.16968
 11
364.783
 21
16.4273
  0
LINE
  8
0
 10
364.783
 20
16.4273
 11
371.324
 21
11.9196
  0
LINE
  8
0
 10
371.324
 20
11.9196
 11
362.88
 21
6.22318
  0
LINE
  8
0
 10
362.88
 20
6.22318
 11
362.737
 21
6.12317
  0
LINE
  8
0
 10
362.737
 20
6.12317
 11
362.613
 21
5.99992
  0
LINE
  8
0
 10
362.613
 20
5.99992
 11
362.514
 21
5.85715
  0
LINE
  8
0
 10
362.514
 20
5.85715
 11
362.44
 21
5.69916
  0
LINE
  8
0
 10
362.44
 20
5.69916
 11
362.395
 21
5.53078
  0
LINE
  8
0
 10
362.395
 20
5.53078
 11
362.38
 21
5.35715
  0
LINE
  8
0
 10
362.38
 20
5.35715
 11
362.395
 21
5.18349
  0
LINE
  8
0
 10
362.395
 20
5.18349
 11
362.44
 21
5.01512
  0
LINE
  8
0
 10
362.44
 20
5.01512
 11
362.513
 21
4.85715
  0
LINE
  8
0
 10
362.513
 20
4.85715
 11
362.613
 21
4.71434
  0
LINE
  8
0
 10
362.613
 20
4.71434
 11
362.737
 21
4.59109
  0
LINE
  8
0
 10
362.737
 20
4.59109
 11
362.88
 21
4.49112
  0
LINE
  8
0
 10
362.88
 20
4.49112
 11
363.037
 21
4.41745
  0
LINE
  8
0
 10
363.037
 20
4.41745
 11
363.206
 21
4.37233
  0
LINE
  8
0
 10
363.206
 20
4.37233
 11
363.38
 21
4.35715
  0
LINE
  8
0
 10
363.38
 20
4.35715
 11
363.553
 21
4.37233
  0
LINE
  8
0
 10
363.553
 20
4.37233
 11
363.722
 21
4.41745
  0
LINE
  8
0
 10
363.722
 20
4.41745
 11
363.88
 21
4.49112
  0
LINE
  8
0
 10
363.88
 20
4.49112
 11
374.551
 21
9.69516
  0
LINE
  8
0
 10
374.551
 20
9.69516
 11
381.562
 21
4.86378
  0
LINE
  8
0
 10
381.562
 20
4.86378
 11
379.748
 21
3.44461
  0
LINE
  8
0
 10
379.748
 20
3.44461
 11
379.625
 21
3.32135
  0
LINE
  8
0
 10
379.625
 20
3.32135
 11
379.525
 21
3.17857
  0
LINE
  8
0
 10
379.525
 20
3.17857
 11
379.451
 21
3.02058
  0
LINE
  8
0
 10
379.451
 20
3.02058
 11
379.406
 21
2.85222
  0
LINE
  8
0
 10
379.406
 20
2.85222
 11
379.391
 21
2.67857
  0
LINE
  8
0
 10
379.391
 20
2.67857
 11
379.406
 21
2.50491
  0
LINE
  8
0
 10
379.406
 20
2.50491
 11
379.451
 21
2.33655
  0
LINE
  8
0
 10
379.451
 20
2.33655
 11
379.525
 21
2.17857
  0
LINE
  8
0
 10
379.525
 20
2.17857
 11
379.625
 21
2.03578
  0
LINE
  8
0
 10
379.625
 20
2.03578
 11
379.748
 21
1.91252
  0
LINE
  8
0
 10
379.748
 20
1.91252
 11
379.891
 21
1.81255
  0
LINE
  8
0
 10
379.891
 20
1.81255
 11
380.049
 21
1.73886
  0
LINE
  8
0
 10
380.049
 20
1.73886
 11
380.217
 21
1.69376
  0
LINE
  8
0
 10
380.217
 20
1.69376
 11
380.391
 21
1.67857
  0
LINE
  8
0
 10
380.391
 20
1.67857
 11
380.564
 21
1.69376
  0
LINE
  8
0
 10
380.564
 20
1.69376
 11
380.733
 21
1.73888
  0
LINE
  8
0
 10
380.733
 20
1.73888
 11
384.116
 21
3.10303
  0
LINE
  8
0
 10
384.116
 20
3.10303
 11
388.619
 21
0
  0
LINE
  8
0
 10
388.619
 20
0
 11
384.116
 21
-3.10303
  0
LINE
  8
0
 10
384.116
 20
-3.10303
 11
380.733
 21
-1.73888
  0
LINE
  8
0
 10
380.733
 20
-1.73888
 11
380.564
 21
-1.69376
  0
LINE
  8
0
 10
380.564
 20
-1.69376
 11
380.391
 21
-1.67857
  0
LINE
  8
0
 10
380.391
 20
-1.67857
 11
380.217
 21
-1.69376
  0
LINE
  8
0
 10
380.217
 20
-1.69376
 11
380.049
 21
-1.73886
  0
LINE
  8
0
 10
380.049
 20
-1.73886
 11
379.891
 21
-1.81255
  0
LINE
  8
0
 10
379.891
 20
-1.81255
 11
379.748
 21
-1.91252
  0
LINE
  8
0
 10
379.748
 20
-1.91252
 11
379.625
 21
-2.03578
  0
LINE
  8
0
 10
379.625
 20
-2.03578
 11
379.525
 21
-2.17857
  0
LINE
  8
0
 10
379.525
 20
-2.17857
 11
379.451
 21
-2.33655
  0
LINE
  8
0
 10
379.451
 20
-2.33655
 11
379.406
 21
-2.50491
  0
LINE
  8
0
 10
379.406
 20
-2.50491
 11
379.391
 21
-2.67857
  0
LINE
  8
0
 10
379.391
 20
-2.67857
 11
379.406
 21
-2.85222
  0
LINE
  8
0
 10
379.406
 20
-2.85222
 11
379.451
 21
-3.02058
  0
LINE
  8
0
 10
379.451
 20
-3.02058
 11
379.525
 21
-3.17857
  0
LINE
  8
0
 10
379.525
 20
-3.17857
 11
379.625
 21
-3.32135
  0
LINE
  8
0
 10
379.625
 20
-3.32135
 11
379.748
 21
-3.44461
  0
LINE
  8
0
 10
379.748
 20
-3.44461
 11
381.562
 21
-4.86378
  0
LINE
  8
0
 10
381.562
 20
-4.86378
 11
374.551
 21
-9.69516
  0
LINE
  8
0
 10
374.551
 20
-9.69516
 11
363.88
 21
-4.49112
  0
LINE
  8
0
 10
363.88
 20
-4.49112
 11
363.722
 21
-4.41745
  0
LINE
  8
0
 10
363.722
 20
-4.41745
 11
363.553
 21
-4.37233
  0
LINE
  8
0
 10
363.553
 20
-4.37233
 11
363.38
 21
-4.35715
  0
LINE
  8
0
 10
363.38
 20
-4.35715
 11
363.206
 21
-4.37233
  0
LINE
  8
0
 10
363.206
 20
-4.37233
 11
363.037
 21
-4.41745
  0
LINE
  8
0
 10
363.037
 20
-4.41745
 11
362.88
 21
-4.49112
  0
LINE
  8
0
 10
362.88
 20
-4.49112
 11
362.737
 21
-4.59109
  0
LINE
  8
0
 10
362.737
 20
-4.59109
 11
362.613
 21
-4.71434
  0
LINE
  8
0
 10
362.613
 20
-4.71434
 11
362.513
 21
-4.85715
  0
LINE
  8
0
 10
362.513
 20
-4.85715
 11
362.44
 21
-5.01512
  0
LINE
  8
0
 10
362.44
 20
-5.01512
 11
362.395
 21
-5.18349
  0
LINE
  8
0
 10
362.395
 20
-5.18349
 11
362.38
 21
-5.35715
  0
LINE
  8
0
 10
362.38
 20
-5.35715
 11
362.395
 21
-5.53078
  0
LINE
  8
0
 10
362.395
 20
-5.53078
 11
362.44
 21
-5.69916
  0
LINE
  8
0
 10
362.44
 20
-5.69916
 11
362.514
 21
-5.85715
  0
LINE
  8
0
 10
362.514
 20
-5.85715
 11
362.613
 21
-5.99992
  0
LINE
  8
0
 10
362.613
 20
-5.99992
 11
362.737
 21
-6.12317
  0
LINE
  8
0
 10
362.737
 20
-6.12317
 11
362.88
 21
-6.22318
  0
LINE
  8
0
 10
362.88
 20
-6.22318
 11
371.324
 21
-11.9196
  0
LINE
  8
0
 10
371.324
 20
-11.9196
 11
364.783
 21
-16.4273
  0
LINE
  8
0
 10
364.783
 20
-16.4273
 11
346.868
 21
-7.16968
  0
LINE
  8
0
 10
346.868
 20
-7.16968
 11
346.71
 21
-7.09601
  0
LINE
  8
0
 10
346.71
 20
-7.09601
 11
346.542
 21
-7.05089
  0
LINE
  8
0
 10
346.542
 20
-7.05089
 11
346.368
 21
-7.03571
  0
LINE
  8
0
 10
346.368
 20
-7.03571
 11
346.195
 21
-7.0509
  0
LINE
  8
0
 10
346.195
 20
-7.0509
 11
346.026
 21
-7.09602
  0
LINE
  8
0
 10
346.026
 20
-7.09602
 11
345.868
 21
-7.16969
  0
LINE
  8
0
 10
345.868
 20
-7.16969
 11
345.726
 21
-7.26967
  0
LINE
  8
0
 10
345.726
 20
-7.26967
 11
345.602
 21
-7.39293
  0
LINE
  8
0
 10
345.602
 20
-7.39293
 11
345.502
 21
-7.53571
  0
LINE
  8
0
 10
345.502
 20
-7.53571
 11
345.429
 21
-7.69368
  0
LINE
  8
0
 10
345.429
 20
-7.69368
 11
345.383
 21
-7.86206
  0
LINE
  8
0
 10
345.383
 20
-7.86206
 11
345.368
 21
-8.03571
  0
LINE
  8
0
 10
345.368
 20
-8.03571
 11
345.383
 21
-8.20935
  0
LINE
  8
0
 10
345.383
 20
-8.20935
 11
345.429
 21
-8.37773
  0
LINE
  8
0
 10
345.429
 20
-8.37773
 11
345.502
 21
-8.53571
  0
LINE
  8
0
 10
345.502
 20
-8.53571
 11
345.602
 21
-8.6785
  0
LINE
  8
0
 10
345.602
 20
-8.6785
 11
345.726
 21
-8.80176
  0
LINE
  8
0
 10
345.726
 20
-8.80176
 11
345.868
 21
-8.90173
  0
LINE
  8
0
 10
345.868
 20
-8.90173
 11
361.322
 21
-18.8123
  0
LINE
  8
0
 10
361.322
 20
-18.8123
 11
353.601
 21
-24.134
  0
LINE
  8
0
 10
353.601
 20
-24.134
 11
353.458
 21
-24.2339
  0
LINE
  8
0
 10
353.458
 20
-24.2339
 11
353.335
 21
-24.3572
  0
LINE
  8
0
 10
353.335
 20
-24.3572
 11
353.235
 21
-24.5
  0
LINE
  8
0
 10
353.235
 20
-24.5
 11
353.161
 21
-24.658
  0
LINE
  8
0
 10
353.161
 20
-24.658
 11
353.116
 21
-24.8264
  0
LINE
  8
0
 10
353.116
 20
-24.8264
 11
353.101
 21
-25
  0
LINE
  8
0
 10
353.101
 20
-25
 11
353.116
 21
-25.1736
  0
LINE
  8
0
 10
353.116
 20
-25.1736
 11
353.161
 21
-25.342
  0
LINE
  8
0
 10
353.161
 20
-25.342
 11
353.235
 21
-25.5
  0
LINE
  8
0
 10
353.235
 20
-25.5
 11
353.335
 21
-25.6428
  0
LINE
  8
0
 10
353.335
 20
-25.6428
 11
353.458
 21
-25.766
  0
LINE
  8
0
 10
353.458
 20
-25.766
 11
353.601
 21
-25.866
  0
LINE
  8
0
 10
353.601
 20
-25.866
 11
353.759
 21
-25.9397
  0
LINE
  8
0
 10
353.759
 20
-25.9397
 11
353.927
 21
-25.9848
  0
LINE
  8
0
 10
353.927
 20
-25.9848
 11
354.101
 21
-26
  0
LINE
  8
0
 10
354.101
 20
-26
 11
354.274
 21
-25.9848
  0
LINE
  8
0
 10
354.274
 20
-25.9848
 11
354.443
 21
-25.9397
  0
LINE
  8
0
 10
354.443
 20
-25.9397
 11
354.601
 21
-25.866
  0
LINE
  8
0
 10
354.601
 20
-25.866
 11
363.07
 21
-21.8397
  0
LINE
  8
0
 10
363.07
 20
-21.8397
 11
363.926
 21
-40.1786
  0
LINE
  8
0
 10
363.926
 20
-40.1786
 11
363.941
 21
-40.3522
  0
LINE
  8
0
 10
363.941
 20
-40.3522
 11
363.986
 21
-40.5206
  0
LINE
  8
0
 10
363.986
 20
-40.5206
 11
364.06
 21
-40.6786
  0
LINE
  8
0
 10
364.06
 20
-40.6786
 11
364.16
 21
-40.8213
  0
LINE
  8
0
 10
364.16
 20
-40.8213
 11
364.283
 21
-40.9446
  0
LINE
  8
0
 10
364.283
 20
-40.9446
 11
364.426
 21
-41.0446
  0
LINE
  8
0
 10
364.426
 20
-41.0446
 11
364.584
 21
-41.1182
  0
LINE
  8
0
 10
364.584
 20
-41.1182
 11
364.752
 21
-41.1634
  0
LINE
  8
0
 10
364.752
 20
-41.1634
 11
364.926
 21
-41.1786
  0
LINE
  8
0
 10
364.926
 20
-41.1786
 11
365.1
 21
-41.1634
  0
LINE
  8
0
 10
365.1
 20
-41.1634
 11
365.268
 21
-41.1182
  0
LINE
  8
0
 10
365.268
 20
-41.1182
 11
365.426
 21
-41.0446
  0
LINE
  8
0
 10
365.426
 20
-41.0446
 11
365.569
 21
-40.9446
  0
LINE
  8
0
 10
365.569
 20
-40.9446
 11
365.692
 21
-40.8213
  0
LINE
  8
0
 10
365.692
 20
-40.8213
 11
365.792
 21
-40.6786
  0
LINE
  8
0
 10
365.792
 20
-40.6786
 11
365.866
 21
-40.5206
  0
LINE
  8
0
 10
365.866
 20
-40.5206
 11
365.911
 21
-40.3522
  0
LINE
  8
0
 10
365.911
 20
-40.3522
 11
365.926
 21
-40.1786
  0
LINE
  8
0
 10
365.926
 20
-40.1786
 11
366.866
 21
-20.0352
  0
LINE
  8
0
 10
366.866
 20
-20.0352
 11
374.04
 21
-16.6247
  0
LINE
  8
0
 10
374.04
 20
-16.6247
 11
374.751
 21
-26.7857
  0
LINE
  8
0
 10
374.751
 20
-26.7857
 11
374.767
 21
-26.9594
  0
LINE
  8
0
 10
374.767
 20
-26.9594
 11
374.812
 21
-27.1277
  0
LINE
  8
0
 10
374.812
 20
-27.1277
 11
374.885
 21
-27.2857
  0
LINE
  8
0
 10
374.885
 20
-27.2857
 11
374.985
 21
-27.4285
  0
LINE
  8
0
 10
374.985
 20
-27.4285
 11
375.109
 21
-27.5517
  0
LINE
  8
0
 10
375.109
 20
-27.5517
 11
375.251
 21
-27.6517
  0
LINE
  8
0
 10
375.251
 20
-27.6517
 11
375.409
 21
-27.7254
  0
LINE
  8
0
 10
375.409
 20
-27.7254
 11
375.578
 21
-27.7705
  0
LINE
  8
0
 10
375.578
 20
-27.7705
 11
375.751
 21
-27.7857
  0
LINE
  8
0
 10
375.751
 20
-27.7857
 11
375.925
 21
-27.7705
  0
LINE
  8
0
 10
375.925
 20
-27.7705
 11
376.093
 21
-27.7254
  0
LINE
  8
0
 10
376.093
 20
-27.7254
 11
376.251
 21
-27.6517
  0
LINE
  8
0
 10
376.251
 20
-27.6517
 11
376.394
 21
-27.5517
  0
LINE
  8
0
 10
376.394
 20
-27.5517
 11
376.517
 21
-27.4285
  0
LINE
  8
0
 10
376.517
 20
-27.4285
 11
376.617
 21
-27.2857
  0
LINE
  8
0
 10
376.617
 20
-27.2857
 11
376.691
 21
-27.1277
  0
LINE
  8
0
 10
376.691
 20
-27.1277
 11
376.736
 21
-26.9593
  0
LINE
  8
0
 10
376.736
 20
-26.9593
 11
376.751
 21
-26.7857
  0
LINE
  8
0
 10
376.751
 20
-26.7857
 11
377.58
 21
-14.9416
  0
LINE
  8
0
 10
377.58
 20
-14.9416
 11
385.27
 21
-11.2862
  0
LINE
  8
0
 10
385.27
 20
-11.2862
 11
385.592
 21
-13.5665
  0
LINE
  8
0
 10
385.592
 20
-13.5665
 11
385.637
 21
-13.7349
  0
LINE
  8
0
 10
385.637
 20
-13.7349
 11
385.711
 21
-13.8928
  0
LINE
  8
0
 10
385.711
 20
-13.8928
 11
385.811
 21
-14.0356
  0
LINE
  8
0
 10
385.811
 20
-14.0356
 11
385.934
 21
-14.1589
  0
LINE
  8
0
 10
385.934
 20
-14.1589
 11
386.077
 21
-14.2589
  0
LINE
  8
0
 10
386.077
 20
-14.2589
 11
386.235
 21
-14.3325
  0
LINE
  8
0
 10
386.235
 20
-14.3325
 11
386.403
 21
-14.3776
  0
LINE
  8
0
 10
386.403
 20
-14.3776
 11
386.577
 21
-14.3928
  0
LINE
  8
0
 10
386.577
 20
-14.3928
 11
386.75
 21
-14.3776
  0
LINE
  8
0
 10
386.75
 20
-14.3776
 11
386.919
 21
-14.3325
  0
LINE
  8
0
 10
386.919
 20
-14.3325
 11
387.077
 21
-14.2589
  0
LINE
  8
0
 10
387.077
 20
-14.2589
 11
387.219
 21
-14.1589
  0
LINE
  8
0
 10
387.219
 20
-14.1589
 11
387.343
 21
-14.0356
  0
LINE
  8
0
 10
387.343
 20
-14.0356
 11
387.443
 21
-13.8928
  0
LINE
  8
0
 10
387.443
 20
-13.8928
 11
387.516
 21
-13.7349
  0
LINE
  8
0
 10
387.516
 20
-13.7349
 11
387.561
 21
-13.5665
  0
LINE
  8
0
 10
387.561
 20
-13.5665
 11
388.072
 21
-9.95404
  0
LINE
  8
0
 10
388.072
 20
-9.95404
 11
393.01
 21
-7.60628
  0
LINE
  8
0
 10
393.01
 20
-7.60628
 11
393.447
 21
-13.0571
  0
LINE
  8
0
 10
393.447
 20
-13.0571
 11
390.573
 21
-15.3054
  0
LINE
  8
0
 10
390.573
 20
-15.3054
 11
390.45
 21
-15.4286
  0
LINE
  8
0
 10
390.45
 20
-15.4286
 11
390.35
 21
-15.5714
  0
LINE
  8
0
 10
390.35
 20
-15.5714
 11
390.276
 21
-15.7294
  0
LINE
  8
0
 10
390.276
 20
-15.7294
 11
390.231
 21
-15.8978
  0
LINE
  8
0
 10
390.231
 20
-15.8978
 11
390.216
 21
-16.0714
  0
LINE
  8
0
 10
390.216
 20
-16.0714
 11
390.231
 21
-16.2451
  0
LINE
  8
0
 10
390.231
 20
-16.2451
 11
390.276
 21
-16.4134
  0
LINE
  8
0
 10
390.276
 20
-16.4134
 11
390.35
 21
-16.5714
  0
LINE
  8
0
 10
390.35
 20
-16.5714
 11
390.45
 21
-16.7142
  0
LINE
  8
0
 10
390.45
 20
-16.7142
 11
390.573
 21
-16.8375
  0
LINE
  8
0
 10
390.573
 20
-16.8375
 11
390.716
 21
-16.9374
  0
LINE
  8
0
 10
390.716
 20
-16.9374
 11
390.874
 21
-17.0111
  0
LINE
  8
0
 10
390.874
 20
-17.0111
 11
391.042
 21
-17.0562
  0
LINE
  8
0
 10
391.042
 20
-17.0562
 11
391.216
 21
-17.0714
  0
LINE
  8
0
 10
391.216
 20
-17.0714
 11
391.39
 21
-17.0562
  0
LINE
  8
0
 10
391.39
 20
-17.0562
 11
391.558
 21
-17.0111
  0
LINE
  8
0
 10
391.558
 20
-17.0111
 11
393.694
 21
-16.15
  0
LINE
  8
0
 10
393.694
 20
-16.15
 11
394.373
 21
-24.6368
  0
LINE
  8
0
 10
394.373
 20
-24.6368
 11
384.53
 21
-31.2768
  0
LINE
  8
0
 10
384.53
 20
-31.2768
 11
384.387
 21
-31.3768
  0
LINE
  8
0
 10
384.387
 20
-31.3768
 11
384.264
 21
-31.5001
  0
LINE
  8
0
 10
384.264
 20
-31.5001
 11
384.164
 21
-31.6429
  0
LINE
  8
0
 10
384.164
 20
-31.6429
 11
384.09
 21
-31.8008
  0
LINE
  8
0
 10
384.09
 20
-31.8008
 11
384.045
 21
-31.9692
  0
LINE
  8
0
 10
384.045
 20
-31.9692
 11
384.03
 21
-32.1429
  0
LINE
  8
0
 10
384.03
 20
-32.1429
 11
384.045
 21
-32.3165
  0
LINE
  8
0
 10
384.045
 20
-32.3165
 11
384.09
 21
-32.4849
  0
LINE
  8
0
 10
384.09
 20
-32.4849
 11
384.164
 21
-32.6429
  0
LINE
  8
0
 10
384.164
 20
-32.6429
 11
384.264
 21
-32.7856
  0
LINE
  8
0
 10
384.264
 20
-32.7856
 11
384.387
 21
-32.9089
  0
LINE
  8
0
 10
384.387
 20
-32.9089
 11
384.53
 21
-33.0089
  0
LINE
  8
0
 10
384.53
 20
-33.0089
 11
384.688
 21
-33.0825
  0
LINE
  8
0
 10
384.688
 20
-33.0825
 11
384.857
 21
-33.1277
  0
LINE
  8
0
 10
384.857
 20
-33.1277
 11
385.03
 21
-33.1429
  0
LINE
  8
0
 10
385.03
 20
-33.1429
 11
385.204
 21
-33.1277
  0
LINE
  8
0
 10
385.204
 20
-33.1277
 11
385.372
 21
-33.0825
  0
LINE
  8
0
 10
385.372
 20
-33.0825
 11
385.53
 21
-33.0089
  0
LINE
  8
0
 10
385.53
 20
-33.0089
 11
394.686
 21
-28.5443
  0
LINE
  8
0
 10
394.686
 20
-28.5443
 11
395.319
 21
-36.4625
  0
LINE
  8
0
 10
395.319
 20
-36.4625
 11
378.344
 21
-47.3483
  0
LINE
  8
0
 10
378.344
 20
-47.3483
 11
378.201
 21
-47.4482
  0
LINE
  8
0
 10
378.201
 20
-47.4482
 11
378.078
 21
-47.5715
  0
LINE
  8
0
 10
378.078
 20
-47.5715
 11
377.978
 21
-47.7143
  0
LINE
  8
0
 10
377.978
 20
-47.7143
 11
377.905
 21
-47.8723
  0
LINE
  8
0
 10
377.905
 20
-47.8723
 11
377.859
 21
-48.0406
  0
LINE
  8
0
 10
377.859
 20
-48.0406
 11
377.844
 21
-48.2143
  0
LINE
  8
0
 10
377.844
 20
-48.2143
 11
377.859
 21
-48.3879
  0
LINE
  8
0
 10
377.859
 20
-48.3879
 11
377.905
 21
-48.5563
  0
LINE
  8
0
 10
377.905
 20
-48.5563
 11
377.978
 21
-48.7143
  0
LINE
  8
0
 10
377.978
 20
-48.7143
 11
378.078
 21
-48.8571
  0
LINE
  8
0
 10
378.078
 20
-48.8571
 11
378.201
 21
-48.9803
  0
LINE
  8
0
 10
378.201
 20
-48.9803
 11
378.344
 21
-49.0803
  0
LINE
  8
0
 10
378.344
 20
-49.0803
 11
378.502
 21
-49.154
  0
LINE
  8
0
 10
378.502
 20
-49.154
 11
378.671
 21
-49.1991
  0
LINE
  8
0
 10
378.671
 20
-49.1991
 11
378.844
 21
-49.2143
  0
LINE
  8
0
 10
378.844
 20
-49.2143
 11
379.018
 21
-49.1991
  0
LINE
  8
0
 10
379.018
 20
-49.1991
 11
379.186
 21
-49.154
  0
LINE
  8
0
 10
379.186
 20
-49.154
 11
379.344
 21
-49.0803
  0
LINE
  8
0
 10
379.344
 20
-49.0803
 11
395.654
 21
-40.652
  0
LINE
  8
0
 10
395.654
 20
-40.652
 11
396.402
 21
-50
  0
LINE
  8
0
 10
396.402
 20
-50
 11
396.417
 21
-50.1736
  0
LINE
  8
0
 10
396.417
 20
-50.1736
 11
396.462
 21
-50.342
  0
LINE
  8
0
 10
396.462
 20
-50.342
 11
396.536
 21
-50.5
  0
LINE
  8
0
 10
396.536
 20
-50.5
 11
396.636
 21
-50.6428
  0
LINE
  8
0
 10
396.636
 20
-50.6428
 11
396.759
 21
-50.766
  0
LINE
  8
0
 10
396.759
 20
-50.766
 11
396.902
 21
-50.866
  0
LINE
  8
0
 10
396.902
 20
-50.866
 11
397.06
 21
-50.9397
  0
LINE
  8
0
 10
397.06
 20
-50.9397
 11
397.228
 21
-50.9848
  0
LINE
  8
0
 10
397.228
 20
-50.9848
 11
397.402
 21
-51
  0
LINE
  8
0
 10
397.402
 20
-51
 11
397.402
 21
16.6667
  0
LINE
  8
0
 10
397.402
 20
16.6667
 11
402.598
 21
16.6667
  0
LINE
  8
0
 10
402.598
 20
16.6667
 11
402.598
 21
-51
  0
LINE
  8
0
 10
402.598
 20
-51
 11
402.772
 21
-50.9848
  0
ENDSEC
  0
SECTION
  2
OBJECTS
  0
DICTIONARY
  0
ENDSEC
  0
EOF
