  0
SECTION
  2
HEADER
  9
$ACADVER
  1
AC1014
  9
$HANDSEED
  5
FFFF
  9
$MEASUREMENT
 70
     1
  0
ENDSEC
  0
SECTION
  2
TABLES
  0
TABLE
  2
VPORT
  5
8
330
0
100
AcDbSymbolTable
 70
     4
  0
VPORT
  5
2E
330
8
100
AcDbSymbolTableRecord
100
AcDbViewportTableRecord
  2
*ACTIVE
 70
     0
 10
0.0
 20
0.0
 11
1.0
 21
1.0
 12
210.0
 22
148.5
 13
0.0
 23
0.0
 14
10.0
 24
10.0
 15
10.0
 25
10.0
 16
0.0
 26
0.0
 36
1.0
 17
0.0
 27
0.0
 37
0.0
 40
341.0
 41
1.24
 42
50.0
 43
0.0
 44
0.0
 50
0.0
 51
0.0
 71
     0
 72
   100
 73
     1
 74
     3
 75
     0
 76
     0
 77
     0
 78
     0
  0
ENDTAB
  0
TABLE
  2
LTYPE
  5
5
330
0
100
AcDbSymbolTable
 70
     1
  0
LTYPE
  5
14
330
5
100
AcDbSymbolTableRecord
100
AcDbLinetypeTableRecord
  2
BYBLOCK
 70
     0
  3

 72
    65
 73
     0
 40
0.0
  0
LTYPE
  5
15
330
5
100
AcDbSymbolTableRecord
100
AcDbLinetypeTableRecord
  2
BYLAYER
 70
     0
  3

 72
    65
 73
     0
 40
0.0
  0
LTYPE
  5
16
330
5
100
AcDbSymbolTableRecord
100
AcDbLinetypeTableRecord
  2
CONTINUOUS
 70
     0
  3
Solid line
 72
    65
 73
     0
 40
0.0
  0
ENDTAB
  0
TABLE
  2
LAYER
  5
2
100
AcDbSymbolTable
 70
2
  0
LAYER
  5
50
100
AcDbSymbolTableRecord
100
AcDbLayerTableRecord
  2
0
 70
0
  6
CONTINUOUS
  0
LAYER
  5
51
100
AcDbSymbolTableRecord
100
AcDbLayerTableRecord
  2
Layer_1
 70
0
  6
CONTINUOUS
  0
ENDTAB
  0
TABLE
  2
STYLE
  5
3
330
0
100
AcDbSymbolTable
 70
     1
  0
STYLE
  5
11
330
3
100
AcDbSymbolTableRecord
100
AcDbTextStyleTableRecord
  2
STANDARD
 70
     0
 40
0.0
 41
1.0
 50
0.0
 71
     0
 42
2.5
  3
txt
  4

  0
ENDTAB
  0
TABLE
  2
VIEW
  5
6
330
0
100
AcDbSymbolTable
 70
     0
  0
ENDTAB
  0
TABLE
  2
UCS
  5
7
330
0
100
AcDbSymbolTable
 70
     0
  0
ENDTAB
  0
TABLE
  2
APPID
  5
9
330
0
100
AcDbSymbolTable
 70
     2
  0
APPID
  5
12
330
9
100
AcDbSymbolTableRecord
100
AcDbRegAppTableRecord
  2
ACAD
 70
     0
  0
ENDTAB
  0
TABLE
  2
DIMSTYLE
  5
A
330
0
100
AcDbSymbolTable
 70
     1
  0
DIMSTYLE
105
27
330
A
100
AcDbSymbolTableRecord
100
AcDbDimStyleTableRecord
  2
ISO-25
 70
     0
  3

  4

  5

  6

  7

 40
1.0
 41
2.5
 42
0.625
 43
3.75
 44
1.25
 45
0.0
 46
0.0
 47
0.0
 48
0.0
140
2.5
141
2.5
142
0.0
143
0.03937007874016
144
1.0
145
0.0
146
1.0
147
0.625
 71
     0
 72
     0
 73
     0
 74
     0
 75
     0
 76
     0
 77
     1
 78
     8
170
     0
171
     3
172
     1
173
     0
174
     0
175
     0
176
     0
177
     0
178
     0
270
     2
271
     2
272
     2
273
     2
274
     3
340
11
275
     0
280
     0
281
     0
282
     0
283
     0
284
     8
285
     0
286
     0
287
     3
288
     0
  0
ENDTAB
  0
TABLE
  2
BLOCK_RECORD
  5
1
330
0
100
AcDbSymbolTable
 70
     1
  0
BLOCK_RECORD
  5
1F
330
1
100
AcDbSymbolTableRecord
100
AcDbBlockTableRecord
  2
*MODEL_SPACE
  0
BLOCK_RECORD
  5
1B
330
1
100
AcDbSymbolTableRecord
100
AcDbBlockTableRecord
  2
*PAPER_SPACE
  0
ENDTAB
  0
ENDSEC
  0
SECTION
  2
BLOCKS
  0
BLOCK
  5
20
330
1F
100
AcDbEntity
  8
0
100
AcDbBlockBegin
  2
*MODEL_SPACE
 70
     0
 10
0.0
 20
0.0
 30
0.0
  3
*MODEL_SPACE
  1

  0
ENDBLK
  5
21
330
1F
100
AcDbEntity
  8
0
100
AcDbBlockEnd
  0
BLOCK
  5
1C
330
1B
100
AcDbEntity
 67
     1
  8
0
100
AcDbBlockBegin
  2
*PAPER_SPACE
  1

  0
ENDBLK
  5
1D
330
1B
100
AcDbEntity
 67
     1
  8
0
100
AcDbBlockEnd
  0
ENDSEC
  0
SECTION
  2
ENTITIES
  0
SPLINE
  5
100
100
AcDbEntity
  8
Layer_1
 62
7
100
AcDbSpline
 70
8
 71
3
 72
8
 73
4
 74
0
 40
0
 40
0
 40
0
 40
0
 40
1
 40
1
 40
1
 40
1
 10
127.635280
 20
109.714113
 30
0.0
 10
126.226720
 20
109.683065
 30
0.0
 10
124.854691
 20
109.521922
 30
0.0
 10
123.524335
 20
109.231288
 30
0.0
  0
SPLINE
  5
101
100
AcDbEntity
  8
Layer_1
 62
7
100
AcDbSpline
 70
8
 71
3
 72
8
 73
4
 74
0
 40
0
 40
0
 40
0
 40
0
 40
1
 40
1
 40
1
 40
1
 10
123.524335
 20
109.231288
 30
0.0
 10
112.942496
 20
106.920091
 30
0.0
 10
105.479222
 20
96.534478
 30
0.0
 10
102.776353
 20
80.359169
 30
0.0
  0
SPLINE
  5
102
100
AcDbEntity
  8
Layer_1
 62
7
100
AcDbSpline
 70
8
 71
3
 72
8
 73
4
 74
0
 40
0
 40
0
 40
0
 40
0
 40
1
 40
1
 40
1
 40
1
 10
102.776353
 20
80.359169
 30
0.0
 10
100.073484
 20
64.183860
 30
0.0
 10
102.352425
 20
43.543856
 30
0.0
 10
109.111835
 20
22.979733
 30
0.0
  0
SPLINE
  5
103
100
AcDbEntity
  8
Layer_1
 62
7
100
AcDbSpline
 70
8
 71
3
 72
8
 73
4
 74
0
 40
0
 40
0
 40
0
 40
0
 40
1
 40
1
 40
1
 40
1
 10
109.111835
 20
22.979733
 30
0.0
 10
118.822265
 20
-6.494210
 30
0.0
 10
136.286838
 20
-31.516958
 30
0.0
 10
154.177457
 20
-41.589020
 30
0.0
  0
SPLINE
  5
104
100
AcDbEntity
  8
Layer_1
 62
7
100
AcDbSpline
 70
8
 71
3
 72
8
 73
4
 74
0
 40
0
 40
0
 40
0
 40
0
 40
1
 40
1
 40
1
 40
1
 10
154.177457
 20
-41.589020
 30
0.0
 10
133.442080
 20
-61.957878
 30
0.0
 10
119.182140
 20
-90.520989
 30
0.0
 10
119.182140
 20
-115.807759
 30
0.0
  0
SPLINE
  5
105
100
AcDbEntity
  8
Layer_1
 62
7
100
AcDbSpline
 70
8
 71
3
 72
8
 73
4
 74
0
 40
0
 40
0
 40
0
 40
0
 40
1
 40
1
 40
1
 40
1
 10
119.182140
 20
-115.807759
 30
0.0
 10
119.182140
 20
-161.256316
 30
0.0
 10
165.238046
 20
-178.898386
 30
0.0
 10
212.183718
 20
-178.898386
 30
0.0
  0
SPLINE
  5
106
100
AcDbEntity
  8
Layer_1
 62
7
100
AcDbSpline
 70
8
 71
3
 72
8
 73
4
 74
0
 40
0
 40
0
 40
0
 40
0
 40
1
 40
1
 40
1
 40
1
 10
212.183718
 20
-178.898386
 30
0.0
 10
259.129391
 20
-178.898386
 30
0.0
 10
305.186827
 20
-161.256316
 30
0.0
 10
305.186827
 20
-115.807759
 30
0.0
  0
SPLINE
  5
107
100
AcDbEntity
  8
Layer_1
 62
7
100
AcDbSpline
 70
8
 71
3
 72
8
 73
4
 74
0
 40
0
 40
0
 40
0
 40
0
 40
1
 40
1
 40
1
 40
1
 10
305.186827
 20
-115.807759
 30
0.0
 10
305.186827
 20
-90.544063
 30
0.0
 10
290.950897
 20
-62.010489
 30
0.0
 10
270.246219
 20
-41.645260
 30
0.0
  0
SPLINE
  5
108
100
AcDbEntity
  8
Layer_1
 62
7
100
AcDbSpline
 70
8
 71
3
 72
8
 73
4
 74
0
 40
0
 40
0
 40
0
 40
0
 40
1
 40
1
 40
1
 40
1
 10
270.246219
 20
-41.645260
 30
0.0
 10
287.556295
 20
-31.830044
 30
0.0
 10
305.247205
 20
-7.468502
 30
0.0
 10
315.255574
 20
22.979733
 30
0.0
  0
SPLINE
  5
109
100
AcDbEntity
  8
Layer_1
 62
7
100
AcDbSpline
 70
8
 71
3
 72
8
 73
4
 74
0
 40
0
 40
0
 40
0
 40
0
 40
1
 40
1
 40
1
 40
1
 10
315.255574
 20
22.979733
 30
0.0
 10
316.059423
 20
25.425267
 30
0.0
 10
316.790960
 20
27.856203
 30
0.0
 10
317.461835
 20
30.268798
 30
0.0
  0
SPLINE
  5
10a
100
AcDbEntity
  8
Layer_1
 62
7
100
AcDbSpline
 70
8
 71
3
 72
8
 73
4
 74
0
 40
0
 40
0
 40
0
 40
0
 40
1
 40
1
 40
1
 40
1
 10
317.461835
 20
30.268798
 30
0.0
 10
320.507634
 20
31.314499
 30
0.0
 10
323.169564
 20
33.003041
 30
0.0
 10
325.344645
 20
35.376603
 30
0.0
  0
SPLINE
  5
10b
100
AcDbEntity
  8
Layer_1
 62
7
100
AcDbSpline
 70
8
 71
3
 72
8
 73
4
 74
0
 40
0
 40
0
 40
0
 40
0
 40
1
 40
1
 40
1
 40
1
 10
325.344645
 20
35.376603
 30
0.0
 10
335.971533
 20
46.973168
 30
0.0
 10
331.908437
 20
71.478681
 30
0.0
 10
316.994657
 20
95.984421
 30
0.0
  0
SPLINE
  5
10c
100
AcDbEntity
  8
Layer_1
 62
7
100
AcDbSpline
 70
8
 71
3
 72
8
 73
4
 74
0
 40
0
 40
0
 40
0
 40
0
 40
1
 40
1
 40
1
 40
1
 10
316.994657
 20
95.984421
 30
0.0
 10
291.223986
 20
90.840474
 30
0.0
 10
257.430276
 20
78.760574
 30
0.0
 10
246.977463
 20
67.701600
 30
0.0
  0
SPLINE
  5
10d
100
AcDbEntity
  8
Layer_1
 62
7
100
AcDbSpline
 70
8
 71
3
 72
8
 73
4
 74
0
 40
0
 40
0
 40
0
 40
0
 40
1
 40
1
 40
1
 40
1
 10
246.977463
 20
67.701600
 30
0.0
 10
240.395671
 20
55.598088
 30
0.0
 10
238.329753
 20
49.143939
 30
0.0
 10
235.458711
 20
40.409432
 30
0.0
  0
SPLINE
  5
10e
100
AcDbEntity
  8
Layer_1
 62
7
100
AcDbSpline
 70
8
 71
3
 72
8
 73
4
 74
0
 40
0
 40
0
 40
0
 40
0
 40
1
 40
1
 40
1
 40
1
 10
235.458711
 20
40.409432
 30
0.0
 10
228.466887
 20
19.138419
 30
0.0
 10
226.545139
 20
-1.089897
 30
0.0
 10
229.077470
 20
-16.657772
 30
0.0
  0
SPLINE
  5
10f
100
AcDbEntity
  8
Layer_1
 62
7
100
AcDbSpline
 70
8
 71
3
 72
8
 73
4
 74
0
 40
0
 40
0
 40
0
 40
0
 40
1
 40
1
 40
1
 40
1
 10
229.077470
 20
-16.657772
 30
0.0
 10
223.512153
 20
-15.139677
 30
0.0
 10
217.854569
 20
-14.315561
 30
0.0
 10
212.183718
 20
-14.315561
 30
0.0
  0
SPLINE
  5
110
100
AcDbEntity
  8
Layer_1
 62
7
100
AcDbSpline
 70
8
 71
3
 72
8
 73
4
 74
0
 40
0
 40
0
 40
0
 40
0
 40
1
 40
1
 40
1
 40
1
 10
212.183718
 20
-14.315561
 30
0.0
 10
206.500396
 20
-14.315561
 30
0.0
 10
200.831133
 20
-15.144213
 30
0.0
 10
195.254024
 20
-16.668713
 30
0.0
  0
SPLINE
  5
111
100
AcDbEntity
  8
Layer_1
 62
7
100
AcDbSpline
 70
8
 71
3
 72
8
 73
4
 74
0
 40
0
 40
0
 40
0
 40
0
 40
1
 40
1
 40
1
 40
1
 10
195.254024
 20
-16.668713
 30
0.0
 10
197.896500
 20
-0.545523
 30
0.0
 10
195.616045
 20
19.967863
 30
0.0
 10
188.908698
 20
40.409432
 30
0.0
  0
SPLINE
  5
112
100
AcDbEntity
  8
Layer_1
 62
7
100
AcDbSpline
 70
8
 71
3
 72
8
 73
4
 74
0
 40
0
 40
0
 40
0
 40
0
 40
1
 40
1
 40
1
 40
1
 10
188.908698
 20
40.409432
 30
0.0
 10
175.818441
 20
80.233439
 30
0.0
 10
149.332531
 20
110.190925
 30
0.0
 10
127.635280
 20
109.714113
 30
0.0
  0
SPLINE
  5
113
100
AcDbEntity
  8
Layer_1
 62
5
100
AcDbSpline
 70
8
 71
3
 72
8
 73
4
 74
0
 40
0
 40
0
 40
0
 40
0
 40
1
 40
1
 40
1
 40
1
 10
180.524834
 20
-121.029063
 30
0.0
 10
158.560922
 20
-126.028925
 30
0.0
 10
141.790109
 20
-137.258062
 30
0.0
 10
129.505208
 20
-147.904000
 30
0.0
  0
SPLINE
  5
114
100
AcDbEntity
  8
Layer_1
 62
5
100
AcDbSpline
 70
8
 71
3
 72
8
 73
4
 74
0
 40
0
 40
0
 40
0
 40
0
 40
1
 40
1
 40
1
 40
1
 10
119.457296
 20
-117.334669
 30
0.0
 10
136.542273
 20
-113.455485
 30
0.0
 10
156.338418
 20
-110.884574
 30
0.0
 10
179.787514
 20
-117.588086
 30
0.0
  0
SPLINE
  5
115
100
AcDbEntity
  8
Layer_1
 62
5
100
AcDbSpline
 70
8
 71
3
 72
8
 73
4
 74
0
 40
0
 40
0
 40
0
 40
0
 40
1
 40
1
 40
1
 40
1
 10
180.770626
 20
-114.638751
 30
0.0
 10
163.710339
 20
-99.642652
 30
0.0
 10
144.587621
 20
-93.739162
 30
0.0
 10
123.528556
 20
-90.168160
 30
0.0
  0
SPLINE
  5
116
100
AcDbEntity
  8
Layer_1
 62
5
100
AcDbSpline
 70
8
 71
3
 72
8
 73
4
 74
0
 40
0
 40
0
 40
0
 40
0
 40
1
 40
1
 40
1
 40
1
 10
243.843335
 20
-121.029063
 30
0.0
 10
265.807275
 20
-126.028925
 30
0.0
 10
282.578087
 20
-137.258062
 30
0.0
 10
294.862988
 20
-147.904000
 30
0.0
  0
SPLINE
  5
117
100
AcDbEntity
  8
Layer_1
 62
5
100
AcDbSpline
 70
8
 71
3
 72
8
 73
4
 74
0
 40
0
 40
0
 40
0
 40
0
 40
1
 40
1
 40
1
 40
1
 10
304.910900
 20
-117.334669
 30
0.0
 10
287.825924
 20
-113.455485
 30
0.0
 10
268.029779
 20
-110.884574
 30
0.0
 10
244.580683
 20
-117.588086
 30
0.0
  0
SPLINE
  5
118
100
AcDbEntity
  8
Layer_1
 62
5
100
AcDbSpline
 70
8
 71
3
 72
8
 73
4
 74
0
 40
0
 40
0
 40
0
 40
0
 40
1
 40
1
 40
1
 40
1
 10
243.597542
 20
-114.638751
 30
0.0
 10
260.657829
 20
-99.642652
 30
0.0
 10
279.780576
 20
-93.739162
 30
0.0
 10
300.839640
 20
-90.168160
 30
0.0
  0
SPLINE
  5
119
100
AcDbEntity
  8
Layer_1
 62
5
100
AcDbSpline
 70
8
 71
3
 72
8
 73
4
 74
0
 40
0
 40
0
 40
0
 40
0
 40
1
 40
1
 40
1
 40
1
 10
164.090975
 20
-61.309793
 30
0.0
 10
176.872648
 20
-43.187562
 30
0.0
 10
187.899108
 20
-49.638111
 30
0.0
 10
198.745738
 20
-58.606221
 30
0.0
  0
SPLINE
  5
11a
100
AcDbEntity
  8
Layer_1
 62
5
100
AcDbSpline
 70
8
 71
3
 72
8
 73
4
 74
0
 40
0
 40
0
 40
0
 40
0
 40
1
 40
1
 40
1
 40
1
 10
260.277250
 20
-61.309793
 30
0.0
 10
247.495577
 20
-43.187562
 30
0.0
 10
236.469117
 20
-49.638111
 30
0.0
 10
225.622487
 20
-58.606221
 30
0.0
  0
LWPOLYLINE
  5
11b
100
AcDbEntity
  8
Layer_1
 62
7
100
AcDbPolyline
 90
2
 70
1
 10
127.635280
 20
109.714113
 30
0.0
 10
127.635280
 20
109.714113
 30
0.0
  0
SPLINE
  5
11c
100
AcDbEntity
  8
Layer_1
 62
1
100
AcDbSpline
 70
8
 71
3
 72
8
 73
4
 74
0
 40
0
 40
0
 40
0
 40
0
 40
1
 40
1
 40
1
 40
1
 10
250.989422
 20
63.022252
 30
0.0
 10
273.679627
 20
37.808219
 30
0.0
 10
300.528994
 20
25.003500
 30
0.0
 10
316.853520
 20
30.067708
 30
0.0
  0
SPLINE
  5
11d
100
AcDbEntity
  8
Layer_1
 62
1
100
AcDbSpline
 70
8
 71
3
 72
8
 73
4
 74
0
 40
0
 40
0
 40
0
 40
0
 40
1
 40
1
 40
1
 40
1
 10
316.853520
 20
30.067708
 30
0.0
 10
320.154522
 20
31.091724
 30
0.0
 10
323.025168
 20
32.846427
 30
0.0
 10
325.344050
 20
35.376887
 30
0.0
  0
SPLINE
  5
11e
100
AcDbEntity
  8
Layer_1
 62
1
100
AcDbSpline
 70
8
 71
3
 72
8
 73
4
 74
0
 40
0
 40
0
 40
0
 40
0
 40
1
 40
1
 40
1
 40
1
 10
325.344050
 20
35.376887
 30
0.0
 10
335.970938
 20
46.973451
 30
0.0
 10
331.908153
 20
71.478312
 30
0.0
 10
316.994374
 20
95.984052
 30
0.0
  0
SPLINE
  5
11f
100
AcDbEntity
  8
Layer_1
 62
1
100
AcDbSpline
 70
8
 71
3
 72
8
 73
4
 74
0
 40
0
 40
0
 40
0
 40
0
 40
1
 40
1
 40
1
 40
1
 10
316.994374
 20
95.984052
 30
0.0
 10
291.223731
 20
90.840134
 30
0.0
 10
257.430418
 20
78.760943
 30
0.0
 10
246.977605
 20
67.701969
 30
0.0
  0
SPLINE
  5
120
100
AcDbEntity
  8
Layer_1
 62
1
100
AcDbSpline
 70
8
 71
3
 72
8
 73
4
 74
0
 40
0
 40
0
 40
0
 40
0
 40
1
 40
1
 40
1
 40
1
 10
246.977605
 20
67.701969
 30
0.0
 10
248.255038
 20
66.162218
 30
0.0
 10
249.629530
 20
64.533203
 30
0.0
 10
250.989309
 20
63.022167
 30
0.0
  0
LWPOLYLINE
  5
121
100
AcDbEntity
  8
Layer_1
 62
1
100
AcDbPolyline
 90
2
 70
1
 10
250.989309
 20
63.022167
 30
0.0
 10
250.989422
 20
63.022252
 30
0.0
  0
SPLINE
  5
122
100
AcDbEntity
  8
Layer_1
 62
1
100
AcDbSpline
 70
8
 71
3
 72
8
 73
4
 74
0
 40
0
 40
0
 40
0
 40
0
 40
1
 40
1
 40
1
 40
1
 10
193.234736
 20
-115.958675
 30
0.0
 10
193.234736
 20
-107.983258
 30
0.0
 10
202.472421
 20
-105.484234
 30
0.0
 10
212.184087
 20
-105.484234
 30
0.0
  0
SPLINE
  5
123
100
AcDbEntity
  8
Layer_1
 62
1
100
AcDbSpline
 70
8
 71
3
 72
8
 73
4
 74
0
 40
0
 40
0
 40
0
 40
0
 40
1
 40
1
 40
1
 40
1
 10
212.184087
 20
-105.484234
 30
0.0
 10
221.895753
 20
-105.484234
 30
0.0
 10
231.133438
 20
-107.413154
 30
0.0
 10
231.133438
 20
-115.958675
 30
0.0
  0
SPLINE
  5
124
100
AcDbEntity
  8
Layer_1
 62
1
100
AcDbSpline
 70
8
 71
3
 72
8
 73
4
 74
0
 40
0
 40
0
 40
0
 40
0
 40
1
 40
1
 40
1
 40
1
 10
231.133438
 20
-115.958675
 30
0.0
 10
231.133438
 20
-124.504169
 30
0.0
 10
219.071170
 20
-130.958374
 30
0.0
 10
212.184087
 20
-130.958374
 30
0.0
  0
SPLINE
  5
125
100
AcDbEntity
  8
Layer_1
 62
1
100
AcDbSpline
 70
8
 71
3
 72
8
 73
4
 74
0
 40
0
 40
0
 40
0
 40
0
 40
1
 40
1
 40
1
 40
1
 10
212.184087
 20
-130.958374
 30
0.0
 10
205.297003
 20
-130.958374
 30
0.0
 10
193.234736
 20
-125.074273
 30
0.0
 10
193.234736
 20
-115.958675
 30
0.0
  0
LWPOLYLINE
  5
126
100
AcDbEntity
  8
Layer_1
 62
1
100
AcDbPolyline
 90
2
 70
1
 10
250.989309
 20
63.022167
 30
0.0
 10
250.989309
 20
63.022167
 30
0.0
  0
SPLINE
  5
127
100
AcDbEntity
  8
Layer_1
 62
1
100
AcDbSpline
 70
8
 71
3
 72
8
 73
4
 74
0
 40
0
 40
0
 40
0
 40
0
 40
1
 40
1
 40
1
 40
1
 10
225.708408
 20
-138.117442
 30
0.0
 10
225.485038
 20
-139.979067
 30
0.0
 10
225.344865
 20
-141.764951
 30
0.0
 10
225.071038
 20
-143.322504
 30
0.0
  0
SPLINE
  5
128
100
AcDbEntity
  8
Layer_1
 62
1
100
AcDbSpline
 70
8
 71
3
 72
8
 73
4
 74
0
 40
0
 40
0
 40
0
 40
0
 40
1
 40
1
 40
1
 40
1
 10
225.071038
 20
-143.322504
 30
0.0
 10
224.241224
 20
-148.042699
 30
0.0
 10
224.271300
 20
-148.721540
 30
0.0
 10
223.192603
 20
-148.746173
 30
0.0
  0
SPLINE
  5
129
100
AcDbEntity
  8
Layer_1
 62
1
100
AcDbSpline
 70
8
 71
3
 72
8
 73
4
 74
0
 40
0
 40
0
 40
0
 40
0
 40
1
 40
1
 40
1
 40
1
 10
223.192603
 20
-148.746173
 30
0.0
 10
218.794707
 20
-148.846803
 30
0.0
 10
213.418887
 20
-149.312961
 30
0.0
 10
212.688342
 20
-148.180180
 30
0.0
  0
SPLINE
  5
12a
100
AcDbEntity
  8
Layer_1
 62
1
100
AcDbSpline
 70
8
 71
3
 72
8
 73
4
 74
0
 40
0
 40
0
 40
0
 40
0
 40
1
 40
1
 40
1
 40
1
 10
212.688342
 20
-148.180180
 30
0.0
 10
211.678528
 20
-149.517877
 30
0.0
 10
206.594789
 20
-148.927307
 30
0.0
 10
202.930216
 20
-148.684548
 30
0.0
  0
SPLINE
  5
12b
100
AcDbEntity
  8
Layer_1
 62
1
100
AcDbSpline
 70
8
 71
3
 72
8
 73
4
 74
0
 40
0
 40
0
 40
0
 40
0
 40
1
 40
1
 40
1
 40
1
 10
202.930216
 20
-148.684548
 30
0.0
 10
201.764950
 20
-148.607446
 30
0.0
 10
201.436981
 20
-147.608800
 30
0.0
 10
200.304881
 20
-143.709008
 30
0.0
  0
SPLINE
  5
12c
100
AcDbEntity
  8
Layer_1
 62
1
100
AcDbSpline
 70
8
 71
3
 72
8
 73
4
 74
0
 40
0
 40
0
 40
0
 40
0
 40
1
 40
1
 40
1
 40
1
 10
200.304881
 20
-143.709008
 30
0.0
 10
199.576036
 20
-141.198249
 30
0.0
 10
199.545819
 20
-140.358683
 30
0.0
 10
199.129410
 20
-137.930355
 30
0.0
  0
SPLINE
  5
12d
100
AcDbEntity
  8
Layer_1
 62
7
100
AcDbSpline
 70
8
 71
3
 72
8
 73
4
 74
0
 40
0
 40
0
 40
0
 40
0
 40
1
 40
1
 40
1
 40
1
 10
178.701309
 20
-131.917873
 30
0.0
 10
193.598903
 20
-141.189489
 30
0.0
 10
203.860008
 20
-139.650957
 30
0.0
 10
212.184087
 20
-130.579467
 30
0.0
  0
SPLINE
  5
12e
100
AcDbEntity
  8
Layer_1
 62
7
100
AcDbSpline
 70
8
 71
3
 72
8
 73
4
 74
0
 40
0
 40
0
 40
0
 40
0
 40
1
 40
1
 40
1
 40
1
 10
212.184087
 20
-130.579467
 30
0.0
 10
220.508166
 20
-139.650957
 30
0.0
 10
230.769271
 20
-141.189489
 30
0.0
 10
245.666865
 20
-131.917873
 30
0.0
  0
SPLINE
  5
12f
100
AcDbEntity
  8
Layer_1
 62
5
100
AcDbSpline
 70
8
 71
3
 72
8
 73
4
 74
0
 40
0
 40
0
 40
0
 40
0
 40
1
 40
1
 40
1
 40
1
 10
212.068745
 20
-136.385332
 30
0.0
 10
211.556099
 20
-142.954142
 30
0.0
 10
212.688342
 20
-148.181427
 30
0.0
 10
212.688342
 20
-148.181427
 30
0.0
  0
SPLINE
  5
130
100
AcDbEntity
  8
Layer_1
 62
7
100
AcDbSpline
 70
8
 71
3
 72
8
 73
4
 74
0
 40
0
 40
0
 40
0
 40
0
 40
1
 40
1
 40
1
 40
1
 10
239.084874
 20
-135.524506
 30
0.0
 10
236.496843
 20
-151.314589
 30
0.0
 10
224.173618
 20
-157.520876
 30
0.0
 10
212.184059
 20
-157.520876
 30
0.0
  0
SPLINE
  5
131
100
AcDbEntity
  8
Layer_1
 62
7
100
AcDbSpline
 70
8
 71
3
 72
8
 73
4
 74
0
 40
0
 40
0
 40
0
 40
0
 40
1
 40
1
 40
1
 40
1
 10
212.184059
 20
-157.520876
 30
0.0
 10
200.194528
 20
-157.520876
 30
0.0
 10
187.871303
 20
-151.314589
 30
0.0
 10
185.283271
 20
-135.524506
 30
0.0
  0
SPLINE
  5
132
100
AcDbEntity
  8
Layer_1
 62
1
100
AcDbSpline
 70
8
 71
3
 72
8
 73
4
 74
0
 40
0
 40
0
 40
0
 40
0
 40
1
 40
1
 40
1
 40
1
 10
193.234736
 20
-115.958675
 30
0.0
 10
193.234736
 20
-107.983258
 30
0.0
 10
202.472421
 20
-105.484234
 30
0.0
 10
212.184087
 20
-105.484234
 30
0.0
  0
SPLINE
  5
133
100
AcDbEntity
  8
Layer_1
 62
1
100
AcDbSpline
 70
8
 71
3
 72
8
 73
4
 74
0
 40
0
 40
0
 40
0
 40
0
 40
1
 40
1
 40
1
 40
1
 10
212.184087
 20
-105.484234
 30
0.0
 10
221.895753
 20
-105.484234
 30
0.0
 10
231.133438
 20
-107.413154
 30
0.0
 10
231.133438
 20
-115.958675
 30
0.0
  0
SPLINE
  5
134
100
AcDbEntity
  8
Layer_1
 62
1
100
AcDbSpline
 70
8
 71
3
 72
8
 73
4
 74
0
 40
0
 40
0
 40
0
 40
0
 40
1
 40
1
 40
1
 40
1
 10
231.133438
 20
-115.958675
 30
0.0
 10
231.133438
 20
-124.504169
 30
0.0
 10
219.071170
 20
-130.958374
 30
0.0
 10
212.184087
 20
-130.958374
 30
0.0
  0
SPLINE
  5
135
100
AcDbEntity
  8
Layer_1
 62
1
100
AcDbSpline
 70
8
 71
3
 72
8
 73
4
 74
0
 40
0
 40
0
 40
0
 40
0
 40
1
 40
1
 40
1
 40
1
 10
212.184087
 20
-130.958374
 30
0.0
 10
205.297003
 20
-130.958374
 30
0.0
 10
193.234736
 20
-125.074273
 30
0.0
 10
193.234736
 20
-115.958675
 30
0.0
  0
SPLINE
  5
136
100
AcDbEntity
  8
Layer_1
 62
7
100
AcDbSpline
 70
8
 71
3
 72
8
 73
4
 74
0
 40
0
 40
0
 40
0
 40
0
 40
1
 40
1
 40
1
 40
1
 10
128.071872
 20
89.875334
 30
0.0
 10
127.891872
 20
89.872499
 30
0.0
 10
127.801447
 20
89.858326
 30
0.0
 10
127.756178
 20
89.846987
 30
0.0
  0
SPLINE
  5
137
100
AcDbEntity
  8
Layer_1
 62
7
100
AcDbSpline
 70
8
 71
3
 72
8
 73
4
 74
0
 40
0
 40
0
 40
0
 40
0
 40
1
 40
1
 40
1
 40
1
 10
127.756178
 20
89.846987
 30
0.0
 10
127.454345
 20
89.780940
 30
0.0
 10
127.459787
 20
90.091334
 30
0.0
 10
126.240578
 20
88.353242
 30
0.0
  0
SPLINE
  5
138
100
AcDbEntity
  8
Layer_1
 62
7
100
AcDbSpline
 70
8
 71
3
 72
8
 73
4
 74
0
 40
0
 40
0
 40
0
 40
0
 40
1
 40
1
 40
1
 40
1
 10
126.240578
 20
88.353242
 30
0.0
 10
125.021397
 20
86.615236
 30
0.0
 10
123.291866
 20
82.738348
 30
0.0
 10
122.348439
 20
77.092300
 30
0.0
  0
SPLINE
  5
139
100
AcDbEntity
  8
Layer_1
 62
7
100
AcDbSpline
 70
8
 71
3
 72
8
 73
4
 74
0
 40
0
 40
0
 40
0
 40
0
 40
1
 40
1
 40
1
 40
1
 10
122.348439
 20
77.092300
 30
0.0
 10
120.462096
 20
65.803692
 30
0.0
 10
121.756594
 20
48.060226
 30
0.0
 10
127.956190
 20
29.190754
 30
0.0
  0
SPLINE
  5
13a
100
AcDbEntity
  8
Layer_1
 62
7
100
AcDbSpline
 70
8
 71
3
 72
8
 73
4
 74
0
 40
0
 40
0
 40
0
 40
0
 40
1
 40
1
 40
1
 40
1
 10
127.956190
 20
29.190754
 30
0.0
 10
127.956190
 20
29.187919
 30
0.0
 10
127.961860
 20
29.187919
 30
0.0
 10
127.961860
 20
29.185085
 30
0.0
  0
LWPOLYLINE
  5
13b
100
AcDbEntity
  8
Layer_1
 62
1
100
AcDbPolyline
 90
3
 70
1
 10
193.234736
 20
-115.958675
 30
0.0
 10
193.234736
 20
-115.958675
 30
0.0
 10
193.234736
 20
-115.958675
 30
0.0
  0
SPLINE
  5
13c
100
AcDbEntity
  8
Layer_1
 62
7
100
AcDbSpline
 70
8
 71
3
 72
8
 73
4
 74
0
 40
0
 40
0
 40
0
 40
0
 40
1
 40
1
 40
1
 40
1
 10
127.961860
 20
29.173746
 30
0.0
 10
136.505935
 20
3.252979
 30
0.0
 10
153.452354
 20
-18.409838
 30
0.0
 10
163.908739
 20
-24.296575
 30
0.0
  0
SPLINE
  5
13d
100
AcDbEntity
  8
Layer_1
 62
7
100
AcDbSpline
 70
8
 71
3
 72
8
 73
4
 74
0
 40
0
 40
0
 40
0
 40
0
 40
1
 40
1
 40
1
 40
1
 10
163.908739
 20
-24.296575
 30
0.0
 10
166.351466
 20
-25.671662
 30
0.0
 10
169.786433
 20
-26.413602
 30
0.0
 10
173.260348
 20
-26.470012
 30
0.0
  0
SPLINE
  5
13e
100
AcDbEntity
  8
Layer_1
 62
7
100
AcDbSpline
 70
8
 71
3
 72
8
 73
4
 74
0
 40
0
 40
0
 40
0
 40
0
 40
1
 40
1
 40
1
 40
1
 10
173.260348
 20
-26.470012
 30
0.0
 10
174.155614
 20
-23.030509
 30
0.0
 10
175.097057
 20
-16.995293
 30
0.0
 10
175.674417
 20
-13.462219
 30
0.0
  0
SPLINE
  5
13f
100
AcDbEntity
  8
Layer_1
 62
7
100
AcDbSpline
 70
8
 71
3
 72
8
 73
4
 74
0
 40
0
 40
0
 40
0
 40
0
 40
1
 40
1
 40
1
 40
1
 10
175.674417
 20
-13.462219
 30
0.0
 10
177.587293
 20
-1.790508
 30
0.0
 10
175.953914
 20
16.244048
 30
0.0
 10
170.060345
 20
34.211223
 30
0.0
  0
SPLINE
  5
140
100
AcDbEntity
  8
Layer_1
 62
7
100
AcDbSpline
 70
8
 71
3
 72
8
 73
4
 74
0
 40
0
 40
0
 40
0
 40
0
 40
1
 40
1
 40
1
 40
1
 10
170.060345
 20
34.211223
 30
0.0
 10
164.294024
 20
51.753968
 30
0.0
 10
155.413532
 20
67.101194
 30
0.0
 10
146.635315
 20
77.029966
 30
0.0
  0
SPLINE
  5
141
100
AcDbEntity
  8
Layer_1
 62
7
100
AcDbSpline
 70
8
 71
3
 72
8
 73
4
 74
0
 40
0
 40
0
 40
0
 40
0
 40
1
 40
1
 40
1
 40
1
 10
146.635315
 20
77.029966
 30
0.0
 10
137.857154
 20
86.958738
 30
0.0
 10
129.618597
 20
89.909236
 30
0.0
 10
128.072836
 20
89.875277
 30
0.0
  0
LWPOLYLINE
  5
142
100
AcDbEntity
  8
Layer_1
 62
7
100
AcDbPolyline
 90
2
 70
1
 10
127.961860
 20
29.185085
 30
0.0
 10
127.961860
 20
29.173746
 30
0.0
  0
SPLINE
  5
143
100
AcDbEntity
  8
Layer_1
 62
7
100
AcDbSpline
 70
8
 71
3
 72
8
 73
4
 74
0
 40
0
 40
0
 40
0
 40
0
 40
1
 40
1
 40
1
 40
1
 10
261.553070
 20
52.426913
 30
0.0
 10
258.197076
 20
45.645193
 30
0.0
 10
256.563555
 20
41.073929
 30
0.0
 10
254.307800
 20
34.211280
 30
0.0
  0
SPLINE
  5
144
100
AcDbEntity
  8
Layer_1
 62
7
100
AcDbSpline
 70
8
 71
3
 72
8
 73
4
 74
0
 40
0
 40
0
 40
0
 40
0
 40
1
 40
1
 40
1
 40
1
 10
254.307800
 20
34.211280
 30
0.0
 10
248.144515
 20
15.460835
 30
0.0
 10
246.821303
 20
-2.163944
 30
0.0
 10
248.660903
 20
-13.473075
 30
0.0
  0
SPLINE
  5
145
100
AcDbEntity
  8
Layer_1
 62
7
100
AcDbSpline
 70
8
 71
3
 72
8
 73
4
 74
0
 40
0
 40
0
 40
0
 40
0
 40
1
 40
1
 40
1
 40
1
 10
248.660903
 20
-13.473075
 30
0.0
 10
249.307230
 20
-17.452493
 30
0.0
 10
249.906021
 20
-21.454078
 30
0.0
 10
251.354667
 20
-25.551218
 30
0.0
  0
SPLINE
  5
146
100
AcDbEntity
  8
Layer_1
 62
7
100
AcDbSpline
 70
8
 71
3
 72
8
 73
4
 74
0
 40
0
 40
0
 40
0
 40
0
 40
1
 40
1
 40
1
 40
1
 10
251.354667
 20
-25.551218
 30
0.0
 10
254.268342
 20
-26.025936
 30
0.0
 10
258.012257
 20
-25.773171
 30
0.0
 10
260.459322
 20
-24.385583
 30
0.0
  0
SPLINE
  5
147
100
AcDbEntity
  8
Layer_1
 62
7
100
AcDbSpline
 70
8
 71
3
 72
8
 73
4
 74
0
 40
0
 40
0
 40
0
 40
0
 40
1
 40
1
 40
1
 40
1
 10
260.459322
 20
-24.385583
 30
0.0
 10
270.560752
 20
-18.657869
 30
0.0
 10
287.584982
 20
2.332428
 30
0.0
 10
296.407788
 20
29.173803
 30
0.0
  0
SPLINE
  5
148
100
AcDbEntity
  8
Layer_1
 62
7
100
AcDbSpline
 70
8
 71
3
 72
8
 73
4
 74
0
 40
0
 40
0
 40
0
 40
0
 40
1
 40
1
 40
1
 40
1
 10
296.407788
 20
29.173803
 30
0.0
 10
296.600544
 20
29.760489
 30
0.0
 10
296.778361
 20
30.348763
 30
0.0
 10
296.962443
 20
30.936272
 30
0.0
  0
SPLINE
  5
149
100
AcDbEntity
  8
Layer_1
 62
7
100
AcDbSpline
 70
8
 71
3
 72
8
 73
4
 74
0
 40
0
 40
0
 40
0
 40
0
 40
1
 40
1
 40
1
 40
1
 10
296.962443
 20
30.936272
 30
0.0
 10
285.931391
 20
34.242291
 30
0.0
 10
273.495630
 20
41.643240
 30
0.0
 10
261.553070
 20
52.426913
 30
0.0
  0
LWPOLYLINE
  5
14a
100
AcDbEntity
  8
Layer_1
 62
7
100
AcDbPolyline
 90
3
 70
1
 10
128.072836
 20
89.875277
 30
0.0
 10
128.071305
 20
89.875277
 30
0.0
 10
128.071872
 20
89.875334
 30
0.0
  0
SPLINE
  5
14b
100
AcDbEntity
  8
Layer_1
 62
7
100
AcDbSpline
 70
8
 71
3
 72
8
 73
4
 74
0
 40
0
 40
0
 40
0
 40
0
 40
1
 40
1
 40
1
 40
1
 10
127.567643
 20
113.543011
 30
0.0
 10
125.922188
 20
113.506727
 30
0.0
 10
124.301479
 20
113.317657
 30
0.0
 10
122.723290
 20
112.972765
 30
0.0
  0
SPLINE
  5
14c
100
AcDbEntity
  8
Layer_1
 62
7
100
AcDbSpline
 70
8
 71
3
 72
8
 73
4
 74
0
 40
0
 40
0
 40
0
 40
0
 40
1
 40
1
 40
1
 40
1
 10
122.723290
 20
112.972765
 30
0.0
 10
116.210210
 20
111.550227
 30
0.0
 10
110.798559
 20
107.532966
 30
0.0
 10
106.878074
 20
101.944235
 30
0.0
  0
SPLINE
  5
14d
100
AcDbEntity
  8
Layer_1
 62
7
100
AcDbSpline
 70
8
 71
3
 72
8
 73
4
 74
0
 40
0
 40
0
 40
0
 40
0
 40
1
 40
1
 40
1
 40
1
 10
106.878074
 20
101.944235
 30
0.0
 10
102.957561
 20
96.355476
 30
0.0
 10
100.389967
 20
89.209334
 30
0.0
 10
99.016354
 20
80.988889
 30
0.0
  0
SPLINE
  5
14e
100
AcDbEntity
  8
Layer_1
 62
7
100
AcDbSpline
 70
8
 71
3
 72
8
 73
4
 74
0
 40
0
 40
0
 40
0
 40
0
 40
1
 40
1
 40
1
 40
1
 10
99.016354
 20
80.988889
 30
0.0
 10
96.269101
 20
64.547972
 30
0.0
 10
98.289835
 20
43.682682
 30
0.0
 10
105.488418
 20
21.782435
 30
0.0
  0
SPLINE
  5
14f
100
AcDbEntity
  8
Layer_1
 62
7
100
AcDbSpline
 70
8
 71
3
 72
8
 73
4
 74
0
 40
0
 40
0
 40
0
 40
0
 40
1
 40
1
 40
1
 40
1
 10
105.488418
 20
21.782435
 30
0.0
 10
105.490307
 20
21.782434
 30
0.0
 10
105.492197
 20
21.782434
 30
0.0
 10
105.494087
 20
21.782435
 30
0.0
  0
SPLINE
  5
150
100
AcDbEntity
  8
Layer_1
 62
7
100
AcDbSpline
 70
8
 71
3
 72
8
 73
4
 74
0
 40
0
 40
0
 40
0
 40
0
 40
1
 40
1
 40
1
 40
1
 10
105.494087
 20
21.782435
 30
0.0
 10
114.789967
 20
-6.433233
 30
0.0
 10
130.844635
 20
-30.231445
 30
0.0
 10
148.689240
 20
-42.152123
 30
0.0
  0
SPLINE
  5
151
100
AcDbEntity
  8
Layer_1
 62
7
100
AcDbSpline
 70
8
 71
3
 72
8
 73
4
 74
0
 40
0
 40
0
 40
0
 40
0
 40
1
 40
1
 40
1
 40
1
 10
148.689240
 20
-42.152123
 30
0.0
 10
128.957158
 20
-62.877324
 30
0.0
 10
115.371070
 20
-90.368456
 30
0.0
 10
115.371070
 20
-115.808609
 30
0.0
  0
SPLINE
  5
152
100
AcDbEntity
  8
Layer_1
 62
7
100
AcDbSpline
 70
8
 71
3
 72
8
 73
4
 74
0
 40
0
 40
0
 40
0
 40
0
 40
1
 40
1
 40
1
 40
1
 10
115.371070
 20
-115.808609
 30
0.0
 10
115.371070
 20
-139.825543
 30
0.0
 10
127.925233
 20
-157.114530
 30
0.0
 10
146.170147
 20
-167.707006
 30
0.0
  0
SPLINE
  5
153
100
AcDbEntity
  8
Layer_1
 62
7
100
AcDbSpline
 70
8
 71
3
 72
8
 73
4
 74
0
 40
0
 40
0
 40
0
 40
0
 40
1
 40
1
 40
1
 40
1
 10
146.170147
 20
-167.707006
 30
0.0
 10
164.415089
 20
-178.299454
 30
0.0
 10
188.245275
 20
-182.727284
 30
0.0
 10
212.197464
 20
-182.727284
 30
0.0
  0
SPLINE
  5
154
100
AcDbEntity
  8
Layer_1
 62
7
100
AcDbSpline
 70
8
 71
3
 72
8
 73
4
 74
0
 40
0
 40
0
 40
0
 40
0
 40
1
 40
1
 40
1
 40
1
 10
212.197464
 20
-182.727284
 30
0.0
 10
236.149681
 20
-182.727284
 30
0.0
 10
259.979498
 20
-178.299454
 30
0.0
 10
278.224780
 20
-167.707006
 30
0.0
  0
SPLINE
  5
155
100
AcDbEntity
  8
Layer_1
 62
7
100
AcDbSpline
 70
8
 71
3
 72
8
 73
4
 74
0
 40
0
 40
0
 40
0
 40
0
 40
1
 40
1
 40
1
 40
1
 10
278.224780
 20
-167.707006
 30
0.0
 10
296.470062
 20
-157.114558
 30
0.0
 10
309.029414
 20
-139.825571
 30
0.0
 10
309.029414
 20
-115.808609
 30
0.0
  0
SPLINE
  5
156
100
AcDbEntity
  8
Layer_1
 62
7
100
AcDbSpline
 70
8
 71
3
 72
8
 73
4
 74
0
 40
0
 40
0
 40
0
 40
0
 40
1
 40
1
 40
1
 40
1
 10
309.029414
 20
-115.808609
 30
0.0
 10
309.029414
 20
-90.391701
 30
0.0
 10
295.463054
 20
-62.931948
 30
0.0
 10
275.761076
 20
-42.213011
 30
0.0
  0
SPLINE
  5
157
100
AcDbEntity
  8
Layer_1
 62
7
100
AcDbSpline
 70
8
 71
3
 72
8
 73
4
 74
0
 40
0
 40
0
 40
0
 40
0
 40
1
 40
1
 40
1
 40
1
 10
275.761076
 20
-42.213011
 30
0.0
 10
293.099328
 20
-30.571744
 30
0.0
 10
309.341140
 20
-7.317699
 30
0.0
 10
318.906368
 20
21.782435
 30
0.0
  0
SPLINE
  5
158
100
AcDbEntity
  8
Layer_1
 62
7
100
AcDbSpline
 70
8
 71
3
 72
8
 73
4
 74
0
 40
0
 40
0
 40
0
 40
0
 40
1
 40
1
 40
1
 40
1
 10
318.906368
 20
21.782435
 30
0.0
 10
319.547281
 20
23.732246
 30
0.0
 10
320.105820
 20
25.664398
 30
0.0
 10
320.661410
 20
27.590143
 30
0.0
  0
SPLINE
  5
159
100
AcDbEntity
  8
Layer_1
 62
7
100
AcDbSpline
 70
8
 71
3
 72
8
 73
4
 74
0
 40
0
 40
0
 40
0
 40
0
 40
1
 40
1
 40
1
 40
1
 10
320.661410
 20
27.590143
 30
0.0
 10
323.456371
 20
28.841412
 30
0.0
 10
326.063395
 20
30.479214
 30
0.0
 10
328.179883
 20
32.788827
 30
0.0
  0
SPLINE
  5
15a
100
AcDbEntity
  8
Layer_1
 62
7
100
AcDbSpline
 70
8
 71
3
 72
8
 73
4
 74
0
 40
0
 40
0
 40
0
 40
0
 40
1
 40
1
 40
1
 40
1
 10
328.179883
 20
32.788827
 30
0.0
 10
334.564554
 20
39.756103
 30
0.0
 10
336.198585
 20
50.063725
 30
0.0
 10
334.546752
 20
61.389978
 30
0.0
  0
SPLINE
  5
15b
100
AcDbEntity
  8
Layer_1
 62
7
100
AcDbSpline
 70
8
 71
3
 72
8
 73
4
 74
0
 40
0
 40
0
 40
0
 40
0
 40
1
 40
1
 40
1
 40
1
 10
334.546752
 20
61.389978
 30
0.0
 10
332.894919
 20
72.716231
 30
0.0
 10
327.950560
 20
85.369664
 30
0.0
 10
320.279414
 20
97.974626
 30
0.0
  0
SPLINE
  5
15c
100
AcDbEntity
  8
Layer_1
 62
7
100
AcDbSpline
 70
8
 71
3
 72
8
 73
4
 74
0
 40
0
 40
0
 40
0
 40
0
 40
1
 40
1
 40
1
 40
1
 10
320.279414
 20
97.974626
 30
0.0
 10
319.442473
 20
99.347575
 30
0.0
 10
317.836596
 20
100.050971
 30
0.0
 10
316.259971
 20
99.735196
 30
0.0
  0
SPLINE
  5
15d
100
AcDbEntity
  8
Layer_1
 62
7
100
AcDbSpline
 70
8
 71
3
 72
8
 73
4
 74
0
 40
0
 40
0
 40
0
 40
0
 40
1
 40
1
 40
1
 40
1
 10
316.259971
 20
99.735196
 30
0.0
 10
303.125612
 20
97.113517
 30
0.0
 10
288.082261
 20
92.764235
 30
0.0
 10
274.869722
 20
87.627063
 30
0.0
  0
SPLINE
  5
15e
100
AcDbEntity
  8
Layer_1
 62
7
100
AcDbSpline
 70
8
 71
3
 72
8
 73
4
 74
0
 40
0
 40
0
 40
0
 40
0
 40
1
 40
1
 40
1
 40
1
 10
274.869722
 20
87.627063
 30
0.0
 10
261.657155
 20
82.489891
 30
0.0
 10
250.371779
 20
76.851412
 30
0.0
 10
244.209032
 20
70.331273
 30
0.0
  0
SPLINE
  5
15f
100
AcDbEntity
  8
Layer_1
 62
7
100
AcDbSpline
 70
8
 71
3
 72
8
 73
4
 74
0
 40
0
 40
0
 40
0
 40
0
 40
1
 40
1
 40
1
 40
1
 10
244.209032
 20
70.331273
 30
0.0
 10
243.983232
 20
70.089681
 30
0.0
 10
243.789696
 20
69.819843
 30
0.0
 10
243.633259
 20
69.528501
 30
0.0
  0
SPLINE
  5
160
100
AcDbEntity
  8
Layer_1
 62
7
100
AcDbSpline
 70
8
 71
3
 72
8
 73
4
 74
0
 40
0
 40
0
 40
0
 40
0
 40
1
 40
1
 40
1
 40
1
 10
243.633259
 20
69.528501
 30
0.0
 10
236.939243
 20
57.218655
 30
0.0
 10
234.707158
 20
50.323407
 30
0.0
 10
231.840679
 20
41.602818
 30
0.0
  0
SPLINE
  5
161
100
AcDbEntity
  8
Layer_1
 62
7
100
AcDbSpline
 70
8
 71
3
 72
8
 73
4
 74
0
 40
0
 40
0
 40
0
 40
0
 40
1
 40
1
 40
1
 40
1
 10
231.840679
 20
41.602818
 30
0.0
 10
225.377546
 20
21.940212
 30
0.0
 10
223.299467
 20
3.294648
 30
0.0
 10
224.886925
 20
-12.244398
 30
0.0
  0
SPLINE
  5
162
100
AcDbEntity
  8
Layer_1
 62
7
100
AcDbSpline
 70
8
 71
3
 72
8
 73
4
 74
0
 40
0
 40
0
 40
0
 40
0
 40
1
 40
1
 40
1
 40
1
 10
224.886925
 20
-12.244398
 30
0.0
 10
220.680821
 20
-11.417730
 30
0.0
 10
216.480613
 20
-10.489327
 30
0.0
 10
212.197464
 20
-10.489327
 30
0.0
  0
SPLINE
  5
163
100
AcDbEntity
  8
Layer_1
 62
7
100
AcDbSpline
 70
8
 71
3
 72
8
 73
4
 74
0
 40
0
 40
0
 40
0
 40
0
 40
1
 40
1
 40
1
 40
1
 10
212.197464
 20
-10.489327
 30
0.0
 10
207.898893
 20
-10.489327
 30
0.0
 10
203.683974
 20
-11.422890
 30
0.0
 10
199.463697
 20
-12.255453
 30
0.0
  0
SPLINE
  5
164
100
AcDbEntity
  8
Layer_1
 62
7
100
AcDbSpline
 70
8
 71
3
 72
8
 73
4
 74
0
 40
0
 40
0
 40
0
 40
0
 40
1
 40
1
 40
1
 40
1
 10
199.463697
 20
-12.255453
 30
0.0
 10
201.110597
 20
3.783058
 30
0.0
 10
198.780292
 20
22.644961
 30
0.0
 10
192.559804
 20
41.602818
 30
0.0
  0
SPLINE
  5
165
100
AcDbEntity
  8
Layer_1
 62
7
100
AcDbSpline
 70
8
 71
3
 72
8
 73
4
 74
0
 40
0
 40
0
 40
0
 40
0
 40
1
 40
1
 40
1
 40
1
 10
192.559804
 20
41.602818
 30
0.0
 10
185.864484
 20
61.971761
 30
0.0
 10
175.772040
 20
79.823623
 30
0.0
 10
164.379429
 20
92.709470
 30
0.0
  0
SPLINE
  5
166
100
AcDbEntity
  8
Layer_1
 62
7
100
AcDbSpline
 70
8
 71
3
 72
8
 73
4
 74
0
 40
0
 40
0
 40
0
 40
0
 40
1
 40
1
 40
1
 40
1
 10
164.379429
 20
92.709470
 30
0.0
 10
152.986818
 20
105.595344
 30
0.0
 10
140.210559
 20
113.820863
 30
0.0
 10
127.567785
 20
113.543011
 30
0.0
  0
LWPOLYLINE
  5
167
100
AcDbEntity
  8
Layer_1
 62
7
100
AcDbPolyline
 90
2
 70
1
 10
261.553070
 20
52.426913
 30
0.0
 10
261.553070
 20
52.426913
 30
0.0
  0
SPLINE
  5
168
100
AcDbEntity
  8
Layer_1
 62
7
100
AcDbSpline
 70
8
 71
3
 72
8
 73
4
 74
0
 40
0
 40
0
 40
0
 40
0
 40
1
 40
1
 40
1
 40
1
 10
127.733753
 20
105.886151
 30
0.0
 10
136.788235
 20
106.085143
 30
0.0
 10
148.101873
 20
99.567810
 30
0.0
 10
158.649107
 20
87.638118
 30
0.0
  0
SPLINE
  5
169
100
AcDbEntity
  8
Layer_1
 62
7
100
AcDbSpline
 70
8
 71
3
 72
8
 73
4
 74
0
 40
0
 40
0
 40
0
 40
0
 40
1
 40
1
 40
1
 40
1
 10
158.649107
 20
87.638118
 30
0.0
 10
169.196314
 20
75.708454
 30
0.0
 10
178.895394
 20
58.671694
 30
0.0
 10
185.290326
 20
39.216613
 30
0.0
  0
LWPOLYLINE
  5
16a
100
AcDbEntity
  8
Layer_1
 62
7
100
AcDbPolyline
 90
2
 70
1
 10
127.567785
 20
113.543011
 30
0.0
 10
127.567643
 20
113.543011
 30
0.0
  0
SPLINE
  5
16b
100
AcDbEntity
  8
Layer_1
 62
7
100
AcDbSpline
 70
8
 71
3
 72
8
 73
4
 74
0
 40
0
 40
0
 40
0
 40
0
 40
1
 40
1
 40
1
 40
1
 10
185.284657
 20
39.216613
 30
0.0
 10
191.835665
 20
19.251493
 30
0.0
 10
193.992830
 20
-0.782735
 30
0.0
 10
191.490972
 20
-16.047898
 30
0.0
  0
SPLINE
  5
16c
100
AcDbEntity
  8
Layer_1
 62
7
100
AcDbSpline
 70
8
 71
3
 72
8
 73
4
 74
0
 40
0
 40
0
 40
0
 40
0
 40
1
 40
1
 40
1
 40
1
 10
191.490972
 20
-16.047898
 30
0.0
 10
191.278941
 20
-17.334821
 30
0.0
 10
191.736897
 20
-18.641128
 30
0.0
 10
192.706077
 20
-19.513950
 30
0.0
  0
SPLINE
  5
16d
100
AcDbEntity
  8
Layer_1
 62
7
100
AcDbSpline
 70
8
 71
3
 72
8
 73
4
 74
0
 40
0
 40
0
 40
0
 40
0
 40
1
 40
1
 40
1
 40
1
 10
192.706077
 20
-19.513950
 30
0.0
 10
193.675257
 20
-20.386772
 30
0.0
 10
195.022217
 20
-20.705932
 30
0.0
 10
196.279993
 20
-20.360783
 30
0.0
  0
SPLINE
  5
16e
100
AcDbEntity
  8
Layer_1
 62
7
100
AcDbSpline
 70
8
 71
3
 72
8
 73
4
 74
0
 40
0
 40
0
 40
0
 40
0
 40
1
 40
1
 40
1
 40
1
 10
196.279993
 20
-20.360783
 30
0.0
 10
201.561051
 20
-18.917183
 30
0.0
 10
206.885848
 20
-18.140660
 30
0.0
 10
212.197180
 20
-18.140660
 30
0.0
  0
SPLINE
  5
16f
100
AcDbEntity
  8
Layer_1
 62
7
100
AcDbSpline
 70
8
 71
3
 72
8
 73
4
 74
0
 40
0
 40
0
 40
0
 40
0
 40
1
 40
1
 40
1
 40
1
 10
212.197180
 20
-18.140660
 30
0.0
 10
217.497287
 20
-18.140660
 30
0.0
 10
222.817407
 20
-18.912364
 30
0.0
 10
228.086701
 20
-20.349700
 30
0.0
  0
SPLINE
  5
170
100
AcDbEntity
  8
Layer_1
 62
7
100
AcDbSpline
 70
8
 71
3
 72
8
 73
4
 74
0
 40
0
 40
0
 40
0
 40
0
 40
1
 40
1
 40
1
 40
1
 10
228.086701
 20
-20.349700
 30
0.0
 10
229.342621
 20
-20.691864
 30
0.0
 10
230.686347
 20
-20.372214
 30
0.0
 10
231.653667
 20
-19.501179
 30
0.0
  0
SPLINE
  5
171
100
AcDbEntity
  8
Layer_1
 62
7
100
AcDbSpline
 70
8
 71
3
 72
8
 73
4
 74
0
 40
0
 40
0
 40
0
 40
0
 40
1
 40
1
 40
1
 40
1
 10
231.653667
 20
-19.501179
 30
0.0
 10
232.620987
 20
-18.630144
 30
0.0
 10
233.079259
 20
-17.327162
 30
0.0
 10
232.870166
 20
-16.042370
 30
0.0
  0
SPLINE
  5
172
100
AcDbEntity
  8
Layer_1
 62
7
100
AcDbSpline
 70
8
 71
3
 72
8
 73
4
 74
0
 40
0
 40
0
 40
0
 40
0
 40
1
 40
1
 40
1
 40
1
 10
232.870166
 20
-16.042370
 30
0.0
 10
230.471432
 20
-1.295834
 30
0.0
 10
232.277668
 20
18.431714
 30
0.0
 10
239.109703
 20
39.216613
 30
0.0
  0
SPLINE
  5
173
100
AcDbEntity
  8
Layer_1
 62
7
100
AcDbSpline
 70
8
 71
3
 72
8
 73
4
 74
0
 40
0
 40
0
 40
0
 40
0
 40
1
 40
1
 40
1
 40
1
 10
239.109703
 20
39.216613
 30
0.0
 10
241.926065
 20
47.784727
 30
0.0
 10
243.912216
 20
53.858551
 30
0.0
 10
250.066289
 20
65.276532
 30
0.0
  0
SPLINE
  5
174
100
AcDbEntity
  8
Layer_1
 62
7
100
AcDbSpline
 70
8
 71
3
 72
8
 73
4
 74
0
 40
0
 40
0
 40
0
 40
0
 40
1
 40
1
 40
1
 40
1
 10
250.066289
 20
65.276532
 30
0.0
 10
254.472887
 20
69.790507
 30
0.0
 10
265.076276
 20
75.610007
 30
0.0
 10
277.643168
 20
80.496143
 30
0.0
  0
SPLINE
  5
175
100
AcDbEntity
  8
Layer_1
 62
7
100
AcDbSpline
 70
8
 71
3
 72
8
 73
4
 74
0
 40
0
 40
0
 40
0
 40
0
 40
1
 40
1
 40
1
 40
1
 10
277.643168
 20
80.496143
 30
0.0
 10
289.493773
 20
85.103775
 30
0.0
 10
302.955675
 20
88.973973
 30
0.0
 10
314.964169
 20
91.541312
 30
0.0
  0
SPLINE
  5
176
100
AcDbEntity
  8
Layer_1
 62
7
100
AcDbSpline
 70
8
 71
3
 72
8
 73
4
 74
0
 40
0
 40
0
 40
0
 40
0
 40
1
 40
1
 40
1
 40
1
 10
314.964169
 20
91.541312
 30
0.0
 10
321.349634
 20
80.484577
 30
0.0
 10
325.622409
 20
69.546444
 30
0.0
 10
326.972664
 20
60.288208
 30
0.0
  0
SPLINE
  5
177
100
AcDbEntity
  8
Layer_1
 62
7
100
AcDbSpline
 70
8
 71
3
 72
8
 73
4
 74
0
 40
0
 40
0
 40
0
 40
0
 40
1
 40
1
 40
1
 40
1
 10
326.972664
 20
60.288208
 30
0.0
 10
328.424088
 20
50.336135
 30
0.0
 10
326.780192
 20
42.589161
 30
0.0
 10
322.537974
 20
37.959844
 30
0.0
  0
SPLINE
  5
178
100
AcDbEntity
  8
Layer_1
 62
7
100
AcDbSpline
 70
8
 71
3
 72
8
 73
4
 74
0
 40
0
 40
0
 40
0
 40
0
 40
1
 40
1
 40
1
 40
1
 10
322.537974
 20
37.959844
 30
0.0
 10
320.802831
 20
36.066357
 30
0.0
 10
318.728834
 20
34.747822
 30
0.0
 10
316.231993
 20
33.890568
 30
0.0
  0
SPLINE
  5
179
100
AcDbEntity
  8
Layer_1
 62
7
100
AcDbSpline
 70
8
 71
3
 72
8
 73
4
 74
0
 40
0
 40
0
 40
0
 40
0
 40
1
 40
1
 40
1
 40
1
 10
316.231993
 20
33.890568
 30
0.0
 10
315.040195
 20
33.479949
 30
0.0
 10
314.127023
 20
32.508794
 30
0.0
 10
313.790456
 20
31.294004
 30
0.0
  0
SPLINE
  5
17a
100
AcDbEntity
  8
Layer_1
 62
7
100
AcDbSpline
 70
8
 71
3
 72
8
 73
4
 74
0
 40
0
 40
0
 40
0
 40
0
 40
1
 40
1
 40
1
 40
1
 10
313.790456
 20
31.294004
 30
0.0
 10
313.134179
 20
28.933963
 30
0.0
 10
312.420784
 20
26.559324
 30
0.0
 10
311.636777
 20
24.174168
 30
0.0
  0
SPLINE
  5
17b
100
AcDbEntity
  8
Layer_1
 62
7
100
AcDbSpline
 70
8
 71
3
 72
8
 73
4
 74
0
 40
0
 40
0
 40
0
 40
0
 40
1
 40
1
 40
1
 40
1
 10
311.636777
 20
24.174168
 30
0.0
 10
301.857051
 20
-5.578445
 30
0.0
 10
284.295032
 20
-29.288472
 30
0.0
 10
268.375209
 20
-38.315373
 30
0.0
  0
SPLINE
  5
17c
100
AcDbEntity
  8
Layer_1
 62
7
100
AcDbSpline
 70
8
 71
3
 72
8
 73
4
 74
0
 40
0
 40
0
 40
0
 40
0
 40
1
 40
1
 40
1
 40
1
 10
268.375209
 20
-38.315373
 30
0.0
 10
267.330930
 20
-38.907403
 30
0.0
 10
266.624933
 20
-39.955103
 30
0.0
 10
266.468276
 20
-41.145261
 30
0.0
  0
SPLINE
  5
17d
100
AcDbEntity
  8
Layer_1
 62
7
100
AcDbSpline
 70
8
 71
3
 72
8
 73
4
 74
0
 40
0
 40
0
 40
0
 40
0
 40
1
 40
1
 40
1
 40
1
 10
266.468276
 20
-41.145261
 30
0.0
 10
266.311619
 20
-42.335419
 30
0.0
 10
266.722456
 20
-43.530124
 30
0.0
 10
267.577965
 20
-44.372217
 30
0.0
  0
SPLINE
  5
17e
100
AcDbEntity
  8
Layer_1
 62
7
100
AcDbSpline
 70
8
 71
3
 72
8
 73
4
 74
0
 40
0
 40
0
 40
0
 40
0
 40
1
 40
1
 40
1
 40
1
 10
267.577965
 20
-44.372217
 30
0.0
 10
287.633848
 20
-64.099283
 30
0.0
 10
301.372270
 20
-91.982504
 30
0.0
 10
301.372270
 20
-115.808609
 30
0.0
  0
SPLINE
  5
17f
100
AcDbEntity
  8
Layer_1
 62
7
100
AcDbSpline
 70
8
 71
3
 72
8
 73
4
 74
0
 40
0
 40
0
 40
0
 40
0
 40
1
 40
1
 40
1
 40
1
 10
301.372270
 20
-115.808609
 30
0.0
 10
301.372270
 20
-137.240204
 30
0.0
 10
290.902081
 20
-151.494703
 30
0.0
 10
274.382220
 20
-161.085443
 30
0.0
  0
SPLINE
  5
180
100
AcDbEntity
  8
Layer_1
 62
7
100
AcDbSpline
 70
8
 71
3
 72
8
 73
4
 74
0
 40
0
 40
0
 40
0
 40
0
 40
1
 40
1
 40
1
 40
1
 10
274.382220
 20
-161.085443
 30
0.0
 10
257.862387
 20
-170.676156
 30
0.0
 10
235.190664
 20
-175.070424
 30
0.0
 10
212.197180
 20
-175.070424
 30
0.0
  0
SPLINE
  5
181
100
AcDbEntity
  8
Layer_1
 62
7
100
AcDbSpline
 70
8
 71
3
 72
8
 73
4
 74
0
 40
0
 40
0
 40
0
 40
0
 40
1
 40
1
 40
1
 40
1
 10
212.197180
 20
-175.070424
 30
0.0
 10
189.203725
 20
-175.070424
 30
0.0
 10
166.531605
 20
-170.676156
 30
0.0
 10
150.012141
 20
-161.085443
 30
0.0
  0
SPLINE
  5
182
100
AcDbEntity
  8
Layer_1
 62
7
100
AcDbSpline
 70
8
 71
3
 72
8
 73
4
 74
0
 40
0
 40
0
 40
0
 40
0
 40
1
 40
1
 40
1
 40
1
 10
150.012141
 20
-161.085443
 30
0.0
 10
133.492704
 20
-151.494731
 30
0.0
 10
123.022118
 20
-137.240261
 30
0.0
 10
123.022118
 20
-115.808609
 30
0.0
  0
SPLINE
  5
183
100
AcDbEntity
  8
Layer_1
 62
7
100
AcDbSpline
 70
8
 71
3
 72
8
 73
4
 74
0
 40
0
 40
0
 40
0
 40
0
 40
1
 40
1
 40
1
 40
1
 10
123.022118
 20
-115.808609
 30
0.0
 10
123.022118
 20
-91.960535
 30
0.0
 10
136.786534
 20
-64.047041
 30
0.0
 10
156.871756
 20
-44.316857
 30
0.0
  0
SPLINE
  5
184
100
AcDbEntity
  8
Layer_1
 62
7
100
AcDbSpline
 70
8
 71
3
 72
8
 73
4
 74
0
 40
0
 40
0
 40
0
 40
0
 40
1
 40
1
 40
1
 40
1
 10
156.871756
 20
-44.316857
 30
0.0
 10
157.729036
 20
-43.473979
 30
0.0
 10
158.140426
 20
-42.277255
 30
0.0
 10
157.982605
 20
-41.085423
 30
0.0
  0
SPLINE
  5
185
100
AcDbEntity
  8
Layer_1
 62
7
100
AcDbSpline
 70
8
 71
3
 72
8
 73
4
 74
0
 40
0
 40
0
 40
0
 40
0
 40
1
 40
1
 40
1
 40
1
 10
157.982605
 20
-41.085423
 30
0.0
 10
157.824784
 20
-39.893590
 30
0.0
 10
157.116097
 20
-38.845186
 30
0.0
 10
156.068985
 20
-38.254485
 30
0.0
  0
SPLINE
  5
186
100
AcDbEntity
  8
Layer_1
 62
7
100
AcDbSpline
 70
8
 71
3
 72
8
 73
4
 74
0
 40
0
 40
0
 40
0
 40
0
 40
1
 40
1
 40
1
 40
1
 10
156.068985
 20
-38.254485
 30
0.0
 10
139.612619
 20
-28.989870
 30
0.0
 10
122.248629
 20
-4.613815
 30
0.0
 10
112.763139
 20
24.174168
 30
0.0
  0
LWPOLYLINE
  5
187
100
AcDbEntity
  8
Layer_1
 62
7
100
AcDbPolyline
 90
2
 70
1
 10
185.290326
 20
39.216613
 30
0.0
 10
185.284657
 20
39.216613
 30
0.0
  0
SPLINE
  5
188
100
AcDbEntity
  8
Layer_1
 62
7
100
AcDbSpline
 70
8
 71
3
 72
8
 73
4
 74
0
 40
0
 40
0
 40
0
 40
0
 40
1
 40
1
 40
1
 40
1
 10
112.763139
 20
24.179837
 30
0.0
 10
105.887394
 20
45.100260
 30
0.0
 10
104.099044
 20
64.951937
 30
0.0
 10
106.567879
 20
79.726735
 30
0.0
  0
SPLINE
  5
189
100
AcDbEntity
  8
Layer_1
 62
7
100
AcDbSpline
 70
8
 71
3
 72
8
 73
4
 74
0
 40
0
 40
0
 40
0
 40
0
 40
1
 40
1
 40
1
 40
1
 10
106.567879
 20
79.726735
 30
0.0
 10
107.802395
 20
87.114729
 30
0.0
 10
110.098118
 20
93.204852
 30
0.0
 10
113.145136
 20
97.548465
 30
0.0
  0
SPLINE
  5
18a
100
AcDbEntity
  8
Layer_1
 62
7
100
AcDbSpline
 70
8
 71
3
 72
8
 73
4
 74
0
 40
0
 40
0
 40
0
 40
0
 40
1
 40
1
 40
1
 40
1
 10
113.145136
 20
97.548465
 30
0.0
 10
116.192153
 20
101.892050
 30
0.0
 10
119.851709
 20
104.509335
 30
0.0
 10
124.356386
 20
105.493212
 30
0.0
  0
SPLINE
  5
18b
100
AcDbEntity
  8
Layer_1
 62
7
100
AcDbSpline
 70
8
 71
3
 72
8
 73
4
 74
0
 40
0
 40
0
 40
0
 40
0
 40
1
 40
1
 40
1
 40
1
 10
124.356386
 20
105.493212
 30
0.0
 10
125.438909
 20
105.729621
 30
0.0
 10
126.561967
 20
105.860469
 30
0.0
 10
127.733611
 20
105.886292
 30
0.0
  0
LWPOLYLINE
  5
18c
100
AcDbEntity
  8
Layer_1
 62
7
100
AcDbPolyline
 90
2
 70
1
 10
112.763139
 20
24.174168
 30
0.0
 10
112.763139
 20
24.179837
 30
0.0
  0
SPLINE
  5
18d
100
AcDbEntity
  8
Layer_1
 62
7
100
AcDbSpline
 70
8
 71
3
 72
8
 73
4
 74
0
 40
0
 40
0
 40
0
 40
0
 40
1
 40
1
 40
1
 40
1
 10
127.252090
 20
127.710713
 30
0.0
 10
124.729142
 20
127.655154
 30
0.0
 10
122.190915
 20
127.364659
 30
0.0
 10
119.694868
 20
126.819358
 30
0.0
  0
SPLINE
  5
18e
100
AcDbEntity
  8
Layer_1
 62
7
100
AcDbSpline
 70
8
 71
3
 72
8
 73
4
 74
0
 40
0
 40
0
 40
0
 40
0
 40
1
 40
1
 40
1
 40
1
 10
119.694868
 20
126.819358
 30
0.0
 10
109.464773
 20
124.583390
 30
0.0
 10
100.810799
 20
117.976000
 30
0.0
 10
95.273715
 20
110.082759
 30
0.0
  0
SPLINE
  5
18f
100
AcDbEntity
  8
Layer_1
 62
7
100
AcDbSpline
 70
8
 71
3
 72
8
 73
4
 74
0
 40
0
 40
0
 40
0
 40
0
 40
1
 40
1
 40
1
 40
1
 10
95.273715
 20
110.082759
 30
0.0
 10
89.735696
 20
102.188185
 30
0.0
 10
86.668128
 20
93.087299
 30
0.0
 10
85.036902
 20
83.325261
 30
0.0
  0
SPLINE
  5
190
100
AcDbEntity
  8
Layer_1
 62
7
100
AcDbSpline
 70
8
 71
3
 72
8
 73
4
 74
0
 40
0
 40
0
 40
0
 40
0
 40
1
 40
1
 40
1
 40
1
 10
85.036902
 20
83.325261
 30
0.0
 10
81.774452
 20
63.801184
 30
0.0
 10
84.235520
 20
41.070074
 30
0.0
 10
92.029378
 20
17.358829
 30
0.0
  0
SPLINE
  5
191
100
AcDbEntity
  8
Layer_1
 62
7
100
AcDbSpline
 70
8
 71
3
 72
8
 73
4
 74
0
 40
0
 40
0
 40
0
 40
0
 40
1
 40
1
 40
1
 40
1
 10
92.029378
 20
17.358829
 30
0.0
 10
92.029377
 20
17.355049
 30
0.0
 10
92.029377
 20
17.351270
 30
0.0
 10
92.029378
 20
17.347490
 30
0.0
  0
SPLINE
  5
192
100
AcDbEntity
  8
Layer_1
 62
7
100
AcDbSpline
 70
8
 71
3
 72
8
 73
4
 74
0
 40
0
 40
0
 40
0
 40
0
 40
1
 40
1
 40
1
 40
1
 10
92.029378
 20
17.347490
 30
0.0
 10
100.103696
 20
-7.160348
 30
0.0
 10
112.202843
 20
-29.064478
 30
0.0
 10
128.132361
 20
-44.339279
 30
0.0
  0
SPLINE
  5
193
100
AcDbEntity
  8
Layer_1
 62
7
100
AcDbSpline
 70
8
 71
3
 72
8
 73
4
 74
0
 40
0
 40
0
 40
0
 40
0
 40
1
 40
1
 40
1
 40
1
 10
128.132361
 20
-44.339279
 30
0.0
 10
111.900358
 20
-65.341340
 30
0.0
 10
101.197699
 20
-90.345921
 30
0.0
 10
101.197699
 20
-115.808893
 30
0.0
  0
SPLINE
  5
194
100
AcDbEntity
  8
Layer_1
 62
7
100
AcDbSpline
 70
8
 71
3
 72
8
 73
4
 74
0
 40
0
 40
0
 40
0
 40
0
 40
1
 40
1
 40
1
 40
1
 10
101.197699
 20
-115.808893
 30
0.0
 10
101.197699
 20
-144.613345
 30
0.0
 10
117.615485
 20
-167.517340
 30
0.0
 10
139.055725
 20
-179.964893
 30
0.0
  0
SPLINE
  5
195
100
AcDbEntity
  8
Layer_1
 62
7
100
AcDbSpline
 70
8
 71
3
 72
8
 73
4
 74
0
 40
0
 40
0
 40
0
 40
0
 40
1
 40
1
 40
1
 40
1
 10
139.055725
 20
-179.964893
 30
0.0
 10
160.495936
 20
-192.412475
 30
0.0
 10
186.469709
 20
-196.900797
 30
0.0
 10
212.197322
 20
-196.900797
 30
0.0
  0
SPLINE
  5
196
100
AcDbEntity
  8
Layer_1
 62
7
100
AcDbSpline
 70
8
 71
3
 72
8
 73
4
 74
0
 40
0
 40
0
 40
0
 40
0
 40
1
 40
1
 40
1
 40
1
 10
212.197322
 20
-196.900797
 30
0.0
 10
237.924963
 20
-196.900797
 30
0.0
 10
263.903924
 20
-192.412390
 30
0.0
 10
285.344475
 20
-179.964893
 30
0.0
  0
SPLINE
  5
197
100
AcDbEntity
  8
Layer_1
 62
7
100
AcDbSpline
 70
8
 71
3
 72
8
 73
4
 74
0
 40
0
 40
0
 40
0
 40
0
 40
1
 40
1
 40
1
 40
1
 10
285.344475
 20
-179.964893
 30
0.0
 10
306.785026
 20
-167.517425
 30
0.0
 10
323.202500
 20
-144.613572
 30
0.0
 10
323.202500
 20
-115.808893
 30
0.0
  0
SPLINE
  5
198
100
AcDbEntity
  8
Layer_1
 62
7
100
AcDbSpline
 70
8
 71
3
 72
8
 73
4
 74
0
 40
0
 40
0
 40
0
 40
0
 40
1
 40
1
 40
1
 40
1
 10
323.202500
 20
-115.808893
 30
0.0
 10
323.202500
 20
-90.339430
 30
0.0
 10
312.489467
 20
-65.332836
 30
0.0
 10
296.251228
 20
-44.328195
 30
0.0
  0
SPLINE
  5
199
100
AcDbEntity
  8
Layer_1
 62
7
100
AcDbSpline
 70
8
 71
3
 72
8
 73
4
 74
0
 40
0
 40
0
 40
0
 40
0
 40
1
 40
1
 40
1
 40
1
 10
296.251228
 20
-44.328195
 30
0.0
 10
311.828513
 20
-29.341706
 30
0.0
 10
324.113555
 20
-7.762313
 30
0.0
 10
332.370793
 20
17.358545
 30
0.0
  0
SPLINE
  5
19a
100
AcDbEntity
  8
Layer_1
 62
7
100
AcDbSpline
 70
8
 71
3
 72
8
 73
4
 74
0
 40
0
 40
0
 40
0
 40
0
 40
1
 40
1
 40
1
 40
1
 10
332.370793
 20
17.358545
 30
0.0
 10
332.459234
 20
17.627837
 30
0.0
 10
332.527549
 20
17.887150
 30
0.0
 10
332.614289
 20
18.155789
 30
0.0
  0
SPLINE
  5
19b
100
AcDbEntity
  8
Layer_1
 62
7
100
AcDbSpline
 70
8
 71
3
 72
8
 73
4
 74
0
 40
0
 40
0
 40
0
 40
0
 40
1
 40
1
 40
1
 40
1
 10
332.614289
 20
18.155789
 30
0.0
 10
334.753483
 20
19.654949
 30
0.0
 10
336.842163
 20
21.262505
 30
0.0
 10
338.632384
 20
23.216086
 30
0.0
  0
SPLINE
  5
19c
100
AcDbEntity
  8
Layer_1
 62
7
100
AcDbSpline
 70
8
 71
3
 72
8
 73
4
 74
0
 40
0
 40
0
 40
0
 40
0
 40
1
 40
1
 40
1
 40
1
 10
338.632384
 20
23.216086
 30
0.0
 10
348.984595
 20
34.512915
 30
0.0
 10
350.598755
 20
49.567152
 30
0.0
 10
348.575782
 20
63.438151
 30
0.0
  0
SPLINE
  5
19d
100
AcDbEntity
  8
Layer_1
 62
7
100
AcDbSpline
 70
8
 71
3
 72
8
 73
4
 74
0
 40
0
 40
0
 40
0
 40
0
 40
1
 40
1
 40
1
 40
1
 10
348.575782
 20
63.438151
 30
0.0
 10
346.552809
 20
77.309179
 30
0.0
 10
340.852053
 20
91.434361
 30
0.0
 10
332.387291
 20
105.343316
 30
0.0
  0
SPLINE
  5
19e
100
AcDbEntity
  8
Layer_1
 62
7
100
AcDbSpline
 70
8
 71
3
 72
8
 73
4
 74
0
 40
0
 40
0
 40
0
 40
0
 40
1
 40
1
 40
1
 40
1
 10
332.387291
 20
105.343316
 30
0.0
 10
328.454722
 20
111.804025
 30
0.0
 10
320.903062
 20
115.117551
 30
0.0
 10
313.485958
 20
113.636866
 30
0.0
  0
SPLINE
  5
19f
100
AcDbEntity
  8
Layer_1
 62
7
100
AcDbSpline
 70
8
 71
3
 72
8
 73
4
 74
0
 40
0
 40
0
 40
0
 40
0
 40
1
 40
1
 40
1
 40
1
 10
313.485958
 20
113.636866
 30
0.0
 10
299.429319
 20
110.831077
 30
0.0
 10
283.819010
 20
106.313955
 30
0.0
 10
269.731672
 20
100.836654
 30
0.0
  0
SPLINE
  5
1a0
100
AcDbEntity
  8
Layer_1
 62
7
100
AcDbSpline
 70
8
 71
3
 72
8
 73
4
 74
0
 40
0
 40
0
 40
0
 40
0
 40
1
 40
1
 40
1
 40
1
 10
269.731672
 20
100.836654
 30
0.0
 10
255.644333
 20
95.359353
 30
0.0
 10
243.541757
 20
90.253249
 30
0.0
 10
233.911048
 20
80.064029
 30
0.0
  0
SPLINE
  5
1a1
100
AcDbEntity
  8
Layer_1
 62
7
100
AcDbSpline
 70
8
 71
3
 72
8
 73
4
 74
0
 40
0
 40
0
 40
0
 40
0
 40
1
 40
1
 40
1
 40
1
 10
233.911048
 20
80.064029
 30
0.0
 10
232.842293
 20
78.932384
 30
0.0
 10
231.924823
 20
77.666903
 30
0.0
 10
231.181596
 20
76.299251
 30
0.0
  0
SPLINE
  5
1a2
100
AcDbEntity
  8
Layer_1
 62
7
100
AcDbSpline
 70
8
 71
3
 72
8
 73
4
 74
0
 40
0
 40
0
 40
0
 40
0
 40
1
 40
1
 40
1
 40
1
 10
231.181596
 20
76.299251
 30
0.0
 10
224.072021
 20
63.225213
 30
0.0
 10
221.225385
 20
54.700724
 30
0.0
 10
218.375857
 20
46.031668
 30
0.0
  0
SPLINE
  5
1a3
100
AcDbEntity
  8
Layer_1
 62
7
100
AcDbSpline
 70
8
 71
3
 72
8
 73
4
 74
0
 40
0
 40
0
 40
0
 40
0
 40
1
 40
1
 40
1
 40
1
 10
218.375857
 20
46.031668
 30
0.0
 10
215.496481
 20
37.271847
 30
0.0
 10
213.593527
 20
28.727686
 30
0.0
 10
212.191681
 20
20.348218
 30
0.0
  0
SPLINE
  5
1a4
100
AcDbEntity
  8
Layer_1
 62
7
100
AcDbSpline
 70
8
 71
3
 72
8
 73
4
 74
0
 40
0
 40
0
 40
0
 40
0
 40
1
 40
1
 40
1
 40
1
 10
212.191681
 20
20.348218
 30
0.0
 10
210.772402
 20
28.833787
 30
0.0
 10
208.849208
 20
37.410745
 30
0.0
 10
206.024116
 20
46.020585
 30
0.0
  0
SPLINE
  5
1a5
100
AcDbEntity
  8
Layer_1
 62
7
100
AcDbSpline
 70
8
 71
3
 72
8
 73
4
 74
0
 40
0
 40
0
 40
0
 40
0
 40
1
 40
1
 40
1
 40
1
 10
206.024116
 20
46.020585
 30
0.0
 10
206.024117
 20
46.024364
 30
0.0
 10
206.024117
 20
46.028144
 30
0.0
 10
206.024116
 20
46.031923
 30
0.0
  0
SPLINE
  5
1a6
100
AcDbEntity
  8
Layer_1
 62
7
100
AcDbSpline
 70
8
 71
3
 72
8
 73
4
 74
0
 40
0
 40
0
 40
0
 40
0
 40
1
 40
1
 40
1
 40
1
 10
206.024116
 20
46.031923
 30
0.0
 10
198.772497
 20
68.093207
 30
0.0
 10
187.956141
 20
87.442641
 30
0.0
 10
174.998011
 20
102.099206
 30
0.0
  0
SPLINE
  5
1a7
100
AcDbEntity
  8
Layer_1
 62
7
100
AcDbSpline
 70
8
 71
3
 72
8
 73
4
 74
0
 40
0
 40
0
 40
0
 40
0
 40
1
 40
1
 40
1
 40
1
 10
174.998011
 20
102.099206
 30
0.0
 10
162.039911
 20
116.755799
 30
0.0
 10
146.539643
 20
128.134549
 30
0.0
 10
127.251977
 20
127.710684
 30
0.0
  0
LWPOLYLINE
  5
1a8
100
AcDbEntity
  8
Layer_1
 62
7
100
AcDbPolyline
 90
2
 70
1
 10
127.733611
 20
105.886292
 30
0.0
 10
127.733753
 20
105.886151
 30
0.0
  0
LWPOLYLINE
  5
1a9
100
AcDbEntity
  8
Layer_1
 62
7
100
AcDbPolyline
 90
2
 70
1
 10
127.251977
 20
127.710684
 30
0.0
 10
127.252090
 20
127.710713
 30
0.0
  0
SPLINE
  5
1aa
100
AcDbEntity
  8
Layer_1
 62
7
100
AcDbSpline
 70
8
 71
3
 72
8
 73
4
 74
0
 40
0
 40
0
 40
0
 40
0
 40
1
 40
1
 40
1
 40
1
 10
128.049448
 20
91.718477
 30
0.0
 10
130.462213
 20
91.769217
 30
0.0
 10
139.051558
 20
88.409624
 30
0.0
 10
148.030383
 20
78.253910
 30
0.0
  0
SPLINE
  5
1ab
100
AcDbEntity
  8
Layer_1
 62
7
100
AcDbSpline
 70
8
 71
3
 72
8
 73
4
 74
0
 40
0
 40
0
 40
0
 40
0
 40
1
 40
1
 40
1
 40
1
 10
148.030383
 20
78.253910
 30
0.0
 10
157.012100
 20
68.094936
 30
0.0
 10
165.987268
 20
52.550220
 30
0.0
 10
171.825901
 20
34.787479
 30
0.0
  0
SPLINE
  5
1ac
100
AcDbEntity
  8
Layer_1
 62
7
100
AcDbSpline
 70
8
 71
3
 72
8
 73
4
 74
0
 40
0
 40
0
 40
0
 40
0
 40
1
 40
1
 40
1
 40
1
 10
171.825901
 20
34.787479
 30
0.0
 10
177.794758
 20
16.590895
 30
0.0
 10
179.486871
 20
-1.671056
 30
0.0
 10
177.506276
 20
-13.755831
 30
0.0
  0
SPLINE
  5
1ad
100
AcDbEntity
  8
Layer_1
 62
7
100
AcDbSpline
 70
8
 71
3
 72
8
 73
4
 74
0
 40
0
 40
0
 40
0
 40
0
 40
1
 40
1
 40
1
 40
1
 10
177.506276
 20
-13.755831
 30
0.0
 10
176.515789
 20
-19.803817
 30
0.0
 10
178.670252
 20
-25.940243
 30
0.0
 10
183.224125
 20
-30.041637
 30
0.0
  0
SPLINE
  5
1ae
100
AcDbEntity
  8
Layer_1
 62
7
100
AcDbSpline
 70
8
 71
3
 72
8
 73
4
 74
0
 40
0
 40
0
 40
0
 40
0
 40
1
 40
1
 40
1
 40
1
 10
183.224125
 20
-30.041637
 30
0.0
 10
187.777998
 20
-34.143031
 30
0.0
 10
194.105621
 20
-35.645899
 30
0.0
 10
200.017360
 20
-34.030182
 30
0.0
  0
SPLINE
  5
1af
100
AcDbEntity
  8
Layer_1
 62
7
100
AcDbSpline
 70
8
 71
3
 72
8
 73
4
 74
0
 40
0
 40
0
 40
0
 40
0
 40
1
 40
1
 40
1
 40
1
 10
200.017360
 20
-34.030182
 30
0.0
 10
204.201977
 20
-32.886318
 30
0.0
 10
208.263797
 20
-32.313889
 30
0.0
 10
212.197464
 20
-32.313889
 30
0.0
  0
SPLINE
  5
1b0
100
AcDbEntity
  8
Layer_1
 62
7
100
AcDbSpline
 70
8
 71
3
 72
8
 73
4
 74
0
 40
0
 40
0
 40
0
 40
0
 40
1
 40
1
 40
1
 40
1
 10
212.197464
 20
-32.313889
 30
0.0
 10
216.124412
 20
-32.313889
 30
0.0
 10
220.182490
 20
-32.886374
 30
0.0
 10
224.355429
 20
-34.024655
 30
0.0
  0
SPLINE
  5
1b1
100
AcDbEntity
  8
Layer_1
 62
7
100
AcDbSpline
 70
8
 71
3
 72
8
 73
4
 74
0
 40
0
 40
0
 40
0
 40
0
 40
1
 40
1
 40
1
 40
1
 10
224.355429
 20
-34.024655
 30
0.0
 10
230.263147
 20
-35.636120
 30
0.0
 10
236.584892
 20
-34.133943
 30
0.0
 10
241.136222
 20
-30.037193
 30
0.0
  0
SPLINE
  5
1b2
100
AcDbEntity
  8
Layer_1
 62
7
100
AcDbSpline
 70
8
 71
3
 72
8
 73
4
 74
0
 40
0
 40
0
 40
0
 40
0
 40
1
 40
1
 40
1
 40
1
 10
241.136222
 20
-30.037193
 30
0.0
 10
245.687551
 20
-25.940443
 30
0.0
 10
247.844212
 20
-19.811021
 30
0.0
 10
246.860985
 20
-13.766915
 30
0.0
  0
SPLINE
  5
1b3
100
AcDbEntity
  8
Layer_1
 62
7
100
AcDbSpline
 70
8
 71
3
 72
8
 73
4
 74
0
 40
0
 40
0
 40
0
 40
0
 40
1
 40
1
 40
1
 40
1
 10
246.860985
 20
-13.766915
 30
0.0
 10
244.957067
 20
-2.062322
 30
0.0
 10
246.334308
 20
15.802977
 30
0.0
 10
252.574553
 20
34.787479
 30
0.0
  0
SPLINE
  5
1b4
100
AcDbEntity
  8
Layer_1
 62
7
100
AcDbSpline
 70
8
 71
3
 72
8
 73
4
 74
0
 40
0
 40
0
 40
0
 40
0
 40
1
 40
1
 40
1
 40
1
 10
252.574553
 20
34.787479
 30
0.0
 10
255.141552
 20
42.596956
 30
0.0
 10
256.896906
 20
47.512516
 30
0.0
 10
261.388544
 20
56.169127
 30
0.0
  0
SPLINE
  5
1b5
100
AcDbEntity
  8
Layer_1
 62
7
100
AcDbSpline
 70
8
 71
3
 72
8
 73
4
 74
0
 40
0
 40
0
 40
0
 40
0
 40
1
 40
1
 40
1
 40
1
 10
261.388544
 20
56.169127
 30
0.0
 10
263.601694
 20
57.829124
 30
0.0
 10
271.995420
 20
63.092608
 30
0.0
 10
282.781247
 20
67.286268
 30
0.0
  0
SPLINE
  5
1b6
100
AcDbEntity
  8
Layer_1
 62
7
100
AcDbSpline
 70
8
 71
3
 72
8
 73
4
 74
0
 40
0
 40
0
 40
0
 40
0
 40
1
 40
1
 40
1
 40
1
 10
282.781247
 20
67.286268
 30
0.0
 10
290.504550
 20
70.289150
 30
0.0
 10
299.031732
 20
72.847928
 30
0.0
 10
307.396176
 20
75.070461
 30
0.0
  0
SPLINE
  5
1b7
100
AcDbEntity
  8
Layer_1
 62
7
100
AcDbSpline
 70
8
 71
3
 72
8
 73
4
 74
0
 40
0
 40
0
 40
0
 40
0
 40
1
 40
1
 40
1
 40
1
 10
307.396176
 20
75.070461
 30
0.0
 10
310.171464
 20
68.796964
 30
0.0
 10
312.274544
 20
62.865581
 30
0.0
 10
312.949190
 20
58.239751
 30
0.0
  0
SPLINE
  5
1b8
100
AcDbEntity
  8
Layer_1
 62
7
100
AcDbSpline
 70
8
 71
3
 72
8
 73
4
 74
0
 40
0
 40
0
 40
0
 40
0
 40
1
 40
1
 40
1
 40
1
 10
312.949190
 20
58.239751
 30
0.0
 10
314.029502
 20
50.832424
 30
0.0
 10
312.365735
 20
47.837593
 30
0.0
 10
312.091058
 20
47.537857
 30
0.0
  0
SPLINE
  5
1b9
100
AcDbEntity
  8
Layer_1
 62
7
100
AcDbSpline
 70
8
 71
3
 72
8
 73
4
 74
0
 40
0
 40
0
 40
0
 40
0
 40
1
 40
1
 40
1
 40
1
 10
312.091058
 20
47.537857
 30
0.0
 10
311.985325
 20
47.422487
 30
0.0
 10
312.093892
 20
47.453385
 30
0.0
 10
311.631533
 20
47.294361
 30
0.0
  0
SPLINE
  5
1ba
100
AcDbEntity
  8
Layer_1
 62
7
100
AcDbSpline
 70
8
 71
3
 72
8
 73
4
 74
0
 40
0
 40
0
 40
0
 40
0
 40
1
 40
1
 40
1
 40
1
 10
311.631533
 20
47.294361
 30
0.0
 10
306.022644
 20
45.369211
 30
0.0
 10
301.721663
 20
40.805239
 30
0.0
 10
300.132396
 20
35.092090
 30
0.0
  0
SPLINE
  5
1bb
100
AcDbEntity
  8
Layer_1
 62
7
100
AcDbSpline
 70
8
 71
3
 72
8
 73
4
 74
0
 40
0
 40
0
 40
0
 40
0
 40
1
 40
1
 40
1
 40
1
 10
300.132396
 20
35.092090
 30
0.0
 10
299.530232
 20
32.926647
 30
0.0
 10
298.882969
 20
30.764918
 30
0.0
 10
298.172494
 20
28.603415
 30
0.0
  0
SPLINE
  5
1bc
100
AcDbEntity
  8
Layer_1
 62
7
100
AcDbSpline
 70
8
 71
3
 72
8
 73
4
 74
0
 40
0
 40
0
 40
0
 40
0
 40
1
 40
1
 40
1
 40
1
 10
298.172494
 20
28.603415
 30
0.0
 10
289.239618
 20
1.427127
 30
0.0
 10
272.153763
 20
-19.878383
 30
0.0
 10
261.382988
 20
-25.985656
 30
0.0
  0
SPLINE
  5
1bd
100
AcDbEntity
  8
Layer_1
 62
7
100
AcDbSpline
 70
8
 71
3
 72
8
 73
4
 74
0
 40
0
 40
0
 40
0
 40
0
 40
1
 40
1
 40
1
 40
1
 10
261.382988
 20
-25.985656
 30
0.0
 10
256.471798
 20
-28.771674
 30
0.0
 10
253.152322
 20
-33.700569
 30
0.0
 10
252.416909
 20
-39.298859
 30
0.0
  0
SPLINE
  5
1be
100
AcDbEntity
  8
Layer_1
 62
7
100
AcDbSpline
 70
8
 71
3
 72
8
 73
4
 74
0
 40
0
 40
0
 40
0
 40
0
 40
1
 40
1
 40
1
 40
1
 10
252.416909
 20
-39.298859
 30
0.0
 10
251.681495
 20
-44.897149
 30
0.0
 10
253.615360
 20
-50.516144
 30
0.0
 10
257.640377
 20
-54.476057
 30
0.0
  0
SPLINE
  5
1bf
100
AcDbEntity
  8
Layer_1
 62
7
100
AcDbSpline
 70
8
 71
3
 72
8
 73
4
 74
0
 40
0
 40
0
 40
0
 40
0
 40
1
 40
1
 40
1
 40
1
 10
257.640377
 20
-54.476057
 30
0.0
 10
275.293332
 20
-71.839624
 30
0.0
 10
287.199325
 20
-97.306734
 30
0.0
 10
287.199325
 20
-115.808496
 30
0.0
  0
SPLINE
  5
1c0
100
AcDbEntity
  8
Layer_1
 62
7
100
AcDbSpline
 70
8
 71
3
 72
8
 73
4
 74
0
 40
0
 40
0
 40
0
 40
0
 40
1
 40
1
 40
1
 40
1
 10
287.199325
 20
-115.808496
 30
0.0
 10
287.199325
 20
-132.452402
 30
0.0
 10
280.592787
 20
-141.092006
 30
0.0
 10
267.268223
 20
-148.827698
 30
0.0
  0
SPLINE
  5
1c1
100
AcDbEntity
  8
Layer_1
 62
7
100
AcDbSpline
 70
8
 71
3
 72
8
 73
4
 74
0
 40
0
 40
0
 40
0
 40
0
 40
1
 40
1
 40
1
 40
1
 10
267.268223
 20
-148.827698
 30
0.0
 10
253.943631
 20
-156.563390
 30
0.0
 10
233.415523
 20
-160.897081
 30
0.0
 10
212.197464
 20
-160.897081
 30
0.0
  0
SPLINE
  5
1c2
100
AcDbEntity
  8
Layer_1
 62
7
100
AcDbSpline
 70
8
 71
3
 72
8
 73
4
 74
0
 40
0
 40
0
 40
0
 40
0
 40
1
 40
1
 40
1
 40
1
 10
212.197464
 20
-160.897081
 30
0.0
 10
190.979432
 20
-160.897081
 30
0.0
 10
170.456399
 20
-156.563305
 30
0.0
 10
157.132260
 20
-148.827698
 30
0.0
  0
SPLINE
  5
1c3
100
AcDbEntity
  8
Layer_1
 62
7
100
AcDbSpline
 70
8
 71
3
 72
8
 73
4
 74
0
 40
0
 40
0
 40
0
 40
0
 40
1
 40
1
 40
1
 40
1
 10
157.132260
 20
-148.827698
 30
0.0
 10
143.808122
 20
-141.092091
 30
0.0
 10
137.195630
 20
-132.452601
 30
0.0
 10
137.195630
 20
-115.808496
 30
0.0
  0
SPLINE
  5
1c4
100
AcDbEntity
  8
Layer_1
 62
7
100
AcDbSpline
 70
8
 71
3
 72
8
 73
4
 74
0
 40
0
 40
0
 40
0
 40
0
 40
1
 40
1
 40
1
 40
1
 10
137.195630
 20
-115.808496
 30
0.0
 10
137.195630
 20
-97.288876
 30
0.0
 10
149.127136
 20
-71.796537
 30
0.0
 10
166.804383
 20
-54.431780
 30
0.0
  0
SPLINE
  5
1c5
100
AcDbEntity
  8
Layer_1
 62
7
100
AcDbSpline
 70
8
 71
3
 72
8
 73
4
 74
0
 40
0
 40
0
 40
0
 40
0
 40
1
 40
1
 40
1
 40
1
 10
166.804383
 20
-54.431780
 30
0.0
 10
170.841838
 20
-50.466372
 30
0.0
 10
172.779598
 20
-44.833217
 30
0.0
 10
172.036022
 20
-39.223172
 30
0.0
  0
SPLINE
  5
1c6
100
AcDbEntity
  8
Layer_1
 62
7
100
AcDbSpline
 70
8
 71
3
 72
8
 73
4
 74
0
 40
0
 40
0
 40
0
 40
0
 40
1
 40
1
 40
1
 40
1
 10
172.036022
 20
-39.223172
 30
0.0
 10
171.292446
 20
-33.613127
 30
0.0
 10
167.954099
 20
-28.679288
 30
0.0
 10
163.023022
 20
-25.902601
 30
0.0
  0
SPLINE
  5
1c7
100
AcDbEntity
  8
Layer_1
 62
7
100
AcDbSpline
 70
8
 71
3
 72
8
 73
4
 74
0
 40
0
 40
0
 40
0
 40
0
 40
1
 40
1
 40
1
 40
1
 10
163.023022
 20
-25.902601
 30
0.0
 10
151.875892
 20
-19.627007
 30
0.0
 10
134.879951
 20
2.351222
 30
0.0
 10
126.227989
 20
28.603415
 30
0.0
  0
LWPOLYLINE
  5
1c8
100
AcDbEntity
  8
Layer_1
 62
7
100
AcDbPolyline
 90
2
 70
1
 10
128.043778
 20
91.718477
 30
0.0
 10
128.049448
 20
91.718477
 30
0.0
  0
SPLINE
  5
1c9
100
AcDbEntity
  8
Layer_1
 62
7
100
AcDbSpline
 70
8
 71
3
 72
8
 73
4
 74
0
 40
0
 40
0
 40
0
 40
0
 40
1
 40
1
 40
1
 40
1
 10
126.222320
 20
28.614754
 30
0.0
 10
119.943807
 20
47.721627
 30
0.0
 10
118.594062
 20
65.700170
 30
0.0
 10
120.547501
 20
77.390590
 30
0.0
  0
SPLINE
  5
1ca
100
AcDbEntity
  8
Layer_1
 62
7
100
AcDbSpline
 70
8
 71
3
 72
8
 73
4
 74
0
 40
0
 40
0
 40
0
 40
0
 40
1
 40
1
 40
1
 40
1
 10
120.547501
 20
77.390590
 30
0.0
 10
121.524433
 20
83.237019
 30
0.0
 10
123.320153
 20
87.372370
 30
0.0
 10
124.749636
 20
89.410140
 30
0.0
  0
SPLINE
  5
1cb
100
AcDbEntity
  8
Layer_1
 62
7
100
AcDbSpline
 70
8
 71
3
 72
8
 73
4
 74
0
 40
0
 40
0
 40
0
 40
0
 40
1
 40
1
 40
1
 40
1
 10
124.749636
 20
89.410140
 30
0.0
 10
126.179148
 20
91.447910
 30
0.0
 10
126.594027
 20
91.475321
 30
0.0
 10
127.379451
 20
91.646846
 30
0.0
  0
SPLINE
  5
1cc
100
AcDbEntity
  8
Layer_1
 62
7
100
AcDbSpline
 70
8
 71
3
 72
8
 73
4
 74
0
 40
0
 40
0
 40
0
 40
0
 40
1
 40
1
 40
1
 40
1
 10
127.379451
 20
91.646846
 30
0.0
 10
127.542726
 20
91.682562
 30
0.0
 10
127.753425
 20
91.712043
 30
0.0
 10
128.043807
 20
91.718846
 30
0.0
  0
LWPOLYLINE
  5
1cd
100
AcDbEntity
  8
Layer_1
 62
7
100
AcDbPolyline
 90
2
 70
1
 10
126.227989
 20
28.603415
 30
0.0
 10
126.222320
 20
28.614754
 30
0.0
  0
SPLINE
  5
1ce
100
AcDbEntity
  8
Layer_1
 62
7
100
AcDbSpline
 70
8
 71
3
 72
8
 73
4
 74
0
 40
0
 40
0
 40
0
 40
0
 40
1
 40
1
 40
1
 40
1
 10
-163.983863
 20
138.775758
 30
0.0
 10
-165.392423
 20
138.744713
 30
0.0
 10
-166.764452
 20
138.583572
 30
0.0
 10
-168.094808
 20
138.292942
 30
0.0
  0
SPLINE
  5
1cf
100
AcDbEntity
  8
Layer_1
 62
7
100
AcDbSpline
 70
8
 71
3
 72
8
 73
4
 74
0
 40
0
 40
0
 40
0
 40
0
 40
1
 40
1
 40
1
 40
1
 10
-168.094808
 20
138.292942
 30
0.0
 10
-178.676649
 20
135.981746
 30
0.0
 10
-186.139924
 20
125.596132
 30
0.0
 10
-188.842793
 20
109.420821
 30
0.0
  0
SPLINE
  5
1d0
100
AcDbEntity
  8
Layer_1
 62
7
100
AcDbSpline
 70
8
 71
3
 72
8
 73
4
 74
0
 40
0
 40
0
 40
0
 40
0
 40
1
 40
1
 40
1
 40
1
 10
-188.842793
 20
109.420821
 30
0.0
 10
-191.545662
 20
93.245510
 30
0.0
 10
-189.266720
 20
72.605504
 30
0.0
 10
-182.507309
 20
52.041378
 30
0.0
  0
SPLINE
  5
1d1
100
AcDbEntity
  8
Layer_1
 62
7
100
AcDbSpline
 70
8
 71
3
 72
8
 73
4
 74
0
 40
0
 40
0
 40
0
 40
0
 40
1
 40
1
 40
1
 40
1
 10
-182.507309
 20
52.041378
 30
0.0
 10
-172.796876
 20
22.567438
 30
0.0
 10
-155.332303
 20
-2.455306
 30
0.0
 10
-137.441687
 20
-12.527367
 30
0.0
  0
SPLINE
  5
1d2
100
AcDbEntity
  8
Layer_1
 62
7
100
AcDbSpline
 70
8
 71
3
 72
8
 73
4
 74
0
 40
0
 40
0
 40
0
 40
0
 40
1
 40
1
 40
1
 40
1
 10
-137.441687
 20
-12.527367
 30
0.0
 10
-158.177063
 20
-32.896210
 30
0.0
 10
-172.437003
 20
-61.459321
 30
0.0
 10
-172.437003
 20
-86.746091
 30
0.0
  0
SPLINE
  5
1d3
100
AcDbEntity
  8
Layer_1
 62
7
100
AcDbSpline
 70
8
 71
3
 72
8
 73
4
 74
0
 40
0
 40
0
 40
0
 40
0
 40
1
 40
1
 40
1
 40
1
 10
-172.437003
 20
-86.746091
 30
0.0
 10
-172.437003
 20
-132.194648
 30
0.0
 10
-126.381101
 20
-149.836747
 30
0.0
 10
-79.435428
 20
-149.836747
 30
0.0
  0
SPLINE
  5
1d4
100
AcDbEntity
  8
Layer_1
 62
7
100
AcDbSpline
 70
8
 71
3
 72
8
 73
4
 74
0
 40
0
 40
0
 40
0
 40
0
 40
1
 40
1
 40
1
 40
1
 10
-79.435428
 20
-149.836747
 30
0.0
 10
-32.489747
 20
-149.836747
 30
0.0
 10
13.567690
 20
-132.194648
 30
0.0
 10
13.567690
 20
-86.746091
 30
0.0
  0
SPLINE
  5
1d5
100
AcDbEntity
  8
Layer_1
 62
7
100
AcDbSpline
 70
8
 71
3
 72
8
 73
4
 74
0
 40
0
 40
0
 40
0
 40
0
 40
1
 40
1
 40
1
 40
1
 10
13.567690
 20
-86.746091
 30
0.0
 10
13.567690
 20
-61.482395
 30
0.0
 10
-0.668244
 20
-32.948850
 30
0.0
 10
-21.372924
 20
-12.583606
 30
0.0
  0
SPLINE
  5
1d6
100
AcDbEntity
  8
Layer_1
 62
7
100
AcDbSpline
 70
8
 71
3
 72
8
 73
4
 74
0
 40
0
 40
0
 40
0
 40
0
 40
1
 40
1
 40
1
 40
1
 10
-21.372924
 20
-12.583606
 30
0.0
 10
-4.062843
 20
-2.768398
 30
0.0
 10
13.628068
 20
21.593146
 30
0.0
 10
23.636436
 20
52.041378
 30
0.0
  0
SPLINE
  5
1d7
100
AcDbEntity
  8
Layer_1
 62
7
100
AcDbSpline
 70
8
 71
3
 72
8
 73
4
 74
0
 40
0
 40
0
 40
0
 40
0
 40
1
 40
1
 40
1
 40
1
 10
23.636436
 20
52.041378
 30
0.0
 10
24.440285
 20
54.486912
 30
0.0
 10
25.171822
 20
56.917851
 30
0.0
 10
25.842698
 20
59.330440
 30
0.0
  0
SPLINE
  5
1d8
100
AcDbEntity
  8
Layer_1
 62
7
100
AcDbSpline
 70
8
 71
3
 72
8
 73
4
 74
0
 40
0
 40
0
 40
0
 40
0
 40
1
 40
1
 40
1
 40
1
 10
25.842698
 20
59.330440
 30
0.0
 10
28.888496
 20
60.376144
 30
0.0
 10
31.550427
 20
62.064680
 30
0.0
 10
33.725507
 20
64.438248
 30
0.0
  0
SPLINE
  5
1d9
100
AcDbEntity
  8
Layer_1
 62
7
100
AcDbSpline
 70
8
 71
3
 72
8
 73
4
 74
0
 40
0
 40
0
 40
0
 40
0
 40
1
 40
1
 40
1
 40
1
 10
33.725507
 20
64.438248
 30
0.0
 10
44.352395
 20
76.034810
 30
0.0
 10
40.289299
 20
100.540326
 30
0.0
 10
25.375520
 20
125.046069
 30
0.0
  0
SPLINE
  5
1da
100
AcDbEntity
  8
Layer_1
 62
7
100
AcDbSpline
 70
8
 71
3
 72
8
 73
4
 74
0
 40
0
 40
0
 40
0
 40
0
 40
1
 40
1
 40
1
 40
1
 10
25.375520
 20
125.046069
 30
0.0
 10
-0.395157
 20
119.902125
 30
0.0
 10
-34.188867
 20
107.822231
 30
0.0
 10
-44.641677
 20
96.763251
 30
0.0
  0
SPLINE
  5
1db
100
AcDbEntity
  8
Layer_1
 62
7
100
AcDbSpline
 70
8
 71
3
 72
8
 73
4
 74
0
 40
0
 40
0
 40
0
 40
0
 40
1
 40
1
 40
1
 40
1
 10
-44.641677
 20
96.763251
 30
0.0
 10
-51.223469
 20
84.659733
 30
0.0
 10
-53.289388
 20
78.205582
 30
0.0
 10
-56.160436
 20
69.471074
 30
0.0
  0
SPLINE
  5
1dc
100
AcDbEntity
  8
Layer_1
 62
7
100
AcDbSpline
 70
8
 71
3
 72
8
 73
4
 74
0
 40
0
 40
0
 40
0
 40
0
 40
1
 40
1
 40
1
 40
1
 10
-56.160436
 20
69.471074
 30
0.0
 10
-63.152254
 20
48.200065
 30
0.0
 10
-65.074005
 20
27.971746
 30
0.0
 10
-62.541677
 20
12.403873
 30
0.0
  0
SPLINE
  5
1dd
100
AcDbEntity
  8
Layer_1
 62
7
100
AcDbSpline
 70
8
 71
3
 72
8
 73
4
 74
0
 40
0
 40
0
 40
0
 40
0
 40
1
 40
1
 40
1
 40
1
 10
-62.541677
 20
12.403873
 30
0.0
 10
-68.106988
 20
13.921968
 30
0.0
 10
-73.764572
 20
14.746082
 30
0.0
 10
-79.435428
 20
14.746082
 30
0.0
  0
SPLINE
  5
1de
100
AcDbEntity
  8
Layer_1
 62
7
100
AcDbSpline
 70
8
 71
3
 72
8
 73
4
 74
0
 40
0
 40
0
 40
0
 40
0
 40
1
 40
1
 40
1
 40
1
 10
-79.435428
 20
14.746082
 30
0.0
 10
-85.118748
 20
14.746082
 30
0.0
 10
-90.788014
 20
13.917433
 30
0.0
 10
-96.365117
 20
12.392929
 30
0.0
  0
SPLINE
  5
1df
100
AcDbEntity
  8
Layer_1
 62
7
100
AcDbSpline
 70
8
 71
3
 72
8
 73
4
 74
0
 40
0
 40
0
 40
0
 40
0
 40
1
 40
1
 40
1
 40
1
 10
-96.365117
 20
12.392929
 30
0.0
 10
-93.722642
 20
28.516120
 30
0.0
 10
-96.003098
 20
49.029506
 30
0.0
 10
-102.710446
 20
69.471074
 30
0.0
  0
SPLINE
  5
1e0
100
AcDbEntity
  8
Layer_1
 62
7
100
AcDbSpline
 70
8
 71
3
 72
8
 73
4
 74
0
 40
0
 40
0
 40
0
 40
0
 40
1
 40
1
 40
1
 40
1
 10
-102.710446
 20
69.471074
 30
0.0
 10
-115.800703
 20
109.295082
 30
0.0
 10
-142.286612
 20
139.252569
 30
0.0
 10
-163.983863
 20
138.775758
 30
0.0
  0
LWPOLYLINE
  5
1e1
100
AcDbEntity
  8
Layer_1
 62
7
100
AcDbPolyline
 90
2
 70
1
 10
128.043807
 20
91.718846
 30
0.0
 10
128.043778
 20
91.718477
 30
0.0
  0
SPLINE
  5
1e2
100
AcDbEntity
  8
Layer_1
 62
5
100
AcDbSpline
 70
8
 71
3
 72
8
 73
4
 74
0
 40
0
 40
0
 40
0
 40
0
 40
1
 40
1
 40
1
 40
1
 10
-111.094330
 20
-91.967418
 30
0.0
 10
-133.058242
 20
-96.967280
 30
0.0
 10
-149.829054
 20
-108.196417
 30
0.0
 10
-162.113955
 20
-118.842355
 30
0.0
  0
SPLINE
  5
1e3
100
AcDbEntity
  8
Layer_1
 62
5
100
AcDbSpline
 70
8
 71
3
 72
8
 73
4
 74
0
 40
0
 40
0
 40
0
 40
0
 40
1
 40
1
 40
1
 40
1
 10
-172.161867
 20
-88.273024
 30
0.0
 10
-155.076891
 20
-84.393839
 30
0.0
 10
-135.280746
 20
-81.822929
 30
0.0
 10
-111.831649
 20
-88.526441
 30
0.0
  0
SPLINE
  5
1e4
100
AcDbEntity
  8
Layer_1
 62
5
100
AcDbSpline
 70
8
 71
3
 72
8
 73
4
 74
0
 40
0
 40
0
 40
0
 40
0
 40
1
 40
1
 40
1
 40
1
 10
-110.848538
 20
-85.577106
 30
0.0
 10
-127.908824
 20
-70.581007
 30
0.0
 10
-147.031543
 20
-64.677517
 30
0.0
 10
-168.090607
 20
-61.106515
 30
0.0
  0
SPLINE
  5
1e5
100
AcDbEntity
  8
Layer_1
 62
5
100
AcDbSpline
 70
8
 71
3
 72
8
 73
4
 74
0
 40
0
 40
0
 40
0
 40
0
 40
1
 40
1
 40
1
 40
1
 10
-47.775829
 20
-91.967418
 30
0.0
 10
-25.811889
 20
-96.967280
 30
0.0
 10
-9.041076
 20
-108.196417
 30
0.0
 10
3.243825
 20
-118.842355
 30
0.0
  0
SPLINE
  5
1e6
100
AcDbEntity
  8
Layer_1
 62
5
100
AcDbSpline
 70
8
 71
3
 72
8
 73
4
 74
0
 40
0
 40
0
 40
0
 40
0
 40
1
 40
1
 40
1
 40
1
 10
13.291737
 20
-88.273024
 30
0.0
 10
-3.793240
 20
-84.393839
 30
0.0
 10
-23.589385
 20
-81.822929
 30
0.0
 10
-47.038481
 20
-88.526441
 30
0.0
  0
SPLINE
  5
1e7
100
AcDbEntity
  8
Layer_1
 62
5
100
AcDbSpline
 70
8
 71
3
 72
8
 73
4
 74
0
 40
0
 40
0
 40
0
 40
0
 40
1
 40
1
 40
1
 40
1
 10
-48.021621
 20
-85.577106
 30
0.0
 10
-30.961334
 20
-70.581007
 30
0.0
 10
-11.838588
 20
-64.677517
 30
0.0
 10
9.220477
 20
-61.106515
 30
0.0
  0
SPLINE
  5
1e8
100
AcDbEntity
  8
Layer_1
 62
5
100
AcDbSpline
 70
8
 71
3
 72
8
 73
4
 74
0
 40
0
 40
0
 40
0
 40
0
 40
1
 40
1
 40
1
 40
1
 10
-127.528188
 20
-32.248148
 30
0.0
 10
-114.746516
 20
-14.125917
 30
0.0
 10
-103.720056
 20
-20.576466
 30
0.0
 10
-92.873426
 20
-29.544576
 30
0.0
  0
SPLINE
  5
1e9
100
AcDbEntity
  8
Layer_1
 62
5
100
AcDbSpline
 70
8
 71
3
 72
8
 73
4
 74
0
 40
0
 40
0
 40
0
 40
0
 40
1
 40
1
 40
1
 40
1
 10
-31.341914
 20
-32.248148
 30
0.0
 10
-44.123586
 20
-14.125917
 30
0.0
 10
-55.150046
 20
-20.576466
 30
0.0
 10
-65.996676
 20
-29.544576
 30
0.0
  0
SPLINE
  5
1ea
100
AcDbEntity
  8
Layer_1
 62
1
100
AcDbSpline
 70
8
 71
3
 72
8
 73
4
 74
0
 40
0
 40
0
 40
0
 40
0
 40
1
 40
1
 40
1
 40
1
 10
25.481455
 20
128.870187
 30
0.0
 10
25.199391
 20
128.876714
 30
0.0
 10
24.917470
 20
128.852031
 30
0.0
 10
24.640831
 20
128.796587
 30
0.0
  0
SPLINE
  5
1eb
100
AcDbEntity
  8
Layer_1
 62
1
100
AcDbSpline
 70
8
 71
3
 72
8
 73
4
 74
0
 40
0
 40
0
 40
0
 40
0
 40
1
 40
1
 40
1
 40
1
 10
24.640831
 20
128.796587
 30
0.0
 10
11.506471
 20
126.174987
 30
0.0
 10
-3.537257
 20
121.825947
 30
0.0
 10
-16.749793
 20
116.688827
 30
0.0
  0
SPLINE
  5
1ec
100
AcDbEntity
  8
Layer_1
 62
1
100
AcDbSpline
 70
8
 71
3
 72
8
 73
4
 74
0
 40
0
 40
0
 40
0
 40
0
 40
1
 40
1
 40
1
 40
1
 10
-16.749793
 20
116.688827
 30
0.0
 10
-29.692768
 20
111.656427
 30
0.0
 10
-40.773376
 20
106.140827
 30
0.0
 10
-47.013856
 20
99.788827
 30
0.0
  0
SPLINE
  5
1ed
100
AcDbEntity
  8
Layer_1
 62
1
100
AcDbSpline
 70
8
 71
3
 72
8
 73
4
 74
0
 40
0
 40
0
 40
0
 40
0
 40
1
 40
1
 40
1
 40
1
 10
-47.013856
 20
99.788827
 30
0.0
 10
-44.750064
 20
97.016987
 30
0.0
 10
-41.643784
 20
93.211227
 30
0.0
 10
-40.629480
 20
92.084108
 30
0.0
  0
SPLINE
  5
1ee
100
AcDbEntity
  8
Layer_1
 62
1
100
AcDbSpline
 70
8
 71
3
 72
8
 73
4
 74
0
 40
0
 40
0
 40
0
 40
0
 40
1
 40
1
 40
1
 40
1
 10
-40.629480
 20
92.084108
 30
0.0
 10
-32.223144
 20
82.742748
 30
0.0
 10
-22.696720
 20
74.441788
 30
0.0
 10
-12.802921
 20
68.504428
 30
0.0
  0
SPLINE
  5
1ef
100
AcDbEntity
  8
Layer_1
 62
1
100
AcDbSpline
 70
8
 71
3
 72
8
 73
4
 74
0
 40
0
 40
0
 40
0
 40
0
 40
1
 40
1
 40
1
 40
1
 10
-12.802921
 20
68.504428
 30
0.0
 10
-6.642537
 20
64.807548
 30
0.0
 10
-0.465929
 20
62.000668
 30
0.0
 10
5.253327
 20
59.910668
 30
0.0
  0
SPLINE
  5
1f0
100
AcDbEntity
  8
Layer_1
 62
1
100
AcDbSpline
 70
8
 71
3
 72
8
 73
4
 74
0
 40
0
 40
0
 40
0
 40
0
 40
1
 40
1
 40
1
 40
1
 10
5.253327
 20
59.910668
 30
0.0
 10
15.141623
 20
56.297228
 30
0.0
 10
23.663839
 20
55.028188
 30
0.0
 10
28.379895
 20
56.449788
 30
0.0
  0
SPLINE
  5
1f1
100
AcDbEntity
  8
Layer_1
 62
1
100
AcDbSpline
 70
8
 71
3
 72
8
 73
4
 74
0
 40
0
 40
0
 40
0
 40
0
 40
1
 40
1
 40
1
 40
1
 10
28.379895
 20
56.449788
 30
0.0
 10
28.678111
 20
56.539628
 30
0.0
 10
29.004567
 20
56.664028
 30
0.0
 10
29.328335
 20
56.785708
 30
0.0
  0
SPLINE
  5
1f2
100
AcDbEntity
  8
Layer_1
 62
1
100
AcDbSpline
 70
8
 71
3
 72
8
 73
4
 74
0
 40
0
 40
0
 40
0
 40
0
 40
1
 40
1
 40
1
 40
1
 10
29.328335
 20
56.785708
 30
0.0
 10
32.014287
 20
58.019948
 30
0.0
 10
34.517479
 20
59.619628
 30
0.0
 10
36.561143
 20
61.849788
 30
0.0
  0
SPLINE
  5
1f3
100
AcDbEntity
  8
Layer_1
 62
1
100
AcDbSpline
 70
8
 71
3
 72
8
 73
4
 74
0
 40
0
 40
0
 40
0
 40
0
 40
1
 40
1
 40
1
 40
1
 10
36.561143
 20
61.849788
 30
0.0
 10
42.945815
 20
68.817068
 30
0.0
 10
44.580167
 20
79.125068
 30
0.0
 10
42.928335
 20
90.451308
 30
0.0
  0
SPLINE
  5
1f4
100
AcDbEntity
  8
Layer_1
 62
1
100
AcDbSpline
 70
8
 71
3
 72
8
 73
4
 74
0
 40
0
 40
0
 40
0
 40
0
 40
1
 40
1
 40
1
 40
1
 10
42.928335
 20
90.451308
 30
0.0
 10
41.276495
 20
101.777547
 30
0.0
 10
36.330727
 20
114.430747
 30
0.0
 10
28.659583
 20
127.035707
 30
0.0
  0
SPLINE
  5
1f5
100
AcDbEntity
  8
Layer_1
 62
1
100
AcDbSpline
 70
8
 71
3
 72
8
 73
4
 74
0
 40
0
 40
0
 40
0
 40
0
 40
1
 40
1
 40
1
 40
1
 10
28.659583
 20
127.035707
 30
0.0
 10
27.981507
 20
128.148263
 30
0.0
 10
26.784004
 20
128.839426
 30
0.0
 10
25.481455
 20
128.870027
 30
0.0
  0
LWPOLYLINE
  5
1f6
100
AcDbEntity
  8
Layer_1
 62
7
100
AcDbPolyline
 90
2
 70
1
 10
-163.983863
 20
138.775758
 30
0.0
 10
-163.983863
 20
138.775758
 30
0.0
  0
SPLINE
  5
1f7
100
AcDbEntity
  8
Layer_1
 62
1
100
AcDbSpline
 70
8
 71
3
 72
8
 73
4
 74
0
 40
0
 40
0
 40
0
 40
0
 40
1
 40
1
 40
1
 40
1
 10
-98.384431
 20
-86.897020
 30
0.0
 10
-98.384431
 20
-78.921602
 30
0.0
 10
-89.146745
 20
-76.422579
 30
0.0
 10
-79.435079
 20
-76.422579
 30
0.0
  0
SPLINE
  5
1f8
100
AcDbEntity
  8
Layer_1
 62
1
100
AcDbSpline
 70
8
 71
3
 72
8
 73
4
 74
0
 40
0
 40
0
 40
0
 40
0
 40
1
 40
1
 40
1
 40
1
 10
-79.435079
 20
-76.422579
 30
0.0
 10
-69.723413
 20
-76.422579
 30
0.0
 10
-60.485728
 20
-78.351498
 30
0.0
 10
-60.485728
 20
-86.897020
 30
0.0
  0
SPLINE
  5
1f9
100
AcDbEntity
  8
Layer_1
 62
1
100
AcDbSpline
 70
8
 71
3
 72
8
 73
4
 74
0
 40
0
 40
0
 40
0
 40
0
 40
1
 40
1
 40
1
 40
1
 10
-60.485728
 20
-86.897020
 30
0.0
 10
-60.485728
 20
-95.442514
 30
0.0
 10
-72.547996
 20
-101.896719
 30
0.0
 10
-79.435079
 20
-101.896719
 30
0.0
  0
SPLINE
  5
1fa
100
AcDbEntity
  8
Layer_1
 62
1
100
AcDbSpline
 70
8
 71
3
 72
8
 73
4
 74
0
 40
0
 40
0
 40
0
 40
0
 40
1
 40
1
 40
1
 40
1
 10
-79.435079
 20
-101.896719
 30
0.0
 10
-86.322163
 20
-101.896719
 30
0.0
 10
-98.384431
 20
-96.012618
 30
0.0
 10
-98.384431
 20
-86.897020
 30
0.0
  0
LWPOLYLINE
  5
1fb
100
AcDbEntity
  8
Layer_1
 62
1
100
AcDbPolyline
 90
2
 70
1
 10
25.481455
 20
128.870027
 30
0.0
 10
25.481455
 20
128.870187
 30
0.0
  0
SPLINE
  5
1fc
100
AcDbEntity
  8
Layer_1
 62
1
100
AcDbSpline
 70
8
 71
3
 72
8
 73
4
 74
0
 40
0
 40
0
 40
0
 40
0
 40
1
 40
1
 40
1
 40
1
 10
-65.910758
 20
-109.055787
 30
0.0
 10
-66.134128
 20
-110.917412
 30
0.0
 10
-66.274301
 20
-112.703296
 30
0.0
 10
-66.548128
 20
-114.260849
 30
0.0
  0
SPLINE
  5
1fd
100
AcDbEntity
  8
Layer_1
 62
1
100
AcDbSpline
 70
8
 71
3
 72
8
 73
4
 74
0
 40
0
 40
0
 40
0
 40
0
 40
1
 40
1
 40
1
 40
1
 10
-66.548128
 20
-114.260849
 30
0.0
 10
-67.377942
 20
-118.981044
 30
0.0
 10
-67.347867
 20
-119.659885
 30
0.0
 10
-68.426563
 20
-119.684518
 30
0.0
  0
SPLINE
  5
1fe
100
AcDbEntity
  8
Layer_1
 62
1
100
AcDbSpline
 70
8
 71
3
 72
8
 73
4
 74
0
 40
0
 40
0
 40
0
 40
0
 40
1
 40
1
 40
1
 40
1
 10
-68.426563
 20
-119.684518
 30
0.0
 10
-72.824459
 20
-119.785148
 30
0.0
 10
-78.200279
 20
-120.251306
 30
0.0
 10
-78.930824
 20
-119.118525
 30
0.0
  0
SPLINE
  5
1ff
100
AcDbEntity
  8
Layer_1
 62
1
100
AcDbSpline
 70
8
 71
3
 72
8
 73
4
 74
0
 40
0
 40
0
 40
0
 40
0
 40
1
 40
1
 40
1
 40
1
 10
-78.930824
 20
-119.118525
 30
0.0
 10
-79.940638
 20
-120.456222
 30
0.0
 10
-85.024377
 20
-119.865652
 30
0.0
 10
-88.688950
 20
-119.622893
 30
0.0
  0
SPLINE
  5
200
100
AcDbEntity
  8
Layer_1
 62
1
100
AcDbSpline
 70
8
 71
3
 72
8
 73
4
 74
0
 40
0
 40
0
 40
0
 40
0
 40
1
 40
1
 40
1
 40
1
 10
-88.688950
 20
-119.622893
 30
0.0
 10
-89.854216
 20
-119.545791
 30
0.0
 10
-90.182185
 20
-118.547145
 30
0.0
 10
-91.314286
 20
-114.647353
 30
0.0
  0
SPLINE
  5
201
100
AcDbEntity
  8
Layer_1
 62
1
100
AcDbSpline
 70
8
 71
3
 72
8
 73
4
 74
0
 40
0
 40
0
 40
0
 40
0
 40
1
 40
1
 40
1
 40
1
 10
-91.314286
 20
-114.647353
 30
0.0
 10
-92.043130
 20
-112.136593
 30
0.0
 10
-92.073347
 20
-111.297028
 30
0.0
 10
-92.489756
 20
-108.868700
 30
0.0
  0
SPLINE
  5
202
100
AcDbEntity
  8
Layer_1
 62
7
100
AcDbSpline
 70
8
 71
3
 72
8
 73
4
 74
0
 40
0
 40
0
 40
0
 40
0
 40
1
 40
1
 40
1
 40
1
 10
-112.917857
 20
-102.856218
 30
0.0
 10
-98.020264
 20
-112.127834
 30
0.0
 10
-87.759158
 20
-110.589302
 30
0.0
 10
-79.435079
 20
-101.517812
 30
0.0
  0
SPLINE
  5
203
100
AcDbEntity
  8
Layer_1
 62
7
100
AcDbSpline
 70
8
 71
3
 72
8
 73
4
 74
0
 40
0
 40
0
 40
0
 40
0
 40
1
 40
1
 40
1
 40
1
 10
-79.435079
 20
-101.517812
 30
0.0
 10
-71.111000
 20
-110.589302
 30
0.0
 10
-60.849895
 20
-112.127834
 30
0.0
 10
-45.952301
 20
-102.856218
 30
0.0
  0
SPLINE
  5
204
100
AcDbEntity
  8
Layer_1
 62
5
100
AcDbSpline
 70
8
 71
3
 72
8
 73
4
 74
0
 40
0
 40
0
 40
0
 40
0
 40
1
 40
1
 40
1
 40
1
 10
-79.550421
 20
-107.323677
 30
0.0
 10
-80.063067
 20
-113.892486
 30
0.0
 10
-78.930824
 20
-119.119772
 30
0.0
 10
-78.930824
 20
-119.119772
 30
0.0
  0
SPLINE
  5
205
100
AcDbEntity
  8
Layer_1
 62
7
100
AcDbSpline
 70
8
 71
3
 72
8
 73
4
 74
0
 40
0
 40
0
 40
0
 40
0
 40
1
 40
1
 40
1
 40
1
 10
-52.534292
 20
-106.462851
 30
0.0
 10
-55.122323
 20
-122.252934
 30
0.0
 10
-67.445549
 20
-128.459221
 30
0.0
 10
-79.435108
 20
-128.459221
 30
0.0
  0
SPLINE
  5
206
100
AcDbEntity
  8
Layer_1
 62
7
100
AcDbSpline
 70
8
 71
3
 72
8
 73
4
 74
0
 40
0
 40
0
 40
0
 40
0
 40
1
 40
1
 40
1
 40
1
 10
-79.435108
 20
-128.459221
 30
0.0
 10
-91.424638
 20
-128.459221
 30
0.0
 10
-103.747864
 20
-122.252934
 30
0.0
 10
-106.335895
 20
-106.462851
 30
0.0
  0
SPLINE
  5
207
100
AcDbEntity
  8
Layer_1
 62
1
100
AcDbSpline
 70
8
 71
3
 72
8
 73
4
 74
0
 40
0
 40
0
 40
0
 40
0
 40
1
 40
1
 40
1
 40
1
 10
-98.384431
 20
-86.897020
 30
0.0
 10
-98.384431
 20
-78.921602
 30
0.0
 10
-89.146745
 20
-76.422579
 30
0.0
 10
-79.435079
 20
-76.422579
 30
0.0
  0
SPLINE
  5
208
100
AcDbEntity
  8
Layer_1
 62
1
100
AcDbSpline
 70
8
 71
3
 72
8
 73
4
 74
0
 40
0
 40
0
 40
0
 40
0
 40
1
 40
1
 40
1
 40
1
 10
-79.435079
 20
-76.422579
 30
0.0
 10
-69.723413
 20
-76.422579
 30
0.0
 10
-60.485728
 20
-78.351498
 30
0.0
 10
-60.485728
 20
-86.897020
 30
0.0
  0
SPLINE
  5
209
100
AcDbEntity
  8
Layer_1
 62
1
100
AcDbSpline
 70
8
 71
3
 72
8
 73
4
 74
0
 40
0
 40
0
 40
0
 40
0
 40
1
 40
1
 40
1
 40
1
 10
-60.485728
 20
-86.897020
 30
0.0
 10
-60.485728
 20
-95.442514
 30
0.0
 10
-72.547996
 20
-101.896719
 30
0.0
 10
-79.435079
 20
-101.896719
 30
0.0
  0
SPLINE
  5
20a
100
AcDbEntity
  8
Layer_1
 62
1
100
AcDbSpline
 70
8
 71
3
 72
8
 73
4
 74
0
 40
0
 40
0
 40
0
 40
0
 40
1
 40
1
 40
1
 40
1
 10
-79.435079
 20
-101.896719
 30
0.0
 10
-86.322163
 20
-101.896719
 30
0.0
 10
-98.384431
 20
-96.012618
 30
0.0
 10
-98.384431
 20
-86.897020
 30
0.0
  0
SPLINE
  5
20b
100
AcDbEntity
  8
Layer_1
 62
7
100
AcDbSpline
 70
8
 71
3
 72
8
 73
4
 74
0
 40
0
 40
0
 40
0
 40
0
 40
1
 40
1
 40
1
 40
1
 10
-163.547271
 20
118.936993
 30
0.0
 10
-163.727271
 20
118.933025
 30
0.0
 10
-163.817696
 20
118.918852
 30
0.0
 10
-163.862966
 20
118.908930
 30
0.0
  0
SPLINE
  5
20c
100
AcDbEntity
  8
Layer_1
 62
7
100
AcDbSpline
 70
8
 71
3
 72
8
 73
4
 74
0
 40
0
 40
0
 40
0
 40
0
 40
1
 40
1
 40
1
 40
1
 10
-163.862966
 20
118.908930
 30
0.0
 10
-164.164799
 20
118.842996
 30
0.0
 10
-164.159356
 20
119.153192
 30
0.0
 10
-165.378566
 20
117.415188
 30
0.0
  0
SPLINE
  5
20d
100
AcDbEntity
  8
Layer_1
 62
7
100
AcDbSpline
 70
8
 71
3
 72
8
 73
4
 74
0
 40
0
 40
0
 40
0
 40
0
 40
1
 40
1
 40
1
 40
1
 10
-165.378566
 20
117.415188
 30
0.0
 10
-166.597747
 20
115.677170
 30
0.0
 10
-168.327277
 20
111.800276
 30
0.0
 10
-169.270704
 20
106.154243
 30
0.0
  0
SPLINE
  5
20e
100
AcDbEntity
  8
Layer_1
 62
7
100
AcDbSpline
 70
8
 71
3
 72
8
 73
4
 74
0
 40
0
 40
0
 40
0
 40
0
 40
1
 40
1
 40
1
 40
1
 10
-169.270704
 20
106.154243
 30
0.0
 10
-171.157047
 20
94.865620
 30
0.0
 10
-169.862550
 20
77.122155
 30
0.0
 10
-163.662953
 20
58.252683
 30
0.0
  0
SPLINE
  5
20f
100
AcDbEntity
  8
Layer_1
 62
7
100
AcDbSpline
 70
8
 71
3
 72
8
 73
4
 74
0
 40
0
 40
0
 40
0
 40
0
 40
1
 40
1
 40
1
 40
1
 10
-163.662953
 20
58.252683
 30
0.0
 10
-163.662953
 20
58.249564
 30
0.0
 10
-163.657284
 20
58.249564
 30
0.0
 10
-163.657284
 20
58.247013
 30
0.0
  0
LWPOLYLINE
  5
210
100
AcDbEntity
  8
Layer_1
 62
1
100
AcDbPolyline
 90
3
 70
1
 10
-98.384431
 20
-86.897020
 30
0.0
 10
-98.384431
 20
-86.897020
 30
0.0
 10
-98.384431
 20
-86.897020
 30
0.0
  0
SPLINE
  5
211
100
AcDbEntity
  8
Layer_1
 62
7
100
AcDbSpline
 70
8
 71
3
 72
8
 73
4
 74
0
 40
0
 40
0
 40
0
 40
0
 40
1
 40
1
 40
1
 40
1
 10
-163.657284
 20
58.235675
 30
0.0
 10
-155.113208
 20
32.314908
 30
0.0
 10
-138.166789
 20
10.652091
 30
0.0
 10
-127.710405
 20
4.765356
 30
0.0
  0
SPLINE
  5
212
100
AcDbEntity
  8
Layer_1
 62
7
100
AcDbSpline
 70
8
 71
3
 72
8
 73
4
 74
0
 40
0
 40
0
 40
0
 40
0
 40
1
 40
1
 40
1
 40
1
 10
-127.710405
 20
4.765356
 30
0.0
 10
-125.267677
 20
3.390267
 30
0.0
 10
-121.832710
 20
2.648324
 30
0.0
 10
-118.358798
 20
2.591914
 30
0.0
  0
SPLINE
  5
213
100
AcDbEntity
  8
Layer_1
 62
7
100
AcDbSpline
 70
8
 71
3
 72
8
 73
4
 74
0
 40
0
 40
0
 40
0
 40
0
 40
1
 40
1
 40
1
 40
1
 10
-118.358798
 20
2.591914
 30
0.0
 10
-117.463532
 20
6.031420
 30
0.0
 10
-116.522084
 20
12.066636
 30
0.0
 10
-115.944726
 20
15.599707
 30
0.0
  0
SPLINE
  5
214
100
AcDbEntity
  8
Layer_1
 62
7
100
AcDbSpline
 70
8
 71
3
 72
8
 73
4
 74
0
 40
0
 40
0
 40
0
 40
0
 40
1
 40
1
 40
1
 40
1
 10
-115.944726
 20
15.599707
 30
0.0
 10
-114.031853
 20
27.271418
 30
0.0
 10
-115.665230
 20
45.305979
 30
0.0
 10
-121.558798
 20
63.273155
 30
0.0
  0
SPLINE
  5
215
100
AcDbEntity
  8
Layer_1
 62
7
100
AcDbSpline
 70
8
 71
3
 72
8
 73
4
 74
0
 40
0
 40
0
 40
0
 40
0
 40
1
 40
1
 40
1
 40
1
 10
-121.558798
 20
63.273155
 30
0.0
 10
-127.325128
 20
80.815848
 30
0.0
 10
-136.205622
 20
96.163097
 30
0.0
 10
-144.983840
 20
106.091869
 30
0.0
  0
SPLINE
  5
216
100
AcDbEntity
  8
Layer_1
 62
7
100
AcDbSpline
 70
8
 71
3
 72
8
 73
4
 74
0
 40
0
 40
0
 40
0
 40
0
 40
1
 40
1
 40
1
 40
1
 10
-144.983840
 20
106.091869
 30
0.0
 10
-153.762000
 20
116.020644
 30
0.0
 10
-162.000558
 20
118.971142
 30
0.0
 10
-163.546319
 20
118.937180
 30
0.0
  0
LWPOLYLINE
  5
217
100
AcDbEntity
  8
Layer_1
 62
7
100
AcDbPolyline
 90
2
 70
1
 10
-163.657284
 20
58.247013
 30
0.0
 10
-163.657284
 20
58.235675
 30
0.0
  0
SPLINE
  5
218
100
AcDbEntity
  8
Layer_1
 62
7
100
AcDbSpline
 70
8
 71
3
 72
8
 73
4
 74
0
 40
0
 40
0
 40
0
 40
0
 40
1
 40
1
 40
1
 40
1
 10
-30.066077
 20
81.488555
 30
0.0
 10
-33.422067
 20
74.706832
 30
0.0
 10
-35.055589
 20
70.135569
 30
0.0
 10
-37.311340
 20
63.272923
 30
0.0
  0
SPLINE
  5
219
100
AcDbEntity
  8
Layer_1
 62
7
100
AcDbSpline
 70
8
 71
3
 72
8
 73
4
 74
0
 40
0
 40
0
 40
0
 40
0
 40
1
 40
1
 40
1
 40
1
 10
-37.311340
 20
63.272923
 30
0.0
 10
-43.474628
 20
44.522480
 30
0.0
 10
-44.797835
 20
26.897698
 30
0.0
 10
-42.958235
 20
15.588570
 30
0.0
  0
SPLINE
  5
21a
100
AcDbEntity
  8
Layer_1
 62
7
100
AcDbSpline
 70
8
 71
3
 72
8
 73
4
 74
0
 40
0
 40
0
 40
0
 40
0
 40
1
 40
1
 40
1
 40
1
 10
-42.958235
 20
15.588570
 30
0.0
 10
-42.311916
 20
11.609152
 30
0.0
 10
-41.713125
 20
7.607571
 30
0.0
 10
-40.264477
 20
3.510424
 30
0.0
  0
SPLINE
  5
21b
100
AcDbEntity
  8
Layer_1
 62
7
100
AcDbSpline
 70
8
 71
3
 72
8
 73
4
 74
0
 40
0
 40
0
 40
0
 40
0
 40
1
 40
1
 40
1
 40
1
 10
-40.264477
 20
3.510424
 30
0.0
 10
-37.350804
 20
3.035706
 30
0.0
 10
-33.606883
 20
3.288472
 30
0.0
 10
-31.159819
 20
4.676056
 30
0.0
  0
SPLINE
  5
21c
100
AcDbEntity
  8
Layer_1
 62
7
100
AcDbSpline
 70
8
 71
3
 72
8
 73
4
 74
0
 40
0
 40
0
 40
0
 40
0
 40
1
 40
1
 40
1
 40
1
 10
-31.159819
 20
4.676056
 30
0.0
 10
-21.058389
 20
10.403779
 30
0.0
 10
-4.034165
 20
31.394073
 30
0.0
 10
4.788650
 20
58.235451
 30
0.0
  0
SPLINE
  5
21d
100
AcDbEntity
  8
Layer_1
 62
7
100
AcDbSpline
 70
8
 71
3
 72
8
 73
4
 74
0
 40
0
 40
0
 40
0
 40
0
 40
1
 40
1
 40
1
 40
1
 10
4.788650
 20
58.235451
 30
0.0
 10
4.981406
 20
58.822129
 30
0.0
 10
5.159223
 20
59.410409
 30
0.0
 10
5.343305
 20
59.997914
 30
0.0
  0
SPLINE
  5
21e
100
AcDbEntity
  8
Layer_1
 62
7
100
AcDbSpline
 70
8
 71
3
 72
8
 73
4
 74
0
 40
0
 40
0
 40
0
 40
0
 40
1
 40
1
 40
1
 40
1
 10
5.343305
 20
59.997914
 30
0.0
 10
-5.687747
 20
63.303936
 30
0.0
 10
-18.123516
 20
70.704882
 30
0.0
 10
-30.066077
 20
81.488555
 30
0.0
  0
LWPOLYLINE
  5
21f
100
AcDbEntity
  8
Layer_1
 62
7
100
AcDbPolyline
 90
3
 70
1
 10
-163.546319
 20
118.937180
 30
0.0
 10
-163.547838
 20
118.937180
 30
0.0
 10
-163.547271
 20
118.936993
 30
0.0
  0
SPLINE
  5
220
100
AcDbEntity
  8
Layer_1
 62
7
100
AcDbSpline
 70
8
 71
3
 72
8
 73
4
 74
0
 40
0
 40
0
 40
0
 40
0
 40
1
 40
1
 40
1
 40
1
 10
-164.051521
 20
142.604662
 30
0.0
 10
-165.696976
 20
142.568378
 30
0.0
 10
-167.317684
 20
142.379307
 30
0.0
 10
-168.895873
 20
142.034416
 30
0.0
  0
SPLINE
  5
221
100
AcDbEntity
  8
Layer_1
 62
7
100
AcDbSpline
 70
8
 71
3
 72
8
 73
4
 74
0
 40
0
 40
0
 40
0
 40
0
 40
1
 40
1
 40
1
 40
1
 10
-168.895873
 20
142.034416
 30
0.0
 10
-175.408954
 20
140.611877
 30
0.0
 10
-180.820604
 20
136.594617
 30
0.0
 10
-184.741089
 20
131.005886
 30
0.0
  0
SPLINE
  5
222
100
AcDbEntity
  8
Layer_1
 62
7
100
AcDbSpline
 70
8
 71
3
 72
8
 73
4
 74
0
 40
0
 40
0
 40
0
 40
0
 40
1
 40
1
 40
1
 40
1
 10
-184.741089
 20
131.005886
 30
0.0
 10
-188.661603
 20
125.417127
 30
0.0
 10
-191.229196
 20
118.270985
 30
0.0
 10
-192.602809
 20
110.050540
 30
0.0
  0
SPLINE
  5
223
100
AcDbEntity
  8
Layer_1
 62
7
100
AcDbSpline
 70
8
 71
3
 72
8
 73
4
 74
0
 40
0
 40
0
 40
0
 40
0
 40
1
 40
1
 40
1
 40
1
 10
-192.602809
 20
110.050540
 30
0.0
 10
-195.350062
 20
93.609623
 30
0.0
 10
-193.329329
 20
72.744333
 30
0.0
 10
-186.130746
 20
50.844086
 30
0.0
  0
SPLINE
  5
224
100
AcDbEntity
  8
Layer_1
 62
7
100
AcDbSpline
 70
8
 71
3
 72
8
 73
4
 74
0
 40
0
 40
0
 40
0
 40
0
 40
1
 40
1
 40
1
 40
1
 10
-186.130746
 20
50.844086
 30
0.0
 10
-186.128856
 20
50.844085
 30
0.0
 10
-186.126966
 20
50.844085
 30
0.0
 10
-186.125077
 20
50.844086
 30
0.0
  0
SPLINE
  5
225
100
AcDbEntity
  8
Layer_1
 62
7
100
AcDbSpline
 70
8
 71
3
 72
8
 73
4
 74
0
 40
0
 40
0
 40
0
 40
0
 40
1
 40
1
 40
1
 40
1
 10
-186.125077
 20
50.844086
 30
0.0
 10
-176.829196
 20
22.628418
 30
0.0
 10
-160.774528
 20
-1.169794
 30
0.0
 10
-142.929924
 20
-13.090472
 30
0.0
  0
SPLINE
  5
226
100
AcDbEntity
  8
Layer_1
 62
7
100
AcDbSpline
 70
8
 71
3
 72
8
 73
4
 74
0
 40
0
 40
0
 40
0
 40
0
 40
1
 40
1
 40
1
 40
1
 10
-142.929924
 20
-13.090472
 30
0.0
 10
-162.662006
 20
-33.815673
 30
0.0
 10
-176.248094
 20
-61.306806
 30
0.0
 10
-176.248094
 20
-86.746958
 30
0.0
  0
SPLINE
  5
227
100
AcDbEntity
  8
Layer_1
 62
7
100
AcDbSpline
 70
8
 71
3
 72
8
 73
4
 74
0
 40
0
 40
0
 40
0
 40
0
 40
1
 40
1
 40
1
 40
1
 10
-176.248094
 20
-86.746958
 30
0.0
 10
-176.248094
 20
-110.763892
 30
0.0
 10
-163.693930
 20
-128.052879
 30
0.0
 10
-145.449017
 20
-138.645355
 30
0.0
  0
SPLINE
  5
228
100
AcDbEntity
  8
Layer_1
 62
7
100
AcDbSpline
 70
8
 71
3
 72
8
 73
4
 74
0
 40
0
 40
0
 40
0
 40
0
 40
1
 40
1
 40
1
 40
1
 10
-145.449017
 20
-138.645355
 30
0.0
 10
-127.204075
 20
-149.237803
 30
0.0
 10
-103.373889
 20
-153.665633
 30
0.0
 10
-79.421700
 20
-153.665633
 30
0.0
  0
SPLINE
  5
229
100
AcDbEntity
  8
Layer_1
 62
7
100
AcDbSpline
 70
8
 71
3
 72
8
 73
4
 74
0
 40
0
 40
0
 40
0
 40
0
 40
1
 40
1
 40
1
 40
1
 10
-79.421700
 20
-153.665633
 30
0.0
 10
-55.469482
 20
-153.665633
 30
0.0
 10
-31.639665
 20
-149.237803
 30
0.0
 10
-13.394383
 20
-138.645355
 30
0.0
  0
SPLINE
  5
22a
100
AcDbEntity
  8
Layer_1
 62
7
100
AcDbSpline
 70
8
 71
3
 72
8
 73
4
 74
0
 40
0
 40
0
 40
0
 40
0
 40
1
 40
1
 40
1
 40
1
 10
-13.394383
 20
-138.645355
 30
0.0
 10
4.850899
 20
-128.052907
 30
0.0
 10
17.410250
 20
-110.763920
 30
0.0
 10
17.410250
 20
-86.746958
 30
0.0
  0
SPLINE
  5
22b
100
AcDbEntity
  8
Layer_1
 62
7
100
AcDbSpline
 70
8
 71
3
 72
8
 73
4
 74
0
 40
0
 40
0
 40
0
 40
0
 40
1
 40
1
 40
1
 40
1
 10
17.410250
 20
-86.746958
 30
0.0
 10
17.410250
 20
-61.330050
 30
0.0
 10
3.843891
 20
-33.870297
 30
0.0
 10
-15.858087
 20
-13.151360
 30
0.0
  0
SPLINE
  5
22c
100
AcDbEntity
  8
Layer_1
 62
7
100
AcDbSpline
 70
8
 71
3
 72
8
 73
4
 74
0
 40
0
 40
0
 40
0
 40
0
 40
1
 40
1
 40
1
 40
1
 10
-15.858087
 20
-13.151360
 30
0.0
 10
1.480165
 20
-1.510093
 30
0.0
 10
17.721976
 20
21.743952
 30
0.0
 10
27.287205
 20
50.844086
 30
0.0
  0
SPLINE
  5
22d
100
AcDbEntity
  8
Layer_1
 62
7
100
AcDbSpline
 70
8
 71
3
 72
8
 73
4
 74
0
 40
0
 40
0
 40
0
 40
0
 40
1
 40
1
 40
1
 40
1
 10
27.287205
 20
50.844086
 30
0.0
 10
27.928118
 20
52.793897
 30
0.0
 10
28.486657
 20
54.726049
 30
0.0
 10
29.042247
 20
56.651794
 30
0.0
  0
SPLINE
  5
22e
100
AcDbEntity
  8
Layer_1
 62
7
100
AcDbSpline
 70
8
 71
3
 72
8
 73
4
 74
0
 40
0
 40
0
 40
0
 40
0
 40
1
 40
1
 40
1
 40
1
 10
29.042247
 20
56.651794
 30
0.0
 10
31.837208
 20
57.903063
 30
0.0
 10
34.444231
 20
59.540865
 30
0.0
 10
36.560720
 20
61.850477
 30
0.0
  0
SPLINE
  5
22f
100
AcDbEntity
  8
Layer_1
 62
7
100
AcDbSpline
 70
8
 71
3
 72
8
 73
4
 74
0
 40
0
 40
0
 40
0
 40
0
 40
1
 40
1
 40
1
 40
1
 10
36.560720
 20
61.850477
 30
0.0
 10
42.945390
 20
68.817753
 30
0.0
 10
44.579422
 20
79.125376
 30
0.0
 10
42.927589
 20
90.451629
 30
0.0
  0
SPLINE
  5
230
100
AcDbEntity
  8
Layer_1
 62
7
100
AcDbSpline
 70
8
 71
3
 72
8
 73
4
 74
0
 40
0
 40
0
 40
0
 40
0
 40
1
 40
1
 40
1
 40
1
 10
42.927589
 20
90.451629
 30
0.0
 10
41.275756
 20
101.777881
 30
0.0
 10
36.331397
 20
114.431315
 30
0.0
 10
28.660250
 20
127.036277
 30
0.0
  0
SPLINE
  5
231
100
AcDbEntity
  8
Layer_1
 62
7
100
AcDbSpline
 70
8
 71
3
 72
8
 73
4
 74
0
 40
0
 40
0
 40
0
 40
0
 40
1
 40
1
 40
1
 40
1
 10
28.660250
 20
127.036277
 30
0.0
 10
27.823309
 20
128.409226
 30
0.0
 10
26.217433
 20
129.112622
 30
0.0
 10
24.640808
 20
128.796847
 30
0.0
  0
SPLINE
  5
232
100
AcDbEntity
  8
Layer_1
 62
7
100
AcDbSpline
 70
8
 71
3
 72
8
 73
4
 74
0
 40
0
 40
0
 40
0
 40
0
 40
1
 40
1
 40
1
 40
1
 10
24.640808
 20
128.796847
 30
0.0
 10
11.506449
 20
126.175168
 30
0.0
 10
-3.536903
 20
121.825886
 30
0.0
 10
-16.749441
 20
116.688714
 30
0.0
  0
SPLINE
  5
233
100
AcDbEntity
  8
Layer_1
 62
7
100
AcDbSpline
 70
8
 71
3
 72
8
 73
4
 74
0
 40
0
 40
0
 40
0
 40
0
 40
1
 40
1
 40
1
 40
1
 10
-16.749441
 20
116.688714
 30
0.0
 10
-29.962008
 20
111.551542
 30
0.0
 10
-41.247385
 20
105.913063
 30
0.0
 10
-47.410131
 20
99.392924
 30
0.0
  0
SPLINE
  5
234
100
AcDbEntity
  8
Layer_1
 62
7
100
AcDbSpline
 70
8
 71
3
 72
8
 73
4
 74
0
 40
0
 40
0
 40
0
 40
0
 40
1
 40
1
 40
1
 40
1
 10
-47.410131
 20
99.392924
 30
0.0
 10
-47.635931
 20
99.151332
 30
0.0
 10
-47.829468
 20
98.881494
 30
0.0
 10
-47.985904
 20
98.590152
 30
0.0
  0
SPLINE
  5
235
100
AcDbEntity
  8
Layer_1
 62
7
100
AcDbSpline
 70
8
 71
3
 72
8
 73
4
 74
0
 40
0
 40
0
 40
0
 40
0
 40
1
 40
1
 40
1
 40
1
 10
-47.985904
 20
98.590152
 30
0.0
 10
-54.679920
 20
86.280306
 30
0.0
 10
-56.912005
 20
79.385058
 30
0.0
 10
-59.778484
 20
70.664468
 30
0.0
  0
SPLINE
  5
236
100
AcDbEntity
  8
Layer_1
 62
7
100
AcDbSpline
 70
8
 71
3
 72
8
 73
4
 74
0
 40
0
 40
0
 40
0
 40
0
 40
1
 40
1
 40
1
 40
1
 10
-59.778484
 20
70.664468
 30
0.0
 10
-66.241618
 20
51.001863
 30
0.0
 10
-68.319697
 20
32.356299
 30
0.0
 10
-66.732238
 20
16.817253
 30
0.0
  0
SPLINE
  5
237
100
AcDbEntity
  8
Layer_1
 62
7
100
AcDbSpline
 70
8
 71
3
 72
8
 73
4
 74
0
 40
0
 40
0
 40
0
 40
0
 40
1
 40
1
 40
1
 40
1
 10
-66.732238
 20
16.817253
 30
0.0
 10
-70.938342
 20
17.643920
 30
0.0
 10
-75.138550
 20
18.572324
 30
0.0
 10
-79.421700
 20
18.572324
 30
0.0
  0
SPLINE
  5
238
100
AcDbEntity
  8
Layer_1
 62
7
100
AcDbSpline
 70
8
 71
3
 72
8
 73
4
 74
0
 40
0
 40
0
 40
0
 40
0
 40
1
 40
1
 40
1
 40
1
 10
-79.421700
 20
18.572324
 30
0.0
 10
-83.720270
 20
18.572324
 30
0.0
 10
-87.935190
 20
17.638761
 30
0.0
 10
-92.155467
 20
16.806198
 30
0.0
  0
SPLINE
  5
239
100
AcDbEntity
  8
Layer_1
 62
7
100
AcDbSpline
 70
8
 71
3
 72
8
 73
4
 74
0
 40
0
 40
0
 40
0
 40
0
 40
1
 40
1
 40
1
 40
1
 10
-92.155467
 20
16.806198
 30
0.0
 10
-90.508566
 20
32.844709
 30
0.0
 10
-92.838871
 20
51.706612
 30
0.0
 10
-99.059360
 20
70.664468
 30
0.0
  0
SPLINE
  5
23a
100
AcDbEntity
  8
Layer_1
 62
7
100
AcDbSpline
 70
8
 71
3
 72
8
 73
4
 74
0
 40
0
 40
0
 40
0
 40
0
 40
1
 40
1
 40
1
 40
1
 10
-99.059360
 20
70.664468
 30
0.0
 10
-105.754679
 20
91.033411
 30
0.0
 10
-115.847123
 20
108.885274
 30
0.0
 10
-127.239735
 20
121.771120
 30
0.0
  0
SPLINE
  5
23b
100
AcDbEntity
  8
Layer_1
 62
7
100
AcDbSpline
 70
8
 71
3
 72
8
 73
4
 74
0
 40
0
 40
0
 40
0
 40
0
 40
1
 40
1
 40
1
 40
1
 10
-127.239735
 20
121.771120
 30
0.0
 10
-138.632346
 20
134.656995
 30
0.0
 10
-151.408604
 20
142.882514
 30
0.0
 10
-164.051379
 20
142.604662
 30
0.0
  0
LWPOLYLINE
  5
23c
100
AcDbEntity
  8
Layer_1
 62
7
100
AcDbPolyline
 90
2
 70
1
 10
-30.066077
 20
81.488555
 30
0.0
 10
-30.066077
 20
81.488555
 30
0.0
  0
SPLINE
  5
23d
100
AcDbEntity
  8
Layer_1
 62
7
100
AcDbSpline
 70
8
 71
3
 72
8
 73
4
 74
0
 40
0
 40
0
 40
0
 40
0
 40
1
 40
1
 40
1
 40
1
 10
-163.885410
 20
134.947802
 30
0.0
 10
-154.830928
 20
135.146794
 30
0.0
 10
-143.517291
 20
128.629461
 30
0.0
 10
-132.970056
 20
116.699769
 30
0.0
  0
SPLINE
  5
23e
100
AcDbEntity
  8
Layer_1
 62
7
100
AcDbSpline
 70
8
 71
3
 72
8
 73
4
 74
0
 40
0
 40
0
 40
0
 40
0
 40
1
 40
1
 40
1
 40
1
 10
-132.970056
 20
116.699769
 30
0.0
 10
-122.422850
 20
104.770105
 30
0.0
 10
-112.723769
 20
87.733345
 30
0.0
 10
-106.328837
 20
68.278264
 30
0.0
  0
LWPOLYLINE
  5
23f
100
AcDbEntity
  8
Layer_1
 62
7
100
AcDbPolyline
 90
2
 70
1
 10
-164.051379
 20
142.604662
 30
0.0
 10
-164.051521
 20
142.604662
 30
0.0
  0
SPLINE
  5
240
100
AcDbEntity
  8
Layer_1
 62
7
100
AcDbSpline
 70
8
 71
3
 72
8
 73
4
 74
0
 40
0
 40
0
 40
0
 40
0
 40
1
 40
1
 40
1
 40
1
 10
-106.334506
 20
68.278264
 30
0.0
 10
-99.783498
 20
48.313144
 30
0.0
 10
-97.626333
 20
28.278916
 30
0.0
 10
-100.128191
 20
13.013753
 30
0.0
  0
SPLINE
  5
241
100
AcDbEntity
  8
Layer_1
 62
7
100
AcDbSpline
 70
8
 71
3
 72
8
 73
4
 74
0
 40
0
 40
0
 40
0
 40
0
 40
1
 40
1
 40
1
 40
1
 10
-100.128191
 20
13.013753
 30
0.0
 10
-100.340223
 20
11.726830
 30
0.0
 10
-99.882266
 20
10.420523
 30
0.0
 10
-98.913086
 20
9.547701
 30
0.0
  0
SPLINE
  5
242
100
AcDbEntity
  8
Layer_1
 62
7
100
AcDbSpline
 70
8
 71
3
 72
8
 73
4
 74
0
 40
0
 40
0
 40
0
 40
0
 40
1
 40
1
 40
1
 40
1
 10
-98.913086
 20
9.547701
 30
0.0
 10
-97.943906
 20
8.674879
 30
0.0
 10
-96.596947
 20
8.355719
 30
0.0
 10
-95.339171
 20
8.700868
 30
0.0
  0
SPLINE
  5
243
100
AcDbEntity
  8
Layer_1
 62
7
100
AcDbSpline
 70
8
 71
3
 72
8
 73
4
 74
0
 40
0
 40
0
 40
0
 40
0
 40
1
 40
1
 40
1
 40
1
 10
-95.339171
 20
8.700868
 30
0.0
 10
-90.058112
 20
10.144468
 30
0.0
 10
-84.733316
 20
10.920991
 30
0.0
 10
-79.421983
 20
10.920991
 30
0.0
  0
SPLINE
  5
244
100
AcDbEntity
  8
Layer_1
 62
7
100
AcDbSpline
 70
8
 71
3
 72
8
 73
4
 74
0
 40
0
 40
0
 40
0
 40
0
 40
1
 40
1
 40
1
 40
1
 10
-79.421983
 20
10.920991
 30
0.0
 10
-74.121876
 20
10.920991
 30
0.0
 10
-68.801756
 20
10.149287
 30
0.0
 10
-63.532462
 20
8.711951
 30
0.0
  0
SPLINE
  5
245
100
AcDbEntity
  8
Layer_1
 62
7
100
AcDbSpline
 70
8
 71
3
 72
8
 73
4
 74
0
 40
0
 40
0
 40
0
 40
0
 40
1
 40
1
 40
1
 40
1
 10
-63.532462
 20
8.711951
 30
0.0
 10
-62.276543
 20
8.369787
 30
0.0
 10
-60.932816
 20
8.689437
 30
0.0
 10
-59.965496
 20
9.560472
 30
0.0
  0
SPLINE
  5
246
100
AcDbEntity
  8
Layer_1
 62
7
100
AcDbSpline
 70
8
 71
3
 72
8
 73
4
 74
0
 40
0
 40
0
 40
0
 40
0
 40
1
 40
1
 40
1
 40
1
 10
-59.965496
 20
9.560472
 30
0.0
 10
-58.998176
 20
10.431507
 30
0.0
 10
-58.539904
 20
11.734489
 30
0.0
 10
-58.748997
 20
13.019281
 30
0.0
  0
SPLINE
  5
247
100
AcDbEntity
  8
Layer_1
 62
7
100
AcDbSpline
 70
8
 71
3
 72
8
 73
4
 74
0
 40
0
 40
0
 40
0
 40
0
 40
1
 40
1
 40
1
 40
1
 10
-58.748997
 20
13.019281
 30
0.0
 10
-61.147731
 20
27.765817
 30
0.0
 10
-59.341495
 20
47.493365
 30
0.0
 10
-52.509460
 20
68.278264
 30
0.0
  0
SPLINE
  5
248
100
AcDbEntity
  8
Layer_1
 62
7
100
AcDbSpline
 70
8
 71
3
 72
8
 73
4
 74
0
 40
0
 40
0
 40
0
 40
0
 40
1
 40
1
 40
1
 40
1
 10
-52.509460
 20
68.278264
 30
0.0
 10
-49.693098
 20
76.846378
 30
0.0
 10
-47.706947
 20
82.920202
 30
0.0
 10
-41.552874
 20
94.338183
 30
0.0
  0
SPLINE
  5
249
100
AcDbEntity
  8
Layer_1
 62
7
100
AcDbSpline
 70
8
 71
3
 72
8
 73
4
 74
0
 40
0
 40
0
 40
0
 40
0
 40
1
 40
1
 40
1
 40
1
 10
-41.552874
 20
94.338183
 30
0.0
 10
-37.146276
 20
98.852158
 30
0.0
 10
-26.542887
 20
104.671658
 30
0.0
 10
-13.975996
 20
109.557794
 30
0.0
  0
SPLINE
  5
24a
100
AcDbEntity
  8
Layer_1
 62
7
100
AcDbSpline
 70
8
 71
3
 72
8
 73
4
 74
0
 40
0
 40
0
 40
0
 40
0
 40
1
 40
1
 40
1
 40
1
 10
-13.975996
 20
109.557794
 30
0.0
 10
-2.125391
 20
114.165425
 30
0.0
 10
11.336512
 20
118.035624
 30
0.0
 10
23.345006
 20
120.602963
 30
0.0
  0
SPLINE
  5
24b
100
AcDbEntity
  8
Layer_1
 62
7
100
AcDbSpline
 70
8
 71
3
 72
8
 73
4
 74
0
 40
0
 40
0
 40
0
 40
0
 40
1
 40
1
 40
1
 40
1
 10
23.345006
 20
120.602963
 30
0.0
 10
29.730471
 20
109.546228
 30
0.0
 10
34.003246
 20
98.608095
 30
0.0
 10
35.353501
 20
89.349859
 30
0.0
  0
SPLINE
  5
24c
100
AcDbEntity
  8
Layer_1
 62
7
100
AcDbSpline
 70
8
 71
3
 72
8
 73
4
 74
0
 40
0
 40
0
 40
0
 40
0
 40
1
 40
1
 40
1
 40
1
 10
35.353501
 20
89.349859
 30
0.0
 10
36.804924
 20
79.397786
 30
0.0
 10
35.161028
 20
71.650812
 30
0.0
 10
30.918811
 20
67.021495
 30
0.0
  0
SPLINE
  5
24d
100
AcDbEntity
  8
Layer_1
 62
7
100
AcDbSpline
 70
8
 71
3
 72
8
 73
4
 74
0
 40
0
 40
0
 40
0
 40
0
 40
1
 40
1
 40
1
 40
1
 10
30.918811
 20
67.021495
 30
0.0
 10
29.183668
 20
65.128008
 30
0.0
 10
27.109671
 20
63.809473
 30
0.0
 10
24.612830
 20
62.952219
 30
0.0
  0
SPLINE
  5
24e
100
AcDbEntity
  8
Layer_1
 62
7
100
AcDbSpline
 70
8
 71
3
 72
8
 73
4
 74
0
 40
0
 40
0
 40
0
 40
0
 40
1
 40
1
 40
1
 40
1
 10
24.612830
 20
62.952219
 30
0.0
 10
23.421031
 20
62.541600
 30
0.0
 10
22.507859
 20
61.570445
 30
0.0
 10
22.171293
 20
60.355655
 30
0.0
  0
SPLINE
  5
24f
100
AcDbEntity
  8
Layer_1
 62
7
100
AcDbSpline
 70
8
 71
3
 72
8
 73
4
 74
0
 40
0
 40
0
 40
0
 40
0
 40
1
 40
1
 40
1
 40
1
 10
22.171293
 20
60.355655
 30
0.0
 10
21.515016
 20
57.995614
 30
0.0
 10
20.801620
 20
55.620975
 30
0.0
 10
20.017614
 20
53.235819
 30
0.0
  0
SPLINE
  5
250
100
AcDbEntity
  8
Layer_1
 62
7
100
AcDbSpline
 70
8
 71
3
 72
8
 73
4
 74
0
 40
0
 40
0
 40
0
 40
0
 40
1
 40
1
 40
1
 40
1
 10
20.017614
 20
53.235819
 30
0.0
 10
10.237888
 20
23.483206
 30
0.0
 10
-7.324131
 20
-0.226821
 30
0.0
 10
-23.243955
 20
-9.253722
 30
0.0
  0
SPLINE
  5
251
100
AcDbEntity
  8
Layer_1
 62
7
100
AcDbSpline
 70
8
 71
3
 72
8
 73
4
 74
0
 40
0
 40
0
 40
0
 40
0
 40
1
 40
1
 40
1
 40
1
 10
-23.243955
 20
-9.253722
 30
0.0
 10
-24.288233
 20
-9.845752
 30
0.0
 10
-24.994230
 20
-10.893452
 30
0.0
 10
-25.150887
 20
-12.083610
 30
0.0
  0
SPLINE
  5
252
100
AcDbEntity
  8
Layer_1
 62
7
100
AcDbSpline
 70
8
 71
3
 72
8
 73
4
 74
0
 40
0
 40
0
 40
0
 40
0
 40
1
 40
1
 40
1
 40
1
 10
-25.150887
 20
-12.083610
 30
0.0
 10
-25.307544
 20
-13.273768
 30
0.0
 10
-24.896708
 20
-14.468473
 30
0.0
 10
-24.041199
 20
-15.310567
 30
0.0
  0
SPLINE
  5
253
100
AcDbEntity
  8
Layer_1
 62
7
100
AcDbSpline
 70
8
 71
3
 72
8
 73
4
 74
0
 40
0
 40
0
 40
0
 40
0
 40
1
 40
1
 40
1
 40
1
 10
-24.041199
 20
-15.310567
 30
0.0
 10
-3.985315
 20
-35.037632
 30
0.0
 10
9.753107
 20
-62.920853
 30
0.0
 10
9.753107
 20
-86.746958
 30
0.0
  0
SPLINE
  5
254
100
AcDbEntity
  8
Layer_1
 62
7
100
AcDbSpline
 70
8
 71
3
 72
8
 73
4
 74
0
 40
0
 40
0
 40
0
 40
0
 40
1
 40
1
 40
1
 40
1
 10
9.753107
 20
-86.746958
 30
0.0
 10
9.753107
 20
-108.178553
 30
0.0
 10
-0.717082
 20
-122.433052
 30
0.0
 10
-17.236944
 20
-132.023793
 30
0.0
  0
SPLINE
  5
255
100
AcDbEntity
  8
Layer_1
 62
7
100
AcDbSpline
 70
8
 71
3
 72
8
 73
4
 74
0
 40
0
 40
0
 40
0
 40
0
 40
1
 40
1
 40
1
 40
1
 10
-17.236944
 20
-132.023793
 30
0.0
 10
-33.756777
 20
-141.614505
 30
0.0
 10
-56.428500
 20
-146.008773
 30
0.0
 10
-79.421983
 20
-146.008773
 30
0.0
  0
SPLINE
  5
256
100
AcDbEntity
  8
Layer_1
 62
7
100
AcDbSpline
 70
8
 71
3
 72
8
 73
4
 74
0
 40
0
 40
0
 40
0
 40
0
 40
1
 40
1
 40
1
 40
1
 10
-79.421983
 20
-146.008773
 30
0.0
 10
-102.415438
 20
-146.008773
 30
0.0
 10
-125.087558
 20
-141.614505
 30
0.0
 10
-141.607023
 20
-132.023793
 30
0.0
  0
SPLINE
  5
257
100
AcDbEntity
  8
Layer_1
 62
7
100
AcDbSpline
 70
8
 71
3
 72
8
 73
4
 74
0
 40
0
 40
0
 40
0
 40
0
 40
1
 40
1
 40
1
 40
1
 10
-141.607023
 20
-132.023793
 30
0.0
 10
-158.126459
 20
-122.433080
 30
0.0
 10
-168.597045
 20
-108.178610
 30
0.0
 10
-168.597045
 20
-86.746958
 30
0.0
  0
SPLINE
  5
258
100
AcDbEntity
  8
Layer_1
 62
7
100
AcDbSpline
 70
8
 71
3
 72
8
 73
4
 74
0
 40
0
 40
0
 40
0
 40
0
 40
1
 40
1
 40
1
 40
1
 10
-168.597045
 20
-86.746958
 30
0.0
 10
-168.597045
 20
-62.898884
 30
0.0
 10
-154.832629
 20
-34.985390
 30
0.0
 10
-134.747407
 20
-15.255206
 30
0.0
  0
SPLINE
  5
259
100
AcDbEntity
  8
Layer_1
 62
7
100
AcDbSpline
 70
8
 71
3
 72
8
 73
4
 74
0
 40
0
 40
0
 40
0
 40
0
 40
1
 40
1
 40
1
 40
1
 10
-134.747407
 20
-15.255206
 30
0.0
 10
-133.890127
 20
-14.412328
 30
0.0
 10
-133.478737
 20
-13.215604
 30
0.0
 10
-133.636558
 20
-12.023772
 30
0.0
  0
SPLINE
  5
25a
100
AcDbEntity
  8
Layer_1
 62
7
100
AcDbSpline
 70
8
 71
3
 72
8
 73
4
 74
0
 40
0
 40
0
 40
0
 40
0
 40
1
 40
1
 40
1
 40
1
 10
-133.636558
 20
-12.023772
 30
0.0
 10
-133.794379
 20
-10.831939
 30
0.0
 10
-134.503066
 20
-9.783535
 30
0.0
 10
-135.550179
 20
-9.192834
 30
0.0
  0
SPLINE
  5
25b
100
AcDbEntity
  8
Layer_1
 62
7
100
AcDbSpline
 70
8
 71
3
 72
8
 73
4
 74
0
 40
0
 40
0
 40
0
 40
0
 40
1
 40
1
 40
1
 40
1
 10
-135.550179
 20
-9.192834
 30
0.0
 10
-152.006544
 20
0.071781
 30
0.0
 10
-169.370535
 20
24.447836
 30
0.0
 10
-178.856025
 20
53.235819
 30
0.0
  0
LWPOLYLINE
  5
25c
100
AcDbEntity
  8
Layer_1
 62
7
100
AcDbPolyline
 90
2
 70
1
 10
-106.328837
 20
68.278264
 30
0.0
 10
-106.334506
 20
68.278264
 30
0.0
  0
SPLINE
  5
25d
100
AcDbEntity
  8
Layer_1
 62
7
100
AcDbSpline
 70
8
 71
3
 72
8
 73
4
 74
0
 40
0
 40
0
 40
0
 40
0
 40
1
 40
1
 40
1
 40
1
 10
-178.856025
 20
53.241488
 30
0.0
 10
-185.731769
 20
74.161911
 30
0.0
 10
-187.520119
 20
94.013588
 30
0.0
 10
-185.051284
 20
108.788386
 30
0.0
  0
SPLINE
  5
25e
100
AcDbEntity
  8
Layer_1
 62
7
100
AcDbSpline
 70
8
 71
3
 72
8
 73
4
 74
0
 40
0
 40
0
 40
0
 40
0
 40
1
 40
1
 40
1
 40
1
 10
-185.051284
 20
108.788386
 30
0.0
 10
-183.816768
 20
116.176380
 30
0.0
 10
-181.521045
 20
122.266503
 30
0.0
 10
-178.474028
 20
126.610116
 30
0.0
  0
SPLINE
  5
25f
100
AcDbEntity
  8
Layer_1
 62
7
100
AcDbSpline
 70
8
 71
3
 72
8
 73
4
 74
0
 40
0
 40
0
 40
0
 40
0
 40
1
 40
1
 40
1
 40
1
 10
-178.474028
 20
126.610116
 30
0.0
 10
-175.427010
 20
130.953700
 30
0.0
 10
-171.767454
 20
133.570986
 30
0.0
 10
-167.262777
 20
134.554863
 30
0.0
  0
SPLINE
  5
260
100
AcDbEntity
  8
Layer_1
 62
7
100
AcDbSpline
 70
8
 71
3
 72
8
 73
4
 74
0
 40
0
 40
0
 40
0
 40
0
 40
1
 40
1
 40
1
 40
1
 10
-167.262777
 20
134.554863
 30
0.0
 10
-166.180254
 20
134.791272
 30
0.0
 10
-165.057196
 20
134.922120
 30
0.0
 10
-163.885552
 20
134.947943
 30
0.0
  0
LWPOLYLINE
  5
261
100
AcDbEntity
  8
Layer_1
 62
7
100
AcDbPolyline
 90
2
 70
1
 10
-178.856025
 20
53.235819
 30
0.0
 10
-178.856025
 20
53.241488
 30
0.0
  0
SPLINE
  5
262
100
AcDbEntity
  8
Layer_1
 62
7
100
AcDbSpline
 70
8
 71
3
 72
8
 73
4
 74
0
 40
0
 40
0
 40
0
 40
0
 40
1
 40
1
 40
1
 40
1
 10
-164.367073
 20
156.772363
 30
0.0
 10
-166.890021
 20
156.716804
 30
0.0
 10
-169.428248
 20
156.426310
 30
0.0
 10
-171.924295
 20
155.881009
 30
0.0
  0
SPLINE
  5
263
100
AcDbEntity
  8
Layer_1
 62
7
100
AcDbSpline
 70
8
 71
3
 72
8
 73
4
 74
0
 40
0
 40
0
 40
0
 40
0
 40
1
 40
1
 40
1
 40
1
 10
-171.924295
 20
155.881009
 30
0.0
 10
-182.154390
 20
153.645040
 30
0.0
 10
-190.808365
 20
147.037651
 30
0.0
 10
-196.345448
 20
139.144410
 30
0.0
  0
SPLINE
  5
264
100
AcDbEntity
  8
Layer_1
 62
7
100
AcDbSpline
 70
8
 71
3
 72
8
 73
4
 74
0
 40
0
 40
0
 40
0
 40
0
 40
1
 40
1
 40
1
 40
1
 10
-196.345448
 20
139.144410
 30
0.0
 10
-201.883467
 20
131.249836
 30
0.0
 10
-204.951036
 20
122.148950
 30
0.0
 10
-206.582261
 20
112.386912
 30
0.0
  0
SPLINE
  5
265
100
AcDbEntity
  8
Layer_1
 62
7
100
AcDbSpline
 70
8
 71
3
 72
8
 73
4
 74
0
 40
0
 40
0
 40
0
 40
0
 40
1
 40
1
 40
1
 40
1
 10
-206.582261
 20
112.386912
 30
0.0
 10
-209.844711
 20
92.862835
 30
0.0
 10
-207.383644
 20
70.131725
 30
0.0
 10
-199.589785
 20
46.420480
 30
0.0
  0
SPLINE
  5
266
100
AcDbEntity
  8
Layer_1
 62
7
100
AcDbSpline
 70
8
 71
3
 72
8
 73
4
 74
0
 40
0
 40
0
 40
0
 40
0
 40
1
 40
1
 40
1
 40
1
 10
-199.589785
 20
46.420480
 30
0.0
 10
-199.589786
 20
46.416700
 30
0.0
 10
-199.589786
 20
46.412921
 30
0.0
 10
-199.589785
 20
46.409141
 30
0.0
  0
SPLINE
  5
267
100
AcDbEntity
  8
Layer_1
 62
7
100
AcDbSpline
 70
8
 71
3
 72
8
 73
4
 74
0
 40
0
 40
0
 40
0
 40
0
 40
1
 40
1
 40
1
 40
1
 10
-199.589785
 20
46.409141
 30
0.0
 10
-191.515467
 20
21.901303
 30
0.0
 10
-179.416321
 20
-0.002827
 30
0.0
 10
-163.486802
 20
-15.277628
 30
0.0
  0
SPLINE
  5
268
100
AcDbEntity
  8
Layer_1
 62
7
100
AcDbSpline
 70
8
 71
3
 72
8
 73
4
 74
0
 40
0
 40
0
 40
0
 40
0
 40
1
 40
1
 40
1
 40
1
 10
-163.486802
 20
-15.277628
 30
0.0
 10
-179.718806
 20
-36.279689
 30
0.0
 10
-190.421464
 20
-61.284270
 30
0.0
 10
-190.421464
 20
-86.747242
 30
0.0
  0
SPLINE
  5
269
100
AcDbEntity
  8
Layer_1
 62
7
100
AcDbSpline
 70
8
 71
3
 72
8
 73
4
 74
0
 40
0
 40
0
 40
0
 40
0
 40
1
 40
1
 40
1
 40
1
 10
-190.421464
 20
-86.747242
 30
0.0
 10
-190.421464
 20
-115.551694
 30
0.0
 10
-174.003678
 20
-138.455689
 30
0.0
 10
-152.563439
 20
-150.903242
 30
0.0
  0
SPLINE
  5
26a
100
AcDbEntity
  8
Layer_1
 62
7
100
AcDbSpline
 70
8
 71
3
 72
8
 73
4
 74
0
 40
0
 40
0
 40
0
 40
0
 40
1
 40
1
 40
1
 40
1
 10
-152.563439
 20
-150.903242
 30
0.0
 10
-131.123227
 20
-163.350824
 30
0.0
 10
-105.149454
 20
-167.839146
 30
0.0
 10
-79.421841
 20
-167.839146
 30
0.0
  0
SPLINE
  5
26b
100
AcDbEntity
  8
Layer_1
 62
7
100
AcDbSpline
 70
8
 71
3
 72
8
 73
4
 74
0
 40
0
 40
0
 40
0
 40
0
 40
1
 40
1
 40
1
 40
1
 10
-79.421841
 20
-167.839146
 30
0.0
 10
-53.694200
 20
-167.839146
 30
0.0
 10
-27.715240
 20
-163.350739
 30
0.0
 10
-6.274688
 20
-150.903242
 30
0.0
  0
SPLINE
  5
26c
100
AcDbEntity
  8
Layer_1
 62
7
100
AcDbSpline
 70
8
 71
3
 72
8
 73
4
 74
0
 40
0
 40
0
 40
0
 40
0
 40
1
 40
1
 40
1
 40
1
 10
-6.274688
 20
-150.903242
 30
0.0
 10
15.165863
 20
-138.455774
 30
0.0
 10
31.583337
 20
-115.551921
 30
0.0
 10
31.583337
 20
-86.747242
 30
0.0
  0
SPLINE
  5
26d
100
AcDbEntity
  8
Layer_1
 62
7
100
AcDbSpline
 70
8
 71
3
 72
8
 73
4
 74
0
 40
0
 40
0
 40
0
 40
0
 40
1
 40
1
 40
1
 40
1
 10
31.583337
 20
-86.747242
 30
0.0
 10
31.583337
 20
-61.277779
 30
0.0
 10
20.870304
 20
-36.271185
 30
0.0
 10
4.632064
 20
-15.266545
 30
0.0
  0
SPLINE
  5
26e
100
AcDbEntity
  8
Layer_1
 62
7
100
AcDbSpline
 70
8
 71
3
 72
8
 73
4
 74
0
 40
0
 40
0
 40
0
 40
0
 40
1
 40
1
 40
1
 40
1
 10
4.632064
 20
-15.266545
 30
0.0
 10
20.209349
 20
-0.280055
 30
0.0
 10
32.494392
 20
21.299338
 30
0.0
 10
40.751630
 20
46.420196
 30
0.0
  0
SPLINE
  5
26f
100
AcDbEntity
  8
Layer_1
 62
7
100
AcDbSpline
 70
8
 71
3
 72
8
 73
4
 74
0
 40
0
 40
0
 40
0
 40
0
 40
1
 40
1
 40
1
 40
1
 10
40.751630
 20
46.420196
 30
0.0
 10
40.840071
 20
46.689488
 30
0.0
 10
40.908386
 20
46.948801
 30
0.0
 10
40.995126
 20
47.217440
 30
0.0
  0
SPLINE
  5
270
100
AcDbEntity
  8
Layer_1
 62
7
100
AcDbSpline
 70
8
 71
3
 72
8
 73
4
 74
0
 40
0
 40
0
 40
0
 40
0
 40
1
 40
1
 40
1
 40
1
 10
40.995126
 20
47.217440
 30
0.0
 10
43.134320
 20
48.716599
 30
0.0
 10
45.223000
 20
50.324155
 30
0.0
 10
47.013220
 20
52.277737
 30
0.0
  0
SPLINE
  5
271
100
AcDbEntity
  8
Layer_1
 62
7
100
AcDbSpline
 70
8
 71
3
 72
8
 73
4
 74
0
 40
0
 40
0
 40
0
 40
0
 40
1
 40
1
 40
1
 40
1
 10
47.013220
 20
52.277737
 30
0.0
 10
57.365431
 20
63.574566
 30
0.0
 10
58.979592
 20
78.628803
 30
0.0
 10
56.956619
 20
92.499802
 30
0.0
  0
SPLINE
  5
272
100
AcDbEntity
  8
Layer_1
 62
7
100
AcDbSpline
 70
8
 71
3
 72
8
 73
4
 74
0
 40
0
 40
0
 40
0
 40
0
 40
1
 40
1
 40
1
 40
1
 10
56.956619
 20
92.499802
 30
0.0
 10
54.933646
 20
106.370830
 30
0.0
 10
49.232890
 20
120.496012
 30
0.0
 10
40.768127
 20
134.404967
 30
0.0
  0
SPLINE
  5
273
100
AcDbEntity
  8
Layer_1
 62
7
100
AcDbSpline
 70
8
 71
3
 72
8
 73
4
 74
0
 40
0
 40
0
 40
0
 40
0
 40
1
 40
1
 40
1
 40
1
 10
40.768127
 20
134.404967
 30
0.0
 10
36.835558
 20
140.865675
 30
0.0
 10
29.283898
 20
144.179202
 30
0.0
 10
21.866795
 20
142.698517
 30
0.0
  0
SPLINE
  5
274
100
AcDbEntity
  8
Layer_1
 62
7
100
AcDbSpline
 70
8
 71
3
 72
8
 73
4
 74
0
 40
0
 40
0
 40
0
 40
0
 40
1
 40
1
 40
1
 40
1
 10
21.866795
 20
142.698517
 30
0.0
 10
7.810156
 20
139.892728
 30
0.0
 10
-7.800153
 20
135.375606
 30
0.0
 10
-21.887492
 20
129.898305
 30
0.0
  0
SPLINE
  5
275
100
AcDbEntity
  8
Layer_1
 62
7
100
AcDbSpline
 70
8
 71
3
 72
8
 73
4
 74
0
 40
0
 40
0
 40
0
 40
0
 40
1
 40
1
 40
1
 40
1
 10
-21.887492
 20
129.898305
 30
0.0
 10
-35.974830
 20
124.421004
 30
0.0
 10
-48.077407
 20
119.314900
 30
0.0
 10
-57.708115
 20
109.125680
 30
0.0
  0
SPLINE
  5
276
100
AcDbEntity
  8
Layer_1
 62
7
100
AcDbSpline
 70
8
 71
3
 72
8
 73
4
 74
0
 40
0
 40
0
 40
0
 40
0
 40
1
 40
1
 40
1
 40
1
 10
-57.708115
 20
109.125680
 30
0.0
 10
-58.776870
 20
107.994035
 30
0.0
 10
-59.694340
 20
106.728554
 30
0.0
 10
-60.437567
 20
105.360902
 30
0.0
  0
SPLINE
  5
277
100
AcDbEntity
  8
Layer_1
 62
7
100
AcDbSpline
 70
8
 71
3
 72
8
 73
4
 74
0
 40
0
 40
0
 40
0
 40
0
 40
1
 40
1
 40
1
 40
1
 10
-60.437567
 20
105.360902
 30
0.0
 10
-67.547142
 20
92.286863
 30
0.0
 10
-70.393778
 20
83.762375
 30
0.0
 10
-73.243306
 20
75.093319
 30
0.0
  0
SPLINE
  5
278
100
AcDbEntity
  8
Layer_1
 62
7
100
AcDbSpline
 70
8
 71
3
 72
8
 73
4
 74
0
 40
0
 40
0
 40
0
 40
0
 40
1
 40
1
 40
1
 40
1
 10
-73.243306
 20
75.093319
 30
0.0
 10
-76.122682
 20
66.333498
 30
0.0
 10
-78.025637
 20
57.789337
 30
0.0
 10
-79.427482
 20
49.409869
 30
0.0
  0
SPLINE
  5
279
100
AcDbEntity
  8
Layer_1
 62
7
100
AcDbSpline
 70
8
 71
3
 72
8
 73
4
 74
0
 40
0
 40
0
 40
0
 40
0
 40
1
 40
1
 40
1
 40
1
 10
-79.427482
 20
49.409869
 30
0.0
 10
-80.846761
 20
57.895438
 30
0.0
 10
-82.769955
 20
66.472396
 30
0.0
 10
-85.595048
 20
75.082236
 30
0.0
  0
SPLINE
  5
27a
100
AcDbEntity
  8
Layer_1
 62
7
100
AcDbSpline
 70
8
 71
3
 72
8
 73
4
 74
0
 40
0
 40
0
 40
0
 40
0
 40
1
 40
1
 40
1
 40
1
 10
-85.595048
 20
75.082236
 30
0.0
 10
-85.595047
 20
75.086015
 30
0.0
 10
-85.595047
 20
75.089795
 30
0.0
 10
-85.595048
 20
75.093574
 30
0.0
  0
SPLINE
  5
27b
100
AcDbEntity
  8
Layer_1
 62
7
100
AcDbSpline
 70
8
 71
3
 72
8
 73
4
 74
0
 40
0
 40
0
 40
0
 40
0
 40
1
 40
1
 40
1
 40
1
 10
-85.595048
 20
75.093574
 30
0.0
 10
-92.846667
 20
97.154857
 30
0.0
 10
-103.663023
 20
116.504292
 30
0.0
 10
-116.621152
 20
131.160856
 30
0.0
  0
SPLINE
  5
27c
100
AcDbEntity
  8
Layer_1
 62
7
100
AcDbSpline
 70
8
 71
3
 72
8
 73
4
 74
0
 40
0
 40
0
 40
0
 40
0
 40
1
 40
1
 40
1
 40
1
 10
-116.621152
 20
131.160856
 30
0.0
 10
-129.579253
 20
145.817449
 30
0.0
 10
-145.079520
 20
157.196200
 30
0.0
 10
-164.367187
 20
156.772335
 30
0.0
  0
LWPOLYLINE
  5
27d
100
AcDbEntity
  8
Layer_1
 62
7
100
AcDbPolyline
 90
2
 70
1
 10
-163.885552
 20
134.947943
 30
0.0
 10
-163.885410
 20
134.947802
 30
0.0
  0
LWPOLYLINE
  5
27e
100
AcDbEntity
  8
Layer_1
 62
7
100
AcDbPolyline
 90
2
 70
1
 10
-164.367187
 20
156.772335
 30
0.0
 10
-164.367073
 20
156.772363
 30
0.0
  0
SPLINE
  5
27f
100
AcDbEntity
  8
Layer_1
 62
7
100
AcDbSpline
 70
8
 71
3
 72
8
 73
4
 74
0
 40
0
 40
0
 40
0
 40
0
 40
1
 40
1
 40
1
 40
1
 10
-163.569716
 20
120.780128
 30
0.0
 10
-161.156950
 20
120.830868
 30
0.0
 10
-152.567606
 20
117.471274
 30
0.0
 10
-143.588780
 20
107.315560
 30
0.0
  0
SPLINE
  5
280
100
AcDbEntity
  8
Layer_1
 62
7
100
AcDbSpline
 70
8
 71
3
 72
8
 73
4
 74
0
 40
0
 40
0
 40
0
 40
0
 40
1
 40
1
 40
1
 40
1
 10
-143.588780
 20
107.315560
 30
0.0
 10
-134.607064
 20
97.156587
 30
0.0
 10
-125.631895
 20
81.611871
 30
0.0
 10
-119.793262
 20
63.849130
 30
0.0
  0
SPLINE
  5
281
100
AcDbEntity
  8
Layer_1
 62
7
100
AcDbSpline
 70
8
 71
3
 72
8
 73
4
 74
0
 40
0
 40
0
 40
0
 40
0
 40
1
 40
1
 40
1
 40
1
 10
-119.793262
 20
63.849130
 30
0.0
 10
-113.824405
 20
45.652546
 30
0.0
 10
-112.132292
 20
27.390595
 30
0.0
 10
-114.112887
 20
15.305819
 30
0.0
  0
SPLINE
  5
282
100
AcDbEntity
  8
Layer_1
 62
7
100
AcDbSpline
 70
8
 71
3
 72
8
 73
4
 74
0
 40
0
 40
0
 40
0
 40
0
 40
1
 40
1
 40
1
 40
1
 10
-114.112887
 20
15.305819
 30
0.0
 10
-115.103374
 20
9.257833
 30
0.0
 10
-112.948912
 20
3.121408
 30
0.0
 10
-108.395038
 20
-0.979986
 30
0.0
  0
SPLINE
  5
283
100
AcDbEntity
  8
Layer_1
 62
7
100
AcDbSpline
 70
8
 71
3
 72
8
 73
4
 74
0
 40
0
 40
0
 40
0
 40
0
 40
1
 40
1
 40
1
 40
1
 10
-108.395038
 20
-0.979986
 30
0.0
 10
-103.841165
 20
-5.081380
 30
0.0
 10
-97.513543
 20
-6.584248
 30
0.0
 10
-91.601804
 20
-4.968531
 30
0.0
  0
SPLINE
  5
284
100
AcDbEntity
  8
Layer_1
 62
7
100
AcDbSpline
 70
8
 71
3
 72
8
 73
4
 74
0
 40
0
 40
0
 40
0
 40
0
 40
1
 40
1
 40
1
 40
1
 10
-91.601804
 20
-4.968531
 30
0.0
 10
-87.417186
 20
-3.824667
 30
0.0
 10
-83.355366
 20
-3.252238
 30
0.0
 10
-79.421700
 20
-3.252238
 30
0.0
  0
SPLINE
  5
285
100
AcDbEntity
  8
Layer_1
 62
7
100
AcDbSpline
 70
8
 71
3
 72
8
 73
4
 74
0
 40
0
 40
0
 40
0
 40
0
 40
1
 40
1
 40
1
 40
1
 10
-79.421700
 20
-3.252238
 30
0.0
 10
-75.494752
 20
-3.252238
 30
0.0
 10
-71.436673
 20
-3.824723
 30
0.0
 10
-67.263734
 20
-4.963004
 30
0.0
  0
SPLINE
  5
286
100
AcDbEntity
  8
Layer_1
 62
7
100
AcDbSpline
 70
8
 71
3
 72
8
 73
4
 74
0
 40
0
 40
0
 40
0
 40
0
 40
1
 40
1
 40
1
 40
1
 10
-67.263734
 20
-4.963004
 30
0.0
 10
-61.356016
 20
-6.574469
 30
0.0
 10
-55.034271
 20
-5.072292
 30
0.0
 10
-50.482942
 20
-0.975542
 30
0.0
  0
SPLINE
  5
287
100
AcDbEntity
  8
Layer_1
 62
7
100
AcDbSpline
 70
8
 71
3
 72
8
 73
4
 74
0
 40
0
 40
0
 40
0
 40
0
 40
1
 40
1
 40
1
 40
1
 10
-50.482942
 20
-0.975542
 30
0.0
 10
-45.931613
 20
3.121208
 30
0.0
 10
-43.774951
 20
9.250630
 30
0.0
 10
-44.758178
 20
15.294736
 30
0.0
  0
SPLINE
  5
288
100
AcDbEntity
  8
Layer_1
 62
7
100
AcDbSpline
 70
8
 71
3
 72
8
 73
4
 74
0
 40
0
 40
0
 40
0
 40
0
 40
1
 40
1
 40
1
 40
1
 10
-44.758178
 20
15.294736
 30
0.0
 10
-46.662096
 20
26.999329
 30
0.0
 10
-45.284856
 20
44.864628
 30
0.0
 10
-39.044610
 20
63.849130
 30
0.0
  0
SPLINE
  5
289
100
AcDbEntity
  8
Layer_1
 62
7
100
AcDbSpline
 70
8
 71
3
 72
8
 73
4
 74
0
 40
0
 40
0
 40
0
 40
0
 40
1
 40
1
 40
1
 40
1
 10
-39.044610
 20
63.849130
 30
0.0
 10
-36.477611
 20
71.658607
 30
0.0
 10
-34.722257
 20
76.574166
 30
0.0
 10
-30.230619
 20
85.230778
 30
0.0
  0
SPLINE
  5
28a
100
AcDbEntity
  8
Layer_1
 62
7
100
AcDbSpline
 70
8
 71
3
 72
8
 73
4
 74
0
 40
0
 40
0
 40
0
 40
0
 40
1
 40
1
 40
1
 40
1
 10
-30.230619
 20
85.230778
 30
0.0
 10
-28.017470
 20
86.890775
 30
0.0
 10
-19.623744
 20
92.154259
 30
0.0
 10
-8.837917
 20
96.347919
 30
0.0
  0
SPLINE
  5
28b
100
AcDbEntity
  8
Layer_1
 62
7
100
AcDbSpline
 70
8
 71
3
 72
8
 73
4
 74
0
 40
0
 40
0
 40
0
 40
0
 40
1
 40
1
 40
1
 40
1
 10
-8.837917
 20
96.347919
 30
0.0
 10
-1.114613
 20
99.350801
 30
0.0
 10
7.412568
 20
101.909579
 30
0.0
 10
15.777012
 20
104.132111
 30
0.0
  0
SPLINE
  5
28c
100
AcDbEntity
  8
Layer_1
 62
7
100
AcDbSpline
 70
8
 71
3
 72
8
 73
4
 74
0
 40
0
 40
0
 40
0
 40
0
 40
1
 40
1
 40
1
 40
1
 10
15.777012
 20
104.132111
 30
0.0
 10
18.552301
 20
97.858615
 30
0.0
 10
20.655381
 20
91.927232
 30
0.0
 10
21.330027
 20
87.301402
 30
0.0
  0
SPLINE
  5
28d
100
AcDbEntity
  8
Layer_1
 62
7
100
AcDbSpline
 70
8
 71
3
 72
8
 73
4
 74
0
 40
0
 40
0
 40
0
 40
0
 40
1
 40
1
 40
1
 40
1
 10
21.330027
 20
87.301402
 30
0.0
 10
22.410338
 20
79.894075
 30
0.0
 10
20.746572
 20
76.899244
 30
0.0
 10
20.471894
 20
76.599508
 30
0.0
  0
SPLINE
  5
28e
100
AcDbEntity
  8
Layer_1
 62
7
100
AcDbSpline
 70
8
 71
3
 72
8
 73
4
 74
0
 40
0
 40
0
 40
0
 40
0
 40
1
 40
1
 40
1
 40
1
 10
20.471894
 20
76.599508
 30
0.0
 10
20.366162
 20
76.484138
 30
0.0
 10
20.474729
 20
76.515036
 30
0.0
 10
20.012370
 20
76.356012
 30
0.0
  0
SPLINE
  5
28f
100
AcDbEntity
  8
Layer_1
 62
7
100
AcDbSpline
 70
8
 71
3
 72
8
 73
4
 74
0
 40
0
 40
0
 40
0
 40
0
 40
1
 40
1
 40
1
 40
1
 10
20.012370
 20
76.356012
 30
0.0
 10
14.403481
 20
74.430862
 30
0.0
 10
10.102500
 20
69.866890
 30
0.0
 10
8.513233
 20
64.153741
 30
0.0
  0
SPLINE
  5
290
100
AcDbEntity
  8
Layer_1
 62
7
100
AcDbSpline
 70
8
 71
3
 72
8
 73
4
 74
0
 40
0
 40
0
 40
0
 40
0
 40
1
 40
1
 40
1
 40
1
 10
8.513233
 20
64.153741
 30
0.0
 10
7.911069
 20
61.988298
 30
0.0
 10
7.263806
 20
59.826569
 30
0.0
 10
6.553331
 20
57.665066
 30
0.0
  0
SPLINE
  5
291
100
AcDbEntity
  8
Layer_1
 62
7
100
AcDbSpline
 70
8
 71
3
 72
8
 73
4
 74
0
 40
0
 40
0
 40
0
 40
0
 40
1
 40
1
 40
1
 40
1
 10
6.553331
 20
57.665066
 30
0.0
 10
-2.379545
 20
30.488778
 30
0.0
 10
-19.465400
 20
9.183268
 30
0.0
 10
-30.236175
 20
3.075995
 30
0.0
  0
SPLINE
  5
292
100
AcDbEntity
  8
Layer_1
 62
7
100
AcDbSpline
 70
8
 71
3
 72
8
 73
4
 74
0
 40
0
 40
0
 40
0
 40
0
 40
1
 40
1
 40
1
 40
1
 10
-30.236175
 20
3.075995
 30
0.0
 10
-35.147365
 20
0.289977
 30
0.0
 10
-38.466841
 20
-4.638918
 30
0.0
 10
-39.202254
 20
-10.237208
 30
0.0
  0
SPLINE
  5
293
100
AcDbEntity
  8
Layer_1
 62
7
100
AcDbSpline
 70
8
 71
3
 72
8
 73
4
 74
0
 40
0
 40
0
 40
0
 40
0
 40
1
 40
1
 40
1
 40
1
 10
-39.202254
 20
-10.237208
 30
0.0
 10
-39.937668
 20
-15.835499
 30
0.0
 10
-38.003804
 20
-21.454493
 30
0.0
 10
-33.978786
 20
-25.414407
 30
0.0
  0
SPLINE
  5
294
100
AcDbEntity
  8
Layer_1
 62
7
100
AcDbSpline
 70
8
 71
3
 72
8
 73
4
 74
0
 40
0
 40
0
 40
0
 40
0
 40
1
 40
1
 40
1
 40
1
 10
-33.978786
 20
-25.414407
 30
0.0
 10
-16.325832
 20
-42.777973
 30
0.0
 10
-4.419838
 20
-68.245083
 30
0.0
 10
-4.419838
 20
-86.746845
 30
0.0
  0
SPLINE
  5
295
100
AcDbEntity
  8
Layer_1
 62
7
100
AcDbSpline
 70
8
 71
3
 72
8
 73
4
 74
0
 40
0
 40
0
 40
0
 40
0
 40
1
 40
1
 40
1
 40
1
 10
-4.419838
 20
-86.746845
 30
0.0
 10
-4.419838
 20
-103.390751
 30
0.0
 10
-11.026377
 20
-112.030355
 30
0.0
 10
-24.350940
 20
-119.766047
 30
0.0
  0
SPLINE
  5
296
100
AcDbEntity
  8
Layer_1
 62
7
100
AcDbSpline
 70
8
 71
3
 72
8
 73
4
 74
0
 40
0
 40
0
 40
0
 40
0
 40
1
 40
1
 40
1
 40
1
 10
-24.350940
 20
-119.766047
 30
0.0
 10
-37.675533
 20
-127.501739
 30
0.0
 10
-58.203640
 20
-131.835430
 30
0.0
 10
-79.421700
 20
-131.835430
 30
0.0
  0
SPLINE
  5
297
100
AcDbEntity
  8
Layer_1
 62
7
100
AcDbSpline
 70
8
 71
3
 72
8
 73
4
 74
0
 40
0
 40
0
 40
0
 40
0
 40
1
 40
1
 40
1
 40
1
 10
-79.421700
 20
-131.835430
 30
0.0
 10
-100.639731
 20
-131.835430
 30
0.0
 10
-121.162764
 20
-127.501654
 30
0.0
 10
-134.486903
 20
-119.766047
 30
0.0
  0
SPLINE
  5
298
100
AcDbEntity
  8
Layer_1
 62
7
100
AcDbSpline
 70
8
 71
3
 72
8
 73
4
 74
0
 40
0
 40
0
 40
0
 40
0
 40
1
 40
1
 40
1
 40
1
 10
-134.486903
 20
-119.766047
 30
0.0
 10
-147.811042
 20
-112.030440
 30
0.0
 10
-154.423533
 20
-103.390950
 30
0.0
 10
-154.423533
 20
-86.746845
 30
0.0
  0
SPLINE
  5
299
100
AcDbEntity
  8
Layer_1
 62
7
100
AcDbSpline
 70
8
 71
3
 72
8
 73
4
 74
0
 40
0
 40
0
 40
0
 40
0
 40
1
 40
1
 40
1
 40
1
 10
-154.423533
 20
-86.746845
 30
0.0
 10
-154.423533
 20
-68.227225
 30
0.0
 10
-142.492028
 20
-42.734886
 30
0.0
 10
-124.814780
 20
-25.370129
 30
0.0
  0
SPLINE
  5
29a
100
AcDbEntity
  8
Layer_1
 62
7
100
AcDbSpline
 70
8
 71
3
 72
8
 73
4
 74
0
 40
0
 40
0
 40
0
 40
0
 40
1
 40
1
 40
1
 40
1
 10
-124.814780
 20
-25.370129
 30
0.0
 10
-120.777325
 20
-21.404721
 30
0.0
 10
-118.839566
 20
-15.771567
 30
0.0
 10
-119.583141
 20
-10.161522
 30
0.0
  0
SPLINE
  5
29b
100
AcDbEntity
  8
Layer_1
 62
7
100
AcDbSpline
 70
8
 71
3
 72
8
 73
4
 74
0
 40
0
 40
0
 40
0
 40
0
 40
1
 40
1
 40
1
 40
1
 10
-119.583141
 20
-10.161522
 30
0.0
 10
-120.326717
 20
-4.551476
 30
0.0
 10
-123.665064
 20
0.382363
 30
0.0
 10
-128.596141
 20
3.159050
 30
0.0
  0
SPLINE
  5
29c
100
AcDbEntity
  8
Layer_1
 62
7
100
AcDbSpline
 70
8
 71
3
 72
8
 73
4
 74
0
 40
0
 40
0
 40
0
 40
0
 40
1
 40
1
 40
1
 40
1
 10
-128.596141
 20
3.159050
 30
0.0
 10
-139.743272
 20
9.434644
 30
0.0
 10
-156.739212
 20
31.412872
 30
0.0
 10
-165.391174
 20
57.665066
 30
0.0
  0
LWPOLYLINE
  5
29d
100
AcDbEntity
  8
Layer_1
 62
7
100
AcDbPolyline
 90
2
 70
1
 10
-163.575385
 20
120.780128
 30
0.0
 10
-163.569716
 20
120.780128
 30
0.0
  0
SPLINE
  5
29e
100
AcDbEntity
  8
Layer_1
 62
7
100
AcDbSpline
 70
8
 71
3
 72
8
 73
4
 74
0
 40
0
 40
0
 40
0
 40
0
 40
1
 40
1
 40
1
 40
1
 10
-165.396843
 20
57.676405
 30
0.0
 10
-171.675357
 20
76.783278
 30
0.0
 10
-173.025102
 20
94.761821
 30
0.0
 10
-171.071662
 20
106.452241
 30
0.0
  0
SPLINE
  5
29f
100
AcDbEntity
  8
Layer_1
 62
7
100
AcDbSpline
 70
8
 71
3
 72
8
 73
4
 74
0
 40
0
 40
0
 40
0
 40
0
 40
1
 40
1
 40
1
 40
1
 10
-171.071662
 20
106.452241
 30
0.0
 10
-170.094730
 20
112.298669
 30
0.0
 10
-168.299010
 20
116.434021
 30
0.0
 10
-166.869527
 20
118.471791
 30
0.0
  0
SPLINE
  5
2a0
100
AcDbEntity
  8
Layer_1
 62
7
100
AcDbSpline
 70
8
 71
3
 72
8
 73
4
 74
0
 40
0
 40
0
 40
0
 40
0
 40
1
 40
1
 40
1
 40
1
 10
-166.869527
 20
118.471791
 30
0.0
 10
-165.440015
 20
120.509561
 30
0.0
 10
-165.025136
 20
120.536972
 30
0.0
 10
-164.239713
 20
120.708497
 30
0.0
  0
SPLINE
  5
2a1
100
AcDbEntity
  8
Layer_1
 62
7
100
AcDbSpline
 70
8
 71
3
 72
8
 73
4
 74
0
 40
0
 40
0
 40
0
 40
0
 40
1
 40
1
 40
1
 40
1
 10
-164.239713
 20
120.708497
 30
0.0
 10
-164.076437
 20
120.744213
 30
0.0
 10
-163.865738
 20
120.773694
 30
0.0
 10
-163.575357
 20
120.780497
 30
0.0
  0
LWPOLYLINE
  5
2a2
100
AcDbEntity
  8
Layer_1
 62
7
100
AcDbPolyline
 90
2
 70
1
 10
-165.391174
 20
57.665066
 30
0.0
 10
-165.396843
 20
57.676405
 30
0.0
  0
SPLINE
  5
2a3
100
AcDbEntity
  8
Layer_1
 62
1
100
AcDbSpline
 70
8
 71
3
 72
8
 73
4
 74
0
 40
0
 40
0
 40
0
 40
0
 40
1
 40
1
 40
1
 40
1
 10
330.751108
 20
609.066659
 30
0.0
 10
332.396563
 20
609.102942
 30
0.0
 10
334.017272
 20
609.292013
 30
0.0
 10
335.595461
 20
609.636904
 30
0.0
  0
SPLINE
  5
2a4
100
AcDbEntity
  8
Layer_1
 62
1
100
AcDbSpline
 70
8
 71
3
 72
8
 73
4
 74
0
 40
0
 40
0
 40
0
 40
0
 40
1
 40
1
 40
1
 40
1
 10
335.595461
 20
609.636904
 30
0.0
 10
342.108541
 20
611.059443
 30
0.0
 10
347.520191
 20
615.076703
 30
0.0
 10
351.440676
 20
620.665434
 30
0.0
  0
SPLINE
  5
2a5
100
AcDbEntity
  8
Layer_1
 62
1
100
AcDbSpline
 70
8
 71
3
 72
8
 73
4
 74
0
 40
0
 40
0
 40
0
 40
0
 40
1
 40
1
 40
1
 40
1
 10
351.440676
 20
620.665434
 30
0.0
 10
355.361190
 20
626.254194
 30
0.0
 10
357.928783
 20
633.400336
 30
0.0
 10
359.302396
 20
641.620780
 30
0.0
  0
SPLINE
  5
2a6
100
AcDbEntity
  8
Layer_1
 62
1
100
AcDbSpline
 70
8
 71
3
 72
8
 73
4
 74
0
 40
0
 40
0
 40
0
 40
0
 40
1
 40
1
 40
1
 40
1
 10
359.302396
 20
641.620780
 30
0.0
 10
362.049650
 20
658.061698
 30
0.0
 10
360.028916
 20
678.926987
 30
0.0
 10
352.830333
 20
700.827206
 30
0.0
  0
SPLINE
  5
2a7
100
AcDbEntity
  8
Layer_1
 62
1
100
AcDbSpline
 70
8
 71
3
 72
8
 73
4
 74
0
 40
0
 40
0
 40
0
 40
0
 40
1
 40
1
 40
1
 40
1
 10
352.830333
 20
700.827206
 30
0.0
 10
352.828443
 20
700.827207
 30
0.0
 10
352.826554
 20
700.827207
 30
0.0
 10
352.824664
 20
700.827206
 30
0.0
  0
SPLINE
  5
2a8
100
AcDbEntity
  8
Layer_1
 62
1
100
AcDbSpline
 70
8
 71
3
 72
8
 73
4
 74
0
 40
0
 40
0
 40
0
 40
0
 40
1
 40
1
 40
1
 40
1
 10
352.824664
 20
700.827206
 30
0.0
 10
343.528755
 20
729.042902
 30
0.0
 10
327.474087
 20
752.841086
 30
0.0
 10
309.629483
 20
764.761764
 30
0.0
  0
SPLINE
  5
2a9
100
AcDbEntity
  8
Layer_1
 62
1
100
AcDbSpline
 70
8
 71
3
 72
8
 73
4
 74
0
 40
0
 40
0
 40
0
 40
0
 40
1
 40
1
 40
1
 40
1
 10
309.629483
 20
764.761764
 30
0.0
 10
329.361564
 20
785.486965
 30
0.0
 10
342.947653
 20
812.978126
 30
0.0
 10
342.947653
 20
838.418279
 30
0.0
  0
SPLINE
  5
2aa
100
AcDbEntity
  8
Layer_1
 62
1
100
AcDbSpline
 70
8
 71
3
 72
8
 73
4
 74
0
 40
0
 40
0
 40
0
 40
0
 40
1
 40
1
 40
1
 40
1
 10
342.947653
 20
838.418279
 30
0.0
 10
342.947653
 20
862.435213
 30
0.0
 10
330.393489
 20
879.724199
 30
0.0
 10
312.148575
 20
890.316676
 30
0.0
  0
SPLINE
  5
2ab
100
AcDbEntity
  8
Layer_1
 62
1
100
AcDbSpline
 70
8
 71
3
 72
8
 73
4
 74
0
 40
0
 40
0
 40
0
 40
0
 40
1
 40
1
 40
1
 40
1
 10
312.148575
 20
890.316676
 30
0.0
 10
293.903662
 20
900.909124
 30
0.0
 10
270.073448
 20
905.336925
 30
0.0
 10
246.121287
 20
905.336925
 30
0.0
  0
SPLINE
  5
2ac
100
AcDbEntity
  8
Layer_1
 62
1
100
AcDbSpline
 70
8
 71
3
 72
8
 73
4
 74
0
 40
0
 40
0
 40
0
 40
0
 40
1
 40
1
 40
1
 40
1
 10
246.121287
 20
905.336925
 30
0.0
 10
222.169070
 20
905.336925
 30
0.0
 10
198.339224
 20
900.909124
 30
0.0
 10
180.093942
 20
890.316676
 30
0.0
  0
SPLINE
  5
2ad
100
AcDbEntity
  8
Layer_1
 62
1
100
AcDbSpline
 70
8
 71
3
 72
8
 73
4
 74
0
 40
0
 40
0
 40
0
 40
0
 40
1
 40
1
 40
1
 40
1
 10
180.093942
 20
890.316676
 30
0.0
 10
161.848660
 20
879.724228
 30
0.0
 10
149.289309
 20
862.435213
 30
0.0
 10
149.289309
 20
838.418279
 30
0.0
  0
SPLINE
  5
2ae
100
AcDbEntity
  8
Layer_1
 62
1
100
AcDbSpline
 70
8
 71
3
 72
8
 73
4
 74
0
 40
0
 40
0
 40
0
 40
0
 40
1
 40
1
 40
1
 40
1
 10
149.289309
 20
838.418279
 30
0.0
 10
149.289309
 20
813.001342
 30
0.0
 10
162.855668
 20
785.541589
 30
0.0
 10
182.557646
 20
764.822652
 30
0.0
  0
SPLINE
  5
2af
100
AcDbEntity
  8
Layer_1
 62
1
100
AcDbSpline
 70
8
 71
3
 72
8
 73
4
 74
0
 40
0
 40
0
 40
0
 40
0
 40
1
 40
1
 40
1
 40
1
 10
182.557646
 20
764.822652
 30
0.0
 10
165.219422
 20
753.181414
 30
0.0
 10
148.977583
 20
729.927368
 30
0.0
 10
139.412354
 20
700.827206
 30
0.0
  0
SPLINE
  5
2b0
100
AcDbEntity
  8
Layer_1
 62
1
100
AcDbSpline
 70
8
 71
3
 72
8
 73
4
 74
0
 40
0
 40
0
 40
0
 40
0
 40
1
 40
1
 40
1
 40
1
 10
139.412354
 20
700.827206
 30
0.0
 10
138.771469
 20
698.877423
 30
0.0
 10
138.212902
 20
696.945272
 30
0.0
 10
137.657312
 20
695.019527
 30
0.0
  0
SPLINE
  5
2b1
100
AcDbEntity
  8
Layer_1
 62
1
100
AcDbSpline
 70
8
 71
3
 72
8
 73
4
 74
0
 40
0
 40
0
 40
0
 40
0
 40
1
 40
1
 40
1
 40
1
 10
137.657312
 20
695.019527
 30
0.0
 10
134.862351
 20
693.768229
 30
0.0
 10
132.255328
 20
692.130456
 30
0.0
 10
130.138839
 20
689.820843
 30
0.0
  0
SPLINE
  5
2b2
100
AcDbEntity
  8
Layer_1
 62
1
100
AcDbSpline
 70
8
 71
3
 72
8
 73
4
 74
0
 40
0
 40
0
 40
0
 40
0
 40
1
 40
1
 40
1
 40
1
 10
130.138839
 20
689.820843
 30
0.0
 10
123.754168
 20
682.853567
 30
0.0
 10
122.120137
 20
672.545944
 30
0.0
 10
123.771970
 20
661.219692
 30
0.0
  0
SPLINE
  5
2b3
100
AcDbEntity
  8
Layer_1
 62
1
100
AcDbSpline
 70
8
 71
3
 72
8
 73
4
 74
0
 40
0
 40
0
 40
0
 40
0
 40
1
 40
1
 40
1
 40
1
 10
123.771970
 20
661.219692
 30
0.0
 10
125.423803
 20
649.893439
 30
0.0
 10
130.368162
 20
637.240005
 30
0.0
 10
138.039309
 20
624.635044
 30
0.0
  0
SPLINE
  5
2b4
100
AcDbEntity
  8
Layer_1
 62
1
100
AcDbSpline
 70
8
 71
3
 72
8
 73
4
 74
0
 40
0
 40
0
 40
0
 40
0
 40
1
 40
1
 40
1
 40
1
 10
138.039309
 20
624.635044
 30
0.0
 10
138.876250
 20
623.262094
 30
0.0
 10
140.482126
 20
622.558699
 30
0.0
 10
142.058751
 20
622.874474
 30
0.0
  0
SPLINE
  5
2b5
100
AcDbEntity
  8
Layer_1
 62
1
100
AcDbSpline
 70
8
 71
3
 72
8
 73
4
 74
0
 40
0
 40
0
 40
0
 40
0
 40
1
 40
1
 40
1
 40
1
 10
142.058751
 20
622.874474
 30
0.0
 10
155.193110
 20
625.496153
 30
0.0
 10
170.236462
 20
629.845435
 30
0.0
 10
183.449000
 20
634.982607
 30
0.0
  0
SPLINE
  5
2b6
100
AcDbEntity
  8
Layer_1
 62
1
100
AcDbSpline
 70
8
 71
3
 72
8
 73
4
 74
0
 40
0
 40
0
 40
0
 40
0
 40
1
 40
1
 40
1
 40
1
 10
183.449000
 20
634.982607
 30
0.0
 10
196.661567
 20
640.119779
 30
0.0
 10
207.946944
 20
645.758258
 30
0.0
 10
214.109690
 20
652.278397
 30
0.0
  0
SPLINE
  5
2b7
100
AcDbEntity
  8
Layer_1
 62
1
100
AcDbSpline
 70
8
 71
3
 72
8
 73
4
 74
0
 40
0
 40
0
 40
0
 40
0
 40
1
 40
1
 40
1
 40
1
 10
214.109690
 20
652.278397
 30
0.0
 10
214.335490
 20
652.519989
 30
0.0
 10
214.529027
 20
652.789827
 30
0.0
 10
214.685463
 20
653.081169
 30
0.0
  0
SPLINE
  5
2b8
100
AcDbEntity
  8
Layer_1
 62
1
100
AcDbSpline
 70
8
 71
3
 72
8
 73
4
 74
0
 40
0
 40
0
 40
0
 40
0
 40
1
 40
1
 40
1
 40
1
 10
214.685463
 20
653.081169
 30
0.0
 10
221.379479
 20
665.391015
 30
0.0
 10
223.611564
 20
672.286263
 30
0.0
 10
226.478043
 20
681.006852
 30
0.0
  0
SPLINE
  5
2b9
100
AcDbEntity
  8
Layer_1
 62
1
100
AcDbSpline
 70
8
 71
3
 72
8
 73
4
 74
0
 40
0
 40
0
 40
0
 40
0
 40
1
 40
1
 40
1
 40
1
 10
226.478043
 20
681.006852
 30
0.0
 10
232.941177
 20
700.669430
 30
0.0
 10
235.019255
 20
719.315021
 30
0.0
 10
233.431797
 20
734.854068
 30
0.0
  0
SPLINE
  5
2ba
100
AcDbEntity
  8
Layer_1
 62
1
100
AcDbSpline
 70
8
 71
3
 72
8
 73
4
 74
0
 40
0
 40
0
 40
0
 40
0
 40
1
 40
1
 40
1
 40
1
 10
233.431797
 20
734.854068
 30
0.0
 10
237.637901
 20
734.027400
 30
0.0
 10
241.838109
 20
733.098997
 30
0.0
 10
246.121259
 20
733.098997
 30
0.0
  0
SPLINE
  5
2bb
100
AcDbEntity
  8
Layer_1
 62
1
100
AcDbSpline
 70
8
 71
3
 72
8
 73
4
 74
0
 40
0
 40
0
 40
0
 40
0
 40
1
 40
1
 40
1
 40
1
 10
246.121259
 20
733.098997
 30
0.0
 10
250.419829
 20
733.098997
 30
0.0
 10
254.634748
 20
734.032559
 30
0.0
 10
258.855026
 20
734.865123
 30
0.0
  0
SPLINE
  5
2bc
100
AcDbEntity
  8
Layer_1
 62
1
100
AcDbSpline
 70
8
 71
3
 72
8
 73
4
 74
0
 40
0
 40
0
 40
0
 40
0
 40
1
 40
1
 40
1
 40
1
 10
258.855026
 20
734.865123
 30
0.0
 10
257.208125
 20
718.826612
 30
0.0
 10
259.538430
 20
699.964708
 30
0.0
 10
265.758919
 20
681.006852
 30
0.0
  0
SPLINE
  5
2bd
100
AcDbEntity
  8
Layer_1
 62
1
100
AcDbSpline
 70
8
 71
3
 72
8
 73
4
 74
0
 40
0
 40
0
 40
0
 40
0
 40
1
 40
1
 40
1
 40
1
 10
265.758919
 20
681.006852
 30
0.0
 10
272.454238
 20
660.637909
 30
0.0
 10
282.546711
 20
642.786047
 30
0.0
 10
293.939322
 20
629.900200
 30
0.0
  0
SPLINE
  5
2be
100
AcDbEntity
  8
Layer_1
 62
1
100
AcDbSpline
 70
8
 71
3
 72
8
 73
4
 74
0
 40
0
 40
0
 40
0
 40
0
 40
1
 40
1
 40
1
 40
1
 10
293.939322
 20
629.900200
 30
0.0
 10
305.331933
 20
617.014325
 30
0.0
 10
318.108191
 20
608.788807
 30
0.0
 10
330.750966
 20
609.066659
 30
0.0
  0
LWPOLYLINE
  5
2bf
100
AcDbEntity
  8
Layer_1
 62
7
100
AcDbPolyline
 90
2
 70
1
 10
-163.575357
 20
120.780497
 30
0.0
 10
-163.575385
 20
120.780128
 30
0.0
  0
SPLINE
  5
2c0
100
AcDbEntity
  8
Layer_1
 62
1
100
AcDbSpline
 70
8
 71
3
 72
8
 73
4
 74
0
 40
0
 40
0
 40
0
 40
0
 40
1
 40
1
 40
1
 40
1
 10
330.584998
 20
616.723519
 30
0.0
 10
321.530516
 20
616.524527
 30
0.0
 10
310.216878
 20
623.041860
 30
0.0
 10
299.669643
 20
634.971552
 30
0.0
  0
SPLINE
  5
2c1
100
AcDbEntity
  8
Layer_1
 62
1
100
AcDbSpline
 70
8
 71
3
 72
8
 73
4
 74
0
 40
0
 40
0
 40
0
 40
0
 40
1
 40
1
 40
1
 40
1
 10
299.669643
 20
634.971552
 30
0.0
 10
289.122408
 20
646.901215
 30
0.0
 10
279.423328
 20
663.937975
 30
0.0
 10
273.028424
 20
683.393029
 30
0.0
  0
LWPOLYLINE
  5
2c2
100
AcDbEntity
  8
Layer_1
 62
1
100
AcDbPolyline
 90
2
 70
1
 10
330.750966
 20
609.066659
 30
0.0
 10
330.751108
 20
609.066659
 30
0.0
  0
SPLINE
  5
2c3
100
AcDbEntity
  8
Layer_1
 62
1
100
AcDbSpline
 70
8
 71
3
 72
8
 73
4
 74
0
 40
0
 40
0
 40
0
 40
0
 40
1
 40
1
 40
1
 40
1
 10
273.034093
 20
683.393029
 30
0.0
 10
266.483086
 20
703.358176
 30
0.0
 10
264.325892
 20
723.392404
 30
0.0
 10
266.827750
 20
738.657567
 30
0.0
  0
SPLINE
  5
2c4
100
AcDbEntity
  8
Layer_1
 62
1
100
AcDbSpline
 70
8
 71
3
 72
8
 73
4
 74
0
 40
0
 40
0
 40
0
 40
0
 40
1
 40
1
 40
1
 40
1
 10
266.827750
 20
738.657567
 30
0.0
 10
267.039778
 20
739.944484
 30
0.0
 10
266.581825
 20
741.250784
 30
0.0
 10
265.612652
 20
742.123604
 30
0.0
  0
SPLINE
  5
2c5
100
AcDbEntity
  8
Layer_1
 62
1
100
AcDbSpline
 70
8
 71
3
 72
8
 73
4
 74
0
 40
0
 40
0
 40
0
 40
0
 40
1
 40
1
 40
1
 40
1
 10
265.612652
 20
742.123604
 30
0.0
 10
264.643480
 20
742.996425
 30
0.0
 10
263.296530
 20
743.315590
 30
0.0
 10
262.038758
 20
742.970453
 30
0.0
  0
SPLINE
  5
2c6
100
AcDbEntity
  8
Layer_1
 62
1
100
AcDbSpline
 70
8
 71
3
 72
8
 73
4
 74
0
 40
0
 40
0
 40
0
 40
0
 40
1
 40
1
 40
1
 40
1
 10
262.038758
 20
742.970453
 30
0.0
 10
256.757671
 20
741.526853
 30
0.0
 10
251.432874
 20
740.750301
 30
0.0
 10
246.121542
 20
740.750301
 30
0.0
  0
SPLINE
  5
2c7
100
AcDbEntity
  8
Layer_1
 62
1
100
AcDbSpline
 70
8
 71
3
 72
8
 73
4
 74
0
 40
0
 40
0
 40
0
 40
0
 40
1
 40
1
 40
1
 40
1
 10
246.121542
 20
740.750301
 30
0.0
 10
240.821435
 20
740.750301
 30
0.0
 10
235.501315
 20
741.522005
 30
0.0
 10
230.232021
 20
742.959341
 30
0.0
  0
SPLINE
  5
2c8
100
AcDbEntity
  8
Layer_1
 62
1
100
AcDbSpline
 70
8
 71
3
 72
8
 73
4
 74
0
 40
0
 40
0
 40
0
 40
0
 40
1
 40
1
 40
1
 40
1
 10
230.232021
 20
742.959341
 30
0.0
 10
228.976107
 20
743.301502
 30
0.0
 10
227.632387
 20
742.981855
 30
0.0
 10
226.665069
 20
742.110828
 30
0.0
  0
SPLINE
  5
2c9
100
AcDbEntity
  8
Layer_1
 62
1
100
AcDbSpline
 70
8
 71
3
 72
8
 73
4
 74
0
 40
0
 40
0
 40
0
 40
0
 40
1
 40
1
 40
1
 40
1
 10
226.665069
 20
742.110828
 30
0.0
 10
225.697751
 20
741.239800
 30
0.0
 10
225.239474
 20
739.936827
 30
0.0
 10
225.448556
 20
738.652040
 30
0.0
  0
SPLINE
  5
2ca
100
AcDbEntity
  8
Layer_1
 62
1
100
AcDbSpline
 70
8
 71
3
 72
8
 73
4
 74
0
 40
0
 40
0
 40
0
 40
0
 40
1
 40
1
 40
1
 40
1
 10
225.448556
 20
738.652040
 30
0.0
 10
227.847290
 20
723.905503
 30
0.0
 10
226.041054
 20
704.177956
 30
0.0
 10
219.209019
 20
683.393029
 30
0.0
  0
SPLINE
  5
2cb
100
AcDbEntity
  8
Layer_1
 62
1
100
AcDbSpline
 70
8
 71
3
 72
8
 73
4
 74
0
 40
0
 40
0
 40
0
 40
0
 40
1
 40
1
 40
1
 40
1
 10
219.209019
 20
683.393029
 30
0.0
 10
216.392685
 20
674.824943
 30
0.0
 10
214.406506
 20
668.751119
 30
0.0
 10
208.252462
 20
657.333137
 30
0.0
  0
SPLINE
  5
2cc
100
AcDbEntity
  8
Layer_1
 62
1
100
AcDbSpline
 70
8
 71
3
 72
8
 73
4
 74
0
 40
0
 40
0
 40
0
 40
0
 40
1
 40
1
 40
1
 40
1
 10
208.252462
 20
657.333137
 30
0.0
 10
203.845835
 20
652.819162
 30
0.0
 10
193.242446
 20
646.999663
 30
0.0
 10
180.675554
 20
642.113527
 30
0.0
  0
SPLINE
  5
2cd
100
AcDbEntity
  8
Layer_1
 62
1
100
AcDbSpline
 70
8
 71
3
 72
8
 73
4
 74
0
 40
0
 40
0
 40
0
 40
0
 40
1
 40
1
 40
1
 40
1
 10
180.675554
 20
642.113527
 30
0.0
 10
168.824950
 20
637.505895
 30
0.0
 10
155.363047
 20
633.635696
 30
0.0
 10
143.354581
 20
631.068358
 30
0.0
  0
SPLINE
  5
2ce
100
AcDbEntity
  8
Layer_1
 62
1
100
AcDbSpline
 70
8
 71
3
 72
8
 73
4
 74
0
 40
0
 40
0
 40
0
 40
0
 40
1
 40
1
 40
1
 40
1
 10
143.354581
 20
631.068358
 30
0.0
 10
136.969088
 20
642.125092
 30
0.0
 10
132.696313
 20
653.063225
 30
0.0
 10
131.346058
 20
662.321462
 30
0.0
  0
SPLINE
  5
2cf
100
AcDbEntity
  8
Layer_1
 62
1
100
AcDbSpline
 70
8
 71
3
 72
8
 73
4
 74
0
 40
0
 40
0
 40
0
 40
0
 40
1
 40
1
 40
1
 40
1
 10
131.346058
 20
662.321462
 30
0.0
 10
129.894635
 20
672.273535
 30
0.0
 10
131.538531
 20
680.020509
 30
0.0
 10
135.780748
 20
684.649797
 30
0.0
  0
SPLINE
  5
2d0
100
AcDbEntity
  8
Layer_1
 62
1
100
AcDbSpline
 70
8
 71
3
 72
8
 73
4
 74
0
 40
0
 40
0
 40
0
 40
0
 40
1
 40
1
 40
1
 40
1
 10
135.780748
 20
684.649797
 30
0.0
 10
137.515891
 20
686.543312
 30
0.0
 10
139.589888
 20
687.861848
 30
0.0
 10
142.086729
 20
688.719101
 30
0.0
  0
SPLINE
  5
2d1
100
AcDbEntity
  8
Layer_1
 62
1
100
AcDbSpline
 70
8
 71
3
 72
8
 73
4
 74
0
 40
0
 40
0
 40
0
 40
0
 40
1
 40
1
 40
1
 40
1
 10
142.086729
 20
688.719101
 30
0.0
 10
143.278521
 20
689.129715
 30
0.0
 10
144.191691
 20
690.100858
 30
0.0
 10
144.528266
 20
691.315637
 30
0.0
  0
SPLINE
  5
2d2
100
AcDbEntity
  8
Layer_1
 62
1
100
AcDbSpline
 70
8
 71
3
 72
8
 73
4
 74
0
 40
0
 40
0
 40
0
 40
0
 40
1
 40
1
 40
1
 40
1
 10
144.528266
 20
691.315637
 30
0.0
 10
145.184543
 20
693.675678
 30
0.0
 10
145.897939
 20
696.050318
 30
0.0
 10
146.681973
 20
698.435502
 30
0.0
  0
SPLINE
  5
2d3
100
AcDbEntity
  8
Layer_1
 62
1
100
AcDbSpline
 70
8
 71
3
 72
8
 73
4
 74
0
 40
0
 40
0
 40
0
 40
0
 40
1
 40
1
 40
1
 40
1
 10
146.681973
 20
698.435502
 30
0.0
 10
156.461671
 20
728.188086
 30
0.0
 10
174.023690
 20
751.898141
 30
0.0
 10
189.943514
 20
760.925014
 30
0.0
  0
SPLINE
  5
2d4
100
AcDbEntity
  8
Layer_1
 62
1
100
AcDbSpline
 70
8
 71
3
 72
8
 73
4
 74
0
 40
0
 40
0
 40
0
 40
0
 40
1
 40
1
 40
1
 40
1
 10
189.943514
 20
760.925014
 30
0.0
 10
190.987794
 20
761.517053
 30
0.0
 10
191.693787
 20
762.564764
 30
0.0
 10
191.850433
 20
763.754929
 30
0.0
  0
SPLINE
  5
2d5
100
AcDbEntity
  8
Layer_1
 62
1
100
AcDbSpline
 70
8
 71
3
 72
8
 73
4
 74
0
 40
0
 40
0
 40
0
 40
0
 40
1
 40
1
 40
1
 40
1
 10
191.850433
 20
763.754929
 30
0.0
 10
192.007079
 20
764.945095
 30
0.0
 10
191.596226
 20
766.139802
 30
0.0
 10
190.740701
 20
766.981887
 30
0.0
  0
SPLINE
  5
2d6
100
AcDbEntity
  8
Layer_1
 62
1
100
AcDbSpline
 70
8
 71
3
 72
8
 73
4
 74
0
 40
0
 40
0
 40
0
 40
0
 40
1
 40
1
 40
1
 40
1
 10
190.740701
 20
766.981887
 30
0.0
 10
170.684817
 20
786.708925
 30
0.0
 10
156.946395
 20
814.592174
 30
0.0
 10
156.946395
 20
838.418279
 30
0.0
  0
SPLINE
  5
2d7
100
AcDbEntity
  8
Layer_1
 62
1
100
AcDbSpline
 70
8
 71
3
 72
8
 73
4
 74
0
 40
0
 40
0
 40
0
 40
0
 40
1
 40
1
 40
1
 40
1
 10
156.946395
 20
838.418279
 30
0.0
 10
156.946395
 20
859.849846
 30
0.0
 10
167.416584
 20
874.104372
 30
0.0
 10
183.936446
 20
883.695085
 30
0.0
  0
SPLINE
  5
2d8
100
AcDbEntity
  8
Layer_1
 62
1
100
AcDbSpline
 70
8
 71
3
 72
8
 73
4
 74
0
 40
0
 40
0
 40
0
 40
0
 40
1
 40
1
 40
1
 40
1
 10
183.936446
 20
883.695085
 30
0.0
 10
200.456279
 20
893.285797
 30
0.0
 10
223.128002
 20
897.680093
 30
0.0
 10
246.121485
 20
897.680093
 30
0.0
  0
SPLINE
  5
2d9
100
AcDbEntity
  8
Layer_1
 62
1
100
AcDbSpline
 70
8
 71
3
 72
8
 73
4
 74
0
 40
0
 40
0
 40
0
 40
0
 40
1
 40
1
 40
1
 40
1
 10
246.121485
 20
897.680093
 30
0.0
 10
269.114941
 20
897.680093
 30
0.0
 10
291.787060
 20
893.285797
 30
0.0
 10
308.306525
 20
883.695085
 30
0.0
  0
SPLINE
  5
2da
100
AcDbEntity
  8
Layer_1
 62
1
100
AcDbSpline
 70
8
 71
3
 72
8
 73
4
 74
0
 40
0
 40
0
 40
0
 40
0
 40
1
 40
1
 40
1
 40
1
 10
308.306525
 20
883.695085
 30
0.0
 10
324.825961
 20
874.104372
 30
0.0
 10
335.296547
 20
859.849902
 30
0.0
 10
335.296547
 20
838.418279
 30
0.0
  0
SPLINE
  5
2db
100
AcDbEntity
  8
Layer_1
 62
1
100
AcDbSpline
 70
8
 71
3
 72
8
 73
4
 74
0
 40
0
 40
0
 40
0
 40
0
 40
1
 40
1
 40
1
 40
1
 10
335.296547
 20
838.418279
 30
0.0
 10
335.296547
 20
814.570205
 30
0.0
 10
321.532131
 20
786.656710
 30
0.0
 10
301.446909
 20
766.926527
 30
0.0
  0
SPLINE
  5
2dc
100
AcDbEntity
  8
Layer_1
 62
1
100
AcDbSpline
 70
8
 71
3
 72
8
 73
4
 74
0
 40
0
 40
0
 40
0
 40
0
 40
1
 40
1
 40
1
 40
1
 10
301.446909
 20
766.926527
 30
0.0
 10
300.589618
 20
766.083648
 30
0.0
 10
300.178221
 20
764.886917
 30
0.0
 10
300.336042
 20
763.695077
 30
0.0
  0
SPLINE
  5
2dd
100
AcDbEntity
  8
Layer_1
 62
1
100
AcDbSpline
 70
8
 71
3
 72
8
 73
4
 74
0
 40
0
 40
0
 40
0
 40
0
 40
1
 40
1
 40
1
 40
1
 10
300.336042
 20
763.695077
 30
0.0
 10
300.493863
 20
762.503236
 30
0.0
 10
301.202558
 20
761.454825
 30
0.0
 10
302.249681
 20
760.864126
 30
0.0
  0
SPLINE
  5
2de
100
AcDbEntity
  8
Layer_1
 62
1
100
AcDbSpline
 70
8
 71
3
 72
8
 73
4
 74
0
 40
0
 40
0
 40
0
 40
0
 40
1
 40
1
 40
1
 40
1
 10
302.249681
 20
760.864126
 30
0.0
 10
318.706131
 20
751.599540
 30
0.0
 10
336.070122
 20
727.223485
 30
0.0
 10
345.555612
 20
698.435502
 30
0.0
  0
LWPOLYLINE
  5
2df
100
AcDbEntity
  8
Layer_1
 62
1
100
AcDbPolyline
 90
2
 70
1
 10
273.028424
 20
683.393029
 30
0.0
 10
273.034093
 20
683.393029
 30
0.0
  0
SPLINE
  5
2e0
100
AcDbEntity
  8
Layer_1
 62
1
100
AcDbSpline
 70
8
 71
3
 72
8
 73
4
 74
0
 40
0
 40
0
 40
0
 40
0
 40
1
 40
1
 40
1
 40
1
 10
345.555612
 20
698.429833
 30
0.0
 10
352.431357
 20
677.509381
 30
0.0
 10
354.219706
 20
657.657733
 30
0.0
 10
351.750872
 20
642.882935
 30
0.0
  0
SPLINE
  5
2e1
100
AcDbEntity
  8
Layer_1
 62
1
100
AcDbSpline
 70
8
 71
3
 72
8
 73
4
 74
0
 40
0
 40
0
 40
0
 40
0
 40
1
 40
1
 40
1
 40
1
 10
351.750872
 20
642.882935
 30
0.0
 10
350.516355
 20
635.494941
 30
0.0
 10
348.220632
 20
629.404817
 30
0.0
 10
345.173615
 20
625.061205
 30
0.0
  0
SPLINE
  5
2e2
100
AcDbEntity
  8
Layer_1
 62
1
100
AcDbSpline
 70
8
 71
3
 72
8
 73
4
 74
0
 40
0
 40
0
 40
0
 40
0
 40
1
 40
1
 40
1
 40
1
 10
345.173615
 20
625.061205
 30
0.0
 10
342.126598
 20
620.717620
 30
0.0
 10
338.467042
 20
618.100335
 30
0.0
 10
333.962365
 20
617.116458
 30
0.0
  0
SPLINE
  5
2e3
100
AcDbEntity
  8
Layer_1
 62
1
100
AcDbSpline
 70
8
 71
3
 72
8
 73
4
 74
0
 40
0
 40
0
 40
0
 40
0
 40
1
 40
1
 40
1
 40
1
 10
333.962365
 20
617.116458
 30
0.0
 10
332.879842
 20
616.880048
 30
0.0
 10
331.756783
 20
616.749201
 30
0.0
 10
330.585139
 20
616.723377
 30
0.0
  0
LWPOLYLINE
  5
2e4
100
AcDbEntity
  8
Layer_1
 62
1
100
AcDbPolyline
 90
2
 70
1
 10
345.555612
 20
698.435502
 30
0.0
 10
345.555612
 20
698.429833
 30
0.0
  0
SPLINE
  5
2e5
100
AcDbEntity
  8
Layer_1
 62
1
100
AcDbSpline
 70
8
 71
3
 72
8
 73
4
 74
0
 40
0
 40
0
 40
0
 40
0
 40
1
 40
1
 40
1
 40
1
 10
331.066661
 20
594.898957
 30
0.0
 10
333.589609
 20
594.954516
 30
0.0
 10
336.127835
 20
595.245011
 30
0.0
 10
338.623883
 20
595.790312
 30
0.0
  0
SPLINE
  5
2e6
100
AcDbEntity
  8
Layer_1
 62
1
100
AcDbSpline
 70
8
 71
3
 72
8
 73
4
 74
0
 40
0
 40
0
 40
0
 40
0
 40
1
 40
1
 40
1
 40
1
 10
338.623883
 20
595.790312
 30
0.0
 10
348.853977
 20
598.026280
 30
0.0
 10
357.507952
 20
604.633670
 30
0.0
 10
363.045035
 20
612.526911
 30
0.0
  0
SPLINE
  5
2e7
100
AcDbEntity
  8
Layer_1
 62
1
100
AcDbSpline
 70
8
 71
3
 72
8
 73
4
 74
0
 40
0
 40
0
 40
0
 40
0
 40
1
 40
1
 40
1
 40
1
 10
363.045035
 20
612.526911
 30
0.0
 10
368.583054
 20
620.421485
 30
0.0
 10
371.650623
 20
629.522370
 30
0.0
 10
373.281848
 20
639.284409
 30
0.0
  0
SPLINE
  5
2e8
100
AcDbEntity
  8
Layer_1
 62
1
100
AcDbSpline
 70
8
 71
3
 72
8
 73
4
 74
0
 40
0
 40
0
 40
0
 40
0
 40
1
 40
1
 40
1
 40
1
 10
373.281848
 20
639.284409
 30
0.0
 10
376.544299
 20
658.808485
 30
0.0
 10
374.083231
 20
681.539595
 30
0.0
 10
366.289373
 20
705.250813
 30
0.0
  0
SPLINE
  5
2e9
100
AcDbEntity
  8
Layer_1
 62
1
100
AcDbSpline
 70
8
 71
3
 72
8
 73
4
 74
0
 40
0
 40
0
 40
0
 40
0
 40
1
 40
1
 40
1
 40
1
 10
366.289373
 20
705.250813
 30
0.0
 10
366.289374
 20
705.254592
 30
0.0
 10
366.289374
 20
705.258372
 30
0.0
 10
366.289373
 20
705.262151
 30
0.0
  0
SPLINE
  5
2ea
100
AcDbEntity
  8
Layer_1
 62
1
100
AcDbSpline
 70
8
 71
3
 72
8
 73
4
 74
0
 40
0
 40
0
 40
0
 40
0
 40
1
 40
1
 40
1
 40
1
 10
366.289373
 20
705.262151
 30
0.0
 10
358.215054
 20
729.769989
 30
0.0
 10
346.115908
 20
751.674119
 30
0.0
 10
330.186390
 20
766.948920
 30
0.0
  0
SPLINE
  5
2eb
100
AcDbEntity
  8
Layer_1
 62
1
100
AcDbSpline
 70
8
 71
3
 72
8
 73
4
 74
0
 40
0
 40
0
 40
0
 40
0
 40
1
 40
1
 40
1
 40
1
 10
330.186390
 20
766.948920
 30
0.0
 10
346.418393
 20
787.950981
 30
0.0
 10
357.121051
 20
812.955562
 30
0.0
 10
357.121051
 20
838.418534
 30
0.0
  0
SPLINE
  5
2ec
100
AcDbEntity
  8
Layer_1
 62
1
100
AcDbSpline
 70
8
 71
3
 72
8
 73
4
 74
0
 40
0
 40
0
 40
0
 40
0
 40
1
 40
1
 40
1
 40
1
 10
357.121051
 20
838.418534
 30
0.0
 10
357.121051
 20
867.222986
 30
0.0
 10
340.703265
 20
890.126981
 30
0.0
 10
319.263026
 20
902.574535
 30
0.0
  0
SPLINE
  5
2ed
100
AcDbEntity
  8
Layer_1
 62
1
100
AcDbSpline
 70
8
 71
3
 72
8
 73
4
 74
0
 40
0
 40
0
 40
0
 40
0
 40
1
 40
1
 40
1
 40
1
 10
319.263026
 20
902.574535
 30
0.0
 10
297.822815
 20
915.022117
 30
0.0
 10
271.849041
 20
919.510438
 30
0.0
 10
246.121400
 20
919.510438
 30
0.0
  0
SPLINE
  5
2ee
100
AcDbEntity
  8
Layer_1
 62
1
100
AcDbSpline
 70
8
 71
3
 72
8
 73
4
 74
0
 40
0
 40
0
 40
0
 40
0
 40
1
 40
1
 40
1
 40
1
 10
246.121400
 20
919.510438
 30
0.0
 10
220.393759
 20
919.510438
 30
0.0
 10
194.414799
 20
915.022060
 30
0.0
 10
172.974247
 20
902.574535
 30
0.0
  0
SPLINE
  5
2ef
100
AcDbEntity
  8
Layer_1
 62
1
100
AcDbSpline
 70
8
 71
3
 72
8
 73
4
 74
0
 40
0
 40
0
 40
0
 40
0
 40
1
 40
1
 40
1
 40
1
 10
172.974247
 20
902.574535
 30
0.0
 10
151.533696
 20
890.127066
 30
0.0
 10
135.116222
 20
867.223213
 30
0.0
 10
135.116222
 20
838.418534
 30
0.0
  0
SPLINE
  5
2f0
100
AcDbEntity
  8
Layer_1
 62
1
100
AcDbSpline
 70
8
 71
3
 72
8
 73
4
 74
0
 40
0
 40
0
 40
0
 40
0
 40
1
 40
1
 40
1
 40
1
 10
135.116222
 20
838.418534
 30
0.0
 10
135.116222
 20
812.949071
 30
0.0
 10
145.829255
 20
787.942477
 30
0.0
 10
162.067495
 20
766.937837
 30
0.0
  0
SPLINE
  5
2f1
100
AcDbEntity
  8
Layer_1
 62
1
100
AcDbSpline
 70
8
 71
3
 72
8
 73
4
 74
0
 40
0
 40
0
 40
0
 40
0
 40
1
 40
1
 40
1
 40
1
 10
162.067495
 20
766.937837
 30
0.0
 10
146.490238
 20
751.951348
 30
0.0
 10
134.205167
 20
730.371954
 30
0.0
 10
125.947957
 20
705.251096
 30
0.0
  0
SPLINE
  5
2f2
100
AcDbEntity
  8
Layer_1
 62
1
100
AcDbSpline
 70
8
 71
3
 72
8
 73
4
 74
0
 40
0
 40
0
 40
0
 40
0
 40
1
 40
1
 40
1
 40
1
 10
125.947957
 20
705.251096
 30
0.0
 10
125.859516
 20
704.981805
 30
0.0
 10
125.791202
 20
704.722491
 30
0.0
 10
125.704461
 20
704.453852
 30
0.0
  0
SPLINE
  5
2f3
100
AcDbEntity
  8
Layer_1
 62
1
100
AcDbSpline
 70
8
 71
3
 72
8
 73
4
 74
0
 40
0
 40
0
 40
0
 40
0
 40
1
 40
1
 40
1
 40
1
 10
125.704461
 20
704.453852
 30
0.0
 10
123.565239
 20
702.954693
 30
0.0
 10
121.476559
 20
701.347137
 30
0.0
 10
119.686367
 20
699.393556
 30
0.0
  0
SPLINE
  5
2f4
100
AcDbEntity
  8
Layer_1
 62
1
100
AcDbSpline
 70
8
 71
3
 72
8
 73
4
 74
0
 40
0
 40
0
 40
0
 40
0
 40
1
 40
1
 40
1
 40
1
 10
119.686367
 20
699.393556
 30
0.0
 10
109.334127
 20
688.096727
 30
0.0
 10
107.719967
 20
673.042489
 30
0.0
 10
109.742968
 20
659.171490
 30
0.0
  0
SPLINE
  5
2f5
100
AcDbEntity
  8
Layer_1
 62
1
100
AcDbSpline
 70
8
 71
3
 72
8
 73
4
 74
0
 40
0
 40
0
 40
0
 40
0
 40
1
 40
1
 40
1
 40
1
 10
109.742968
 20
659.171490
 30
0.0
 10
111.765942
 20
645.300491
 30
0.0
 10
117.466669
 20
631.175309
 30
0.0
 10
125.931431
 20
617.266354
 30
0.0
  0
SPLINE
  5
2f6
100
AcDbEntity
  8
Layer_1
 62
1
100
AcDbSpline
 70
8
 71
3
 72
8
 73
4
 74
0
 40
0
 40
0
 40
0
 40
0
 40
1
 40
1
 40
1
 40
1
 10
125.931431
 20
617.266354
 30
0.0
 10
129.864004
 20
610.805634
 30
0.0
 10
137.415680
 20
607.492106
 30
0.0
 10
144.832792
 20
608.972804
 30
0.0
  0
SPLINE
  5
2f7
100
AcDbEntity
  8
Layer_1
 62
1
100
AcDbSpline
 70
8
 71
3
 72
8
 73
4
 74
0
 40
0
 40
0
 40
0
 40
0
 40
1
 40
1
 40
1
 40
1
 10
144.832792
 20
608.972804
 30
0.0
 10
158.889432
 20
611.778593
 30
0.0
 10
174.499712
 20
616.295714
 30
0.0
 10
188.587079
 20
621.773015
 30
0.0
  0
SPLINE
  5
2f8
100
AcDbEntity
  8
Layer_1
 62
1
100
AcDbSpline
 70
8
 71
3
 72
8
 73
4
 74
0
 40
0
 40
0
 40
0
 40
0
 40
1
 40
1
 40
1
 40
1
 10
188.587079
 20
621.773015
 30
0.0
 10
202.674418
 20
627.250317
 30
0.0
 10
214.776966
 20
632.356421
 30
0.0
 10
224.407703
 20
642.545640
 30
0.0
  0
SPLINE
  5
2f9
100
AcDbEntity
  8
Layer_1
 62
1
100
AcDbSpline
 70
8
 71
3
 72
8
 73
4
 74
0
 40
0
 40
0
 40
0
 40
0
 40
1
 40
1
 40
1
 40
1
 10
224.407703
 20
642.545640
 30
0.0
 10
225.476447
 20
643.677287
 30
0.0
 10
226.393908
 20
644.942769
 30
0.0
 10
227.137126
 20
646.310419
 30
0.0
  0
SPLINE
  5
2fa
100
AcDbEntity
  8
Layer_1
 62
1
100
AcDbSpline
 70
8
 71
3
 72
8
 73
4
 74
0
 40
0
 40
0
 40
0
 40
0
 40
1
 40
1
 40
1
 40
1
 10
227.137126
 20
646.310419
 30
0.0
 10
234.246729
 20
659.384457
 30
0.0
 10
237.093366
 20
667.908946
 30
0.0
 10
239.942893
 20
676.577973
 30
0.0
  0
SPLINE
  5
2fb
100
AcDbEntity
  8
Layer_1
 62
1
100
AcDbSpline
 70
8
 71
3
 72
8
 73
4
 74
0
 40
0
 40
0
 40
0
 40
0
 40
1
 40
1
 40
1
 40
1
 10
239.942893
 20
676.577973
 30
0.0
 10
242.822270
 20
685.337822
 30
0.0
 10
244.725224
 20
693.881984
 30
0.0
 10
246.127070
 20
702.261452
 30
0.0
  0
SPLINE
  5
2fc
100
AcDbEntity
  8
Layer_1
 62
1
100
AcDbSpline
 70
8
 71
3
 72
8
 73
4
 74
0
 40
0
 40
0
 40
0
 40
0
 40
1
 40
1
 40
1
 40
1
 10
246.127070
 20
702.261452
 30
0.0
 10
247.546320
 20
693.775854
 30
0.0
 10
249.469542
 20
685.198925
 30
0.0
 10
252.294607
 20
676.589085
 30
0.0
  0
SPLINE
  5
2fd
100
AcDbEntity
  8
Layer_1
 62
1
100
AcDbSpline
 70
8
 71
3
 72
8
 73
4
 74
0
 40
0
 40
0
 40
0
 40
0
 40
1
 40
1
 40
1
 40
1
 10
252.294607
 20
676.589085
 30
0.0
 10
252.294606
 20
676.585305
 30
0.0
 10
252.294606
 20
676.581526
 30
0.0
 10
252.294607
 20
676.577746
 30
0.0
  0
SPLINE
  5
2fe
100
AcDbEntity
  8
Layer_1
 62
1
100
AcDbSpline
 70
8
 71
3
 72
8
 73
4
 74
0
 40
0
 40
0
 40
0
 40
0
 40
1
 40
1
 40
1
 40
1
 10
252.294607
 20
676.577746
 30
0.0
 10
259.546254
 20
654.516463
 30
0.0
 10
270.362610
 20
635.167029
 30
0.0
 10
283.320711
 20
620.510464
 30
0.0
  0
SPLINE
  5
2ff
100
AcDbEntity
  8
Layer_1
 62
1
100
AcDbSpline
 70
8
 71
3
 72
8
 73
4
 74
0
 40
0
 40
0
 40
0
 40
0
 40
1
 40
1
 40
1
 40
1
 10
283.320711
 20
620.510464
 30
0.0
 10
296.278840
 20
605.853871
 30
0.0
 10
311.779108
 20
594.475121
 30
0.0
 10
331.066774
 20
594.898985
 30
0.0
  0
LWPOLYLINE
  5
300
100
AcDbEntity
  8
Layer_1
 62
1
100
AcDbPolyline
 90
2
 70
1
 10
330.585139
 20
616.723377
 30
0.0
 10
330.584998
 20
616.723519
 30
0.0
  0
SPLINE
  5
301
100
AcDbEntity
  8
Layer_1
 62
1
100
AcDbSpline
 70
8
 71
3
 72
8
 73
4
 74
0
 40
0
 40
0
 40
0
 40
0
 40
1
 40
1
 40
1
 40
1
 10
379.873987
 20
919.505985
 30
0.0
 10
388.928469
 20
919.704977
 30
0.0
 10
400.242106
 20
913.187644
 30
0.0
 10
410.789341
 20
901.257952
 30
0.0
  0
SPLINE
  5
302
100
AcDbEntity
  8
Layer_1
 62
1
100
AcDbSpline
 70
8
 71
3
 72
8
 73
4
 74
0
 40
0
 40
0
 40
0
 40
0
 40
1
 40
1
 40
1
 40
1
 10
410.789341
 20
901.257952
 30
0.0
 10
421.336548
 20
889.328289
 30
0.0
 10
431.035628
 20
872.291528
 30
0.0
 10
437.430560
 20
852.836447
 30
0.0
  0
LWPOLYLINE
  5
303
100
AcDbEntity
  8
Layer_1
 62
1
100
AcDbPolyline
 90
2
 70
1
 10
331.066774
 20
594.898985
 30
0.0
 10
331.066661
 20
594.898957
 30
0.0
  0
SPLINE
  5
304
100
AcDbEntity
  8
Layer_1
 62
1
100
AcDbSpline
 70
8
 71
3
 72
8
 73
4
 74
0
 40
0
 40
0
 40
0
 40
0
 40
1
 40
1
 40
1
 40
1
 10
437.424891
 20
852.836447
 30
0.0
 10
443.975899
 20
832.871328
 30
0.0
 10
446.133064
 20
812.837100
 30
0.0
 10
443.631206
 20
797.571937
 30
0.0
  0
SPLINE
  5
305
100
AcDbEntity
  8
Layer_1
 62
1
100
AcDbSpline
 70
8
 71
3
 72
8
 73
4
 74
0
 40
0
 40
0
 40
0
 40
0
 40
1
 40
1
 40
1
 40
1
 10
443.631206
 20
797.571937
 30
0.0
 10
443.419174
 20
796.285013
 30
0.0
 10
443.877131
 20
794.978706
 30
0.0
 10
444.846311
 20
794.105884
 30
0.0
  0
SPLINE
  5
306
100
AcDbEntity
  8
Layer_1
 62
1
100
AcDbSpline
 70
8
 71
3
 72
8
 73
4
 74
0
 40
0
 40
0
 40
0
 40
0
 40
1
 40
1
 40
1
 40
1
 10
444.846311
 20
794.105884
 30
0.0
 10
445.815491
 20
793.233062
 30
0.0
 10
447.162450
 20
792.913902
 30
0.0
 10
448.420226
 20
793.259051
 30
0.0
  0
SPLINE
  5
307
100
AcDbEntity
  8
Layer_1
 62
1
100
AcDbSpline
 70
8
 71
3
 72
8
 73
4
 74
0
 40
0
 40
0
 40
0
 40
0
 40
1
 40
1
 40
1
 40
1
 10
448.420226
 20
793.259051
 30
0.0
 10
453.701285
 20
794.702651
 30
0.0
 10
459.026082
 20
795.479174
 30
0.0
 10
464.337414
 20
795.479174
 30
0.0
  0
SPLINE
  5
308
100
AcDbEntity
  8
Layer_1
 62
1
100
AcDbSpline
 70
8
 71
3
 72
8
 73
4
 74
0
 40
0
 40
0
 40
0
 40
0
 40
1
 40
1
 40
1
 40
1
 10
464.337414
 20
795.479174
 30
0.0
 10
469.637521
 20
795.479174
 30
0.0
 10
474.957641
 20
794.707470
 30
0.0
 10
480.226935
 20
793.270135
 30
0.0
  0
SPLINE
  5
309
100
AcDbEntity
  8
Layer_1
 62
1
100
AcDbSpline
 70
8
 71
3
 72
8
 73
4
 74
0
 40
0
 40
0
 40
0
 40
0
 40
1
 40
1
 40
1
 40
1
 10
480.226935
 20
793.270135
 30
0.0
 10
481.482854
 20
792.927970
 30
0.0
 10
482.826581
 20
793.247620
 30
0.0
 10
483.793901
 20
794.118655
 30
0.0
  0
SPLINE
  5
30a
100
AcDbEntity
  8
Layer_1
 62
1
100
AcDbSpline
 70
8
 71
3
 72
8
 73
4
 74
0
 40
0
 40
0
 40
0
 40
0
 40
1
 40
1
 40
1
 40
1
 10
483.793901
 20
794.118655
 30
0.0
 10
484.761221
 20
794.989690
 30
0.0
 10
485.219493
 20
796.292672
 30
0.0
 10
485.010400
 20
797.577464
 30
0.0
  0
SPLINE
  5
30b
100
AcDbEntity
  8
Layer_1
 62
1
100
AcDbSpline
 70
8
 71
3
 72
8
 73
4
 74
0
 40
0
 40
0
 40
0
 40
0
 40
1
 40
1
 40
1
 40
1
 10
485.010400
 20
797.577464
 30
0.0
 10
482.611666
 20
812.324000
 30
0.0
 10
484.417902
 20
832.051548
 30
0.0
 10
491.249937
 20
852.836447
 30
0.0
  0
SPLINE
  5
30c
100
AcDbEntity
  8
Layer_1
 62
1
100
AcDbSpline
 70
8
 71
3
 72
8
 73
4
 74
0
 40
0
 40
0
 40
0
 40
0
 40
1
 40
1
 40
1
 40
1
 10
491.249937
 20
852.836447
 30
0.0
 10
494.066299
 20
861.404561
 30
0.0
 10
496.052450
 20
867.478385
 30
0.0
 10
502.206523
 20
878.896367
 30
0.0
  0
SPLINE
  5
30d
100
AcDbEntity
  8
Layer_1
 62
1
100
AcDbSpline
 70
8
 71
3
 72
8
 73
4
 74
0
 40
0
 40
0
 40
0
 40
0
 40
1
 40
1
 40
1
 40
1
 10
502.206523
 20
878.896367
 30
0.0
 10
506.613121
 20
883.410342
 30
0.0
 10
517.216510
 20
889.229841
 30
0.0
 10
529.783401
 20
894.115977
 30
0.0
  0
SPLINE
  5
30e
100
AcDbEntity
  8
Layer_1
 62
1
100
AcDbSpline
 70
8
 71
3
 72
8
 73
4
 74
0
 40
0
 40
0
 40
0
 40
0
 40
1
 40
1
 40
1
 40
1
 10
529.783401
 20
894.115977
 30
0.0
 10
541.634006
 20
898.723609
 30
0.0
 10
555.095909
 20
902.593807
 30
0.0
 10
567.104403
 20
905.161146
 30
0.0
  0
SPLINE
  5
30f
100
AcDbEntity
  8
Layer_1
 62
1
100
AcDbSpline
 70
8
 71
3
 72
8
 73
4
 74
0
 40
0
 40
0
 40
0
 40
0
 40
1
 40
1
 40
1
 40
1
 10
567.104403
 20
905.161146
 30
0.0
 10
573.489868
 20
894.104412
 30
0.0
 10
577.762643
 20
883.166279
 30
0.0
 10
579.112898
 20
873.908042
 30
0.0
  0
SPLINE
  5
310
100
AcDbEntity
  8
Layer_1
 62
1
100
AcDbSpline
 70
8
 71
3
 72
8
 73
4
 74
0
 40
0
 40
0
 40
0
 40
0
 40
1
 40
1
 40
1
 40
1
 10
579.112898
 20
873.908042
 30
0.0
 10
580.564321
 20
863.955969
 30
0.0
 10
578.920425
 20
856.208995
 30
0.0
 10
574.678208
 20
851.579678
 30
0.0
  0
SPLINE
  5
311
100
AcDbEntity
  8
Layer_1
 62
1
100
AcDbSpline
 70
8
 71
3
 72
8
 73
4
 74
0
 40
0
 40
0
 40
0
 40
0
 40
1
 40
1
 40
1
 40
1
 10
574.678208
 20
851.579678
 30
0.0
 10
572.943065
 20
849.686192
 30
0.0
 10
570.869068
 20
848.367656
 30
0.0
 10
568.372227
 20
847.510403
 30
0.0
  0
SPLINE
  5
312
100
AcDbEntity
  8
Layer_1
 62
1
100
AcDbSpline
 70
8
 71
3
 72
8
 73
4
 74
0
 40
0
 40
0
 40
0
 40
0
 40
1
 40
1
 40
1
 40
1
 10
568.372227
 20
847.510403
 30
0.0
 10
567.180428
 20
847.099783
 30
0.0
 10
566.267256
 20
846.128629
 30
0.0
 10
565.930690
 20
844.913839
 30
0.0
  0
SPLINE
  5
313
100
AcDbEntity
  8
Layer_1
 62
1
100
AcDbSpline
 70
8
 71
3
 72
8
 73
4
 74
0
 40
0
 40
0
 40
0
 40
0
 40
1
 40
1
 40
1
 40
1
 10
565.930690
 20
844.913839
 30
0.0
 10
565.274413
 20
842.553798
 30
0.0
 10
564.561017
 20
840.179158
 30
0.0
 10
563.777011
 20
837.794002
 30
0.0
  0
SPLINE
  5
314
100
AcDbEntity
  8
Layer_1
 62
1
100
AcDbSpline
 70
8
 71
3
 72
8
 73
4
 74
0
 40
0
 40
0
 40
0
 40
0
 40
1
 40
1
 40
1
 40
1
 10
563.777011
 20
837.794002
 30
0.0
 10
553.997285
 20
808.041389
 30
0.0
 10
536.435266
 20
784.331363
 30
0.0
 10
520.515442
 20
775.304461
 30
0.0
  0
SPLINE
  5
315
100
AcDbEntity
  8
Layer_1
 62
1
100
AcDbSpline
 70
8
 71
3
 72
8
 73
4
 74
0
 40
0
 40
0
 40
0
 40
0
 40
1
 40
1
 40
1
 40
1
 10
520.515442
 20
775.304461
 30
0.0
 10
519.471164
 20
774.712431
 30
0.0
 10
518.765167
 20
773.664731
 30
0.0
 10
518.608510
 20
772.474573
 30
0.0
  0
SPLINE
  5
316
100
AcDbEntity
  8
Layer_1
 62
1
100
AcDbSpline
 70
8
 71
3
 72
8
 73
4
 74
0
 40
0
 40
0
 40
0
 40
0
 40
1
 40
1
 40
1
 40
1
 10
518.608510
 20
772.474573
 30
0.0
 10
518.451853
 20
771.284416
 30
0.0
 10
518.862689
 20
770.089710
 30
0.0
 10
519.718198
 20
769.247617
 30
0.0
  0
SPLINE
  5
317
100
AcDbEntity
  8
Layer_1
 62
1
100
AcDbSpline
 70
8
 71
3
 72
8
 73
4
 74
0
 40
0
 40
0
 40
0
 40
0
 40
1
 40
1
 40
1
 40
1
 10
519.718198
 20
769.247617
 30
0.0
 10
539.774082
 20
749.520551
 30
0.0
 10
553.512504
 20
721.637333
 30
0.0
 10
553.512504
 20
697.811228
 30
0.0
  0
SPLINE
  5
318
100
AcDbEntity
  8
Layer_1
 62
1
100
AcDbSpline
 70
8
 71
3
 72
8
 73
4
 74
0
 40
0
 40
0
 40
0
 40
0
 40
1
 40
1
 40
1
 40
1
 10
553.512504
 20
697.811228
 30
0.0
 10
553.512504
 20
676.379633
 30
0.0
 10
543.042315
 20
662.125134
 30
0.0
 10
526.522453
 20
652.534394
 30
0.0
  0
SPLINE
  5
319
100
AcDbEntity
  8
Layer_1
 62
1
100
AcDbSpline
 70
8
 71
3
 72
8
 73
4
 74
0
 40
0
 40
0
 40
0
 40
0
 40
1
 40
1
 40
1
 40
1
 10
526.522453
 20
652.534394
 30
0.0
 10
510.002620
 20
642.943681
 30
0.0
 10
487.330897
 20
638.549413
 30
0.0
 10
464.337414
 20
638.549413
 30
0.0
  0
SPLINE
  5
31a
100
AcDbEntity
  8
Layer_1
 62
1
100
AcDbSpline
 70
8
 71
3
 72
8
 73
4
 74
0
 40
0
 40
0
 40
0
 40
0
 40
1
 40
1
 40
1
 40
1
 10
464.337414
 20
638.549413
 30
0.0
 10
441.343959
 20
638.549413
 30
0.0
 10
418.671839
 20
642.943681
 30
0.0
 10
402.152374
 20
652.534394
 30
0.0
  0
SPLINE
  5
31b
100
AcDbEntity
  8
Layer_1
 62
1
100
AcDbSpline
 70
8
 71
3
 72
8
 73
4
 74
0
 40
0
 40
0
 40
0
 40
0
 40
1
 40
1
 40
1
 40
1
 10
402.152374
 20
652.534394
 30
0.0
 10
385.632938
 20
662.125106
 30
0.0
 10
375.162352
 20
676.379576
 30
0.0
 10
375.162352
 20
697.811228
 30
0.0
  0
SPLINE
  5
31c
100
AcDbEntity
  8
Layer_1
 62
1
100
AcDbSpline
 70
8
 71
3
 72
8
 73
4
 74
0
 40
0
 40
0
 40
0
 40
0
 40
1
 40
1
 40
1
 40
1
 10
375.162352
 20
697.811228
 30
0.0
 10
375.162352
 20
721.659302
 30
0.0
 10
388.926768
 20
749.572794
 30
0.0
 10
409.011990
 20
769.302977
 30
0.0
  0
SPLINE
  5
31d
100
AcDbEntity
  8
Layer_1
 62
1
100
AcDbSpline
 70
8
 71
3
 72
8
 73
4
 74
0
 40
0
 40
0
 40
0
 40
0
 40
1
 40
1
 40
1
 40
1
 10
409.011990
 20
769.302977
 30
0.0
 10
409.869270
 20
770.145855
 30
0.0
 10
410.280660
 20
771.342579
 30
0.0
 10
410.122839
 20
772.534412
 30
0.0
  0
SPLINE
  5
31e
100
AcDbEntity
  8
Layer_1
 62
1
100
AcDbSpline
 70
8
 71
3
 72
8
 73
4
 74
0
 40
0
 40
0
 40
0
 40
0
 40
1
 40
1
 40
1
 40
1
 10
410.122839
 20
772.534412
 30
0.0
 10
409.965018
 20
773.726244
 30
0.0
 10
409.256331
 20
774.774649
 30
0.0
 10
408.209218
 20
775.365349
 30
0.0
  0
SPLINE
  5
31f
100
AcDbEntity
  8
Layer_1
 62
1
100
AcDbSpline
 70
8
 71
3
 72
8
 73
4
 74
0
 40
0
 40
0
 40
0
 40
0
 40
1
 40
1
 40
1
 40
1
 10
408.209218
 20
775.365349
 30
0.0
 10
391.752853
 20
784.629964
 30
0.0
 10
374.388862
 20
809.006019
 30
0.0
 10
364.903372
 20
837.794002
 30
0.0
  0
LWPOLYLINE
  5
320
100
AcDbEntity
  8
Layer_1
 62
1
100
AcDbPolyline
 90
2
 70
1
 10
437.430560
 20
852.836447
 30
0.0
 10
437.424891
 20
852.836447
 30
0.0
  0
SPLINE
  5
321
100
AcDbEntity
  8
Layer_1
 62
1
100
AcDbSpline
 70
8
 71
3
 72
8
 73
4
 74
0
 40
0
 40
0
 40
0
 40
0
 40
1
 40
1
 40
1
 40
1
 10
364.903372
 20
837.799671
 30
0.0
 10
358.027628
 20
858.720095
 30
0.0
 10
356.239278
 20
878.571771
 30
0.0
 10
358.708113
 20
893.346569
 30
0.0
  0
SPLINE
  5
322
100
AcDbEntity
  8
Layer_1
 62
1
100
AcDbSpline
 70
8
 71
3
 72
8
 73
4
 74
0
 40
0
 40
0
 40
0
 40
0
 40
1
 40
1
 40
1
 40
1
 10
358.708113
 20
893.346569
 30
0.0
 10
359.942629
 20
900.734563
 30
0.0
 10
362.238352
 20
906.824686
 30
0.0
 10
365.285369
 20
911.168299
 30
0.0
  0
SPLINE
  5
323
100
AcDbEntity
  8
Layer_1
 62
1
100
AcDbSpline
 70
8
 71
3
 72
8
 73
4
 74
0
 40
0
 40
0
 40
0
 40
0
 40
1
 40
1
 40
1
 40
1
 10
365.285369
 20
911.168299
 30
0.0
 10
368.332387
 20
915.511884
 30
0.0
 10
371.991943
 20
918.129169
 30
0.0
 10
376.496620
 20
919.113046
 30
0.0
  0
SPLINE
  5
324
100
AcDbEntity
  8
Layer_1
 62
1
100
AcDbSpline
 70
8
 71
3
 72
8
 73
4
 74
0
 40
0
 40
0
 40
0
 40
0
 40
1
 40
1
 40
1
 40
1
 10
376.496620
 20
919.113046
 30
0.0
 10
377.579143
 20
919.349456
 30
0.0
 10
378.702201
 20
919.480303
 30
0.0
 10
379.873845
 20
919.506127
 30
0.0
  0
LWPOLYLINE
  5
325
100
AcDbEntity
  8
Layer_1
 62
1
100
AcDbPolyline
 90
2
 70
1
 10
364.903372
 20
837.794002
 30
0.0
 10
364.903372
 20
837.799671
 30
0.0
  0
SPLINE
  5
326
100
AcDbEntity
  8
Layer_1
 62
1
100
AcDbSpline
 70
8
 71
3
 72
8
 73
4
 74
0
 40
0
 40
0
 40
0
 40
0
 40
1
 40
1
 40
1
 40
1
 10
-88.551944
 20
905.332508
 30
0.0
 10
-88.947232
 20
905.340988
 30
0.0
 10
-89.342784
 20
905.340988
 30
0.0
 10
-89.737880
 20
905.330908
 30
0.0
  0
SPLINE
  5
327
100
AcDbEntity
  8
Layer_1
 62
1
100
AcDbSpline
 70
8
 71
3
 72
8
 73
4
 74
0
 40
0
 40
0
 40
0
 40
0
 40
1
 40
1
 40
1
 40
1
 10
-89.737880
 20
905.330908
 30
0.0
 10
-91.383336
 20
905.294588
 30
0.0
 10
-93.003441
 20
905.105548
 30
0.0
 10
-94.581630
 20
904.760596
 30
0.0
  0
SPLINE
  5
328
100
AcDbEntity
  8
Layer_1
 62
1
100
AcDbSpline
 70
8
 71
3
 72
8
 73
4
 74
0
 40
0
 40
0
 40
0
 40
0
 40
1
 40
1
 40
1
 40
1
 10
-94.581630
 20
904.760596
 30
0.0
 10
-101.094710
 20
903.338060
 30
0.0
 10
-106.506457
 20
899.321204
 30
0.0
 10
-110.426942
 20
893.732468
 30
0.0
  0
SPLINE
  5
329
100
AcDbEntity
  8
Layer_1
 62
1
100
AcDbSpline
 70
8
 71
3
 72
8
 73
4
 74
0
 40
0
 40
0
 40
0
 40
0
 40
1
 40
1
 40
1
 40
1
 10
-110.426942
 20
893.732468
 30
0.0
 10
-114.347455
 20
888.143716
 30
0.0
 10
-116.915830
 20
880.998228
 30
0.0
 10
-118.289442
 20
872.777788
 30
0.0
  0
SPLINE
  5
32a
100
AcDbEntity
  8
Layer_1
 62
1
100
AcDbSpline
 70
8
 71
3
 72
8
 73
4
 74
0
 40
0
 40
0
 40
0
 40
0
 40
1
 40
1
 40
1
 40
1
 10
-118.289442
 20
872.777788
 30
0.0
 10
-121.036695
 20
856.336869
 30
0.0
 10
-119.016150
 20
835.470221
 30
0.0
 10
-111.817567
 20
813.569973
 30
0.0
  0
SPLINE
  5
32b
100
AcDbEntity
  8
Layer_1
 62
1
100
AcDbSpline
 70
8
 71
3
 72
8
 73
4
 74
0
 40
0
 40
0
 40
0
 40
0
 40
1
 40
1
 40
1
 40
1
 10
-111.817567
 20
813.569973
 30
0.0
 10
-111.815487
 20
813.569972
 30
0.0
 10
-111.813407
 20
813.569972
 30
0.0
 10
-111.811327
 20
813.569973
 30
0.0
  0
SPLINE
  5
32c
100
AcDbEntity
  8
Layer_1
 62
1
100
AcDbSpline
 70
8
 71
3
 72
8
 73
4
 74
0
 40
0
 40
0
 40
0
 40
0
 40
1
 40
1
 40
1
 40
1
 10
-111.811327
 20
813.569973
 30
0.0
 10
-102.515447
 20
785.354334
 30
0.0
 10
-86.460616
 20
761.556278
 30
0.0
 10
-68.616016
 20
749.635599
 30
0.0
  0
SPLINE
  5
32d
100
AcDbEntity
  8
Layer_1
 62
1
100
AcDbSpline
 70
8
 71
3
 72
8
 73
4
 74
0
 40
0
 40
0
 40
0
 40
0
 40
1
 40
1
 40
1
 40
1
 10
-68.616016
 20
749.635599
 30
0.0
 10
-88.348096
 20
728.910399
 30
0.0
 10
-101.934765
 20
701.419504
 30
0.0
 10
-101.934765
 20
675.979352
 30
0.0
  0
SPLINE
  5
32e
100
AcDbEntity
  8
Layer_1
 62
1
100
AcDbSpline
 70
8
 71
3
 72
8
 73
4
 74
0
 40
0
 40
0
 40
0
 40
0
 40
1
 40
1
 40
1
 40
1
 10
-101.934765
 20
675.979352
 30
0.0
 10
-101.934765
 20
651.962416
 30
0.0
 10
-89.379672
 20
634.673393
 30
0.0
 10
-71.134760
 20
624.080913
 30
0.0
  0
SPLINE
  5
32f
100
AcDbEntity
  8
Layer_1
 62
1
100
AcDbSpline
 70
8
 71
3
 72
8
 73
4
 74
0
 40
0
 40
0
 40
0
 40
0
 40
1
 40
1
 40
1
 40
1
 10
-71.134760
 20
624.080913
 30
0.0
 10
-52.889824
 20
613.488497
 30
0.0
 10
-29.060392
 20
609.060657
 30
0.0
 10
-5.108200
 20
609.060657
 30
0.0
  0
SPLINE
  5
330
100
AcDbEntity
  8
Layer_1
 62
1
100
AcDbSpline
 70
8
 71
3
 72
8
 73
4
 74
0
 40
0
 40
0
 40
0
 40
0
 40
1
 40
1
 40
1
 40
1
 10
-5.108200
 20
609.060657
 30
0.0
 10
18.844015
 20
609.060657
 30
0.0
 10
42.674639
 20
613.488497
 30
0.0
 10
60.919927
 20
624.080913
 30
0.0
  0
SPLINE
  5
331
100
AcDbEntity
  8
Layer_1
 62
1
100
AcDbSpline
 70
8
 71
3
 72
8
 73
4
 74
0
 40
0
 40
0
 40
0
 40
0
 40
1
 40
1
 40
1
 40
1
 10
60.919927
 20
624.080913
 30
0.0
 10
79.165207
 20
634.673361
 30
0.0
 10
91.724615
 20
651.962392
 30
0.0
 10
91.724615
 20
675.979352
 30
0.0
  0
SPLINE
  5
332
100
AcDbEntity
  8
Layer_1
 62
1
100
AcDbSpline
 70
8
 71
3
 72
8
 73
4
 74
0
 40
0
 40
0
 40
0
 40
0
 40
1
 40
1
 40
1
 40
1
 10
91.724615
 20
675.979352
 30
0.0
 10
91.724615
 20
701.396256
 30
0.0
 10
78.157839
 20
728.855727
 30
0.0
 10
58.455863
 20
749.574663
 30
0.0
  0
SPLINE
  5
333
100
AcDbEntity
  8
Layer_1
 62
1
100
AcDbSpline
 70
8
 71
3
 72
8
 73
4
 74
0
 40
0
 40
0
 40
0
 40
0
 40
1
 40
1
 40
1
 40
1
 10
58.455863
 20
749.574663
 30
0.0
 10
75.794111
 20
761.215926
 30
0.0
 10
92.035943
 20
784.469838
 30
0.0
 10
101.601175
 20
813.569973
 30
0.0
  0
SPLINE
  5
334
100
AcDbEntity
  8
Layer_1
 62
1
100
AcDbSpline
 70
8
 71
3
 72
8
 73
4
 74
0
 40
0
 40
0
 40
0
 40
0
 40
1
 40
1
 40
1
 40
1
 10
101.601175
 20
813.569973
 30
0.0
 10
102.242087
 20
815.519781
 30
0.0
 10
102.800271
 20
817.452037
 30
0.0
 10
103.355863
 20
819.377789
 30
0.0
  0
SPLINE
  5
335
100
AcDbEntity
  8
Layer_1
 62
1
100
AcDbSpline
 70
8
 71
3
 72
8
 73
4
 74
0
 40
0
 40
0
 40
0
 40
0
 40
1
 40
1
 40
1
 40
1
 10
103.355863
 20
819.377789
 30
0.0
 10
106.150823
 20
820.629053
 30
0.0
 10
108.758127
 20
822.268173
 30
0.0
 10
110.874615
 20
824.577789
 30
0.0
  0
SPLINE
  5
336
100
AcDbEntity
  8
Layer_1
 62
1
100
AcDbSpline
 70
8
 71
3
 72
8
 73
4
 74
0
 40
0
 40
0
 40
0
 40
0
 40
1
 40
1
 40
1
 40
1
 10
110.874615
 20
824.577789
 30
0.0
 10
117.259311
 20
831.545061
 30
0.0
 10
118.893631
 20
841.851533
 30
0.0
 10
117.241799
 20
853.177789
 30
0.0
  0
SPLINE
  5
337
100
AcDbEntity
  8
Layer_1
 62
1
100
AcDbSpline
 70
8
 71
3
 72
8
 73
4
 74
0
 40
0
 40
0
 40
0
 40
0
 40
1
 40
1
 40
1
 40
1
 10
117.241799
 20
853.177789
 30
0.0
 10
115.589967
 20
864.504037
 30
0.0
 10
110.645759
 20
877.157196
 30
0.0
 10
102.974615
 20
889.762156
 30
0.0
  0
SPLINE
  5
338
100
AcDbEntity
  8
Layer_1
 62
1
100
AcDbSpline
 70
8
 71
3
 72
8
 73
4
 74
0
 40
0
 40
0
 40
0
 40
0
 40
1
 40
1
 40
1
 40
1
 10
102.974615
 20
889.762156
 30
0.0
 10
102.137658
 20
891.135595
 30
0.0
 10
100.531290
 20
891.839202
 30
0.0
 10
98.954295
 20
891.523100
 30
0.0
  0
SPLINE
  5
339
100
AcDbEntity
  8
Layer_1
 62
1
100
AcDbSpline
 70
8
 71
3
 72
8
 73
4
 74
0
 40
0
 40
0
 40
0
 40
0
 40
1
 40
1
 40
1
 40
1
 10
98.954295
 20
891.523100
 30
0.0
 10
85.819943
 20
888.901420
 30
0.0
 10
70.777775
 20
884.552460
 30
0.0
 10
57.565239
 20
879.415284
 30
0.0
  0
SPLINE
  5
33a
100
AcDbEntity
  8
Layer_1
 62
1
100
AcDbSpline
 70
8
 71
3
 72
8
 73
4
 74
0
 40
0
 40
0
 40
0
 40
0
 40
1
 40
1
 40
1
 40
1
 10
57.565239
 20
879.415284
 30
0.0
 10
44.352671
 20
874.278116
 30
0.0
 10
33.067047
 20
868.640108
 30
0.0
 10
26.904295
 20
862.119973
 30
0.0
  0
SPLINE
  5
33b
100
AcDbEntity
  8
Layer_1
 62
1
100
AcDbSpline
 70
8
 71
3
 72
8
 73
4
 74
0
 40
0
 40
0
 40
0
 40
0
 40
1
 40
1
 40
1
 40
1
 10
26.904295
 20
862.119973
 30
0.0
 10
26.678194
 20
861.878317
 30
0.0
 10
26.484390
 20
861.608356
 30
0.0
 10
26.327735
 20
861.316845
 30
0.0
  0
SPLINE
  5
33c
100
AcDbEntity
  8
Layer_1
 62
1
100
AcDbSpline
 70
8
 71
3
 72
8
 73
4
 74
0
 40
0
 40
0
 40
0
 40
0
 40
1
 40
1
 40
1
 40
1
 10
26.327735
 20
861.316845
 30
0.0
 10
19.633719
 20
849.007005
 30
0.0
 10
17.402031
 20
842.112437
 30
0.0
 10
14.535552
 20
833.391845
 30
0.0
  0
SPLINE
  5
33d
100
AcDbEntity
  8
Layer_1
 62
1
100
AcDbSpline
 70
8
 71
3
 72
8
 73
4
 74
0
 40
0
 40
0
 40
0
 40
0
 40
1
 40
1
 40
1
 40
1
 10
14.535552
 20
833.391845
 30
0.0
 10
8.072416
 20
813.729245
 30
0.0
 10
5.994968
 20
795.082462
 30
0.0
 10
7.582424
 20
779.543414
 30
0.0
  0
SPLINE
  5
33e
100
AcDbEntity
  8
Layer_1
 62
1
100
AcDbSpline
 70
8
 71
3
 72
8
 73
4
 74
0
 40
0
 40
0
 40
0
 40
0
 40
1
 40
1
 40
1
 40
1
 10
7.582424
 20
779.543414
 30
0.0
 10
3.376320
 20
780.370078
 30
0.0
 10
-0.825048
 20
781.299662
 30
0.0
 10
-5.108200
 20
781.299662
 30
0.0
  0
SPLINE
  5
33f
100
AcDbEntity
  8
Layer_1
 62
1
100
AcDbSpline
 70
8
 71
3
 72
8
 73
4
 74
0
 40
0
 40
0
 40
0
 40
0
 40
1
 40
1
 40
1
 40
1
 10
-5.108200
 20
781.299662
 30
0.0
 10
-9.406768
 20
781.299662
 30
0.0
 10
-13.620736
 20
780.365038
 30
0.0
 10
-17.841016
 20
779.532470
 30
0.0
  0
SPLINE
  5
340
100
AcDbEntity
  8
Layer_1
 62
1
100
AcDbSpline
 70
8
 71
3
 72
8
 73
4
 74
0
 40
0
 40
0
 40
0
 40
0
 40
1
 40
1
 40
1
 40
1
 10
-17.841016
 20
779.532470
 30
0.0
 10
-16.194112
 20
795.570982
 30
0.0
 10
-18.525208
 20
814.433989
 30
0.0
 10
-24.745704
 20
833.391845
 30
0.0
  0
SPLINE
  5
341
100
AcDbEntity
  8
Layer_1
 62
1
100
AcDbSpline
 70
8
 71
3
 72
8
 73
4
 74
0
 40
0
 40
0
 40
0
 40
0
 40
1
 40
1
 40
1
 40
1
 10
-24.745704
 20
833.391845
 30
0.0
 10
-31.441016
 20
853.760789
 30
0.0
 10
-41.532776
 20
871.612252
 30
0.0
 10
-52.925384
 20
884.498100
 30
0.0
  0
SPLINE
  5
342
100
AcDbEntity
  8
Layer_1
 62
1
100
AcDbSpline
 70
8
 71
3
 72
8
 73
4
 74
0
 40
0
 40
0
 40
0
 40
0
 40
1
 40
1
 40
1
 40
1
 10
-52.925384
 20
884.498100
 30
0.0
 10
-63.961968
 20
896.981284
 30
0.0
 10
-76.297608
 20
905.090452
 30
0.0
 10
-88.551952
 20
905.332468
 30
0.0
  0
LWPOLYLINE
  5
343
100
AcDbEntity
  8
Layer_1
 62
1
100
AcDbPolyline
 90
2
 70
1
 10
379.873845
 20
919.506127
 30
0.0
 10
379.873987
 20
919.505985
 30
0.0
  0
LWPOLYLINE
  5
344
100
AcDbEntity
  8
Layer_1
 62
1
100
AcDbPolyline
 90
2
 70
1
 10
-88.551952
 20
905.332468
 30
0.0
 10
-88.551944
 20
905.332508
 30
0.0
  0
SPLINE
  5
345
100
AcDbEntity
  8
Layer_1
 62
1
100
AcDbSpline
 70
8
 71
3
 72
8
 73
4
 74
0
 40
0
 40
0
 40
0
 40
0
 40
1
 40
1
 40
1
 40
1
 10
-89.231592
 20
881.663764
 30
0.0
 10
-87.685832
 20
881.697764
 30
0.0
 10
-79.447248
 20
878.747196
 30
0.0
 10
-70.669088
 20
868.818452
 30
0.0
  0
SPLINE
  5
346
100
AcDbEntity
  8
Layer_1
 62
1
100
AcDbSpline
 70
8
 71
3
 72
8
 73
4
 74
0
 40
0
 40
0
 40
0
 40
0
 40
1
 40
1
 40
1
 40
1
 10
-70.669088
 20
868.818452
 30
0.0
 10
-61.890872
 20
858.889653
 30
0.0
 10
-53.010408
 20
843.542333
 30
0.0
 10
-47.244088
 20
825.999701
 30
0.0
  0
SPLINE
  5
347
100
AcDbEntity
  8
Layer_1
 62
1
100
AcDbSpline
 70
8
 71
3
 72
8
 73
4
 74
0
 40
0
 40
0
 40
0
 40
0
 40
1
 40
1
 40
1
 40
1
 10
-47.244088
 20
825.999701
 30
0.0
 10
-41.350520
 20
808.032526
 30
0.0
 10
-39.717152
 20
789.997950
 30
0.0
 10
-41.630024
 20
778.326262
 30
0.0
  0
SPLINE
  5
348
100
AcDbEntity
  8
Layer_1
 62
1
100
AcDbSpline
 70
8
 71
3
 72
8
 73
4
 74
0
 40
0
 40
0
 40
0
 40
0
 40
1
 40
1
 40
1
 40
1
 10
-41.630024
 20
778.326262
 30
0.0
 10
-42.207360
 20
774.793190
 30
0.0
 10
-43.148792
 20
768.757958
 30
0.0
 10
-44.044088
 20
765.318454
 30
0.0
  0
SPLINE
  5
349
100
AcDbEntity
  8
Layer_1
 62
1
100
AcDbSpline
 70
8
 71
3
 72
8
 73
4
 74
0
 40
0
 40
0
 40
0
 40
0
 40
1
 40
1
 40
1
 40
1
 10
-44.044088
 20
765.318454
 30
0.0
 10
-47.518008
 20
765.374854
 30
0.0
 10
-50.954488
 20
766.116806
 30
0.0
 10
-53.397216
 20
767.491886
 30
0.0
  0
SPLINE
  5
34a
100
AcDbEntity
  8
Layer_1
 62
1
100
AcDbSpline
 70
8
 71
3
 72
8
 73
4
 74
0
 40
0
 40
0
 40
0
 40
0
 40
1
 40
1
 40
1
 40
1
 10
-53.397216
 20
767.491886
 30
0.0
 10
-63.853544
 20
773.378630
 30
0.0
 10
-80.798448
 20
795.041462
 30
0.0
 10
-89.342528
 20
820.962197
 30
0.0
  0
LWPOLYLINE
  5
34b
100
AcDbEntity
  8
Layer_1
 62
1
100
AcDbPolyline
 90
2
 70
1
 10
-89.233192
 20
881.663764
 30
0.0
 10
-89.231592
 20
881.663764
 30
0.0
  0
SPLINE
  5
34c
100
AcDbEntity
  8
Layer_1
 62
1
100
AcDbSpline
 70
8
 71
3
 72
8
 73
4
 74
0
 40
0
 40
0
 40
0
 40
0
 40
1
 40
1
 40
1
 40
1
 10
-89.342528
 20
820.973157
 30
0.0
 10
-89.342528
 20
820.976357
 30
0.0
 10
-89.348928
 20
820.976357
 30
0.0
 10
-89.348928
 20
820.979557
 30
0.0
  0
SPLINE
  5
34d
100
AcDbEntity
  8
Layer_1
 62
1
100
AcDbSpline
 70
8
 71
3
 72
8
 73
4
 74
0
 40
0
 40
0
 40
0
 40
0
 40
1
 40
1
 40
1
 40
1
 10
-89.348928
 20
820.979557
 30
0.0
 10
-95.548526
 20
839.849029
 30
0.0
 10
-96.843085
 20
857.592509
 30
0.0
 10
-94.956742
 20
868.881116
 30
0.0
  0
SPLINE
  5
34e
100
AcDbEntity
  8
Layer_1
 62
1
100
AcDbSpline
 70
8
 71
3
 72
8
 73
4
 74
0
 40
0
 40
0
 40
0
 40
0
 40
1
 40
1
 40
1
 40
1
 10
-94.956742
 20
868.881116
 30
0.0
 10
-94.013314
 20
874.527164
 30
0.0
 10
-92.283735
 20
878.404052
 30
0.0
 10
-91.064552
 20
880.142052
 30
0.0
  0
SPLINE
  5
34f
100
AcDbEntity
  8
Layer_1
 62
1
100
AcDbSpline
 70
8
 71
3
 72
8
 73
4
 74
0
 40
0
 40
0
 40
0
 40
0
 40
1
 40
1
 40
1
 40
1
 10
-91.064552
 20
880.142052
 30
0.0
 10
-89.845344
 20
881.880148
 30
0.0
 10
-89.850760
 20
881.569756
 30
0.0
 10
-89.548928
 20
881.635804
 30
0.0
  0
SPLINE
  5
350
100
AcDbEntity
  8
Layer_1
 62
1
100
AcDbSpline
 70
8
 71
3
 72
8
 73
4
 74
0
 40
0
 40
0
 40
0
 40
0
 40
1
 40
1
 40
1
 40
1
 10
-89.548928
 20
881.635804
 30
0.0
 10
-89.503568
 20
881.647164
 30
0.0
 10
-89.413416
 20
881.661084
 30
0.0
 10
-89.233304
 20
881.663964
 30
0.0
  0
LWPOLYLINE
  5
351
100
AcDbEntity
  8
Layer_1
 62
1
100
AcDbPolyline
 90
2
 70
1
 10
-89.342528
 20
820.962197
 30
0.0
 10
-89.342528
 20
820.973157
 30
0.0
  0
SPLINE
  5
352
100
AcDbEntity
  8
Layer_1
 62
1
100
AcDbSpline
 70
8
 71
3
 72
8
 73
4
 74
0
 40
0
 40
0
 40
0
 40
0
 40
1
 40
1
 40
1
 40
1
 10
44.248055
 20
844.215325
 30
0.0
 10
56.190647
 20
833.431653
 30
0.0
 10
68.626383
 20
826.030717
 30
0.0
 10
79.657431
 20
822.724701
 30
0.0
  0
SPLINE
  5
353
100
AcDbEntity
  8
Layer_1
 62
1
100
AcDbSpline
 70
8
 71
3
 72
8
 73
4
 74
0
 40
0
 40
0
 40
0
 40
0
 40
1
 40
1
 40
1
 40
1
 10
79.657431
 20
822.724701
 30
0.0
 10
79.473463
 20
822.137189
 30
0.0
 10
79.295503
 20
821.548861
 30
0.0
 10
79.102743
 20
820.962197
 30
0.0
  0
SPLINE
  5
354
100
AcDbEntity
  8
Layer_1
 62
1
100
AcDbSpline
 70
8
 71
3
 72
8
 73
4
 74
0
 40
0
 40
0
 40
0
 40
0
 40
1
 40
1
 40
1
 40
1
 10
79.102743
 20
820.962197
 30
0.0
 10
70.279911
 20
794.120854
 30
0.0
 10
53.255735
 20
773.130566
 30
0.0
 10
43.154303
 20
767.402830
 30
0.0
  0
SPLINE
  5
355
100
AcDbEntity
  8
Layer_1
 62
1
100
AcDbSpline
 70
8
 71
3
 72
8
 73
4
 74
0
 40
0
 40
0
 40
0
 40
0
 40
1
 40
1
 40
1
 40
1
 10
43.154303
 20
767.402830
 30
0.0
 10
40.707239
 20
766.015238
 30
0.0
 10
36.963295
 20
765.762510
 30
0.0
 10
34.049623
 20
766.237198
 30
0.0
  0
SPLINE
  5
356
100
AcDbEntity
  8
Layer_1
 62
1
100
AcDbSpline
 70
8
 71
3
 72
8
 73
4
 74
0
 40
0
 40
0
 40
0
 40
0
 40
1
 40
1
 40
1
 40
1
 10
34.049623
 20
766.237198
 30
0.0
 10
32.600975
 20
770.334374
 30
0.0
 10
32.002199
 20
774.335910
 30
0.0
 10
31.355871
 20
778.315326
 30
0.0
  0
SPLINE
  5
357
100
AcDbEntity
  8
Layer_1
 62
1
100
AcDbSpline
 70
8
 71
3
 72
8
 73
4
 74
0
 40
0
 40
0
 40
0
 40
0
 40
1
 40
1
 40
1
 40
1
 10
31.355871
 20
778.315326
 30
0.0
 10
29.516271
 20
789.624430
 30
0.0
 10
30.839431
 20
807.249254
 30
0.0
 10
37.002743
 20
825.999701
 30
0.0
  0
SPLINE
  5
358
100
AcDbEntity
  8
Layer_1
 62
1
100
AcDbSpline
 70
8
 71
3
 72
8
 73
4
 74
0
 40
0
 40
0
 40
0
 40
0
 40
1
 40
1
 40
1
 40
1
 10
37.002743
 20
825.999701
 30
0.0
 10
39.258471
 20
832.862325
 30
0.0
 10
40.892095
 20
837.433581
 30
0.0
 10
44.248055
 20
844.215325
 30
0.0
  0
LWPOLYLINE
  5
359
100
AcDbEntity
  8
Layer_1
 62
1
100
AcDbPolyline
 90
2
 70
1
 10
-89.233304
 20
881.663964
 30
0.0
 10
-89.233192
 20
881.663764
 30
0.0
  0
SPLINE
  5
35a
100
AcDbEntity
  8
Layer_1
 62
1
100
AcDbSpline
 70
8
 71
3
 72
8
 73
4
 74
0
 40
0
 40
0
 40
0
 40
0
 40
1
 40
1
 40
1
 40
1
 10
-36.930064
 20
729.223143
 30
0.0
 10
-29.306941
 20
729.035243
 30
0.0
 10
-22.558683
 20
720.790222
 30
0.0
 10
-21.319128
 20
710.149703
 30
0.0
  0
SPLINE
  5
35b
100
AcDbEntity
  8
Layer_1
 62
1
100
AcDbSpline
 70
8
 71
3
 72
8
 73
4
 74
0
 40
0
 40
0
 40
0
 40
0
 40
1
 40
1
 40
1
 40
1
 10
-21.319128
 20
710.149703
 30
0.0
 10
-19.986415
 20
698.709510
 30
0.0
 10
-25.475042
 20
688.670345
 30
0.0
 10
-33.578504
 20
687.726264
 30
0.0
  0
SPLINE
  5
35c
100
AcDbEntity
  8
Layer_1
 62
1
100
AcDbSpline
 70
8
 71
3
 72
8
 73
4
 74
0
 40
0
 40
0
 40
0
 40
0
 40
1
 40
1
 40
1
 40
1
 10
-33.578504
 20
687.726264
 30
0.0
 10
-37.470062
 20
687.272597
 30
0.0
 10
-41.456622
 20
689.020016
 30
0.0
 10
-44.661161
 20
692.584099
 30
0.0
  0
SPLINE
  5
35d
100
AcDbEntity
  8
Layer_1
 62
1
100
AcDbSpline
 70
8
 71
3
 72
8
 73
4
 74
0
 40
0
 40
0
 40
0
 40
0
 40
1
 40
1
 40
1
 40
1
 10
-44.661161
 20
692.584099
 30
0.0
 10
-47.865701
 20
696.148181
 30
0.0
 10
-50.025714
 20
701.236967
 30
0.0
 10
-50.666008
 20
706.730951
 30
0.0
  0
SPLINE
  5
35e
100
AcDbEntity
  8
Layer_1
 62
1
100
AcDbSpline
 70
8
 71
3
 72
8
 73
4
 74
0
 40
0
 40
0
 40
0
 40
0
 40
1
 40
1
 40
1
 40
1
 10
-50.666008
 20
706.730951
 30
0.0
 10
-51.306326
 20
712.225015
 30
0.0
 10
-50.374429
 20
717.674228
 30
0.0
 10
-48.075334
 20
721.879760
 30
0.0
  0
SPLINE
  5
35f
100
AcDbEntity
  8
Layer_1
 62
1
100
AcDbSpline
 70
8
 71
3
 72
8
 73
4
 74
0
 40
0
 40
0
 40
0
 40
0
 40
1
 40
1
 40
1
 40
1
 10
-48.075334
 20
721.879760
 30
0.0
 10
-45.776240
 20
726.085292
 30
0.0
 10
-42.298288
 20
728.702628
 30
0.0
 10
-38.406632
 20
729.155951
 30
0.0
  0
SPLINE
  5
360
100
AcDbEntity
  8
Layer_1
 62
1
100
AcDbSpline
 70
8
 71
3
 72
8
 73
4
 74
0
 40
0
 40
0
 40
0
 40
0
 40
1
 40
1
 40
1
 40
1
 10
-38.406632
 20
729.155951
 30
0.0
 10
-37.917545
 20
729.212937
 30
0.0
 10
-37.424740
 20
729.235365
 30
0.0
 10
-36.930064
 20
729.223151
 30
0.0
  0
LWPOLYLINE
  5
361
100
AcDbEntity
  8
Layer_1
 62
1
100
AcDbPolyline
 90
2
 70
1
 10
44.248055
 20
844.215325
 30
0.0
 10
44.248055
 20
844.215325
 30
0.0
  0
SPLINE
  5
362
100
AcDbEntity
  8
Layer_1
 62
1
100
AcDbSpline
 70
8
 71
3
 72
8
 73
4
 74
0
 40
0
 40
0
 40
0
 40
0
 40
1
 40
1
 40
1
 40
1
 10
26.687119
 20
729.223143
 30
0.0
 10
27.181793
 20
729.235357
 30
0.0
 10
27.674595
 20
729.212929
 30
0.0
 10
28.163679
 20
729.155943
 30
0.0
  0
SPLINE
  5
363
100
AcDbEntity
  8
Layer_1
 62
1
100
AcDbSpline
 70
8
 71
3
 72
8
 73
4
 74
0
 40
0
 40
0
 40
0
 40
0
 40
1
 40
1
 40
1
 40
1
 10
28.163679
 20
729.155943
 30
0.0
 10
32.055336
 20
728.702620
 30
0.0
 10
35.533287
 20
726.085284
 30
0.0
 10
37.832382
 20
721.879752
 30
0.0
  0
SPLINE
  5
364
100
AcDbEntity
  8
Layer_1
 62
1
100
AcDbSpline
 70
8
 71
3
 72
8
 73
4
 74
0
 40
0
 40
0
 40
0
 40
0
 40
1
 40
1
 40
1
 40
1
 10
37.832382
 20
721.879752
 30
0.0
 10
40.131476
 20
717.674220
 30
0.0
 10
41.063374
 20
712.225007
 30
0.0
 10
40.423055
 20
706.730943
 30
0.0
  0
SPLINE
  5
365
100
AcDbEntity
  8
Layer_1
 62
1
100
AcDbSpline
 70
8
 71
3
 72
8
 73
4
 74
0
 40
0
 40
0
 40
0
 40
0
 40
1
 40
1
 40
1
 40
1
 10
40.423055
 20
706.730943
 30
0.0
 10
39.782761
 20
701.236961
 30
0.0
 10
37.622749
 20
696.148177
 30
0.0
 10
34.418212
 20
692.584095
 30
0.0
  0
SPLINE
  5
366
100
AcDbEntity
  8
Layer_1
 62
1
100
AcDbSpline
 70
8
 71
3
 72
8
 73
4
 74
0
 40
0
 40
0
 40
0
 40
0
 40
1
 40
1
 40
1
 40
1
 10
34.418212
 20
692.584095
 30
0.0
 10
31.213674
 20
689.020013
 30
0.0
 10
27.227116
 20
687.272592
 30
0.0
 10
23.335559
 20
687.726256
 30
0.0
  0
SPLINE
  5
367
100
AcDbEntity
  8
Layer_1
 62
1
100
AcDbSpline
 70
8
 71
3
 72
8
 73
4
 74
0
 40
0
 40
0
 40
0
 40
0
 40
1
 40
1
 40
1
 40
1
 10
23.335559
 20
687.726256
 30
0.0
 10
15.232789
 20
688.671473
 30
0.0
 10
9.745051
 20
698.710289
 30
0.0
 10
11.077744
 20
710.149695
 30
0.0
  0
SPLINE
  5
368
100
AcDbEntity
  8
Layer_1
 62
1
100
AcDbSpline
 70
8
 71
3
 72
8
 73
4
 74
0
 40
0
 40
0
 40
0
 40
0
 40
1
 40
1
 40
1
 40
1
 10
11.077744
 20
710.149695
 30
0.0
 10
12.317189
 20
720.789395
 30
0.0
 10
19.064534
 20
729.034125
 30
0.0
 10
26.687119
 20
729.223135
 30
0.0
  0
LWPOLYLINE
  5
369
100
AcDbEntity
  8
Layer_1
 62
1
100
AcDbPolyline
 90
2
 70
1
 10
-36.930064
 20
729.223151
 30
0.0
 10
-36.930064
 20
729.223143
 30
0.0
  0
SPLINE
  5
36a
100
AcDbEntity
  8
Layer_1
 62
1
100
AcDbSpline
 70
8
 71
3
 72
8
 73
4
 74
0
 40
0
 40
0
 40
0
 40
0
 40
1
 40
1
 40
1
 40
1
 10
-31.991008
 20
656.285640
 30
0.0
 10
-26.823672
 20
653.999896
 30
0.0
 10
-22.252032
 20
653.278600
 30
0.0
 10
-18.166008
 20
653.820016
 30
0.0
  0
SPLINE
  5
36b
100
AcDbEntity
  8
Layer_1
 62
1
100
AcDbSpline
 70
8
 71
3
 72
8
 73
4
 74
0
 40
0
 40
0
 40
0
 40
0
 40
1
 40
1
 40
1
 40
1
 10
-18.166008
 20
653.820016
 30
0.0
 10
-17.749568
 20
651.391688
 30
0.0
 10
-17.729224
 20
650.590152
 30
0.0
 10
-17.000376
 20
648.079393
 30
0.0
  0
SPLINE
  5
36c
100
AcDbEntity
  8
Layer_1
 62
1
100
AcDbSpline
 70
8
 71
3
 72
8
 73
4
 74
0
 40
0
 40
0
 40
0
 40
0
 40
1
 40
1
 40
1
 40
1
 10
-17.000376
 20
648.079393
 30
0.0
 10
-15.868280
 20
644.179601
 30
0.0
 10
-15.540672
 20
643.181497
 30
0.0
 10
-14.375376
 20
643.104393
 30
0.0
  0
SPLINE
  5
36d
100
AcDbEntity
  8
Layer_1
 62
1
100
AcDbSpline
 70
8
 71
3
 72
8
 73
4
 74
0
 40
0
 40
0
 40
0
 40
0
 40
1
 40
1
 40
1
 40
1
 10
-14.375376
 20
643.104393
 30
0.0
 10
-10.710832
 20
642.861745
 30
0.0
 10
-5.627384
 20
642.269817
 30
0.0
 10
-4.617568
 20
643.607521
 30
0.0
  0
SPLINE
  5
36e
100
AcDbEntity
  8
Layer_1
 62
1
100
AcDbSpline
 70
8
 71
3
 72
8
 73
4
 74
0
 40
0
 40
0
 40
0
 40
0
 40
1
 40
1
 40
1
 40
1
 10
-4.617568
 20
643.607521
 30
0.0
 10
-3.887024
 20
642.474737
 30
0.0
 10
1.489224
 20
642.941265
 30
0.0
 10
5.887120
 20
643.041889
 30
0.0
  0
SPLINE
  5
36f
100
AcDbEntity
  8
Layer_1
 62
1
100
AcDbSpline
 70
8
 71
3
 72
8
 73
4
 74
0
 40
0
 40
0
 40
0
 40
0
 40
1
 40
1
 40
1
 40
1
 10
5.887120
 20
643.041889
 30
0.0
 10
6.965816
 20
643.067409
 30
0.0
 10
6.935432
 20
643.745161
 30
0.0
 10
7.765248
 20
648.465329
 30
0.0
  0
SPLINE
  5
370
100
AcDbEntity
  8
Layer_1
 62
1
100
AcDbSpline
 70
8
 71
3
 72
8
 73
4
 74
0
 40
0
 40
0
 40
0
 40
0
 40
1
 40
1
 40
1
 40
1
 10
7.765248
 20
648.465329
 30
0.0
 10
8.039072
 20
650.022880
 30
0.0
 10
8.177816
 20
651.836488
 30
0.0
 10
8.401184
 20
653.698144
 30
0.0
  0
SPLINE
  5
371
100
AcDbEntity
  8
Layer_1
 62
1
100
AcDbSpline
 70
8
 71
3
 72
8
 73
4
 74
0
 40
0
 40
0
 40
0
 40
0
 40
1
 40
1
 40
1
 40
1
 10
8.401184
 20
653.698144
 30
0.0
 10
12.361776
 20
653.278360
 30
0.0
 10
16.785703
 20
654.089784
 30
0.0
 10
21.749623
 20
656.285640
 30
0.0
  0
SPLINE
  5
372
100
AcDbEntity
  8
Layer_1
 62
1
100
AcDbSpline
 70
8
 71
3
 72
8
 73
4
 74
0
 40
0
 40
0
 40
0
 40
0
 40
1
 40
1
 40
1
 40
1
 10
21.749623
 20
656.285640
 30
0.0
 10
19.161591
 20
640.495561
 30
0.0
 10
6.868864
 20
634.266889
 30
0.0
 10
-5.120688
 20
634.266889
 30
0.0
  0
SPLINE
  5
373
100
AcDbEntity
  8
Layer_1
 62
1
100
AcDbSpline
 70
8
 71
3
 72
8
 73
4
 74
0
 40
0
 40
0
 40
0
 40
0
 40
1
 40
1
 40
1
 40
1
 10
-5.120688
 20
634.266889
 30
0.0
 10
-17.110224
 20
634.266889
 30
0.0
 10
-29.402976
 20
640.495561
 30
0.0
 10
-31.991008
 20
656.285640
 30
0.0
  0
LWPOLYLINE
  5
374
100
AcDbEntity
  8
Layer_1
 62
1
100
AcDbPolyline
 90
2
 70
1
 10
26.687119
 20
729.223135
 30
0.0
 10
26.687119
 20
729.223143
 30
0.0
  0
SPLINE
  5
375
100
AcDbEntity
  8
Layer_1
 62
5
100
AcDbSpline
 70
8
 71
3
 72
8
 73
4
 74
0
 40
0
 40
0
 40
0
 40
0
 40
1
 40
1
 40
1
 40
1
 10
-36.780377
 20
670.759239
 30
0.0
 10
-58.744289
 20
665.759377
 30
0.0
 10
-75.515102
 20
654.530239
 30
0.0
 10
-87.800002
 20
643.884302
 30
0.0
  0
SPLINE
  5
376
100
AcDbEntity
  8
Layer_1
 62
5
100
AcDbSpline
 70
8
 71
3
 72
8
 73
4
 74
0
 40
0
 40
0
 40
0
 40
0
 40
1
 40
1
 40
1
 40
1
 10
-97.847914
 20
674.453633
 30
0.0
 10
-80.762938
 20
678.332817
 30
0.0
 10
-60.966793
 20
680.903728
 30
0.0
 10
-37.517697
 20
674.200215
 30
0.0
  0
SPLINE
  5
377
100
AcDbEntity
  8
Layer_1
 62
5
100
AcDbSpline
 70
8
 71
3
 72
8
 73
4
 74
0
 40
0
 40
0
 40
0
 40
0
 40
1
 40
1
 40
1
 40
1
 10
-36.534585
 20
677.149551
 30
0.0
 10
-53.594872
 20
692.145650
 30
0.0
 10
-72.717590
 20
698.049140
 30
0.0
 10
-93.776654
 20
701.620142
 30
0.0
  0
SPLINE
  5
378
100
AcDbEntity
  8
Layer_1
 62
5
100
AcDbSpline
 70
8
 71
3
 72
8
 73
4
 74
0
 40
0
 40
0
 40
0
 40
0
 40
1
 40
1
 40
1
 40
1
 10
26.538124
 20
670.759239
 30
0.0
 10
48.502064
 20
665.759377
 30
0.0
 10
65.272877
 20
654.530239
 30
0.0
 10
77.557778
 20
643.884302
 30
0.0
  0
SPLINE
  5
379
100
AcDbEntity
  8
Layer_1
 62
5
100
AcDbSpline
 70
8
 71
3
 72
8
 73
4
 74
0
 40
0
 40
0
 40
0
 40
0
 40
1
 40
1
 40
1
 40
1
 10
87.605690
 20
674.453633
 30
0.0
 10
70.520713
 20
678.332817
 30
0.0
 10
50.724568
 20
680.903728
 30
0.0
 10
27.275472
 20
674.200215
 30
0.0
  0
SPLINE
  5
37a
100
AcDbEntity
  8
Layer_1
 62
5
100
AcDbSpline
 70
8
 71
3
 72
8
 73
4
 74
0
 40
0
 40
0
 40
0
 40
0
 40
1
 40
1
 40
1
 40
1
 10
26.292332
 20
677.149551
 30
0.0
 10
43.352619
 20
692.145650
 30
0.0
 10
62.475365
 20
698.049140
 30
0.0
 10
83.534430
 20
701.620142
 30
0.0
  0
SPLINE
  5
37b
100
AcDbEntity
  8
Layer_1
 62
5
100
AcDbSpline
 70
8
 71
3
 72
8
 73
4
 74
0
 40
0
 40
0
 40
0
 40
0
 40
1
 40
1
 40
1
 40
1
 10
-53.214235
 20
730.478509
 30
0.0
 10
-40.432563
 20
748.600740
 30
0.0
 10
-29.406103
 20
742.150191
 30
0.0
 10
-18.559473
 20
733.182080
 30
0.0
  0
SPLINE
  5
37c
100
AcDbEntity
  8
Layer_1
 62
5
100
AcDbSpline
 70
8
 71
3
 72
8
 73
4
 74
0
 40
0
 40
0
 40
0
 40
0
 40
1
 40
1
 40
1
 40
1
 10
42.972039
 20
730.478509
 30
0.0
 10
30.190367
 20
748.600740
 30
0.0
 10
19.163907
 20
742.150191
 30
0.0
 10
8.317277
 20
733.182080
 30
0.0
  0
SPLINE
  5
37d
100
AcDbEntity
  8
Layer_1
 62
5
100
AcDbSpline
 70
8
 71
3
 72
8
 73
4
 74
0
 40
0
 40
0
 40
0
 40
0
 40
1
 40
1
 40
1
 40
1
 10
-38.603905
 20
659.870429
 30
0.0
 10
-36.280261
 20
658.424277
 30
0.0
 10
-34.099823
 20
657.218759
 30
0.0
 10
-31.991527
 20
656.286161
 30
0.0
  0
SPLINE
  5
37e
100
AcDbEntity
  8
Layer_1
 62
5
100
AcDbSpline
 70
8
 71
3
 72
8
 73
4
 74
0
 40
0
 40
0
 40
0
 40
0
 40
1
 40
1
 40
1
 40
1
 10
-18.166166
 20
653.820784
 30
0.0
 10
-13.404982
 20
654.451635
 30
0.0
 10
-9.265832
 20
656.840362
 30
0.0
 10
-5.529401
 20
660.771591
 30
0.0
  0
SPLINE
  5
37f
100
AcDbEntity
  8
Layer_1
 62
5
100
AcDbSpline
 70
8
 71
3
 72
8
 73
4
 74
0
 40
0
 40
0
 40
0
 40
0
 40
1
 40
1
 40
1
 40
1
 10
-4.721668
 20
660.780095
 30
0.0
 10
-0.856629
 20
656.710422
 30
0.0
 10
3.430858
 20
654.224721
 30
0.0
 10
8.401239
 20
653.697931
 30
0.0
  0
SPLINE
  5
380
100
AcDbEntity
  8
Layer_1
 62
5
100
AcDbSpline
 70
8
 71
3
 72
8
 73
4
 74
0
 40
0
 40
0
 40
0
 40
0
 40
1
 40
1
 40
1
 40
1
 10
21.749444
 20
656.285877
 30
0.0
 10
23.857626
 20
657.218419
 30
0.0
 10
26.038149
 20
658.423597
 30
0.0
 10
28.361652
 20
659.869635
 30
0.0
  0
SPLINE
  5
381
100
AcDbEntity
  8
Layer_1
 62
5
100
AcDbSpline
 70
8
 71
3
 72
8
 73
4
 74
0
 40
0
 40
0
 40
0
 40
0
 40
1
 40
1
 40
1
 40
1
 10
-5.236468
 20
655.402970
 30
0.0
 10
-5.749114
 20
648.834160
 30
0.0
 10
-4.616871
 20
643.606875
 30
0.0
 10
-4.616871
 20
643.606875
 30
0.0
  0
SPLINE
  5
382
100
AcDbEntity
  8
Layer_1
 62
5
100
AcDbSpline
 70
8
 71
3
 72
8
 73
4
 74
0
 40
0
 40
0
 40
0
 40
0
 40
1
 40
1
 40
1
 40
1
 10
-24.070478
 20
675.829627
 30
0.0
 10
-24.070478
 20
683.805044
 30
0.0
 10
-14.832793
 20
686.304068
 30
0.0
 10
-5.121127
 20
686.304068
 30
0.0
  0
SPLINE
  5
383
100
AcDbEntity
  8
Layer_1
 62
5
100
AcDbSpline
 70
8
 71
3
 72
8
 73
4
 74
0
 40
0
 40
0
 40
0
 40
0
 40
1
 40
1
 40
1
 40
1
 10
-5.121127
 20
686.304068
 30
0.0
 10
4.590540
 20
686.304068
 30
0.0
 10
13.828225
 20
684.375148
 30
0.0
 10
13.828225
 20
675.829627
 30
0.0
  0
SPLINE
  5
384
100
AcDbEntity
  8
Layer_1
 62
5
100
AcDbSpline
 70
8
 71
3
 72
8
 73
4
 74
0
 40
0
 40
0
 40
0
 40
0
 40
1
 40
1
 40
1
 40
1
 10
13.828225
 20
675.829627
 30
0.0
 10
13.828225
 20
667.284133
 30
0.0
 10
1.765957
 20
660.829928
 30
0.0
 10
-5.121127
 20
660.829928
 30
0.0
  0
SPLINE
  5
385
100
AcDbEntity
  8
Layer_1
 62
5
100
AcDbSpline
 70
8
 71
3
 72
8
 73
4
 74
0
 40
0
 40
0
 40
0
 40
0
 40
1
 40
1
 40
1
 40
1
 10
-5.121127
 20
660.829928
 30
0.0
 10
-12.008210
 20
660.829928
 30
0.0
 10
-24.070478
 20
666.714029
 30
0.0
 10
-24.070478
 20
675.829627
 30
0.0
  0
LWPOLYLINE
  5
386
100
AcDbEntity
  8
Layer_1
 62
1
100
AcDbPolyline
 90
2
 70
1
 10
-31.991008
 20
656.285640
 30
0.0
 10
-31.991008
 20
656.285640
 30
0.0
  0
SPLINE
  5
387
100
AcDbEntity
  8
Layer_1
 62
1
100
AcDbSpline
 70
8
 71
3
 72
8
 73
4
 74
0
 40
0
 40
0
 40
0
 40
0
 40
1
 40
1
 40
1
 40
1
 10
-90.053121
 20
919.499014
 30
0.0
 10
-92.576069
 20
919.443455
 30
0.0
 10
-95.114295
 20
919.152961
 30
0.0
 10
-97.610343
 20
918.607660
 30
0.0
  0
SPLINE
  5
388
100
AcDbEntity
  8
Layer_1
 62
1
100
AcDbSpline
 70
8
 71
3
 72
8
 73
4
 74
0
 40
0
 40
0
 40
0
 40
0
 40
1
 40
1
 40
1
 40
1
 10
-97.610343
 20
918.607660
 30
0.0
 10
-107.840437
 20
916.371691
 30
0.0
 10
-116.494412
 20
909.764302
 30
0.0
 10
-122.031495
 20
901.871061
 30
0.0
  0
SPLINE
  5
389
100
AcDbEntity
  8
Layer_1
 62
1
100
AcDbSpline
 70
8
 71
3
 72
8
 73
4
 74
0
 40
0
 40
0
 40
0
 40
0
 40
1
 40
1
 40
1
 40
1
 10
-122.031495
 20
901.871061
 30
0.0
 10
-127.569514
 20
893.976487
 30
0.0
 10
-130.637083
 20
884.875601
 30
0.0
 10
-132.268308
 20
875.113563
 30
0.0
  0
SPLINE
  5
38a
100
AcDbEntity
  8
Layer_1
 62
1
100
AcDbSpline
 70
8
 71
3
 72
8
 73
4
 74
0
 40
0
 40
0
 40
0
 40
0
 40
1
 40
1
 40
1
 40
1
 10
-132.268308
 20
875.113563
 30
0.0
 10
-135.530759
 20
855.589486
 30
0.0
 10
-133.069691
 20
832.858376
 30
0.0
 10
-125.275833
 20
809.147131
 30
0.0
  0
SPLINE
  5
38b
100
AcDbEntity
  8
Layer_1
 62
1
100
AcDbSpline
 70
8
 71
3
 72
8
 73
4
 74
0
 40
0
 40
0
 40
0
 40
0
 40
1
 40
1
 40
1
 40
1
 10
-125.275833
 20
809.147131
 30
0.0
 10
-125.275834
 20
809.143351
 30
0.0
 10
-125.275834
 20
809.139572
 30
0.0
 10
-125.275833
 20
809.135792
 30
0.0
  0
SPLINE
  5
38c
100
AcDbEntity
  8
Layer_1
 62
1
100
AcDbSpline
 70
8
 71
3
 72
8
 73
4
 74
0
 40
0
 40
0
 40
0
 40
0
 40
1
 40
1
 40
1
 40
1
 10
-125.275833
 20
809.135792
 30
0.0
 10
-117.201514
 20
784.627954
 30
0.0
 10
-105.102368
 20
762.723824
 30
0.0
 10
-89.172850
 20
747.449023
 30
0.0
  0
SPLINE
  5
38d
100
AcDbEntity
  8
Layer_1
 62
1
100
AcDbSpline
 70
8
 71
3
 72
8
 73
4
 74
0
 40
0
 40
0
 40
0
 40
0
 40
1
 40
1
 40
1
 40
1
 10
-89.172850
 20
747.449023
 30
0.0
 10
-105.404853
 20
726.446962
 30
0.0
 10
-116.107511
 20
701.442381
 30
0.0
 10
-116.107511
 20
675.979409
 30
0.0
  0
SPLINE
  5
38e
100
AcDbEntity
  8
Layer_1
 62
1
100
AcDbSpline
 70
8
 71
3
 72
8
 73
4
 74
0
 40
0
 40
0
 40
0
 40
0
 40
1
 40
1
 40
1
 40
1
 10
-116.107511
 20
675.979409
 30
0.0
 10
-116.107511
 20
647.174957
 30
0.0
 10
-99.689725
 20
624.270962
 30
0.0
 10
-78.249486
 20
611.823409
 30
0.0
  0
SPLINE
  5
38f
100
AcDbEntity
  8
Layer_1
 62
1
100
AcDbSpline
 70
8
 71
3
 72
8
 73
4
 74
0
 40
0
 40
0
 40
0
 40
0
 40
1
 40
1
 40
1
 40
1
 10
-78.249486
 20
611.823409
 30
0.0
 10
-56.809275
 20
599.375855
 30
0.0
 10
-30.835501
 20
594.887534
 30
0.0
 10
-5.107889
 20
594.887534
 30
0.0
  0
SPLINE
  5
390
100
AcDbEntity
  8
Layer_1
 62
1
100
AcDbSpline
 70
8
 71
3
 72
8
 73
4
 74
0
 40
0
 40
0
 40
0
 40
0
 40
1
 40
1
 40
1
 40
1
 10
-5.107889
 20
594.887534
 30
0.0
 10
20.619752
 20
594.887534
 30
0.0
 10
46.598713
 20
599.375912
 30
0.0
 10
68.039264
 20
611.823409
 30
0.0
  0
SPLINE
  5
391
100
AcDbEntity
  8
Layer_1
 62
1
100
AcDbSpline
 70
8
 71
3
 72
8
 73
4
 74
0
 40
0
 40
0
 40
0
 40
0
 40
1
 40
1
 40
1
 40
1
 10
68.039264
 20
611.823409
 30
0.0
 10
89.479816
 20
624.270877
 30
0.0
 10
105.897290
 20
647.174730
 30
0.0
 10
105.897290
 20
675.979409
 30
0.0
  0
SPLINE
  5
392
100
AcDbEntity
  8
Layer_1
 62
1
100
AcDbSpline
 70
8
 71
3
 72
8
 73
4
 74
0
 40
0
 40
0
 40
0
 40
0
 40
1
 40
1
 40
1
 40
1
 10
105.897290
 20
675.979409
 30
0.0
 10
105.897290
 20
701.448872
 30
0.0
 10
95.184257
 20
726.455466
 30
0.0
 10
78.946017
 20
747.460106
 30
0.0
  0
SPLINE
  5
393
100
AcDbEntity
  8
Layer_1
 62
1
100
AcDbSpline
 70
8
 71
3
 72
8
 73
4
 74
0
 40
0
 40
0
 40
0
 40
0
 40
1
 40
1
 40
1
 40
1
 10
78.946017
 20
747.460106
 30
0.0
 10
94.523302
 20
762.446596
 30
0.0
 10
106.808345
 20
784.025989
 30
0.0
 10
115.065583
 20
809.146847
 30
0.0
  0
SPLINE
  5
394
100
AcDbEntity
  8
Layer_1
 62
1
100
AcDbSpline
 70
8
 71
3
 72
8
 73
4
 74
0
 40
0
 40
0
 40
0
 40
0
 40
1
 40
1
 40
1
 40
1
 10
115.065583
 20
809.146847
 30
0.0
 10
115.154024
 20
809.416139
 30
0.0
 10
115.222338
 20
809.675452
 30
0.0
 10
115.309079
 20
809.944091
 30
0.0
  0
SPLINE
  5
395
100
AcDbEntity
  8
Layer_1
 62
1
100
AcDbSpline
 70
8
 71
3
 72
8
 73
4
 74
0
 40
0
 40
0
 40
0
 40
0
 40
1
 40
1
 40
1
 40
1
 10
115.309079
 20
809.944091
 30
0.0
 10
117.448272
 20
811.443250
 30
0.0
 10
119.536953
 20
813.050806
 30
0.0
 10
121.327173
 20
815.004388
 30
0.0
  0
SPLINE
  5
396
100
AcDbEntity
  8
Layer_1
 62
1
100
AcDbSpline
 70
8
 71
3
 72
8
 73
4
 74
0
 40
0
 40
0
 40
0
 40
0
 40
1
 40
1
 40
1
 40
1
 10
121.327173
 20
815.004388
 30
0.0
 10
131.679384
 20
826.301217
 30
0.0
 10
133.293545
 20
841.355454
 30
0.0
 10
131.270572
 20
855.226453
 30
0.0
  0
SPLINE
  5
397
100
AcDbEntity
  8
Layer_1
 62
1
100
AcDbSpline
 70
8
 71
3
 72
8
 73
4
 74
0
 40
0
 40
0
 40
0
 40
0
 40
1
 40
1
 40
1
 40
1
 10
131.270572
 20
855.226453
 30
0.0
 10
129.247598
 20
869.097452
 30
0.0
 10
123.546842
 20
883.222634
 30
0.0
 10
115.082080
 20
897.131590
 30
0.0
  0
SPLINE
  5
398
100
AcDbEntity
  8
Layer_1
 62
1
100
AcDbSpline
 70
8
 71
3
 72
8
 73
4
 74
0
 40
0
 40
0
 40
0
 40
0
 40
1
 40
1
 40
1
 40
1
 10
115.082080
 20
897.131590
 30
0.0
 10
111.149519
 20
903.592309
 30
0.0
 10
103.597857
 20
906.905848
 30
0.0
 10
96.180748
 20
905.425168
 30
0.0
  0
SPLINE
  5
399
100
AcDbEntity
  8
Layer_1
 62
1
100
AcDbSpline
 70
8
 71
3
 72
8
 73
4
 74
0
 40
0
 40
0
 40
0
 40
0
 40
1
 40
1
 40
1
 40
1
 10
96.180748
 20
905.425168
 30
0.0
 10
82.124108
 20
902.619379
 30
0.0
 10
66.513800
 20
898.102257
 30
0.0
 10
52.426461
 20
892.624956
 30
0.0
  0
SPLINE
  5
39a
100
AcDbEntity
  8
Layer_1
 62
1
100
AcDbSpline
 70
8
 71
3
 72
8
 73
4
 74
0
 40
0
 40
0
 40
0
 40
0
 40
1
 40
1
 40
1
 40
1
 10
52.426461
 20
892.624956
 30
0.0
 10
38.339122
 20
887.147655
 30
0.0
 10
26.236546
 20
882.041551
 30
0.0
 10
16.605837
 20
871.852331
 30
0.0
  0
SPLINE
  5
39b
100
AcDbEntity
  8
Layer_1
 62
1
100
AcDbSpline
 70
8
 71
3
 72
8
 73
4
 74
0
 40
0
 40
0
 40
0
 40
0
 40
1
 40
1
 40
1
 40
1
 10
16.605837
 20
871.852331
 30
0.0
 10
15.537083
 20
870.720686
 30
0.0
 10
14.619613
 20
869.455205
 30
0.0
 10
13.876385
 20
868.087553
 30
0.0
  0
SPLINE
  5
39c
100
AcDbEntity
  8
Layer_1
 62
1
100
AcDbSpline
 70
8
 71
3
 72
8
 73
4
 74
0
 40
0
 40
0
 40
0
 40
0
 40
1
 40
1
 40
1
 40
1
 10
13.876385
 20
868.087553
 30
0.0
 10
6.766811
 20
855.013515
 30
0.0
 10
3.920174
 20
846.489026
 30
0.0
 10
1.070647
 20
837.819970
 30
0.0
  0
SPLINE
  5
39d
100
AcDbEntity
  8
Layer_1
 62
1
100
AcDbSpline
 70
8
 71
3
 72
8
 73
4
 74
0
 40
0
 40
0
 40
0
 40
0
 40
1
 40
1
 40
1
 40
1
 10
1.070647
 20
837.819970
 30
0.0
 10
-1.808730
 20
829.060149
 30
0.0
 10
-3.711684
 20
820.515988
 30
0.0
 10
-5.113530
 20
812.136520
 30
0.0
  0
SPLINE
  5
39e
100
AcDbEntity
  8
Layer_1
 62
1
100
AcDbSpline
 70
8
 71
3
 72
8
 73
4
 74
0
 40
0
 40
0
 40
0
 40
0
 40
1
 40
1
 40
1
 40
1
 10
-5.113530
 20
812.136520
 30
0.0
 10
-6.532808
 20
820.622089
 30
0.0
 10
-8.456002
 20
829.199047
 30
0.0
 10
-11.281095
 20
837.808887
 30
0.0
  0
SPLINE
  5
39f
100
AcDbEntity
  8
Layer_1
 62
1
100
AcDbSpline
 70
8
 71
3
 72
8
 73
4
 74
0
 40
0
 40
0
 40
0
 40
0
 40
1
 40
1
 40
1
 40
1
 10
-11.281095
 20
837.808887
 30
0.0
 10
-11.281094
 20
837.812666
 30
0.0
 10
-11.281094
 20
837.816446
 30
0.0
 10
-11.281095
 20
837.820225
 30
0.0
  0
SPLINE
  5
3a0
100
AcDbEntity
  8
Layer_1
 62
1
100
AcDbSpline
 70
8
 71
3
 72
8
 73
4
 74
0
 40
0
 40
0
 40
0
 40
0
 40
1
 40
1
 40
1
 40
1
 10
-11.281095
 20
837.820225
 30
0.0
 10
-18.532714
 20
859.881509
 30
0.0
 10
-29.349070
 20
879.230943
 30
0.0
 10
-42.307199
 20
893.887507
 30
0.0
  0
SPLINE
  5
3a1
100
AcDbEntity
  8
Layer_1
 62
1
100
AcDbSpline
 70
8
 71
3
 72
8
 73
4
 74
0
 40
0
 40
0
 40
0
 40
0
 40
1
 40
1
 40
1
 40
1
 10
-42.307199
 20
893.887507
 30
0.0
 10
-55.265300
 20
908.544100
 30
0.0
 10
-70.765568
 20
919.922851
 30
0.0
 10
-90.053234
 20
919.498986
 30
0.0
  0
LWPOLYLINE
  5
3a2
100
AcDbEntity
  8
Layer_1
 62
5
100
AcDbPolyline
 90
2
 70
1
 10
-24.070478
 20
675.829627
 30
0.0
 10
-24.070478
 20
675.829627
 30
0.0
  0
SPLINE
  5
3a3
100
AcDbEntity
  8
Layer_1
 62
1
100
AcDbSpline
 70
8
 71
3
 72
8
 73
4
 74
0
 40
0
 40
0
 40
0
 40
0
 40
1
 40
1
 40
1
 40
1
 10
753.467872
 20
594.894365
 30
0.0
 10
755.113327
 20
594.930648
 30
0.0
 10
756.734035
 20
595.119719
 30
0.0
 10
758.312224
 20
595.464611
 30
0.0
  0
SPLINE
  5
3a4
100
AcDbEntity
  8
Layer_1
 62
1
100
AcDbSpline
 70
8
 71
3
 72
8
 73
4
 74
0
 40
0
 40
0
 40
0
 40
0
 40
1
 40
1
 40
1
 40
1
 10
758.312224
 20
595.464611
 30
0.0
 10
764.825305
 20
596.887149
 30
0.0
 10
770.236955
 20
600.904409
 30
0.0
 10
774.157440
 20
606.493141
 30
0.0
  0
SPLINE
  5
3a5
100
AcDbEntity
  8
Layer_1
 62
1
100
AcDbSpline
 70
8
 71
3
 72
8
 73
4
 74
0
 40
0
 40
0
 40
0
 40
0
 40
1
 40
1
 40
1
 40
1
 10
774.157440
 20
606.493141
 30
0.0
 10
778.077954
 20
612.081900
 30
0.0
 10
780.645547
 20
619.228042
 30
0.0
 10
782.019160
 20
627.448487
 30
0.0
  0
SPLINE
  5
3a6
100
AcDbEntity
  8
Layer_1
 62
1
100
AcDbSpline
 70
8
 71
3
 72
8
 73
4
 74
0
 40
0
 40
0
 40
0
 40
0
 40
1
 40
1
 40
1
 40
1
 10
782.019160
 20
627.448487
 30
0.0
 10
784.766413
 20
643.889404
 30
0.0
 10
782.745680
 20
664.754694
 30
0.0
 10
775.547097
 20
686.654941
 30
0.0
  0
SPLINE
  5
3a7
100
AcDbEntity
  8
Layer_1
 62
1
100
AcDbSpline
 70
8
 71
3
 72
8
 73
4
 74
0
 40
0
 40
0
 40
0
 40
0
 40
1
 40
1
 40
1
 40
1
 10
775.547097
 20
686.654941
 30
0.0
 10
775.545207
 20
686.654942
 30
0.0
 10
775.543317
 20
686.654942
 30
0.0
 10
775.541428
 20
686.654941
 30
0.0
  0
SPLINE
  5
3a8
100
AcDbEntity
  8
Layer_1
 62
1
100
AcDbSpline
 70
8
 71
3
 72
8
 73
4
 74
0
 40
0
 40
0
 40
0
 40
0
 40
1
 40
1
 40
1
 40
1
 10
775.541428
 20
686.654941
 30
0.0
 10
766.245547
 20
714.870608
 30
0.0
 10
750.190879
 20
738.668821
 30
0.0
 10
732.346275
 20
750.589499
 30
0.0
  0
SPLINE
  5
3a9
100
AcDbEntity
  8
Layer_1
 62
1
100
AcDbSpline
 70
8
 71
3
 72
8
 73
4
 74
0
 40
0
 40
0
 40
0
 40
0
 40
1
 40
1
 40
1
 40
1
 10
732.346275
 20
750.589499
 30
0.0
 10
752.078357
 20
771.314700
 30
0.0
 10
765.664445
 20
798.805832
 30
0.0
 10
765.664445
 20
824.245985
 30
0.0
  0
SPLINE
  5
3aa
100
AcDbEntity
  8
Layer_1
 62
1
100
AcDbSpline
 70
8
 71
3
 72
8
 73
4
 74
0
 40
0
 40
0
 40
0
 40
0
 40
1
 40
1
 40
1
 40
1
 10
765.664445
 20
824.245985
 30
0.0
 10
765.664445
 20
848.262919
 30
0.0
 10
753.110281
 20
865.551906
 30
0.0
 10
734.865368
 20
876.144382
 30
0.0
  0
SPLINE
  5
3ab
100
AcDbEntity
  8
Layer_1
 62
1
100
AcDbSpline
 70
8
 71
3
 72
8
 73
4
 74
0
 40
0
 40
0
 40
0
 40
0
 40
1
 40
1
 40
1
 40
1
 10
734.865368
 20
876.144382
 30
0.0
 10
716.620426
 20
886.736830
 30
0.0
 10
692.790240
 20
891.164660
 30
0.0
 10
668.838051
 20
891.164660
 30
0.0
  0
SPLINE
  5
3ac
100
AcDbEntity
  8
Layer_1
 62
1
100
AcDbSpline
 70
8
 71
3
 72
8
 73
4
 74
0
 40
0
 40
0
 40
0
 40
0
 40
1
 40
1
 40
1
 40
1
 10
668.838051
 20
891.164660
 30
0.0
 10
644.885833
 20
891.164660
 30
0.0
 10
621.056016
 20
886.736830
 30
0.0
 10
602.810734
 20
876.144382
 30
0.0
  0
SPLINE
  5
3ad
100
AcDbEntity
  8
Layer_1
 62
1
100
AcDbSpline
 70
8
 71
3
 72
8
 73
4
 74
0
 40
0
 40
0
 40
0
 40
0
 40
1
 40
1
 40
1
 40
1
 10
602.810734
 20
876.144382
 30
0.0
 10
584.565452
 20
865.551934
 30
0.0
 10
572.006101
 20
848.262947
 30
0.0
 10
572.006101
 20
824.245985
 30
0.0
  0
SPLINE
  5
3ae
100
AcDbEntity
  8
Layer_1
 62
1
100
AcDbSpline
 70
8
 71
3
 72
8
 73
4
 74
0
 40
0
 40
0
 40
0
 40
0
 40
1
 40
1
 40
1
 40
1
 10
572.006101
 20
824.245985
 30
0.0
 10
572.006101
 20
798.829077
 30
0.0
 10
585.572460
 20
771.369324
 30
0.0
 10
605.274438
 20
750.650387
 30
0.0
  0
SPLINE
  5
3af
100
AcDbEntity
  8
Layer_1
 62
1
100
AcDbSpline
 70
8
 71
3
 72
8
 73
4
 74
0
 40
0
 40
0
 40
0
 40
0
 40
1
 40
1
 40
1
 40
1
 10
605.274438
 20
750.650387
 30
0.0
 10
587.936186
 20
739.009120
 30
0.0
 10
571.694375
 20
715.755075
 30
0.0
 10
562.129146
 20
686.654941
 30
0.0
  0
SPLINE
  5
3b0
100
AcDbEntity
  8
Layer_1
 62
1
100
AcDbSpline
 70
8
 71
3
 72
8
 73
4
 74
0
 40
0
 40
0
 40
0
 40
0
 40
1
 40
1
 40
1
 40
1
 10
562.129146
 20
686.654941
 30
0.0
 10
561.488233
 20
684.705129
 30
0.0
 10
560.929694
 20
682.772978
 30
0.0
 10
560.374104
 20
680.847233
 30
0.0
  0
SPLINE
  5
3b1
100
AcDbEntity
  8
Layer_1
 62
1
100
AcDbSpline
 70
8
 71
3
 72
8
 73
4
 74
0
 40
0
 40
0
 40
0
 40
0
 40
1
 40
1
 40
1
 40
1
 10
560.374104
 20
680.847233
 30
0.0
 10
557.579143
 20
679.595964
 30
0.0
 10
554.972120
 20
677.958162
 30
0.0
 10
552.855631
 20
675.648549
 30
0.0
  0
SPLINE
  5
3b2
100
AcDbEntity
  8
Layer_1
 62
1
100
AcDbSpline
 70
8
 71
3
 72
8
 73
4
 74
0
 40
0
 40
0
 40
0
 40
0
 40
1
 40
1
 40
1
 40
1
 10
552.855631
 20
675.648549
 30
0.0
 10
546.470961
 20
668.681273
 30
0.0
 10
544.836929
 20
658.373651
 30
0.0
 10
546.488762
 20
647.047398
 30
0.0
  0
SPLINE
  5
3b3
100
AcDbEntity
  8
Layer_1
 62
1
100
AcDbSpline
 70
8
 71
3
 72
8
 73
4
 74
0
 40
0
 40
0
 40
0
 40
0
 40
1
 40
1
 40
1
 40
1
 10
546.488762
 20
647.047398
 30
0.0
 10
548.140595
 20
635.721145
 30
0.0
 10
553.084954
 20
623.067712
 30
0.0
 10
560.756101
 20
610.462750
 30
0.0
  0
SPLINE
  5
3b4
100
AcDbEntity
  8
Layer_1
 62
1
100
AcDbSpline
 70
8
 71
3
 72
8
 73
4
 74
0
 40
0
 40
0
 40
0
 40
0
 40
1
 40
1
 40
1
 40
1
 10
560.756101
 20
610.462750
 30
0.0
 10
561.593042
 20
609.089800
 30
0.0
 10
563.198918
 20
608.386405
 30
0.0
 10
564.775543
 20
608.702180
 30
0.0
  0
SPLINE
  5
3b5
100
AcDbEntity
  8
Layer_1
 62
1
100
AcDbSpline
 70
8
 71
3
 72
8
 73
4
 74
0
 40
0
 40
0
 40
0
 40
0
 40
1
 40
1
 40
1
 40
1
 10
564.775543
 20
608.702180
 30
0.0
 10
577.909902
 20
611.323859
 30
0.0
 10
592.953254
 20
615.673141
 30
0.0
 10
606.165792
 20
620.810313
 30
0.0
  0
SPLINE
  5
3b6
100
AcDbEntity
  8
Layer_1
 62
1
100
AcDbSpline
 70
8
 71
3
 72
8
 73
4
 74
0
 40
0
 40
0
 40
0
 40
0
 40
1
 40
1
 40
1
 40
1
 10
606.165792
 20
620.810313
 30
0.0
 10
619.378359
 20
625.947485
 30
0.0
 10
630.663736
 20
631.585964
 30
0.0
 10
636.826482
 20
638.106103
 30
0.0
  0
SPLINE
  5
3b7
100
AcDbEntity
  8
Layer_1
 62
1
100
AcDbSpline
 70
8
 71
3
 72
8
 73
4
 74
0
 40
0
 40
0
 40
0
 40
0
 40
1
 40
1
 40
1
 40
1
 10
636.826482
 20
638.106103
 30
0.0
 10
637.052282
 20
638.347695
 30
0.0
 10
637.245819
 20
638.617533
 30
0.0
 10
637.402255
 20
638.908875
 30
0.0
  0
SPLINE
  5
3b8
100
AcDbEntity
  8
Layer_1
 62
1
100
AcDbSpline
 70
8
 71
3
 72
8
 73
4
 74
0
 40
0
 40
0
 40
0
 40
0
 40
1
 40
1
 40
1
 40
1
 10
637.402255
 20
638.908875
 30
0.0
 10
644.096271
 20
651.218721
 30
0.0
 10
646.328356
 20
658.113969
 30
0.0
 10
649.194835
 20
666.834558
 30
0.0
  0
SPLINE
  5
3b9
100
AcDbEntity
  8
Layer_1
 62
1
100
AcDbSpline
 70
8
 71
3
 72
8
 73
4
 74
0
 40
0
 40
0
 40
0
 40
0
 40
1
 40
1
 40
1
 40
1
 10
649.194835
 20
666.834558
 30
0.0
 10
655.657969
 20
686.497164
 30
0.0
 10
657.736048
 20
705.142728
 30
0.0
 10
656.148589
 20
720.681774
 30
0.0
  0
SPLINE
  5
3ba
100
AcDbEntity
  8
Layer_1
 62
1
100
AcDbSpline
 70
8
 71
3
 72
8
 73
4
 74
0
 40
0
 40
0
 40
0
 40
0
 40
1
 40
1
 40
1
 40
1
 10
656.148589
 20
720.681774
 30
0.0
 10
660.354693
 20
719.855106
 30
0.0
 10
664.554901
 20
718.926703
 30
0.0
 10
668.838051
 20
718.926703
 30
0.0
  0
SPLINE
  5
3bb
100
AcDbEntity
  8
Layer_1
 62
1
100
AcDbSpline
 70
8
 71
3
 72
8
 73
4
 74
0
 40
0
 40
0
 40
0
 40
0
 40
1
 40
1
 40
1
 40
1
 10
668.838051
 20
718.926703
 30
0.0
 10
673.136621
 20
718.926703
 30
0.0
 10
677.351541
 20
719.860265
 30
0.0
 10
681.571818
 20
720.692829
 30
0.0
  0
SPLINE
  5
3bc
100
AcDbEntity
  8
Layer_1
 62
1
100
AcDbSpline
 70
8
 71
3
 72
8
 73
4
 74
0
 40
0
 40
0
 40
0
 40
0
 40
1
 40
1
 40
1
 40
1
 10
681.571818
 20
720.692829
 30
0.0
 10
679.924917
 20
704.654318
 30
0.0
 10
682.255223
 20
685.792415
 30
0.0
 10
688.475711
 20
666.834558
 30
0.0
  0
SPLINE
  5
3bd
100
AcDbEntity
  8
Layer_1
 62
1
100
AcDbSpline
 70
8
 71
3
 72
8
 73
4
 74
0
 40
0
 40
0
 40
0
 40
0
 40
1
 40
1
 40
1
 40
1
 10
688.475711
 20
666.834558
 30
0.0
 10
695.171030
 20
646.465615
 30
0.0
 10
705.263475
 20
628.613753
 30
0.0
 10
716.656086
 20
615.727906
 30
0.0
  0
SPLINE
  5
3be
100
AcDbEntity
  8
Layer_1
 62
1
100
AcDbSpline
 70
8
 71
3
 72
8
 73
4
 74
0
 40
0
 40
0
 40
0
 40
0
 40
1
 40
1
 40
1
 40
1
 10
716.656086
 20
615.727906
 30
0.0
 10
728.048697
 20
602.842032
 30
0.0
 10
740.824955
 20
594.616513
 30
0.0
 10
753.467730
 20
594.894365
 30
0.0
  0
LWPOLYLINE
  5
3bf
100
AcDbEntity
  8
Layer_1
 62
1
100
AcDbPolyline
 90
2
 70
1
 10
-90.053234
 20
919.498986
 30
0.0
 10
-90.053121
 20
919.499014
 30
0.0
  0
LWPOLYLINE
  5
3c0
100
AcDbEntity
  8
Layer_1
 62
1
100
AcDbPolyline
 90
2
 70
1
 10
753.467730
 20
594.894365
 30
0.0
 10
753.467872
 20
594.894365
 30
0.0
  0
SPLINE
  5
3c1
100
AcDbEntity
  8
Layer_1
 62
1
100
AcDbSpline
 70
8
 71
3
 72
8
 73
4
 74
0
 40
0
 40
0
 40
0
 40
0
 40
1
 40
1
 40
1
 40
1
 10
752.986067
 20
616.718899
 30
0.0
 10
750.573302
 20
616.668158
 30
0.0
 10
741.983957
 20
620.027752
 30
0.0
 10
733.005131
 20
630.183466
 30
0.0
  0
SPLINE
  5
3c2
100
AcDbEntity
  8
Layer_1
 62
1
100
AcDbSpline
 70
8
 71
3
 72
8
 73
4
 74
0
 40
0
 40
0
 40
0
 40
0
 40
1
 40
1
 40
1
 40
1
 10
733.005131
 20
630.183466
 30
0.0
 10
724.023415
 20
640.342440
 30
0.0
 10
715.048246
 20
655.887156
 30
0.0
 10
709.209613
 20
673.649897
 30
0.0
  0
SPLINE
  5
3c3
100
AcDbEntity
  8
Layer_1
 62
1
100
AcDbSpline
 70
8
 71
3
 72
8
 73
4
 74
0
 40
0
 40
0
 40
0
 40
0
 40
1
 40
1
 40
1
 40
1
 10
709.209613
 20
673.649897
 30
0.0
 10
703.240756
 20
691.846481
 30
0.0
 10
701.548643
 20
710.108432
 30
0.0
 10
703.529238
 20
722.193207
 30
0.0
  0
SPLINE
  5
3c4
100
AcDbEntity
  8
Layer_1
 62
1
100
AcDbSpline
 70
8
 71
3
 72
8
 73
4
 74
0
 40
0
 40
0
 40
0
 40
0
 40
1
 40
1
 40
1
 40
1
 10
703.529238
 20
722.193207
 30
0.0
 10
704.519725
 20
728.241193
 30
0.0
 10
702.365263
 20
734.377618
 30
0.0
 10
697.811389
 20
738.479013
 30
0.0
  0
SPLINE
  5
3c5
100
AcDbEntity
  8
Layer_1
 62
1
100
AcDbSpline
 70
8
 71
3
 72
8
 73
4
 74
0
 40
0
 40
0
 40
0
 40
0
 40
1
 40
1
 40
1
 40
1
 10
697.811389
 20
738.479013
 30
0.0
 10
693.257516
 20
742.580407
 30
0.0
 10
686.929894
 20
744.083274
 30
0.0
 10
681.018155
 20
742.467558
 30
0.0
  0
SPLINE
  5
3c6
100
AcDbEntity
  8
Layer_1
 62
1
100
AcDbSpline
 70
8
 71
3
 72
8
 73
4
 74
0
 40
0
 40
0
 40
0
 40
0
 40
1
 40
1
 40
1
 40
1
 10
681.018155
 20
742.467558
 30
0.0
 10
676.833537
 20
741.323694
 30
0.0
 10
672.771717
 20
740.751265
 30
0.0
 10
668.838051
 20
740.751265
 30
0.0
  0
SPLINE
  5
3c7
100
AcDbEntity
  8
Layer_1
 62
1
100
AcDbSpline
 70
8
 71
3
 72
8
 73
4
 74
0
 40
0
 40
0
 40
0
 40
0
 40
1
 40
1
 40
1
 40
1
 10
668.838051
 20
740.751265
 30
0.0
 10
664.911103
 20
740.751265
 30
0.0
 10
660.853024
 20
741.323750
 30
0.0
 10
656.680085
 20
742.462031
 30
0.0
  0
SPLINE
  5
3c8
100
AcDbEntity
  8
Layer_1
 62
1
100
AcDbSpline
 70
8
 71
3
 72
8
 73
4
 74
0
 40
0
 40
0
 40
0
 40
0
 40
1
 40
1
 40
1
 40
1
 10
656.680085
 20
742.462031
 30
0.0
 10
650.772367
 20
744.073496
 30
0.0
 10
644.450622
 20
742.571319
 30
0.0
 10
639.899293
 20
738.474569
 30
0.0
  0
SPLINE
  5
3c9
100
AcDbEntity
  8
Layer_1
 62
1
100
AcDbSpline
 70
8
 71
3
 72
8
 73
4
 74
0
 40
0
 40
0
 40
0
 40
0
 40
1
 40
1
 40
1
 40
1
 10
639.899293
 20
738.474569
 30
0.0
 10
635.347964
 20
734.377819
 30
0.0
 10
633.191302
 20
728.248397
 30
0.0
 10
634.174529
 20
722.204291
 30
0.0
  0
SPLINE
  5
3ca
100
AcDbEntity
  8
Layer_1
 62
1
100
AcDbSpline
 70
8
 71
3
 72
8
 73
4
 74
0
 40
0
 40
0
 40
0
 40
0
 40
1
 40
1
 40
1
 40
1
 10
634.174529
 20
722.204291
 30
0.0
 10
636.078448
 20
710.499698
 30
0.0
 10
634.701207
 20
692.634399
 30
0.0
 10
628.460961
 20
673.649897
 30
0.0
  0
SPLINE
  5
3cb
100
AcDbEntity
  8
Layer_1
 62
1
100
AcDbSpline
 70
8
 71
3
 72
8
 73
4
 74
0
 40
0
 40
0
 40
0
 40
0
 40
1
 40
1
 40
1
 40
1
 10
628.460961
 20
673.649897
 30
0.0
 10
625.893962
 20
665.840420
 30
0.0
 10
624.138608
 20
660.924860
 30
0.0
 10
619.646970
 20
652.268249
 30
0.0
  0
SPLINE
  5
3cc
100
AcDbEntity
  8
Layer_1
 62
1
100
AcDbSpline
 70
8
 71
3
 72
8
 73
4
 74
0
 40
0
 40
0
 40
0
 40
0
 40
1
 40
1
 40
1
 40
1
 10
619.646970
 20
652.268249
 30
0.0
 10
617.433821
 20
650.608252
 30
0.0
 10
609.040095
 20
645.344768
 30
0.0
 10
598.254268
 20
641.151108
 30
0.0
  0
SPLINE
  5
3cd
100
AcDbEntity
  8
Layer_1
 62
1
100
AcDbSpline
 70
8
 71
3
 72
8
 73
4
 74
0
 40
0
 40
0
 40
0
 40
0
 40
1
 40
1
 40
1
 40
1
 10
598.254268
 20
641.151108
 30
0.0
 10
590.530964
 20
638.148226
 30
0.0
 10
582.003783
 20
635.589448
 30
0.0
 10
573.639339
 20
633.366915
 30
0.0
  0
SPLINE
  5
3ce
100
AcDbEntity
  8
Layer_1
 62
1
100
AcDbSpline
 70
8
 71
3
 72
8
 73
4
 74
0
 40
0
 40
0
 40
0
 40
0
 40
1
 40
1
 40
1
 40
1
 10
573.639339
 20
633.366915
 30
0.0
 10
570.864050
 20
639.640412
 30
0.0
 10
568.760970
 20
645.571795
 30
0.0
 10
568.086324
 20
650.197625
 30
0.0
  0
SPLINE
  5
3cf
100
AcDbEntity
  8
Layer_1
 62
1
100
AcDbSpline
 70
8
 71
3
 72
8
 73
4
 74
0
 40
0
 40
0
 40
0
 40
0
 40
1
 40
1
 40
1
 40
1
 10
568.086324
 20
650.197625
 30
0.0
 10
567.006013
 20
657.604951
 30
0.0
 10
568.669780
 20
660.599783
 30
0.0
 10
568.944457
 20
660.899519
 30
0.0
  0
SPLINE
  5
3d0
100
AcDbEntity
  8
Layer_1
 62
1
100
AcDbSpline
 70
8
 71
3
 72
8
 73
4
 74
0
 40
0
 40
0
 40
0
 40
0
 40
1
 40
1
 40
1
 40
1
 10
568.944457
 20
660.899519
 30
0.0
 10
569.050189
 20
661.014889
 30
0.0
 10
568.941622
 20
660.983991
 30
0.0
 10
569.403981
 20
661.143015
 30
0.0
  0
SPLINE
  5
3d1
100
AcDbEntity
  8
Layer_1
 62
1
100
AcDbSpline
 70
8
 71
3
 72
8
 73
4
 74
0
 40
0
 40
0
 40
0
 40
0
 40
1
 40
1
 40
1
 40
1
 10
569.403981
 20
661.143015
 30
0.0
 10
575.012870
 20
663.068165
 30
0.0
 10
579.313851
 20
667.632137
 30
0.0
 10
580.903118
 20
673.345286
 30
0.0
  0
SPLINE
  5
3d2
100
AcDbEntity
  8
Layer_1
 62
1
100
AcDbSpline
 70
8
 71
3
 72
8
 73
4
 74
0
 40
0
 40
0
 40
0
 40
0
 40
1
 40
1
 40
1
 40
1
 10
580.903118
 20
673.345286
 30
0.0
 10
581.505282
 20
675.510729
 30
0.0
 10
582.152545
 20
677.672458
 30
0.0
 10
582.863021
 20
679.833961
 30
0.0
  0
SPLINE
  5
3d3
100
AcDbEntity
  8
Layer_1
 62
1
100
AcDbSpline
 70
8
 71
3
 72
8
 73
4
 74
0
 40
0
 40
0
 40
0
 40
0
 40
1
 40
1
 40
1
 40
1
 10
582.863021
 20
679.833961
 30
0.0
 10
591.795896
 20
707.010249
 30
0.0
 10
608.881751
 20
728.315759
 30
0.0
 10
619.652526
 20
734.423032
 30
0.0
  0
SPLINE
  5
3d4
100
AcDbEntity
  8
Layer_1
 62
1
100
AcDbSpline
 70
8
 71
3
 72
8
 73
4
 74
0
 40
0
 40
0
 40
0
 40
0
 40
1
 40
1
 40
1
 40
1
 10
619.652526
 20
734.423032
 30
0.0
 10
624.563716
 20
737.209050
 30
0.0
 10
627.883192
 20
742.137945
 30
0.0
 10
628.618606
 20
747.736235
 30
0.0
  0
SPLINE
  5
3d5
100
AcDbEntity
  8
Layer_1
 62
1
100
AcDbSpline
 70
8
 71
3
 72
8
 73
4
 74
0
 40
0
 40
0
 40
0
 40
0
 40
1
 40
1
 40
1
 40
1
 10
628.618606
 20
747.736235
 30
0.0
 10
629.354019
 20
753.334525
 30
0.0
 10
627.420155
 20
758.953520
 30
0.0
 10
623.395137
 20
762.913433
 30
0.0
  0
SPLINE
  5
3d6
100
AcDbEntity
  8
Layer_1
 62
1
100
AcDbSpline
 70
8
 71
3
 72
8
 73
4
 74
0
 40
0
 40
0
 40
0
 40
0
 40
1
 40
1
 40
1
 40
1
 10
623.395137
 20
762.913433
 30
0.0
 10
605.742183
 20
780.277000
 30
0.0
 10
593.836189
 20
805.744110
 30
0.0
 10
593.836189
 20
824.245872
 30
0.0
  0
SPLINE
  5
3d7
100
AcDbEntity
  8
Layer_1
 62
1
100
AcDbSpline
 70
8
 71
3
 72
8
 73
4
 74
0
 40
0
 40
0
 40
0
 40
0
 40
1
 40
1
 40
1
 40
1
 10
593.836189
 20
824.245872
 30
0.0
 10
593.836189
 20
840.889778
 30
0.0
 10
600.442728
 20
849.529382
 30
0.0
 10
613.767292
 20
857.265074
 30
0.0
  0
SPLINE
  5
3d8
100
AcDbEntity
  8
Layer_1
 62
1
100
AcDbSpline
 70
8
 71
3
 72
8
 73
4
 74
0
 40
0
 40
0
 40
0
 40
0
 40
1
 40
1
 40
1
 40
1
 10
613.767292
 20
857.265074
 30
0.0
 10
627.091884
 20
865.000766
 30
0.0
 10
647.619991
 20
869.334457
 30
0.0
 10
668.838051
 20
869.334457
 30
0.0
  0
SPLINE
  5
3d9
100
AcDbEntity
  8
Layer_1
 62
1
100
AcDbSpline
 70
8
 71
3
 72
8
 73
4
 74
0
 40
0
 40
0
 40
0
 40
0
 40
1
 40
1
 40
1
 40
1
 10
668.838051
 20
869.334457
 30
0.0
 10
690.056082
 20
869.334457
 30
0.0
 10
710.579116
 20
865.000680
 30
0.0
 10
723.903254
 20
857.265074
 30
0.0
  0
SPLINE
  5
3da
100
AcDbEntity
  8
Layer_1
 62
1
100
AcDbSpline
 70
8
 71
3
 72
8
 73
4
 74
0
 40
0
 40
0
 40
0
 40
0
 40
1
 40
1
 40
1
 40
1
 10
723.903254
 20
857.265074
 30
0.0
 10
737.227393
 20
849.529467
 30
0.0
 10
743.839884
 20
840.889977
 30
0.0
 10
743.839884
 20
824.245872
 30
0.0
  0
SPLINE
  5
3db
100
AcDbEntity
  8
Layer_1
 62
1
100
AcDbSpline
 70
8
 71
3
 72
8
 73
4
 74
0
 40
0
 40
0
 40
0
 40
0
 40
1
 40
1
 40
1
 40
1
 10
743.839884
 20
824.245872
 30
0.0
 10
743.839884
 20
805.726252
 30
0.0
 10
731.908379
 20
780.233913
 30
0.0
 10
714.231131
 20
762.869156
 30
0.0
  0
SPLINE
  5
3dc
100
AcDbEntity
  8
Layer_1
 62
1
100
AcDbSpline
 70
8
 71
3
 72
8
 73
4
 74
0
 40
0
 40
0
 40
0
 40
0
 40
1
 40
1
 40
1
 40
1
 10
714.231131
 20
762.869156
 30
0.0
 10
710.193676
 20
758.903747
 30
0.0
 10
708.255917
 20
753.270593
 30
0.0
 10
708.999492
 20
747.660548
 30
0.0
  0
SPLINE
  5
3dd
100
AcDbEntity
  8
Layer_1
 62
1
100
AcDbSpline
 70
8
 71
3
 72
8
 73
4
 74
0
 40
0
 40
0
 40
0
 40
0
 40
1
 40
1
 40
1
 40
1
 10
708.999492
 20
747.660548
 30
0.0
 10
709.743068
 20
742.050503
 30
0.0
 10
713.081415
 20
737.116664
 30
0.0
 10
718.012492
 20
734.339977
 30
0.0
  0
SPLINE
  5
3de
100
AcDbEntity
  8
Layer_1
 62
1
100
AcDbSpline
 70
8
 71
3
 72
8
 73
4
 74
0
 40
0
 40
0
 40
0
 40
0
 40
1
 40
1
 40
1
 40
1
 10
718.012492
 20
734.339977
 30
0.0
 10
729.159623
 20
728.064382
 30
0.0
 10
746.155563
 20
706.086154
 30
0.0
 10
754.807525
 20
679.833961
 30
0.0
  0
LWPOLYLINE
  5
3df
100
AcDbEntity
  8
Layer_1
 62
1
100
AcDbPolyline
 90
2
 70
1
 10
752.991736
 20
616.718899
 30
0.0
 10
752.986067
 20
616.718899
 30
0.0
  0
SPLINE
  5
3e0
100
AcDbEntity
  8
Layer_1
 62
1
100
AcDbSpline
 70
8
 71
3
 72
8
 73
4
 74
0
 40
0
 40
0
 40
0
 40
0
 40
1
 40
1
 40
1
 40
1
 10
754.813194
 20
679.822622
 30
0.0
 10
761.091708
 20
660.715749
 30
0.0
 10
762.441453
 20
642.737206
 30
0.0
 10
760.488013
 20
631.046786
 30
0.0
  0
SPLINE
  5
3e1
100
AcDbEntity
  8
Layer_1
 62
1
100
AcDbSpline
 70
8
 71
3
 72
8
 73
4
 74
0
 40
0
 40
0
 40
0
 40
0
 40
1
 40
1
 40
1
 40
1
 10
760.488013
 20
631.046786
 30
0.0
 10
759.511081
 20
625.200357
 30
0.0
 10
757.715361
 20
621.065006
 30
0.0
 10
756.285878
 20
619.027236
 30
0.0
  0
SPLINE
  5
3e2
100
AcDbEntity
  8
Layer_1
 62
1
100
AcDbSpline
 70
8
 71
3
 72
8
 73
4
 74
0
 40
0
 40
0
 40
0
 40
0
 40
1
 40
1
 40
1
 40
1
 10
756.285878
 20
619.027236
 30
0.0
 10
754.856366
 20
616.989466
 30
0.0
 10
754.441487
 20
616.962055
 30
0.0
 10
753.656064
 20
616.790530
 30
0.0
  0
SPLINE
  5
3e3
100
AcDbEntity
  8
Layer_1
 62
1
100
AcDbSpline
 70
8
 71
3
 72
8
 73
4
 74
0
 40
0
 40
0
 40
0
 40
0
 40
1
 40
1
 40
1
 40
1
 10
753.656064
 20
616.790530
 30
0.0
 10
753.492788
 20
616.754814
 30
0.0
 10
753.282089
 20
616.725333
 30
0.0
 10
752.991708
 20
616.718530
 30
0.0
  0
LWPOLYLINE
  5
3e4
100
AcDbEntity
  8
Layer_1
 62
1
100
AcDbPolyline
 90
2
 70
1
 10
754.807525
 20
679.833961
 30
0.0
 10
754.813194
 20
679.822622
 30
0.0
  0
SPLINE
  5
3e5
100
AcDbEntity
  8
Layer_1
 62
3
100
AcDbSpline
 70
8
 71
3
 72
8
 73
4
 74
0
 40
0
 40
0
 40
0
 40
0
 40
1
 40
1
 40
1
 40
1
 10
847.689113
 20
719.713649
 30
0.0
 10
847.689109
 20
714.691284
 30
0.0
 10
843.617679
 20
710.619854
 30
0.0
 10
838.595314
 20
710.619850
 30
0.0
  0
SPLINE
  5
3e6
100
AcDbEntity
  8
Layer_1
 62
3
100
AcDbSpline
 70
8
 71
3
 72
8
 73
4
 74
0
 40
0
 40
0
 40
0
 40
0
 40
1
 40
1
 40
1
 40
1
 10
838.595314
 20
710.619850
 30
0.0
 10
833.572950
 20
710.619854
 30
0.0
 10
829.501519
 20
714.691284
 30
0.0
 10
829.501516
 20
719.713649
 30
0.0
  0
SPLINE
  5
3e7
100
AcDbEntity
  8
Layer_1
 62
3
100
AcDbSpline
 70
8
 71
3
 72
8
 73
4
 74
0
 40
0
 40
0
 40
0
 40
0
 40
1
 40
1
 40
1
 40
1
 10
829.501516
 20
719.713649
 30
0.0
 10
829.501510
 20
722.125479
 30
0.0
 10
830.459601
 20
724.438529
 30
0.0
 10
832.165020
 20
726.143952
 30
0.0
  0
SPLINE
  5
3e8
100
AcDbEntity
  8
Layer_1
 62
3
100
AcDbSpline
 70
8
 71
3
 72
8
 73
4
 74
0
 40
0
 40
0
 40
0
 40
0
 40
1
 40
1
 40
1
 40
1
 10
832.165020
 20
726.143952
 30
0.0
 10
833.870438
 20
727.849376
 30
0.0
 10
836.183485
 20
728.807475
 30
0.0
 10
838.595314
 20
728.807476
 30
0.0
  0
SPLINE
  5
3e9
100
AcDbEntity
  8
Layer_1
 62
3
100
AcDbSpline
 70
8
 71
3
 72
8
 73
4
 74
0
 40
0
 40
0
 40
0
 40
0
 40
1
 40
1
 40
1
 40
1
 10
838.595314
 20
728.807476
 30
0.0
 10
841.007144
 20
728.807475
 30
0.0
 10
843.320191
 20
727.849376
 30
0.0
 10
845.025609
 20
726.143952
 30
0.0
  0
SPLINE
  5
3ea
100
AcDbEntity
  8
Layer_1
 62
3
100
AcDbSpline
 70
8
 71
3
 72
8
 73
4
 74
0
 40
0
 40
0
 40
0
 40
0
 40
1
 40
1
 40
1
 40
1
 10
845.025609
 20
726.143952
 30
0.0
 10
846.731028
 20
724.438529
 30
0.0
 10
847.689119
 20
722.125479
 30
0.0
 10
847.689113
 20
719.713649
 30
0.0
  0
LWPOLYLINE
  5
3eb
100
AcDbEntity
  8
Layer_1
 62
1
100
AcDbPolyline
 90
2
 70
1
 10
752.991708
 20
616.718530
 30
0.0
 10
752.991736
 20
616.718899
 30
0.0
  0
SPLINE
  5
3ec
100
AcDbEntity
  8
Layer_1
 62
3
100
AcDbSpline
 70
8
 71
3
 72
8
 73
4
 74
0
 40
0
 40
0
 40
0
 40
0
 40
1
 40
1
 40
1
 40
1
 10
902.653148
 20
719.713649
 30
0.0
 10
902.653144
 20
714.691284
 30
0.0
 10
898.581714
 20
710.619854
 30
0.0
 10
893.559349
 20
710.619850
 30
0.0
  0
SPLINE
  5
3ed
100
AcDbEntity
  8
Layer_1
 62
3
100
AcDbSpline
 70
8
 71
3
 72
8
 73
4
 74
0
 40
0
 40
0
 40
0
 40
0
 40
1
 40
1
 40
1
 40
1
 10
893.559349
 20
710.619850
 30
0.0
 10
888.536985
 20
710.619854
 30
0.0
 10
884.465554
 20
714.691284
 30
0.0
 10
884.465551
 20
719.713649
 30
0.0
  0
SPLINE
  5
3ee
100
AcDbEntity
  8
Layer_1
 62
3
100
AcDbSpline
 70
8
 71
3
 72
8
 73
4
 74
0
 40
0
 40
0
 40
0
 40
0
 40
1
 40
1
 40
1
 40
1
 10
884.465551
 20
719.713649
 30
0.0
 10
884.465545
 20
722.125479
 30
0.0
 10
885.423636
 20
724.438529
 30
0.0
 10
887.129055
 20
726.143952
 30
0.0
  0
SPLINE
  5
3ef
100
AcDbEntity
  8
Layer_1
 62
3
100
AcDbSpline
 70
8
 71
3
 72
8
 73
4
 74
0
 40
0
 40
0
 40
0
 40
0
 40
1
 40
1
 40
1
 40
1
 10
887.129055
 20
726.143952
 30
0.0
 10
888.834473
 20
727.849376
 30
0.0
 10
891.147520
 20
728.807475
 30
0.0
 10
893.559349
 20
728.807476
 30
0.0
  0
SPLINE
  5
3f0
100
AcDbEntity
  8
Layer_1
 62
3
100
AcDbSpline
 70
8
 71
3
 72
8
 73
4
 74
0
 40
0
 40
0
 40
0
 40
0
 40
1
 40
1
 40
1
 40
1
 10
893.559349
 20
728.807476
 30
0.0
 10
895.971179
 20
728.807475
 30
0.0
 10
898.284226
 20
727.849376
 30
0.0
 10
899.989644
 20
726.143952
 30
0.0
  0
SPLINE
  5
3f1
100
AcDbEntity
  8
Layer_1
 62
3
100
AcDbSpline
 70
8
 71
3
 72
8
 73
4
 74
0
 40
0
 40
0
 40
0
 40
0
 40
1
 40
1
 40
1
 40
1
 10
899.989644
 20
726.143952
 30
0.0
 10
901.695063
 20
724.438529
 30
0.0
 10
902.653154
 20
722.125479
 30
0.0
 10
902.653148
 20
719.713649
 30
0.0
  0
LWPOLYLINE
  5
3f2
100
AcDbEntity
  8
Layer_1
 62
3
100
AcDbPolyline
 90
2
 70
1
 10
847.689113
 20
719.713649
 30
0.0
 10
847.689113
 20
719.713649
 30
0.0
  0
SPLINE
  5
3f3
100
AcDbEntity
  8
Layer_1
 62
1
100
AcDbSpline
 70
8
 71
3
 72
8
 73
4
 74
0
 40
0
 40
0
 40
0
 40
0
 40
1
 40
1
 40
1
 40
1
 10
781.627015
 20
919.505985
 30
0.0
 10
790.681497
 20
919.704977
 30
0.0
 10
801.995135
 20
913.187644
 30
0.0
 10
812.542369
 20
901.257952
 30
0.0
  0
SPLINE
  5
3f4
100
AcDbEntity
  8
Layer_1
 62
1
100
AcDbSpline
 70
8
 71
3
 72
8
 73
4
 74
0
 40
0
 40
0
 40
0
 40
0
 40
1
 40
1
 40
1
 40
1
 10
812.542369
 20
901.257952
 30
0.0
 10
823.089576
 20
889.328289
 30
0.0
 10
832.788656
 20
872.291528
 30
0.0
 10
839.183588
 20
852.836447
 30
0.0
  0
LWPOLYLINE
  5
3f5
100
AcDbEntity
  8
Layer_1
 62
3
100
AcDbPolyline
 90
2
 70
1
 10
902.653148
 20
719.713649
 30
0.0
 10
902.653148
 20
719.713649
 30
0.0
  0
SPLINE
  5
3f6
100
AcDbEntity
  8
Layer_1
 62
1
100
AcDbSpline
 70
8
 71
3
 72
8
 73
4
 74
0
 40
0
 40
0
 40
0
 40
0
 40
1
 40
1
 40
1
 40
1
 10
839.177919
 20
852.836447
 30
0.0
 10
845.728927
 20
832.871331
 30
0.0
 10
847.886092
 20
812.837094
 30
0.0
 10
845.384234
 20
797.571931
 30
0.0
  0
SPLINE
  5
3f7
100
AcDbEntity
  8
Layer_1
 62
1
100
AcDbSpline
 70
8
 71
3
 72
8
 73
4
 74
0
 40
0
 40
0
 40
0
 40
0
 40
1
 40
1
 40
1
 40
1
 10
845.384234
 20
797.571931
 30
0.0
 10
845.172203
 20
796.285008
 30
0.0
 10
845.630159
 20
794.978700
 30
0.0
 10
846.599339
 20
794.105878
 30
0.0
  0
SPLINE
  5
3f8
100
AcDbEntity
  8
Layer_1
 62
1
100
AcDbSpline
 70
8
 71
3
 72
8
 73
4
 74
0
 40
0
 40
0
 40
0
 40
0
 40
1
 40
1
 40
1
 40
1
 10
846.599339
 20
794.105878
 30
0.0
 10
847.568519
 20
793.233056
 30
0.0
 10
848.915479
 20
792.913897
 30
0.0
 10
850.173255
 20
793.259046
 30
0.0
  0
SPLINE
  5
3f9
100
AcDbEntity
  8
Layer_1
 62
1
100
AcDbSpline
 70
8
 71
3
 72
8
 73
4
 74
0
 40
0
 40
0
 40
0
 40
0
 40
1
 40
1
 40
1
 40
1
 10
850.173255
 20
793.259046
 30
0.0
 10
855.454313
 20
794.702646
 30
0.0
 10
860.779110
 20
795.479169
 30
0.0
 10
866.090442
 20
795.479169
 30
0.0
  0
SPLINE
  5
3fa
100
AcDbEntity
  8
Layer_1
 62
1
100
AcDbSpline
 70
8
 71
3
 72
8
 73
4
 74
0
 40
0
 40
0
 40
0
 40
0
 40
1
 40
1
 40
1
 40
1
 10
866.090442
 20
795.479169
 30
0.0
 10
871.390549
 20
795.479169
 30
0.0
 10
876.710669
 20
794.707465
 30
0.0
 10
881.979963
 20
793.270129
 30
0.0
  0
SPLINE
  5
3fb
100
AcDbEntity
  8
Layer_1
 62
1
100
AcDbSpline
 70
8
 71
3
 72
8
 73
4
 74
0
 40
0
 40
0
 40
0
 40
0
 40
1
 40
1
 40
1
 40
1
 10
881.979963
 20
793.270129
 30
0.0
 10
883.235883
 20
792.927965
 30
0.0
 10
884.579609
 20
793.247614
 30
0.0
 10
885.546929
 20
794.118649
 30
0.0
  0
SPLINE
  5
3fc
100
AcDbEntity
  8
Layer_1
 62
1
100
AcDbSpline
 70
8
 71
3
 72
8
 73
4
 74
0
 40
0
 40
0
 40
0
 40
0
 40
1
 40
1
 40
1
 40
1
 10
885.546929
 20
794.118649
 30
0.0
 10
886.514249
 20
794.989684
 30
0.0
 10
886.972521
 20
796.292667
 30
0.0
 10
886.763428
 20
797.577458
 30
0.0
  0
SPLINE
  5
3fd
100
AcDbEntity
  8
Layer_1
 62
1
100
AcDbSpline
 70
8
 71
3
 72
8
 73
4
 74
0
 40
0
 40
0
 40
0
 40
0
 40
1
 40
1
 40
1
 40
1
 10
886.763428
 20
797.577458
 30
0.0
 10
884.364694
 20
812.323995
 30
0.0
 10
886.170930
 20
832.051545
 30
0.0
 10
893.002965
 20
852.836447
 30
0.0
  0
SPLINE
  5
3fe
100
AcDbEntity
  8
Layer_1
 62
1
100
AcDbSpline
 70
8
 71
3
 72
8
 73
4
 74
0
 40
0
 40
0
 40
0
 40
0
 40
1
 40
1
 40
1
 40
1
 10
893.002965
 20
852.836447
 30
0.0
 10
895.819327
 20
861.404558
 30
0.0
 10
897.805478
 20
867.478382
 30
0.0
 10
903.959551
 20
878.896367
 30
0.0
  0
SPLINE
  5
3ff
100
AcDbEntity
  8
Layer_1
 62
1
100
AcDbSpline
 70
8
 71
3
 72
8
 73
4
 74
0
 40
0
 40
0
 40
0
 40
0
 40
1
 40
1
 40
1
 40
1
 10
903.959551
 20
878.896367
 30
0.0
 10
908.366149
 20
883.410342
 30
0.0
 10
918.969538
 20
889.229841
 30
0.0
 10
931.536430
 20
894.115977
 30
0.0
  0
SPLINE
  5
400
100
AcDbEntity
  8
Layer_1
 62
1
100
AcDbSpline
 70
8
 71
3
 72
8
 73
4
 74
0
 40
0
 40
0
 40
0
 40
0
 40
1
 40
1
 40
1
 40
1
 10
931.536430
 20
894.115977
 30
0.0
 10
943.387035
 20
898.723606
 30
0.0
 10
956.848937
 20
902.593807
 30
0.0
 10
968.857431
 20
905.161146
 30
0.0
  0
SPLINE
  5
401
100
AcDbEntity
  8
Layer_1
 62
1
100
AcDbSpline
 70
8
 71
3
 72
8
 73
4
 74
0
 40
0
 40
0
 40
0
 40
0
 40
1
 40
1
 40
1
 40
1
 10
968.857431
 20
905.161146
 30
0.0
 10
975.242896
 20
894.104412
 30
0.0
 10
979.515671
 20
883.166279
 30
0.0
 10
980.865926
 20
873.908042
 30
0.0
  0
SPLINE
  5
402
100
AcDbEntity
  8
Layer_1
 62
1
100
AcDbSpline
 70
8
 71
3
 72
8
 73
4
 74
0
 40
0
 40
0
 40
0
 40
0
 40
1
 40
1
 40
1
 40
1
 10
980.865926
 20
873.908042
 30
0.0
 10
982.317350
 20
863.955966
 30
0.0
 10
980.673454
 20
856.208995
 30
0.0
 10
976.431236
 20
851.579678
 30
0.0
  0
SPLINE
  5
403
100
AcDbEntity
  8
Layer_1
 62
1
100
AcDbSpline
 70
8
 71
3
 72
8
 73
4
 74
0
 40
0
 40
0
 40
0
 40
0
 40
1
 40
1
 40
1
 40
1
 10
976.431236
 20
851.579678
 30
0.0
 10
974.696093
 20
849.686192
 30
0.0
 10
972.622096
 20
848.367656
 30
0.0
 10
970.125255
 20
847.510403
 30
0.0
  0
SPLINE
  5
404
100
AcDbEntity
  8
Layer_1
 62
1
100
AcDbSpline
 70
8
 71
3
 72
8
 73
4
 74
0
 40
0
 40
0
 40
0
 40
0
 40
1
 40
1
 40
1
 40
1
 10
970.125255
 20
847.510403
 30
0.0
 10
968.933457
 20
847.099783
 30
0.0
 10
968.020285
 20
846.128629
 30
0.0
 10
967.683718
 20
844.913839
 30
0.0
  0
SPLINE
  5
405
100
AcDbEntity
  8
Layer_1
 62
1
100
AcDbSpline
 70
8
 71
3
 72
8
 73
4
 74
0
 40
0
 40
0
 40
0
 40
0
 40
1
 40
1
 40
1
 40
1
 10
967.683718
 20
844.913839
 30
0.0
 10
967.027441
 20
842.553798
 30
0.0
 10
966.314046
 20
840.179158
 30
0.0
 10
965.530039
 20
837.794002
 30
0.0
  0
SPLINE
  5
406
100
AcDbEntity
  8
Layer_1
 62
1
100
AcDbSpline
 70
8
 71
3
 72
8
 73
4
 74
0
 40
0
 40
0
 40
0
 40
0
 40
1
 40
1
 40
1
 40
1
 10
965.530039
 20
837.794002
 30
0.0
 10
955.750313
 20
808.041384
 30
0.0
 10
938.188294
 20
784.331357
 30
0.0
 10
922.268471
 20
775.304456
 30
0.0
  0
SPLINE
  5
407
100
AcDbEntity
  8
Layer_1
 62
1
100
AcDbSpline
 70
8
 71
3
 72
8
 73
4
 74
0
 40
0
 40
0
 40
0
 40
0
 40
1
 40
1
 40
1
 40
1
 10
922.268471
 20
775.304456
 30
0.0
 10
921.224192
 20
774.712425
 30
0.0
 10
920.518195
 20
773.664725
 30
0.0
 10
920.361538
 20
772.474568
 30
0.0
  0
SPLINE
  5
408
100
AcDbEntity
  8
Layer_1
 62
1
100
AcDbSpline
 70
8
 71
3
 72
8
 73
4
 74
0
 40
0
 40
0
 40
0
 40
0
 40
1
 40
1
 40
1
 40
1
 10
920.361538
 20
772.474568
 30
0.0
 10
920.204881
 20
771.284410
 30
0.0
 10
920.615718
 20
770.089704
 30
0.0
 10
921.471227
 20
769.247611
 30
0.0
  0
SPLINE
  5
409
100
AcDbEntity
  8
Layer_1
 62
1
100
AcDbSpline
 70
8
 71
3
 72
8
 73
4
 74
0
 40
0
 40
0
 40
0
 40
0
 40
1
 40
1
 40
1
 40
1
 10
921.471227
 20
769.247611
 30
0.0
 10
941.527110
 20
749.520545
 30
0.0
 10
955.265532
 20
721.637325
 30
0.0
 10
955.265532
 20
697.811219
 30
0.0
  0
SPLINE
  5
40a
100
AcDbEntity
  8
Layer_1
 62
1
100
AcDbSpline
 70
8
 71
3
 72
8
 73
4
 74
0
 40
0
 40
0
 40
0
 40
0
 40
1
 40
1
 40
1
 40
1
 10
955.265532
 20
697.811219
 30
0.0
 10
955.265532
 20
676.379624
 30
0.0
 10
944.795343
 20
662.125126
 30
0.0
 10
928.275482
 20
652.534385
 30
0.0
  0
SPLINE
  5
40b
100
AcDbEntity
  8
Layer_1
 62
1
100
AcDbSpline
 70
8
 71
3
 72
8
 73
4
 74
0
 40
0
 40
0
 40
0
 40
0
 40
1
 40
1
 40
1
 40
1
 10
928.275482
 20
652.534385
 30
0.0
 10
911.755649
 20
642.943673
 30
0.0
 10
889.083926
 20
638.549405
 30
0.0
 10
866.090442
 20
638.549405
 30
0.0
  0
SPLINE
  5
40c
100
AcDbEntity
  8
Layer_1
 62
1
100
AcDbSpline
 70
8
 71
3
 72
8
 73
4
 74
0
 40
0
 40
0
 40
0
 40
0
 40
1
 40
1
 40
1
 40
1
 10
866.090442
 20
638.549405
 30
0.0
 10
843.096987
 20
638.549405
 30
0.0
 10
820.424867
 20
642.943673
 30
0.0
 10
803.905403
 20
652.534385
 30
0.0
  0
SPLINE
  5
40d
100
AcDbEntity
  8
Layer_1
 62
1
100
AcDbSpline
 70
8
 71
3
 72
8
 73
4
 74
0
 40
0
 40
0
 40
0
 40
0
 40
1
 40
1
 40
1
 40
1
 10
803.905403
 20
652.534385
 30
0.0
 10
787.385966
 20
662.125098
 30
0.0
 10
776.915380
 20
676.379568
 30
0.0
 10
776.915380
 20
697.811219
 30
0.0
  0
SPLINE
  5
40e
100
AcDbEntity
  8
Layer_1
 62
1
100
AcDbSpline
 70
8
 71
3
 72
8
 73
4
 74
0
 40
0
 40
0
 40
0
 40
0
 40
1
 40
1
 40
1
 40
1
 10
776.915380
 20
697.811219
 30
0.0
 10
776.915380
 20
721.659293
 30
0.0
 10
790.679796
 20
749.572788
 30
0.0
 10
810.765018
 20
769.302972
 30
0.0
  0
SPLINE
  5
40f
100
AcDbEntity
  8
Layer_1
 62
1
100
AcDbSpline
 70
8
 71
3
 72
8
 73
4
 74
0
 40
0
 40
0
 40
0
 40
0
 40
1
 40
1
 40
1
 40
1
 10
810.765018
 20
769.302972
 30
0.0
 10
811.622298
 20
770.145850
 30
0.0
 10
812.033688
 20
771.342573
 30
0.0
 10
811.875867
 20
772.534406
 30
0.0
  0
SPLINE
  5
410
100
AcDbEntity
  8
Layer_1
 62
1
100
AcDbSpline
 70
8
 71
3
 72
8
 73
4
 74
0
 40
0
 40
0
 40
0
 40
0
 40
1
 40
1
 40
1
 40
1
 10
811.875867
 20
772.534406
 30
0.0
 10
811.718046
 20
773.726239
 30
0.0
 10
811.009359
 20
774.774643
 30
0.0
 10
809.962247
 20
775.365344
 30
0.0
  0
SPLINE
  5
411
100
AcDbEntity
  8
Layer_1
 62
1
100
AcDbSpline
 70
8
 71
3
 72
8
 73
4
 74
0
 40
0
 40
0
 40
0
 40
0
 40
1
 40
1
 40
1
 40
1
 10
809.962247
 20
775.365344
 30
0.0
 10
793.505881
 20
784.629958
 30
0.0
 10
776.141891
 20
809.006013
 30
0.0
 10
766.656401
 20
837.794002
 30
0.0
  0
LWPOLYLINE
  5
412
100
AcDbEntity
  8
Layer_1
 62
1
100
AcDbPolyline
 90
2
 70
1
 10
839.183588
 20
852.836447
 30
0.0
 10
839.177919
 20
852.836447
 30
0.0
  0
SPLINE
  5
413
100
AcDbEntity
  8
Layer_1
 62
1
100
AcDbSpline
 70
8
 71
3
 72
8
 73
4
 74
0
 40
0
 40
0
 40
0
 40
0
 40
1
 40
1
 40
1
 40
1
 10
766.656401
 20
837.799671
 30
0.0
 10
759.780656
 20
858.720095
 30
0.0
 10
757.992306
 20
878.571771
 30
0.0
 10
760.461141
 20
893.346569
 30
0.0
  0
SPLINE
  5
414
100
AcDbEntity
  8
Layer_1
 62
1
100
AcDbSpline
 70
8
 71
3
 72
8
 73
4
 74
0
 40
0
 40
0
 40
0
 40
0
 40
1
 40
1
 40
1
 40
1
 10
760.461141
 20
893.346569
 30
0.0
 10
761.695657
 20
900.734560
 30
0.0
 10
763.991380
 20
906.824684
 30
0.0
 10
767.038398
 20
911.168296
 30
0.0
  0
SPLINE
  5
415
100
AcDbEntity
  8
Layer_1
 62
1
100
AcDbSpline
 70
8
 71
3
 72
8
 73
4
 74
0
 40
0
 40
0
 40
0
 40
0
 40
1
 40
1
 40
1
 40
1
 10
767.038398
 20
911.168296
 30
0.0
 10
770.085415
 20
915.511884
 30
0.0
 10
773.744971
 20
918.129169
 30
0.0
 10
778.249648
 20
919.113046
 30
0.0
  0
SPLINE
  5
416
100
AcDbEntity
  8
Layer_1
 62
1
100
AcDbSpline
 70
8
 71
3
 72
8
 73
4
 74
0
 40
0
 40
0
 40
0
 40
0
 40
1
 40
1
 40
1
 40
1
 10
778.249648
 20
919.113046
 30
0.0
 10
779.332171
 20
919.349456
 30
0.0
 10
780.455229
 20
919.480303
 30
0.0
 10
781.626873
 20
919.506127
 30
0.0
  0
LWPOLYLINE
  5
417
100
AcDbEntity
  8
Layer_1
 62
1
100
AcDbPolyline
 90
2
 70
1
 10
766.656401
 20
837.794002
 30
0.0
 10
766.656401
 20
837.799671
 30
0.0
  0
LWPOLYLINE
  5
418
100
AcDbEntity
  8
Layer_1
 62
1
100
AcDbPolyline
 90
2
 70
1
 10
781.626873
 20
919.506127
 30
0.0
 10
781.627015
 20
919.505985
 30
0.0
  0
SPLINE
  5
419
100
AcDbEntity
  8
Layer_1
 62
1
100
AcDbSpline
 70
8
 71
3
 72
8
 73
4
 74
0
 40
0
 40
0
 40
0
 40
0
 40
1
 40
1
 40
1
 40
1
 10
781.942710
 20
905.338312
 30
0.0
 10
784.355475
 20
905.389052
 30
0.0
 10
792.944820
 20
902.029458
 30
0.0
 10
801.923645
 20
891.873741
 30
0.0
  0
SPLINE
  5
41a
100
AcDbEntity
  8
Layer_1
 62
1
100
AcDbSpline
 70
8
 71
3
 72
8
 73
4
 74
0
 40
0
 40
0
 40
0
 40
0
 40
1
 40
1
 40
1
 40
1
 10
801.923645
 20
891.873741
 30
0.0
 10
810.905362
 20
881.714770
 30
0.0
 10
819.880530
 20
866.170054
 30
0.0
 10
825.719163
 20
848.407310
 30
0.0
  0
SPLINE
  5
41b
100
AcDbEntity
  8
Layer_1
 62
1
100
AcDbSpline
 70
8
 71
3
 72
8
 73
4
 74
0
 40
0
 40
0
 40
0
 40
0
 40
1
 40
1
 40
1
 40
1
 10
825.719163
 20
848.407310
 30
0.0
 10
831.688020
 20
830.210729
 30
0.0
 10
833.380133
 20
811.948773
 30
0.0
 10
831.399538
 20
799.863997
 30
0.0
  0
SPLINE
  5
41c
100
AcDbEntity
  8
Layer_1
 62
1
100
AcDbSpline
 70
8
 71
3
 72
8
 73
4
 74
0
 40
0
 40
0
 40
0
 40
0
 40
1
 40
1
 40
1
 40
1
 10
831.399538
 20
799.863997
 30
0.0
 10
830.409051
 20
793.816011
 30
0.0
 10
832.563514
 20
787.679586
 30
0.0
 10
837.117387
 20
783.578192
 30
0.0
  0
SPLINE
  5
41d
100
AcDbEntity
  8
Layer_1
 62
1
100
AcDbSpline
 70
8
 71
3
 72
8
 73
4
 74
0
 40
0
 40
0
 40
0
 40
0
 40
1
 40
1
 40
1
 40
1
 10
837.117387
 20
783.578192
 30
0.0
 10
841.671260
 20
779.476798
 30
0.0
 10
847.998883
 20
777.973930
 30
0.0
 10
853.910622
 20
779.589646
 30
0.0
  0
SPLINE
  5
41e
100
AcDbEntity
  8
Layer_1
 62
1
100
AcDbSpline
 70
8
 71
3
 72
8
 73
4
 74
0
 40
0
 40
0
 40
0
 40
0
 40
1
 40
1
 40
1
 40
1
 10
853.910622
 20
779.589646
 30
0.0
 10
858.095239
 20
780.733511
 30
0.0
 10
862.157059
 20
781.305939
 30
0.0
 10
866.090726
 20
781.305939
 30
0.0
  0
SPLINE
  5
41f
100
AcDbEntity
  8
Layer_1
 62
1
100
AcDbSpline
 70
8
 71
3
 72
8
 73
4
 74
0
 40
0
 40
0
 40
0
 40
0
 40
1
 40
1
 40
1
 40
1
 10
866.090726
 20
781.305939
 30
0.0
 10
870.017674
 20
781.305939
 30
0.0
 10
874.075752
 20
780.733454
 30
0.0
 10
878.248691
 20
779.595174
 30
0.0
  0
SPLINE
  5
420
100
AcDbEntity
  8
Layer_1
 62
1
100
AcDbSpline
 70
8
 71
3
 72
8
 73
4
 74
0
 40
0
 40
0
 40
0
 40
0
 40
1
 40
1
 40
1
 40
1
 10
878.248691
 20
779.595174
 30
0.0
 10
884.156409
 20
777.983709
 30
0.0
 10
890.478154
 20
779.485885
 30
0.0
 10
895.029484
 20
783.582636
 30
0.0
  0
SPLINE
  5
421
100
AcDbEntity
  8
Layer_1
 62
1
100
AcDbSpline
 70
8
 71
3
 72
8
 73
4
 74
0
 40
0
 40
0
 40
0
 40
0
 40
1
 40
1
 40
1
 40
1
 10
895.029484
 20
783.582636
 30
0.0
 10
899.580813
 20
787.679386
 30
0.0
 10
901.737474
 20
793.808807
 30
0.0
 10
900.754247
 20
799.852914
 30
0.0
  0
SPLINE
  5
422
100
AcDbEntity
  8
Layer_1
 62
1
100
AcDbSpline
 70
8
 71
3
 72
8
 73
4
 74
0
 40
0
 40
0
 40
0
 40
0
 40
1
 40
1
 40
1
 40
1
 10
900.754247
 20
799.852914
 30
0.0
 10
898.850329
 20
811.557507
 30
0.0
 10
900.227570
 20
829.422811
 30
0.0
 10
906.467815
 20
848.407310
 30
0.0
  0
SPLINE
  5
423
100
AcDbEntity
  8
Layer_1
 62
1
100
AcDbSpline
 70
8
 71
3
 72
8
 73
4
 74
0
 40
0
 40
0
 40
0
 40
0
 40
1
 40
1
 40
1
 40
1
 10
906.467815
 20
848.407310
 30
0.0
 10
909.034814
 20
856.216788
 30
0.0
 10
910.790168
 20
861.132350
 30
0.0
 10
915.281806
 20
869.788961
 30
0.0
  0
SPLINE
  5
424
100
AcDbEntity
  8
Layer_1
 62
1
100
AcDbSpline
 70
8
 71
3
 72
8
 73
4
 74
0
 40
0
 40
0
 40
0
 40
0
 40
1
 40
1
 40
1
 40
1
 10
915.281806
 20
869.788961
 30
0.0
 10
917.494956
 20
871.448956
 30
0.0
 10
925.888682
 20
876.712442
 30
0.0
 10
936.674509
 20
880.906102
 30
0.0
  0
SPLINE
  5
425
100
AcDbEntity
  8
Layer_1
 62
1
100
AcDbSpline
 70
8
 71
3
 72
8
 73
4
 74
0
 40
0
 40
0
 40
0
 40
0
 40
1
 40
1
 40
1
 40
1
 10
936.674509
 20
880.906102
 30
0.0
 10
944.397812
 20
883.908984
 30
0.0
 10
952.924994
 20
886.467760
 30
0.0
 10
961.289438
 20
888.690295
 30
0.0
  0
SPLINE
  5
426
100
AcDbEntity
  8
Layer_1
 62
1
100
AcDbSpline
 70
8
 71
3
 72
8
 73
4
 74
0
 40
0
 40
0
 40
0
 40
0
 40
1
 40
1
 40
1
 40
1
 10
961.289438
 20
888.690295
 30
0.0
 10
964.064726
 20
882.416796
 30
0.0
 10
966.167806
 20
876.485415
 30
0.0
 10
966.842452
 20
871.859585
 30
0.0
  0
SPLINE
  5
427
100
AcDbEntity
  8
Layer_1
 62
1
100
AcDbSpline
 70
8
 71
3
 72
8
 73
4
 74
0
 40
0
 40
0
 40
0
 40
0
 40
1
 40
1
 40
1
 40
1
 10
966.842452
 20
871.859585
 30
0.0
 10
967.922764
 20
864.452259
 30
0.0
 10
966.258997
 20
861.457427
 30
0.0
 10
965.984320
 20
861.157692
 30
0.0
  0
SPLINE
  5
428
100
AcDbEntity
  8
Layer_1
 62
1
100
AcDbSpline
 70
8
 71
3
 72
8
 73
4
 74
0
 40
0
 40
0
 40
0
 40
0
 40
1
 40
1
 40
1
 40
1
 10
965.984320
 20
861.157692
 30
0.0
 10
965.878587
 20
861.042322
 30
0.0
 10
965.987154
 20
861.073219
 30
0.0
 10
965.524795
 20
860.914196
 30
0.0
  0
SPLINE
  5
429
100
AcDbEntity
  8
Layer_1
 62
1
100
AcDbSpline
 70
8
 71
3
 72
8
 73
4
 74
0
 40
0
 40
0
 40
0
 40
0
 40
1
 40
1
 40
1
 40
1
 10
965.524795
 20
860.914196
 30
0.0
 10
959.915906
 20
858.989045
 30
0.0
 10
955.614925
 20
854.425073
 30
0.0
 10
954.025658
 20
848.711924
 30
0.0
  0
SPLINE
  5
42a
100
AcDbEntity
  8
Layer_1
 62
1
100
AcDbSpline
 70
8
 71
3
 72
8
 73
4
 74
0
 40
0
 40
0
 40
0
 40
0
 40
1
 40
1
 40
1
 40
1
 10
954.025658
 20
848.711924
 30
0.0
 10
953.423494
 20
846.546481
 30
0.0
 10
952.776231
 20
844.384752
 30
0.0
 10
952.065756
 20
842.223250
 30
0.0
  0
SPLINE
  5
42b
100
AcDbEntity
  8
Layer_1
 62
1
100
AcDbSpline
 70
8
 71
3
 72
8
 73
4
 74
0
 40
0
 40
0
 40
0
 40
0
 40
1
 40
1
 40
1
 40
1
 10
952.065756
 20
842.223250
 30
0.0
 10
943.132880
 20
815.046956
 30
0.0
 10
926.047025
 20
793.741446
 30
0.0
 10
915.276250
 20
787.634173
 30
0.0
  0
SPLINE
  5
42c
100
AcDbEntity
  8
Layer_1
 62
1
100
AcDbSpline
 70
8
 71
3
 72
8
 73
4
 74
0
 40
0
 40
0
 40
0
 40
0
 40
1
 40
1
 40
1
 40
1
 10
915.276250
 20
787.634173
 30
0.0
 10
910.365060
 20
784.848154
 30
0.0
 10
907.045584
 20
779.919260
 30
0.0
 10
906.310171
 20
774.320969
 30
0.0
  0
SPLINE
  5
42d
100
AcDbEntity
  8
Layer_1
 62
1
100
AcDbSpline
 70
8
 71
3
 72
8
 73
4
 74
0
 40
0
 40
0
 40
0
 40
0
 40
1
 40
1
 40
1
 40
1
 10
906.310171
 20
774.320969
 30
0.0
 10
905.574757
 20
768.722679
 30
0.0
 10
907.508621
 20
763.103685
 30
0.0
 10
911.533639
 20
759.143771
 30
0.0
  0
SPLINE
  5
42e
100
AcDbEntity
  8
Layer_1
 62
1
100
AcDbSpline
 70
8
 71
3
 72
8
 73
4
 74
0
 40
0
 40
0
 40
0
 40
0
 40
1
 40
1
 40
1
 40
1
 10
911.533639
 20
759.143771
 30
0.0
 10
929.186594
 20
741.780205
 30
0.0
 10
941.092587
 20
716.313095
 30
0.0
 10
941.092587
 20
697.811333
 30
0.0
  0
SPLINE
  5
42f
100
AcDbEntity
  8
Layer_1
 62
1
100
AcDbSpline
 70
8
 71
3
 72
8
 73
4
 74
0
 40
0
 40
0
 40
0
 40
0
 40
1
 40
1
 40
1
 40
1
 10
941.092587
 20
697.811333
 30
0.0
 10
941.092587
 20
681.167426
 30
0.0
 10
934.486049
 20
672.527823
 30
0.0
 10
921.161485
 20
664.792131
 30
0.0
  0
SPLINE
  5
430
100
AcDbEntity
  8
Layer_1
 62
1
100
AcDbSpline
 70
8
 71
3
 72
8
 73
4
 74
0
 40
0
 40
0
 40
0
 40
0
 40
1
 40
1
 40
1
 40
1
 10
921.161485
 20
664.792131
 30
0.0
 10
907.836893
 20
657.056439
 30
0.0
 10
887.308785
 20
652.722747
 30
0.0
 10
866.090726
 20
652.722747
 30
0.0
  0
SPLINE
  5
431
100
AcDbEntity
  8
Layer_1
 62
1
100
AcDbSpline
 70
8
 71
3
 72
8
 73
4
 74
0
 40
0
 40
0
 40
0
 40
0
 40
1
 40
1
 40
1
 40
1
 10
866.090726
 20
652.722747
 30
0.0
 10
844.872694
 20
652.722747
 30
0.0
 10
824.349661
 20
657.056524
 30
0.0
 10
811.025522
 20
664.792131
 30
0.0
  0
SPLINE
  5
432
100
AcDbEntity
  8
Layer_1
 62
1
100
AcDbSpline
 70
8
 71
3
 72
8
 73
4
 74
0
 40
0
 40
0
 40
0
 40
0
 40
1
 40
1
 40
1
 40
1
 10
811.025522
 20
664.792131
 30
0.0
 10
797.701384
 20
672.527738
 30
0.0
 10
791.088892
 20
681.167228
 30
0.0
 10
791.088892
 20
697.811333
 30
0.0
  0
SPLINE
  5
433
100
AcDbEntity
  8
Layer_1
 62
1
100
AcDbSpline
 70
8
 71
3
 72
8
 73
4
 74
0
 40
0
 40
0
 40
0
 40
0
 40
1
 40
1
 40
1
 40
1
 10
791.088892
 20
697.811333
 30
0.0
 10
791.088892
 20
716.330953
 30
0.0
 10
803.020398
 20
741.823291
 30
0.0
 10
820.697645
 20
759.188048
 30
0.0
  0
SPLINE
  5
434
100
AcDbEntity
  8
Layer_1
 62
1
100
AcDbSpline
 70
8
 71
3
 72
8
 73
4
 74
0
 40
0
 40
0
 40
0
 40
0
 40
1
 40
1
 40
1
 40
1
 10
820.697645
 20
759.188048
 30
0.0
 10
824.735100
 20
763.153457
 30
0.0
 10
826.672860
 20
768.786611
 30
0.0
 10
825.929284
 20
774.396656
 30
0.0
  0
SPLINE
  5
435
100
AcDbEntity
  8
Layer_1
 62
1
100
AcDbSpline
 70
8
 71
3
 72
8
 73
4
 74
0
 40
0
 40
0
 40
0
 40
0
 40
1
 40
1
 40
1
 40
1
 10
825.929284
 20
774.396656
 30
0.0
 10
825.185708
 20
780.006701
 30
0.0
 10
821.847361
 20
784.940541
 30
0.0
 10
816.916284
 20
787.717228
 30
0.0
  0
SPLINE
  5
436
100
AcDbEntity
  8
Layer_1
 62
1
100
AcDbSpline
 70
8
 71
3
 72
8
 73
4
 74
0
 40
0
 40
0
 40
0
 40
0
 40
1
 40
1
 40
1
 40
1
 10
816.916284
 20
787.717228
 30
0.0
 10
805.769154
 20
793.992822
 30
0.0
 10
788.773213
 20
815.971050
 30
0.0
 10
780.121251
 20
842.223250
 30
0.0
  0
LWPOLYLINE
  5
437
100
AcDbEntity
  8
Layer_1
 62
1
100
AcDbPolyline
 90
2
 70
1
 10
781.937040
 20
905.338312
 30
0.0
 10
781.942710
 20
905.338312
 30
0.0
  0
SPLINE
  5
438
100
AcDbEntity
  8
Layer_1
 62
1
100
AcDbSpline
 70
8
 71
3
 72
8
 73
4
 74
0
 40
0
 40
0
 40
0
 40
0
 40
1
 40
1
 40
1
 40
1
 10
780.115582
 20
842.234588
 30
0.0
 10
773.837069
 20
861.341459
 30
0.0
 10
772.487324
 20
879.320005
 30
0.0
 10
774.440763
 20
891.010421
 30
0.0
  0
SPLINE
  5
439
100
AcDbEntity
  8
Layer_1
 62
1
100
AcDbSpline
 70
8
 71
3
 72
8
 73
4
 74
0
 40
0
 40
0
 40
0
 40
0
 40
1
 40
1
 40
1
 40
1
 10
774.440763
 20
891.010421
 30
0.0
 10
775.417695
 20
896.856850
 30
0.0
 10
777.213415
 20
900.992204
 30
0.0
 10
778.642898
 20
903.029972
 30
0.0
  0
SPLINE
  5
43a
100
AcDbEntity
  8
Layer_1
 62
1
100
AcDbSpline
 70
8
 71
3
 72
8
 73
4
 74
0
 40
0
 40
0
 40
0
 40
0
 40
1
 40
1
 40
1
 40
1
 10
778.642898
 20
903.029972
 30
0.0
 10
780.072410
 20
905.067745
 30
0.0
 10
780.487289
 20
905.095156
 30
0.0
 10
781.272713
 20
905.266677
 30
0.0
  0
SPLINE
  5
43b
100
AcDbEntity
  8
Layer_1
 62
1
100
AcDbSpline
 70
8
 71
3
 72
8
 73
4
 74
0
 40
0
 40
0
 40
0
 40
0
 40
1
 40
1
 40
1
 40
1
 10
781.272713
 20
905.266677
 30
0.0
 10
781.435988
 20
905.302394
 30
0.0
 10
781.646687
 20
905.331874
 30
0.0
 10
781.937069
 20
905.338677
 30
0.0
  0
LWPOLYLINE
  5
43c
100
AcDbEntity
  8
Layer_1
 62
1
100
AcDbPolyline
 90
2
 70
1
 10
780.121251
 20
842.223250
 30
0.0
 10
780.115582
 20
842.234588
 30
0.0
  0
SPLINE
  5
43d
100
AcDbEntity
  8
Layer_1
 62
1
100
AcDbSpline
 70
8
 71
3
 72
8
 73
4
 74
0
 40
0
 40
0
 40
0
 40
0
 40
1
 40
1
 40
1
 40
1
 10
652.807052
 20
770.125198
 30
0.0
 10
652.807052
 20
778.100616
 30
0.0
 10
662.044737
 20
780.599640
 30
0.0
 10
671.756404
 20
780.599640
 30
0.0
  0
SPLINE
  5
43e
100
AcDbEntity
  8
Layer_1
 62
1
100
AcDbSpline
 70
8
 71
3
 72
8
 73
4
 74
0
 40
0
 40
0
 40
0
 40
0
 40
1
 40
1
 40
1
 40
1
 10
671.756404
 20
780.599640
 30
0.0
 10
681.468070
 20
780.599640
 30
0.0
 10
690.705755
 20
778.670720
 30
0.0
 10
690.705755
 20
770.125198
 30
0.0
  0
SPLINE
  5
43f
100
AcDbEntity
  8
Layer_1
 62
1
100
AcDbSpline
 70
8
 71
3
 72
8
 73
4
 74
0
 40
0
 40
0
 40
0
 40
0
 40
1
 40
1
 40
1
 40
1
 10
690.705755
 20
770.125198
 30
0.0
 10
690.705755
 20
761.579705
 30
0.0
 10
678.643487
 20
755.125500
 30
0.0
 10
671.756404
 20
755.125500
 30
0.0
  0
SPLINE
  5
440
100
AcDbEntity
  8
Layer_1
 62
1
100
AcDbSpline
 70
8
 71
3
 72
8
 73
4
 74
0
 40
0
 40
0
 40
0
 40
0
 40
1
 40
1
 40
1
 40
1
 10
671.756404
 20
755.125500
 30
0.0
 10
664.869320
 20
755.125500
 30
0.0
 10
652.807052
 20
761.009601
 30
0.0
 10
652.807052
 20
770.125198
 30
0.0
  0
LWPOLYLINE
  5
441
100
AcDbEntity
  8
Layer_1
 62
1
100
AcDbPolyline
 90
2
 70
1
 10
781.937069
 20
905.338677
 30
0.0
 10
781.937040
 20
905.338312
 30
0.0
  0
SPLINE
  5
442
100
AcDbEntity
  8
Layer_1
 62
7
100
AcDbSpline
 70
8
 71
3
 72
8
 73
4
 74
0
 40
0
 40
0
 40
0
 40
0
 40
1
 40
1
 40
1
 40
1
 10
-407.911641
 20
3.708138
 30
0.0
 10
-428.647017
 20
-16.660700
 30
0.0
 10
-442.906957
 20
-45.223813
 30
0.0
 10
-442.906957
 20
-70.510572
 30
0.0
  0
SPLINE
  5
443
100
AcDbEntity
  8
Layer_1
 62
7
100
AcDbSpline
 70
8
 71
3
 72
8
 73
4
 74
0
 40
0
 40
0
 40
0
 40
0
 40
1
 40
1
 40
1
 40
1
 10
-442.906957
 20
-70.510572
 30
0.0
 10
-442.906957
 20
-115.959129
 30
0.0
 10
-396.851055
 20
-133.601228
 30
0.0
 10
-349.905374
 20
-133.601228
 30
0.0
  0
SPLINE
  5
444
100
AcDbEntity
  8
Layer_1
 62
7
100
AcDbSpline
 70
8
 71
3
 72
8
 73
4
 74
0
 40
0
 40
0
 40
0
 40
0
 40
1
 40
1
 40
1
 40
1
 10
-349.905374
 20
-133.601228
 30
0.0
 10
-302.959701
 20
-133.601228
 30
0.0
 10
-256.902264
 20
-115.959129
 30
0.0
 10
-256.902264
 20
-70.510572
 30
0.0
  0
SPLINE
  5
445
100
AcDbEntity
  8
Layer_1
 62
7
100
AcDbSpline
 70
8
 71
3
 72
8
 73
4
 74
0
 40
0
 40
0
 40
0
 40
0
 40
1
 40
1
 40
1
 40
1
 10
-256.902264
 20
-70.510572
 30
0.0
 10
-256.902264
 20
-45.246884
 30
0.0
 10
-271.138195
 20
-16.713342
 30
0.0
 10
-291.842873
 20
3.651899
 30
0.0
  0
SPLINE
  5
446
100
AcDbEntity
  8
Layer_1
 62
7
100
AcDbSpline
 70
8
 71
3
 72
8
 73
4
 74
0
 40
0
 40
0
 40
0
 40
0
 40
1
 40
1
 40
1
 40
1
 10
-291.842873
 20
3.651899
 30
0.0
 10
-274.532797
 20
13.467107
 30
0.0
 10
-256.841887
 20
37.828651
 30
0.0
 10
-246.833518
 20
68.276883
 30
0.0
  0
SPLINE
  5
447
100
AcDbEntity
  8
Layer_1
 62
7
100
AcDbSpline
 70
8
 71
3
 72
8
 73
4
 74
0
 40
0
 40
0
 40
0
 40
0
 40
1
 40
1
 40
1
 40
1
 10
-246.833518
 20
68.276883
 30
0.0
 10
-246.029669
 20
70.722420
 30
0.0
 10
-245.298132
 20
73.153356
 30
0.0
 10
-244.627257
 20
75.565948
 30
0.0
  0
SPLINE
  5
448
100
AcDbEntity
  8
Layer_1
 62
7
100
AcDbSpline
 70
8
 71
3
 72
8
 73
4
 74
0
 40
0
 40
0
 40
0
 40
0
 40
1
 40
1
 40
1
 40
1
 10
-244.627257
 20
75.565948
 30
0.0
 10
-241.581458
 20
76.611652
 30
0.0
 10
-238.919527
 20
78.300188
 30
0.0
 10
-236.744447
 20
80.673756
 30
0.0
  0
SPLINE
  5
449
100
AcDbEntity
  8
Layer_1
 62
7
100
AcDbSpline
 70
8
 71
3
 72
8
 73
4
 74
0
 40
0
 40
0
 40
0
 40
0
 40
1
 40
1
 40
1
 40
1
 10
-236.744447
 20
80.673756
 30
0.0
 10
-226.117559
 20
92.270318
 30
0.0
 10
-230.180655
 20
116.775834
 30
0.0
 10
-245.094435
 20
141.281577
 30
0.0
  0
SPLINE
  5
44a
100
AcDbEntity
  8
Layer_1
 62
7
100
AcDbSpline
 70
8
 71
3
 72
8
 73
4
 74
0
 40
0
 40
0
 40
0
 40
0
 40
1
 40
1
 40
1
 40
1
 10
-245.094435
 20
141.281577
 30
0.0
 10
-270.865105
 20
136.137633
 30
0.0
 10
-304.658816
 20
124.057738
 30
0.0
 10
-315.111628
 20
112.998759
 30
0.0
  0
SPLINE
  5
44b
100
AcDbEntity
  8
Layer_1
 62
7
100
AcDbSpline
 70
8
 71
3
 72
8
 73
4
 74
0
 40
0
 40
0
 40
0
 40
0
 40
1
 40
1
 40
1
 40
1
 10
-315.111628
 20
112.998759
 30
0.0
 10
-321.693421
 20
100.895241
 30
0.0
 10
-323.759339
 20
94.441089
 30
0.0
 10
-326.630381
 20
85.706582
 30
0.0
  0
SPLINE
  5
44c
100
AcDbEntity
  8
Layer_1
 62
7
100
AcDbSpline
 70
8
 71
3
 72
8
 73
4
 74
0
 40
0
 40
0
 40
0
 40
0
 40
1
 40
1
 40
1
 40
1
 10
-326.630381
 20
85.706582
 30
0.0
 10
-333.622205
 20
64.435572
 30
0.0
 10
-335.543953
 20
44.207251
 30
0.0
 10
-333.011622
 20
28.639378
 30
0.0
  0
SPLINE
  5
44d
100
AcDbEntity
  8
Layer_1
 62
7
100
AcDbSpline
 70
8
 71
3
 72
8
 73
4
 74
0
 40
0
 40
0
 40
0
 40
0
 40
1
 40
1
 40
1
 40
1
 10
-333.011622
 20
28.639378
 30
0.0
 10
-338.576939
 20
30.157476
 30
0.0
 10
-344.234523
 20
30.981587
 30
0.0
 10
-349.905374
 20
30.981587
 30
0.0
  0
SPLINE
  5
44e
100
AcDbEntity
  8
Layer_1
 62
7
100
AcDbSpline
 70
8
 71
3
 72
8
 73
4
 74
0
 40
0
 40
0
 40
0
 40
0
 40
1
 40
1
 40
1
 40
1
 10
-349.905374
 20
30.981587
 30
0.0
 10
-355.588696
 20
30.981587
 30
0.0
 10
-361.257959
 20
30.152940
 30
0.0
 10
-366.835068
 20
28.628434
 30
0.0
  0
SPLINE
  5
44f
100
AcDbEntity
  8
Layer_1
 62
7
100
AcDbSpline
 70
8
 71
3
 72
8
 73
4
 74
0
 40
0
 40
0
 40
0
 40
0
 40
1
 40
1
 40
1
 40
1
 10
-366.835068
 20
28.628434
 30
0.0
 10
-364.192583
 20
44.751627
 30
0.0
 10
-366.473055
 20
65.265015
 30
0.0
 10
-373.180403
 20
85.706582
 30
0.0
  0
SPLINE
  5
450
100
AcDbEntity
  8
Layer_1
 62
7
100
AcDbSpline
 70
8
 71
3
 72
8
 73
4
 74
0
 40
0
 40
0
 40
0
 40
0
 40
1
 40
1
 40
1
 40
1
 10
-373.180403
 20
85.706582
 30
0.0
 10
-386.270660
 20
125.530586
 30
0.0
 10
-412.756566
 20
155.488073
 30
0.0
 10
-434.453817
 20
155.011266
 30
0.0
  0
SPLINE
  5
451
100
AcDbEntity
  8
Layer_1
 62
7
100
AcDbSpline
 70
8
 71
3
 72
8
 73
4
 74
0
 40
0
 40
0
 40
0
 40
0
 40
1
 40
1
 40
1
 40
1
 10
-434.453817
 20
155.011266
 30
0.0
 10
-435.862378
 20
154.980227
 30
0.0
 10
-437.234406
 20
154.819077
 30
0.0
 10
-438.564762
 20
154.528449
 30
0.0
  0
SPLINE
  5
452
100
AcDbEntity
  8
Layer_1
 62
7
100
AcDbSpline
 70
8
 71
3
 72
8
 73
4
 74
0
 40
0
 40
0
 40
0
 40
0
 40
1
 40
1
 40
1
 40
1
 10
-438.564762
 20
154.528449
 30
0.0
 10
-460.600308
 20
149.715635
 30
0.0
 10
-467.053011
 20
111.099464
 30
0.0
 10
-452.977263
 20
68.276883
 30
0.0
  0
SPLINE
  5
453
100
AcDbEntity
  8
Layer_1
 62
7
100
AcDbSpline
 70
8
 71
3
 72
8
 73
4
 74
0
 40
0
 40
0
 40
0
 40
0
 40
1
 40
1
 40
1
 40
1
 10
-452.977263
 20
68.276883
 30
0.0
 10
-443.266830
 20
38.802942
 30
0.0
 10
-425.802258
 20
13.780199
 30
0.0
 10
-407.911641
 20
3.708138
 30
0.0
  0
LWPOLYLINE
  5
454
100
AcDbEntity
  8
Layer_1
 62
1
100
AcDbPolyline
 90
2
 70
1
 10
652.807052
 20
770.125198
 30
0.0
 10
652.807052
 20
770.125198
 30
0.0
  0
LWPOLYLINE
  5
455
100
AcDbEntity
  8
Layer_1
 62
1
100
AcDbPolyline
 90
2
 70
0
 10
310.977762
 20
924.181140
 30
0.0
 10
310.977762
 20
977.853730
 30
0.0
  0
LWPOLYLINE
  5
456
100
AcDbEntity
  8
Layer_1
 62
1
100
AcDbPolyline
 90
2
 70
0
 10
310.977762
 20
983.990608
 30
0.0
 10
310.977762
 20
1037.663014
 30
0.0
  0
LWPOLYLINE
  5
457
100
AcDbEntity
  8
Layer_1
 62
1
100
AcDbPolyline
 90
2
 70
0
 10
304.784152
 20
1033.709760
 30
0.0
 10
304.784152
 20
928.134510
 30
0.0
  0
LWPOLYLINE
  5
458
100
AcDbEntity
  8
Layer_1
 62
1
100
AcDbPolyline
 90
2
 70
0
 10
298.590507
 20
924.181140
 30
0.0
 10
298.590507
 20
977.853503
 30
0.0
  0
LWPOLYLINE
  5
459
100
AcDbEntity
  8
Layer_1
 62
1
100
AcDbPolyline
 90
2
 70
0
 10
298.590507
 20
983.990608
 30
0.0
 10
298.590507
 20
1037.663014
 30
0.0
  0
LWPOLYLINE
  5
45a
100
AcDbEntity
  8
Layer_1
 62
1
100
AcDbPolyline
 90
2
 70
0
 10
292.396897
 20
1033.709760
 30
0.0
 10
292.396897
 20
928.134510
 30
0.0
  0
LWPOLYLINE
  5
45b
100
AcDbEntity
  8
Layer_1
 62
1
100
AcDbPolyline
 90
2
 70
0
 10
360.526750
 20
924.181140
 30
0.0
 10
360.526750
 20
977.853730
 30
0.0
  0
LWPOLYLINE
  5
45c
100
AcDbEntity
  8
Layer_1
 62
1
100
AcDbPolyline
 90
2
 70
0
 10
360.526750
 20
983.990608
 30
0.0
 10
360.526750
 20
1037.663014
 30
0.0
  0
LWPOLYLINE
  5
45d
100
AcDbEntity
  8
Layer_1
 62
1
100
AcDbPolyline
 90
2
 70
0
 10
354.333106
 20
1033.709760
 30
0.0
 10
354.333106
 20
928.134510
 30
0.0
  0
LWPOLYLINE
  5
45e
100
AcDbEntity
  8
Layer_1
 62
1
100
AcDbPolyline
 90
2
 70
0
 10
348.139462
 20
924.181140
 30
0.0
 10
348.139462
 20
977.853503
 30
0.0
  0
LWPOLYLINE
  5
45f
100
AcDbEntity
  8
Layer_1
 62
1
100
AcDbPolyline
 90
2
 70
0
 10
348.139462
 20
983.990608
 30
0.0
 10
348.139462
 20
1037.663014
 30
0.0
  0
LWPOLYLINE
  5
460
100
AcDbEntity
  8
Layer_1
 62
1
100
AcDbPolyline
 90
2
 70
0
 10
341.945883
 20
1033.709760
 30
0.0
 10
341.945883
 20
928.134510
 30
0.0
  0
LWPOLYLINE
  5
461
100
AcDbEntity
  8
Layer_1
 62
1
100
AcDbPolyline
 90
2
 70
0
 10
335.752239
 20
924.181140
 30
0.0
 10
335.752239
 20
977.853503
 30
0.0
  0
LWPOLYLINE
  5
462
100
AcDbEntity
  8
Layer_1
 62
1
100
AcDbPolyline
 90
2
 70
0
 10
335.752239
 20
983.990608
 30
0.0
 10
335.752239
 20
1037.663014
 30
0.0
  0
LWPOLYLINE
  5
463
100
AcDbEntity
  8
Layer_1
 62
1
100
AcDbPolyline
 90
2
 70
0
 10
329.558629
 20
1033.709760
 30
0.0
 10
329.558629
 20
928.134510
 30
0.0
  0
LWPOLYLINE
  5
464
100
AcDbEntity
  8
Layer_1
 62
1
100
AcDbPolyline
 90
2
 70
0
 10
323.365016
 20
924.181140
 30
0.0
 10
323.365016
 20
977.853730
 30
0.0
  0
LWPOLYLINE
  5
465
100
AcDbEntity
  8
Layer_1
 62
1
100
AcDbPolyline
 90
2
 70
0
 10
323.365016
 20
983.990608
 30
0.0
 10
323.365016
 20
1037.663014
 30
0.0
  0
LWPOLYLINE
  5
466
100
AcDbEntity
  8
Layer_1
 62
1
100
AcDbPolyline
 90
2
 70
0
 10
317.171375
 20
1033.709760
 30
0.0
 10
317.171375
 20
928.134510
 30
0.0
  0
LWPOLYLINE
  5
467
100
AcDbEntity
  8
Layer_1
 62
1
100
AcDbPolyline
 90
2
 70
0
 10
410.075705
 20
924.181140
 30
0.0
 10
410.075705
 20
977.853730
 30
0.0
  0
LWPOLYLINE
  5
468
100
AcDbEntity
  8
Layer_1
 62
1
100
AcDbPolyline
 90
2
 70
0
 10
410.075705
 20
983.990608
 30
0.0
 10
410.075705
 20
1037.663014
 30
0.0
  0
LWPOLYLINE
  5
469
100
AcDbEntity
  8
Layer_1
 62
1
100
AcDbPolyline
 90
2
 70
0
 10
403.882061
 20
1033.709760
 30
0.0
 10
403.882061
 20
928.134510
 30
0.0
  0
LWPOLYLINE
  5
46a
100
AcDbEntity
  8
Layer_1
 62
1
100
AcDbPolyline
 90
2
 70
0
 10
397.688482
 20
924.181140
 30
0.0
 10
397.688482
 20
977.853503
 30
0.0
  0
LWPOLYLINE
  5
46b
100
AcDbEntity
  8
Layer_1
 62
1
100
AcDbPolyline
 90
2
 70
0
 10
397.688482
 20
983.990608
 30
0.0
 10
397.688482
 20
1037.663014
 30
0.0
  0
LWPOLYLINE
  5
46c
100
AcDbEntity
  8
Layer_1
 62
1
100
AcDbPolyline
 90
2
 70
0
 10
391.494838
 20
1033.709760
 30
0.0
 10
391.494838
 20
928.134510
 30
0.0
  0
LWPOLYLINE
  5
46d
100
AcDbEntity
  8
Layer_1
 62
1
100
AcDbPolyline
 90
2
 70
0
 10
385.301193
 20
924.181140
 30
0.0
 10
385.301193
 20
977.853503
 30
0.0
  0
LWPOLYLINE
  5
46e
100
AcDbEntity
  8
Layer_1
 62
1
100
AcDbPolyline
 90
2
 70
0
 10
385.301193
 20
983.990608
 30
0.0
 10
385.301193
 20
1037.663014
 30
0.0
  0
LWPOLYLINE
  5
46f
100
AcDbEntity
  8
Layer_1
 62
1
100
AcDbPolyline
 90
2
 70
0
 10
379.107614
 20
1033.709760
 30
0.0
 10
379.107614
 20
928.134510
 30
0.0
  0
LWPOLYLINE
  5
470
100
AcDbEntity
  8
Layer_1
 62
1
100
AcDbPolyline
 90
2
 70
0
 10
372.913970
 20
924.181140
 30
0.0
 10
372.913970
 20
977.853730
 30
0.0
  0
LWPOLYLINE
  5
471
100
AcDbEntity
  8
Layer_1
 62
1
100
AcDbPolyline
 90
2
 70
0
 10
372.913970
 20
983.990608
 30
0.0
 10
372.913970
 20
1037.663014
 30
0.0
  0
LWPOLYLINE
  5
472
100
AcDbEntity
  8
Layer_1
 62
1
100
AcDbPolyline
 90
2
 70
0
 10
366.720329
 20
1033.709760
 30
0.0
 10
366.720329
 20
928.134510
 30
0.0
  0
LWPOLYLINE
  5
473
100
AcDbEntity
  8
Layer_1
 62
1
100
AcDbPolyline
 90
2
 70
0
 10
459.624659
 20
924.181140
 30
0.0
 10
459.624659
 20
977.853730
 30
0.0
  0
LWPOLYLINE
  5
474
100
AcDbEntity
  8
Layer_1
 62
1
100
AcDbPolyline
 90
2
 70
0
 10
459.624659
 20
983.990608
 30
0.0
 10
459.624659
 20
1037.663014
 30
0.0
  0
LWPOLYLINE
  5
475
100
AcDbEntity
  8
Layer_1
 62
1
100
AcDbPolyline
 90
2
 70
0
 10
453.431046
 20
1033.709760
 30
0.0
 10
453.431046
 20
928.134510
 30
0.0
  0
LWPOLYLINE
  5
476
100
AcDbEntity
  8
Layer_1
 62
1
100
AcDbPolyline
 90
2
 70
0
 10
447.237436
 20
924.181140
 30
0.0
 10
447.237436
 20
977.853503
 30
0.0
  0
LWPOLYLINE
  5
477
100
AcDbEntity
  8
Layer_1
 62
1
100
AcDbPolyline
 90
2
 70
0
 10
447.237436
 20
983.990608
 30
0.0
 10
447.237436
 20
1037.663014
 30
0.0
  0
LWPOLYLINE
  5
478
100
AcDbEntity
  8
Layer_1
 62
1
100
AcDbPolyline
 90
2
 70
0
 10
441.043792
 20
1033.709760
 30
0.0
 10
441.043792
 20
928.134510
 30
0.0
  0
LWPOLYLINE
  5
479
100
AcDbEntity
  8
Layer_1
 62
1
100
AcDbPolyline
 90
2
 70
0
 10
434.850182
 20
924.181140
 30
0.0
 10
434.850182
 20
977.853503
 30
0.0
  0
LWPOLYLINE
  5
47a
100
AcDbEntity
  8
Layer_1
 62
1
100
AcDbPolyline
 90
2
 70
0
 10
434.850182
 20
983.990608
 30
0.0
 10
434.850182
 20
1037.663014
 30
0.0
  0
LWPOLYLINE
  5
47b
100
AcDbEntity
  8
Layer_1
 62
1
100
AcDbPolyline
 90
2
 70
0
 10
428.656569
 20
1033.709760
 30
0.0
 10
428.656569
 20
928.134510
 30
0.0
  0
LWPOLYLINE
  5
47c
100
AcDbEntity
  8
Layer_1
 62
1
100
AcDbPolyline
 90
2
 70
0
 10
422.462925
 20
924.181140
 30
0.0
 10
422.462925
 20
977.853730
 30
0.0
  0
LWPOLYLINE
  5
47d
100
AcDbEntity
  8
Layer_1
 62
1
100
AcDbPolyline
 90
2
 70
0
 10
422.462925
 20
983.990608
 30
0.0
 10
422.462925
 20
1037.663014
 30
0.0
  0
LWPOLYLINE
  5
47e
100
AcDbEntity
  8
Layer_1
 62
1
100
AcDbPolyline
 90
2
 70
0
 10
416.269315
 20
1033.709760
 30
0.0
 10
416.269315
 20
928.134510
 30
0.0
  0
LWPOLYLINE
  5
47f
100
AcDbEntity
  8
Layer_1
 62
1
100
AcDbPolyline
 90
2
 70
0
 10
496.786223
 20
924.181140
 30
0.0
 10
496.786223
 20
977.853733
 30
0.0
  0
LWPOLYLINE
  5
480
100
AcDbEntity
  8
Layer_1
 62
1
100
AcDbPolyline
 90
2
 70
0
 10
496.786223
 20
983.990608
 30
0.0
 10
496.786223
 20
1037.663017
 30
0.0
  0
LWPOLYLINE
  5
481
100
AcDbEntity
  8
Layer_1
 62
1
100
AcDbPolyline
 90
2
 70
0
 10
490.592608
 20
1033.709760
 30
0.0
 10
490.592608
 20
928.134510
 30
0.0
  0
LWPOLYLINE
  5
482
100
AcDbEntity
  8
Layer_1
 62
1
100
AcDbPolyline
 90
2
 70
0
 10
484.399020
 20
924.181140
 30
0.0
 10
484.399020
 20
977.853506
 30
0.0
  0
LWPOLYLINE
  5
483
100
AcDbEntity
  8
Layer_1
 62
1
100
AcDbPolyline
 90
2
 70
0
 10
484.399020
 20
983.990608
 30
0.0
 10
484.399020
 20
1037.663017
 30
0.0
  0
LWPOLYLINE
  5
484
100
AcDbEntity
  8
Layer_1
 62
1
100
AcDbPolyline
 90
2
 70
0
 10
478.205461
 20
1033.709760
 30
0.0
 10
478.205461
 20
928.134510
 30
0.0
  0
LWPOLYLINE
  5
485
100
AcDbEntity
  8
Layer_1
 62
1
100
AcDbPolyline
 90
2
 70
0
 10
472.011845
 20
924.181140
 30
0.0
 10
472.011845
 20
977.853506
 30
0.0
  0
LWPOLYLINE
  5
486
100
AcDbEntity
  8
Layer_1
 62
1
100
AcDbPolyline
 90
2
 70
0
 10
472.011845
 20
983.990608
 30
0.0
 10
472.011845
 20
1037.663017
 30
0.0
  0
LWPOLYLINE
  5
487
100
AcDbEntity
  8
Layer_1
 62
1
100
AcDbPolyline
 90
2
 70
0
 10
465.818249
 20
1033.709760
 30
0.0
 10
465.818249
 20
928.134510
 30
0.0
  0
LWPOLYLINE
  5
488
100
AcDbEntity
  8
Layer_1
 62
1
100
AcDbPolyline
 90
2
 70
0
 10
546.334951
 20
924.181140
 30
0.0
 10
546.334951
 20
977.853733
 30
0.0
  0
LWPOLYLINE
  5
489
100
AcDbEntity
  8
Layer_1
 62
1
100
AcDbPolyline
 90
2
 70
0
 10
546.334951
 20
983.990608
 30
0.0
 10
546.334951
 20
1037.663017
 30
0.0
  0
LWPOLYLINE
  5
48a
100
AcDbEntity
  8
Layer_1
 62
1
100
AcDbPolyline
 90
2
 70
0
 10
540.141364
 20
1033.709760
 30
0.0
 10
540.141364
 20
928.134510
 30
0.0
  0
LWPOLYLINE
  5
48b
100
AcDbEntity
  8
Layer_1
 62
1
100
AcDbPolyline
 90
2
 70
0
 10
533.947776
 20
924.181140
 30
0.0
 10
533.947776
 20
977.853506
 30
0.0
  0
LWPOLYLINE
  5
48c
100
AcDbEntity
  8
Layer_1
 62
1
100
AcDbPolyline
 90
2
 70
0
 10
533.947776
 20
983.990608
 30
0.0
 10
533.947776
 20
1037.663017
 30
0.0
  0
LWPOLYLINE
  5
48d
100
AcDbEntity
  8
Layer_1
 62
1
100
AcDbPolyline
 90
2
 70
0
 10
527.754189
 20
1033.709760
 30
0.0
 10
527.754189
 20
928.134510
 30
0.0
  0
LWPOLYLINE
  5
48e
100
AcDbEntity
  8
Layer_1
 62
1
100
AcDbPolyline
 90
2
 70
0
 10
521.560601
 20
924.181140
 30
0.0
 10
521.560601
 20
977.853506
 30
0.0
  0
LWPOLYLINE
  5
48f
100
AcDbEntity
  8
Layer_1
 62
1
100
AcDbPolyline
 90
2
 70
0
 10
521.560601
 20
983.990608
 30
0.0
 10
521.560601
 20
1037.663017
 30
0.0
  0
LWPOLYLINE
  5
490
100
AcDbEntity
  8
Layer_1
 62
1
100
AcDbPolyline
 90
2
 70
0
 10
515.366986
 20
1033.709760
 30
0.0
 10
515.366986
 20
928.134510
 30
0.0
  0
LWPOLYLINE
  5
491
100
AcDbEntity
  8
Layer_1
 62
1
100
AcDbPolyline
 90
2
 70
0
 10
509.173370
 20
924.181140
 30
0.0
 10
509.173370
 20
977.853733
 30
0.0
  0
LWPOLYLINE
  5
492
100
AcDbEntity
  8
Layer_1
 62
1
100
AcDbPolyline
 90
2
 70
0
 10
509.173370
 20
983.990608
 30
0.0
 10
509.173370
 20
1037.663017
 30
0.0
  0
LWPOLYLINE
  5
493
100
AcDbEntity
  8
Layer_1
 62
1
100
AcDbPolyline
 90
2
 70
0
 10
502.979839
 20
1033.709760
 30
0.0
 10
502.979839
 20
928.134510
 30
0.0
  0
LWPOLYLINE
  5
494
100
AcDbEntity
  8
Layer_1
 62
1
100
AcDbPolyline
 90
2
 70
0
 10
595.883707
 20
924.181140
 30
0.0
 10
595.883707
 20
977.853733
 30
0.0
  0
LWPOLYLINE
  5
495
100
AcDbEntity
  8
Layer_1
 62
1
100
AcDbPolyline
 90
2
 70
0
 10
595.883707
 20
983.990608
 30
0.0
 10
595.883707
 20
1037.663017
 30
0.0
  0
LWPOLYLINE
  5
496
100
AcDbEntity
  8
Layer_1
 62
1
100
AcDbPolyline
 90
2
 70
0
 10
589.690120
 20
1033.709760
 30
0.0
 10
589.690120
 20
928.134510
 30
0.0
  0
LWPOLYLINE
  5
497
100
AcDbEntity
  8
Layer_1
 62
1
100
AcDbPolyline
 90
2
 70
0
 10
583.496504
 20
924.181140
 30
0.0
 10
583.496504
 20
977.853506
 30
0.0
  0
LWPOLYLINE
  5
498
100
AcDbEntity
  8
Layer_1
 62
1
100
AcDbPolyline
 90
2
 70
0
 10
583.496504
 20
983.990608
 30
0.0
 10
583.496504
 20
1037.663017
 30
0.0
  0
LWPOLYLINE
  5
499
100
AcDbEntity
  8
Layer_1
 62
1
100
AcDbPolyline
 90
2
 70
0
 10
577.302917
 20
1033.709760
 30
0.0
 10
577.302917
 20
928.134510
 30
0.0
  0
LWPOLYLINE
  5
49a
100
AcDbEntity
  8
Layer_1
 62
1
100
AcDbPolyline
 90
2
 70
0
 10
571.109329
 20
924.181140
 30
0.0
 10
571.109329
 20
977.853506
 30
0.0
  0
LWPOLYLINE
  5
49b
100
AcDbEntity
  8
Layer_1
 62
1
100
AcDbPolyline
 90
2
 70
0
 10
571.109329
 20
983.990608
 30
0.0
 10
571.109329
 20
1037.663017
 30
0.0
  0
LWPOLYLINE
  5
49c
100
AcDbEntity
  8
Layer_1
 62
1
100
AcDbPolyline
 90
2
 70
0
 10
564.915742
 20
1033.709760
 30
0.0
 10
564.915742
 20
928.134510
 30
0.0
  0
LWPOLYLINE
  5
49d
100
AcDbEntity
  8
Layer_1
 62
1
100
AcDbPolyline
 90
2
 70
0
 10
558.722126
 20
924.181140
 30
0.0
 10
558.722126
 20
977.853733
 30
0.0
  0
LWPOLYLINE
  5
49e
100
AcDbEntity
  8
Layer_1
 62
1
100
AcDbPolyline
 90
2
 70
0
 10
558.722126
 20
983.990608
 30
0.0
 10
558.722126
 20
1037.663017
 30
0.0
  0
LWPOLYLINE
  5
49f
100
AcDbEntity
  8
Layer_1
 62
1
100
AcDbPolyline
 90
2
 70
0
 10
552.528567
 20
1033.709760
 30
0.0
 10
552.528567
 20
928.134510
 30
0.0
  0
LWPOLYLINE
  5
4a0
100
AcDbEntity
  8
Layer_1
 62
1
100
AcDbPolyline
 90
2
 70
0
 10
614.464470
 20
1033.709760
 30
0.0
 10
614.464470
 20
928.134510
 30
0.0
  0
LWPOLYLINE
  5
4a1
100
AcDbEntity
  8
Layer_1
 62
1
100
AcDbPolyline
 90
2
 70
0
 10
608.270882
 20
924.181140
 30
0.0
 10
608.270882
 20
977.853733
 30
0.0
  0
LWPOLYLINE
  5
4a2
100
AcDbEntity
  8
Layer_1
 62
1
100
AcDbPolyline
 90
2
 70
0
 10
608.270882
 20
983.990608
 30
0.0
 10
608.270882
 20
1037.663017
 30
0.0
  0
LWPOLYLINE
  5
4a3
100
AcDbEntity
  8
Layer_1
 62
1
100
AcDbPolyline
 90
2
 70
0
 10
602.077295
 20
1033.709760
 30
0.0
 10
602.077295
 20
928.134510
 30
0.0
  0
LWPOLYLINE
  5
4a4
100
AcDbEntity
  8
Layer_1
 62
1
100
AcDbPolyline
 90
2
 70
0
 10
641.488111
 20
924.181140
 30
0.0
 10
641.488111
 20
977.853733
 30
0.0
  0
LWPOLYLINE
  5
4a5
100
AcDbEntity
  8
Layer_1
 62
1
100
AcDbPolyline
 90
2
 70
0
 10
641.488111
 20
983.990608
 30
0.0
 10
641.488111
 20
1037.663017
 30
0.0
  0
LWPOLYLINE
  5
4a6
100
AcDbEntity
  8
Layer_1
 62
1
100
AcDbPolyline
 90
2
 70
0
 10
635.294523
 20
1033.709760
 30
0.0
 10
635.294523
 20
928.134510
 30
0.0
  0
LWPOLYLINE
  5
4a7
100
AcDbEntity
  8
Layer_1
 62
1
100
AcDbPolyline
 90
2
 70
0
 10
629.100879
 20
924.181140
 30
0.0
 10
629.100879
 20
977.853506
 30
0.0
  0
LWPOLYLINE
  5
4a8
100
AcDbEntity
  8
Layer_1
 62
1
100
AcDbPolyline
 90
2
 70
0
 10
629.100879
 20
983.990608
 30
0.0
 10
629.100879
 20
1037.663017
 30
0.0
  0
LWPOLYLINE
  5
4a9
100
AcDbEntity
  8
Layer_1
 62
1
100
AcDbPolyline
 90
2
 70
0
 10
647.681726
 20
1033.709760
 30
0.0
 10
647.681726
 20
928.134510
 30
0.0
  0
LWPOLYLINE
  5
4aa
100
AcDbEntity
  8
Layer_1
 62
1
100
AcDbPolyline
 90
2
 70
0
 10
693.965084
 20
924.181140
 30
0.0
 10
693.965084
 20
977.853733
 30
0.0
  0
LWPOLYLINE
  5
4ab
100
AcDbEntity
  8
Layer_1
 62
1
100
AcDbPolyline
 90
2
 70
0
 10
693.965084
 20
983.990608
 30
0.0
 10
693.965084
 20
1037.663017
 30
0.0
  0
LWPOLYLINE
  5
4ac
100
AcDbEntity
  8
Layer_1
 62
1
100
AcDbPolyline
 90
2
 70
0
 10
687.771468
 20
1033.709760
 30
0.0
 10
687.771468
 20
928.134510
 30
0.0
  0
LWPOLYLINE
  5
4ad
100
AcDbEntity
  8
Layer_1
 62
1
100
AcDbPolyline
 90
2
 70
0
 10
681.577881
 20
924.181140
 30
0.0
 10
681.577881
 20
977.853506
 30
0.0
  0
LWPOLYLINE
  5
4ae
100
AcDbEntity
  8
Layer_1
 62
1
100
AcDbPolyline
 90
2
 70
0
 10
681.577881
 20
983.990608
 30
0.0
 10
681.577881
 20
1037.663017
 30
0.0
  0
LWPOLYLINE
  5
4af
100
AcDbEntity
  8
Layer_1
 62
1
100
AcDbPolyline
 90
2
 70
0
 10
675.384265
 20
1033.709760
 30
0.0
 10
675.384265
 20
928.134510
 30
0.0
  0
LWPOLYLINE
  5
4b0
100
AcDbEntity
  8
Layer_1
 62
1
100
AcDbPolyline
 90
2
 70
0
 10
669.190621
 20
924.181140
 30
0.0
 10
669.190621
 20
977.853506
 30
0.0
  0
LWPOLYLINE
  5
4b1
100
AcDbEntity
  8
Layer_1
 62
1
100
AcDbPolyline
 90
2
 70
0
 10
669.190621
 20
983.990608
 30
0.0
 10
669.190621
 20
1037.663017
 30
0.0
  0
LWPOLYLINE
  5
4b2
100
AcDbEntity
  8
Layer_1
 62
1
100
AcDbPolyline
 90
2
 70
0
 10
662.997005
 20
1033.709760
 30
0.0
 10
662.997005
 20
928.134510
 30
0.0
  0
LWPOLYLINE
  5
4b3
100
AcDbEntity
  8
Layer_1
 62
1
100
AcDbPolyline
 90
2
 70
0
 10
743.514039
 20
924.181140
 30
0.0
 10
743.514039
 20
977.853733
 30
0.0
  0
LWPOLYLINE
  5
4b4
100
AcDbEntity
  8
Layer_1
 62
1
100
AcDbPolyline
 90
2
 70
0
 10
743.514039
 20
983.990608
 30
0.0
 10
743.514039
 20
1037.663017
 30
0.0
  0
LWPOLYLINE
  5
4b5
100
AcDbEntity
  8
Layer_1
 62
1
100
AcDbPolyline
 90
2
 70
0
 10
737.320479
 20
1033.709760
 30
0.0
 10
737.320479
 20
928.134510
 30
0.0
  0
LWPOLYLINE
  5
4b6
100
AcDbEntity
  8
Layer_1
 62
1
100
AcDbPolyline
 90
2
 70
0
 10
731.126835
 20
924.181140
 30
0.0
 10
731.126835
 20
977.853506
 30
0.0
  0
LWPOLYLINE
  5
4b7
100
AcDbEntity
  8
Layer_1
 62
1
100
AcDbPolyline
 90
2
 70
0
 10
731.126835
 20
983.990608
 30
0.0
 10
731.126835
 20
1037.663017
 30
0.0
  0
LWPOLYLINE
  5
4b8
100
AcDbEntity
  8
Layer_1
 62
1
100
AcDbPolyline
 90
2
 70
0
 10
724.933220
 20
1033.709760
 30
0.0
 10
724.933220
 20
928.134510
 30
0.0
  0
LWPOLYLINE
  5
4b9
100
AcDbEntity
  8
Layer_1
 62
1
100
AcDbPolyline
 90
2
 70
0
 10
718.739604
 20
924.181140
 30
0.0
 10
718.739604
 20
977.853506
 30
0.0
  0
LWPOLYLINE
  5
4ba
100
AcDbEntity
  8
Layer_1
 62
1
100
AcDbPolyline
 90
2
 70
0
 10
718.739604
 20
983.990608
 30
0.0
 10
718.739604
 20
1037.663017
 30
0.0
  0
LWPOLYLINE
  5
4bb
100
AcDbEntity
  8
Layer_1
 62
1
100
AcDbPolyline
 90
2
 70
0
 10
712.545960
 20
1033.709760
 30
0.0
 10
712.545960
 20
928.134510
 30
0.0
  0
LWPOLYLINE
  5
4bc
100
AcDbEntity
  8
Layer_1
 62
1
100
AcDbPolyline
 90
2
 70
0
 10
706.352344
 20
924.181140
 30
0.0
 10
706.352344
 20
977.853733
 30
0.0
  0
LWPOLYLINE
  5
4bd
100
AcDbEntity
  8
Layer_1
 62
1
100
AcDbPolyline
 90
2
 70
0
 10
706.352344
 20
983.990608
 30
0.0
 10
706.352344
 20
1037.663017
 30
0.0
  0
LWPOLYLINE
  5
4be
100
AcDbEntity
  8
Layer_1
 62
1
100
AcDbPolyline
 90
2
 70
0
 10
700.158728
 20
1033.709760
 30
0.0
 10
700.158728
 20
928.134510
 30
0.0
  0
LWPOLYLINE
  5
4bf
100
AcDbEntity
  8
Layer_1
 62
1
100
AcDbPolyline
 90
2
 70
0
 10
793.063078
 20
924.181140
 30
0.0
 10
793.063078
 20
977.853733
 30
0.0
  0
LWPOLYLINE
  5
4c0
100
AcDbEntity
  8
Layer_1
 62
1
100
AcDbPolyline
 90
2
 70
0
 10
793.063078
 20
983.990608
 30
0.0
 10
793.063078
 20
1037.663017
 30
0.0
  0
LWPOLYLINE
  5
4c1
100
AcDbEntity
  8
Layer_1
 62
1
100
AcDbPolyline
 90
2
 70
0
 10
786.869434
 20
1033.709760
 30
0.0
 10
786.869434
 20
928.134510
 30
0.0
  0
LWPOLYLINE
  5
4c2
100
AcDbEntity
  8
Layer_1
 62
1
100
AcDbPolyline
 90
2
 70
0
 10
780.675790
 20
924.181140
 30
0.0
 10
780.675790
 20
977.853506
 30
0.0
  0
LWPOLYLINE
  5
4c3
100
AcDbEntity
  8
Layer_1
 62
1
100
AcDbPolyline
 90
2
 70
0
 10
780.675790
 20
983.990608
 30
0.0
 10
780.675790
 20
1037.663017
 30
0.0
  0
LWPOLYLINE
  5
4c4
100
AcDbEntity
  8
Layer_1
 62
1
100
AcDbPolyline
 90
2
 70
0
 10
774.482202
 20
1033.709760
 30
0.0
 10
774.482202
 20
928.134510
 30
0.0
  0
LWPOLYLINE
  5
4c5
100
AcDbEntity
  8
Layer_1
 62
1
100
AcDbPolyline
 90
2
 70
0
 10
768.288558
 20
924.181140
 30
0.0
 10
768.288558
 20
977.853506
 30
0.0
  0
LWPOLYLINE
  5
4c6
100
AcDbEntity
  8
Layer_1
 62
1
100
AcDbPolyline
 90
2
 70
0
 10
768.288558
 20
983.990608
 30
0.0
 10
768.288558
 20
1037.663017
 30
0.0
  0
LWPOLYLINE
  5
4c7
100
AcDbEntity
  8
Layer_1
 62
1
100
AcDbPolyline
 90
2
 70
0
 10
762.094914
 20
1033.709760
 30
0.0
 10
762.094914
 20
928.134510
 30
0.0
  0
LWPOLYLINE
  5
4c8
100
AcDbEntity
  8
Layer_1
 62
1
100
AcDbPolyline
 90
2
 70
0
 10
755.901327
 20
924.181140
 30
0.0
 10
755.901327
 20
977.853733
 30
0.0
  0
LWPOLYLINE
  5
4c9
100
AcDbEntity
  8
Layer_1
 62
1
100
AcDbPolyline
 90
2
 70
0
 10
755.901327
 20
983.990608
 30
0.0
 10
755.901327
 20
1037.663017
 30
0.0
  0
LWPOLYLINE
  5
4ca
100
AcDbEntity
  8
Layer_1
 62
1
100
AcDbPolyline
 90
2
 70
0
 10
749.707683
 20
1033.709760
 30
0.0
 10
749.707683
 20
928.134510
 30
0.0
  0
LWPOLYLINE
  5
4cb
100
AcDbEntity
  8
Layer_1
 62
1
100
AcDbPolyline
 90
2
 70
0
 10
811.643897
 20
1033.709760
 30
0.0
 10
811.643897
 20
928.134510
 30
0.0
  0
LWPOLYLINE
  5
4cc
100
AcDbEntity
  8
Layer_1
 62
1
100
AcDbPolyline
 90
2
 70
0
 10
805.450281
 20
924.181140
 30
0.0
 10
805.450281
 20
977.853733
 30
0.0
  0
LWPOLYLINE
  5
4cd
100
AcDbEntity
  8
Layer_1
 62
1
100
AcDbPolyline
 90
2
 70
0
 10
805.450281
 20
983.990608
 30
0.0
 10
805.450281
 20
1037.663017
 30
0.0
  0
LWPOLYLINE
  5
4ce
100
AcDbEntity
  8
Layer_1
 62
1
100
AcDbPolyline
 90
2
 70
0
 10
799.256637
 20
1033.709760
 30
0.0
 10
799.256637
 20
928.134510
 30
0.0
  0
LWPOLYLINE
  5
4cf
100
AcDbEntity
  8
Layer_1
 62
1
100
AcDbPolyline
 90
2
 70
0
 10
844.130070
 20
924.181140
 30
0.0
 10
844.130070
 20
977.853733
 30
0.0
  0
LWPOLYLINE
  5
4d0
100
AcDbEntity
  8
Layer_1
 62
1
100
AcDbPolyline
 90
2
 70
0
 10
844.130070
 20
983.990608
 30
0.0
 10
844.130070
 20
1037.663017
 30
0.0
  0
LWPOLYLINE
  5
4d1
100
AcDbEntity
  8
Layer_1
 62
1
100
AcDbPolyline
 90
2
 70
0
 10
837.936426
 20
1033.709760
 30
0.0
 10
837.936426
 20
928.134510
 30
0.0
  0
LWPOLYLINE
  5
4d2
100
AcDbEntity
  8
Layer_1
 62
1
100
AcDbPolyline
 90
2
 70
0
 10
831.742811
 20
924.181140
 30
0.0
 10
831.742811
 20
977.853506
 30
0.0
  0
LWPOLYLINE
  5
4d3
100
AcDbEntity
  8
Layer_1
 62
1
100
AcDbPolyline
 90
2
 70
0
 10
831.742811
 20
983.990608
 30
0.0
 10
831.742811
 20
1037.663017
 30
0.0
  0
LWPOLYLINE
  5
4d4
100
AcDbEntity
  8
Layer_1
 62
1
100
AcDbPolyline
 90
2
 70
0
 10
825.549195
 20
1033.709760
 30
0.0
 10
825.549195
 20
928.134510
 30
0.0
  0
LWPOLYLINE
  5
4d5
100
AcDbEntity
  8
Layer_1
 62
1
100
AcDbPolyline
 90
2
 70
0
 10
887.485409
 20
1033.709760
 30
0.0
 10
887.485409
 20
928.134510
 30
0.0
  0
LWPOLYLINE
  5
4d6
100
AcDbEntity
  8
Layer_1
 62
1
100
AcDbPolyline
 90
2
 70
0
 10
881.291765
 20
924.181140
 30
0.0
 10
881.291765
 20
977.853506
 30
0.0
  0
LWPOLYLINE
  5
4d7
100
AcDbEntity
  8
Layer_1
 62
1
100
AcDbPolyline
 90
2
 70
0
 10
881.291765
 20
983.990608
 30
0.0
 10
881.291765
 20
1037.663017
 30
0.0
  0
LWPOLYLINE
  5
4d8
100
AcDbEntity
  8
Layer_1
 62
1
100
AcDbPolyline
 90
2
 70
0
 10
875.098149
 20
1033.709760
 30
0.0
 10
875.098149
 20
928.134510
 30
0.0
  0
LWPOLYLINE
  5
4d9
100
AcDbEntity
  8
Layer_1
 62
1
100
AcDbPolyline
 90
2
 70
0
 10
868.904533
 20
924.181140
 30
0.0
 10
868.904533
 20
977.853506
 30
0.0
  0
LWPOLYLINE
  5
4da
100
AcDbEntity
  8
Layer_1
 62
1
100
AcDbPolyline
 90
2
 70
0
 10
868.904533
 20
983.990608
 30
0.0
 10
868.904533
 20
1037.663017
 30
0.0
  0
LWPOLYLINE
  5
4db
100
AcDbEntity
  8
Layer_1
 62
1
100
AcDbPolyline
 90
2
 70
0
 10
862.710918
 20
1033.709760
 30
0.0
 10
862.710918
 20
928.134510
 30
0.0
  0
LWPOLYLINE
  5
4dc
100
AcDbEntity
  8
Layer_1
 62
1
100
AcDbPolyline
 90
2
 70
0
 10
856.517274
 20
924.181140
 30
0.0
 10
856.517274
 20
977.853733
 30
0.0
  0
LWPOLYLINE
  5
4dd
100
AcDbEntity
  8
Layer_1
 62
1
100
AcDbPolyline
 90
2
 70
0
 10
856.517274
 20
983.990608
 30
0.0
 10
856.517274
 20
1037.663017
 30
0.0
  0
LWPOLYLINE
  5
4de
100
AcDbEntity
  8
Layer_1
 62
1
100
AcDbPolyline
 90
2
 70
0
 10
850.323658
 20
1033.709760
 30
0.0
 10
850.323658
 20
928.134510
 30
0.0
  0
LWPOLYLINE
  5
4df
100
AcDbEntity
  8
Layer_1
 62
1
100
AcDbPolyline
 90
2
 70
0
 10
943.923545
 20
924.181140
 30
0.0
 10
943.923545
 20
977.853733
 30
0.0
  0
LWPOLYLINE
  5
4e0
100
AcDbEntity
  8
Layer_1
 62
1
100
AcDbPolyline
 90
2
 70
0
 10
943.923545
 20
983.990608
 30
0.0
 10
943.923545
 20
1037.663017
 30
0.0
  0
LWPOLYLINE
  5
4e1
100
AcDbEntity
  8
Layer_1
 62
1
100
AcDbPolyline
 90
2
 70
0
 10
937.729901
 20
1033.709760
 30
0.0
 10
937.729901
 20
928.134510
 30
0.0
  0
LWPOLYLINE
  5
4e2
100
AcDbEntity
  8
Layer_1
 62
1
100
AcDbPolyline
 90
2
 70
0
 10
931.536257
 20
924.181140
 30
0.0
 10
931.536257
 20
977.853506
 30
0.0
  0
LWPOLYLINE
  5
4e3
100
AcDbEntity
  8
Layer_1
 62
1
100
AcDbPolyline
 90
2
 70
0
 10
931.536257
 20
983.990608
 30
0.0
 10
931.536257
 20
1037.663017
 30
0.0
  0
LWPOLYLINE
  5
4e4
100
AcDbEntity
  8
Layer_1
 62
1
100
AcDbPolyline
 90
2
 70
0
 10
925.342669
 20
1033.709760
 30
0.0
 10
925.342669
 20
928.134510
 30
0.0
  0
LWPOLYLINE
  5
4e5
100
AcDbEntity
  8
Layer_1
 62
1
100
AcDbPolyline
 90
2
 70
0
 10
919.149025
 20
924.181140
 30
0.0
 10
919.149025
 20
977.853506
 30
0.0
  0
LWPOLYLINE
  5
4e6
100
AcDbEntity
  8
Layer_1
 62
1
100
AcDbPolyline
 90
2
 70
0
 10
919.149025
 20
983.990608
 30
0.0
 10
919.149025
 20
1037.663017
 30
0.0
  0
LWPOLYLINE
  5
4e7
100
AcDbEntity
  8
Layer_1
 62
1
100
AcDbPolyline
 90
2
 70
0
 10
912.955409
 20
1033.709760
 30
0.0
 10
912.955409
 20
928.134510
 30
0.0
  0
LWPOLYLINE
  5
4e8
100
AcDbEntity
  8
Layer_1
 62
1
100
AcDbPolyline
 90
2
 70
0
 10
906.761793
 20
924.181140
 30
0.0
 10
906.761793
 20
977.853733
 30
0.0
  0
LWPOLYLINE
  5
4e9
100
AcDbEntity
  8
Layer_1
 62
1
100
AcDbPolyline
 90
2
 70
0
 10
906.761793
 20
983.990608
 30
0.0
 10
906.761793
 20
1037.663017
 30
0.0
  0
LWPOLYLINE
  5
4ea
100
AcDbEntity
  8
Layer_1
 62
1
100
AcDbPolyline
 90
2
 70
0
 10
900.568149
 20
1033.709760
 30
0.0
 10
900.568149
 20
928.134510
 30
0.0
  0
LWPOLYLINE
  5
4eb
100
AcDbEntity
  8
Layer_1
 62
1
100
AcDbPolyline
 90
2
 70
0
 10
974.891624
 20
1033.709760
 30
0.0
 10
974.891624
 20
928.134510
 30
0.0
  0
LWPOLYLINE
  5
4ec
100
AcDbEntity
  8
Layer_1
 62
1
100
AcDbPolyline
 90
2
 70
0
 10
968.697980
 20
924.181140
 30
0.0
 10
968.697980
 20
977.853506
 30
0.0
  0
LWPOLYLINE
  5
4ed
100
AcDbEntity
  8
Layer_1
 62
1
100
AcDbPolyline
 90
2
 70
0
 10
968.697980
 20
983.990608
 30
0.0
 10
968.697980
 20
1037.663017
 30
0.0
  0
LWPOLYLINE
  5
4ee
100
AcDbEntity
  8
Layer_1
 62
1
100
AcDbPolyline
 90
2
 70
0
 10
962.504392
 20
1033.709760
 30
0.0
 10
962.504392
 20
928.134510
 30
0.0
  0
LWPOLYLINE
  5
4ef
100
AcDbEntity
  8
Layer_1
 62
1
100
AcDbPolyline
 90
2
 70
0
 10
956.310748
 20
924.181140
 30
0.0
 10
956.310748
 20
977.853733
 30
0.0
  0
LWPOLYLINE
  5
4f0
100
AcDbEntity
  8
Layer_1
 62
1
100
AcDbPolyline
 90
2
 70
0
 10
956.310748
 20
983.990608
 30
0.0
 10
956.310748
 20
1037.663017
 30
0.0
  0
LWPOLYLINE
  5
4f1
100
AcDbEntity
  8
Layer_1
 62
1
100
AcDbPolyline
 90
2
 70
0
 10
950.117104
 20
1033.709760
 30
0.0
 10
950.117104
 20
928.134510
 30
0.0
  0
LWPOLYLINE
  5
4f2
100
AcDbEntity
  8
Layer_1
 62
1
100
AcDbPolyline
 90
5
 70
1
 10
-133.955974
 20
1037.855092
 30
0.0
 10
285.477944
 20
1037.855092
 30
0.0
 10
285.477944
 20
923.989067
 30
0.0
 10
-133.955974
 20
923.989067
 30
0.0
 10
-133.955974
 20
1037.855092
 30
0.0
  0
LWPOLYLINE
  5
4f3
100
AcDbEntity
  8
Layer_1
 62
1
100
AcDbPolyline
 90
4
 70
0
 10
285.477944
 20
1037.855089
 30
0.0
 10
621.383443
 20
1037.855089
 30
0.0
 10
621.383443
 20
923.989067
 30
0.0
 10
285.477944
 20
923.989067
 30
0.0
  0
LWPOLYLINE
  5
4f4
100
AcDbEntity
  8
Layer_1
 62
1
100
AcDbPolyline
 90
4
 70
0
 10
621.383443
 20
1037.855089
 30
0.0
 10
655.399191
 20
1037.855089
 30
0.0
 10
655.399191
 20
923.989067
 30
0.0
 10
621.383443
 20
923.989067
 30
0.0
  0
LWPOLYLINE
  5
4f5
100
AcDbEntity
  8
Layer_1
 62
1
100
AcDbPolyline
 90
4
 70
0
 10
655.399191
 20
1037.855089
 30
0.0
 10
819.241711
 20
1037.855089
 30
0.0
 10
819.241711
 20
923.989067
 30
0.0
 10
655.399191
 20
923.989067
 30
0.0
  0
LWPOLYLINE
  5
4f6
100
AcDbEntity
  8
Layer_1
 62
1
100
AcDbPolyline
 90
4
 70
0
 10
819.241711
 20
1037.855089
 30
0.0
 10
893.792893
 20
1037.855089
 30
0.0
 10
893.792893
 20
923.989067
 30
0.0
 10
819.241711
 20
923.989067
 30
0.0
  0
LWPOLYLINE
  5
4f7
100
AcDbEntity
  8
Layer_1
 62
1
100
AcDbPolyline
 90
4
 70
0
 10
893.792893
 20
1037.855089
 30
0.0
 10
981.666909
 20
1037.855089
 30
0.0
 10
981.666909
 20
923.989067
 30
0.0
 10
893.792893
 20
923.989067
 30
0.0
  0
LWPOLYLINE
  5
4f8
100
AcDbEntity
  8
Layer_1
 62
1
100
AcDbPolyline
 90
2
 70
0
 10
-82.176134
 20
924.181142
 30
0.0
 10
-82.176134
 20
977.853733
 30
0.0
  0
LWPOLYLINE
  5
4f9
100
AcDbEntity
  8
Layer_1
 62
1
100
AcDbPolyline
 90
2
 70
0
 10
-82.176134
 20
983.990611
 30
0.0
 10
-82.176134
 20
1037.663017
 30
0.0
  0
LWPOLYLINE
  5
4fa
100
AcDbEntity
  8
Layer_1
 62
1
100
AcDbPolyline
 90
2
 70
0
 10
-88.369744
 20
1033.709763
 30
0.0
 10
-88.369744
 20
928.134512
 30
0.0
  0
LWPOLYLINE
  5
4fb
100
AcDbEntity
  8
Layer_1
 62
1
100
AcDbPolyline
 90
2
 70
0
 10
-94.563328
 20
924.181142
 30
0.0
 10
-94.563328
 20
977.853506
 30
0.0
  0
LWPOLYLINE
  5
4fc
100
AcDbEntity
  8
Layer_1
 62
1
100
AcDbPolyline
 90
2
 70
0
 10
-94.563328
 20
983.990611
 30
0.0
 10
-94.563328
 20
1037.663017
 30
0.0
  0
LWPOLYLINE
  5
4fd
100
AcDbEntity
  8
Layer_1
 62
1
100
AcDbPolyline
 90
2
 70
0
 10
-100.756887
 20
1033.709763
 30
0.0
 10
-100.756887
 20
928.134512
 30
0.0
  0
LWPOLYLINE
  5
4fe
100
AcDbEntity
  8
Layer_1
 62
1
100
AcDbPolyline
 90
2
 70
0
 10
-106.950503
 20
924.181142
 30
0.0
 10
-106.950503
 20
977.853506
 30
0.0
  0
LWPOLYLINE
  5
4ff
100
AcDbEntity
  8
Layer_1
 62
1
100
AcDbPolyline
 90
2
 70
0
 10
-106.950503
 20
983.990611
 30
0.0
 10
-106.950503
 20
1037.663017
 30
0.0
  0
LWPOLYLINE
  5
500
100
AcDbEntity
  8
Layer_1
 62
1
100
AcDbPolyline
 90
2
 70
0
 10
-113.144091
 20
1033.709763
 30
0.0
 10
-113.144091
 20
928.134512
 30
0.0
  0
LWPOLYLINE
  5
501
100
AcDbEntity
  8
Layer_1
 62
1
100
AcDbPolyline
 90
2
 70
0
 10
-119.337706
 20
924.181142
 30
0.0
 10
-119.337706
 20
977.853733
 30
0.0
  0
LWPOLYLINE
  5
502
100
AcDbEntity
  8
Layer_1
 62
1
100
AcDbPolyline
 90
2
 70
0
 10
-119.337706
 20
983.990611
 30
0.0
 10
-119.337706
 20
1037.663017
 30
0.0
  0
LWPOLYLINE
  5
503
100
AcDbEntity
  8
Layer_1
 62
1
100
AcDbPolyline
 90
2
 70
0
 10
-32.627406
 20
924.181142
 30
0.0
 10
-32.627406
 20
977.853733
 30
0.0
  0
LWPOLYLINE
  5
504
100
AcDbEntity
  8
Layer_1
 62
1
100
AcDbPolyline
 90
2
 70
0
 10
-32.627406
 20
983.990611
 30
0.0
 10
-32.627406
 20
1037.663017
 30
0.0
  0
LWPOLYLINE
  5
505
100
AcDbEntity
  8
Layer_1
 62
1
100
AcDbPolyline
 90
2
 70
0
 10
-38.820985
 20
1033.709763
 30
0.0
 10
-38.820985
 20
928.134512
 30
0.0
  0
LWPOLYLINE
  5
506
100
AcDbEntity
  8
Layer_1
 62
1
100
AcDbPolyline
 90
2
 70
0
 10
-45.014564
 20
924.181142
 30
0.0
 10
-45.014564
 20
977.853506
 30
0.0
  0
LWPOLYLINE
  5
507
100
AcDbEntity
  8
Layer_1
 62
1
100
AcDbPolyline
 90
2
 70
0
 10
-45.014564
 20
983.990611
 30
0.0
 10
-45.014564
 20
1037.663017
 30
0.0
  0
LWPOLYLINE
  5
508
100
AcDbEntity
  8
Layer_1
 62
1
100
AcDbPolyline
 90
2
 70
0
 10
-51.208174
 20
1033.709763
 30
0.0
 10
-51.208174
 20
928.134512
 30
0.0
  0
LWPOLYLINE
  5
509
100
AcDbEntity
  8
Layer_1
 62
1
100
AcDbPolyline
 90
2
 70
0
 10
-57.401753
 20
924.181142
 30
0.0
 10
-57.401753
 20
977.853506
 30
0.0
  0
LWPOLYLINE
  5
50a
100
AcDbEntity
  8
Layer_1
 62
1
100
AcDbPolyline
 90
2
 70
0
 10
-57.401753
 20
983.990611
 30
0.0
 10
-57.401753
 20
1037.663017
 30
0.0
  0
LWPOLYLINE
  5
50b
100
AcDbEntity
  8
Layer_1
 62
1
100
AcDbPolyline
 90
2
 70
0
 10
-63.595366
 20
1033.709763
 30
0.0
 10
-63.595366
 20
928.134512
 30
0.0
  0
LWPOLYLINE
  5
50c
100
AcDbEntity
  8
Layer_1
 62
1
100
AcDbPolyline
 90
2
 70
0
 10
-69.788976
 20
924.181142
 30
0.0
 10
-69.788976
 20
977.853733
 30
0.0
  0
LWPOLYLINE
  5
50d
100
AcDbEntity
  8
Layer_1
 62
1
100
AcDbPolyline
 90
2
 70
0
 10
-69.788976
 20
983.990611
 30
0.0
 10
-69.788976
 20
1037.663017
 30
0.0
  0
LWPOLYLINE
  5
50e
100
AcDbEntity
  8
Layer_1
 62
1
100
AcDbPolyline
 90
2
 70
0
 10
-75.982521
 20
1033.709763
 30
0.0
 10
-75.982521
 20
928.134512
 30
0.0
  0
LWPOLYLINE
  5
50f
100
AcDbEntity
  8
Layer_1
 62
1
100
AcDbPolyline
 90
2
 70
0
 10
16.921350
 20
924.181142
 30
0.0
 10
16.921350
 20
977.853733
 30
0.0
  0
LWPOLYLINE
  5
510
100
AcDbEntity
  8
Layer_1
 62
1
100
AcDbPolyline
 90
2
 70
0
 10
16.921350
 20
983.990611
 30
0.0
 10
16.921350
 20
1037.663017
 30
0.0
  0
LWPOLYLINE
  5
511
100
AcDbEntity
  8
Layer_1
 62
1
100
AcDbPolyline
 90
2
 70
0
 10
10.727774
 20
1033.709763
 30
0.0
 10
10.727774
 20
928.134512
 30
0.0
  0
LWPOLYLINE
  5
512
100
AcDbEntity
  8
Layer_1
 62
1
100
AcDbPolyline
 90
2
 70
0
 10
4.534161
 20
924.181142
 30
0.0
 10
4.534161
 20
977.853506
 30
0.0
  0
LWPOLYLINE
  5
513
100
AcDbEntity
  8
Layer_1
 62
1
100
AcDbPolyline
 90
2
 70
0
 10
4.534161
 20
983.990611
 30
0.0
 10
4.534161
 20
1037.663017
 30
0.0
  0
LWPOLYLINE
  5
514
100
AcDbEntity
  8
Layer_1
 62
1
100
AcDbPolyline
 90
2
 70
0
 10
-1.659449
 20
1033.709763
 30
0.0
 10
-1.659449
 20
928.134512
 30
0.0
  0
LWPOLYLINE
  5
515
100
AcDbEntity
  8
Layer_1
 62
1
100
AcDbPolyline
 90
2
 70
0
 10
-7.853028
 20
924.181142
 30
0.0
 10
-7.853028
 20
977.853506
 30
0.0
  0
LWPOLYLINE
  5
516
100
AcDbEntity
  8
Layer_1
 62
1
100
AcDbPolyline
 90
2
 70
0
 10
-7.853028
 20
983.990611
 30
0.0
 10
-7.853028
 20
1037.663017
 30
0.0
  0
LWPOLYLINE
  5
517
100
AcDbEntity
  8
Layer_1
 62
1
100
AcDbPolyline
 90
2
 70
0
 10
-14.046607
 20
1033.709763
 30
0.0
 10
-14.046607
 20
928.134512
 30
0.0
  0
LWPOLYLINE
  5
518
100
AcDbEntity
  8
Layer_1
 62
1
100
AcDbPolyline
 90
2
 70
0
 10
-20.240217
 20
924.181142
 30
0.0
 10
-20.240217
 20
977.853733
 30
0.0
  0
LWPOLYLINE
  5
519
100
AcDbEntity
  8
Layer_1
 62
1
100
AcDbPolyline
 90
2
 70
0
 10
-20.240217
 20
983.990611
 30
0.0
 10
-20.240217
 20
1037.663017
 30
0.0
  0
LWPOLYLINE
  5
51a
100
AcDbEntity
  8
Layer_1
 62
1
100
AcDbPolyline
 90
2
 70
0
 10
-26.433796
 20
1033.709763
 30
0.0
 10
-26.433796
 20
928.134512
 30
0.0
  0
LWPOLYLINE
  5
51b
100
AcDbEntity
  8
Layer_1
 62
1
100
AcDbPolyline
 90
2
 70
0
 10
66.470174
 20
924.181142
 30
0.0
 10
66.470174
 20
977.853733
 30
0.0
  0
LWPOLYLINE
  5
51c
100
AcDbEntity
  8
Layer_1
 62
1
100
AcDbPolyline
 90
2
 70
0
 10
66.470174
 20
983.990611
 30
0.0
 10
66.470174
 20
1037.663017
 30
0.0
  0
LWPOLYLINE
  5
51d
100
AcDbEntity
  8
Layer_1
 62
1
100
AcDbPolyline
 90
2
 70
0
 10
60.276564
 20
1033.709763
 30
0.0
 10
60.276564
 20
928.134512
 30
0.0
  0
LWPOLYLINE
  5
51e
100
AcDbEntity
  8
Layer_1
 62
1
100
AcDbPolyline
 90
2
 70
0
 10
54.082920
 20
924.181142
 30
0.0
 10
54.082920
 20
977.853506
 30
0.0
  0
LWPOLYLINE
  5
51f
100
AcDbEntity
  8
Layer_1
 62
1
100
AcDbPolyline
 90
2
 70
0
 10
54.082920
 20
983.990611
 30
0.0
 10
54.082920
 20
1037.663017
 30
0.0
  0
LWPOLYLINE
  5
520
100
AcDbEntity
  8
Layer_1
 62
1
100
AcDbPolyline
 90
2
 70
0
 10
47.889310
 20
1033.709763
 30
0.0
 10
47.889310
 20
928.134512
 30
0.0
  0
LWPOLYLINE
  5
521
100
AcDbEntity
  8
Layer_1
 62
1
100
AcDbPolyline
 90
2
 70
0
 10
41.695731
 20
924.181142
 30
0.0
 10
41.695731
 20
977.853506
 30
0.0
  0
LWPOLYLINE
  5
522
100
AcDbEntity
  8
Layer_1
 62
1
100
AcDbPolyline
 90
2
 70
0
 10
41.695731
 20
983.990611
 30
0.0
 10
41.695731
 20
1037.663017
 30
0.0
  0
LWPOLYLINE
  5
523
100
AcDbEntity
  8
Layer_1
 62
1
100
AcDbPolyline
 90
2
 70
0
 10
35.502121
 20
1033.709763
 30
0.0
 10
35.502121
 20
928.134512
 30
0.0
  0
LWPOLYLINE
  5
524
100
AcDbEntity
  8
Layer_1
 62
1
100
AcDbPolyline
 90
2
 70
0
 10
29.308542
 20
924.181142
 30
0.0
 10
29.308542
 20
977.853733
 30
0.0
  0
LWPOLYLINE
  5
525
100
AcDbEntity
  8
Layer_1
 62
1
100
AcDbPolyline
 90
2
 70
0
 10
29.308542
 20
983.990611
 30
0.0
 10
29.308542
 20
1037.663017
 30
0.0
  0
LWPOLYLINE
  5
526
100
AcDbEntity
  8
Layer_1
 62
1
100
AcDbPolyline
 90
2
 70
0
 10
23.114929
 20
1033.709763
 30
0.0
 10
23.114929
 20
928.134512
 30
0.0
  0
LWPOLYLINE
  5
527
100
AcDbEntity
  8
Layer_1
 62
1
100
AcDbPolyline
 90
2
 70
0
 10
116.019129
 20
924.181142
 30
0.0
 10
116.019129
 20
977.853733
 30
0.0
  0
LWPOLYLINE
  5
528
100
AcDbEntity
  8
Layer_1
 62
1
100
AcDbPolyline
 90
2
 70
0
 10
116.019129
 20
983.990611
 30
0.0
 10
116.019129
 20
1037.663017
 30
0.0
  0
LWPOLYLINE
  5
529
100
AcDbEntity
  8
Layer_1
 62
1
100
AcDbPolyline
 90
2
 70
0
 10
109.825519
 20
1033.709763
 30
0.0
 10
109.825519
 20
928.134512
 30
0.0
  0
LWPOLYLINE
  5
52a
100
AcDbEntity
  8
Layer_1
 62
1
100
AcDbPolyline
 90
2
 70
0
 10
103.631909
 20
924.181142
 30
0.0
 10
103.631909
 20
977.853506
 30
0.0
  0
LWPOLYLINE
  5
52b
100
AcDbEntity
  8
Layer_1
 62
1
100
AcDbPolyline
 90
2
 70
0
 10
103.631909
 20
983.990611
 30
0.0
 10
103.631909
 20
1037.663017
 30
0.0
  0
LWPOLYLINE
  5
52c
100
AcDbEntity
  8
Layer_1
 62
1
100
AcDbPolyline
 90
2
 70
0
 10
97.438296
 20
1033.709763
 30
0.0
 10
97.438296
 20
928.134512
 30
0.0
  0
LWPOLYLINE
  5
52d
100
AcDbEntity
  8
Layer_1
 62
1
100
AcDbPolyline
 90
2
 70
0
 10
91.244651
 20
924.181142
 30
0.0
 10
91.244651
 20
977.853506
 30
0.0
  0
LWPOLYLINE
  5
52e
100
AcDbEntity
  8
Layer_1
 62
1
100
AcDbPolyline
 90
2
 70
0
 10
91.244651
 20
983.990611
 30
0.0
 10
91.244651
 20
1037.663017
 30
0.0
  0
LWPOLYLINE
  5
52f
100
AcDbEntity
  8
Layer_1
 62
1
100
AcDbPolyline
 90
2
 70
0
 10
85.051041
 20
1033.709763
 30
0.0
 10
85.051041
 20
928.134512
 30
0.0
  0
LWPOLYLINE
  5
530
100
AcDbEntity
  8
Layer_1
 62
1
100
AcDbPolyline
 90
2
 70
0
 10
78.857431
 20
924.181142
 30
0.0
 10
78.857431
 20
977.853733
 30
0.0
  0
LWPOLYLINE
  5
531
100
AcDbEntity
  8
Layer_1
 62
1
100
AcDbPolyline
 90
2
 70
0
 10
78.857431
 20
983.990611
 30
0.0
 10
78.857431
 20
1037.663017
 30
0.0
  0
LWPOLYLINE
  5
532
100
AcDbEntity
  8
Layer_1
 62
1
100
AcDbPolyline
 90
2
 70
0
 10
72.663787
 20
1033.709763
 30
0.0
 10
72.663787
 20
928.134512
 30
0.0
  0
LWPOLYLINE
  5
533
100
AcDbEntity
  8
Layer_1
 62
1
100
AcDbPolyline
 90
2
 70
0
 10
165.568084
 20
924.181142
 30
0.0
 10
165.568084
 20
977.853733
 30
0.0
  0
LWPOLYLINE
  5
534
100
AcDbEntity
  8
Layer_1
 62
1
100
AcDbPolyline
 90
2
 70
0
 10
165.568084
 20
983.990611
 30
0.0
 10
165.568084
 20
1037.663017
 30
0.0
  0
LWPOLYLINE
  5
535
100
AcDbEntity
  8
Layer_1
 62
1
100
AcDbPolyline
 90
2
 70
0
 10
159.374504
 20
1033.709763
 30
0.0
 10
159.374504
 20
928.134512
 30
0.0
  0
LWPOLYLINE
  5
536
100
AcDbEntity
  8
Layer_1
 62
1
100
AcDbPolyline
 90
2
 70
0
 10
153.180863
 20
924.181142
 30
0.0
 10
153.180863
 20
977.853506
 30
0.0
  0
LWPOLYLINE
  5
537
100
AcDbEntity
  8
Layer_1
 62
1
100
AcDbPolyline
 90
2
 70
0
 10
153.180863
 20
983.990611
 30
0.0
 10
153.180863
 20
1037.663017
 30
0.0
  0
LWPOLYLINE
  5
538
100
AcDbEntity
  8
Layer_1
 62
1
100
AcDbPolyline
 90
2
 70
0
 10
146.987250
 20
1033.709763
 30
0.0
 10
146.987250
 20
928.134512
 30
0.0
  0
LWPOLYLINE
  5
539
100
AcDbEntity
  8
Layer_1
 62
1
100
AcDbPolyline
 90
2
 70
0
 10
140.793640
 20
924.181142
 30
0.0
 10
140.793640
 20
977.853506
 30
0.0
  0
LWPOLYLINE
  5
53a
100
AcDbEntity
  8
Layer_1
 62
1
100
AcDbPolyline
 90
2
 70
0
 10
140.793640
 20
983.990611
 30
0.0
 10
140.793640
 20
1037.663017
 30
0.0
  0
LWPOLYLINE
  5
53b
100
AcDbEntity
  8
Layer_1
 62
1
100
AcDbPolyline
 90
2
 70
0
 10
134.599996
 20
1033.709763
 30
0.0
 10
134.599996
 20
928.134512
 30
0.0
  0
LWPOLYLINE
  5
53c
100
AcDbEntity
  8
Layer_1
 62
1
100
AcDbPolyline
 90
2
 70
0
 10
128.406386
 20
924.181142
 30
0.0
 10
128.406386
 20
977.853733
 30
0.0
  0
LWPOLYLINE
  5
53d
100
AcDbEntity
  8
Layer_1
 62
1
100
AcDbPolyline
 90
2
 70
0
 10
128.406386
 20
983.990611
 30
0.0
 10
128.406386
 20
1037.663017
 30
0.0
  0
LWPOLYLINE
  5
53e
100
AcDbEntity
  8
Layer_1
 62
1
100
AcDbPolyline
 90
2
 70
0
 10
122.212773
 20
1033.709763
 30
0.0
 10
122.212773
 20
928.134512
 30
0.0
  0
LWPOLYLINE
  5
53f
100
AcDbEntity
  8
Layer_1
 62
1
100
AcDbPolyline
 90
2
 70
0
 10
215.117104
 20
924.181142
 30
0.0
 10
215.117104
 20
977.853733
 30
0.0
  0
LWPOLYLINE
  5
540
100
AcDbEntity
  8
Layer_1
 62
1
100
AcDbPolyline
 90
2
 70
0
 10
215.117104
 20
983.990611
 30
0.0
 10
215.117104
 20
1037.663017
 30
0.0
  0
LWPOLYLINE
  5
541
100
AcDbEntity
  8
Layer_1
 62
1
100
AcDbPolyline
 90
2
 70
0
 10
208.923460
 20
1033.709763
 30
0.0
 10
208.923460
 20
928.134512
 30
0.0
  0
LWPOLYLINE
  5
542
100
AcDbEntity
  8
Layer_1
 62
1
100
AcDbPolyline
 90
2
 70
0
 10
202.729816
 20
924.181142
 30
0.0
 10
202.729816
 20
977.853506
 30
0.0
  0
LWPOLYLINE
  5
543
100
AcDbEntity
  8
Layer_1
 62
1
100
AcDbPolyline
 90
2
 70
0
 10
202.729816
 20
983.990611
 30
0.0
 10
202.729816
 20
1037.663017
 30
0.0
  0
LWPOLYLINE
  5
544
100
AcDbEntity
  8
Layer_1
 62
1
100
AcDbPolyline
 90
2
 70
0
 10
196.536238
 20
1033.709763
 30
0.0
 10
196.536238
 20
928.134512
 30
0.0
  0
LWPOLYLINE
  5
545
100
AcDbEntity
  8
Layer_1
 62
1
100
AcDbPolyline
 90
2
 70
0
 10
190.342594
 20
924.181142
 30
0.0
 10
190.342594
 20
977.853506
 30
0.0
  0
LWPOLYLINE
  5
546
100
AcDbEntity
  8
Layer_1
 62
1
100
AcDbPolyline
 90
2
 70
0
 10
190.342594
 20
983.990611
 30
0.0
 10
190.342594
 20
1037.663017
 30
0.0
  0
LWPOLYLINE
  5
547
100
AcDbEntity
  8
Layer_1
 62
1
100
AcDbPolyline
 90
2
 70
0
 10
184.148950
 20
1033.709763
 30
0.0
 10
184.148950
 20
928.134512
 30
0.0
  0
LWPOLYLINE
  5
548
100
AcDbEntity
  8
Layer_1
 62
1
100
AcDbPolyline
 90
2
 70
0
 10
177.955372
 20
924.181142
 30
0.0
 10
177.955372
 20
977.853733
 30
0.0
  0
LWPOLYLINE
  5
549
100
AcDbEntity
  8
Layer_1
 62
1
100
AcDbPolyline
 90
2
 70
0
 10
177.955372
 20
983.990611
 30
0.0
 10
177.955372
 20
1037.663017
 30
0.0
  0
LWPOLYLINE
  5
54a
100
AcDbEntity
  8
Layer_1
 62
1
100
AcDbPolyline
 90
2
 70
0
 10
171.761728
 20
1033.709763
 30
0.0
 10
171.761728
 20
928.134512
 30
0.0
  0
LWPOLYLINE
  5
54b
100
AcDbEntity
  8
Layer_1
 62
1
100
AcDbPolyline
 90
2
 70
0
 10
264.666058
 20
924.181142
 30
0.0
 10
264.666058
 20
977.853733
 30
0.0
  0
LWPOLYLINE
  5
54c
100
AcDbEntity
  8
Layer_1
 62
1
100
AcDbPolyline
 90
2
 70
0
 10
264.666058
 20
983.990611
 30
0.0
 10
264.666058
 20
1037.663017
 30
0.0
  0
LWPOLYLINE
  5
54d
100
AcDbEntity
  8
Layer_1
 62
1
100
AcDbPolyline
 90
2
 70
0
 10
258.472413
 20
1033.709763
 30
0.0
 10
258.472413
 20
928.134512
 30
0.0
  0
LWPOLYLINE
  5
54e
100
AcDbEntity
  8
Layer_1
 62
1
100
AcDbPolyline
 90
2
 70
0
 10
252.278803
 20
924.181142
 30
0.0
 10
252.278803
 20
977.853506
 30
0.0
  0
LWPOLYLINE
  5
54f
100
AcDbEntity
  8
Layer_1
 62
1
100
AcDbPolyline
 90
2
 70
0
 10
252.278803
 20
983.990611
 30
0.0
 10
252.278803
 20
1037.663017
 30
0.0
  0
LWPOLYLINE
  5
550
100
AcDbEntity
  8
Layer_1
 62
1
100
AcDbPolyline
 90
2
 70
0
 10
246.085193
 20
1033.709763
 30
0.0
 10
246.085193
 20
928.134512
 30
0.0
  0
LWPOLYLINE
  5
551
100
AcDbEntity
  8
Layer_1
 62
1
100
AcDbPolyline
 90
2
 70
0
 10
239.891549
 20
924.181142
 30
0.0
 10
239.891549
 20
977.853506
 30
0.0
  0
LWPOLYLINE
  5
552
100
AcDbEntity
  8
Layer_1
 62
1
100
AcDbPolyline
 90
2
 70
0
 10
239.891549
 20
983.990611
 30
0.0
 10
239.891549
 20
1037.663017
 30
0.0
  0
LWPOLYLINE
  5
553
100
AcDbEntity
  8
Layer_1
 62
1
100
AcDbPolyline
 90
2
 70
0
 10
233.697936
 20
1033.709763
 30
0.0
 10
233.697936
 20
928.134512
 30
0.0
  0
LWPOLYLINE
  5
554
100
AcDbEntity
  8
Layer_1
 62
1
100
AcDbPolyline
 90
2
 70
0
 10
227.504326
 20
924.181142
 30
0.0
 10
227.504326
 20
977.853733
 30
0.0
  0
LWPOLYLINE
  5
555
100
AcDbEntity
  8
Layer_1
 62
1
100
AcDbPolyline
 90
2
 70
0
 10
227.504326
 20
983.990611
 30
0.0
 10
227.504326
 20
1037.663017
 30
0.0
  0
LWPOLYLINE
  5
556
100
AcDbEntity
  8
Layer_1
 62
1
100
AcDbPolyline
 90
2
 70
0
 10
221.310682
 20
1033.709763
 30
0.0
 10
221.310682
 20
928.134512
 30
0.0
  0
LWPOLYLINE
  5
557
100
AcDbEntity
  8
Layer_1
 62
1
100
AcDbPolyline
 90
2
 70
0
 10
277.053281
 20
924.181142
 30
0.0
 10
277.053281
 20
977.853733
 30
0.0
  0
LWPOLYLINE
  5
558
100
AcDbEntity
  8
Layer_1
 62
1
100
AcDbPolyline
 90
2
 70
0
 10
277.053281
 20
983.990611
 30
0.0
 10
277.053281
 20
1037.663017
 30
0.0
  0
LWPOLYLINE
  5
559
100
AcDbEntity
  8
Layer_1
 62
1
100
AcDbPolyline
 90
2
 70
0
 10
270.859670
 20
1033.709763
 30
0.0
 10
270.859670
 20
928.134512
 30
0.0
  0
SPLINE
  5
55a
100
AcDbEntity
  8
Layer_1
 62
1
100
AcDbSpline
 70
8
 71
3
 72
8
 73
4
 74
0
 40
0
 40
0
 40
0
 40
0
 40
1
 40
1
 40
1
 40
1
 10
696.333490
 20
856.637725
 30
0.0
 10
696.051430
 20
856.644255
 30
0.0
 10
695.769512
 20
856.619576
 30
0.0
 10
695.492876
 20
856.564137
 30
0.0
  0
SPLINE
  5
55b
100
AcDbEntity
  8
Layer_1
 62
1
100
AcDbSpline
 70
8
 71
3
 72
8
 73
4
 74
0
 40
0
 40
0
 40
0
 40
0
 40
1
 40
1
 40
1
 40
1
 10
695.492876
 20
856.564137
 30
0.0
 10
682.358517
 20
853.942538
 30
0.0
 10
667.314769
 20
849.593499
 30
0.0
 10
654.102259
 20
844.456378
 30
0.0
  0
SPLINE
  5
55c
100
AcDbEntity
  8
Layer_1
 62
1
100
AcDbSpline
 70
8
 71
3
 72
8
 73
4
 74
0
 40
0
 40
0
 40
0
 40
0
 40
1
 40
1
 40
1
 40
1
 10
654.102259
 20
844.456378
 30
0.0
 10
641.159266
 20
839.423964
 30
0.0
 10
630.078665
 20
833.908364
 30
0.0
 10
623.838192
 20
827.556364
 30
0.0
  0
SPLINE
  5
55d
100
AcDbEntity
  8
Layer_1
 62
1
100
AcDbSpline
 70
8
 71
3
 72
8
 73
4
 74
0
 40
0
 40
0
 40
0
 40
0
 40
1
 40
1
 40
1
 40
1
 10
623.838192
 20
827.556364
 30
0.0
 10
626.101969
 20
824.784526
 30
0.0
 10
629.208259
 20
820.978764
 30
0.0
 10
630.222551
 20
819.851644
 30
0.0
  0
SPLINE
  5
55e
100
AcDbEntity
  8
Layer_1
 62
1
100
AcDbSpline
 70
8
 71
3
 72
8
 73
4
 74
0
 40
0
 40
0
 40
0
 40
0
 40
1
 40
1
 40
1
 40
1
 10
630.222551
 20
819.851644
 30
0.0
 10
638.628892
 20
810.510284
 30
0.0
 10
648.155314
 20
802.209324
 30
0.0
 10
658.049106
 20
796.271963
 30
0.0
  0
SPLINE
  5
55f
100
AcDbEntity
  8
Layer_1
 62
1
100
AcDbSpline
 70
8
 71
3
 72
8
 73
4
 74
0
 40
0
 40
0
 40
0
 40
0
 40
1
 40
1
 40
1
 40
1
 10
658.049106
 20
796.271963
 30
0.0
 10
664.209500
 20
792.575083
 30
0.0
 10
670.386108
 20
789.768205
 30
0.0
 10
676.105374
 20
787.678204
 30
0.0
  0
SPLINE
  5
560
100
AcDbEntity
  8
Layer_1
 62
1
100
AcDbSpline
 70
8
 71
3
 72
8
 73
4
 74
0
 40
0
 40
0
 40
0
 40
0
 40
1
 40
1
 40
1
 40
1
 10
676.105374
 20
787.678204
 30
0.0
 10
685.993667
 20
784.064765
 30
0.0
 10
694.515887
 20
782.795725
 30
0.0
 10
699.231944
 20
784.217325
 30
0.0
  0
SPLINE
  5
561
100
AcDbEntity
  8
Layer_1
 62
1
100
AcDbSpline
 70
8
 71
3
 72
8
 73
4
 74
0
 40
0
 40
0
 40
0
 40
0
 40
1
 40
1
 40
1
 40
1
 10
699.231944
 20
784.217325
 30
0.0
 10
699.530149
 20
784.307155
 30
0.0
 10
699.856615
 20
784.431568
 30
0.0
 10
700.180388
 20
784.553245
 30
0.0
  0
SPLINE
  5
562
100
AcDbEntity
  8
Layer_1
 62
1
100
AcDbSpline
 70
8
 71
3
 72
8
 73
4
 74
0
 40
0
 40
0
 40
0
 40
0
 40
1
 40
1
 40
1
 40
1
 10
700.180388
 20
784.553245
 30
0.0
 10
702.866328
 20
785.787484
 30
0.0
 10
705.369519
 20
787.387165
 30
0.0
 10
707.413185
 20
789.617323
 30
0.0
  0
SPLINE
  5
563
100
AcDbEntity
  8
Layer_1
 62
1
100
AcDbSpline
 70
8
 71
3
 72
8
 73
4
 74
0
 40
0
 40
0
 40
0
 40
0
 40
1
 40
1
 40
1
 40
1
 10
707.413185
 20
789.617323
 30
0.0
 10
713.797856
 20
796.584604
 30
0.0
 10
715.432199
 20
806.892604
 30
0.0
 10
713.780366
 20
818.218845
 30
0.0
  0
SPLINE
  5
564
100
AcDbEntity
  8
Layer_1
 62
1
100
AcDbSpline
 70
8
 71
3
 72
8
 73
4
 74
0
 40
0
 40
0
 40
0
 40
0
 40
1
 40
1
 40
1
 40
1
 10
713.780366
 20
818.218845
 30
0.0
 10
712.128533
 20
829.545084
 30
0.0
 10
707.182756
 20
842.198285
 30
0.0
 10
699.511610
 20
854.803244
 30
0.0
  0
SPLINE
  5
565
100
AcDbEntity
  8
Layer_1
 62
1
100
AcDbSpline
 70
8
 71
3
 72
8
 73
4
 74
0
 40
0
 40
0
 40
0
 40
0
 40
1
 40
1
 40
1
 40
1
 10
699.511610
 20
854.803244
 30
0.0
 10
698.833535
 20
855.915797
 30
0.0
 10
697.636036
 20
856.606959
 30
0.0
 10
696.333490
 20
856.637563
 30
0.0
  0
LWPOLYLINE
  5
566
100
AcDbEntity
  8
Layer_1
 62
1
100
AcDbPolyline
 90
2
 70
0
 10
-125.531322
 20
1033.709763
 30
0.0
 10
-125.531322
 20
928.134512
 30
0.0
  0
LWPOLYLINE
  5
567
100
AcDbEntity
  8
Layer_1
 62
1
100
AcDbPolyline
 90
2
 70
1
 10
696.333490
 20
856.637563
 30
0.0
 10
696.333490
 20
856.637725
 30
0.0
  0
LWPOLYLINE
  5
568
100
AcDbEntity
  8
Layer_1
 62
5
100
AcDbPolyline
 90
2
 70
0
 10
912.318212
 20
291.417140
 30
0.0
 10
912.318212
 20
253.886508
 30
0.0
  0
LWPOLYLINE
  5
569
100
AcDbEntity
  8
Layer_1
 62
5
100
AcDbPolyline
 90
2
 70
0
 10
931.083533
 20
272.651831
 30
0.0
 10
878.893075
 20
272.651831
 30
0.0
  0
LWPOLYLINE
  5
56a
100
AcDbEntity
  8
Layer_1
 62
5
100
AcDbPolyline
 90
2
 70
0
 10
925.587291
 20
285.920904
 30
0.0
 10
899.049129
 20
259.382739
 30
0.0
  0
LWPOLYLINE
  5
56b
100
AcDbEntity
  8
Layer_1
 62
5
100
AcDbPolyline
 90
2
 70
0
 10
925.587300
 20
259.382739
 30
0.0
 10
899.049129
 20
285.920913
 30
0.0
  0
LWPOLYLINE
  5
56c
100
AcDbEntity
  8
Layer_1
 62
5
100
AcDbPolyline
 90
2
 70
0
 10
907.420964
 20
284.474860
 30
0.0
 10
917.215482
 20
260.828799
 30
0.0
  0
LWPOLYLINE
  5
56d
100
AcDbEntity
  8
Layer_1
 62
5
100
AcDbPolyline
 90
2
 70
0
 10
924.141255
 20
277.549095
 30
0.0
 10
900.495187
 20
267.754572
 30
0.0
  0
LWPOLYLINE
  5
56e
100
AcDbEntity
  8
Layer_1
 62
5
100
AcDbPolyline
 90
2
 70
0
 10
917.215470
 20
284.474855
 30
0.0
 10
907.420952
 20
260.828794
 30
0.0
  0
LWPOLYLINE
  5
56f
100
AcDbEntity
  8
Layer_1
 62
5
100
AcDbPolyline
 90
2
 70
0
 10
924.141247
 20
267.754567
 30
0.0
 10
900.495178
 20
277.549090
 30
0.0
  0
SPLINE
  5
570
100
AcDbEntity
  8
Layer_1
 62
5
100
AcDbSpline
 70
8
 71
3
 72
8
 73
4
 74
0
 40
0
 40
0
 40
0
 40
0
 40
1
 40
1
 40
1
 40
1
 10
853.863081
 20
239.865483
 30
0.0
 10
853.750649
 20
240.371612
 30
0.0
 10
853.545237
 20
241.510549
 30
0.0
 10
853.406612
 20
242.396449
 30
0.0
  0
SPLINE
  5
571
100
AcDbEntity
  8
Layer_1
 62
5
100
AcDbSpline
 70
8
 71
3
 72
8
 73
4
 74
0
 40
0
 40
0
 40
0
 40
0
 40
1
 40
1
 40
1
 40
1
 10
853.406612
 20
242.396449
 30
0.0
 10
853.238004
 20
243.473921
 30
0.0
 10
852.791092
 20
244.350199
 30
0.0
 10
852.056680
 20
245.043282
 30
0.0
  0
LWPOLYLINE
  5
572
100
AcDbEntity
  8
Layer_1
 62
5
100
AcDbPolyline
 90
5
 70
1
 10
854.734905
 20
275.583757
 30
0.0
 10
878.392257
 20
275.583757
 30
0.0
 10
878.392257
 20
269.719975
 30
0.0
 10
854.734905
 20
269.719975
 30
0.0
 10
854.734905
 20
275.583757
 30
0.0
  0
SPLINE
  5
573
100
AcDbEntity
  8
Layer_1
 62
5
100
AcDbSpline
 70
8
 71
3
 72
8
 73
4
 74
0
 40
0
 40
0
 40
0
 40
0
 40
1
 40
1
 40
1
 40
1
 10
846.911511
 20
245.691311
 30
0.0
 10
844.685496
 20
245.477874
 30
0.0
 10
838.483895
 20
245.303244
 30
0.0
 10
833.130177
 20
245.303244
 30
0.0
  0
LWPOLYLINE
  5
574
100
AcDbEntity
  8
Layer_1
 62
5
100
AcDbPolyline
 90
3
 70
1
 10
852.056680
 20
245.043282
 30
0.0
 10
850.958803
 20
246.079383
 30
0.0
 10
846.911511
 20
245.691311
 30
0.0
  0
SPLINE
  5
575
100
AcDbEntity
  8
Layer_1
 62
5
100
AcDbSpline
 70
8
 71
3
 72
8
 73
4
 74
0
 40
0
 40
0
 40
0
 40
0
 40
1
 40
1
 40
1
 40
1
 10
818.201159
 20
242.991571
 30
0.0
 10
815.868680
 20
245.144619
 30
0.0
 10
813.957159
 20
246.091911
 30
0.0
 10
811.440061
 20
246.342170
 30
0.0
  0
SPLINE
  5
576
100
AcDbEntity
  8
Layer_1
 62
5
100
AcDbSpline
 70
8
 71
3
 72
8
 73
4
 74
0
 40
0
 40
0
 40
0
 40
0
 40
1
 40
1
 40
1
 40
1
 10
811.440061
 20
246.342170
 30
0.0
 10
809.272048
 20
246.557718
 30
0.0
 10
808.974677
 20
246.498604
 30
0.0
 10
806.882059
 20
245.436060
 30
0.0
  0
SPLINE
  5
577
100
AcDbEntity
  8
Layer_1
 62
5
100
AcDbSpline
 70
8
 71
3
 72
8
 73
4
 74
0
 40
0
 40
0
 40
0
 40
0
 40
1
 40
1
 40
1
 40
1
 10
806.882059
 20
245.436060
 30
0.0
 10
805.650790
 20
244.810865
 30
0.0
 10
804.420197
 20
244.299350
 30
0.0
 10
804.147403
 20
244.299350
 30
0.0
  0
SPLINE
  5
578
100
AcDbEntity
  8
Layer_1
 62
5
100
AcDbSpline
 70
8
 71
3
 72
8
 73
4
 74
0
 40
0
 40
0
 40
0
 40
0
 40
1
 40
1
 40
1
 40
1
 10
804.147403
 20
244.299350
 30
0.0
 10
803.350453
 20
244.299350
 30
0.0
 10
803.141538
 20
244.888323
 30
0.0
 10
803.680404
 20
245.615908
 30
0.0
  0
SPLINE
  5
579
100
AcDbEntity
  8
Layer_1
 62
5
100
AcDbSpline
 70
8
 71
3
 72
8
 73
4
 74
0
 40
0
 40
0
 40
0
 40
0
 40
1
 40
1
 40
1
 40
1
 10
803.680404
 20
245.615908
 30
0.0
 10
804.369580
 20
246.546439
 30
0.0
 10
803.731003
 20
247.008877
 30
0.0
 10
801.458618
 20
247.224851
 30
0.0
  0
LWPOLYLINE
  5
57a
100
AcDbEntity
  8
Layer_1
 62
5
100
AcDbPolyline
 90
5
 70
1
 10
833.130177
 20
245.303244
 30
0.0
 10
823.396141
 20
245.303244
 30
0.0
 10
821.449718
 20
243.546427
 30
0.0
 10
819.503290
 20
241.789615
 30
0.0
 10
818.201159
 20
242.991571
 30
0.0
  0
SPLINE
  5
57b
100
AcDbEntity
  8
Layer_1
 62
5
100
AcDbSpline
 70
8
 71
3
 72
8
 73
4
 74
0
 40
0
 40
0
 40
0
 40
0
 40
1
 40
1
 40
1
 40
1
 10
795.330467
 20
243.711129
 30
0.0
 10
792.959960
 20
241.683547
 30
0.0
 10
790.647487
 20
239.856299
 30
0.0
 10
790.191632
 20
239.650583
 30
0.0
  0
SPLINE
  5
57c
100
AcDbEntity
  8
Layer_1
 62
5
100
AcDbSpline
 70
8
 71
3
 72
8
 73
4
 74
0
 40
0
 40
0
 40
0
 40
0
 40
1
 40
1
 40
1
 40
1
 10
790.191632
 20
239.650583
 30
0.0
 10
789.466874
 20
239.323514
 30
0.0
 10
789.382141
 20
239.361175
 30
0.0
 10
789.516738
 20
239.950521
 30
0.0
  0
SPLINE
  5
57d
100
AcDbEntity
  8
Layer_1
 62
5
100
AcDbSpline
 70
8
 71
3
 72
8
 73
4
 74
0
 40
0
 40
0
 40
0
 40
0
 40
1
 40
1
 40
1
 40
1
 10
789.516738
 20
239.950521
 30
0.0
 10
789.601400
 20
240.321197
 30
0.0
 10
790.306901
 20
241.493659
 30
0.0
 10
791.084518
 20
242.555983
 30
0.0
  0
SPLINE
  5
57e
100
AcDbEntity
  8
Layer_1
 62
5
100
AcDbSpline
 70
8
 71
3
 72
8
 73
4
 74
0
 40
0
 40
0
 40
0
 40
0
 40
1
 40
1
 40
1
 40
1
 10
791.084518
 20
242.555983
 30
0.0
 10
793.440754
 20
245.774894
 30
0.0
 10
793.490885
 20
246.267952
 30
0.0
 10
791.855499
 20
250.138514
 30
0.0
  0
SPLINE
  5
57f
100
AcDbEntity
  8
Layer_1
 62
5
100
AcDbSpline
 70
8
 71
3
 72
8
 73
4
 74
0
 40
0
 40
0
 40
0
 40
0
 40
1
 40
1
 40
1
 40
1
 10
791.855499
 20
250.138514
 30
0.0
 10
789.560964
 20
255.569124
 30
0.0
 10
788.083947
 20
259.432621
 30
0.0
 10
788.249118
 20
259.571896
 30
0.0
  0
SPLINE
  5
580
100
AcDbEntity
  8
Layer_1
 62
5
100
AcDbSpline
 70
8
 71
3
 72
8
 73
4
 74
0
 40
0
 40
0
 40
0
 40
0
 40
1
 40
1
 40
1
 40
1
 10
788.249118
 20
259.571896
 30
0.0
 10
788.333732
 20
259.643244
 30
0.0
 10
790.854438
 20
257.873606
 30
0.0
 10
793.850681
 20
255.639363
 30
0.0
  0
LWPOLYLINE
  5
581
100
AcDbEntity
  8
Layer_1
 62
5
100
AcDbPolyline
 90
3
 70
1
 10
801.458618
 20
247.224851
 30
0.0
 10
799.640481
 20
247.397656
 30
0.0
 10
795.330467
 20
243.711129
 30
0.0
  0
SPLINE
  5
582
100
AcDbEntity
  8
Layer_1
 62
5
100
AcDbSpline
 70
8
 71
3
 72
8
 73
4
 74
0
 40
0
 40
0
 40
0
 40
0
 40
1
 40
1
 40
1
 40
1
 10
801.128290
 20
251.788600
 30
0.0
 10
803.667181
 20
252.082035
 30
0.0
 10
805.759723
 20
253.004078
 30
0.0
 10
805.910284
 20
253.895702
 30
0.0
  0
SPLINE
  5
583
100
AcDbEntity
  8
Layer_1
 62
5
100
AcDbSpline
 70
8
 71
3
 72
8
 73
4
 74
0
 40
0
 40
0
 40
0
 40
0
 40
1
 40
1
 40
1
 40
1
 10
805.910284
 20
253.895702
 30
0.0
 10
806.133867
 20
255.219760
 30
0.0
 10
806.996527
 20
255.490417
 30
0.0
 10
808.498426
 20
254.707718
 30
0.0
  0
LWPOLYLINE
  5
584
100
AcDbEntity
  8
Layer_1
 62
5
100
AcDbPolyline
 90
3
 70
1
 10
793.850681
 20
255.639363
 30
0.0
 10
799.298403
 20
251.577108
 30
0.0
 10
801.128290
 20
251.788600
 30
0.0
  0
SPLINE
  5
585
100
AcDbEntity
  8
Layer_1
 62
5
100
AcDbSpline
 70
8
 71
3
 72
8
 73
4
 74
0
 40
0
 40
0
 40
0
 40
0
 40
1
 40
1
 40
1
 40
1
 10
820.514323
 20
257.865913
 30
0.0
 10
833.763463
 20
262.657035
 30
0.0
 10
833.368279
 20
262.369239
 30
0.0
 10
833.368279
 20
267.226882
 30
0.0
  0
LWPOLYLINE
  5
586
100
AcDbEntity
  8
Layer_1
 62
5
100
AcDbPolyline
 90
3
 70
1
 10
808.498426
 20
254.707718
 30
0.0
 10
809.843042
 20
254.006987
 30
0.0
 10
820.514323
 20
257.865913
 30
0.0
  0
SPLINE
  5
587
100
AcDbEntity
  8
Layer_1
 62
5
100
AcDbSpline
 70
8
 71
3
 72
8
 73
4
 74
0
 40
0
 40
0
 40
0
 40
0
 40
1
 40
1
 40
1
 40
1
 10
834.658040
 20
270.732416
 30
0.0
 10
836.269369
 20
270.728396
 30
0.0
 10
839.290913
 20
269.287234
 30
0.0
 10
842.010854
 20
267.225173
 30
0.0
  0
LWPOLYLINE
  5
588
100
AcDbEntity
  8
Layer_1
 62
5
100
AcDbPolyline
 90
3
 70
1
 10
833.368279
 20
267.226882
 30
0.0
 10
833.368279
 20
270.735229
 30
0.0
 10
834.658040
 20
270.732416
 30
0.0
  0
SPLINE
  5
589
100
AcDbEntity
  8
Layer_1
 62
5
100
AcDbSpline
 70
8
 71
3
 72
8
 73
4
 74
0
 40
0
 40
0
 40
0
 40
0
 40
1
 40
1
 40
1
 40
1
 10
848.949697
 20
266.086257
 30
0.0
 10
851.620674
 20
266.328196
 30
0.0
 10
858.270575
 20
266.527465
 30
0.0
 10
863.727254
 20
266.529076
 30
0.0
  0
SPLINE
  5
58a
100
AcDbEntity
  8
Layer_1
 62
5
100
AcDbSpline
 70
8
 71
3
 72
8
 73
4
 74
0
 40
0
 40
0
 40
0
 40
0
 40
1
 40
1
 40
1
 40
1
 10
863.727254
 20
266.529076
 30
0.0
 10
884.569220
 20
266.535226
 30
0.0
 10
894.580703
 20
264.644239
 30
0.0
 10
893.469597
 20
260.911304
 30
0.0
  0
SPLINE
  5
58b
100
AcDbEntity
  8
Layer_1
 62
5
100
AcDbSpline
 70
8
 71
3
 72
8
 73
4
 74
0
 40
0
 40
0
 40
0
 40
0
 40
1
 40
1
 40
1
 40
1
 10
893.469597
 20
260.911304
 30
0.0
 10
893.104706
 20
259.685392
 30
0.0
 10
890.049456
 20
257.435996
 30
0.0
 10
887.414754
 20
256.453481
 30
0.0
  0
SPLINE
  5
58c
100
AcDbEntity
  8
Layer_1
 62
5
100
AcDbSpline
 70
8
 71
3
 72
8
 73
4
 74
0
 40
0
 40
0
 40
0
 40
0
 40
1
 40
1
 40
1
 40
1
 10
887.414754
 20
256.453481
 30
0.0
 10
886.177727
 20
255.992181
 30
0.0
 10
884.419407
 20
255.034767
 30
0.0
 10
883.507384
 20
254.325889
 30
0.0
  0
SPLINE
  5
58d
100
AcDbEntity
  8
Layer_1
 62
5
100
AcDbSpline
 70
8
 71
3
 72
8
 73
4
 74
0
 40
0
 40
0
 40
0
 40
0
 40
1
 40
1
 40
1
 40
1
 10
883.507384
 20
254.325889
 30
0.0
 10
881.802895
 20
253.001068
 30
0.0
 10
877.932371
 20
251.804818
 30
0.0
 10
866.505200
 20
249.071087
 30
0.0
  0
SPLINE
  5
58e
100
AcDbEntity
  8
Layer_1
 62
5
100
AcDbSpline
 70
8
 71
3
 72
8
 73
4
 74
0
 40
0
 40
0
 40
0
 40
0
 40
1
 40
1
 40
1
 40
1
 10
866.505200
 20
249.071087
 30
0.0
 10
862.106340
 20
248.018740
 30
0.0
 10
862.525366
 20
248.361368
 30
0.0
 10
860.111248
 20
243.842893
 30
0.0
  0
SPLINE
  5
58f
100
AcDbEntity
  8
Layer_1
 62
5
100
AcDbSpline
 70
8
 71
3
 72
8
 73
4
 74
0
 40
0
 40
0
 40
0
 40
0
 40
1
 40
1
 40
1
 40
1
 10
860.111248
 20
243.842893
 30
0.0
 10
858.895099
 20
241.566647
 30
0.0
 10
856.104773
 20
238.945571
 30
0.0
 10
854.897700
 20
238.945571
 30
0.0
  0
SPLINE
  5
590
100
AcDbEntity
  8
Layer_1
 62
5
100
AcDbSpline
 70
8
 71
3
 72
8
 73
4
 74
0
 40
0
 40
0
 40
0
 40
0
 40
1
 40
1
 40
1
 40
1
 10
854.897700
 20
238.945571
 30
0.0
 10
854.306161
 20
238.945571
 30
0.0
 10
854.008742
 20
239.210107
 30
0.0
 10
853.863081
 20
239.865809
 30
0.0
  0
LWPOLYLINE
  5
591
100
AcDbEntity
  8
Layer_1
 62
5
100
AcDbPolyline
 90
3
 70
1
 10
842.010854
 20
267.225173
 30
0.0
 10
844.093366
 20
265.646363
 30
0.0
 10
848.949697
 20
266.086257
 30
0.0
  0
SPLINE
  5
592
100
AcDbEntity
  8
Layer_1
 62
1
100
AcDbSpline
 70
8
 71
3
 72
8
 73
4
 74
0
 40
0
 40
0
 40
0
 40
0
 40
1
 40
1
 40
1
 40
1
 10
872.613744
 20
298.361580
 30
0.0
 10
817.757778
 20
298.361442
 30
0.0
 10
773.288475
 20
280.641044
 30
0.0
 10
773.288695
 20
258.781930
 30
0.0
  0
SPLINE
  5
593
100
AcDbEntity
  8
Layer_1
 62
1
100
AcDbSpline
 70
8
 71
3
 72
8
 73
4
 74
0
 40
0
 40
0
 40
0
 40
0
 40
1
 40
1
 40
1
 40
1
 10
773.288695
 20
258.781930
 30
0.0
 10
773.288514
 20
248.284792
 30
0.0
 10
783.752987
 20
238.217562
 30
0.0
 10
802.380049
 20
230.794915
 30
0.0
  0
SPLINE
  5
594
100
AcDbEntity
  8
Layer_1
 62
1
100
AcDbSpline
 70
8
 71
3
 72
8
 73
4
 74
0
 40
0
 40
0
 40
0
 40
0
 40
1
 40
1
 40
1
 40
1
 10
802.380049
 20
230.794915
 30
0.0
 10
821.007111
 20
223.372269
 30
0.0
 10
846.270928
 20
219.202233
 30
0.0
 10
872.613744
 20
219.202167
 30
0.0
  0
SPLINE
  5
595
100
AcDbEntity
  8
Layer_1
 62
1
100
AcDbSpline
 70
8
 71
3
 72
8
 73
4
 74
0
 40
0
 40
0
 40
0
 40
0
 40
1
 40
1
 40
1
 40
1
 10
872.613744
 20
219.202167
 30
0.0
 10
898.956821
 20
219.202074
 30
0.0
 10
924.221024
 20
223.372040
 30
0.0
 10
942.848410
 20
230.794704
 30
0.0
  0
SPLINE
  5
596
100
AcDbEntity
  8
Layer_1
 62
1
100
AcDbSpline
 70
8
 71
3
 72
8
 73
4
 74
0
 40
0
 40
0
 40
0
 40
0
 40
1
 40
1
 40
1
 40
1
 10
942.848410
 20
230.794704
 30
0.0
 10
961.475797
 20
238.217367
 30
0.0
 10
971.940477
 20
248.284688
 30
0.0
 10
971.940296
 20
258.781930
 30
0.0
  0
SPLINE
  5
597
100
AcDbEntity
  8
Layer_1
 62
1
100
AcDbSpline
 70
8
 71
3
 72
8
 73
4
 74
0
 40
0
 40
0
 40
0
 40
0
 40
1
 40
1
 40
1
 40
1
 10
971.940296
 20
258.781930
 30
0.0
 10
971.940401
 20
269.279152
 30
0.0
 10
961.475688
 20
279.346444
 30
0.0
 10
942.848310
 20
286.769083
 30
0.0
  0
SPLINE
  5
598
100
AcDbEntity
  8
Layer_1
 62
1
100
AcDbSpline
 70
8
 71
3
 72
8
 73
4
 74
0
 40
0
 40
0
 40
0
 40
0
 40
1
 40
1
 40
1
 40
1
 10
942.848310
 20
286.769083
 30
0.0
 10
924.220931
 20
294.191722
 30
0.0
 10
898.956772
 20
298.361672
 30
0.0
 10
872.613744
 20
298.361580
 30
0.0
  0
LWPOLYLINE
  5
599
100
AcDbEntity
  8
Layer_1
 62
5
100
AcDbPolyline
 90
2
 70
1
 10
853.863081
 20
239.865809
 30
0.0
 10
853.863081
 20
239.865483
 30
0.0
  0
SPLINE
  5
59a
100
AcDbEntity
  8
Layer_1
 62
1
100
AcDbSpline
 70
8
 71
3
 72
8
 73
4
 74
0
 40
0
 40
0
 40
0
 40
0
 40
1
 40
1
 40
1
 40
1
 10
950.452774
 20
265.867836
 30
0.0
 10
952.332297
 20
265.868079
 30
0.0
 10
954.134932
 20
265.121660
 30
0.0
 10
955.464107
 20
263.792788
 30
0.0
  0
SPLINE
  5
59b
100
AcDbEntity
  8
Layer_1
 62
1
100
AcDbSpline
 70
8
 71
3
 72
8
 73
4
 74
0
 40
0
 40
0
 40
0
 40
0
 40
1
 40
1
 40
1
 40
1
 10
955.464107
 20
263.792788
 30
0.0
 10
956.793281
 20
262.463917
 30
0.0
 10
957.540111
 20
260.661452
 30
0.0
 10
957.540296
 20
258.781930
 30
0.0
  0
SPLINE
  5
59c
100
AcDbEntity
  8
Layer_1
 62
1
100
AcDbSpline
 70
8
 71
3
 72
8
 73
4
 74
0
 40
0
 40
0
 40
0
 40
0
 40
1
 40
1
 40
1
 40
1
 10
957.540296
 20
258.781930
 30
0.0
 10
957.540539
 20
256.902128
 30
0.0
 10
956.793899
 20
255.099248
 30
0.0
 10
955.464678
 20
253.770027
 30
0.0
  0
SPLINE
  5
59d
100
AcDbEntity
  8
Layer_1
 62
1
100
AcDbSpline
 70
8
 71
3
 72
8
 73
4
 74
0
 40
0
 40
0
 40
0
 40
0
 40
1
 40
1
 40
1
 40
1
 10
955.464678
 20
253.770027
 30
0.0
 10
954.135457
 20
252.440806
 30
0.0
 10
952.332577
 20
251.694165
 30
0.0
 10
950.452774
 20
251.694408
 30
0.0
  0
SPLINE
  5
59e
100
AcDbEntity
  8
Layer_1
 62
1
100
AcDbSpline
 70
8
 71
3
 72
8
 73
4
 74
0
 40
0
 40
0
 40
0
 40
0
 40
1
 40
1
 40
1
 40
1
 10
950.452774
 20
251.694408
 30
0.0
 10
948.573252
 20
251.694594
 30
0.0
 10
946.770787
 20
252.441424
 30
0.0
 10
945.441915
 20
253.770598
 30
0.0
  0
SPLINE
  5
59f
100
AcDbEntity
  8
Layer_1
 62
1
100
AcDbSpline
 70
8
 71
3
 72
8
 73
4
 74
0
 40
0
 40
0
 40
0
 40
0
 40
1
 40
1
 40
1
 40
1
 10
945.441915
 20
253.770598
 30
0.0
 10
944.113044
 20
255.099773
 30
0.0
 10
943.366625
 20
256.902408
 30
0.0
 10
943.366869
 20
258.781930
 30
0.0
  0
SPLINE
  5
5a0
100
AcDbEntity
  8
Layer_1
 62
1
100
AcDbSpline
 70
8
 71
3
 72
8
 73
4
 74
0
 40
0
 40
0
 40
0
 40
0
 40
1
 40
1
 40
1
 40
1
 10
943.366869
 20
258.781930
 30
0.0
 10
943.367254
 20
262.695207
 30
0.0
 10
946.539496
 20
265.867449
 30
0.0
 10
950.452774
 20
265.867836
 30
0.0
  0
LWPOLYLINE
  5
5a1
100
AcDbEntity
  8
Layer_1
 62
1
100
AcDbPolyline
 90
2
 70
1
 10
872.613744
 20
298.361580
 30
0.0
 10
872.613744
 20
298.361580
 30
0.0
  0
LWPOLYLINE
  5
5a2
100
AcDbEntity
  8
Layer_1
 62
1
100
AcDbPolyline
 90
2
 70
1
 10
950.452774
 20
265.867836
 30
0.0
 10
950.452774
 20
265.867836
 30
0.0
  0
ENDSEC
  0
SECTION
  2
OBJECTS
  0
DICTIONARY
  5
C
330
0
100
AcDbDictionary
  3
ACAD_GROUP
350
D
  3
ACAD_MLINESTYLE
350
17
  0
DICTIONARY
  5
D
330
C
100
AcDbDictionary
  0
DICTIONARY
  5
1A
330
C
100
AcDbDictionary
  0
DICTIONARY
  5
17
330
C
100
AcDbDictionary
  3
STANDARD
350
18
  0
DICTIONARY
  5
19
330
C
100
AcDbDictionary
  0
ENDSEC
  0
EOF
