  0
SECTION
  2
HEADER
  9
$ACADVER
  1
AC1014
  9
$HANDSEED
  5
FFFF
  9
$MEASUREMENT
 70
     1
  0
ENDSEC
  0
SECTION
  2
TABLES
  0
TABLE
  2
VPORT
  5
8
330
0
100
AcDbSymbolTable
 70
     4
  0
VPORT
  5
2E
330
8
100
AcDbSymbolTableRecord
100
AcDbViewportTableRecord
  2
*ACTIVE
 70
     0
 10
0.0
 20
0.0
 11
1.0
 21
1.0
 12
210.0
 22
148.5
 13
0.0
 23
0.0
 14
10.0
 24
10.0
 15
10.0
 25
10.0
 16
0.0
 26
0.0
 36
1.0
 17
0.0
 27
0.0
 37
0.0
 40
341.0
 41
1.24
 42
50.0
 43
0.0
 44
0.0
 50
0.0
 51
0.0
 71
     0
 72
   100
 73
     1
 74
     3
 75
     0
 76
     0
 77
     0
 78
     0
  0
ENDTAB
  0
TABLE
  2
LTYPE
  5
5
330
0
100
AcDbSymbolTable
 70
     1
  0
LTYPE
  5
14
330
5
100
AcDbSymbolTableRecord
100
AcDbLinetypeTableRecord
  2
BYBLOCK
 70
     0
  3

 72
    65
 73
     0
 40
0.0
  0
LTYPE
  5
15
330
5
100
AcDbSymbolTableRecord
100
AcDbLinetypeTableRecord
  2
BYLAYER
 70
     0
  3

 72
    65
 73
     0
 40
0.0
  0
LTYPE
  5
16
330
5
100
AcDbSymbolTableRecord
100
AcDbLinetypeTableRecord
  2
CONTINUOUS
 70
     0
  3
Solid line
 72
    65
 73
     0
 40
0.0
  0
ENDTAB
  0
TABLE
  2
LAYER
  5
2
100
AcDbSymbolTable
 70
1
  0
LAYER
  5
50
100
AcDbSymbolTableRecord
100
AcDbLayerTableRecord
  2
0
 70
0
  6
CONTINUOUS
  0
ENDTAB
  0
TABLE
  2
STYLE
  5
3
330
0
100
AcDbSymbolTable
 70
     1
  0
STYLE
  5
11
330
3
100
AcDbSymbolTableRecord
100
AcDbTextStyleTableRecord
  2
STANDARD
 70
     0
 40
0.0
 41
1.0
 50
0.0
 71
     0
 42
2.5
  3
txt
  4

  0
ENDTAB
  0
TABLE
  2
VIEW
  5
6
330
0
100
AcDbSymbolTable
 70
     0
  0
ENDTAB
  0
TABLE
  2
UCS
  5
7
330
0
100
AcDbSymbolTable
 70
     0
  0
ENDTAB
  0
TABLE
  2
APPID
  5
9
330
0
100
AcDbSymbolTable
 70
     2
  0
APPID
  5
12
330
9
100
AcDbSymbolTableRecord
100
AcDbRegAppTableRecord
  2
ACAD
 70
     0
  0
ENDTAB
  0
TABLE
  2
DIMSTYLE
  5
A
330
0
100
AcDbSymbolTable
 70
     1
  0
DIMSTYLE
105
27
330
A
100
AcDbSymbolTableRecord
100
AcDbDimStyleTableRecord
  2
ISO-25
 70
     0
  3

  4

  5

  6

  7

 40
1.0
 41
2.5
 42
0.625
 43
3.75
 44
1.25
 45
0.0
 46
0.0
 47
0.0
 48
0.0
140
2.5
141
2.5
142
0.0
143
0.03937007874016
144
1.0
145
0.0
146
1.0
147
0.625
 71
     0
 72
     0
 73
     0
 74
     0
 75
     0
 76
     0
 77
     1
 78
     8
170
     0
171
     3
172
     1
173
     0
174
     0
175
     0
176
     0
177
     0
178
     0
270
     2
271
     2
272
     2
273
     2
274
     3
340
11
275
     0
280
     0
281
     0
282
     0
283
     0
284
     8
285
     0
286
     0
287
     3
288
     0
  0
ENDTAB
  0
TABLE
  2
BLOCK_RECORD
  5
1
330
0
100
AcDbSymbolTable
 70
     1
  0
BLOCK_RECORD
  5
1F
330
1
100
AcDbSymbolTableRecord
100
AcDbBlockTableRecord
  2
*MODEL_SPACE
  0
BLOCK_RECORD
  5
1B
330
1
100
AcDbSymbolTableRecord
100
AcDbBlockTableRecord
  2
*PAPER_SPACE
  0
ENDTAB
  0
ENDSEC
  0
SECTION
  2
BLOCKS
  0
BLOCK
  5
20
330
1F
100
AcDbEntity
  8
0
100
AcDbBlockBegin
  2
*MODEL_SPACE
 70
     0
 10
0.0
 20
0.0
 30
0.0
  3
*MODEL_SPACE
  1

  0
ENDBLK
  5
21
330
1F
100
AcDbEntity
  8
0
100
AcDbBlockEnd
  0
BLOCK
  5
1C
330
1B
100
AcDbEntity
 67
     1
  8
0
100
AcDbBlockBegin
  2
*PAPER_SPACE
  1

  0
ENDBLK
  5
1D
330
1B
100
AcDbEntity
 67
     1
  8
0
100
AcDbBlockEnd
  0
ENDSEC
  0
SECTION
  2
ENTITIES
  0
SPLINE
  5
100
100
AcDbEntity
  8
0
 62
1
100
AcDbSpline
 70
8
 71
3
 72
8
 73
4
 74
0
 40
0
 40
0
 40
0
 40
0
 40
1
 40
1
 40
1
 40
1
 10
144.515300
 20
739.947585
 30
0.0
 10
144.515300
 20
739.947585
 30
0.0
 10
157.270190
 20
741.655195
 30
0.0
 10
157.270190
 20
741.655195
 30
0.0
  0
SPLINE
  5
101
100
AcDbEntity
  8
0
 62
1
100
AcDbSpline
 70
8
 71
3
 72
8
 73
4
 74
0
 40
0
 40
0
 40
0
 40
0
 40
1
 40
1
 40
1
 40
1
 10
157.270190
 20
741.655195
 30
0.0
 10
158.321588
 20
732.946387
 30
0.0
 10
159.065750
 20
724.203231
 30
0.0
 10
159.501290
 20
715.442005
 30
0.0
  0
SPLINE
  5
102
100
AcDbEntity
  8
0
 62
1
100
AcDbSpline
 70
8
 71
3
 72
8
 73
4
 74
0
 40
0
 40
0
 40
0
 40
0
 40
1
 40
1
 40
1
 40
1
 10
159.501290
 20
715.442005
 30
0.0
 10
165.245771
 20
694.209253
 30
0.0
 10
172.078392
 20
673.285971
 30
0.0
 10
179.972080
 20
652.755055
 30
0.0
  0
SPLINE
  5
103
100
AcDbEntity
  8
0
 62
1
100
AcDbSpline
 70
8
 71
3
 72
8
 73
4
 74
0
 40
0
 40
0
 40
0
 40
0
 40
1
 40
1
 40
1
 40
1
 10
179.972080
 20
652.755055
 30
0.0
 10
184.983381
 20
644.314712
 30
0.0
 10
189.470751
 20
635.574104
 30
0.0
 10
193.408770
 20
626.582745
 30
0.0
  0
LWPOLYLINE
  5
104
100
AcDbEntity
  8
0
 62
1
100
AcDbPolyline
 90
17
 70
0
 10
164.127910
 20
649.490275
 30
0.0
 10
149.635290
 20
649.342485
 30
0.0
 10
143.720030
 20
662.200265
 30
0.0
 10
160.578720
 20
663.530395
 30
0.0
 10
157.248470
 20
673.140145
 30
0.0
 10
141.066730
 20
673.405255
 30
0.0
 10
135.495920
 20
685.865355
 30
0.0
 10
151.147190
 20
686.660705
 30
0.0
 10
150.881920
 20
696.734835
 30
0.0
 10
134.169570
 20
695.939525
 30
0.0
 10
132.843140
 20
704.157895
 30
0.0
 10
134.700110
 20
711.580955
 30
0.0
 10
150.351310
 20
711.050705
 30
0.0
 10
150.351310
 20
718.473765
 30
0.0
 10
139.209760
 20
719.269115
 30
0.0
 10
131.702100
 20
733.917835
 30
0.0
 10
144.515300
 20
739.947585
 30
0.0
  0
SPLINE
  5
105
100
AcDbEntity
  8
0
 62
1
100
AcDbSpline
 70
8
 71
3
 72
8
 73
4
 74
0
 40
0
 40
0
 40
0
 40
0
 40
1
 40
1
 40
1
 40
1
 10
156.585820
 20
624.809265
 30
0.0
 10
156.585820
 20
624.809265
 30
0.0
 10
153.776040
 20
625.991575
 30
0.0
 10
153.776040
 20
625.991575
 30
0.0
  0
SPLINE
  5
106
100
AcDbEntity
  8
0
 62
1
100
AcDbSpline
 70
8
 71
3
 72
8
 73
4
 74
0
 40
0
 40
0
 40
0
 40
0
 40
1
 40
1
 40
1
 40
1
 10
153.776040
 20
625.991575
 30
0.0
 10
152.079436
 20
630.211584
 30
0.0
 10
151.322481
 20
634.750528
 30
0.0
 10
151.557820
 20
639.292725
 30
0.0
  0
LWPOLYLINE
  5
107
100
AcDbEntity
  8
0
 62
1
100
AcDbPolyline
 90
3
 70
0
 10
193.408770
 20
626.582745
 30
0.0
 10
191.042620
 20
624.218095
 30
0.0
 10
156.585820
 20
624.809265
 30
0.0
  0
LWPOLYLINE
  5
108
100
AcDbEntity
  8
0
 62
1
100
AcDbPolyline
 90
3
 70
0
 10
151.557820
 20
639.292725
 30
0.0
 10
166.789770
 20
639.736105
 30
0.0
 10
164.127910
 20
649.490275
 30
0.0
  0
SPLINE
  5
109
100
AcDbEntity
  8
0
 62
1
100
AcDbSpline
 70
8
 71
3
 72
8
 73
4
 74
0
 40
0
 40
0
 40
0
 40
0
 40
1
 40
1
 40
1
 40
1
 10
521.367770
 20
420.167775
 30
0.0
 10
518.116853
 20
421.841515
 30
0.0
 10
515.433556
 20
424.439330
 30
0.0
 10
513.655480
 20
427.634375
 30
0.0
  0
LWPOLYLINE
  5
10a
100
AcDbEntity
  8
0
 62
1
100
AcDbPolyline
 90
9
 70
0
 10
548.119770
 20
397.045425
 30
0.0
 10
546.191690
 20
394.155125
 30
0.0
 10
527.392990
 20
395.118555
 30
0.0
 10
521.849790
 20
398.249705
 30
0.0
 10
518.234660
 20
405.234585
 30
0.0
 10
519.439700
 20
409.329175
 30
0.0
 10
532.936200
 20
410.051745
 30
0.0
 10
532.695190
 20
419.686065
 30
0.0
 10
521.367770
 20
420.167775
 30
0.0
  0
SPLINE
  5
10b
100
AcDbEntity
  8
0
 62
1
100
AcDbSpline
 70
8
 71
3
 72
8
 73
4
 74
0
 40
0
 40
0
 40
0
 40
0
 40
1
 40
1
 40
1
 40
1
 10
526.669970
 20
435.823545
 30
0.0
 10
526.669970
 20
435.823545
 30
0.0
 10
524.018870
 20
443.049275
 30
0.0
 10
524.018870
 20
443.049275
 30
0.0
  0
SPLINE
  5
10c
100
AcDbEntity
  8
0
 62
1
100
AcDbSpline
 70
8
 71
3
 72
8
 73
4
 74
0
 40
0
 40
0
 40
0
 40
0
 40
1
 40
1
 40
1
 40
1
 10
524.018870
 20
443.049275
 30
0.0
 10
518.565293
 20
443.441990
 30
0.0
 10
513.097488
 20
443.602708
 30
0.0
 10
507.630260
 20
443.530995
 30
0.0
  0
LWPOLYLINE
  5
10d
100
AcDbEntity
  8
0
 62
1
100
AcDbPolyline
 90
3
 70
0
 10
513.655480
 20
427.634375
 30
0.0
 10
513.414470
 20
431.969815
 30
0.0
 10
526.669970
 20
435.823545
 30
0.0
  0
SPLINE
  5
10e
100
AcDbEntity
  8
0
 62
1
100
AcDbSpline
 70
8
 71
3
 72
8
 73
4
 74
0
 40
0
 40
0
 40
0
 40
0
 40
1
 40
1
 40
1
 40
1
 10
520.370330
 20
481.159795
 30
0.0
 10
520.370330
 20
481.159795
 30
0.0
 10
533.588480
 20
449.707725
 30
0.0
 10
533.588480
 20
449.707725
 30
0.0
  0
SPLINE
  5
10f
100
AcDbEntity
  8
0
 62
1
100
AcDbSpline
 70
8
 71
3
 72
8
 73
4
 74
0
 40
0
 40
0
 40
0
 40
0
 40
1
 40
1
 40
1
 40
1
 10
533.588480
 20
449.707725
 30
0.0
 10
538.966694
 20
440.660909
 30
0.0
 10
543.200183
 20
430.980992
 30
0.0
 10
546.191690
 20
420.890355
 30
0.0
  0
LWPOLYLINE
  5
110
100
AcDbEntity
  8
0
 62
1
100
AcDbPolyline
 90
11
 70
0
 10
507.630260
 20
443.530995
 30
0.0
 10
503.533110
 20
450.997585
 30
0.0
 10
503.292100
 20
456.778175
 30
0.0
 10
517.029610
 20
459.186755
 30
0.0
 10
513.655480
 20
466.171635
 30
0.0
 10
503.292100
 20
464.967345
 30
0.0
 10
498.953940
 20
467.375925
 30
0.0
 10
495.097790
 20
473.879085
 30
0.0
 10
496.302840
 20
479.900535
 30
0.0
 10
505.236530
 20
481.847265
 30
0.0
 10
520.370330
 20
481.159795
 30
0.0
  0
LWPOLYLINE
  5
111
100
AcDbEntity
  8
0
 62
1
100
AcDbPolyline
 90
3
 70
0
 10
546.191690
 20
420.890355
 30
0.0
 10
549.083800
 20
404.512015
 30
0.0
 10
548.119770
 20
397.045425
 30
0.0
  0
SPLINE
  5
112
100
AcDbEntity
  8
0
 62
1
100
AcDbSpline
 70
8
 71
3
 72
8
 73
4
 74
0
 40
0
 40
0
 40
0
 40
0
 40
1
 40
1
 40
1
 40
1
 10
152.578030
 20
979.731665
 30
0.0
 10
155.424247
 20
977.606733
 30
0.0
 10
158.905998
 20
976.507923
 30
0.0
 10
162.456350
 20
976.614155
 30
0.0
  0
SPLINE
  5
113
100
AcDbEntity
  8
0
 62
1
100
AcDbSpline
 70
8
 71
3
 72
8
 73
4
 74
0
 40
0
 40
0
 40
0
 40
0
 40
1
 40
1
 40
1
 40
1
 10
162.456350
 20
976.614155
 30
0.0
 10
169.137377
 20
978.454916
 30
0.0
 10
175.265965
 20
981.903803
 30
0.0
 10
180.306620
 20
986.659465
 30
0.0
  0
LWPOLYLINE
  5
114
100
AcDbEntity
  8
0
 62
1
100
AcDbPolyline
 90
6
 70
0
 10
135.940880
 20
971.071915
 30
0.0
 10
132.301500
 20
974.535815
 30
0.0
 10
132.128210
 20
978.865695
 30
0.0
 10
134.381150
 20
981.983205
 30
0.0
 10
143.219630
 20
982.502785
 30
0.0
 10
152.578030
 20
979.731665
 30
0.0
  0
SPLINE
  5
115
100
AcDbEntity
  8
0
 62
1
100
AcDbSpline
 70
8
 71
3
 72
8
 73
4
 74
0
 40
0
 40
0
 40
0
 40
0
 40
1
 40
1
 40
1
 40
1
 10
185.179890
 20
1014.244715
 30
0.0
 10
185.179890
 20
1014.244715
 30
0.0
 10
179.807480
 20
1017.535415
 30
0.0
 10
179.807480
 20
1017.535415
 30
0.0
  0
SPLINE
  5
116
100
AcDbEntity
  8
0
 62
1
100
AcDbSpline
 70
8
 71
3
 72
8
 73
4
 74
0
 40
0
 40
0
 40
0
 40
0
 40
1
 40
1
 40
1
 40
1
 10
179.807480
 20
1017.535415
 30
0.0
 10
176.679782
 20
1011.685053
 30
0.0
 10
174.514650
 20
1005.369174
 30
0.0
 10
173.395240
 20
998.830355
 30
0.0
  0
LWPOLYLINE
  5
117
100
AcDbEntity
  8
0
 62
1
100
AcDbPolyline
 90
4
 70
0
 10
180.306620
 20
986.659465
 30
0.0
 10
184.833280
 20
994.500475
 30
0.0
 10
186.739630
 20
1005.584965
 30
0.0
 10
185.179890
 20
1014.244715
 30
0.0
  0
SPLINE
  5
118
100
AcDbEntity
  8
0
 62
1
100
AcDbSpline
 70
8
 71
3
 72
8
 73
4
 74
0
 40
0
 40
0
 40
0
 40
0
 40
1
 40
1
 40
1
 40
1
 10
112.045740
 20
995.366455
 30
0.0
 10
112.045740
 20
995.366455
 30
0.0
 10
106.846640
 20
996.578815
 30
0.0
 10
106.846640
 20
996.578815
 30
0.0
  0
SPLINE
  5
119
100
AcDbEntity
  8
0
 62
1
100
AcDbSpline
 70
8
 71
3
 72
8
 73
4
 74
0
 40
0
 40
0
 40
0
 40
0
 40
1
 40
1
 40
1
 40
1
 10
106.846640
 20
996.578815
 30
0.0
 10
107.450166
 20
1007.026700
 30
0.0
 10
107.276381
 20
1017.504992
 30
0.0
 10
106.326720
 20
1027.927117
 30
0.0
  0
LWPOLYLINE
  5
11a
100
AcDbEntity
  8
0
 62
1
100
AcDbPolyline
 90
21
 70
0
 10
173.395240
 20
998.830355
 30
0.0
 10
167.329620
 20
1000.389105
 30
0.0
 10
168.716040
 20
1014.937485
 30
0.0
 10
167.849520
 20
1021.345705
 30
0.0
 10
162.477110
 20
1022.038485
 30
0.0
 10
159.011040
 20
1020.479735
 30
0.0
 10
156.238180
 20
1000.908695
 30
0.0
 10
153.638620
 20
997.271595
 30
0.0
 10
147.053090
 20
998.137575
 30
0.0
 10
147.746300
 20
1014.417905
 30
0.0
 10
145.839960
 20
1017.362225
 30
0.0
 10
139.947630
 20
1014.591095
 30
0.0
 10
138.387900
 20
1011.993175
 30
0.0
 10
136.481560
 20
998.310765
 30
0.0
 10
134.228610
 20
996.232425
 30
0.0
 10
128.336290
 20
996.232425
 30
0.0
 10
128.509590
 20
1011.819975
 30
0.0
 10
119.671100
 20
1011.300395
 30
0.0
 10
115.858420
 20
1009.222055
 30
0.0
 10
114.818600
 20
998.830355
 30
0.0
 10
112.045740
 20
995.366455
 30
0.0
  0
SPLINE
  5
11b
100
AcDbEntity
  8
0
 62
1
100
AcDbSpline
 70
8
 71
3
 72
8
 73
4
 74
0
 40
0
 40
0
 40
0
 40
0
 40
1
 40
1
 40
1
 40
1
 10
159.360090
 20
1060.194874
 30
0.0
 10
159.360090
 20
1060.194874
 30
0.0
 10
163.346070
 20
1063.312383
 30
0.0
 10
163.346070
 20
1063.312383
 30
0.0
  0
SPLINE
  5
11c
100
AcDbEntity
  8
0
 62
1
100
AcDbSpline
 70
8
 71
3
 72
8
 73
4
 74
0
 40
0
 40
0
 40
0
 40
0
 40
1
 40
1
 40
1
 40
1
 10
163.346070
 20
1063.312383
 30
0.0
 10
165.644189
 20
1068.780138
 30
0.0
 10
166.595160
 20
1074.719961
 30
0.0
 10
166.118940
 20
1080.631890
 30
0.0
  0
LWPOLYLINE
  5
11d
100
AcDbEntity
  8
0
 62
1
100
AcDbPolyline
 90
8
 70
0
 10
106.326720
 20
1027.927117
 30
0.0
 10
108.755420
 20
1047.032051
 30
0.0
 10
114.127840
 20
1058.809317
 30
0.0
 10
123.139630
 20
1066.429898
 30
0.0
 10
131.631510
 20
1070.240186
 30
0.0
 10
140.470000
 20
1070.240186
 30
0.0
 10
151.908040
 20
1066.083506
 30
0.0
 10
159.360090
 20
1060.194874
 30
0.0
  0
SPLINE
  5
11e
100
AcDbEntity
  8
0
 62
1
100
AcDbSpline
 70
8
 71
3
 72
8
 73
4
 74
0
 40
0
 40
0
 40
0
 40
0
 40
1
 40
1
 40
1
 40
1
 10
117.593540
 20
1110.639082
 30
0.0
 10
117.593540
 20
1110.639082
 30
0.0
 10
114.300770
 20
1087.430947
 30
0.0
 10
114.300770
 20
1087.430947
 30
0.0
  0
SPLINE
  5
11f
100
AcDbEntity
  8
0
 62
1
100
AcDbSpline
 70
8
 71
3
 72
8
 73
4
 74
0
 40
0
 40
0
 40
0
 40
0
 40
1
 40
1
 40
1
 40
1
 10
114.300770
 20
1087.430947
 30
0.0
 10
113.748069
 20
1080.624027
 30
0.0
 10
111.611569
 20
1074.040603
 30
0.0
 10
108.061850
 20
1068.206296
 30
0.0
  0
LWPOLYLINE
  5
120
100
AcDbEntity
  8
0
 62
1
100
AcDbPolyline
 90
16
 70
0
 10
166.118940
 20
1080.631890
 30
0.0
 10
162.652500
 20
1088.989700
 30
0.0
 10
157.799990
 20
1090.375261
 30
0.0
 10
153.814010
 20
1077.039243
 30
0.0
 10
147.921690
 20
1077.732026
 30
0.0
 10
144.628920
 20
1080.503145
 30
0.0
 10
149.654720
 20
1096.090698
 30
0.0
 10
146.708560
 20
1099.900987
 30
0.0
 10
137.870070
 20
1103.364888
 30
0.0
 10
135.790430
 20
1091.414431
 30
0.0
 10
131.111230
 20
1085.872190
 30
0.0
 10
127.298550
 20
1088.989700
 30
0.0
 10
128.511670
 20
1102.325718
 30
0.0
 10
128.165070
 20
1107.521568
 30
0.0
 10
124.179080
 20
1109.773103
 30
0.0
 10
117.593540
 20
1110.639082
 30
0.0
  0
SPLINE
  5
121
100
AcDbEntity
  8
0
 62
1
100
AcDbSpline
 70
8
 71
3
 72
8
 73
4
 74
0
 40
0
 40
0
 40
0
 40
0
 40
1
 40
1
 40
1
 40
1
 10
105.115680
 20
1067.686714
 30
0.0
 10
105.115680
 20
1067.686714
 30
0.0
 10
100.609790
 20
1071.323811
 30
0.0
 10
100.609790
 20
1071.323811
 30
0.0
  0
SPLINE
  5
122
100
AcDbEntity
  8
0
 62
1
100
AcDbSpline
 70
8
 71
3
 72
8
 73
4
 74
0
 40
0
 40
0
 40
0
 40
0
 40
1
 40
1
 40
1
 40
1
 10
100.609790
 20
1071.323811
 30
0.0
 10
103.846750
 20
1083.992522
 30
0.0
 10
106.392293
 20
1096.827908
 30
0.0
 10
108.235140
 20
1109.773103
 30
0.0
  0
LWPOLYLINE
  5
123
100
AcDbEntity
  8
0
 62
1
100
AcDbPolyline
 90
2
 70
0
 10
108.061850
 20
1068.206296
 30
0.0
 10
105.115680
 20
1067.686714
 30
0.0
  0
SPLINE
  5
124
100
AcDbEntity
  8
0
 62
1
100
AcDbSpline
 70
8
 71
3
 72
8
 73
4
 74
0
 40
0
 40
0
 40
0
 40
0
 40
1
 40
1
 40
1
 40
1
 10
94.197553
 20
1108.387547
 30
0.0
 10
94.530443
 20
1104.967371
 30
0.0
 10
96.065654
 20
1101.776131
 30
0.0
 10
98.530143
 20
1099.381404
 30
0.0
  0
LWPOLYLINE
  5
125
100
AcDbEntity
  8
0
 62
1
100
AcDbPolyline
 90
3
 70
0
 10
108.235140
 20
1109.773103
 30
0.0
 10
104.249160
 20
1112.197835
 30
0.0
 10
94.197553
 20
1108.387547
 30
0.0
  0
SPLINE
  5
126
100
AcDbEntity
  8
0
 62
1
100
AcDbSpline
 70
8
 71
3
 72
8
 73
4
 74
0
 40
0
 40
0
 40
0
 40
0
 40
1
 40
1
 40
1
 40
1
 10
81.373083
 20
1079.290779
 30
0.0
 10
76.981803
 20
1081.272506
 30
0.0
 10
72.392374
 20
1082.782004
 30
0.0
 10
67.682093
 20
1083.793850
 30
0.0
  0
LWPOLYLINE
  5
127
100
AcDbEntity
  8
0
 62
1
100
AcDbPolyline
 90
10
 70
0
 10
98.530143
 20
1099.381404
 30
0.0
 10
96.623803
 20
1096.090698
 30
0.0
 10
91.251393
 20
1095.917503
 30
0.0
 10
86.918803
 20
1100.074182
 30
0.0
 10
81.719693
 20
1101.459744
 30
0.0
 10
77.560403
 20
1098.861817
 30
0.0
 10
73.747713
 20
1092.453601
 30
0.0
 10
84.145943
 20
1087.430947
 30
0.0
 10
85.185763
 20
1083.274268
 30
0.0
 10
81.373083
 20
1079.290779
 30
0.0
  0
SPLINE
  5
128
100
AcDbEntity
  8
0
 62
1
100
AcDbSpline
 70
8
 71
3
 72
8
 73
4
 74
0
 40
0
 40
0
 40
0
 40
0
 40
1
 40
1
 40
1
 40
1
 10
62.829583
 20
1060.412524
 30
0.0
 10
62.829583
 20
1060.412524
 30
0.0
 10
59.710123
 20
1059.719741
 30
0.0
 10
59.710123
 20
1059.719741
 30
0.0
  0
SPLINE
  5
129
100
AcDbEntity
  8
0
 62
1
100
AcDbSpline
 70
8
 71
3
 72
8
 73
4
 74
0
 40
0
 40
0
 40
0
 40
0
 40
1
 40
1
 40
1
 40
1
 10
59.710123
 20
1059.719741
 30
0.0
 10
58.603369
 20
1054.800215
 30
0.0
 10
58.612868
 20
1049.695227
 30
0.0
 10
59.737923
 20
1044.779854
 30
0.0
  0
SPLINE
  5
12a
100
AcDbEntity
  8
0
 62
1
100
AcDbSpline
 70
8
 71
3
 72
8
 73
4
 74
0
 40
0
 40
0
 40
0
 40
0
 40
1
 40
1
 40
1
 40
1
 10
59.737923
 20
1044.779854
 30
0.0
 10
64.195277
 20
1044.044560
 30
0.0
 10
68.289561
 20
1041.870834
 30
0.0
 10
71.395723
 20
1038.590526
 30
0.0
  0
LWPOLYLINE
  5
12b
100
AcDbEntity
  8
0
 62
1
100
AcDbPolyline
 90
9
 70
0
 10
67.682093
 20
1083.793850
 30
0.0
 10
62.482983
 20
1079.983562
 30
0.0
 10
61.789773
 20
1073.402151
 30
0.0
 10
64.389323
 20
1069.591858
 30
0.0
 10
73.054503
 20
1067.340322
 30
0.0
 10
78.600223
 20
1063.530034
 30
0.0
 10
76.347273
 20
1057.641401
 30
0.0
 10
72.014693
 20
1055.216670
 30
0.0
 10
62.829583
 20
1060.412524
 30
0.0
  0
SPLINE
  5
12c
100
AcDbEntity
  8
0
 62
1
100
AcDbSpline
 70
8
 71
3
 72
8
 73
4
 74
0
 40
0
 40
0
 40
0
 40
0
 40
1
 40
1
 40
1
 40
1
 10
68.021003
 20
990.845645
 30
0.0
 10
68.021003
 20
990.845645
 30
0.0
 10
77.234223
 20
983.351085
 30
0.0
 10
77.234223
 20
983.351085
 30
0.0
  0
SPLINE
  5
12d
100
AcDbEntity
  8
0
 62
1
100
AcDbSpline
 70
8
 71
3
 72
8
 73
4
 74
0
 40
0
 40
0
 40
0
 40
0
 40
1
 40
1
 40
1
 40
1
 10
77.234223
 20
983.351085
 30
0.0
 10
84.597436
 20
985.181418
 30
0.0
 10
92.223166
 20
985.715386
 30
0.0
 10
99.769603
 20
984.929055
 30
0.0
  0
LWPOLYLINE
  5
12e
100
AcDbEntity
  8
0
 62
1
100
AcDbPolyline
 90
13
 70
0
 10
71.395723
 20
1038.590526
 30
0.0
 10
72.974383
 20
1035.435182
 30
0.0
 10
71.152853
 20
1030.216732
 30
0.0
 10
61.195143
 20
1031.673042
 30
0.0
 10
58.887873
 20
1029.124494
 30
0.0
 10
59.252173
 20
1018.323515
 30
0.0
 10
64.352463
 20
1015.046805
 30
0.0
 10
74.553043
 20
1012.376905
 30
0.0
 10
75.403093
 20
1006.066215
 30
0.0
 10
71.638593
 20
1003.760395
 30
0.0
 10
61.802323
 20
1006.794375
 30
0.0
 10
61.997803
 20
1000.748565
 30
0.0
 10
68.021003
 20
990.845645
 30
0.0
  0
SPLINE
  5
12f
100
AcDbEntity
  8
0
 62
1
100
AcDbSpline
 70
8
 71
3
 72
8
 73
4
 74
0
 40
0
 40
0
 40
0
 40
0
 40
1
 40
1
 40
1
 40
1
 10
106.890760
 20
975.998285
 30
0.0
 10
106.890760
 20
975.998285
 30
0.0
 10
88.878403
 20
974.323775
 30
0.0
 10
88.878403
 20
974.323775
 30
0.0
  0
SPLINE
  5
130
100
AcDbEntity
  8
0
 62
1
100
AcDbSpline
 70
8
 71
3
 72
8
 73
4
 74
0
 40
0
 40
0
 40
0
 40
0
 40
1
 40
1
 40
1
 40
1
 10
88.878403
 20
974.323775
 30
0.0
 10
93.853519
 20
968.783224
 30
0.0
 10
99.219813
 20
963.606830
 30
0.0
 10
104.935940
 20
958.834475
 30
0.0
  0
SPLINE
  5
131
100
AcDbEntity
  8
0
 62
1
100
AcDbSpline
 70
8
 71
3
 72
8
 73
4
 74
0
 40
0
 40
0
 40
0
 40
0
 40
1
 40
1
 40
1
 40
1
 10
104.935940
 20
958.834475
 30
0.0
 10
110.198514
 20
960.044778
 30
0.0
 10
115.596906
 20
960.560824
 30
0.0
 10
120.993470
 20
960.369455
 30
0.0
  0
LWPOLYLINE
  5
132
100
AcDbEntity
  8
0
 62
1
100
AcDbPolyline
 90
3
 70
0
 10
99.769603
 20
984.929055
 30
0.0
 10
106.890760
 20
982.277735
 30
0.0
 10
106.890760
 20
975.998285
 30
0.0
  0
SPLINE
  5
133
100
AcDbEntity
  8
0
 62
1
100
AcDbSpline
 70
8
 71
3
 72
8
 73
4
 74
0
 40
0
 40
0
 40
0
 40
0
 40
1
 40
1
 40
1
 40
1
 10
136.633690
 20
904.790605
 30
0.0
 10
136.633690
 20
904.790605
 30
0.0
 10
123.648030
 20
903.674265
 30
0.0
 10
123.648030
 20
903.674265
 30
0.0
  0
SPLINE
  5
134
100
AcDbEntity
  8
0
 62
1
100
AcDbSpline
 70
8
 71
3
 72
8
 73
4
 74
0
 40
0
 40
0
 40
0
 40
0
 40
1
 40
1
 40
1
 40
1
 10
123.648030
 20
903.674265
 30
0.0
 10
123.214452
 20
899.461637
 30
0.0
 10
124.306114
 20
895.233211
 30
0.0
 10
126.724750
 20
891.756945
 30
0.0
  0
SPLINE
  5
135
100
AcDbEntity
  8
0
 62
1
100
AcDbSpline
 70
8
 71
3
 72
8
 73
4
 74
0
 40
0
 40
0
 40
0
 40
0
 40
1
 40
1
 40
1
 40
1
 10
126.724750
 20
891.756945
 30
0.0
 10
131.984298
 20
891.377412
 30
0.0
 10
137.207945
 20
890.603679
 30
0.0
 10
142.351680
 20
889.442265
 30
0.0
  0
LWPOLYLINE
  5
136
100
AcDbEntity
  8
0
 62
1
100
AcDbPolyline
 90
15
 70
0
 10
120.993470
 20
960.369455
 30
0.0
 10
126.299430
 20
959.532195
 30
0.0
 10
126.439060
 20
952.415495
 30
0.0
 10
111.358940
 20
951.159605
 30
0.0
 10
111.498570
 20
945.019705
 30
0.0
 10
115.687500
 20
938.321635
 30
0.0
 10
118.340490
 20
937.344835
 30
0.0
 10
133.979120
 20
936.228495
 30
0.0
 10
133.420600
 20
928.274525
 30
0.0
 10
120.576160
 20
928.094315
 30
0.0
 10
118.062800
 20
925.163905
 30
0.0
 10
119.319480
 20
918.186755
 30
0.0
 10
122.949880
 20
914.698175
 30
0.0
 10
137.750730
 20
912.325945
 30
0.0
 10
136.633690
 20
904.790605
 30
0.0
  0
SPLINE
  5
137
100
AcDbEntity
  8
0
 62
1
100
AcDbSpline
 70
8
 71
3
 72
8
 73
4
 74
0
 40
0
 40
0
 40
0
 40
0
 40
1
 40
1
 40
1
 40
1
 10
142.077450
 20
882.933365
 30
0.0
 10
142.077450
 20
882.933365
 30
0.0
 10
128.297340
 20
882.248215
 30
0.0
 10
128.297340
 20
882.248215
 30
0.0
  0
SPLINE
  5
138
100
AcDbEntity
  8
0
 62
1
100
AcDbSpline
 70
8
 71
3
 72
8
 73
4
 74
0
 40
0
 40
0
 40
0
 40
0
 40
1
 40
1
 40
1
 40
1
 10
128.297340
 20
882.248215
 30
0.0
 10
128.939890
 20
877.975107
 30
0.0
 10
129.282261
 20
873.662231
 30
0.0
 10
129.321940
 20
869.341265
 30
0.0
  0
LWPOLYLINE
  5
139
100
AcDbEntity
  8
0
 62
1
100
AcDbPolyline
 90
2
 70
0
 10
142.351680
 20
889.442265
 30
0.0
 10
142.077450
 20
882.933365
 30
0.0
  0
SPLINE
  5
13a
100
AcDbEntity
  8
0
 62
1
100
AcDbSpline
 70
8
 71
3
 72
8
 73
4
 74
0
 40
0
 40
0
 40
0
 40
0
 40
1
 40
1
 40
1
 40
1
 10
130.566930
 20
788.402505
 30
0.0
 10
123.506844
 20
788.964917
 30
0.0
 10
116.433408
 20
789.344867
 30
0.0
 10
109.353700
 20
789.541975
 30
0.0
  0
SPLINE
  5
13b
100
AcDbEntity
  8
0
 62
1
100
AcDbSpline
 70
8
 71
3
 72
8
 73
4
 74
0
 40
0
 40
0
 40
0
 40
0
 40
1
 40
1
 40
1
 40
1
 10
109.353700
 20
789.541975
 30
0.0
 10
104.671190
 20
788.577353
 30
0.0
 10
100.149605
 20
786.951902
 30
0.0
 10
95.924673
 20
784.714415
 30
0.0
  0
SPLINE
  5
13c
100
AcDbEntity
  8
0
 62
1
100
AcDbSpline
 70
8
 71
3
 72
8
 73
4
 74
0
 40
0
 40
0
 40
0
 40
0
 40
1
 40
1
 40
1
 40
1
 10
95.924673
 20
784.714415
 30
0.0
 10
85.548223
 20
783.128947
 30
0.0
 10
74.985158
 20
786.004790
 30
0.0
 10
66.844543
 20
792.631615
 30
0.0
  0
SPLINE
  5
13d
100
AcDbEntity
  8
0
 62
1
100
AcDbSpline
 70
8
 71
3
 72
8
 73
4
 74
0
 40
0
 40
0
 40
0
 40
0
 40
1
 40
1
 40
1
 40
1
 10
66.844543
 20
792.631615
 30
0.0
 10
61.700156
 20
797.628157
 30
0.0
 10
58.024439
 20
803.939743
 30
0.0
 10
56.217243
 20
810.879785
 30
0.0
  0
LWPOLYLINE
  5
13e
100
AcDbEntity
  8
0
 62
1
100
AcDbPolyline
 90
22
 70
0
 10
129.321940
 20
869.341265
 30
0.0
 10
132.768860
 20
867.274405
 30
0.0
 10
146.418690
 20
865.758705
 30
0.0
 10
146.694450
 20
859.006965
 30
0.0
 10
131.803720
 20
856.664525
 30
0.0
 10
130.838580
 20
846.743595
 30
0.0
 10
135.388530
 20
845.227895
 30
0.0
 10
148.348970
 20
843.849995
 30
0.0
 10
147.797470
 20
836.684875
 30
0.0
 10
134.423390
 20
834.893595
 30
0.0
 10
130.011320
 20
832.137785
 30
0.0
 10
129.463920
 20
824.228085
 30
0.0
 10
130.566930
 20
820.645525
 30
0.0
 10
146.009170
 20
820.232155
 30
0.0
 10
144.630400
 20
812.240295
 30
0.0
 10
126.292740
 20
812.515875
 30
0.0
 10
122.018550
 20
809.346695
 30
0.0
 10
119.812520
 20
802.870525
 30
0.0
 10
120.777660
 20
799.012395
 30
0.0
 10
134.013860
 20
797.221115
 30
0.0
 10
135.944140
 20
793.776345
 30
0.0
 10
130.566930
 20
788.402505
 30
0.0
  0
SPLINE
  5
13f
100
AcDbEntity
  8
0
 62
1
100
AcDbSpline
 70
8
 71
3
 72
8
 73
4
 74
0
 40
0
 40
0
 40
0
 40
0
 40
1
 40
1
 40
1
 40
1
 10
30.099976
 20
814.059705
 30
0.0
 10
27.211747
 20
814.278817
 30
0.0
 10
24.308165
 20
813.948233
 30
0.0
 10
21.543111
 20
813.085475
 30
0.0
  0
LWPOLYLINE
  5
140
100
AcDbEntity
  8
0
 62
1
100
AcDbPolyline
 90
3
 70
0
 10
56.217243
 20
810.879785
 30
0.0
 10
53.898553
 20
813.872875
 30
0.0
 10
30.099976
 20
814.059705
 30
0.0
  0
SPLINE
  5
141
100
AcDbEntity
  8
0
 62
1
100
AcDbSpline
 70
8
 71
3
 72
8
 73
4
 74
0
 40
0
 40
0
 40
0
 40
0
 40
1
 40
1
 40
1
 40
1
 10
19.160181
 20
811.245285
 30
0.0
 10
19.160181
 20
811.245285
 30
0.0
 10
20.026699
 20
804.533975
 30
0.0
 10
20.026699
 20
804.533975
 30
0.0
  0
SPLINE
  5
142
100
AcDbEntity
  8
0
 62
1
100
AcDbSpline
 70
8
 71
3
 72
8
 73
4
 74
0
 40
0
 40
0
 40
0
 40
0
 40
1
 40
1
 40
1
 40
1
 10
20.026699
 20
804.533975
 30
0.0
 10
21.312455
 20
801.471126
 30
0.0
 10
23.657849
 20
798.973501
 30
0.0
 10
26.633901
 20
797.497925
 30
0.0
  0
LWPOLYLINE
  5
143
100
AcDbEntity
  8
0
 62
1
100
AcDbPolyline
 90
2
 70
0
 10
21.543111
 20
813.085475
 30
0.0
 10
19.160181
 20
811.245285
 30
0.0
  0
SPLINE
  5
144
100
AcDbEntity
  8
0
 62
1
100
AcDbSpline
 70
8
 71
3
 72
8
 73
4
 74
0
 40
0
 40
0
 40
0
 40
0
 40
1
 40
1
 40
1
 40
1
 10
38.981783
 20
776.065035
 30
0.0
 10
38.981783
 20
776.065035
 30
0.0
 10
62.592783
 20
774.276305
 30
0.0
 10
62.592783
 20
774.276305
 30
0.0
  0
SPLINE
  5
145
100
AcDbEntity
  8
0
 62
1
100
AcDbSpline
 70
8
 71
3
 72
8
 73
4
 74
0
 40
0
 40
0
 40
0
 40
0
 40
1
 40
1
 40
1
 40
1
 10
62.592783
 20
774.276305
 30
0.0
 10
72.052919
 20
775.066399
 30
0.0
 10
81.564778
 20
775.008438
 30
0.0
 10
91.014583
 20
774.103115
 30
0.0
  0
SPLINE
  5
146
100
AcDbEntity
  8
0
 62
1
100
AcDbSpline
 70
8
 71
3
 72
8
 73
4
 74
0
 40
0
 40
0
 40
0
 40
0
 40
1
 40
1
 40
1
 40
1
 10
91.014583
 20
774.103115
 30
0.0
 10
91.014583
 20
774.103115
 30
0.0
 10
90.321373
 20
765.616555
 30
0.0
 10
90.321373
 20
765.616555
 30
0.0
  0
SPLINE
  5
147
100
AcDbEntity
  8
0
 62
1
100
AcDbSpline
 70
8
 71
3
 72
8
 73
4
 74
0
 40
0
 40
0
 40
0
 40
0
 40
1
 40
1
 40
1
 40
1
 10
90.321373
 20
765.616555
 30
0.0
 10
78.367823
 20
766.031854
 30
0.0
 10
66.404526
 20
766.089610
 30
0.0
 10
54.447523
 20
765.789745
 30
0.0
  0
LWPOLYLINE
  5
148
100
AcDbEntity
  8
0
 62
1
100
AcDbPolyline
 90
6
 70
0
 10
26.633901
 20
797.497925
 30
0.0
 10
45.913933
 20
796.307205
 30
0.0
 10
45.913933
 20
789.812395
 30
0.0
 10
32.049638
 20
789.162915
 30
0.0
 10
29.666716
 20
788.080445
 30
0.0
 10
38.981783
 20
776.065035
 30
0.0
  0
SPLINE
  5
149
100
AcDbEntity
  8
0
 62
1
100
AcDbSpline
 70
8
 71
3
 72
8
 73
4
 74
0
 40
0
 40
0
 40
0
 40
0
 40
1
 40
1
 40
1
 40
1
 10
76.457083
 20
751.587755
 30
0.0
 10
88.379935
 20
749.878554
 30
0.0
 10
100.504446
 20
750.171235
 30
0.0
 10
112.330940
 20
752.453735
 30
0.0
  0
SPLINE
  5
14a
100
AcDbEntity
  8
0
 62
1
100
AcDbSpline
 70
8
 71
3
 72
8
 73
4
 74
0
 40
0
 40
0
 40
0
 40
0
 40
1
 40
1
 40
1
 40
1
 10
112.330940
 20
752.453735
 30
0.0
 10
112.330940
 20
752.453735
 30
0.0
 10
125.675320
 20
758.342365
 30
0.0
 10
125.675320
 20
758.342365
 30
0.0
  0
SPLINE
  5
14b
100
AcDbEntity
  8
0
 62
1
100
AcDbSpline
 70
8
 71
3
 72
8
 73
4
 74
0
 40
0
 40
0
 40
0
 40
0
 40
1
 40
1
 40
1
 40
1
 10
125.675320
 20
758.342365
 30
0.0
 10
135.346238
 20
765.828041
 30
0.0
 10
143.921368
 20
774.630983
 30
0.0
 10
151.150960
 20
784.494805
 30
0.0
  0
SPLINE
  5
14c
100
AcDbEntity
  8
0
 62
1
100
AcDbSpline
 70
8
 71
3
 72
8
 73
4
 74
0
 40
0
 40
0
 40
0
 40
0
 40
1
 40
1
 40
1
 40
1
 10
151.150960
 20
784.494805
 30
0.0
 10
151.150960
 20
784.494805
 30
0.0
 10
157.417540
 20
796.846765
 30
0.0
 10
157.417540
 20
796.846765
 30
0.0
  0
SPLINE
  5
14d
100
AcDbEntity
  8
0
 62
1
100
AcDbSpline
 70
8
 71
3
 72
8
 73
4
 74
0
 40
0
 40
0
 40
0
 40
0
 40
1
 40
1
 40
1
 40
1
 10
157.417540
 20
796.846765
 30
0.0
 10
159.876434
 20
805.540540
 30
0.0
 10
162.015285
 20
814.321669
 30
0.0
 10
163.829770
 20
823.172405
 30
0.0
  0
SPLINE
  5
14e
100
AcDbEntity
  8
0
 62
1
100
AcDbSpline
 70
8
 71
3
 72
8
 73
4
 74
0
 40
0
 40
0
 40
0
 40
0
 40
1
 40
1
 40
1
 40
1
 10
163.829770
 20
823.172405
 30
0.0
 10
164.633020
 20
839.311303
 30
0.0
 10
162.582967
 20
855.465372
 30
0.0
 10
157.773850
 20
870.892025
 30
0.0
  0
SPLINE
  5
14f
100
AcDbEntity
  8
0
 62
1
100
AcDbSpline
 70
8
 71
3
 72
8
 73
4
 74
0
 40
0
 40
0
 40
0
 40
0
 40
1
 40
1
 40
1
 40
1
 10
157.773850
 20
870.892025
 30
0.0
 10
155.422123
 20
877.935463
 30
0.0
 10
154.137016
 20
885.291013
 30
0.0
 10
153.961170
 20
892.714605
 30
0.0
  0
SPLINE
  5
150
100
AcDbEntity
  8
0
 62
1
100
AcDbSpline
 70
8
 71
3
 72
8
 73
4
 74
0
 40
0
 40
0
 40
0
 40
0
 40
1
 40
1
 40
1
 40
1
 10
153.961170
 20
892.714605
 30
0.0
 10
154.001135
 20
905.228349
 30
0.0
 10
154.869550
 20
917.725720
 30
0.0
 10
156.560720
 20
930.124725
 30
0.0
  0
LWPOLYLINE
  5
151
100
AcDbEntity
  8
0
 62
1
100
AcDbPolyline
 90
4
 70
0
 10
54.447523
 20
765.789745
 30
0.0
 10
53.927603
 20
763.018625
 30
0.0
 10
59.993233
 20
757.822775
 30
0.0
 10
76.457083
 20
751.587755
 30
0.0
  0
SPLINE
  5
152
100
AcDbEntity
  8
0
 62
1
100
AcDbSpline
 70
8
 71
3
 72
8
 73
4
 74
0
 40
0
 40
0
 40
0
 40
0
 40
1
 40
1
 40
1
 40
1
 10
155.867510
 20
941.901995
 30
0.0
 10
155.867510
 20
941.901995
 30
0.0
 10
148.415450
 20
956.969955
 30
0.0
 10
148.415450
 20
956.969955
 30
0.0
  0
SPLINE
  5
153
100
AcDbEntity
  8
0
 62
1
100
AcDbSpline
 70
8
 71
3
 72
8
 73
4
 74
0
 40
0
 40
0
 40
0
 40
0
 40
1
 40
1
 40
1
 40
1
 10
148.415450
 20
956.969955
 30
0.0
 10
144.064139
 20
961.496172
 30
0.0
 10
139.902374
 20
966.200867
 30
0.0
 10
135.940880
 20
971.071915
 30
0.0
  0
LWPOLYLINE
  5
154
100
AcDbEntity
  8
0
 62
1
100
AcDbPolyline
 90
2
 70
0
 10
156.560720
 20
930.124725
 30
0.0
 10
155.867510
 20
941.901995
 30
0.0
  0
SPLINE
  5
155
100
AcDbEntity
  8
0
 62
1
100
AcDbSpline
 70
8
 71
3
 72
8
 73
4
 74
0
 40
0
 40
0
 40
0
 40
0
 40
1
 40
1
 40
1
 40
1
 10
523.988320
 20
816.130375
 30
0.0
 10
520.550515
 20
805.918271
 30
0.0
 10
516.026426
 20
796.104700
 30
0.0
 10
510.493800
 20
786.858315
 30
0.0
  0
LWPOLYLINE
  5
156
100
AcDbEntity
  8
0
 62
1
100
AcDbPolyline
 90
1
 70
1
 10
135.940880
 20
971.071915
 30
0.0
  0
SPLINE
  5
157
100
AcDbEntity
  8
0
 62
1
100
AcDbSpline
 70
8
 71
3
 72
8
 73
4
 74
0
 40
0
 40
0
 40
0
 40
0
 40
1
 40
1
 40
1
 40
1
 10
500.421790
 20
739.480985
 30
0.0
 10
504.489394
 20
737.683812
 30
0.0
 10
508.009147
 20
734.842518
 30
0.0
 10
510.623820
 20
731.245475
 30
0.0
  0
LWPOLYLINE
  5
158
100
AcDbEntity
  8
0
 62
1
100
AcDbPolyline
 90
12
 70
0
 10
510.493800
 20
786.858315
 30
0.0
 10
507.282760
 20
774.984905
 30
0.0
 10
508.246070
 20
764.395105
 30
0.0
 10
512.099320
 20
757.014335
 30
0.0
 10
512.259870
 20
753.965755
 30
0.0
 10
509.530490
 20
749.633565
 30
0.0
 10
505.356130
 20
751.077625
 30
0.0
 10
501.342330
 20
762.148785
 30
0.0
 10
496.204660
 20
758.458395
 30
0.0
 10
493.956930
 20
750.114925
 30
0.0
 10
495.562450
 20
745.782725
 30
0.0
 10
500.421790
 20
739.480985
 30
0.0
  0
SPLINE
  5
159
100
AcDbEntity
  8
0
 62
1
100
AcDbSpline
 70
8
 71
3
 72
8
 73
4
 74
0
 40
0
 40
0
 40
0
 40
0
 40
1
 40
1
 40
1
 40
1
 10
520.611040
 20
723.172635
 30
0.0
 10
522.520909
 20
720.493504
 30
0.0
 10
525.104984
 20
718.366777
 30
0.0
 10
528.101460
 20
717.007925
 30
0.0
  0
LWPOLYLINE
  5
15a
100
AcDbEntity
  8
0
 62
1
100
AcDbPolyline
 90
3
 70
0
 10
510.623820
 20
731.245475
 30
0.0
 10
515.764300
 20
730.364805
 30
0.0
 10
520.611040
 20
723.172635
 30
0.0
  0
SPLINE
  5
15b
100
AcDbEntity
  8
0
 62
1
100
AcDbSpline
 70
8
 71
3
 72
8
 73
4
 74
0
 40
0
 40
0
 40
0
 40
0
 40
1
 40
1
 40
1
 40
1
 10
530.157650
 20
729.630905
 30
0.0
 10
526.907403
 20
737.007526
 30
0.0
 10
524.541029
 20
744.742681
 30
0.0
 10
523.107840
 20
752.675185
 30
0.0
  0
LWPOLYLINE
  5
15c
100
AcDbEntity
  8
0
 62
1
100
AcDbPolyline
 90
3
 70
0
 10
528.101460
 20
717.007925
 30
0.0
 10
532.213840
 20
721.411285
 30
0.0
 10
530.157650
 20
729.630905
 30
0.0
  0
SPLINE
  5
15d
100
AcDbEntity
  8
0
 62
1
100
AcDbSpline
 70
8
 71
3
 72
8
 73
4
 74
0
 40
0
 40
0
 40
0
 40
0
 40
1
 40
1
 40
1
 40
1
 10
517.869170
 20
768.771665
 30
0.0
 10
517.869170
 20
768.771665
 30
0.0
 10
526.561940
 20
766.703255
 30
0.0
 10
526.561940
 20
766.703255
 30
0.0
  0
SPLINE
  5
15e
100
AcDbEntity
  8
0
 62
1
100
AcDbSpline
 70
8
 71
3
 72
8
 73
4
 74
0
 40
0
 40
0
 40
0
 40
0
 40
1
 40
1
 40
1
 40
1
 10
526.561940
 20
766.703255
 30
0.0
 10
531.063420
 20
769.954820
 30
0.0
 10
534.402268
 20
774.565491
 30
0.0
 10
536.087120
 20
779.856735
 30
0.0
  0
LWPOLYLINE
  5
15f
100
AcDbEntity
  8
0
 62
1
100
AcDbPolyline
 90
3
 70
0
 10
523.107840
 20
752.675185
 30
0.0
 10
517.869170
 20
761.739065
 30
0.0
 10
517.869170
 20
768.771665
 30
0.0
  0
SPLINE
  5
160
100
AcDbEntity
  8
0
 62
1
100
AcDbSpline
 70
8
 71
3
 72
8
 73
4
 74
0
 40
0
 40
0
 40
0
 40
0
 40
1
 40
1
 40
1
 40
1
 10
541.646030
 20
789.660415
 30
0.0
 10
545.041217
 20
795.202945
 30
0.0
 10
547.059487
 20
801.478065
 30
0.0
 10
547.531940
 20
807.960635
 30
0.0
  0
LWPOLYLINE
  5
161
100
AcDbEntity
  8
0
 62
1
100
AcDbPolyline
 90
4
 70
0
 10
536.087120
 20
779.856735
 30
0.0
 10
528.239250
 20
789.333625
 30
0.0
 10
533.144170
 20
799.790895
 30
0.0
 10
541.646030
 20
789.660415
 30
0.0
  0
SPLINE
  5
162
100
AcDbEntity
  8
0
 62
1
100
AcDbSpline
 70
8
 71
3
 72
8
 73
4
 74
0
 40
0
 40
0
 40
0
 40
0
 40
1
 40
1
 40
1
 40
1
 10
557.014780
 20
814.496425
 30
0.0
 10
557.014780
 20
814.496425
 30
0.0
 10
566.497620
 20
820.378635
 30
0.0
 10
566.497620
 20
820.378635
 30
0.0
  0
SPLINE
  5
163
100
AcDbEntity
  8
0
 62
1
100
AcDbSpline
 70
8
 71
3
 72
8
 73
4
 74
0
 40
0
 40
0
 40
0
 40
0
 40
1
 40
1
 40
1
 40
1
 10
566.497620
 20
820.378635
 30
0.0
 10
564.718689
 20
828.935097
 30
0.0
 10
562.492888
 20
837.392528
 30
0.0
 10
559.829360
 20
845.716185
 30
0.0
  0
LWPOLYLINE
  5
164
100
AcDbEntity
  8
0
 62
1
100
AcDbPolyline
 90
5
 70
0
 10
547.531940
 20
807.960635
 30
0.0
 10
543.935000
 20
818.417895
 30
0.0
 10
544.261990
 20
823.319745
 30
0.0
 10
549.166910
 20
825.934055
 30
0.0
 10
557.014780
 20
814.496425
 30
0.0
  0
LWPOLYLINE
  5
165
100
AcDbEntity
  8
0
 62
1
100
AcDbPolyline
 90
4
 70
0
 10
559.829360
 20
845.716185
 30
0.0
 10
546.223960
 20
839.986015
 30
0.0
 10
531.836190
 20
829.201955
 30
0.0
 10
523.988320
 20
816.130375
 30
0.0
  0
SPLINE
  5
166
100
AcDbEntity
  8
0
 62
1
100
AcDbSpline
 70
8
 71
3
 72
8
 73
4
 74
0
 40
0
 40
0
 40
0
 40
0
 40
1
 40
1
 40
1
 40
1
 10
115.955610
 20
54.824285
 30
0.0
 10
121.651303
 20
58.511811
 30
0.0
 10
126.713246
 20
63.096076
 30
0.0
 10
130.945450
 20
68.399585
 30
0.0
  0
SPLINE
  5
167
100
AcDbEntity
  8
0
 62
1
100
AcDbSpline
 70
8
 71
3
 72
8
 73
4
 74
0
 40
0
 40
0
 40
0
 40
0
 40
1
 40
1
 40
1
 40
1
 10
130.945450
 20
68.399585
 30
0.0
 10
141.415999
 20
75.065209
 30
0.0
 10
151.599353
 20
82.171586
 30
0.0
 10
161.468100
 20
89.699585
 30
0.0
  0
SPLINE
  5
168
100
AcDbEntity
  8
0
 62
1
100
AcDbSpline
 70
8
 71
3
 72
8
 73
4
 74
0
 40
0
 40
0
 40
0
 40
0
 40
1
 40
1
 40
1
 40
1
 10
161.468100
 20
89.699585
 30
0.0
 10
174.393347
 20
102.537279
 30
0.0
 10
185.751865
 20
116.861326
 30
0.0
 10
195.306090
 20
132.372135
 30
0.0
  0
SPLINE
  5
169
100
AcDbEntity
  8
0
 62
1
100
AcDbSpline
 70
8
 71
3
 72
8
 73
4
 74
0
 40
0
 40
0
 40
0
 40
0
 40
1
 40
1
 40
1
 40
1
 10
195.306090
 20
132.372135
 30
0.0
 10
202.023590
 20
143.906553
 30
0.0
 10
207.155026
 20
156.294136
 30
0.0
 10
210.561690
 20
169.200035
 30
0.0
  0
SPLINE
  5
16a
100
AcDbEntity
  8
0
 62
1
100
AcDbSpline
 70
8
 71
3
 72
8
 73
4
 74
0
 40
0
 40
0
 40
0
 40
0
 40
1
 40
1
 40
1
 40
1
 10
210.561690
 20
169.200035
 30
0.0
 10
211.764770
 20
174.457639
 30
0.0
 10
212.265964
 20
179.851467
 30
0.0
 10
212.052190
 20
185.240725
 30
0.0
  0
SPLINE
  5
16b
100
AcDbEntity
  8
0
 62
1
100
AcDbSpline
 70
8
 71
3
 72
8
 73
4
 74
0
 40
0
 40
0
 40
0
 40
0
 40
1
 40
1
 40
1
 40
1
 10
212.052190
 20
185.240725
 30
0.0
 10
212.052190
 20
185.240725
 30
0.0
 10
207.236890
 20
191.198705
 30
0.0
 10
207.236890
 20
191.198705
 30
0.0
  0
SPLINE
  5
16c
100
AcDbEntity
  8
0
 62
1
100
AcDbSpline
 70
8
 71
3
 72
8
 73
4
 74
0
 40
0
 40
0
 40
0
 40
0
 40
1
 40
1
 40
1
 40
1
 10
207.236890
 20
191.198705
 30
0.0
 10
197.740523
 20
183.730624
 30
0.0
 10
189.021388
 20
175.324023
 30
0.0
 10
181.211790
 20
166.106465
 30
0.0
  0
SPLINE
  5
16d
100
AcDbEntity
  8
0
 62
1
100
AcDbSpline
 70
8
 71
3
 72
8
 73
4
 74
0
 40
0
 40
0
 40
0
 40
0
 40
1
 40
1
 40
1
 40
1
 10
181.211790
 20
166.106465
 30
0.0
 10
168.528409
 20
157.270075
 30
0.0
 10
156.061445
 20
148.127034
 30
0.0
 10
143.821920
 20
138.685425
 30
0.0
  0
SPLINE
  5
16e
100
AcDbEntity
  8
0
 62
1
100
AcDbSpline
 70
8
 71
3
 72
8
 73
4
 74
0
 40
0
 40
0
 40
0
 40
0
 40
1
 40
1
 40
1
 40
1
 10
143.821920
 20
138.685425
 30
0.0
 10
135.614791
 20
132.119938
 30
0.0
 10
128.254532
 20
124.560911
 30
0.0
 10
121.910020
 20
116.181785
 30
0.0
  0
SPLINE
  5
16f
100
AcDbEntity
  8
0
 62
1
100
AcDbSpline
 70
8
 71
3
 72
8
 73
4
 74
0
 40
0
 40
0
 40
0
 40
0
 40
1
 40
1
 40
1
 40
1
 10
121.910020
 20
116.181785
 30
0.0
 10
118.017226
 20
109.153717
 30
0.0
 10
113.970969
 20
102.211752
 30
0.0
 10
109.774160
 20
95.360885
 30
0.0
  0
SPLINE
  5
170
100
AcDbEntity
  8
0
 62
1
100
AcDbSpline
 70
8
 71
3
 72
8
 73
4
 74
0
 40
0
 40
0
 40
0
 40
0
 40
1
 40
1
 40
1
 40
1
 10
109.774160
 20
95.360885
 30
0.0
 10
106.469699
 20
87.729716
 30
0.0
 10
103.794841
 20
79.841091
 30
0.0
 10
101.776330
 20
71.773885
 30
0.0
  0
SPLINE
  5
171
100
AcDbEntity
  8
0
 62
1
100
AcDbSpline
 70
8
 71
3
 72
8
 73
4
 74
0
 40
0
 40
0
 40
0
 40
0
 40
1
 40
1
 40
1
 40
1
 10
101.776330
 20
71.773885
 30
0.0
 10
100.484572
 20
65.008439
 30
0.0
 10
97.901657
 20
58.555168
 30
0.0
 10
94.168758
 20
52.766785
 30
0.0
  0
SPLINE
  5
172
100
AcDbEntity
  8
0
 62
1
100
AcDbSpline
 70
8
 71
3
 72
8
 73
4
 74
0
 40
0
 40
0
 40
0
 40
0
 40
1
 40
1
 40
1
 40
1
 10
94.168758
 20
52.766785
 30
0.0
 10
85.449302
 20
45.370685
 30
0.0
 10
76.261579
 20
38.545065
 30
0.0
 10
66.662878
 20
32.332485
 30
0.0
  0
LWPOLYLINE
  5
173
100
AcDbEntity
  8
0
 62
1
100
AcDbPolyline
 90
9
 70
0
 10
85.623588
 20
27.101485
 30
0.0
 10
91.315448
 20
31.197085
 30
0.0
 10
98.120368
 20
15.740885
 30
0.0
 10
101.105440
 20
20.503085
 30
0.0
 10
105.431210
 20
33.699885
 30
0.0
 10
101.823000
 20
50.127385
 30
0.0
 10
109.935190
 20
50.027185
 30
0.0
 10
112.294530
 20
45.474085
 30
0.0
 10
115.955610
 20
54.824285
 30
0.0
  0
SPLINE
  5
174
100
AcDbEntity
  8
0
 62
1
100
AcDbSpline
 70
8
 71
3
 72
8
 73
4
 74
0
 40
0
 40
0
 40
0
 40
0
 40
1
 40
1
 40
1
 40
1
 10
87.900328
 20
11.401785
 30
0.0
 10
87.900328
 20
11.401785
 30
0.0
 10
90.632368
 20
15.497385
 30
0.0
 10
90.632368
 20
15.497385
 30
0.0
  0
SPLINE
  5
175
100
AcDbEntity
  8
0
 62
1
100
AcDbSpline
 70
8
 71
3
 72
8
 73
4
 74
0
 40
0
 40
0
 40
0
 40
0
 40
1
 40
1
 40
1
 40
1
 10
90.632368
 20
15.497385
 30
0.0
 10
87.898623
 20
18.813689
 30
0.0
 10
86.161790
 20
22.837499
 30
0.0
 10
85.623588
 20
27.101485
 30
0.0
  0
LWPOLYLINE
  5
176
100
AcDbEntity
  8
0
 62
1
100
AcDbPolyline
 90
10
 70
0
 10
66.662878
 20
32.332485
 30
0.0
 10
58.658688
 20
23.622285
 30
0.0
 10
55.723838
 20
17.756185
 30
0.0
 10
56.481268
 20
10.946785
 30
0.0
 10
63.311498
 20
6.851185
 30
0.0
 10
69.003358
 20
7.533785
 30
0.0
 10
66.812808
 20
20.668785
 30
0.0
 10
72.646128
 20
22.323385
 30
0.0
 10
80.154828
 20
7.997585
 30
0.0
 10
87.900328
 20
11.401785
 30
0.0
  0
SPLINE
  5
177
100
AcDbEntity
  8
0
 62
1
100
AcDbSpline
 70
8
 71
3
 72
8
 73
4
 74
0
 40
0
 40
0
 40
0
 40
0
 40
1
 40
1
 40
1
 40
1
 10
86.122939
 20
715.018745
 30
0.0
 10
86.122939
 20
715.018745
 30
0.0
 10
77.190619
 20
720.840515
 30
0.0
 10
77.190619
 20
720.840515
 30
0.0
  0
SPLINE
  5
178
100
AcDbEntity
  8
0
 62
1
100
AcDbSpline
 70
8
 71
3
 72
8
 73
4
 74
0
 40
0
 40
0
 40
0
 40
0
 40
1
 40
1
 40
1
 40
1
 10
77.190619
 20
720.840515
 30
0.0
 10
70.093585
 20
722.687598
 30
0.0
 10
62.773777
 20
723.536686
 30
0.0
 10
55.442369
 20
723.363285
 30
0.0
  0
LWPOLYLINE
  5
179
100
AcDbEntity
  8
0
 62
1
100
AcDbPolyline
 90
1
 70
1
 10
85.623588
 20
27.101485
 30
0.0
  0
SPLINE
  5
17a
100
AcDbEntity
  8
0
 62
1
100
AcDbSpline
 70
8
 71
3
 72
8
 73
4
 74
0
 40
0
 40
0
 40
0
 40
0
 40
1
 40
1
 40
1
 40
1
 10
94.742369
 20
662.107715
 30
0.0
 10
89.939030
 20
666.808635
 30
0.0
 10
84.343027
 20
670.624076
 30
0.0
 10
78.212309
 20
673.378165
 30
0.0
  0
SPLINE
  5
17b
100
AcDbEntity
  8
0
 62
1
100
AcDbSpline
 70
8
 71
3
 72
8
 73
4
 74
0
 40
0
 40
0
 40
0
 40
0
 40
1
 40
1
 40
1
 40
1
 10
78.212309
 20
673.378165
 30
0.0
 10
68.992473
 20
676.235345
 30
0.0
 10
59.173087
 20
676.555342
 30
0.0
 10
49.786789
 20
674.304505
 30
0.0
  0
SPLINE
  5
17c
100
AcDbEntity
  8
0
 62
1
100
AcDbSpline
 70
8
 71
3
 72
8
 73
4
 74
0
 40
0
 40
0
 40
0
 40
0
 40
1
 40
1
 40
1
 40
1
 10
49.786789
 20
674.304505
 30
0.0
 10
42.856051
 20
670.864406
 30
0.0
 10
36.456498
 20
666.444722
 30
0.0
 10
30.784939
 20
661.181375
 30
0.0
  0
SPLINE
  5
17d
100
AcDbEntity
  8
0
 62
1
100
AcDbSpline
 70
8
 71
3
 72
8
 73
4
 74
0
 40
0
 40
0
 40
0
 40
0
 40
1
 40
1
 40
1
 40
1
 10
30.784939
 20
661.181375
 30
0.0
 10
27.090183
 20
656.676754
 30
0.0
 10
24.119355
 20
651.624303
 30
0.0
 10
21.979209
 20
646.205575
 30
0.0
  0
LWPOLYLINE
  5
17e
100
AcDbEntity
  8
0
 62
1
100
AcDbPolyline
 90
19
 70
0
 10
55.442369
 20
723.363285
 30
0.0
 10
45.150779
 20
720.452395
 30
0.0
 10
34.859199
 20
711.525675
 30
0.0
 10
30.781399
 20
704.345485
 30
0.0
 10
30.198859
 20
700.076195
 30
0.0
 10
35.053379
 20
695.418775
 30
0.0
 10
49.228579
 20
696.389065
 30
0.0
 10
51.947109
 20
709.391025
 30
0.0
 10
58.743439
 20
709.196965
 30
0.0
 10
58.743439
 20
697.359365
 30
0.0
 10
63.792139
 20
695.224715
 30
0.0
 10
69.229209
 20
696.777185
 30
0.0
 10
69.617569
 20
708.614785
 30
0.0
 10
78.744069
 20
708.226675
 30
0.0
 10
79.520779
 20
696.583125
 30
0.0
 10
97.322699
 20
695.958885
 30
0.0
 10
99.133049
 20
700.464305
 30
0.0
 10
95.055249
 20
707.644495
 30
0.0
 10
86.122939
 20
715.018745
 30
0.0
  0
SPLINE
  5
17f
100
AcDbEntity
  8
0
 62
1
100
AcDbSpline
 70
8
 71
3
 72
8
 73
4
 74
0
 40
0
 40
0
 40
0
 40
0
 40
1
 40
1
 40
1
 40
1
 10
78.984529
 20
649.266955
 30
0.0
 10
78.984529
 20
649.266955
 30
0.0
 10
79.293499
 20
637.533335
 30
0.0
 10
79.293499
 20
637.533335
 30
0.0
  0
SPLINE
  5
180
100
AcDbEntity
  8
0
 62
1
100
AcDbSpline
 70
8
 71
3
 72
8
 73
4
 74
0
 40
0
 40
0
 40
0
 40
0
 40
1
 40
1
 40
1
 40
1
 10
79.293499
 20
637.533335
 30
0.0
 10
88.247004
 20
637.983115
 30
0.0
 10
97.216079
 20
638.034626
 30
0.0
 10
106.174160
 20
637.687715
 30
0.0
  0
LWPOLYLINE
  5
181
100
AcDbEntity
  8
0
 62
1
100
AcDbPolyline
 90
10
 70
0
 10
21.979209
 20
646.205575
 30
0.0
 10
21.361259
 20
641.419495
 30
0.0
 10
24.450989
 20
637.405365
 30
0.0
 10
48.661069
 20
637.597485
 30
0.0
 10
52.103869
 20
651.891575
 30
0.0
 10
59.673709
 20
650.038895
 30
0.0
 10
58.746789
 20
637.224555
 30
0.0
 10
68.633919
 20
637.224555
 30
0.0
 10
69.715339
 20
650.502065
 30
0.0
 10
78.984529
 20
649.266955
 30
0.0
  0
LWPOLYLINE
  5
182
100
AcDbEntity
  8
0
 62
1
100
AcDbPolyline
 90
4
 70
0
 10
106.174160
 20
637.687715
 30
0.0
 10
108.028000
 20
640.775515
 30
0.0
 10
104.938270
 20
649.884515
 30
0.0
 10
94.742369
 20
662.107715
 30
0.0
  0
SPLINE
  5
183
100
AcDbEntity
  8
0
 62
1
100
AcDbSpline
 70
8
 71
3
 72
8
 73
4
 74
0
 40
0
 40
0
 40
0
 40
0
 40
1
 40
1
 40
1
 40
1
 10
46.630049
 20
611.046435
 30
0.0
 10
46.630049
 20
611.046435
 30
0.0
 10
61.523529
 20
613.738245
 30
0.0
 10
61.523529
 20
613.738245
 30
0.0
  0
SPLINE
  5
184
100
AcDbEntity
  8
0
 62
1
100
AcDbSpline
 70
8
 71
3
 72
8
 73
4
 74
0
 40
0
 40
0
 40
0
 40
0
 40
1
 40
1
 40
1
 40
1
 10
61.523529
 20
613.738245
 30
0.0
 10
72.191333
 20
613.679661
 30
0.0
 10
82.691201
 20
611.076614
 30
0.0
 10
92.150999
 20
606.145315
 30
0.0
  0
SPLINE
  5
185
100
AcDbEntity
  8
0
 62
1
100
AcDbSpline
 70
8
 71
3
 72
8
 73
4
 74
0
 40
0
 40
0
 40
0
 40
0
 40
1
 40
1
 40
1
 40
1
 10
92.150999
 20
606.145315
 30
0.0
 10
99.924321
 20
599.639001
 30
0.0
 10
106.632142
 20
591.956879
 30
0.0
 10
112.031260
 20
583.377475
 30
0.0
  0
SPLINE
  5
186
100
AcDbEntity
  8
0
 62
1
100
AcDbSpline
 70
8
 71
3
 72
8
 73
4
 74
0
 40
0
 40
0
 40
0
 40
0
 40
1
 40
1
 40
1
 40
1
 10
112.031260
 20
583.377475
 30
0.0
 10
113.740461
 20
579.509393
 30
0.0
 10
114.090006
 20
575.176649
 30
0.0
 10
113.022990
 20
571.084595
 30
0.0
  0
LWPOLYLINE
  5
187
100
AcDbEntity
  8
0
 62
1
100
AcDbPolyline
 90
7
 70
0
 10
36.057559
 20
572.242005
 30
0.0
 10
21.767909
 20
572.242005
 30
0.0
 10
15.628219
 20
574.555805
 30
0.0
 10
17.635309
 20
582.861575
 30
0.0
 10
24.131389
 20
594.420535
 30
0.0
 10
33.320989
 20
603.129345
 30
0.0
 10
46.630049
 20
611.046435
 30
0.0
  0
LWPOLYLINE
  5
188
100
AcDbEntity
  8
0
 62
1
100
AcDbPolyline
 90
10
 70
0
 10
113.022990
 20
571.084595
 30
0.0
 10
80.335269
 20
572.421855
 30
0.0
 10
77.586859
 20
586.968965
 30
0.0
 10
69.548929
 20
584.960745
 30
0.0
 10
69.548929
 20
572.242005
 30
0.0
 10
60.171339
 20
572.018865
 30
0.0
 10
59.724789
 20
584.514475
 30
0.0
 10
53.026519
 20
584.291335
 30
0.0
 10
48.114449
 20
572.242005
 30
0.0
 10
36.057559
 20
572.242005
 30
0.0
  0
SPLINE
  5
189
100
AcDbEntity
  8
0
 62
1
100
AcDbSpline
 70
8
 71
3
 72
8
 73
4
 74
0
 40
0
 40
0
 40
0
 40
0
 40
1
 40
1
 40
1
 40
1
 10
13.419649
 20
519.242835
 30
0.0
 10
13.419649
 20
519.242835
 30
0.0
 10
16.201759
 20
527.665825
 30
0.0
 10
16.201759
 20
527.665825
 30
0.0
  0
SPLINE
  5
18a
100
AcDbEntity
  8
0
 62
1
100
AcDbSpline
 70
8
 71
3
 72
8
 73
4
 74
0
 40
0
 40
0
 40
0
 40
0
 40
1
 40
1
 40
1
 40
1
 10
16.201759
 20
527.665825
 30
0.0
 10
25.773128
 20
536.154574
 30
0.0
 10
36.242263
 20
543.573488
 30
0.0
 10
47.423259
 20
549.790825
 30
0.0
  0
SPLINE
  5
18b
100
AcDbEntity
  8
0
 62
1
100
AcDbSpline
 70
8
 71
3
 72
8
 73
4
 74
0
 40
0
 40
0
 40
0
 40
0
 40
1
 40
1
 40
1
 40
1
 10
47.423259
 20
549.790825
 30
0.0
 10
58.179235
 20
552.023331
 30
0.0
 10
69.297662
 20
551.829529
 30
0.0
 10
79.969299
 20
549.223525
 30
0.0
  0
SPLINE
  5
18c
100
AcDbEntity
  8
0
 62
1
100
AcDbSpline
 70
8
 71
3
 72
8
 73
4
 74
0
 40
0
 40
0
 40
0
 40
0
 40
1
 40
1
 40
1
 40
1
 10
79.969299
 20
549.223525
 30
0.0
 10
91.409963
 20
542.537800
 30
0.0
 10
102.702866
 20
535.602375
 30
0.0
 10
113.839890
 20
528.422235
 30
0.0
  0
LWPOLYLINE
  5
18d
100
AcDbEntity
  8
0
 62
1
100
AcDbPolyline
 90
3
 70
0
 10
49.315469
 20
514.239545
 30
0.0
 10
17.533699
 20
515.880205
 30
0.0
 10
13.419649
 20
519.242835
 30
0.0
  0
SPLINE
  5
18e
100
AcDbEntity
  8
0
 62
1
100
AcDbSpline
 70
8
 71
3
 72
8
 73
4
 74
0
 40
0
 40
0
 40
0
 40
0
 40
1
 40
1
 40
1
 40
1
 10
116.678220
 20
521.236335
 30
0.0
 10
116.678220
 20
521.236335
 30
0.0
 10
116.488990
 20
516.130565
 30
0.0
 10
116.488990
 20
516.130565
 30
0.0
  0
SPLINE
  5
18f
100
AcDbEntity
  8
0
 62
1
100
AcDbSpline
 70
8
 71
3
 72
8
 73
4
 74
0
 40
0
 40
0
 40
0
 40
0
 40
1
 40
1
 40
1
 40
1
 10
116.488990
 20
516.130565
 30
0.0
 10
106.157853
 20
514.559467
 30
0.0
 10
95.674765
 20
514.241998
 30
0.0
 10
85.267489
 20
515.185055
 30
0.0
  0
LWPOLYLINE
  5
190
100
AcDbEntity
  8
0
 62
1
100
AcDbPolyline
 90
2
 70
0
 10
113.839890
 20
528.422235
 30
0.0
 10
116.678220
 20
521.236335
 30
0.0
  0
LWPOLYLINE
  5
191
100
AcDbEntity
  8
0
 62
1
100
AcDbPolyline
 90
9
 70
0
 10
85.267489
 20
515.185055
 30
0.0
 10
80.158529
 20
516.886975
 30
0.0
 10
76.563319
 20
527.665825
 30
0.0
 10
68.994469
 20
527.287625
 30
0.0
 10
67.859149
 20
515.374155
 30
0.0
 10
58.965749
 20
515.752365
 30
0.0
 10
58.965749
 20
527.098515
 30
0.0
 10
51.396899
 20
526.153005
 30
0.0
 10
49.315469
 20
514.239545
 30
0.0
  0
SPLINE
  5
192
100
AcDbEntity
  8
0
 62
1
100
AcDbSpline
 70
8
 71
3
 72
8
 73
4
 74
0
 40
0
 40
0
 40
0
 40
0
 40
1
 40
1
 40
1
 40
1
 10
52.262949
 20
481.545305
 30
0.0
 10
52.262949
 20
481.545305
 30
0.0
 10
50.179429
 20
469.051955
 30
0.0
 10
50.179429
 20
469.051955
 30
0.0
  0
SPLINE
  5
193
100
AcDbEntity
  8
0
 62
1
100
AcDbSpline
 70
8
 71
3
 72
8
 73
4
 74
0
 40
0
 40
0
 40
0
 40
0
 40
1
 40
1
 40
1
 40
1
 10
50.179429
 20
469.051955
 30
0.0
 10
41.836250
 20
468.061039
 30
0.0
 10
33.402316
 20
468.109866
 30
0.0
 10
25.071169
 20
469.197315
 30
0.0
  0
SPLINE
  5
194
100
AcDbEntity
  8
0
 62
1
100
AcDbSpline
 70
8
 71
3
 72
8
 73
4
 74
0
 40
0
 40
0
 40
0
 40
0
 40
1
 40
1
 40
1
 40
1
 10
25.071169
 20
469.197315
 30
0.0
 10
25.071169
 20
469.197315
 30
0.0
 10
23.528389
 20
471.972585
 30
0.0
 10
23.528389
 20
471.972585
 30
0.0
  0
SPLINE
  5
195
100
AcDbEntity
  8
0
 62
1
100
AcDbSpline
 70
8
 71
3
 72
8
 73
4
 74
0
 40
0
 40
0
 40
0
 40
0
 40
1
 40
1
 40
1
 40
1
 10
23.528389
 20
471.972585
 30
0.0
 10
26.434706
 20
478.577514
 30
0.0
 10
30.920466
 20
484.366520
 30
0.0
 10
36.590639
 20
488.829805
 30
0.0
  0
SPLINE
  5
196
100
AcDbEntity
  8
0
 62
1
100
AcDbSpline
 70
8
 71
3
 72
8
 73
4
 74
0
 40
0
 40
0
 40
0
 40
0
 40
1
 40
1
 40
1
 40
1
 10
36.590639
 20
488.829805
 30
0.0
 10
41.016540
 20
492.653609
 30
0.0
 10
46.205522
 20
495.491746
 30
0.0
 10
51.812799
 20
497.155635
 30
0.0
  0
LWPOLYLINE
  5
197
100
AcDbEntity
  8
0
 62
1
100
AcDbPolyline
 90
3
 70
0
 10
59.986929
 20
470.339205
 30
0.0
 10
58.707009
 20
481.424935
 30
0.0
 10
52.262949
 20
481.545305
 30
0.0
  0
SPLINE
  5
198
100
AcDbEntity
  8
0
 62
1
100
AcDbSpline
 70
8
 71
3
 72
8
 73
4
 74
0
 40
0
 40
0
 40
0
 40
0
 40
1
 40
1
 40
1
 40
1
 10
67.446369
 20
498.080725
 30
0.0
 10
67.446369
 20
498.080725
 30
0.0
 10
78.143019
 20
496.950055
 30
0.0
 10
78.143019
 20
496.950055
 30
0.0
  0
SPLINE
  5
199
100
AcDbEntity
  8
0
 62
1
100
AcDbSpline
 70
8
 71
3
 72
8
 73
4
 74
0
 40
0
 40
0
 40
0
 40
0
 40
1
 40
1
 40
1
 40
1
 10
78.143019
 20
496.950055
 30
0.0
 10
86.415470
 20
493.423511
 30
0.0
 10
93.987027
 20
488.439371
 30
0.0
 10
100.496850
 20
482.235165
 30
0.0
  0
LWPOLYLINE
  5
19a
100
AcDbEntity
  8
0
 62
1
100
AcDbPolyline
 90
2
 70
0
 10
51.812799
 20
497.155635
 30
0.0
 10
67.446369
 20
498.080725
 30
0.0
  0
SPLINE
  5
19b
100
AcDbEntity
  8
0
 62
1
100
AcDbSpline
 70
8
 71
3
 72
8
 73
4
 74
0
 40
0
 40
0
 40
0
 40
0
 40
1
 40
1
 40
1
 40
1
 10
103.479570
 20
468.564375
 30
0.0
 10
95.929668
 20
468.239461
 30
0.0
 10
88.366036
 20
468.479969
 30
0.0
 10
80.852029
 20
469.283885
 30
0.0
  0
LWPOLYLINE
  5
19c
100
AcDbEntity
  8
0
 62
1
100
AcDbPolyline
 90
3
 70
0
 10
100.496850
 20
482.235165
 30
0.0
 10
103.479570
 20
477.712495
 30
0.0
 10
103.479570
 20
468.564375
 30
0.0
  0
LWPOLYLINE
  5
19d
100
AcDbEntity
  8
0
 62
1
100
AcDbPolyline
 90
5
 70
0
 10
80.852029
 20
469.283885
 30
0.0
 10
78.794989
 20
481.515655
 30
0.0
 10
72.359529
 20
481.851305
 30
0.0
 10
71.079609
 20
470.765575
 30
0.0
 10
59.986929
 20
470.339205
 30
0.0
  0
SPLINE
  5
19e
100
AcDbEntity
  8
0
 62
1
100
AcDbSpline
 70
8
 71
3
 72
8
 73
4
 74
0
 40
0
 40
0
 40
0
 40
0
 40
1
 40
1
 40
1
 40
1
 10
692.740700
 20
948.615645
 30
0.0
 10
698.101682
 20
948.496782
 30
0.0
 10
703.463704
 20
948.800106
 30
0.0
 10
708.777080
 20
949.522805
 30
0.0
  0
LWPOLYLINE
  5
19f
100
AcDbEntity
  8
0
 62
1
100
AcDbPolyline
 90
4
 70
0
 10
692.438130
 20
979.156395
 30
0.0
 10
685.478940
 20
966.758665
 30
0.0
 10
686.689230
 20
955.268095
 30
0.0
 10
692.740700
 20
948.615645
 30
0.0
  0
SPLINE
  5
1a0
100
AcDbEntity
  8
0
 62
1
100
AcDbSpline
 70
8
 71
3
 72
8
 73
4
 74
0
 40
0
 40
0
 40
0
 40
0
 40
1
 40
1
 40
1
 40
1
 10
706.049250
 20
1008.428375
 30
0.0
 10
706.430580
 20
1002.597223
 30
0.0
 10
706.473976
 20
996.748884
 30
0.0
 10
706.179220
 20
990.912715
 30
0.0
  0
LWPOLYLINE
  5
1a1
100
AcDbEntity
  8
0
 62
1
100
AcDbPolyline
 90
6
 70
0
 10
708.777080
 20
949.522805
 30
0.0
 10
716.643990
 20
954.360935
 30
0.0
 10
716.643990
 20
966.456285
 30
0.0
 10
712.710540
 20
979.761165
 30
0.0
 10
702.423050
 20
981.575465
 30
0.0
 10
692.438130
 20
979.156395
 30
0.0
  0
SPLINE
  5
1a2
100
AcDbEntity
  8
0
 62
1
100
AcDbSpline
 70
8
 71
3
 72
8
 73
4
 74
0
 40
0
 40
0
 40
0
 40
0
 40
1
 40
1
 40
1
 40
1
 10
666.811730
 20
997.050695
 30
0.0
 10
666.811730
 20
997.050695
 30
0.0
 10
659.625780
 20
986.912165
 30
0.0
 10
659.625780
 20
986.912165
 30
0.0
  0
SPLINE
  5
1a3
100
AcDbEntity
  8
0
 62
1
100
AcDbSpline
 70
8
 71
3
 72
8
 73
4
 74
0
 40
0
 40
0
 40
0
 40
0
 40
1
 40
1
 40
1
 40
1
 10
659.625780
 20
986.912165
 30
0.0
 10
657.938852
 20
980.736932
 30
0.0
 10
656.058173
 20
974.616268
 30
0.0
 10
653.986530
 20
968.559245
 30
0.0
  0
LWPOLYLINE
  5
1a4
100
AcDbEntity
  8
0
 62
1
100
AcDbPolyline
 90
5
 70
0
 10
706.179220
 20
990.912715
 30
0.0
 10
695.521780
 20
990.912715
 30
0.0
 10
695.521780
 20
1007.994115
 30
0.0
 10
680.197350
 20
1004.795405
 30
0.0
 10
666.811730
 20
997.050695
 30
0.0
  0
SPLINE
  5
1a5
100
AcDbEntity
  8
0
 62
1
100
AcDbSpline
 70
8
 71
3
 72
8
 73
4
 74
0
 40
0
 40
0
 40
0
 40
0
 40
1
 40
1
 40
1
 40
1
 10
668.922050
 20
959.124785
 30
0.0
 10
668.922050
 20
959.124785
 30
0.0
 10
677.657930
 20
954.900405
 30
0.0
 10
677.657930
 20
954.900405
 30
0.0
  0
SPLINE
  5
1a6
100
AcDbEntity
  8
0
 62
1
100
AcDbSpline
 70
8
 71
3
 72
8
 73
4
 74
0
 40
0
 40
0
 40
0
 40
0
 40
1
 40
1
 40
1
 40
1
 10
677.657930
 20
954.900405
 30
0.0
 10
675.370271
 20
947.233731
 30
0.0
 10
672.399441
 20
939.787742
 30
0.0
 10
668.781160
 20
932.651965
 30
0.0
  0
LWPOLYLINE
  5
1a7
100
AcDbEntity
  8
0
 62
1
100
AcDbPolyline
 90
5
 70
0
 10
653.986530
 20
968.559245
 30
0.0
 10
653.986530
 20
957.575845
 30
0.0
 10
660.186180
 20
944.761875
 30
0.0
 10
662.580790
 20
942.367255
 30
0.0
 10
668.922050
 20
959.124785
 30
0.0
  0
SPLINE
  5
1a8
100
AcDbEntity
  8
0
 62
1
100
AcDbSpline
 70
8
 71
3
 72
8
 73
4
 74
0
 40
0
 40
0
 40
0
 40
0
 40
1
 40
1
 40
1
 40
1
 10
700.731440
 20
902.374305
 30
0.0
 10
703.149264
 20
902.032323
 30
0.0
 10
705.596927
 20
902.751773
 30
0.0
 10
707.445140
 20
904.347685
 30
0.0
  0
SPLINE
  5
1a9
100
AcDbEntity
  8
0
 62
1
100
AcDbSpline
 70
8
 71
3
 72
8
 73
4
 74
0
 40
0
 40
0
 40
0
 40
0
 40
1
 40
1
 40
1
 40
1
 10
707.445140
 20
904.347685
 30
0.0
 10
708.882856
 20
913.050614
 30
0.0
 10
709.379371
 20
921.883044
 30
0.0
 10
708.926100
 20
930.692275
 30
0.0
  0
LWPOLYLINE
  5
1aa
100
AcDbEntity
  8
0
 62
1
100
AcDbPolyline
 90
9
 70
0
 10
668.781160
 20
932.651965
 30
0.0
 10
672.303380
 20
920.200195
 30
0.0
 10
677.939430
 20
910.202485
 30
0.0
 10
685.266290
 20
906.541355
 30
0.0
 10
689.070620
 20
906.541355
 30
0.0
 10
689.070620
 20
931.746855
 30
0.0
 10
697.524690
 20
931.746855
 30
0.0
 10
697.524690
 20
907.245415
 30
0.0
 10
700.731440
 20
902.374305
 30
0.0
  0
SPLINE
  5
1ab
100
AcDbEntity
  8
0
 62
1
100
AcDbSpline
 70
8
 71
3
 72
8
 73
4
 74
0
 40
0
 40
0
 40
0
 40
0
 40
1
 40
1
 40
1
 40
1
 10
731.500200
 20
918.809495
 30
0.0
 10
731.500200
 20
918.809495
 30
0.0
 10
735.152980
 20
932.084035
 30
0.0
 10
735.152980
 20
932.084035
 30
0.0
  0
SPLINE
  5
1ac
100
AcDbEntity
  8
0
 62
1
100
AcDbSpline
 70
8
 71
3
 72
8
 73
4
 74
0
 40
0
 40
0
 40
0
 40
0
 40
1
 40
1
 40
1
 40
1
 10
735.152980
 20
932.084035
 30
0.0
 10
733.106525
 20
939.584099
 30
0.0
 10
731.297678
 20
947.146983
 30
0.0
 10
729.729150
 20
954.761355
 30
0.0
  0
LWPOLYLINE
  5
1ad
100
AcDbEntity
  8
0
 62
1
100
AcDbPolyline
 90
6
 70
0
 10
708.926100
 20
930.692275
 30
0.0
 10
717.219490
 20
930.692275
 30
0.0
 10
717.219490
 20
907.406415
 30
0.0
 10
719.390760
 20
905.235145
 30
0.0
 10
724.305310
 20
907.636775
 30
0.0
 10
731.500200
 20
918.809495
 30
0.0
  0
SPLINE
  5
1ae
100
AcDbEntity
  8
0
 62
1
100
AcDbSpline
 70
8
 71
3
 72
8
 73
4
 74
0
 40
0
 40
0
 40
0
 40
0
 40
1
 40
1
 40
1
 40
1
 10
731.966730
 20
999.963615
 30
0.0
 10
723.929464
 20
1004.373130
 30
0.0
 10
715.139817
 20
1007.243866
 30
0.0
 10
706.049250
 20
1008.428375
 30
0.0
  0
LWPOLYLINE
  5
1af
100
AcDbEntity
  8
0
 62
1
100
AcDbPolyline
 90
9
 70
0
 10
729.729150
 20
954.761355
 30
0.0
 10
736.702650
 20
957.637505
 30
0.0
 10
741.019570
 20
943.809865
 30
0.0
 10
743.343480
 20
941.485955
 30
0.0
 10
746.244030
 20
942.727055
 30
0.0
 10
750.147000
 20
965.163775
 30
0.0
 10
748.255740
 20
979.393005
 30
0.0
 10
740.903310
 20
991.027045
 30
0.0
 10
731.966730
 20
999.963615
 30
0.0
  0
SPLINE
  5
1b0
100
AcDbEntity
  8
0
 62
1
100
AcDbSpline
 70
8
 71
3
 72
8
 73
4
 74
0
 40
0
 40
0
 40
0
 40
0
 40
1
 40
1
 40
1
 40
1
 10
702.368430
 20
644.033395
 30
0.0
 10
702.368430
 20
644.033395
 30
0.0
 10
696.682300
 20
645.636175
 30
0.0
 10
696.682300
 20
645.636175
 30
0.0
  0
SPLINE
  5
1b1
100
AcDbEntity
  8
0
 62
1
100
AcDbSpline
 70
8
 71
3
 72
8
 73
4
 74
0
 40
0
 40
0
 40
0
 40
0
 40
1
 40
1
 40
1
 40
1
 10
696.682300
 20
645.636175
 30
0.0
 10
692.700813
 20
648.409603
 30
0.0
 10
689.077034
 20
651.664064
 30
0.0
 10
685.893220
 20
655.325685
 30
0.0
  0
SPLINE
  5
1b2
100
AcDbEntity
  8
0
 62
1
100
AcDbSpline
 70
8
 71
3
 72
8
 73
4
 74
0
 40
0
 40
0
 40
0
 40
0
 40
1
 40
1
 40
1
 40
1
 10
685.893220
 20
655.325685
 30
0.0
 10
683.799087
 20
663.786035
 30
0.0
 10
683.159891
 20
672.541050
 30
0.0
 10
684.003000
 20
681.215845
 30
0.0
  0
LWPOLYLINE
  5
1b3
100
AcDbEntity
  8
0
 62
1
100
AcDbPolyline
 90
1
 70
1
 10
706.049250
 20
1008.428375
 30
0.0
  0
SPLINE
  5
1b4
100
AcDbEntity
  8
0
 62
1
100
AcDbSpline
 70
8
 71
3
 72
8
 73
4
 74
0
 40
0
 40
0
 40
0
 40
0
 40
1
 40
1
 40
1
 40
1
 10
686.558400
 20
689.700545
 30
0.0
 10
689.289738
 20
694.125121
 30
0.0
 10
692.710521
 20
698.084844
 30
0.0
 10
696.691380
 20
701.429965
 30
0.0
  0
LWPOLYLINE
  5
1b5
100
AcDbEntity
  8
0
 62
1
100
AcDbPolyline
 90
2
 70
0
 10
684.003000
 20
681.215845
 30
0.0
 10
686.558400
 20
689.700545
 30
0.0
  0
SPLINE
  5
1b6
100
AcDbEntity
  8
0
 62
1
100
AcDbSpline
 70
8
 71
3
 72
8
 73
4
 74
0
 40
0
 40
0
 40
0
 40
0
 40
1
 40
1
 40
1
 40
1
 10
701.284030
 20
702.814175
 30
0.0
 10
704.640302
 20
702.783356
 30
0.0
 10
707.967764
 20
702.191187
 30
0.0
 10
711.128600
 20
701.062195
 30
0.0
  0
SPLINE
  5
1b7
100
AcDbEntity
  8
0
 62
1
100
AcDbSpline
 70
8
 71
3
 72
8
 73
4
 74
0
 40
0
 40
0
 40
0
 40
0
 40
1
 40
1
 40
1
 40
1
 10
711.128600
 20
701.062195
 30
0.0
 10
715.581818
 20
698.711637
 30
0.0
 10
718.971047
 20
694.751328
 30
0.0
 10
720.605490
 20
689.988465
 30
0.0
  0
SPLINE
  5
1b8
100
AcDbEntity
  8
0
 62
1
100
AcDbSpline
 70
8
 71
3
 72
8
 73
4
 74
0
 40
0
 40
0
 40
0
 40
0
 40
1
 40
1
 40
1
 40
1
 10
720.605490
 20
689.988465
 30
0.0
 10
724.390860
 20
682.073817
 30
0.0
 10
725.904604
 20
673.263649
 30
0.0
 10
724.978090
 20
664.539415
 30
0.0
  0
SPLINE
  5
1b9
100
AcDbEntity
  8
0
 62
1
100
AcDbSpline
 70
8
 71
3
 72
8
 73
4
 74
0
 40
0
 40
0
 40
0
 40
0
 40
1
 40
1
 40
1
 40
1
 10
724.978090
 20
664.539415
 30
0.0
 10
723.610257
 20
657.388628
 30
0.0
 10
719.759198
 20
650.951342
 30
0.0
 10
714.105210
 20
646.364715
 30
0.0
  0
SPLINE
  5
1ba
100
AcDbEntity
  8
0
 62
1
100
AcDbSpline
 70
8
 71
3
 72
8
 73
4
 74
0
 40
0
 40
0
 40
0
 40
0
 40
1
 40
1
 40
1
 40
1
 10
714.105210
 20
646.364715
 30
0.0
 10
710.603703
 20
644.193603
 30
0.0
 10
706.433891
 20
643.365338
 30
0.0
 10
702.368430
 20
644.033395
 30
0.0
  0
LWPOLYLINE
  5
1bb
100
AcDbEntity
  8
0
 62
1
100
AcDbPolyline
 90
2
 70
0
 10
696.691380
 20
701.429965
 30
0.0
 10
701.284030
 20
702.814175
 30
0.0
  0
LWPOLYLINE
  5
1bc
100
AcDbEntity
  8
0
 62
1
100
AcDbPolyline
 90
1
 70
1
 10
702.368430
 20
644.033395
 30
0.0
  0
SPLINE
  5
1bd
100
AcDbEntity
  8
0
 62
1
100
AcDbSpline
 70
8
 71
3
 72
8
 73
4
 74
0
 40
0
 40
0
 40
0
 40
0
 40
1
 40
1
 40
1
 40
1
 10
712.655280
 20
740.582825
 30
0.0
 10
712.655280
 20
740.582825
 30
0.0
 10
709.392750
 20
737.320285
 30
0.0
 10
709.392750
 20
737.320285
 30
0.0
  0
SPLINE
  5
1be
100
AcDbEntity
  8
0
 62
1
100
AcDbSpline
 70
8
 71
3
 72
8
 73
4
 74
0
 40
0
 40
0
 40
0
 40
0
 40
1
 40
1
 40
1
 40
1
 10
709.392750
 20
737.320285
 30
0.0
 10
708.648039
 20
731.384654
 30
0.0
 10
708.302070
 20
725.405777
 30
0.0
 10
708.357170
 20
719.423865
 30
0.0
  0
LWPOLYLINE
  5
1bf
100
AcDbEntity
  8
0
 62
1
100
AcDbPolyline
 90
6
 70
0
 10
734.878920
 20
714.366315
 30
0.0
 10
727.707850
 20
714.404615
 30
0.0
 10
723.369140
 20
720.360625
 30
0.0
 10
723.611480
 20
733.566275
 30
0.0
 10
720.235400
 20
736.942355
 30
0.0
 10
712.655280
 20
740.582825
 30
0.0
  0
SPLINE
  5
1c0
100
AcDbEntity
  8
0
 62
1
100
AcDbSpline
 70
8
 71
3
 72
8
 73
4
 74
0
 40
0
 40
0
 40
0
 40
0
 40
1
 40
1
 40
1
 40
1
 10
669.783580
 20
727.179445
 30
0.0
 10
662.503964
 20
719.566060
 30
0.0
 10
656.124978
 20
711.139972
 30
0.0
 10
650.772590
 20
702.067575
 30
0.0
  0
LWPOLYLINE
  5
1c1
100
AcDbEntity
  8
0
 62
1
100
AcDbPolyline
 90
10
 70
0
 10
708.357170
 20
719.423865
 30
0.0
 10
698.567000
 20
719.423865
 30
0.0
 10
698.567000
 20
739.310105
 30
0.0
 10
693.870900
 20
740.662365
 30
0.0
 10
683.443980
 20
735.730575
 30
0.0
 10
681.533710
 20
727.855635
 30
0.0
 10
681.533710
 20
714.651165
 30
0.0
 10
672.847490
 20
714.651165
 30
0.0
 10
672.847490
 20
727.179445
 30
0.0
 10
669.783580
 20
727.179445
 30
0.0
  0
SPLINE
  5
1c2
100
AcDbEntity
  8
0
 62
1
100
AcDbSpline
 70
8
 71
3
 72
8
 73
4
 74
0
 40
0
 40
0
 40
0
 40
0
 40
1
 40
1
 40
1
 40
1
 10
724.091380
 20
614.041955
 30
0.0
 10
729.734412
 20
619.931315
 30
0.0
 10
734.497228
 20
626.604854
 30
0.0
 10
738.232320
 20
633.855885
 30
0.0
  0
SPLINE
  5
1c3
100
AcDbEntity
  8
0
 62
1
100
AcDbSpline
 70
8
 71
3
 72
8
 73
4
 74
0
 40
0
 40
0
 40
0
 40
0
 40
1
 40
1
 40
1
 40
1
 10
738.232320
 20
633.855885
 30
0.0
 10
736.483177
 20
643.258919
 30
0.0
 10
734.168847
 20
652.547973
 30
0.0
 10
731.301920
 20
661.672515
 30
0.0
  0
LWPOLYLINE
  5
1c4
100
AcDbEntity
  8
0
 62
1
100
AcDbPolyline
 90
26
 70
0
 10
650.772590
 20
702.067575
 30
0.0
 10
647.339140
 20
692.105725
 30
0.0
 10
645.160310
 20
671.486365
 30
0.0
 10
646.916200
 20
660.567715
 30
0.0
 10
649.001350
 20
660.567715
 30
0.0
 10
656.358160
 20
675.657795
 30
0.0
 10
664.711210
 20
671.445595
 30
0.0
 10
654.148940
 20
646.538675
 30
0.0
 10
655.418810
 20
642.850675
 30
0.0
 10
661.077730
 20
639.530955
 30
0.0
 10
671.853240
 20
669.352085
 30
0.0
 10
677.553930
 20
667.892675
 30
0.0
 10
677.553930
 20
655.116125
 30
0.0
 10
668.353830
 20
635.533395
 30
0.0
 10
675.495930
 20
623.628545
 30
0.0
 10
684.756600
 20
614.367865
 30
0.0
 10
690.667790
 20
615.060235
 30
0.0
 10
690.667790
 20
626.943705
 30
0.0
 10
694.330610
 20
634.557855
 30
0.0
 10
699.621530
 20
634.557855
 30
0.0
 10
699.621530
 20
610.446395
 30
0.0
 10
710.203370
 20
610.446395
 30
0.0
 10
710.203370
 20
633.923335
 30
0.0
 10
717.187380
 20
633.923335
 30
0.0
 10
717.187380
 20
614.041955
 30
0.0
 10
724.091380
 20
614.041955
 30
0.0
  0
SPLINE
  5
1c5
100
AcDbEntity
  8
0
 62
1
100
AcDbSpline
 70
8
 71
3
 72
8
 73
4
 74
0
 40
0
 40
0
 40
0
 40
0
 40
1
 40
1
 40
1
 40
1
 10
746.678670
 20
639.202065
 30
0.0
 10
750.198613
 20
640.485033
 30
0.0
 10
753.218433
 20
642.855789
 30
0.0
 10
755.300270
 20
645.970585
 30
0.0
  0
LWPOLYLINE
  5
1c6
100
AcDbEntity
  8
0
 62
1
100
AcDbPolyline
 90
4
 70
0
 10
731.301920
 20
661.672515
 30
0.0
 10
731.301920
 20
667.374755
 30
0.0
 10
737.375850
 20
667.374755
 30
0.0
 10
746.678670
 20
639.202065
 30
0.0
  0
SPLINE
  5
1c7
100
AcDbEntity
  8
0
 62
1
100
AcDbSpline
 70
8
 71
3
 72
8
 73
4
 74
0
 40
0
 40
0
 40
0
 40
0
 40
1
 40
1
 40
1
 40
1
 10
398.724560
 20
1031.930677
 30
0.0
 10
398.724560
 20
1031.930677
 30
0.0
 10
394.576410
 20
1041.437527
 30
0.0
 10
394.576410
 20
1041.437527
 30
0.0
  0
SPLINE
  5
1c8
100
AcDbEntity
  8
0
 62
1
100
AcDbSpline
 70
8
 71
3
 72
8
 73
4
 74
0
 40
0
 40
0
 40
0
 40
0
 40
1
 40
1
 40
1
 40
1
 10
394.576410
 20
1041.437527
 30
0.0
 10
393.168327
 20
1046.981073
 30
0.0
 10
393.241687
 20
1052.797309
 30
0.0
 10
394.789140
 20
1058.303577
 30
0.0
  0
SPLINE
  5
1c9
100
AcDbEntity
  8
0
 62
1
100
AcDbSpline
 70
8
 71
3
 72
8
 73
4
 74
0
 40
0
 40
0
 40
0
 40
0
 40
1
 40
1
 40
1
 40
1
 10
394.789140
 20
1058.303577
 30
0.0
 10
397.093070
 20
1064.737850
 30
0.0
 10
400.581539
 20
1070.683778
 30
0.0
 10
405.074180
 20
1075.833937
 30
0.0
  0
SPLINE
  5
1ca
100
AcDbEntity
  8
0
 62
1
100
AcDbSpline
 70
8
 71
3
 72
8
 73
4
 74
0
 40
0
 40
0
 40
0
 40
0
 40
1
 40
1
 40
1
 40
1
 10
405.074180
 20
1075.833937
 30
0.0
 10
403.987451
 20
1082.416927
 30
0.0
 10
403.531604
 20
1089.088623
 30
0.0
 10
403.712840
 20
1095.758247
 30
0.0
  0
LWPOLYLINE
  5
1cb
100
AcDbEntity
  8
0
 62
1
100
AcDbPolyline
 90
11
 70
0
 10
755.300270
 20
645.970585
 30
0.0
 10
746.399280
 20
671.304045
 30
0.0
 10
750.754810
 20
675.659575
 30
0.0
 10
758.658840
 20
661.279795
 30
0.0
 10
764.330710
 20
666.951665
 30
0.0
 10
762.914220
 20
690.643775
 30
0.0
 10
751.738340
 20
710.316115
 30
0.0
 10
742.173870
 20
722.628735
 30
0.0
 10
734.878920
 20
725.868905
 30
0.0
 10
734.878920
 20
714.366325
 30
0.0
 10
734.878920
 20
714.366315
 30
0.0
  0
SPLINE
  5
1cc
100
AcDbEntity
  8
0
 62
1
100
AcDbSpline
 70
8
 71
3
 72
8
 73
4
 74
0
 40
0
 40
0
 40
0
 40
0
 40
1
 40
1
 40
1
 40
1
 10
433.394400
 20
1072.671787
 30
0.0
 10
437.338285
 20
1069.406057
 30
0.0
 10
440.495543
 20
1065.293558
 30
0.0
 10
442.631560
 20
1060.639887
 30
0.0
  0
SPLINE
  5
1cd
100
AcDbEntity
  8
0
 62
1
100
AcDbSpline
 70
8
 71
3
 72
8
 73
4
 74
0
 40
0
 40
0
 40
0
 40
0
 40
1
 40
1
 40
1
 40
1
 10
442.631560
 20
1060.639887
 30
0.0
 10
443.855104
 20
1052.893085
 30
0.0
 10
443.982563
 20
1045.012656
 30
0.0
 10
443.010190
 20
1037.230337
 30
0.0
  0
LWPOLYLINE
  5
1ce
100
AcDbEntity
  8
0
 62
1
100
AcDbPolyline
 90
10
 70
0
 10
403.712840
 20
1095.758247
 30
0.0
 10
408.449220
 20
1097.773547
 30
0.0
 10
413.154540
 20
1094.974517
 30
0.0
 10
413.154540
 20
1077.508567
 30
0.0
 10
423.956410
 20
1077.508567
 30
0.0
 10
423.791560
 20
1078.426557
 30
0.0
 10
425.817860
 20
1095.594617
 30
0.0
 10
429.346660
 20
1097.357917
 30
0.0
 10
434.639870
 20
1094.661107
 30
0.0
 10
433.394400
 20
1072.671787
 30
0.0
  0
SPLINE
  5
1cf
100
AcDbEntity
  8
0
 62
1
100
AcDbSpline
 70
8
 71
3
 72
8
 73
4
 74
0
 40
0
 40
0
 40
0
 40
0
 40
1
 40
1
 40
1
 40
1
 10
410.233180
 20
1020.090985
 30
0.0
 10
405.381780
 20
1022.904881
 30
0.0
 10
401.399770
 20
1027.001443
 30
0.0
 10
398.724560
 20
1031.930677
 30
0.0
  0
LWPOLYLINE
  5
1d0
100
AcDbEntity
  8
0
 62
1
100
AcDbPolyline
 90
6
 70
0
 10
443.010190
 20
1037.230337
 30
0.0
 10
439.907370
 20
1029.562737
 30
0.0
 10
433.901070
 20
1023.556437
 30
0.0
 10
425.295940
 20
1019.188915
 30
0.0
 10
418.977480
 20
1018.399605
 30
0.0
 10
410.233180
 20
1020.090985
 30
0.0
  0
SPLINE
  5
1d1
100
AcDbEntity
  8
0
 62
1
100
AcDbSpline
 70
8
 71
3
 72
8
 73
4
 74
0
 40
0
 40
0
 40
0
 40
0
 40
1
 40
1
 40
1
 40
1
 10
362.743760
 20
1051.211677
 30
0.0
 10
366.171662
 20
1056.648856
 30
0.0
 10
370.078099
 20
1061.769170
 30
0.0
 10
374.416560
 20
1066.511657
 30
0.0
  0
LWPOLYLINE
  5
1d2
100
AcDbEntity
  8
0
 62
1
100
AcDbPolyline
 90
1
 70
1
 10
398.724560
 20
1031.930677
 30
0.0
  0
SPLINE
  5
1d3
100
AcDbEntity
  8
0
 62
1
100
AcDbSpline
 70
8
 71
3
 72
8
 73
4
 74
0
 40
0
 40
0
 40
0
 40
0
 40
1
 40
1
 40
1
 40
1
 10
376.802980
 20
1084.875577
 30
0.0
 10
378.587913
 20
1089.809954
 30
0.0
 10
381.639841
 20
1094.187778
 30
0.0
 10
385.652220
 20
1097.569327
 30
0.0
  0
LWPOLYLINE
  5
1d4
100
AcDbEntity
  8
0
 62
1
100
AcDbPolyline
 90
3
 70
0
 10
374.416560
 20
1066.511657
 30
0.0
 10
376.802980
 20
1074.063917
 30
0.0
 10
376.802980
 20
1084.875577
 30
0.0
  0
SPLINE
  5
1d5
100
AcDbEntity
  8
0
 62
1
100
AcDbSpline
 70
8
 71
3
 72
8
 73
4
 74
0
 40
0
 40
0
 40
0
 40
0
 40
1
 40
1
 40
1
 40
1
 10
421.737000
 20
1114.241257
 30
0.0
 10
427.255095
 20
1114.937322
 30
0.0
 10
432.857369
 20
1114.050332
 30
0.0
 10
437.890560
 20
1111.683717
 30
0.0
  0
LWPOLYLINE
  5
1d6
100
AcDbEntity
  8
0
 62
1
100
AcDbPolyline
 90
7
 70
0
 10
385.652220
 20
1097.569327
 30
0.0
 10
393.960970
 20
1089.260577
 30
0.0
 10
400.301350
 20
1095.600957
 30
0.0
 10
391.713630
 20
1104.188677
 30
0.0
 10
397.578180
 20
1110.053227
 30
0.0
 10
406.563340
 20
1114.241257
 30
0.0
 10
421.737000
 20
1114.241257
 30
0.0
  0
SPLINE
  5
1d7
100
AcDbEntity
  8
0
 62
1
100
AcDbSpline
 70
8
 71
3
 72
8
 73
4
 74
0
 40
0
 40
0
 40
0
 40
0
 40
1
 40
1
 40
1
 40
1
 10
461.256940
 20
1072.130807
 30
0.0
 10
464.612061
 20
1065.032436
 30
0.0
 10
469.000871
 20
1058.470616
 30
0.0
 10
474.280280
 20
1052.659287
 30
0.0
  0
LWPOLYLINE
  5
1d8
100
AcDbEntity
  8
0
 62
1
100
AcDbPolyline
 90
9
 70
0
 10
437.890560
 20
1111.683717
 30
0.0
 10
443.844200
 20
1105.730077
 30
0.0
 10
445.314680
 20
1102.633607
 30
0.0
 10
438.543230
 20
1094.561887
 30
0.0
 10
444.415560
 20
1088.689557
 30
0.0
 10
451.270290
 20
1097.170927
 30
0.0
 10
456.740490
 20
1091.700717
 30
0.0
 10
459.513660
 20
1084.633577
 30
0.0
 10
461.256940
 20
1072.130807
 30
0.0
  0
SPLINE
  5
1d9
100
AcDbEntity
  8
0
 62
1
100
AcDbSpline
 70
8
 71
3
 72
8
 73
4
 74
0
 40
0
 40
0
 40
0
 40
0
 40
1
 40
1
 40
1
 40
1
 10
467.726270
 20
1015.406345
 30
0.0
 10
464.986485
 20
1011.891983
 30
0.0
 10
461.223555
 20
1009.314519
 30
0.0
 10
456.956690
 20
1008.029595
 30
0.0
  0
LWPOLYLINE
  5
1da
100
AcDbEntity
  8
0
 62
1
100
AcDbPolyline
 90
5
 70
0
 10
474.280280
 20
1052.659287
 30
0.0
 10
476.132790
 20
1043.590747
 30
0.0
 10
476.132790
 20
1028.525937
 30
0.0
 10
474.389510
 20
1022.069585
 30
0.0
 10
467.726270
 20
1015.406345
 30
0.0
  0
SPLINE
  5
1db
100
AcDbEntity
  8
0
 62
1
100
AcDbSpline
 70
8
 71
3
 72
8
 73
4
 74
0
 40
0
 40
0
 40
0
 40
0
 40
1
 40
1
 40
1
 40
1
 10
404.150760
 20
992.929705
 30
0.0
 10
404.150760
 20
992.929705
 30
0.0
 10
396.417090
 20
992.929705
 30
0.0
 10
396.417090
 20
992.929705
 30
0.0
  0
SPLINE
  5
1dc
100
AcDbEntity
  8
0
 62
1
100
AcDbSpline
 70
8
 71
3
 72
8
 73
4
 74
0
 40
0
 40
0
 40
0
 40
0
 40
1
 40
1
 40
1
 40
1
 10
396.417090
 20
992.929705
 30
0.0
 10
390.672235
 20
999.623850
 30
0.0
 10
384.053385
 20
1005.515166
 30
0.0
 10
376.738430
 20
1010.445315
 30
0.0
  0
SPLINE
  5
1dd
100
AcDbEntity
  8
0
 62
1
100
AcDbSpline
 70
8
 71
3
 72
8
 73
4
 74
0
 40
0
 40
0
 40
0
 40
0
 40
1
 40
1
 40
1
 40
1
 10
376.738430
 20
1010.445315
 30
0.0
 10
371.739282
 20
1014.839486
 30
0.0
 10
367.373192
 20
1019.905238
 30
0.0
 10
363.764740
 20
1025.498027
 30
0.0
  0
SPLINE
  5
1de
100
AcDbEntity
  8
0
 62
1
100
AcDbSpline
 70
8
 71
3
 72
8
 73
4
 74
0
 40
0
 40
0
 40
0
 40
0
 40
1
 40
1
 40
1
 40
1
 10
363.764740
 20
1025.498027
 30
0.0
 10
360.187925
 20
1033.632415
 30
0.0
 10
359.823153
 20
1042.819304
 30
0.0
 10
362.743760
 20
1051.211677
 30
0.0
  0
LWPOLYLINE
  5
1df
100
AcDbEntity
  8
0
 62
1
100
AcDbPolyline
 90
10
 70
0
 10
456.956690
 20
1008.029595
 30
0.0
 10
442.096050
 20
993.168955
 30
0.0
 10
434.682640
 20
993.168955
 30
0.0
 10
434.682640
 20
1005.005985
 30
0.0
 10
426.385060
 20
1005.005985
 30
0.0
 10
425.418350
 20
991.400045
 30
0.0
 10
413.253930
 20
991.400045
 30
0.0
 10
413.253930
 20
1005.167005
 30
0.0
 10
405.520270
 20
1005.167005
 30
0.0
 10
404.150760
 20
992.929705
 30
0.0
  0
LWPOLYLINE
  5
1e0
100
AcDbEntity
  8
0
 62
1
100
AcDbPolyline
 90
1
 70
1
 10
362.743760
 20
1051.211677
 30
0.0
  0
SPLINE
  5
1e1
100
AcDbEntity
  8
0
 62
1
100
AcDbSpline
 70
8
 71
3
 72
8
 73
4
 74
0
 40
0
 40
0
 40
0
 40
0
 40
1
 40
1
 40
1
 40
1
 10
556.088470
 20
1070.485768
 30
0.0
 10
556.088470
 20
1070.485768
 30
0.0
 10
561.045250
 20
1078.172488
 30
0.0
 10
561.045250
 20
1078.172488
 30
0.0
  0
SPLINE
  5
1e2
100
AcDbEntity
  8
0
 62
1
100
AcDbSpline
 70
8
 71
3
 72
8
 73
4
 74
0
 40
0
 40
0
 40
0
 40
0
 40
1
 40
1
 40
1
 40
1
 10
561.045250
 20
1078.172488
 30
0.0
 10
562.311793
 20
1083.465299
 30
0.0
 10
562.194063
 20
1088.995079
 30
0.0
 10
560.703400
 20
1094.229188
 30
0.0
  0
SPLINE
  5
1e3
100
AcDbEntity
  8
0
 62
1
100
AcDbSpline
 70
8
 71
3
 72
8
 73
4
 74
0
 40
0
 40
0
 40
0
 40
0
 40
1
 40
1
 40
1
 40
1
 10
560.703400
 20
1094.229188
 30
0.0
 10
556.326108
 20
1100.545397
 30
0.0
 10
550.375410
 20
1105.609149
 30
0.0
 10
543.440160
 20
1108.919358
 30
0.0
  0
SPLINE
  5
1e4
100
AcDbEntity
  8
0
 62
1
100
AcDbSpline
 70
8
 71
3
 72
8
 73
4
 74
0
 40
0
 40
0
 40
0
 40
0
 40
1
 40
1
 40
1
 40
1
 10
543.440160
 20
1108.919358
 30
0.0
 10
538.625983
 20
1109.611423
 30
0.0
 10
533.774247
 20
1110.010726
 30
0.0
 10
528.911700
 20
1110.115068
 30
0.0
  0
LWPOLYLINE
  5
1e5
100
AcDbEntity
  8
0
 62
1
100
AcDbPolyline
 90
2
 70
0
 10
548.226020
 20
1067.069448
 30
0.0
 10
556.088470
 20
1070.485768
 30
0.0
  0
SPLINE
  5
1e6
100
AcDbEntity
  8
0
 62
1
100
AcDbSpline
 70
8
 71
3
 72
8
 73
4
 74
0
 40
0
 40
0
 40
0
 40
0
 40
1
 40
1
 40
1
 40
1
 10
508.488280
 20
1082.341348
 30
0.0
 10
508.488280
 20
1082.341348
 30
0.0
 10
510.964780
 20
1076.293508
 30
0.0
 10
510.964780
 20
1076.293508
 30
0.0
  0
SPLINE
  5
1e7
100
AcDbEntity
  8
0
 62
1
100
AcDbSpline
 70
8
 71
3
 72
8
 73
4
 74
0
 40
0
 40
0
 40
0
 40
0
 40
1
 40
1
 40
1
 40
1
 10
510.964780
 20
1076.293508
 30
0.0
 10
513.896237
 20
1072.765263
 30
0.0
 10
517.355559
 20
1069.711448
 30
0.0
 10
521.220170
 20
1067.240268
 30
0.0
  0
LWPOLYLINE
  5
1e8
100
AcDbEntity
  8
0
 62
1
100
AcDbPolyline
 90
4
 70
0
 10
528.911700
 20
1110.115068
 30
0.0
 10
517.288930
 20
1104.648958
 30
0.0
 10
513.015860
 20
1098.328768
 30
0.0
 10
508.488280
 20
1082.341348
 30
0.0
  0
SPLINE
  5
1e9
100
AcDbEntity
  8
0
 62
1
100
AcDbSpline
 70
8
 71
3
 72
8
 73
4
 74
0
 40
0
 40
0
 40
0
 40
0
 40
1
 40
1
 40
1
 40
1
 10
506.409980
 20
994.530075
 30
0.0
 10
502.035819
 20
1001.199827
 30
0.0
 10
500.235570
 20
1009.232325
 30
0.0
 10
501.344650
 20
1017.130985
 30
0.0
  0
SPLINE
  5
1ea
100
AcDbEntity
  8
0
 62
1
100
AcDbSpline
 70
8
 71
3
 72
8
 73
4
 74
0
 40
0
 40
0
 40
0
 40
0
 40
1
 40
1
 40
1
 40
1
 10
501.344650
 20
1017.130985
 30
0.0
 10
505.419864
 20
1025.133357
 30
0.0
 10
511.132817
 20
1032.189010
 30
0.0
 10
518.112450
 20
1037.839678
 30
0.0
  0
SPLINE
  5
1eb
100
AcDbEntity
  8
0
 62
1
100
AcDbSpline
 70
8
 71
3
 72
8
 73
4
 74
0
 40
0
 40
0
 40
0
 40
0
 40
1
 40
1
 40
1
 40
1
 10
518.112450
 20
1037.839678
 30
0.0
 10
521.018399
 20
1041.841163
 30
0.0
 10
524.284054
 20
1045.568630
 30
0.0
 10
527.868650
 20
1048.975548
 30
0.0
  0
LWPOLYLINE
  5
1ec
100
AcDbEntity
  8
0
 62
1
100
AcDbPolyline
 90
8
 70
0
 10
521.220170
 20
1067.240268
 30
0.0
 10
525.664170
 20
1067.752708
 30
0.0
 10
530.390130
 20
1072.211078
 30
0.0
 10
531.086360
 20
1088.214408
 30
0.0
 10
539.789280
 20
1087.866508
 30
0.0
 10
539.789280
 20
1073.254768
 30
0.0
 10
543.611090
 20
1068.777608
 30
0.0
 10
548.226020
 20
1067.069448
 30
0.0
  0
SPLINE
  5
1ed
100
AcDbEntity
  8
0
 62
1
100
AcDbSpline
 70
8
 71
3
 72
8
 73
4
 74
0
 40
0
 40
0
 40
0
 40
0
 40
1
 40
1
 40
1
 40
1
 10
545.932680
 20
1050.035168
 30
0.0
 10
547.231941
 20
1045.028591
 30
0.0
 10
549.464121
 20
1040.312089
 30
0.0
 10
552.512100
 20
1036.133128
 30
0.0
  0
SPLINE
  5
1ee
100
AcDbEntity
  8
0
 62
1
100
AcDbSpline
 70
8
 71
3
 72
8
 73
4
 74
0
 40
0
 40
0
 40
0
 40
0
 40
1
 40
1
 40
1
 40
1
 10
552.512100
 20
1036.133128
 30
0.0
 10
558.846312
 20
1032.520507
 30
0.0
 10
564.497760
 20
1027.824833
 30
0.0
 10
569.209550
 20
1022.259555
 30
0.0
  0
LWPOLYLINE
  5
1ef
100
AcDbEntity
  8
0
 62
1
100
AcDbPolyline
 90
6
 70
0
 10
527.868650
 20
1048.975548
 30
0.0
 10
531.833930
 20
1048.975548
 30
0.0
 10
531.833930
 20
1032.939408
 30
0.0
 10
539.353270
 20
1032.939408
 30
0.0
 10
539.353270
 20
1050.035168
 30
0.0
 10
545.932680
 20
1050.035168
 30
0.0
  0
LWPOLYLINE
  5
1f0
100
AcDbEntity
  8
0
 62
1
100
AcDbPolyline
 90
13
 70
0
 10
569.209550
 20
1022.259555
 30
0.0
 10
571.679860
 20
1014.591515
 30
0.0
 10
571.679860
 20
998.268275
 30
0.0
 10
552.084900
 20
978.673305
 30
0.0
 10
551.357000
 20
1000.858975
 30
0.0
 10
543.143340
 20
999.049225
 30
0.0
 10
543.143340
 20
974.442245
 30
0.0
 10
539.895490
 20
971.194395
 30
0.0
 10
530.792560
 20
973.142385
 30
0.0
 10
529.231760
 20
999.789495
 30
0.0
 10
522.468260
 20
999.789495
 30
0.0
 10
522.468260
 20
978.471805
 30
0.0
 10
506.409980
 20
994.530075
 30
0.0
  0
SPLINE
  5
1f1
100
AcDbEntity
  8
0
 62
1
100
AcDbSpline
 70
8
 71
3
 72
8
 73
4
 74
0
 40
0
 40
0
 40
0
 40
0
 40
1
 40
1
 40
1
 40
1
 10
539.535410
 20
860.686675
 30
0.0
 10
536.571786
 20
860.513445
 30
0.0
 10
533.666841
 20
861.563511
 30
0.0
 10
531.498960
 20
863.591655
 30
0.0
  0
LWPOLYLINE
  5
1f2
100
AcDbEntity
  8
0
 62
1
100
AcDbPolyline
 90
3
 70
0
 10
546.021720
 20
879.684225
 30
0.0
 10
542.962500
 20
862.263395
 30
0.0
 10
539.535410
 20
860.686675
 30
0.0
  0
SPLINE
  5
1f3
100
AcDbEntity
  8
0
 62
1
100
AcDbSpline
 70
8
 71
3
 72
8
 73
4
 74
0
 40
0
 40
0
 40
0
 40
0
 40
1
 40
1
 40
1
 40
1
 10
524.839590
 20
881.757645
 30
0.0
 10
524.839590
 20
881.757645
 30
0.0
 10
522.405240
 20
865.285755
 30
0.0
 10
522.405240
 20
865.285755
 30
0.0
  0
SPLINE
  5
1f4
100
AcDbEntity
  8
0
 62
1
100
AcDbSpline
 70
8
 71
3
 72
8
 73
4
 74
0
 40
0
 40
0
 40
0
 40
0
 40
1
 40
1
 40
1
 40
1
 10
522.405240
 20
865.285755
 30
0.0
 10
517.966943
 20
869.114828
 30
0.0
 10
512.909332
 20
872.160601
 30
0.0
 10
507.449040
 20
874.292615
 30
0.0
  0
SPLINE
  5
1f5
100
AcDbEntity
  8
0
 62
1
100
AcDbSpline
 70
8
 71
3
 72
8
 73
4
 74
0
 40
0
 40
0
 40
0
 40
0
 40
1
 40
1
 40
1
 40
1
 10
507.449040
 20
874.292615
 30
0.0
 10
499.694481
 20
878.310730
 30
0.0
 10
493.976529
 20
885.392121
 30
0.0
 10
491.682140
 20
893.819115
 30
0.0
  0
LWPOLYLINE
  5
1f6
100
AcDbEntity
  8
0
 62
1
100
AcDbPolyline
 90
3
 70
0
 10
531.498960
 20
863.591655
 30
0.0
 10
531.498960
 20
880.429355
 30
0.0
 10
524.839590
 20
881.757645
 30
0.0
  0
SPLINE
  5
1f7
100
AcDbEntity
  8
0
 62
1
100
AcDbSpline
 70
8
 71
3
 72
8
 73
4
 74
0
 40
0
 40
0
 40
0
 40
0
 40
1
 40
1
 40
1
 40
1
 10
494.590540
 20
914.536405
 30
0.0
 10
494.590540
 20
914.536405
 30
0.0
 10
504.053690
 20
923.999555
 30
0.0
 10
504.053690
 20
923.999555
 30
0.0
  0
SPLINE
  5
1f8
100
AcDbEntity
  8
0
 62
1
100
AcDbSpline
 70
8
 71
3
 72
8
 73
4
 74
0
 40
0
 40
0
 40
0
 40
0
 40
1
 40
1
 40
1
 40
1
 10
504.053690
 20
923.999555
 30
0.0
 10
507.558036
 20
926.989407
 30
0.0
 10
510.077419
 20
930.968168
 30
0.0
 10
511.281690
 20
935.414445
 30
0.0
  0
SPLINE
  5
1f9
100
AcDbEntity
  8
0
 62
1
100
AcDbSpline
 70
8
 71
3
 72
8
 73
4
 74
0
 40
0
 40
0
 40
0
 40
0
 40
1
 40
1
 40
1
 40
1
 10
511.281690
 20
935.414445
 30
0.0
 10
509.442851
 20
938.306224
 30
0.0
 10
508.327478
 20
941.598318
 30
0.0
 10
508.029910
 20
945.012285
 30
0.0
  0
SPLINE
  5
1fa
100
AcDbEntity
  8
0
 62
1
100
AcDbSpline
 70
8
 71
3
 72
8
 73
4
 74
0
 40
0
 40
0
 40
0
 40
0
 40
1
 40
1
 40
1
 40
1
 10
508.029910
 20
945.012285
 30
0.0
 10
508.029910
 20
945.012285
 30
0.0
 10
512.384800
 20
951.182815
 30
0.0
 10
512.384800
 20
951.182815
 30
0.0
  0
SPLINE
  5
1fb
100
AcDbEntity
  8
0
 62
1
100
AcDbSpline
 70
8
 71
3
 72
8
 73
4
 74
0
 40
0
 40
0
 40
0
 40
0
 40
1
 40
1
 40
1
 40
1
 10
512.384800
 20
951.182815
 30
0.0
 10
518.362988
 20
954.510679
 30
0.0
 10
524.627096
 20
957.296672
 30
0.0
 10
531.102120
 20
959.507435
 30
0.0
  0
SPLINE
  5
1fc
100
AcDbEntity
  8
0
 62
1
100
AcDbSpline
 70
8
 71
3
 72
8
 73
4
 74
0
 40
0
 40
0
 40
0
 40
0
 40
1
 40
1
 40
1
 40
1
 10
531.102120
 20
959.507435
 30
0.0
 10
530.906422
 20
954.005538
 30
0.0
 10
531.164869
 20
948.496872
 30
0.0
 10
531.874830
 20
943.037465
 30
0.0
  0
LWPOLYLINE
  5
1fd
100
AcDbEntity
  8
0
 62
1
100
AcDbPolyline
 90
3
 70
0
 10
491.682140
 20
893.819115
 30
0.0
 10
491.682140
 20
906.454435
 30
0.0
 10
494.590540
 20
914.536405
 30
0.0
  0
SPLINE
  5
1fe
100
AcDbEntity
  8
0
 62
1
100
AcDbSpline
 70
8
 71
3
 72
8
 73
4
 74
0
 40
0
 40
0
 40
0
 40
0
 40
1
 40
1
 40
1
 40
1
 10
561.542050
 20
952.058075
 30
0.0
 10
561.542050
 20
952.058075
 30
0.0
 10
567.413780
 20
946.186345
 30
0.0
 10
567.413780
 20
946.186345
 30
0.0
  0
SPLINE
  5
1ff
100
AcDbEntity
  8
0
 62
1
100
AcDbSpline
 70
8
 71
3
 72
8
 73
4
 74
0
 40
0
 40
0
 40
0
 40
0
 40
1
 40
1
 40
1
 40
1
 10
567.413780
 20
946.186345
 30
0.0
 10
565.438966
 20
942.141288
 30
0.0
 10
563.807822
 20
937.937321
 30
0.0
 10
562.537590
 20
933.618885
 30
0.0
  0
SPLINE
  5
200
100
AcDbEntity
  8
0
 62
1
100
AcDbSpline
 70
8
 71
3
 72
8
 73
4
 74
0
 40
0
 40
0
 40
0
 40
0
 40
1
 40
1
 40
1
 40
1
 10
562.537590
 20
933.618885
 30
0.0
 10
568.036700
 20
926.022787
 30
0.0
 10
574.364238
 20
919.062390
 30
0.0
 10
581.403330
 20
912.866255
 30
0.0
  0
SPLINE
  5
201
100
AcDbEntity
  8
0
 62
1
100
AcDbSpline
 70
8
 71
3
 72
8
 73
4
 74
0
 40
0
 40
0
 40
0
 40
0
 40
1
 40
1
 40
1
 40
1
 10
581.403330
 20
912.866255
 30
0.0
 10
584.311927
 20
904.217216
 30
0.0
 10
584.314736
 20
894.854658
 30
0.0
 10
581.411330
 20
886.203875
 30
0.0
  0
LWPOLYLINE
  5
202
100
AcDbEntity
  8
0
 62
1
100
AcDbPolyline
 90
8
 70
0
 10
531.874830
 20
943.037465
 30
0.0
 10
534.795090
 20
937.863885
 30
0.0
 10
538.379050
 20
937.134275
 30
0.0
 10
541.596960
 20
940.352175
 30
0.0
 10
541.596960
 20
954.910175
 30
0.0
 10
542.958550
 20
960.349075
 30
0.0
 10
551.852080
 20
957.894935
 30
0.0
 10
561.542050
 20
952.058075
 30
0.0
  0
SPLINE
  5
203
100
AcDbEntity
  8
0
 62
1
100
AcDbSpline
 70
8
 71
3
 72
8
 73
4
 74
0
 40
0
 40
0
 40
0
 40
0
 40
1
 40
1
 40
1
 40
1
 10
576.743970
 20
880.738055
 30
0.0
 10
569.781427
 20
875.111314
 30
0.0
 10
562.406043
 20
870.015543
 30
0.0
 10
554.680070
 20
865.493755
 30
0.0
  0
SPLINE
  5
204
100
AcDbEntity
  8
0
 62
1
100
AcDbSpline
 70
8
 71
3
 72
8
 73
4
 74
0
 40
0
 40
0
 40
0
 40
0
 40
1
 40
1
 40
1
 40
1
 10
554.680070
 20
865.493755
 30
0.0
 10
554.562645
 20
871.090267
 30
0.0
 10
553.509103
 20
876.627633
 30
0.0
 10
551.563130
 20
881.876245
 30
0.0
  0
LWPOLYLINE
  5
205
100
AcDbEntity
  8
0
 62
1
100
AcDbPolyline
 90
2
 70
0
 10
581.411330
 20
886.203875
 30
0.0
 10
576.743970
 20
880.738055
 30
0.0
  0
LWPOLYLINE
  5
206
100
AcDbEntity
  8
0
 62
1
100
AcDbPolyline
 90
3
 70
0
 10
551.563130
 20
881.876245
 30
0.0
 10
546.021910
 20
879.684225
 30
0.0
 10
546.021720
 20
879.684225
 30
0.0
  0
SPLINE
  5
207
100
AcDbEntity
  8
0
 62
1
100
AcDbSpline
 70
8
 71
3
 72
8
 73
4
 74
0
 40
0
 40
0
 40
0
 40
0
 40
1
 40
1
 40
1
 40
1
 10
448.028450
 20
962.517915
 30
0.0
 10
448.028450
 20
962.517915
 30
0.0
 10
448.028450
 20
969.793975
 30
0.0
 10
448.028450
 20
969.793975
 30
0.0
  0
SPLINE
  5
208
100
AcDbEntity
  8
0
 62
1
100
AcDbSpline
 70
8
 71
3
 72
8
 73
4
 74
0
 40
0
 40
0
 40
0
 40
0
 40
1
 40
1
 40
1
 40
1
 10
448.028450
 20
969.793975
 30
0.0
 10
444.648973
 20
970.388677
 30
0.0
 10
441.169121
 20
969.704461
 30
0.0
 10
438.266380
 20
967.874535
 30
0.0
  0
LWPOLYLINE
  5
209
100
AcDbEntity
  8
0
 62
1
100
AcDbPolyline
 90
5
 70
0
 10
460.219220
 20
955.127605
 30
0.0
 10
458.205760
 20
962.556835
 30
0.0
 10
456.033970
 20
964.728635
 30
0.0
 10
452.090570
 20
958.455795
 30
0.0
 10
448.028450
 20
962.517915
 30
0.0
  0
SPLINE
  5
20a
100
AcDbEntity
  8
0
 62
1
100
AcDbSpline
 70
8
 71
3
 72
8
 73
4
 74
0
 40
0
 40
0
 40
0
 40
0
 40
1
 40
1
 40
1
 40
1
 10
412.159190
 20
969.345525
 30
0.0
 10
405.760257
 20
968.840440
 30
0.0
 10
399.324672
 20
969.063209
 30
0.0
 10
392.975980
 20
970.009555
 30
0.0
  0
LWPOLYLINE
  5
20b
100
AcDbEntity
  8
0
 62
1
100
AcDbPolyline
 90
4
 70
0
 10
438.266380
 20
967.874535
 30
0.0
 10
430.132090
 20
971.513315
 30
0.0
 10
415.877720
 20
971.513315
 30
0.0
 10
412.159190
 20
969.345525
 30
0.0
  0
SPLINE
  5
20c
100
AcDbEntity
  8
0
 62
1
100
AcDbSpline
 70
8
 71
3
 72
8
 73
4
 74
0
 40
0
 40
0
 40
0
 40
0
 40
1
 40
1
 40
1
 40
1
 10
386.257150
 20
958.596235
 30
0.0
 10
386.257150
 20
958.596235
 30
0.0
 10
382.619030
 20
965.366425
 30
0.0
 10
382.619030
 20
965.366425
 30
0.0
  0
SPLINE
  5
20d
100
AcDbEntity
  8
0
 62
1
100
AcDbSpline
 70
8
 71
3
 72
8
 73
4
 74
0
 40
0
 40
0
 40
0
 40
0
 40
1
 40
1
 40
1
 40
1
 10
382.619030
 20
965.366425
 30
0.0
 10
379.648848
 20
948.176060
 30
0.0
 10
375.499107
 20
931.210489
 30
0.0
 10
370.199220
 20
914.589965
 30
0.0
  0
SPLINE
  5
20e
100
AcDbEntity
  8
0
 62
1
100
AcDbSpline
 70
8
 71
3
 72
8
 73
4
 74
0
 40
0
 40
0
 40
0
 40
0
 40
1
 40
1
 40
1
 40
1
 10
370.199220
 20
914.589965
 30
0.0
 10
367.733681
 20
909.056586
 30
0.0
 10
365.698934
 20
903.341150
 30
0.0
 10
364.113110
 20
897.494585
 30
0.0
  0
LWPOLYLINE
  5
20f
100
AcDbEntity
  8
0
 62
1
100
AcDbPolyline
 90
3
 70
0
 10
392.975980
 20
970.009555
 30
0.0
 10
390.647990
 20
958.596235
 30
0.0
 10
386.257150
 20
958.596235
 30
0.0
  0
SPLINE
  5
210
100
AcDbEntity
  8
0
 62
1
100
AcDbSpline
 70
8
 71
3
 72
8
 73
4
 74
0
 40
0
 40
0
 40
0
 40
0
 40
1
 40
1
 40
1
 40
1
 10
365.788530
 20
886.660405
 30
0.0
 10
367.642723
 20
881.002660
 30
0.0
 10
370.622114
 20
875.778401
 30
0.0
 10
374.547500
 20
871.301855
 30
0.0
  0
SPLINE
  5
211
100
AcDbEntity
  8
0
 62
1
100
AcDbSpline
 70
8
 71
3
 72
8
 73
4
 74
0
 40
0
 40
0
 40
0
 40
0
 40
1
 40
1
 40
1
 40
1
 10
374.547500
 20
871.301855
 30
0.0
 10
378.979430
 20
863.560814
 30
0.0
 10
381.920708
 20
855.057453
 30
0.0
 10
383.218900
 20
846.232465
 30
0.0
  0
LWPOLYLINE
  5
212
100
AcDbEntity
  8
0
 62
1
100
AcDbPolyline
 90
2
 70
0
 10
364.113110
 20
897.494585
 30
0.0
 10
365.788530
 20
886.660405
 30
0.0
  0
SPLINE
  5
213
100
AcDbEntity
  8
0
 62
1
100
AcDbSpline
 70
8
 71
3
 72
8
 73
4
 74
0
 40
0
 40
0
 40
0
 40
0
 40
1
 40
1
 40
1
 40
1
 10
457.403590
 20
846.267115
 30
0.0
 10
460.329227
 20
852.091130
 30
0.0
 10
462.282005
 20
858.354689
 30
0.0
 10
463.184500
 20
864.809455
 30
0.0
  0
LWPOLYLINE
  5
214
100
AcDbEntity
  8
0
 62
1
100
AcDbPolyline
 90
15
 70
0
 10
383.218900
 20
846.232465
 30
0.0
 10
389.954710
 20
842.673235
 30
0.0
 10
403.581190
 20
843.524355
 30
0.0
 10
405.939180
 20
848.882925
 30
0.0
 10
404.680620
 20
927.630155
 30
0.0
 10
415.238620
 20
927.630155
 30
0.0
 10
415.238620
 20
846.497345
 30
0.0
 10
417.590480
 20
842.935565
 30
0.0
 10
423.479350
 20
842.935565
 30
0.0
 10
426.534660
 20
845.990875
 30
0.0
 10
425.069670
 20
927.527485
 30
0.0
 10
435.686650
 20
927.527485
 30
0.0
 10
435.686650
 20
842.791855
 30
0.0
 10
453.928330
 20
842.791855
 30
0.0
 10
457.403590
 20
846.267115
 30
0.0
  0
SPLINE
  5
215
100
AcDbEntity
  8
0
 62
1
100
AcDbSpline
 70
8
 71
3
 72
8
 73
4
 74
0
 40
0
 40
0
 40
0
 40
0
 40
1
 40
1
 40
1
 40
1
 10
474.861440
 20
901.263975
 30
0.0
 10
470.955355
 20
912.448994
 30
0.0
 10
467.519932
 20
923.792862
 30
0.0
 10
464.564220
 20
935.265695
 30
0.0
  0
SPLINE
  5
216
100
AcDbEntity
  8
0
 62
1
100
AcDbSpline
 70
8
 71
3
 72
8
 73
4
 74
0
 40
0
 40
0
 40
0
 40
0
 40
1
 40
1
 40
1
 40
1
 10
464.564220
 20
935.265695
 30
0.0
 10
463.446573
 20
940.744543
 30
0.0
 10
461.288755
 20
945.958272
 30
0.0
 10
458.207640
 20
950.624495
 30
0.0
  0
LWPOLYLINE
  5
217
100
AcDbEntity
  8
0
 62
1
100
AcDbPolyline
 90
4
 70
0
 10
463.184500
 20
864.809455
 30
0.0
 10
468.897370
 20
874.861015
 30
0.0
 10
474.861440
 20
890.569095
 30
0.0
 10
474.861440
 20
901.263975
 30
0.0
  0
LWPOLYLINE
  5
218
100
AcDbEntity
  8
0
 62
1
100
AcDbPolyline
 90
2
 70
0
 10
458.207640
 20
950.624495
 30
0.0
 10
460.219220
 20
955.127605
 30
0.0
  0
SPLINE
  5
219
100
AcDbEntity
  8
0
 62
1
100
AcDbSpline
 70
8
 71
3
 72
8
 73
4
 74
0
 40
0
 40
0
 40
0
 40
0
 40
1
 40
1
 40
1
 40
1
 10
399.794900
 20
777.694185
 30
0.0
 10
404.692956
 20
786.328884
 30
0.0
 10
406.859901
 20
796.244995
 30
0.0
 10
406.010170
 20
806.135745
 30
0.0
  0
LWPOLYLINE
  5
21a
100
AcDbEntity
  8
0
 62
1
100
AcDbPolyline
 90
8
 70
0
 10
441.993320
 20
768.649555
 30
0.0
 10
441.993320
 20
758.624175
 30
0.0
 10
439.267330
 20
751.758975
 30
0.0
 10
430.764850
 20
743.256495
 30
0.0
 10
412.661610
 20
743.256495
 30
0.0
 10
405.901140
 20
747.727035
 30
0.0
 10
399.794900
 20
755.681945
 30
0.0
 10
399.794900
 20
777.694185
 30
0.0
  0
SPLINE
  5
21b
100
AcDbEntity
  8
0
 62
1
100
AcDbSpline
 70
8
 71
3
 72
8
 73
4
 74
0
 40
0
 40
0
 40
0
 40
0
 40
1
 40
1
 40
1
 40
1
 10
436.105170
 20
792.078425
 30
0.0
 10
438.596390
 20
784.411213
 30
0.0
 10
440.563640
 20
776.583553
 30
0.0
 10
441.993320
 20
768.649555
 30
0.0
  0
LWPOLYLINE
  5
21c
100
AcDbEntity
  8
0
 62
1
100
AcDbPolyline
 90
7
 70
0
 10
406.010170
 20
806.135745
 30
0.0
 10
412.334490
 20
806.135745
 30
0.0
 10
414.733360
 20
798.943625
 30
0.0
 10
424.908140
 20
798.943625
 30
0.0
 10
428.036220
 20
808.206205
 30
0.0
 10
436.105170
 20
804.174265
 30
0.0
 10
436.105170
 20
792.078425
 30
0.0
  0
LWPOLYLINE
  5
21d
100
AcDbEntity
  8
0
 62
1
100
AcDbPolyline
 90
1
 70
1
 10
441.993320
 20
768.649555
 30
0.0
  0
SPLINE
  5
21e
100
AcDbEntity
  8
0
 62
1
100
AcDbSpline
 70
8
 71
3
 72
8
 73
4
 74
0
 40
0
 40
0
 40
0
 40
0
 40
1
 40
1
 40
1
 40
1
 10
416.034670
 20
718.289285
 30
0.0
 10
416.034670
 20
718.289285
 30
0.0
 10
419.256160
 20
715.067805
 30
0.0
 10
419.256160
 20
715.067805
 30
0.0
  0
SPLINE
  5
21f
100
AcDbEntity
  8
0
 62
1
100
AcDbSpline
 70
8
 71
3
 72
8
 73
4
 74
0
 40
0
 40
0
 40
0
 40
0
 40
1
 40
1
 40
1
 40
1
 10
419.256160
 20
715.067805
 30
0.0
 10
421.713434
 20
714.539764
 30
0.0
 10
424.267511
 20
715.340636
 30
0.0
 10
425.983320
 20
717.177215
 30
0.0
  0
LWPOLYLINE
  5
220
100
AcDbEntity
  8
0
 62
1
100
AcDbPolyline
 90
3
 70
0
 10
407.694520
 20
729.351985
 30
0.0
 10
416.034670
 20
729.351985
 30
0.0
 10
416.034670
 20
718.289285
 30
0.0
  0
SPLINE
  5
221
100
AcDbEntity
  8
0
 62
1
100
AcDbSpline
 70
8
 71
3
 72
8
 73
4
 74
0
 40
0
 40
0
 40
0
 40
0
 40
1
 40
1
 40
1
 40
1
 10
437.672560
 20
716.953985
 30
0.0
 10
437.672560
 20
716.953985
 30
0.0
 10
443.033230
 20
716.953985
 30
0.0
 10
443.033230
 20
716.953985
 30
0.0
  0
SPLINE
  5
222
100
AcDbEntity
  8
0
 62
1
100
AcDbSpline
 70
8
 71
3
 72
8
 73
4
 74
0
 40
0
 40
0
 40
0
 40
0
 40
1
 40
1
 40
1
 40
1
 10
443.033230
 20
716.953985
 30
0.0
 10
450.606088
 20
722.674417
 30
0.0
 10
458.383597
 20
728.118763
 30
0.0
 10
466.350470
 20
733.276325
 30
0.0
  0
SPLINE
  5
223
100
AcDbEntity
  8
0
 62
1
100
AcDbSpline
 70
8
 71
3
 72
8
 73
4
 74
0
 40
0
 40
0
 40
0
 40
0
 40
1
 40
1
 40
1
 40
1
 10
466.350470
 20
733.276325
 30
0.0
 10
470.081506
 20
736.430158
 30
0.0
 10
472.646299
 20
740.744783
 30
0.0
 10
473.634140
 20
745.529285
 30
0.0
  0
LWPOLYLINE
  5
224
100
AcDbEntity
  8
0
 62
1
100
AcDbPolyline
 90
5
 70
0
 10
425.983320
 20
717.177215
 30
0.0
 10
427.100130
 20
728.784705
 30
0.0
 10
433.279790
 20
728.784705
 30
0.0
 10
435.662310
 20
720.227905
 30
0.0
 10
437.672560
 20
716.953985
 30
0.0
  0
SPLINE
  5
225
100
AcDbEntity
  8
0
 62
1
100
AcDbSpline
 70
8
 71
3
 72
8
 73
4
 74
0
 40
0
 40
0
 40
0
 40
0
 40
1
 40
1
 40
1
 40
1
 10
472.323960
 20
762.550925
 30
0.0
 10
472.323960
 20
762.550925
 30
0.0
 10
469.984360
 20
769.378275
 30
0.0
 10
469.984360
 20
769.378275
 30
0.0
  0
SPLINE
  5
226
100
AcDbEntity
  8
0
 62
1
100
AcDbSpline
 70
8
 71
3
 72
8
 73
4
 74
0
 40
0
 40
0
 40
0
 40
0
 40
1
 40
1
 40
1
 40
1
 10
469.984360
 20
769.378275
 30
0.0
 10
467.214751
 20
774.535386
 30
0.0
 10
463.525472
 20
779.142588
 30
0.0
 10
459.098540
 20
782.972575
 30
0.0
  0
SPLINE
  5
227
100
AcDbEntity
  8
0
 62
1
100
AcDbSpline
 70
8
 71
3
 72
8
 73
4
 74
0
 40
0
 40
0
 40
0
 40
0
 40
1
 40
1
 40
1
 40
1
 10
459.098540
 20
782.972575
 30
0.0
 10
458.769250
 20
790.662093
 30
0.0
 10
457.582359
 20
798.290799
 30
0.0
 10
455.559930
 20
805.716895
 30
0.0
  0
LWPOLYLINE
  5
228
100
AcDbEntity
  8
0
 62
1
100
AcDbPolyline
 90
2
 70
0
 10
473.634140
 20
745.529285
 30
0.0
 10
472.323960
 20
762.550925
 30
0.0
  0
SPLINE
  5
229
100
AcDbEntity
  8
0
 62
1
100
AcDbSpline
 70
8
 71
3
 72
8
 73
4
 74
0
 40
0
 40
0
 40
0
 40
0
 40
1
 40
1
 40
1
 40
1
 10
442.807560
 20
817.059435
 30
0.0
 10
442.807560
 20
817.059435
 30
0.0
 10
438.384880
 20
821.482115
 30
0.0
 10
438.384880
 20
821.482115
 30
0.0
  0
SPLINE
  5
22a
100
AcDbEntity
  8
0
 62
1
100
AcDbSpline
 70
8
 71
3
 72
8
 73
4
 74
0
 40
0
 40
0
 40
0
 40
0
 40
1
 40
1
 40
1
 40
1
 10
438.384880
 20
821.482115
 30
0.0
 10
434.623648
 20
823.707181
 30
0.0
 10
430.201350
 20
824.543138
 30
0.0
 10
425.887450
 20
823.844535
 30
0.0
  0
SPLINE
  5
22b
100
AcDbEntity
  8
0
 62
1
100
AcDbSpline
 70
8
 71
3
 72
8
 73
4
 74
0
 40
0
 40
0
 40
0
 40
0
 40
1
 40
1
 40
1
 40
1
 10
425.887450
 20
823.844535
 30
0.0
 10
425.404637
 20
819.934423
 30
0.0
 10
424.686498
 20
816.056981
 30
0.0
 10
423.736940
 20
812.233315
 30
0.0
  0
LWPOLYLINE
  5
22c
100
AcDbEntity
  8
0
 62
1
100
AcDbPolyline
 90
6
 70
0
 10
455.559930
 20
805.716895
 30
0.0
 10
451.535810
 20
811.141375
 30
0.0
 10
447.511700
 20
805.436315
 30
0.0
 10
444.236260
 20
804.314015
 30
0.0
 10
441.236610
 20
810.964285
 30
0.0
 10
442.807560
 20
817.059435
 30
0.0
  0
SPLINE
  5
22d
100
AcDbEntity
  8
0
 62
1
100
AcDbSpline
 70
8
 71
3
 72
8
 73
4
 74
0
 40
0
 40
0
 40
0
 40
0
 40
1
 40
1
 40
1
 40
1
 10
415.278260
 20
824.411905
 30
0.0
 10
410.847608
 20
825.064816
 30
0.0
 10
406.322638
 20
824.443644
 30
0.0
 10
402.231830
 20
822.620935
 30
0.0
  0
LWPOLYLINE
  5
22e
100
AcDbEntity
  8
0
 62
1
100
AcDbPolyline
 90
3
 70
0
 10
423.736940
 20
812.233315
 30
0.0
 10
415.278260
 20
812.233315
 30
0.0
 10
415.278260
 20
824.411905
 30
0.0
  0
SPLINE
  5
22f
100
AcDbEntity
  8
0
 62
1
100
AcDbSpline
 70
8
 71
3
 72
8
 73
4
 74
0
 40
0
 40
0
 40
0
 40
0
 40
1
 40
1
 40
1
 40
1
 10
399.519100
 20
816.765375
 30
0.0
 10
400.275432
 20
813.163199
 30
0.0
 10
399.766261
 20
809.410393
 30
0.0
 10
398.077470
 20
806.139965
 30
0.0
  0
LWPOLYLINE
  5
230
100
AcDbEntity
  8
0
 62
1
100
AcDbPolyline
 90
2
 70
0
 10
402.231830
 20
822.620935
 30
0.0
 10
399.519100
 20
816.765375
 30
0.0
  0
SPLINE
  5
231
100
AcDbEntity
  8
0
 62
1
100
AcDbSpline
 70
8
 71
3
 72
8
 73
4
 74
0
 40
0
 40
0
 40
0
 40
0
 40
1
 40
1
 40
1
 40
1
 10
383.030380
 20
803.168455
 30
0.0
 10
381.526939
 20
796.557215
 30
0.0
 10
381.070876
 20
789.750912
 30
0.0
 10
381.678850
 20
782.998195
 30
0.0
  0
SPLINE
  5
232
100
AcDbEntity
  8
0
 62
1
100
AcDbSpline
 70
8
 71
3
 72
8
 73
4
 74
0
 40
0
 40
0
 40
0
 40
0
 40
1
 40
1
 40
1
 40
1
 10
381.678850
 20
782.998195
 30
0.0
 10
381.678850
 20
782.998195
 30
0.0
 10
377.595600
 20
778.914945
 30
0.0
 10
377.595600
 20
778.914945
 30
0.0
  0
SPLINE
  5
233
100
AcDbEntity
  8
0
 62
1
100
AcDbSpline
 70
8
 71
3
 72
8
 73
4
 74
0
 40
0
 40
0
 40
0
 40
0
 40
1
 40
1
 40
1
 40
1
 10
377.595600
 20
778.914945
 30
0.0
 10
373.457368
 20
772.882587
 30
0.0
 10
370.222194
 20
766.278269
 30
0.0
 10
367.992470
 20
759.311015
 30
0.0
  0
LWPOLYLINE
  5
234
100
AcDbEntity
  8
0
 62
1
100
AcDbPolyline
 90
5
 70
0
 10
398.077470
 20
806.139965
 30
0.0
 10
394.743680
 20
806.139965
 30
0.0
 10
389.879730
 20
811.003915
 30
0.0
 10
387.445390
 20
809.921895
 30
0.0
 10
383.030380
 20
803.168455
 30
0.0
  0
LWPOLYLINE
  5
235
100
AcDbEntity
  8
0
 62
1
100
AcDbPolyline
 90
7
 70
0
 10
367.992470
 20
759.311015
 30
0.0
 10
367.992470
 20
744.656045
 30
0.0
 10
371.289550
 20
737.950245
 30
0.0
 10
377.843620
 20
731.396175
 30
0.0
 10
401.207540
 20
717.586775
 30
0.0
 10
406.026500
 20
719.350095
 30
0.0
 10
407.694520
 20
729.351985
 30
0.0
  0
SPLINE
  5
236
100
AcDbEntity
  8
0
 62
1
100
AcDbSpline
 70
8
 71
3
 72
8
 73
4
 74
0
 40
0
 40
0
 40
0
 40
0
 40
1
 40
1
 40
1
 40
1
 10
669.200620
 20
1050.549015
 30
0.0
 10
673.915635
 20
1045.440844
 30
0.0
 10
679.145599
 20
1040.833282
 30
0.0
 10
684.807280
 20
1036.799655
 30
0.0
  0
LWPOLYLINE
  5
237
100
AcDbEntity
  8
0
 62
1
100
AcDbPolyline
 90
11
 70
0
 10
714.298830
 20
1111.018315
 30
0.0
 10
705.003160
 20
1113.531685
 30
0.0
 10
702.864980
 20
1101.779095
 30
0.0
 10
696.717730
 20
1101.779095
 30
0.0
 10
692.330480
 20
1113.101445
 30
0.0
 10
681.000050
 20
1109.264615
 30
0.0
 10
670.418730
 20
1100.842295
 30
0.0
 10
664.144860
 20
1086.524365
 30
0.0
 10
662.177620
 20
1071.698365
 30
0.0
 10
664.050420
 20
1059.813555
 30
0.0
 10
669.200620
 20
1050.549015
 30
0.0
  0
SPLINE
  5
238
100
AcDbEntity
  8
0
 62
1
100
AcDbSpline
 70
8
 71
3
 72
8
 73
4
 74
0
 40
0
 40
0
 40
0
 40
0
 40
1
 40
1
 40
1
 40
1
 10
718.598690
 20
1038.504555
 30
0.0
 10
723.322823
 20
1043.818738
 30
0.0
 10
727.883107
 20
1049.276346
 30
0.0
 10
732.273130
 20
1054.869705
 30
0.0
  0
LWPOLYLINE
  5
239
100
AcDbEntity
  8
0
 62
1
100
AcDbPolyline
 90
10
 70
0
 10
684.807280
 20
1036.799655
 30
0.0
 10
684.807280
 20
1061.389625
 30
0.0
 10
694.518200
 20
1061.389625
 30
0.0
 10
693.665210
 20
1038.373415
 30
0.0
 10
698.258220
 20
1032.734115
 30
0.0
 10
705.869490
 20
1036.209495
 30
0.0
 10
705.869490
 20
1060.996185
 30
0.0
 10
714.989890
 20
1060.996185
 30
0.0
 10
714.989890
 20
1037.717685
 30
0.0
 10
718.598690
 20
1038.504555
 30
0.0
  0
SPLINE
  5
23a
100
AcDbEntity
  8
0
 62
1
100
AcDbSpline
 70
8
 71
3
 72
8
 73
4
 74
0
 40
0
 40
0
 40
0
 40
0
 40
1
 40
1
 40
1
 40
1
 10
728.815970
 20
1098.061455
 30
0.0
 10
724.504730
 20
1102.937701
 30
0.0
 10
719.631830
 20
1107.286870
 30
0.0
 10
714.298830
 20
1111.018315
 30
0.0
  0
LWPOLYLINE
  5
23b
100
AcDbEntity
  8
0
 62
1
100
AcDbPolyline
 90
5
 70
0
 10
732.273130
 20
1054.869705
 30
0.0
 10
735.905060
 20
1064.079975
 30
0.0
 10
736.770090
 20
1078.259415
 30
0.0
 10
735.298460
 20
1087.385735
 30
0.0
 10
728.815970
 20
1098.061455
 30
0.0
  0
SPLINE
  5
23c
100
AcDbEntity
  8
0
 62
1
100
AcDbSpline
 70
8
 71
3
 72
8
 73
4
 74
0
 40
0
 40
0
 40
0
 40
0
 40
1
 40
1
 40
1
 40
1
 10
683.455640
 20
833.862835
 30
0.0
 10
683.455640
 20
833.862835
 30
0.0
 10
686.814320
 20
841.197565
 30
0.0
 10
686.814320
 20
841.197565
 30
0.0
  0
SPLINE
  5
23d
100
AcDbEntity
  8
0
 62
1
100
AcDbSpline
 70
8
 71
3
 72
8
 73
4
 74
0
 40
0
 40
0
 40
0
 40
0
 40
1
 40
1
 40
1
 40
1
 10
686.814320
 20
841.197565
 30
0.0
 10
689.189252
 20
844.229700
 30
0.0
 10
692.450463
 20
846.445932
 30
0.0
 10
696.143980
 20
847.537755
 30
0.0
  0
SPLINE
  5
23e
100
AcDbEntity
  8
0
 62
1
100
AcDbSpline
 70
8
 71
3
 72
8
 73
4
 74
0
 40
0
 40
0
 40
0
 40
0
 40
1
 40
1
 40
1
 40
1
 10
696.143980
 20
847.537755
 30
0.0
 10
700.511557
 20
848.282652
 30
0.0
 10
704.977143
 20
848.240553
 30
0.0
 10
709.329900
 20
847.413445
 30
0.0
  0
LWPOLYLINE
  5
23f
100
AcDbEntity
  8
0
 62
1
100
AcDbPolyline
 90
1
 70
1
 10
714.298830
 20
1111.018315
 30
0.0
  0
SPLINE
  5
240
100
AcDbEntity
  8
0
 62
1
100
AcDbSpline
 70
8
 71
3
 72
8
 73
4
 74
0
 40
0
 40
0
 40
0
 40
0
 40
1
 40
1
 40
1
 40
1
 10
720.027920
 20
815.463835
 30
0.0
 10
718.371940
 20
811.322541
 30
0.0
 10
715.089373
 20
808.042034
 30
0.0
 10
710.947040
 20
806.388655
 30
0.0
  0
LWPOLYLINE
  5
241
100
AcDbEntity
  8
0
 62
1
100
AcDbPolyline
 90
5
 70
0
 10
709.329900
 20
847.413445
 30
0.0
 10
715.425280
 20
843.186645
 30
0.0
 10
719.654730
 20
835.851915
 30
0.0
 10
721.023080
 20
827.274005
 30
0.0
 10
720.027920
 20
815.463835
 30
0.0
  0
SPLINE
  5
242
100
AcDbEntity
  8
0
 62
1
100
AcDbSpline
 70
8
 71
3
 72
8
 73
4
 74
0
 40
0
 40
0
 40
0
 40
0
 40
1
 40
1
 40
1
 40
1
 10
702.985730
 20
804.399575
 30
0.0
 10
702.985730
 20
804.399575
 30
0.0
 10
697.139140
 20
805.145485
 30
0.0
 10
697.139140
 20
805.145485
 30
0.0
  0
SPLINE
  5
243
100
AcDbEntity
  8
0
 62
1
100
AcDbSpline
 70
8
 71
3
 72
8
 73
4
 74
0
 40
0
 40
0
 40
0
 40
0
 40
1
 40
1
 40
1
 40
1
 10
697.139140
 20
805.145485
 30
0.0
 10
692.379902
 20
807.101431
 30
0.0
 10
688.249087
 20
810.326606
 30
0.0
 10
685.197170
 20
814.469295
 30
0.0
  0
LWPOLYLINE
  5
244
100
AcDbEntity
  8
0
 62
1
100
AcDbPolyline
 90
2
 70
0
 10
710.947040
 20
806.388655
 30
0.0
 10
702.985730
 20
804.399575
 30
0.0
  0
LWPOLYLINE
  5
245
100
AcDbEntity
  8
0
 62
1
100
AcDbPolyline
 90
3
 70
0
 10
685.197170
 20
814.469295
 30
0.0
 10
683.082450
 20
826.155145
 30
0.0
 10
683.455640
 20
833.862835
 30
0.0
  0
SPLINE
  5
246
100
AcDbEntity
  8
0
 62
1
100
AcDbSpline
 70
8
 71
3
 72
8
 73
4
 74
0
 40
0
 40
0
 40
0
 40
0
 40
1
 40
1
 40
1
 40
1
 10
717.557290
 20
766.136595
 30
0.0
 10
717.557290
 20
766.136595
 30
0.0
 10
721.129530
 20
765.499095
 30
0.0
 10
721.129530
 20
765.499095
 30
0.0
  0
SPLINE
  5
247
100
AcDbEntity
  8
0
 62
1
100
AcDbSpline
 70
8
 71
3
 72
8
 73
4
 74
0
 40
0
 40
0
 40
0
 40
0
 40
1
 40
1
 40
1
 40
1
 10
721.129530
 20
765.499095
 30
0.0
 10
725.681527
 20
770.110200
 30
0.0
 10
729.982893
 20
774.962167
 30
0.0
 10
734.015090
 20
780.034085
 30
0.0
  0
LWPOLYLINE
  5
248
100
AcDbEntity
  8
0
 62
1
100
AcDbPolyline
 90
2
 70
0
 10
717.812450
 20
789.851575
 30
0.0
 10
717.557290
 20
766.136595
 30
0.0
  0
SPLINE
  5
249
100
AcDbEntity
  8
0
 62
1
100
AcDbSpline
 70
8
 71
3
 72
8
 73
4
 74
0
 40
0
 40
0
 40
0
 40
0
 40
1
 40
1
 40
1
 40
1
 10
736.843920
 20
787.220955
 30
0.0
 10
736.843920
 20
787.220955
 30
0.0
 10
736.588770
 20
797.930945
 30
0.0
 10
736.588770
 20
797.930945
 30
0.0
  0
SPLINE
  5
24a
100
AcDbEntity
  8
0
 62
1
100
AcDbSpline
 70
8
 71
3
 72
8
 73
4
 74
0
 40
0
 40
0
 40
0
 40
0
 40
1
 40
1
 40
1
 40
1
 10
736.588770
 20
797.930945
 30
0.0
 10
733.157823
 20
805.069436
 30
0.0
 10
730.629290
 20
812.607444
 30
0.0
 10
729.061550
 20
820.370925
 30
0.0
  0
LWPOLYLINE
  5
24b
100
AcDbEntity
  8
0
 62
1
100
AcDbPolyline
 90
2
 70
0
 10
734.015090
 20
780.034085
 30
0.0
 10
736.843920
 20
787.220955
 30
0.0
  0
SPLINE
  5
24c
100
AcDbEntity
  8
0
 62
1
100
AcDbSpline
 70
8
 71
3
 72
8
 73
4
 74
0
 40
0
 40
0
 40
0
 40
0
 40
1
 40
1
 40
1
 40
1
 10
749.601910
 20
806.600935
 30
0.0
 10
747.713202
 20
813.134680
 30
0.0
 10
746.222041
 20
819.776843
 30
0.0
 10
745.136620
 20
826.490925
 30
0.0
  0
LWPOLYLINE
  5
24d
100
AcDbEntity
  8
0
 62
1
100
AcDbPolyline
 90
6
 70
0
 10
729.061550
 20
820.370925
 30
0.0
 10
735.312970
 20
824.323425
 30
0.0
 10
741.309220
 20
809.915935
 30
0.0
 10
743.350490
 20
800.353435
 30
0.0
 10
747.050310
 20
798.950945
 30
0.0
 10
749.601910
 20
806.600935
 30
0.0
  0
SPLINE
  5
24e
100
AcDbEntity
  8
0
 62
1
100
AcDbSpline
 70
8
 71
3
 72
8
 73
4
 74
0
 40
0
 40
0
 40
0
 40
0
 40
1
 40
1
 40
1
 40
1
 10
751.458140
 20
856.513425
 30
0.0
 10
751.458140
 20
856.513425
 30
0.0
 10
740.433350
 20
867.731635
 30
0.0
 10
740.433350
 20
867.731635
 30
0.0
  0
SPLINE
  5
24f
100
AcDbEntity
  8
0
 62
1
100
AcDbSpline
 70
8
 71
3
 72
8
 73
4
 74
0
 40
0
 40
0
 40
0
 40
0
 40
1
 40
1
 40
1
 40
1
 10
740.433350
 20
867.731635
 30
0.0
 10
734.907771
 20
873.051532
 30
0.0
 10
728.405399
 20
877.252483
 30
0.0
 10
721.284470
 20
880.103045
 30
0.0
  0
LWPOLYLINE
  5
250
100
AcDbEntity
  8
0
 62
1
100
AcDbPolyline
 90
7
 70
0
 10
745.136620
 20
826.490925
 30
0.0
 10
752.153510
 20
829.168425
 30
0.0
 10
755.725750
 20
817.948425
 30
0.0
 10
759.042820
 20
820.243425
 30
0.0
 10
759.680720
 20
830.315925
 30
0.0
 10
757.511860
 20
844.085915
 30
0.0
 10
751.458140
 20
856.513425
 30
0.0
  0
SPLINE
  5
251
100
AcDbEntity
  8
0
 62
1
100
AcDbSpline
 70
8
 71
3
 72
8
 73
4
 74
0
 40
0
 40
0
 40
0
 40
0
 40
1
 40
1
 40
1
 40
1
 10
696.729250
 20
865.879965
 30
0.0
 10
696.729250
 20
865.879965
 30
0.0
 10
696.228120
 20
882.506945
 30
0.0
 10
696.228120
 20
882.506945
 30
0.0
  0
SPLINE
  5
252
100
AcDbEntity
  8
0
 62
1
100
AcDbSpline
 70
8
 71
3
 72
8
 73
4
 74
0
 40
0
 40
0
 40
0
 40
0
 40
1
 40
1
 40
1
 40
1
 10
696.228120
 20
882.506945
 30
0.0
 10
687.150480
 20
881.637237
 30
0.0
 10
678.348733
 20
878.909727
 30
0.0
 10
670.369960
 20
874.493945
 30
0.0
  0
SPLINE
  5
253
100
AcDbEntity
  8
0
 62
1
100
AcDbSpline
 70
8
 71
3
 72
8
 73
4
 74
0
 40
0
 40
0
 40
0
 40
0
 40
1
 40
1
 40
1
 40
1
 10
670.369960
 20
874.493945
 30
0.0
 10
670.369960
 20
874.493945
 30
0.0
 10
662.051260
 20
867.883215
 30
0.0
 10
662.051260
 20
867.883215
 30
0.0
  0
SPLINE
  5
254
100
AcDbEntity
  8
0
 62
1
100
AcDbSpline
 70
8
 71
3
 72
8
 73
4
 74
0
 40
0
 40
0
 40
0
 40
0
 40
1
 40
1
 40
1
 40
1
 10
662.051260
 20
867.883215
 30
0.0
 10
656.777845
 20
860.814263
 30
0.0
 10
651.803943
 20
853.526739
 30
0.0
 10
647.142730
 20
846.039945
 30
0.0
  0
LWPOLYLINE
  5
255
100
AcDbEntity
  8
0
 62
1
100
AcDbPolyline
 90
4
 70
0
 10
721.284470
 20
880.103045
 30
0.0
 10
707.954500
 20
882.306625
 30
0.0
 10
707.052460
 20
865.779795
 30
0.0
 10
696.729250
 20
865.879965
 30
0.0
  0
SPLINE
  5
256
100
AcDbEntity
  8
0
 62
1
100
AcDbSpline
 70
8
 71
3
 72
8
 73
4
 74
0
 40
0
 40
0
 40
0
 40
0
 40
1
 40
1
 40
1
 40
1
 10
661.630170
 20
825.896155
 30
0.0
 10
657.790408
 20
819.299966
 30
0.0
 10
654.946199
 20
812.172695
 30
0.0
 10
653.189660
 20
804.745175
 30
0.0
  0
LWPOLYLINE
  5
257
100
AcDbEntity
  8
0
 62
1
100
AcDbPolyline
 90
6
 70
0
 10
647.142730
 20
846.039945
 30
0.0
 10
644.749160
 20
830.680305
 30
0.0
 10
646.260890
 20
816.579655
 30
0.0
 10
649.032400
 20
818.090435
 30
0.0
 10
653.945530
 20
829.673115
 30
0.0
 10
661.630170
 20
825.896155
 30
0.0
  0
SPLINE
  5
258
100
AcDbEntity
  8
0
 62
1
100
AcDbSpline
 70
8
 71
3
 72
8
 73
4
 74
0
 40
0
 40
0
 40
0
 40
0
 40
1
 40
1
 40
1
 40
1
 10
428.162250
 20
589.635435
 30
0.0
 10
432.058889
 20
592.288819
 30
0.0
 10
435.226164
 20
595.878988
 30
0.0
 10
437.373030
 20
600.076035
 30
0.0
  0
LWPOLYLINE
  5
259
100
AcDbEntity
  8
0
 62
1
100
AcDbPolyline
 90
15
 70
0
 10
653.189660
 20
804.745175
 30
0.0
 10
661.000270
 20
799.709225
 30
0.0
 10
668.279690
 20
823.332195
 30
0.0
 10
675.688680
 20
819.101145
 30
0.0
 10
670.274120
 20
804.023225
 30
0.0
 10
669.234760
 20
793.895805
 30
0.0
 10
674.171730
 20
778.055485
 30
0.0
 10
680.927580
 20
767.668385
 30
0.0
 10
688.341500
 20
764.989095
 30
0.0
 10
688.851820
 20
789.851575
 30
0.0
 10
698.420310
 20
789.469075
 30
0.0
 10
698.165150
 20
761.164095
 30
0.0
 10
708.371540
 20
762.056595
 30
0.0
 10
709.647340
 20
789.596575
 30
0.0
 10
717.812450
 20
789.851575
 30
0.0
  0
SPLINE
  5
25a
100
AcDbEntity
  8
0
 62
1
100
AcDbSpline
 70
8
 71
3
 72
8
 73
4
 74
0
 40
0
 40
0
 40
0
 40
0
 40
1
 40
1
 40
1
 40
1
 10
440.969160
 20
612.084635
 30
0.0
 10
440.969160
 20
612.084635
 30
0.0
 10
440.865170
 20
623.269635
 30
0.0
 10
440.865170
 20
623.269635
 30
0.0
  0
SPLINE
  5
25b
100
AcDbEntity
  8
0
 62
1
100
AcDbSpline
 70
8
 71
3
 72
8
 73
4
 74
0
 40
0
 40
0
 40
0
 40
0
 40
1
 40
1
 40
1
 40
1
 10
440.865170
 20
623.269635
 30
0.0
 10
439.041048
 20
628.797152
 30
0.0
 10
436.779142
 20
634.170442
 30
0.0
 10
434.100950
 20
639.338435
 30
0.0
  0
SPLINE
  5
25c
100
AcDbEntity
  8
0
 62
1
100
AcDbSpline
 70
8
 71
3
 72
8
 73
4
 74
0
 40
0
 40
0
 40
0
 40
0
 40
1
 40
1
 40
1
 40
1
 10
434.100950
 20
639.338435
 30
0.0
 10
431.428968
 20
643.529392
 30
0.0
 10
427.725206
 20
646.963706
 30
0.0
 10
423.344740
 20
649.312135
 30
0.0
  0
LWPOLYLINE
  5
25d
100
AcDbEntity
  8
0
 62
1
100
AcDbPolyline
 90
2
 70
0
 10
437.373030
 20
600.076035
 30
0.0
 10
440.969160
 20
612.084635
 30
0.0
  0
SPLINE
  5
25e
100
AcDbEntity
  8
0
 62
1
100
AcDbSpline
 70
8
 71
3
 72
8
 73
4
 74
0
 40
0
 40
0
 40
0
 40
0
 40
1
 40
1
 40
1
 40
1
 10
402.236030
 20
592.948335
 30
0.0
 10
405.186146
 20
589.999260
 30
0.0
 10
408.860197
 20
587.878207
 30
0.0
 10
412.889300
 20
586.798135
 30
0.0
  0
LWPOLYLINE
  5
25f
100
AcDbEntity
  8
0
 62
1
100
AcDbPolyline
 90
7
 70
0
 10
423.344740
 20
649.312135
 30
0.0
 10
416.071280
 20
650.768635
 30
0.0
 10
407.267030
 20
646.997735
 30
0.0
 10
399.900210
 20
638.558135
 30
0.0
 10
395.767600
 20
626.347635
 30
0.0
 10
395.420480
 20
600.329535
 30
0.0
 10
402.236030
 20
592.948335
 30
0.0
  0
LWPOLYLINE
  5
260
100
AcDbEntity
  8
0
 62
1
100
AcDbPolyline
 90
3
 70
0
 10
412.889300
 20
586.798135
 30
0.0
 10
421.671440
 20
586.917135
 30
0.0
 10
428.162250
 20
589.635435
 30
0.0
  0
SPLINE
  5
261
100
AcDbEntity
  8
0
 62
1
100
AcDbSpline
 70
8
 71
3
 72
8
 73
4
 74
0
 40
0
 40
0
 40
0
 40
0
 40
1
 40
1
 40
1
 40
1
 10
383.908070
 20
574.330235
 30
0.0
 10
377.198729
 20
584.158630
 30
0.0
 10
371.068146
 20
594.369857
 30
0.0
 10
365.547530
 20
604.911935
 30
0.0
  0
SPLINE
  5
262
100
AcDbEntity
  8
0
 62
1
100
AcDbSpline
 70
8
 71
3
 72
8
 73
4
 74
0
 40
0
 40
0
 40
0
 40
0
 40
1
 40
1
 40
1
 40
1
 10
365.547530
 20
604.911935
 30
0.0
 10
362.818882
 20
612.163996
 30
0.0
 10
360.569965
 20
619.587605
 30
0.0
 10
358.815330
 20
627.134735
 30
0.0
  0
LWPOLYLINE
  5
263
100
AcDbEntity
  8
0
 62
1
100
AcDbPolyline
 90
12
 70
0
 10
444.293850
 20
565.359635
 30
0.0
 10
433.889540
 20
559.447135
 30
0.0
 10
431.849480
 20
572.087635
 30
0.0
 10
424.097260
 20
571.883735
 30
0.0
 10
424.097260
 20
557.816135
 30
0.0
 10
411.652880
 20
557.204535
 30
0.0
 10
412.672920
 20
567.194535
 30
0.0
 10
410.632860
 20
573.310835
 30
0.0
 10
403.900660
 20
573.107035
 30
0.0
 10
402.472620
 20
560.874335
 30
0.0
 10
393.496350
 20
564.951835
 30
0.0
 10
383.908070
 20
574.330235
 30
0.0
  0
SPLINE
  5
264
100
AcDbEntity
  8
0
 62
1
100
AcDbSpline
 70
8
 71
3
 72
8
 73
4
 74
0
 40
0
 40
0
 40
0
 40
0
 40
1
 40
1
 40
1
 40
1
 10
360.651380
 20
647.522535
 30
0.0
 10
365.356124
 20
657.666016
 30
0.0
 10
371.015007
 20
667.339008
 30
0.0
 10
377.551580
 20
676.410835
 30
0.0
  0
LWPOLYLINE
  5
265
100
AcDbEntity
  8
0
 62
1
100
AcDbPolyline
 90
3
 70
0
 10
358.815330
 20
627.134735
 30
0.0
 10
358.815330
 20
639.163535
 30
0.0
 10
360.651380
 20
647.522535
 30
0.0
  0
SPLINE
  5
266
100
AcDbEntity
  8
0
 62
1
100
AcDbSpline
 70
8
 71
3
 72
8
 73
4
 74
0
 40
0
 40
0
 40
0
 40
0
 40
1
 40
1
 40
1
 40
1
 10
393.847760
 20
673.267935
 30
0.0
 10
393.214218
 20
678.521340
 30
0.0
 10
393.801238
 20
683.850085
 30
0.0
 10
395.563150
 20
688.839605
 30
0.0
  0
SPLINE
  5
267
100
AcDbEntity
  8
0
 62
1
100
AcDbSpline
 70
8
 71
3
 72
8
 73
4
 74
0
 40
0
 40
0
 40
0
 40
0
 40
1
 40
1
 40
1
 40
1
 10
395.563150
 20
688.839605
 30
0.0
 10
407.503813
 20
696.802139
 30
0.0
 10
422.819328
 20
697.676763
 30
0.0
 10
435.588840
 20
691.125355
 30
0.0
  0
LWPOLYLINE
  5
268
100
AcDbEntity
  8
0
 62
1
100
AcDbPolyline
 90
5
 70
0
 10
377.551580
 20
676.410835
 30
0.0
 10
383.412490
 20
682.410935
 30
0.0
 10
386.414410
 20
680.982345
 30
0.0
 10
387.272110
 20
671.553635
 30
0.0
 10
393.847760
 20
673.267935
 30
0.0
  0
SPLINE
  5
269
100
AcDbEntity
  8
0
 62
1
100
AcDbSpline
 70
8
 71
3
 72
8
 73
4
 74
0
 40
0
 40
0
 40
0
 40
0
 40
1
 40
1
 40
1
 40
1
 10
448.145450
 20
681.911885
 30
0.0
 10
448.145450
 20
681.911885
 30
0.0
 10
459.791130
 20
671.437335
 30
0.0
 10
459.791130
 20
671.437335
 30
0.0
  0
SPLINE
  5
26a
100
AcDbEntity
  8
0
 62
1
100
AcDbSpline
 70
8
 71
3
 72
8
 73
4
 74
0
 40
0
 40
0
 40
0
 40
0
 40
1
 40
1
 40
1
 40
1
 10
459.791130
 20
671.437335
 30
0.0
 10
464.316212
 20
664.039389
 30
0.0
 10
468.477275
 20
656.424852
 30
0.0
 10
472.259450
 20
648.620935
 30
0.0
  0
LWPOLYLINE
  5
26b
100
AcDbEntity
  8
0
 62
1
100
AcDbPolyline
 90
5
 70
0
 10
435.588840
 20
691.125355
 30
0.0
 10
438.828900
 20
688.603955
 30
0.0
 10
437.664330
 20
673.474035
 30
0.0
 10
444.069460
 20
669.400635
 30
0.0
 10
448.145450
 20
681.911885
 30
0.0
  0
SPLINE
  5
26c
100
AcDbEntity
  8
0
 62
1
100
AcDbSpline
 70
8
 71
3
 72
8
 73
4
 74
0
 40
0
 40
0
 40
0
 40
0
 40
1
 40
1
 40
1
 40
1
 10
427.728520
 20
426.106385
 30
0.0
 10
423.191960
 20
423.197409
 30
0.0
 10
417.783541
 20
421.960110
 30
0.0
 10
412.433430
 20
422.607285
 30
0.0
  0
LWPOLYLINE
  5
26d
100
AcDbEntity
  8
0
 62
1
100
AcDbPolyline
 90
6
 70
0
 10
472.259450
 20
648.620935
 30
0.0
 10
475.931560
 20
634.961135
 30
0.0
 10
476.543570
 20
622.524535
 30
0.0
 10
471.647430
 20
609.272435
 30
0.0
 10
452.865380
 20
575.548535
 30
0.0
 10
444.293850
 20
565.359635
 30
0.0
  0
SPLINE
  5
26e
100
AcDbEntity
  8
0
 62
1
100
AcDbSpline
 70
8
 71
3
 72
8
 73
4
 74
0
 40
0
 40
0
 40
0
 40
0
 40
1
 40
1
 40
1
 40
1
 10
395.848400
 20
435.867085
 30
0.0
 10
395.848400
 20
435.867085
 30
0.0
 10
389.951490
 20
449.495085
 30
0.0
 10
389.951490
 20
449.495085
 30
0.0
  0
SPLINE
  5
26f
100
AcDbEntity
  8
0
 62
1
100
AcDbSpline
 70
8
 71
3
 72
8
 73
4
 74
0
 40
0
 40
0
 40
0
 40
0
 40
1
 40
1
 40
1
 40
1
 10
389.951490
 20
449.495085
 30
0.0
 10
390.008347
 20
456.984985
 30
0.0
 10
391.100216
 20
464.431081
 30
0.0
 10
393.196100
 20
471.621985
 30
0.0
  0
LWPOLYLINE
  5
270
100
AcDbEntity
  8
0
 62
1
100
AcDbPolyline
 90
3
 70
0
 10
412.433430
 20
422.607285
 30
0.0
 10
402.850970
 20
426.290585
 30
0.0
 10
395.848400
 20
435.867085
 30
0.0
  0
SPLINE
  5
271
100
AcDbEntity
  8
0
 62
1
100
AcDbSpline
 70
8
 71
3
 72
8
 73
4
 74
0
 40
0
 40
0
 40
0
 40
0
 40
1
 40
1
 40
1
 40
1
 10
404.946510
 20
484.655485
 30
0.0
 10
407.668295
 20
487.025168
 30
0.0
 10
411.158520
 20
488.324940
 30
0.0
 10
414.767310
 20
488.312785
 30
0.0
  0
LWPOLYLINE
  5
272
100
AcDbEntity
  8
0
 62
1
100
AcDbPolyline
 90
3
 70
0
 10
393.196100
 20
471.621985
 30
0.0
 10
398.102870
 20
479.493685
 30
0.0
 10
404.946510
 20
484.655485
 30
0.0
  0
SPLINE
  5
273
100
AcDbEntity
  8
0
 62
1
100
AcDbSpline
 70
8
 71
3
 72
8
 73
4
 74
0
 40
0
 40
0
 40
0
 40
0
 40
1
 40
1
 40
1
 40
1
 10
434.731090
 20
475.461985
 30
0.0
 10
434.731090
 20
475.461985
 30
0.0
 10
438.416650
 20
463.491485
 30
0.0
 10
438.416650
 20
463.491485
 30
0.0
  0
SPLINE
  5
274
100
AcDbEntity
  8
0
 62
1
100
AcDbSpline
 70
8
 71
3
 72
8
 73
4
 74
0
 40
0
 40
0
 40
0
 40
0
 40
1
 40
1
 40
1
 40
1
 10
438.416650
 20
463.491485
 30
0.0
 10
439.446017
 20
456.037555
 30
0.0
 10
439.446017
 20
448.477515
 30
0.0
 10
438.416650
 20
441.023585
 30
0.0
  0
SPLINE
  5
275
100
AcDbEntity
  8
0
 62
1
100
AcDbSpline
 70
8
 71
3
 72
8
 73
4
 74
0
 40
0
 40
0
 40
0
 40
0
 40
1
 40
1
 40
1
 40
1
 10
438.416650
 20
441.023585
 30
0.0
 10
435.559109
 20
435.581962
 30
0.0
 10
431.962284
 20
430.561949
 30
0.0
 10
427.728520
 20
426.106385
 30
0.0
  0
LWPOLYLINE
  5
276
100
AcDbEntity
  8
0
 62
1
100
AcDbPolyline
 90
3
 70
0
 10
414.767310
 20
488.312785
 30
0.0
 10
426.622840
 20
484.117685
 30
0.0
 10
434.731090
 20
475.461985
 30
0.0
  0
LWPOLYLINE
  5
277
100
AcDbEntity
  8
0
 62
1
100
AcDbPolyline
 90
1
 70
1
 10
427.728520
 20
426.106385
 30
0.0
  0
SPLINE
  5
278
100
AcDbEntity
  8
0
 62
1
100
AcDbSpline
 70
8
 71
3
 72
8
 73
4
 74
0
 40
0
 40
0
 40
0
 40
0
 40
1
 40
1
 40
1
 40
1
 10
339.544400
 20
244.162065
 30
0.0
 10
339.544400
 20
244.162065
 30
0.0
 10
343.860170
 20
253.507025
 30
0.0
 10
343.860170
 20
253.507025
 30
0.0
  0
SPLINE
  5
279
100
AcDbEntity
  8
0
 62
1
100
AcDbSpline
 70
8
 71
3
 72
8
 73
4
 74
0
 40
0
 40
0
 40
0
 40
0
 40
1
 40
1
 40
1
 40
1
 10
343.860170
 20
253.507025
 30
0.0
 10
342.182217
 20
256.639288
 30
0.0
 10
339.900511
 20
259.408204
 30
0.0
 10
337.146750
 20
261.653955
 30
0.0
  0
LWPOLYLINE
  5
27a
100
AcDbEntity
  8
0
 62
1
100
AcDbPolyline
 90
6
 70
0
 10
360.404010
 20
229.066305
 30
0.0
 10
355.385600
 20
228.382405
 30
0.0
 10
348.415710
 20
234.817055
 30
0.0
 10
329.234470
 20
235.535895
 30
0.0
 10
328.515200
 20
242.724375
 30
0.0
 10
339.544400
 20
244.162065
 30
0.0
  0
SPLINE
  5
27b
100
AcDbEntity
  8
0
 62
1
100
AcDbSpline
 70
8
 71
3
 72
8
 73
4
 74
0
 40
0
 40
0
 40
0
 40
0
 40
1
 40
1
 40
1
 40
1
 10
368.807540
 20
288.574705
 30
0.0
 10
368.807540
 20
288.574705
 30
0.0
 10
373.704810
 20
292.715995
 30
0.0
 10
373.704810
 20
292.715995
 30
0.0
  0
SPLINE
  5
27c
100
AcDbEntity
  8
0
 62
1
100
AcDbSpline
 70
8
 71
3
 72
8
 73
4
 74
0
 40
0
 40
0
 40
0
 40
0
 40
1
 40
1
 40
1
 40
1
 10
373.704810
 20
292.715995
 30
0.0
 10
374.644459
 20
302.129572
 30
0.0
 10
375.968225
 20
311.500840
 30
0.0
 10
377.672800
 20
320.806365
 30
0.0
  0
LWPOLYLINE
  5
27d
100
AcDbEntity
  8
0
 62
1
100
AcDbPolyline
 90
10
 70
0
 10
337.146750
 20
261.653955
 30
0.0
 10
341.462530
 20
265.727415
 30
0.0
 10
349.135060
 20
263.331275
 30
0.0
 10
358.246120
 20
264.768965
 30
0.0
 10
364.959550
 20
274.593175
 30
0.0
 10
366.358870
 20
279.539255
 30
0.0
 10
350.900190
 20
279.890365
 30
0.0
 10
350.348530
 20
285.562905
 30
0.0
 10
353.173830
 20
289.892385
 30
0.0
 10
368.807540
 20
288.574705
 30
0.0
  0
SPLINE
  5
27e
100
AcDbEntity
  8
0
 62
1
100
AcDbSpline
 70
8
 71
3
 72
8
 73
4
 74
0
 40
0
 40
0
 40
0
 40
0
 40
1
 40
1
 40
1
 40
1
 10
382.570060
 20
331.912475
 30
0.0
 10
384.073670
 20
338.705438
 30
0.0
 10
384.644010
 20
345.671705
 30
0.0
 10
384.265320
 20
352.618775
 30
0.0
  0
SPLINE
  5
27f
100
AcDbEntity
  8
0
 62
1
100
AcDbSpline
 70
8
 71
3
 72
8
 73
4
 74
0
 40
0
 40
0
 40
0
 40
0
 40
1
 40
1
 40
1
 40
1
 10
384.265320
 20
352.618775
 30
0.0
 10
384.265320
 20
352.618775
 30
0.0
 10
378.802920
 20
359.960105
 30
0.0
 10
378.802920
 20
359.960105
 30
0.0
  0
SPLINE
  5
280
100
AcDbEntity
  8
0
 62
1
100
AcDbSpline
 70
8
 71
3
 72
8
 73
4
 74
0
 40
0
 40
0
 40
0
 40
0
 40
1
 40
1
 40
1
 40
1
 10
378.802920
 20
359.960105
 30
0.0
 10
373.964380
 20
363.522956
 30
0.0
 10
369.001221
 20
366.913393
 30
0.0
 10
363.922770
 20
370.125045
 30
0.0
  0
LWPOLYLINE
  5
281
100
AcDbEntity
  8
0
 62
1
100
AcDbPolyline
 90
2
 70
0
 10
377.672800
 20
320.806365
 30
0.0
 10
382.570060
 20
331.912475
 30
0.0
  0
SPLINE
  5
282
100
AcDbEntity
  8
0
 62
1
100
AcDbSpline
 70
8
 71
3
 72
8
 73
4
 74
0
 40
0
 40
0
 40
0
 40
0
 40
1
 40
1
 40
1
 40
1
 10
356.388480
 20
369.748535
 30
0.0
 10
356.388480
 20
369.748535
 30
0.0
 10
344.710340
 20
364.101365
 30
0.0
 10
344.710340
 20
364.101365
 30
0.0
  0
SPLINE
  5
283
100
AcDbEntity
  8
0
 62
1
100
AcDbSpline
 70
8
 71
3
 72
8
 73
4
 74
0
 40
0
 40
0
 40
0
 40
0
 40
1
 40
1
 40
1
 40
1
 10
344.710340
 20
364.101365
 30
0.0
 10
341.983184
 20
362.374427
 30
0.0
 10
340.128535
 20
359.559914
 30
0.0
 10
339.617450
 20
356.372675
 30
0.0
  0
LWPOLYLINE
  5
284
100
AcDbEntity
  8
0
 62
1
100
AcDbPolyline
 90
2
 70
0
 10
363.922770
 20
370.125045
 30
0.0
 10
356.388480
 20
369.748535
 30
0.0
  0
SPLINE
  5
285
100
AcDbEntity
  8
0
 62
1
100
AcDbSpline
 70
8
 71
3
 72
8
 73
4
 74
0
 40
0
 40
0
 40
0
 40
0
 40
1
 40
1
 40
1
 40
1
 10
308.797890
 20
335.139135
 30
0.0
 10
319.886539
 20
334.567065
 30
0.0
 10
331.000845
 20
334.726825
 30
0.0
 10
342.068470
 20
335.617375
 30
0.0
  0
LWPOLYLINE
  5
286
100
AcDbEntity
  8
0
 62
1
100
AcDbPolyline
 90
8
 70
0
 10
339.617450
 20
356.372675
 30
0.0
 10
356.388480
 20
355.442385
 30
0.0
 10
357.330250
 20
350.359915
 30
0.0
 10
353.563100
 20
348.665755
 30
0.0
 10
310.052550
 20
349.795215
 30
0.0
 10
307.304840
 20
347.573535
 30
0.0
 10
307.138900
 20
339.781315
 30
0.0
 10
308.797890
 20
335.139135
 30
0.0
  0
SPLINE
  5
287
100
AcDbEntity
  8
0
 62
1
100
AcDbSpline
 70
8
 71
3
 72
8
 73
4
 74
0
 40
0
 40
0
 40
0
 40
0
 40
1
 40
1
 40
1
 40
1
 10
316.118770
 20
316.459365
 30
0.0
 10
316.118770
 20
316.459365
 30
0.0
 10
323.365990
 20
311.553045
 30
0.0
 10
323.365990
 20
311.553045
 30
0.0
  0
SPLINE
  5
288
100
AcDbEntity
  8
0
 62
1
100
AcDbSpline
 70
8
 71
3
 72
8
 73
4
 74
0
 40
0
 40
0
 40
0
 40
0
 40
1
 40
1
 40
1
 40
1
 10
323.365990
 20
311.553045
 30
0.0
 10
331.315294
 20
311.640656
 30
0.0
 10
339.265560
 20
311.562752
 30
0.0
 10
347.211620
 20
311.319385
 30
0.0
  0
LWPOLYLINE
  5
289
100
AcDbEntity
  8
0
 62
1
100
AcDbPolyline
 90
5
 70
0
 10
342.068470
 20
335.617375
 30
0.0
 10
340.432040
 20
324.402905
 30
0.0
 10
312.845900
 20
326.038345
 30
0.0
 10
312.378270
 20
321.365685
 30
0.0
 10
316.118770
 20
316.459365
 30
0.0
  0
SPLINE
  5
28a
100
AcDbEntity
  8
0
 62
1
100
AcDbSpline
 70
8
 71
3
 72
8
 73
4
 74
0
 40
0
 40
0
 40
0
 40
0
 40
1
 40
1
 40
1
 40
1
 10
322.664660
 20
301.974015
 30
0.0
 10
324.439104
 20
297.398255
 30
0.0
 10
327.857037
 20
293.649231
 30
0.0
 10
332.249710
 20
291.460475
 30
0.0
  0
LWPOLYLINE
  5
28b
100
AcDbEntity
  8
0
 62
1
100
AcDbPolyline
 90
3
 70
0
 10
347.211620
 20
311.319385
 30
0.0
 10
347.679180
 20
301.039465
 30
0.0
 10
322.664660
 20
301.974015
 30
0.0
  0
SPLINE
  5
28c
100
AcDbEntity
  8
0
 62
1
100
AcDbSpline
 70
8
 71
3
 72
8
 73
4
 74
0
 40
0
 40
0
 40
0
 40
0
 40
1
 40
1
 40
1
 40
1
 10
333.413300
 20
285.110805
 30
0.0
 10
333.413300
 20
285.110805
 30
0.0
 10
332.010560
 20
276.466335
 30
0.0
 10
332.010560
 20
276.466335
 30
0.0
  0
SPLINE
  5
28d
100
AcDbEntity
  8
0
 62
1
100
AcDbSpline
 70
8
 71
3
 72
8
 73
4
 74
0
 40
0
 40
0
 40
0
 40
0
 40
1
 40
1
 40
1
 40
1
 10
332.010560
 20
276.466335
 30
0.0
 10
328.699069
 20
270.345547
 30
0.0
 10
324.698835
 20
264.623311
 30
0.0
 10
320.087740
 20
259.411035
 30
0.0
  0
SPLINE
  5
28e
100
AcDbEntity
  8
0
 62
1
100
AcDbSpline
 70
8
 71
3
 72
8
 73
4
 74
0
 40
0
 40
0
 40
0
 40
0
 40
1
 40
1
 40
1
 40
1
 10
320.087740
 20
259.411035
 30
0.0
 10
314.965130
 20
256.849738
 30
0.0
 10
310.303923
 20
253.454712
 30
0.0
 10
306.294710
 20
249.364775
 30
0.0
  0
SPLINE
  5
28f
100
AcDbEntity
  8
0
 62
1
100
AcDbSpline
 70
8
 71
3
 72
8
 73
4
 74
0
 40
0
 40
0
 40
0
 40
0
 40
1
 40
1
 40
1
 40
1
 10
306.294710
 20
249.364775
 30
0.0
 10
306.294710
 20
249.364775
 30
0.0
 10
305.359610
 20
243.757555
 30
0.0
 10
305.359610
 20
243.757555
 30
0.0
  0
SPLINE
  5
290
100
AcDbEntity
  8
0
 62
1
100
AcDbSpline
 70
8
 71
3
 72
8
 73
4
 74
0
 40
0
 40
0
 40
0
 40
0
 40
1
 40
1
 40
1
 40
1
 10
305.359610
 20
243.757555
 30
0.0
 10
313.270797
 20
237.555633
 30
0.0
 10
320.135730
 20
230.124627
 30
0.0
 10
325.692700
 20
221.747825
 30
0.0
  0
SPLINE
  5
291
100
AcDbEntity
  8
0
 62
1
100
AcDbSpline
 70
8
 71
3
 72
8
 73
4
 74
0
 40
0
 40
0
 40
0
 40
0
 40
1
 40
1
 40
1
 40
1
 10
325.692700
 20
221.747825
 30
0.0
 10
326.590057
 20
216.226776
 30
0.0
 10
328.318331
 20
210.873453
 30
0.0
 10
330.818740
 20
205.869935
 30
0.0
  0
LWPOLYLINE
  5
292
100
AcDbEntity
  8
0
 62
1
100
AcDbPolyline
 90
2
 70
0
 10
332.249710
 20
291.460475
 30
0.0
 10
333.413300
 20
285.110805
 30
0.0
  0
LWPOLYLINE
  5
293
100
AcDbEntity
  8
0
 62
1
100
AcDbPolyline
 90
14
 70
0
 10
330.818740
 20
205.869935
 30
0.0
 10
333.500280
 20
204.857265
 30
0.0
 10
380.378260
 20
204.515295
 30
0.0
 10
390.374690
 20
206.063225
 30
0.0
 10
393.012100
 20
213.012105
 30
0.0
 10
362.082390
 20
212.772465
 30
0.0
 10
361.842550
 20
221.398625
 30
0.0
 10
391.573480
 20
220.919385
 30
0.0
 10
392.532580
 20
225.232445
 30
0.0
 10
388.936080
 20
229.785145
 30
0.0
 10
380.544280
 20
235.296295
 30
0.0
 10
373.111580
 20
233.858605
 30
0.0
 10
370.953700
 20
230.503995
 30
0.0
 10
360.404010
 20
229.066305
 30
0.0
  0
SPLINE
  5
294
100
AcDbEntity
  8
0
 62
1
100
AcDbSpline
 70
8
 71
3
 72
8
 73
4
 74
0
 40
0
 40
0
 40
0
 40
0
 40
1
 40
1
 40
1
 40
1
 10
43.767074
 20
370.313875
 30
0.0
 10
43.767074
 20
370.313875
 30
0.0
 10
56.818124
 20
366.477765
 30
0.0
 10
56.818124
 20
366.477765
 30
0.0
  0
SPLINE
  5
295
100
AcDbEntity
  8
0
 62
1
100
AcDbSpline
 70
8
 71
3
 72
8
 73
4
 74
0
 40
0
 40
0
 40
0
 40
0
 40
1
 40
1
 40
1
 40
1
 10
56.818124
 20
366.477765
 30
0.0
 10
66.452007
 20
366.492404
 30
0.0
 10
76.000518
 20
368.284304
 30
0.0
 10
84.984234
 20
371.763495
 30
0.0
  0
SPLINE
  5
296
100
AcDbEntity
  8
0
 62
1
100
AcDbSpline
 70
8
 71
3
 72
8
 73
4
 74
0
 40
0
 40
0
 40
0
 40
0
 40
1
 40
1
 40
1
 40
1
 10
84.984234
 20
371.763495
 30
0.0
 10
91.967524
 20
373.306261
 30
0.0
 10
99.215844
 20
373.184244
 30
0.0
 10
106.143250
 20
371.407305
 30
0.0
  0
SPLINE
  5
297
100
AcDbEntity
  8
0
 62
1
100
AcDbSpline
 70
8
 71
3
 72
8
 73
4
 74
0
 40
0
 40
0
 40
0
 40
0
 40
1
 40
1
 40
1
 40
1
 10
106.143250
 20
371.407305
 30
0.0
 10
106.143250
 20
371.407305
 30
0.0
 10
113.916390
 20
364.656305
 30
0.0
 10
113.916390
 20
364.656305
 30
0.0
  0
SPLINE
  5
298
100
AcDbEntity
  8
0
 62
1
100
AcDbSpline
 70
8
 71
3
 72
8
 73
4
 74
0
 40
0
 40
0
 40
0
 40
0
 40
1
 40
1
 40
1
 40
1
 10
113.916390
 20
364.656305
 30
0.0
 10
118.362423
 20
360.394942
 30
0.0
 10
121.630030
 20
355.055545
 30
0.0
 10
123.401440
 20
349.157365
 30
0.0
  0
LWPOLYLINE
  5
299
100
AcDbEntity
  8
0
 62
1
100
AcDbPolyline
 90
33
 70
0
 10
126.410020
 20
388.376735
 30
0.0
 10
116.907030
 20
392.321685
 30
0.0
 10
112.667260
 20
382.678515
 30
0.0
 10
109.743240
 20
380.486885
 30
0.0
 10
103.164200
 20
384.724045
 30
0.0
 10
109.158420
 20
393.198315
 30
0.0
 10
104.480020
 20
397.289375
 30
0.0
 10
94.246024
 20
399.334895
 30
0.0
 10
90.737184
 20
384.285725
 30
0.0
 10
81.380384
 20
385.746785
 30
0.0
 10
82.257574
 20
400.211535
 30
0.0
 10
75.482454
 20
406.126745
 30
0.0
 10
71.954154
 20
417.292655
 30
0.0
 10
63.153324
 20
436.473395
 30
0.0
 10
57.090054
 20
443.831355
 30
0.0
 10
48.572514
 20
445.851175
 30
0.0
 10
42.364874
 20
443.687095
 30
0.0
 10
34.280514
 20
435.896325
 30
0.0
 10
35.291024
 20
432.000895
 30
0.0
 10
53.808124
 20
430.943455
 30
0.0
 10
53.336534
 20
422.478855
 30
0.0
 10
33.269934
 20
424.210125
 30
0.0
 10
23.453214
 20
419.016285
 30
0.0
 10
21.865164
 20
409.782765
 30
0.0
 10
48.308304
 20
409.928875
 30
0.0
 10
48.104884
 20
398.543485
 30
0.0
 10
22.268214
 20
398.543485
 30
0.0
 10
28.371374
 20
387.768015
 30
0.0
 10
35.322284
 20
386.425595
 30
0.0
 10
51.060324
 20
386.042015
 30
0.0
 10
54.131134
 20
379.136955
 30
0.0
 10
39.544724
 20
376.835275
 30
0.0
 10
43.767074
 20
370.313875
 30
0.0
  0
LWPOLYLINE
  5
29a
100
AcDbEntity
  8
0
 62
1
100
AcDbPolyline
 90
11
 70
0
 10
123.401440
 20
349.157365
 30
0.0
 10
129.333510
 20
343.345335
 30
0.0
 10
133.869740
 20
341.717925
 30
0.0
 10
140.615950
 20
348.459935
 30
0.0
 10
142.011710
 20
360.432765
 30
0.0
 10
139.801740
 20
369.964555
 30
0.0
 10
137.591770
 20
372.754345
 30
0.0
 10
129.915080
 20
366.012345
 30
0.0
 10
123.866720
 20
371.126985
 30
0.0
 10
131.892410
 20
381.704935
 30
0.0
 10
126.410020
 20
388.376735
 30
0.0
  0
LWPOLYLINE
  5
29b
100
AcDbEntity
  8
0
 62
1
100
AcDbPolyline
 90
17
 70
1
 10
426.176350
 20
131.364955
 30
0.0
 10
423.942760
 20
142.525845
 30
0.0
 10
419.196370
 20
141.688765
 30
0.0
 10
416.125260
 20
129.690835
 30
0.0
 10
409.982880
 20
130.527915
 30
0.0
 10
409.158220
 20
133.820365
 30
0.0
 10
409.869020
 20
143.054935
 30
0.0
 10
401.339440
 20
142.699745
 30
0.0
 10
400.273290
 20
134.530735
 30
0.0
 10
398.169070
 20
131.811745
 30
0.0
 10
394.514880
 20
141.734715
 30
0.0
 10
397.304070
 20
155.671705
 30
0.0
 10
406.468360
 20
160.848265
 30
0.0
 10
417.624970
 20
160.848265
 30
0.0
 10
426.455470
 20
156.755975
 30
0.0
 10
430.643460
 20
149.501395
 30
0.0
 10
431.201860
 20
141.409765
 30
0.0
  0
SPLINE
  5
29c
100
AcDbEntity
  8
0
 62
1
100
AcDbSpline
 70
8
 71
3
 72
8
 73
4
 74
0
 40
0
 40
0
 40
0
 40
0
 40
1
 40
1
 40
1
 40
1
 10
730.811040
 20
102.954185
 30
0.0
 10
730.811040
 20
102.954185
 30
0.0
 10
733.498640
 20
106.215685
 30
0.0
 10
733.498640
 20
106.215685
 30
0.0
  0
SPLINE
  5
29d
100
AcDbEntity
  8
0
 62
1
100
AcDbSpline
 70
8
 71
3
 72
8
 73
4
 74
0
 40
0
 40
0
 40
0
 40
0
 40
1
 40
1
 40
1
 40
1
 10
733.498640
 20
106.215685
 30
0.0
 10
734.464891
 20
113.939376
 30
0.0
 10
734.983058
 20
121.712541
 30
0.0
 10
735.050540
 20
129.496145
 30
0.0
  0
SPLINE
  5
29e
100
AcDbEntity
  8
0
 62
1
100
AcDbSpline
 70
8
 71
3
 72
8
 73
4
 74
0
 40
0
 40
0
 40
0
 40
0
 40
1
 40
1
 40
1
 40
1
 10
735.050540
 20
129.496145
 30
0.0
 10
735.050540
 20
129.496145
 30
0.0
 10
740.688540
 20
129.496145
 30
0.0
 10
740.688540
 20
129.496145
 30
0.0
  0
SPLINE
  5
29f
100
AcDbEntity
  8
0
 62
1
100
AcDbSpline
 70
8
 71
3
 72
8
 73
4
 74
0
 40
0
 40
0
 40
0
 40
0
 40
1
 40
1
 40
1
 40
1
 10
740.688540
 20
129.496145
 30
0.0
 10
740.792408
 20
123.657271
 30
0.0
 10
741.116639
 20
117.824399
 30
0.0
 10
741.660540
 20
112.009985
 30
0.0
  0
LWPOLYLINE
  5
2a0
100
AcDbEntity
  8
0
 62
1
100
AcDbPolyline
 90
9
 70
0
 10
713.569740
 20
110.278385
 30
0.0
 10
717.405340
 20
108.635585
 30
0.0
 10
720.060640
 20
111.587485
 30
0.0
 10
720.252640
 20
122.714845
 30
0.0
 10
722.556240
 20
127.319245
 30
0.0
 10
725.435840
 20
123.290345
 30
0.0
 10
725.051940
 20
111.587485
 30
0.0
 10
726.779640
 20
103.721685
 30
0.0
 10
730.811040
 20
102.954185
 30
0.0
  0
SPLINE
  5
2a1
100
AcDbEntity
  8
0
 62
1
100
AcDbSpline
 70
8
 71
3
 72
8
 73
4
 74
0
 40
0
 40
0
 40
0
 40
0
 40
1
 40
1
 40
1
 40
1
 10
749.631450
 20
138.044945
 30
0.0
 10
749.631450
 20
138.044945
 30
0.0
 10
743.158240
 20
151.073845
 30
0.0
 10
743.158240
 20
151.073845
 30
0.0
  0
SPLINE
  5
2a2
100
AcDbEntity
  8
0
 62
1
100
AcDbSpline
 70
8
 71
3
 72
8
 73
4
 74
0
 40
0
 40
0
 40
0
 40
0
 40
1
 40
1
 40
1
 40
1
 10
743.158240
 20
151.073845
 30
0.0
 10
738.186812
 20
153.207717
 30
0.0
 10
733.162490
 20
155.216186
 30
0.0
 10
728.090040
 20
157.097345
 30
0.0
  0
LWPOLYLINE
  5
2a3
100
AcDbEntity
  8
0
 62
1
100
AcDbPolyline
 90
5
 70
0
 10
741.660540
 20
112.009985
 30
0.0
 10
745.354440
 20
109.678485
 30
0.0
 10
749.048250
 20
114.729985
 30
0.0
 10
750.603550
 20
125.415945
 30
0.0
 10
749.631450
 20
138.044945
 30
0.0
  0
SPLINE
  5
2a4
100
AcDbEntity
  8
0
 62
1
100
AcDbSpline
 70
8
 71
3
 72
8
 73
4
 74
0
 40
0
 40
0
 40
0
 40
0
 40
1
 40
1
 40
1
 40
1
 10
603.746520
 20
126.627345
 30
0.0
 10
603.746520
 20
126.627345
 30
0.0
 10
606.026920
 20
126.849645
 30
0.0
 10
606.026920
 20
126.849645
 30
0.0
  0
SPLINE
  5
2a5
100
AcDbEntity
  8
0
 62
1
100
AcDbSpline
 70
8
 71
3
 72
8
 73
4
 74
0
 40
0
 40
0
 40
0
 40
0
 40
1
 40
1
 40
1
 40
1
 10
606.026920
 20
126.849645
 30
0.0
 10
607.941446
 20
121.852844
 30
0.0
 10
609.019292
 20
116.574649
 30
0.0
 10
609.217120
 20
111.227285
 30
0.0
  0
LWPOLYLINE
  5
2a6
100
AcDbEntity
  8
0
 62
1
100
AcDbPolyline
 90
6
 70
0
 10
728.090040
 20
157.097345
 30
0.0
 10
722.610740
 20
155.180745
 30
0.0
 10
715.213540
 20
146.145545
 30
0.0
 10
709.460240
 20
131.086745
 30
0.0
 10
708.912340
 20
119.039785
 30
0.0
 10
713.569740
 20
110.278385
 30
0.0
  0
SPLINE
  5
2a7
100
AcDbEntity
  8
0
 62
1
100
AcDbSpline
 70
8
 71
3
 72
8
 73
4
 74
0
 40
0
 40
0
 40
0
 40
0
 40
1
 40
1
 40
1
 40
1
 10
49.742622
 20
157.117325
 30
0.0
 10
49.776965
 20
160.986438
 30
0.0
 10
50.634786
 20
164.803888
 30
0.0
 10
52.259022
 20
168.315735
 30
0.0
  0
LWPOLYLINE
  5
2a8
100
AcDbEntity
  8
0
 62
1
100
AcDbPolyline
 90
18
 70
0
 10
609.217120
 20
111.227285
 30
0.0
 10
613.613720
 20
109.882885
 30
0.0
 10
617.192720
 20
112.183785
 30
0.0
 10
619.106820
 20
123.980245
 30
0.0
 10
622.616120
 20
126.849645
 30
0.0
 10
626.444420
 20
116.009685
 30
0.0
 10
633.143820
 20
123.661345
 30
0.0
 10
633.462920
 20
130.675445
 30
0.0
 10
631.229720
 20
143.428445
 30
0.0
 10
623.892220
 20
154.906045
 30
0.0
 10
615.278520
 20
160.007245
 30
0.0
 10
606.345920
 20
159.050745
 30
0.0
 10
596.775220
 20
149.167245
 30
0.0
 10
592.946920
 20
132.588445
 30
0.0
 10
594.223020
 20
119.835585
 30
0.0
 10
599.646420
 20
112.502585
 30
0.0
 10
603.474720
 20
122.067285
 30
0.0
 10
603.746520
 20
126.627345
 30
0.0
  0
SPLINE
  5
2a9
100
AcDbEntity
  8
0
 62
1
100
AcDbSpline
 70
8
 71
3
 72
8
 73
4
 74
0
 40
0
 40
0
 40
0
 40
0
 40
1
 40
1
 40
1
 40
1
 10
63.926822
 20
200.551305
 30
0.0
 10
63.736660
 20
211.369633
 30
0.0
 10
63.847170
 20
222.191157
 30
0.0
 10
64.258222
 20
233.003345
 30
0.0
  0
LWPOLYLINE
  5
2aa
100
AcDbEntity
  8
0
 62
1
100
AcDbPolyline
 90
7
 70
0
 10
52.259022
 20
168.315735
 30
0.0
 10
55.224722
 20
169.962305
 30
0.0
 10
57.696122
 20
164.693285
 30
0.0
 10
60.167522
 20
164.693285
 30
0.0
 10
65.439822
 20
170.950245
 30
0.0
 10
66.593122
 20
186.757335
 30
0.0
 10
63.926822
 20
200.551305
 30
0.0
  0
SPLINE
  5
2ab
100
AcDbEntity
  8
0
 62
1
100
AcDbSpline
 70
8
 71
3
 72
8
 73
4
 74
0
 40
0
 40
0
 40
0
 40
0
 40
1
 40
1
 40
1
 40
1
 10
59.950622
 20
242.275365
 30
0.0
 10
59.950622
 20
242.275365
 30
0.0
 10
56.398822
 20
244.302715
 30
0.0
 10
56.398822
 20
244.302715
 30
0.0
  0
SPLINE
  5
2ac
100
AcDbEntity
  8
0
 62
1
100
AcDbSpline
 70
8
 71
3
 72
8
 73
4
 74
0
 40
0
 40
0
 40
0
 40
0
 40
1
 40
1
 40
1
 40
1
 10
56.398822
 20
244.302715
 30
0.0
 10
55.541219
 20
232.436326
 30
0.0
 10
55.160912
 20
220.540261
 30
0.0
 10
55.258822
 20
208.643325
 30
0.0
  0
LWPOLYLINE
  5
2ad
100
AcDbEntity
  8
0
 62
1
100
AcDbPolyline
 90
2
 70
0
 10
64.258222
 20
233.003345
 30
0.0
 10
59.950622
 20
242.275365
 30
0.0
  0
SPLINE
  5
2ae
100
AcDbEntity
  8
0
 62
1
100
AcDbSpline
 70
8
 71
3
 72
8
 73
4
 74
0
 40
0
 40
0
 40
0
 40
0
 40
1
 40
1
 40
1
 40
1
 10
46.480922
 20
207.617975
 30
0.0
 10
46.480922
 20
207.617975
 30
0.0
 10
46.936922
 20
226.074275
 30
0.0
 10
46.936922
 20
226.074275
 30
0.0
  0
SPLINE
  5
2af
100
AcDbEntity
  8
0
 62
1
100
AcDbSpline
 70
8
 71
3
 72
8
 73
4
 74
0
 40
0
 40
0
 40
0
 40
0
 40
1
 40
1
 40
1
 40
1
 10
46.936922
 20
226.074275
 30
0.0
 10
47.688751
 20
232.548772
 30
0.0
 10
47.650470
 20
239.090670
 30
0.0
 10
46.822922
 20
245.555925
 30
0.0
  0
LWPOLYLINE
  5
2b0
100
AcDbEntity
  8
0
 62
1
100
AcDbPolyline
 90
4
 70
0
 10
55.258822
 20
208.643325
 30
0.0
 10
52.978922
 20
205.453345
 30
0.0
 10
49.330922
 20
204.883715
 30
0.0
 10
46.480922
 20
207.617975
 30
0.0
  0
SPLINE
  5
2b1
100
AcDbEntity
  8
0
 62
1
100
AcDbSpline
 70
8
 71
3
 72
8
 73
4
 74
0
 40
0
 40
0
 40
0
 40
0
 40
1
 40
1
 40
1
 40
1
 10
39.640922
 20
244.986285
 30
0.0
 10
39.640922
 20
244.986285
 30
0.0
 10
38.615022
 20
236.213845
 30
0.0
 10
38.615022
 20
236.213845
 30
0.0
  0
SPLINE
  5
2b2
100
AcDbEntity
  8
0
 62
1
100
AcDbSpline
 70
8
 71
3
 72
8
 73
4
 74
0
 40
0
 40
0
 40
0
 40
0
 40
1
 40
1
 40
1
 40
1
 10
38.615022
 20
236.213845
 30
0.0
 10
39.280897
 20
226.616044
 30
0.0
 10
39.242795
 20
216.982358
 30
0.0
 10
38.501022
 20
207.390125
 30
0.0
  0
SPLINE
  5
2b3
100
AcDbEntity
  8
0
 62
1
100
AcDbSpline
 70
8
 71
3
 72
8
 73
4
 74
0
 40
0
 40
0
 40
0
 40
0
 40
1
 40
1
 40
1
 40
1
 10
38.501022
 20
207.390125
 30
0.0
 10
38.501022
 20
207.390125
 30
0.0
 10
37.589022
 20
205.339425
 30
0.0
 10
37.589022
 20
205.339425
 30
0.0
  0
SPLINE
  5
2b4
100
AcDbEntity
  8
0
 62
1
100
AcDbSpline
 70
8
 71
3
 72
8
 73
4
 74
0
 40
0
 40
0
 40
0
 40
0
 40
1
 40
1
 40
1
 40
1
 10
37.589022
 20
205.339425
 30
0.0
 10
35.171553
 20
205.061959
 30
0.0
 10
32.729632
 20
205.582039
 30
0.0
 10
30.635022
 20
206.820485
 30
0.0
  0
SPLINE
  5
2b5
100
AcDbEntity
  8
0
 62
1
100
AcDbSpline
 70
8
 71
3
 72
8
 73
4
 74
0
 40
0
 40
0
 40
0
 40
0
 40
1
 40
1
 40
1
 40
1
 10
30.635022
 20
206.820485
 30
0.0
 10
30.275101
 20
216.955939
 30
0.0
 10
30.199071
 20
227.099485
 30
0.0
 10
30.407022
 20
237.239195
 30
0.0
  0
LWPOLYLINE
  5
2b6
100
AcDbEntity
  8
0
 62
1
100
AcDbPolyline
 90
3
 70
0
 10
46.822922
 20
245.555925
 30
0.0
 10
42.946922
 20
247.606615
 30
0.0
 10
39.640922
 20
244.986285
 30
0.0
  0
SPLINE
  5
2b7
100
AcDbEntity
  8
0
 62
1
100
AcDbSpline
 70
8
 71
3
 72
8
 73
4
 74
0
 40
0
 40
0
 40
0
 40
0
 40
1
 40
1
 40
1
 40
1
 10
20.611122
 20
211.711085
 30
0.0
 10
20.611122
 20
211.711085
 30
0.0
 10
23.945422
 20
203.229175
 30
0.0
 10
23.945422
 20
203.229175
 30
0.0
  0
SPLINE
  5
2b8
100
AcDbEntity
  8
0
 62
1
100
AcDbSpline
 70
8
 71
3
 72
8
 73
4
 74
0
 40
0
 40
0
 40
0
 40
0
 40
1
 40
1
 40
1
 40
1
 10
23.945422
 20
203.229175
 30
0.0
 10
21.764240
 20
194.944797
 30
0.0
 10
18.696315
 20
186.919703
 30
0.0
 10
14.794822
 20
179.292985
 30
0.0
  0
LWPOLYLINE
  5
2b9
100
AcDbEntity
  8
0
 62
1
100
AcDbPolyline
 90
5
 70
0
 10
30.407022
 20
237.239195
 30
0.0
 10
28.787022
 20
242.823665
 30
0.0
 10
23.945422
 20
237.156825
 30
0.0
 10
20.308022
 20
222.313475
 30
0.0
 10
20.611122
 20
211.711085
 30
0.0
  0
SPLINE
  5
2ba
100
AcDbEntity
  8
0
 62
1
100
AcDbSpline
 70
8
 71
3
 72
8
 73
4
 74
0
 40
0
 40
0
 40
0
 40
0
 40
1
 40
1
 40
1
 40
1
 10
24.468622
 20
169.476515
 30
0.0
 10
24.468622
 20
169.476515
 30
0.0
 10
28.189322
 20
169.030315
 30
0.0
 10
28.189322
 20
169.030315
 30
0.0
  0
SPLINE
  5
2bb
100
AcDbEntity
  8
0
 62
1
100
AcDbSpline
 70
8
 71
3
 72
8
 73
4
 74
0
 40
0
 40
0
 40
0
 40
0
 40
1
 40
1
 40
1
 40
1
 10
28.189322
 20
169.030315
 30
0.0
 10
27.137596
 20
164.380960
 30
0.0
 10
27.447626
 20
159.527042
 30
0.0
 10
29.082322
 20
155.049275
 30
0.0
  0
LWPOLYLINE
  5
2bc
100
AcDbEntity
  8
0
 62
1
100
AcDbPolyline
 90
5
 70
0
 10
14.794822
 20
179.292985
 30
0.0
 10
15.241322
 20
169.773975
 30
0.0
 10
18.962022
 20
161.742325
 30
0.0
 10
22.533922
 20
164.270805
 30
0.0
 10
24.468622
 20
169.476515
 30
0.0
  0
SPLINE
  5
2bd
100
AcDbEntity
  8
0
 62
1
100
AcDbSpline
 70
8
 71
3
 72
8
 73
4
 74
0
 40
0
 40
0
 40
0
 40
0
 40
1
 40
1
 40
1
 40
1
 10
189.848420
 20
354.133405
 30
0.0
 10
189.848420
 20
354.133405
 30
0.0
 10
184.040950
 20
341.516355
 30
0.0
 10
184.040950
 20
341.516355
 30
0.0
  0
SPLINE
  5
2be
100
AcDbEntity
  8
0
 62
1
100
AcDbSpline
 70
8
 71
3
 72
8
 73
4
 74
0
 40
0
 40
0
 40
0
 40
0
 40
1
 40
1
 40
1
 40
1
 10
184.040950
 20
341.516355
 30
0.0
 10
182.119339
 20
338.383254
 30
0.0
 10
179.578088
 20
335.675619
 30
0.0
 10
176.572980
 20
333.559435
 30
0.0
  0
LWPOLYLINE
  5
2bf
100
AcDbEntity
  8
0
 62
1
100
AcDbPolyline
 90
7
 70
0
 10
29.082322
 20
155.049275
 30
0.0
 10
33.398322
 20
156.685355
 30
0.0
 10
37.421122
 20
168.383165
 30
0.0
 10
42.140022
 20
167.597175
 30
0.0
 10
42.795422
 20
158.558305
 30
0.0
 10
45.023722
 20
156.331335
 30
0.0
 10
49.742622
 20
157.117325
 30
0.0
  0
SPLINE
  5
2c0
100
AcDbEntity
  8
0
 62
1
100
AcDbSpline
 70
8
 71
3
 72
8
 73
4
 74
0
 40
0
 40
0
 40
0
 40
0
 40
1
 40
1
 40
1
 40
1
 10
166.745750
 20
338.360815
 30
0.0
 10
166.745750
 20
338.360815
 30
0.0
 10
165.653780
 20
351.564705
 30
0.0
 10
165.653780
 20
351.564705
 30
0.0
  0
SPLINE
  5
2c1
100
AcDbEntity
  8
0
 62
1
100
AcDbSpline
 70
8
 71
3
 72
8
 73
4
 74
0
 40
0
 40
0
 40
0
 40
0
 40
1
 40
1
 40
1
 40
1
 10
165.653780
 20
351.564705
 30
0.0
 10
166.514119
 20
355.984273
 30
0.0
 10
168.477533
 20
360.114702
 30
0.0
 10
171.361620
 20
363.572275
 30
0.0
  0
LWPOLYLINE
  5
2c2
100
AcDbEntity
  8
0
 62
1
100
AcDbPolyline
 90
3
 70
0
 10
176.572980
 20
333.559435
 30
0.0
 10
172.532850
 20
332.904695
 30
0.0
 10
166.745750
 20
338.360815
 30
0.0
  0
SPLINE
  5
2c3
100
AcDbEntity
  8
0
 62
1
100
AcDbSpline
 70
8
 71
3
 72
8
 73
4
 74
0
 40
0
 40
0
 40
0
 40
0
 40
1
 40
1
 40
1
 40
1
 10
184.115140
 20
361.651685
 30
0.0
 10
184.115140
 20
361.651685
 30
0.0
 10
176.253360
 20
371.079905
 30
0.0
 10
176.253360
 20
371.079905
 30
0.0
  0
SPLINE
  5
2c4
100
AcDbEntity
  8
0
 62
1
100
AcDbSpline
 70
8
 71
3
 72
8
 73
4
 74
0
 40
0
 40
0
 40
0
 40
0
 40
1
 40
1
 40
1
 40
1
 10
176.253360
 20
371.079905
 30
0.0
 10
180.141571
 20
375.718005
 30
0.0
 10
185.212623
 20
379.217266
 30
0.0
 10
190.928650
 20
381.206535
 30
0.0
  0
LWPOLYLINE
  5
2c5
100
AcDbEntity
  8
0
 62
1
100
AcDbPolyline
 90
3
 70
0
 10
171.361620
 20
363.572275
 30
0.0
 10
178.524570
 20
356.239175
 30
0.0
 10
184.115140
 20
361.651685
 30
0.0
  0
SPLINE
  5
2c6
100
AcDbEntity
  8
0
 62
1
100
AcDbSpline
 70
8
 71
3
 72
8
 73
4
 74
0
 40
0
 40
0
 40
0
 40
0
 40
1
 40
1
 40
1
 40
1
 10
226.878270
 20
389.546145
 30
0.0
 10
226.878270
 20
389.546145
 30
0.0
 10
235.649040
 20
393.083015
 30
0.0
 10
235.649040
 20
393.083015
 30
0.0
  0
SPLINE
  5
2c7
100
AcDbEntity
  8
0
 62
1
100
AcDbSpline
 70
8
 71
3
 72
8
 73
4
 74
0
 40
0
 40
0
 40
0
 40
0
 40
1
 40
1
 40
1
 40
1
 10
235.649040
 20
393.083015
 30
0.0
 10
240.313565
 20
397.123963
 30
0.0
 10
244.684360
 20
401.492001
 30
0.0
 10
248.728250
 20
406.153975
 30
0.0
  0
LWPOLYLINE
  5
2c8
100
AcDbEntity
  8
0
 62
1
100
AcDbPolyline
 90
8
 70
0
 10
190.928650
 20
381.206535
 30
0.0
 10
196.519290
 20
368.635545
 30
0.0
 10
203.507520
 20
374.048055
 30
0.0
 10
198.790440
 20
385.047625
 30
0.0
 10
213.815180
 20
386.269805
 30
0.0
 10
217.030440
 20
374.014725
 30
0.0
 10
226.416690
 20
374.783605
 30
0.0
 10
226.878270
 20
389.546145
 30
0.0
  0
SPLINE
  5
2c9
100
AcDbEntity
  8
0
 62
1
100
AcDbSpline
 70
8
 71
3
 72
8
 73
4
 74
0
 40
0
 40
0
 40
0
 40
0
 40
1
 40
1
 40
1
 40
1
 10
261.038070
 20
390.007485
 30
0.0
 10
261.038070
 20
390.007485
 30
0.0
 10
279.964410
 20
390.161265
 30
0.0
 10
279.964410
 20
390.161265
 30
0.0
  0
SPLINE
  5
2ca
100
AcDbEntity
  8
0
 62
1
100
AcDbSpline
 70
8
 71
3
 72
8
 73
4
 74
0
 40
0
 40
0
 40
0
 40
0
 40
1
 40
1
 40
1
 40
1
 10
279.964410
 20
390.161265
 30
0.0
 10
277.792338
 20
385.321037
 30
0.0
 10
275.378116
 20
380.593158
 30
0.0
 10
272.730900
 20
375.995555
 30
0.0
  0
LWPOLYLINE
  5
2cb
100
AcDbEntity
  8
0
 62
1
100
AcDbPolyline
 90
8
 70
0
 10
248.728250
 20
406.153975
 30
0.0
 10
257.960590
 20
411.228605
 30
0.0
 10
264.115470
 20
411.843715
 30
0.0
 10
273.347890
 20
407.230405
 30
0.0
 10
277.644210
 20
398.029745
 30
0.0
 10
258.576080
 20
398.003845
 30
0.0
 10
257.652860
 20
394.774535
 30
0.0
 10
261.038070
 20
390.007485
 30
0.0
  0
SPLINE
  5
2cc
100
AcDbEntity
  8
0
 62
1
100
AcDbSpline
 70
8
 71
3
 72
8
 73
4
 74
0
 40
0
 40
0
 40
0
 40
0
 40
1
 40
1
 40
1
 40
1
 10
267.618020
 20
362.712995
 30
0.0
 10
260.661152
 20
357.575828
 30
0.0
 10
251.844087
 20
355.648289
 30
0.0
 10
243.378190
 20
357.413815
 30
0.0
  0
LWPOLYLINE
  5
2cd
100
AcDbEntity
  8
0
 62
1
100
AcDbPolyline
 90
5
 70
0
 10
272.730900
 20
375.995555
 30
0.0
 10
256.154890
 20
377.075935
 30
0.0
 10
256.875590
 20
368.793145
 30
0.0
 10
268.767070
 20
367.712775
 30
0.0
 10
267.618020
 20
362.712995
 30
0.0
  0
LWPOLYLINE
  5
2ce
100
AcDbEntity
  8
0
 62
1
100
AcDbPolyline
 90
6
 70
0
 10
243.378190
 20
357.413815
 30
0.0
 10
229.238210
 20
362.712995
 30
0.0
 10
216.108280
 20
364.731695
 30
0.0
 10
203.988320
 20
363.217665
 30
0.0
 10
189.848420
 20
354.133415
 30
0.0
 10
189.848420
 20
354.133405
 30
0.0
  0
SPLINE
  5
2cf
100
AcDbEntity
  8
0
 62
1
100
AcDbSpline
 70
8
 71
3
 72
8
 73
4
 74
0
 40
0
 40
0
 40
0
 40
0
 40
1
 40
1
 40
1
 40
1
 10
563.074740
 20
499.890335
 30
0.0
 10
563.074740
 20
499.890335
 30
0.0
 10
565.617280
 20
497.215565
 30
0.0
 10
565.617280
 20
497.215565
 30
0.0
  0
SPLINE
  5
2d0
100
AcDbEntity
  8
0
 62
1
100
AcDbSpline
 70
8
 71
3
 72
8
 73
4
 74
0
 40
0
 40
0
 40
0
 40
0
 40
1
 40
1
 40
1
 40
1
 10
565.617280
 20
497.215565
 30
0.0
 10
569.299327
 20
496.551754
 30
0.0
 10
573.090441
 20
497.474655
 30
0.0
 10
576.055380
 20
499.756595
 30
0.0
  0
LWPOLYLINE
  5
2d1
100
AcDbEntity
  8
0
 62
1
100
AcDbPolyline
 90
2
 70
0
 10
563.208510
 20
519.014815
 30
0.0
 10
563.074740
 20
499.890335
 30
0.0
  0
SPLINE
  5
2d2
100
AcDbEntity
  8
0
 62
1
100
AcDbSpline
 70
8
 71
3
 72
8
 73
4
 74
0
 40
0
 40
0
 40
0
 40
0
 40
1
 40
1
 40
1
 40
1
 10
591.846330
 20
501.227695
 30
0.0
 10
600.762321
 20
509.118915
 30
0.0
 10
609.340114
 20
517.384194
 30
0.0
 10
617.556650
 20
526.001315
 30
0.0
  0
SPLINE
  5
2d3
100
AcDbEntity
  8
0
 62
1
100
AcDbSpline
 70
8
 71
3
 72
8
 73
4
 74
0
 40
0
 40
0
 40
0
 40
0
 40
1
 40
1
 40
1
 40
1
 10
617.556650
 20
526.001315
 30
0.0
 10
624.772684
 20
534.609381
 30
0.0
 10
630.803617
 20
544.144913
 30
0.0
 10
635.488690
 20
554.353735
 30
0.0
  0
SPLINE
  5
2d4
100
AcDbEntity
  8
0
 62
1
100
AcDbSpline
 70
8
 71
3
 72
8
 73
4
 74
0
 40
0
 40
0
 40
0
 40
0
 40
1
 40
1
 40
1
 40
1
 10
635.488690
 20
554.353735
 30
0.0
 10
635.488690
 20
554.353735
 30
0.0
 10
640.716930
 20
569.913555
 30
0.0
 10
640.716930
 20
569.913555
 30
0.0
  0
SPLINE
  5
2d5
100
AcDbEntity
  8
0
 62
1
100
AcDbSpline
 70
8
 71
3
 72
8
 73
4
 74
0
 40
0
 40
0
 40
0
 40
0
 40
1
 40
1
 40
1
 40
1
 10
640.716930
 20
569.913555
 30
0.0
 10
643.255383
 20
581.799094
 30
0.0
 10
643.437255
 20
594.067202
 30
0.0
 10
641.252240
 20
606.022765
 30
0.0
  0
SPLINE
  5
2d6
100
AcDbEntity
  8
0
 62
1
100
AcDbSpline
 70
8
 71
3
 72
8
 73
4
 74
0
 40
0
 40
0
 40
0
 40
0
 40
1
 40
1
 40
1
 40
1
 10
641.252240
 20
606.022765
 30
0.0
 10
641.252240
 20
606.022765
 30
0.0
 10
635.765540
 20
620.733945
 30
0.0
 10
635.765540
 20
620.733945
 30
0.0
  0
SPLINE
  5
2d7
100
AcDbEntity
  8
0
 62
1
100
AcDbSpline
 70
8
 71
3
 72
8
 73
4
 74
0
 40
0
 40
0
 40
0
 40
0
 40
1
 40
1
 40
1
 40
1
 10
635.765540
 20
620.733945
 30
0.0
 10
630.659286
 20
630.337801
 30
0.0
 10
624.365496
 20
639.261358
 30
0.0
 10
617.032320
 20
647.294565
 30
0.0
  0
LWPOLYLINE
  5
2d8
100
AcDbEntity
  8
0
 62
1
100
AcDbPolyline
 90
5
 70
0
 10
576.055380
 20
499.756595
 30
0.0
 10
575.252450
 20
518.479865
 30
0.0
 10
584.084700
 20
518.479865
 30
0.0
 10
584.084700
 20
499.890335
 30
0.0
 10
591.846330
 20
501.227695
 30
0.0
  0
SPLINE
  5
2d9
100
AcDbEntity
  8
0
 62
1
100
AcDbSpline
 70
8
 71
3
 72
8
 73
4
 74
0
 40
0
 40
0
 40
0
 40
0
 40
1
 40
1
 40
1
 40
1
 10
564.172830
 20
670.163745
 30
0.0
 10
558.637425
 20
668.758869
 30
0.0
 10
553.181942
 20
667.056036
 30
0.0
 10
547.830220
 20
665.062685
 30
0.0
  0
LWPOLYLINE
  5
2da
100
AcDbEntity
  8
0
 62
1
100
AcDbPolyline
 90
7
 70
0
 10
617.032320
 20
647.294565
 30
0.0
 10
599.635520
 20
661.337055
 30
0.0
 10
589.197420
 20
666.954025
 30
0.0
 10
575.547630
 20
670.431215
 30
0.0
 10
575.012390
 20
641.008915
 30
0.0
 10
564.306600
 20
640.741435
 30
0.0
 10
564.172830
 20
670.163745
 30
0.0
  0
SPLINE
  5
2db
100
AcDbEntity
  8
0
 62
1
100
AcDbSpline
 70
8
 71
3
 72
8
 73
4
 74
0
 40
0
 40
0
 40
0
 40
0
 40
1
 40
1
 40
1
 40
1
 10
495.319730
 20
590.816565
 30
0.0
 10
495.319730
 20
590.816565
 30
0.0
 10
497.653480
 20
571.380395
 30
0.0
 10
497.653480
 20
571.380395
 30
0.0
  0
SPLINE
  5
2dc
100
AcDbEntity
  8
0
 62
1
100
AcDbSpline
 70
8
 71
3
 72
8
 73
4
 74
0
 40
0
 40
0
 40
0
 40
0
 40
1
 40
1
 40
1
 40
1
 10
497.653480
 20
571.380395
 30
0.0
 10
500.532727
 20
562.105440
 30
0.0
 10
504.019923
 20
553.030260
 30
0.0
 10
508.092410
 20
544.213815
 30
0.0
  0
SPLINE
  5
2dd
100
AcDbEntity
  8
0
 62
1
100
AcDbSpline
 70
8
 71
3
 72
8
 73
4
 74
0
 40
0
 40
0
 40
0
 40
0
 40
1
 40
1
 40
1
 40
1
 10
508.092410
 20
544.213815
 30
0.0
 10
514.442049
 20
533.355296
 30
0.0
 10
522.272763
 20
523.433826
 30
0.0
 10
531.358980
 20
514.735205
 30
0.0
  0
SPLINE
  5
2de
100
AcDbEntity
  8
0
 62
1
100
AcDbSpline
 70
8
 71
3
 72
8
 73
4
 74
0
 40
0
 40
0
 40
0
 40
0
 40
1
 40
1
 40
1
 40
1
 10
531.358980
 20
514.735205
 30
0.0
 10
538.115060
 20
508.883808
 30
0.0
 10
545.992231
 20
504.469895
 30
0.0
 10
554.510110
 20
501.762645
 30
0.0
  0
LWPOLYLINE
  5
2df
100
AcDbEntity
  8
0
 62
1
100
AcDbPolyline
 90
6
 70
0
 10
547.830220
 20
665.062685
 30
0.0
 10
531.104690
 20
656.510775
 30
0.0
 10
520.602550
 20
645.626515
 30
0.0
 10
508.155630
 20
628.911425
 30
0.0
 10
500.765250
 20
615.306125
 30
0.0
 10
495.319730
 20
590.816565
 30
0.0
  0
SPLINE
  5
2e0
100
AcDbEntity
  8
0
 62
1
100
AcDbSpline
 70
8
 71
3
 72
8
 73
4
 74
0
 40
0
 40
0
 40
0
 40
0
 40
1
 40
1
 40
1
 40
1
 10
664.251960
 20
115.885785
 30
0.0
 10
663.685933
 20
120.822611
 30
0.0
 10
663.894141
 20
125.817542
 30
0.0
 10
664.869060
 20
130.690135
 30
0.0
  0
LWPOLYLINE
  5
2e1
100
AcDbEntity
  8
0
 62
1
100
AcDbPolyline
 90
3
 70
0
 10
554.510110
 20
501.762645
 30
0.0
 10
554.643950
 20
519.014815
 30
0.0
 10
563.208510
 20
519.014815
 30
0.0
  0
SPLINE
  5
2e2
100
AcDbEntity
  8
0
 62
1
100
AcDbSpline
 70
8
 71
3
 72
8
 73
4
 74
0
 40
0
 40
0
 40
0
 40
0
 40
1
 40
1
 40
1
 40
1
 10
657.489660
 20
123.817435
 30
0.0
 10
656.936277
 20
121.005428
 30
0.0
 10
654.664340
 20
118.851384
 30
0.0
 10
651.826860
 20
118.448485
 30
0.0
  0
SPLINE
  5
2e3
100
AcDbEntity
  8
0
 62
1
100
AcDbSpline
 70
8
 71
3
 72
8
 73
4
 74
0
 40
0
 40
0
 40
0
 40
0
 40
1
 40
1
 40
1
 40
1
 10
651.826860
 20
118.448485
 30
0.0
 10
651.826860
 20
118.448485
 30
0.0
 10
647.761260
 20
124.397835
 30
0.0
 10
647.761260
 20
124.397835
 30
0.0
  0
SPLINE
  5
2e4
100
AcDbEntity
  8
0
 62
1
100
AcDbSpline
 70
8
 71
3
 72
8
 73
4
 74
0
 40
0
 40
0
 40
0
 40
0
 40
1
 40
1
 40
1
 40
1
 10
647.761260
 20
124.397835
 30
0.0
 10
647.492386
 20
131.169497
 30
0.0
 10
647.719158
 20
137.951757
 30
0.0
 10
648.439760
 20
144.690335
 30
0.0
  0
LWPOLYLINE
  5
2e5
100
AcDbEntity
  8
0
 62
1
100
AcDbPolyline
 90
4
 70
0
 10
664.869060
 20
130.690135
 30
0.0
 10
663.220460
 20
133.573335
 30
0.0
 10
659.820260
 20
131.513935
 30
0.0
 10
657.489660
 20
123.817435
 30
0.0
  0
SPLINE
  5
2e6
100
AcDbEntity
  8
0
 62
1
100
AcDbSpline
 70
8
 71
3
 72
8
 73
4
 74
0
 40
0
 40
0
 40
0
 40
0
 40
1
 40
1
 40
1
 40
1
 10
669.802760
 20
157.299535
 30
0.0
 10
669.802760
 20
157.299535
 30
0.0
 10
674.534260
 20
156.009935
 30
0.0
 10
674.534260
 20
156.009935
 30
0.0
  0
SPLINE
  5
2e7
100
AcDbEntity
  8
0
 62
1
100
AcDbSpline
 70
8
 71
3
 72
8
 73
4
 74
0
 40
0
 40
0
 40
0
 40
0
 40
1
 40
1
 40
1
 40
1
 10
674.534260
 20
156.009935
 30
0.0
 10
682.769197
 20
150.423970
 30
0.0
 10
688.282631
 20
141.639146
 30
0.0
 10
689.732060
 20
131.794535
 30
0.0
  0
LWPOLYLINE
  5
2e8
100
AcDbEntity
  8
0
 62
1
100
AcDbPolyline
 90
4
 70
0
 10
648.439760
 20
144.690335
 30
0.0
 10
652.454260
 20
153.287535
 30
0.0
 10
659.192960
 20
157.299535
 30
0.0
 10
669.802760
 20
157.299535
 30
0.0
  0
SPLINE
  5
2e9
100
AcDbEntity
  8
0
 62
1
100
AcDbSpline
 70
8
 71
3
 72
8
 73
4
 74
0
 40
0
 40
0
 40
0
 40
0
 40
1
 40
1
 40
1
 40
1
 10
676.146860
 20
136.112935
 30
0.0
 10
676.146860
 20
136.112935
 30
0.0
 10
672.954660
 20
133.521035
 30
0.0
 10
672.954660
 20
133.521035
 30
0.0
  0
SPLINE
  5
2ea
100
AcDbEntity
  8
0
 62
1
100
AcDbSpline
 70
8
 71
3
 72
8
 73
4
 74
0
 40
0
 40
0
 40
0
 40
0
 40
1
 40
1
 40
1
 40
1
 10
672.954660
 20
133.521035
 30
0.0
 10
671.649516
 20
128.032836
 30
0.0
 10
671.446089
 20
122.340245
 30
0.0
 10
672.356160
 20
116.772885
 30
0.0
  0
LWPOLYLINE
  5
2eb
100
AcDbEntity
  8
0
 62
1
100
AcDbPolyline
 90
6
 70
0
 10
689.732060
 20
131.794535
 30
0.0
 10
688.728460
 20
123.340735
 30
0.0
 10
684.283760
 20
118.039185
 30
0.0
 10
679.338960
 20
119.364785
 30
0.0
 10
678.341460
 20
133.321635
 30
0.0
 10
676.146860
 20
136.112935
 30
0.0
  0
SPLINE
  5
2ec
100
AcDbEntity
  8
0
 62
1
100
AcDbSpline
 70
8
 71
3
 72
8
 73
4
 74
0
 40
0
 40
0
 40
0
 40
0
 40
1
 40
1
 40
1
 40
1
 10
537.517190
 20
922.817025
 30
0.0
 10
543.872887
 20
922.817022
 30
0.0
 10
549.025197
 20
917.664712
 30
0.0
 10
549.025200
 20
911.309015
 30
0.0
  0
SPLINE
  5
2ed
100
AcDbEntity
  8
0
 62
1
100
AcDbSpline
 70
8
 71
3
 72
8
 73
4
 74
0
 40
0
 40
0
 40
0
 40
0
 40
1
 40
1
 40
1
 40
1
 10
549.025200
 20
911.309015
 30
0.0
 10
549.025203
 20
904.953314
 30
0.0
 10
543.872891
 20
899.800998
 30
0.0
 10
537.517190
 20
899.800995
 30
0.0
  0
SPLINE
  5
2ee
100
AcDbEntity
  8
0
 62
1
100
AcDbSpline
 70
8
 71
3
 72
8
 73
4
 74
0
 40
0
 40
0
 40
0
 40
0
 40
1
 40
1
 40
1
 40
1
 10
537.517190
 20
899.800995
 30
0.0
 10
534.465073
 20
899.800994
 30
0.0
 10
531.537962
 20
901.013442
 30
0.0
 10
529.379790
 20
903.171615
 30
0.0
  0
SPLINE
  5
2ef
100
AcDbEntity
  8
0
 62
1
100
AcDbSpline
 70
8
 71
3
 72
8
 73
4
 74
0
 40
0
 40
0
 40
0
 40
0
 40
1
 40
1
 40
1
 40
1
 10
529.379790
 20
903.171615
 30
0.0
 10
527.221617
 20
905.329787
 30
0.0
 10
526.009169
 20
908.256898
 30
0.0
 10
526.009170
 20
911.309015
 30
0.0
  0
SPLINE
  5
2f0
100
AcDbEntity
  8
0
 62
1
100
AcDbSpline
 70
8
 71
3
 72
8
 73
4
 74
0
 40
0
 40
0
 40
0
 40
0
 40
1
 40
1
 40
1
 40
1
 10
526.009170
 20
911.309015
 30
0.0
 10
526.009171
 20
914.361130
 30
0.0
 10
527.221621
 20
917.288239
 30
0.0
 10
529.379793
 20
919.446409
 30
0.0
  0
SPLINE
  5
2f1
100
AcDbEntity
  8
0
 62
1
100
AcDbSpline
 70
8
 71
3
 72
8
 73
4
 74
0
 40
0
 40
0
 40
0
 40
0
 40
1
 40
1
 40
1
 40
1
 10
529.379793
 20
919.446409
 30
0.0
 10
531.537965
 20
921.604580
 30
0.0
 10
534.465075
 20
922.817026
 30
0.0
 10
537.517190
 20
922.817025
 30
0.0
  0
LWPOLYLINE
  5
2f2
100
AcDbEntity
  8
0
 62
1
100
AcDbPolyline
 90
3
 70
0
 10
672.356160
 20
116.772885
 30
0.0
 10
667.567960
 20
114.579585
 30
0.0
 10
664.251960
 20
115.885785
 30
0.0
  0
LWPOLYLINE
  5
2f3
100
AcDbEntity
  8
0
 62
1
100
AcDbPolyline
 90
1
 70
1
 10
537.517190
 20
922.817025
 30
0.0
  0
SPLINE
  5
2f4
100
AcDbEntity
  8
0
 62
1
100
AcDbSpline
 70
8
 71
3
 72
8
 73
4
 74
0
 40
0
 40
0
 40
0
 40
0
 40
1
 40
1
 40
1
 40
1
 10
254.404890
 20
526.800995
 30
0.0
 10
249.494357
 20
522.356376
 30
0.0
 10
245.901157
 20
516.646540
 30
0.0
 10
244.018570
 20
510.296435
 30
0.0
  0
LWPOLYLINE
  5
2f5
100
AcDbEntity
  8
0
 62
1
100
AcDbPolyline
 90
4
 70
0
 10
261.319380
 20
532.329095
 30
0.0
 10
261.088860
 20
554.671805
 30
0.0
 10
253.022060
 20
554.671805
 30
0.0
 10
254.404890
 20
526.800995
 30
0.0
  0
SPLINE
  5
2f6
100
AcDbEntity
  8
0
 62
1
100
AcDbSpline
 70
8
 71
3
 72
8
 73
4
 74
0
 40
0
 40
0
 40
0
 40
0
 40
1
 40
1
 40
1
 40
1
 10
246.441050
 20
486.570735
 30
0.0
 10
246.441050
 20
486.570735
 30
0.0
 10
254.839130
 20
478.662175
 30
0.0
 10
254.839130
 20
478.662175
 30
0.0
  0
SPLINE
  5
2f7
100
AcDbEntity
  8
0
 62
1
100
AcDbSpline
 70
8
 71
3
 72
8
 73
4
 74
0
 40
0
 40
0
 40
0
 40
0
 40
1
 40
1
 40
1
 40
1
 10
254.839130
 20
478.662175
 30
0.0
 10
261.095699
 20
475.786432
 30
0.0
 10
268.049331
 20
474.777653
 30
0.0
 10
274.865160
 20
475.756955
 30
0.0
  0
LWPOLYLINE
  5
2f8
100
AcDbEntity
  8
0
 62
1
100
AcDbPolyline
 90
3
 70
0
 10
244.018570
 20
510.296435
 30
0.0
 10
243.372580
 20
497.384475
 30
0.0
 10
246.441050
 20
486.570735
 30
0.0
  0
SPLINE
  5
2f9
100
AcDbEntity
  8
0
 62
1
100
AcDbSpline
 70
8
 71
3
 72
8
 73
4
 74
0
 40
0
 40
0
 40
0
 40
0
 40
1
 40
1
 40
1
 40
1
 10
291.015260
 20
509.489435
 30
0.0
 10
287.892053
 20
515.242916
 30
0.0
 10
284.496686
 20
520.844435
 30
0.0
 10
280.840690
 20
526.274965
 30
0.0
  0
LWPOLYLINE
  5
2fa
100
AcDbEntity
  8
0
 62
1
100
AcDbPolyline
 90
4
 70
0
 10
274.865160
 20
475.756955
 30
0.0
 10
283.263240
 20
481.083165
 30
0.0
 10
290.530750
 20
495.124895
 30
0.0
 10
291.015260
 20
509.489435
 30
0.0
  0
LWPOLYLINE
  5
2fb
100
AcDbEntity
  8
0
 62
1
100
AcDbPolyline
 90
5
 70
0
 10
280.840690
 20
526.274965
 30
0.0
 10
281.002160
 20
555.004055
 30
0.0
 10
274.865160
 20
554.358475
 30
0.0
 10
272.927190
 20
532.085355
 30
0.0
 10
261.319380
 20
532.329095
 30
0.0
  0
LWPOLYLINE
  5
2fc
100
AcDbEntity
  8
0
 62
1
100
AcDbPolyline
 90
43
 70
1
 10
273.083900
 20
579.046745
 30
0.0
 10
270.749770
 20
563.651145
 30
0.0
 10
262.580320
 20
563.884405
 30
0.0
 10
263.280590
 20
578.346945
 30
0.0
 10
243.907290
 20
573.914885
 30
0.0
 10
225.467650
 20
563.884405
 30
0.0
 10
210.529210
 20
548.722095
 30
0.0
 10
196.524430
 20
518.630665
 30
0.0
 10
196.057640
 20
498.569755
 30
0.0
 10
211.229480
 20
530.294015
 30
0.0
 10
219.398930
 20
526.095205
 30
0.0
 10
202.593160
 20
489.938885
 30
0.0
 10
205.394610
 20
476.359815
 30
0.0
 10
212.630390
 20
485.923745
 30
0.0
 10
228.502500
 20
523.712975
 30
0.0
 10
234.571220
 20
519.047615
 30
0.0
 10
214.497730
 20
467.262445
 30
0.0
 10
234.337140
 20
440.805995
 30
0.0
 10
245.589670
 20
433.221805
 30
0.0
 10
252.131850
 20
433.744865
 30
0.0
 10
253.178620
 20
457.281965
 30
0.0
 10
262.075970
 20
454.666715
 30
0.0
 10
261.814340
 20
429.560475
 30
0.0
 10
273.066870
 20
430.345025
 30
0.0
 10
273.590220
 20
455.451305
 30
0.0
 10
282.487640
 20
454.666715
 30
0.0
 10
281.964220
 20
435.052475
 30
0.0
 10
291.100270
 20
433.135985
 30
0.0
 10
317.688470
 20
462.822795
 30
0.0
 10
318.972040
 20
467.037615
 30
0.0
 10
301.562670
 20
519.152155
 30
0.0
 10
308.163900
 20
523.366945
 30
0.0
 10
324.300140
 20
478.836755
 30
0.0
 10
326.867290
 20
475.354945
 30
0.0
 10
331.818230
 20
486.899815
 30
0.0
 10
317.882340
 20
525.565965
 30
0.0
 10
322.283140
 20
528.681265
 30
0.0
 10
335.852310
 20
498.627945
 30
0.0
 10
337.685950
 20
517.502905
 30
0.0
 10
331.451440
 20
534.178795
 30
0.0
 10
322.283140
 20
549.022225
 30
0.0
 10
304.860980
 20
565.961735
 30
0.0
 10
286.524300
 20
574.757825
 30
0.0
  0
LWPOLYLINE
  5
2fd
100
AcDbEntity
  8
0
 62
1
100
AcDbPolyline
 90
46
 70
1
 10
278.033160
 20
662.941975
 30
0.0
 10
278.033160
 20
605.888225
 30
0.0
 10
268.069460
 20
605.080865
 30
0.0
 10
268.607960
 20
664.825815
 30
0.0
 10
259.182860
 20
663.480215
 30
0.0
 10
257.567160
 20
609.117695
 30
0.0
 10
247.064860
 20
609.655935
 30
0.0
 10
222.828760
 20
630.916505
 30
0.0
 10
237.639660
 20
668.862605
 30
0.0
 10
236.562460
 20
678.820115
 30
0.0
 10
232.253860
 20
679.896595
 30
0.0
 10
217.981460
 20
639.259295
 30
0.0
 10
214.045460
 20
638.101805
 30
0.0
 10
208.888860
 20
649.069165
 30
0.0
 10
223.571060
 20
679.842935
 30
0.0
 10
219.316560
 20
684.892025
 30
0.0
 10
207.084760
 20
661.241035
 30
0.0
 10
204.059660
 20
661.842885
 30
0.0
 10
203.994660
 20
683.723175
 30
0.0
 10
208.381460
 20
696.040225
 30
0.0
 10
220.288460
 20
707.939725
 30
0.0
 10
225.719660
 20
710.236135
 30
0.0
 10
242.013460
 20
709.609865
 30
0.0
 10
253.920460
 20
713.367585
 30
0.0
 10
260.170160
 20
716.883125
 30
0.0
 10
284.502360
 20
718.206515
 30
0.0
 10
296.878660
 20
714.702135
 30
0.0
 10
302.447960
 20
709.342435
 30
0.0
 10
325.344060
 20
710.579275
 30
0.0
 10
336.482760
 20
700.684505
 30
0.0
 10
343.702160
 20
689.346695
 30
0.0
 10
344.308560
 20
662.218435
 30
0.0
 10
341.220060
 20
660.402835
 30
0.0
 10
330.319760
 20
684.731825
 30
0.0
 10
324.687860
 20
680.737525
 30
0.0
 10
338.204360
 20
648.785895
 30
0.0
 10
330.501360
 20
638.252575
 30
0.0
 10
316.512560
 20
679.103485
 30
0.0
 10
309.427260
 20
676.016985
 30
0.0
 10
319.964360
 20
638.978805
 30
0.0
 10
323.416160
 20
628.993025
 30
0.0
 10
317.965960
 20
622.638455
 30
0.0
 10
301.796960
 20
610.837075
 30
0.0
 10
289.624860
 20
609.566135
 30
0.0
 10
288.534860
 20
663.670905
 30
0.0
 10
278.032860
 20
662.941975
 30
0.0
  0
SPLINE
  5
2fe
100
AcDbEntity
  8
0
 62
1
100
AcDbSpline
 70
8
 71
3
 72
8
 73
4
 74
0
 40
0
 40
0
 40
0
 40
0
 40
1
 40
1
 40
1
 40
1
 10
723.015570
 20
482.118635
 30
0.0
 10
724.457297
 20
473.282058
 30
0.0
 10
724.989711
 20
464.321000
 30
0.0
 10
724.604470
 20
455.375875
 30
0.0
  0
LWPOLYLINE
  5
2ff
100
AcDbEntity
  8
0
 62
1
100
AcDbPolyline
 90
4
 70
0
 10
697.876770
 20
507.949335
 30
0.0
 10
707.436670
 20
505.826255
 30
0.0
 10
716.111270
 20
497.687805
 30
0.0
 10
723.015570
 20
482.118635
 30
0.0
  0
SPLINE
  5
300
100
AcDbEntity
  8
0
 62
1
100
AcDbSpline
 70
8
 71
3
 72
8
 73
4
 74
0
 40
0
 40
0
 40
0
 40
0
 40
1
 40
1
 40
1
 40
1
 10
718.054270
 20
430.606715
 30
0.0
 10
715.406017
 20
426.616088
 30
0.0
 10
711.819635
 20
423.335704
 30
0.0
 10
707.609270
 20
421.052905
 30
0.0
  0
SPLINE
  5
301
100
AcDbEntity
  8
0
 62
1
100
AcDbSpline
 70
8
 71
3
 72
8
 73
4
 74
0
 40
0
 40
0
 40
0
 40
0
 40
1
 40
1
 40
1
 40
1
 10
707.609270
 20
421.052905
 30
0.0
 10
702.336599
 20
420.260274
 30
0.0
 10
697.007390
 20
419.905216
 30
0.0
 10
691.676170
 20
419.991365
 30
0.0
  0
LWPOLYLINE
  5
302
100
AcDbEntity
  8
0
 62
1
100
AcDbPolyline
 90
3
 70
0
 10
724.604470
 20
455.375875
 30
0.0
 10
721.948970
 20
440.691325
 30
0.0
 10
718.054270
 20
430.606715
 30
0.0
  0
SPLINE
  5
303
100
AcDbEntity
  8
0
 62
1
100
AcDbSpline
 70
8
 71
3
 72
8
 73
4
 74
0
 40
0
 40
0
 40
0
 40
0
 40
1
 40
1
 40
1
 40
1
 10
679.637970
 20
430.606715
 30
0.0
 10
675.948850
 20
437.262798
 30
0.0
 10
673.433622
 20
444.504514
 30
0.0
 10
672.202570
 20
452.014345
 30
0.0
  0
LWPOLYLINE
  5
304
100
AcDbEntity
  8
0
 62
1
100
AcDbPolyline
 90
3
 70
0
 10
691.676170
 20
419.991365
 30
0.0
 10
685.657070
 20
423.529845
 30
0.0
 10
679.637970
 20
430.606715
 30
0.0
  0
SPLINE
  5
305
100
AcDbEntity
  8
0
 62
1
100
AcDbSpline
 70
8
 71
3
 72
8
 73
4
 74
0
 40
0
 40
0
 40
0
 40
0
 40
1
 40
1
 40
1
 40
1
 10
672.025570
 20
467.583565
 30
0.0
 10
672.025570
 20
467.583565
 30
0.0
 10
675.389170
 20
483.329655
 30
0.0
 10
675.389170
 20
483.329655
 30
0.0
  0
SPLINE
  5
306
100
AcDbEntity
  8
0
 62
1
100
AcDbSpline
 70
8
 71
3
 72
8
 73
4
 74
0
 40
0
 40
0
 40
0
 40
0
 40
1
 40
1
 40
1
 40
1
 10
675.389170
 20
483.329655
 30
0.0
 10
679.329511
 20
492.340951
 30
0.0
 10
685.238614
 20
500.355013
 30
0.0
 10
692.682370
 20
506.783095
 30
0.0
  0
LWPOLYLINE
  5
307
100
AcDbEntity
  8
0
 62
1
100
AcDbPolyline
 90
2
 70
0
 10
672.202570
 20
452.014345
 30
0.0
 10
672.025570
 20
467.583565
 30
0.0
  0
SPLINE
  5
308
100
AcDbEntity
  8
0
 62
1
100
AcDbSpline
 70
8
 71
3
 72
8
 73
4
 74
0
 40
0
 40
0
 40
0
 40
0
 40
1
 40
1
 40
1
 40
1
 10
594.647940
 20
588.930075
 30
0.0
 10
594.647940
 20
588.930075
 30
0.0
 10
596.762140
 20
575.618635
 30
0.0
 10
596.762140
 20
575.618635
 30
0.0
  0
SPLINE
  5
309
100
AcDbEntity
  8
0
 62
1
100
AcDbSpline
 70
8
 71
3
 72
8
 73
4
 74
0
 40
0
 40
0
 40
0
 40
0
 40
1
 40
1
 40
1
 40
1
 10
596.762140
 20
575.618635
 30
0.0
 10
596.440411
 20
567.469071
 30
0.0
 10
594.871774
 20
559.416928
 30
0.0
 10
592.110840
 20
551.742545
 30
0.0
  0
LWPOLYLINE
  5
30a
100
AcDbEntity
  8
0
 62
1
100
AcDbPolyline
 90
2
 70
0
 10
692.682370
 20
506.783095
 30
0.0
 10
697.876770
 20
507.949335
 30
0.0
  0
SPLINE
  5
30b
100
AcDbEntity
  8
0
 62
1
100
AcDbSpline
 70
8
 71
3
 72
8
 73
4
 74
0
 40
0
 40
0
 40
0
 40
0
 40
1
 40
1
 40
1
 40
1
 10
566.380570
 20
533.658875
 30
0.0
 10
559.844892
 20
537.088147
 30
0.0
 10
554.013554
 20
541.717675
 30
0.0
 10
549.191470
 20
547.305385
 30
0.0
  0
SPLINE
  5
30c
100
AcDbEntity
  8
0
 62
1
100
AcDbSpline
 70
8
 71
3
 72
8
 73
4
 74
0
 40
0
 40
0
 40
0
 40
0
 40
1
 40
1
 40
1
 40
1
 10
549.191470
 20
547.305385
 30
0.0
 10
545.261400
 20
553.806651
 30
0.0
 10
542.807415
 20
561.091859
 30
0.0
 10
542.003000
 20
568.645985
 30
0.0
  0
LWPOLYLINE
  5
30d
100
AcDbEntity
  8
0
 62
1
100
AcDbPolyline
 90
4
 70
0
 10
592.110840
 20
551.742545
 30
0.0
 10
585.768070
 20
543.290795
 30
0.0
 10
579.002410
 20
538.008485
 30
0.0
 10
566.380570
 20
533.658875
 30
0.0
  0
SPLINE
  5
30e
100
AcDbEntity
  8
0
 62
1
100
AcDbSpline
 70
8
 71
3
 72
8
 73
4
 74
0
 40
0
 40
0
 40
0
 40
0
 40
1
 40
1
 40
1
 40
1
 10
570.185840
 20
614.734155
 30
0.0
 10
570.185840
 20
614.734155
 30
0.0
 10
581.000640
 20
610.884705
 30
0.0
 10
581.000640
 20
610.884705
 30
0.0
  0
SPLINE
  5
30f
100
AcDbEntity
  8
0
 62
1
100
AcDbSpline
 70
8
 71
3
 72
8
 73
4
 74
0
 40
0
 40
0
 40
0
 40
0
 40
1
 40
1
 40
1
 40
1
 10
581.000640
 20
610.884705
 30
0.0
 10
586.699556
 20
604.347110
 30
0.0
 10
591.307727
 20
596.933872
 30
0.0
 10
594.647940
 20
588.930075
 30
0.0
  0
LWPOLYLINE
  5
310
100
AcDbEntity
  8
0
 62
1
100
AcDbPolyline
 90
6
 70
0
 10
542.003000
 20
568.645985
 30
0.0
 10
542.003000
 20
582.802615
 30
0.0
 10
545.808600
 20
597.804395
 30
0.0
 10
554.899910
 20
607.735155
 30
0.0
 10
562.630270
 20
613.401645
 30
0.0
 10
570.185840
 20
614.734155
 30
0.0
  0
LWPOLYLINE
  5
311
100
AcDbEntity
  8
0
 62
1
100
AcDbPolyline
 90
1
 70
1
 10
594.647940
 20
588.930075
 30
0.0
  0
SPLINE
  5
312
100
AcDbEntity
  8
0
 62
1
100
AcDbSpline
 70
8
 71
3
 72
8
 73
4
 74
0
 40
0
 40
0
 40
0
 40
0
 40
1
 40
1
 40
1
 40
1
 10
578.126690
 20
694.262385
 30
0.0
 10
585.082486
 20
690.250813
 30
0.0
 10
591.735674
 20
685.736048
 30
0.0
 10
598.033050
 20
680.754195
 30
0.0
  0
LWPOLYLINE
  5
313
100
AcDbEntity
  8
0
 62
1
100
AcDbPolyline
 90
2
 70
0
 10
578.126690
 20
698.192025
 30
0.0
 10
578.126690
 20
694.262385
 30
0.0
  0
SPLINE
  5
314
100
AcDbEntity
  8
0
 62
1
100
AcDbSpline
 70
8
 71
3
 72
8
 73
4
 74
0
 40
0
 40
0
 40
0
 40
0
 40
1
 40
1
 40
1
 40
1
 10
621.939850
 20
683.667965
 30
0.0
 10
621.939850
 20
683.667965
 30
0.0
 10
627.852450
 20
690.662135
 30
0.0
 10
627.852450
 20
690.662135
 30
0.0
  0
SPLINE
  5
315
100
AcDbEntity
  8
0
 62
1
100
AcDbSpline
 70
8
 71
3
 72
8
 73
4
 74
0
 40
0
 40
0
 40
0
 40
0
 40
1
 40
1
 40
1
 40
1
 10
627.852450
 20
690.662135
 30
0.0
 10
629.935857
 20
695.494419
 30
0.0
 10
630.964283
 20
700.715601
 30
0.0
 10
630.869050
 20
705.977015
 30
0.0
  0
SPLINE
  5
316
100
AcDbEntity
  8
0
 62
1
100
AcDbSpline
 70
8
 71
3
 72
8
 73
4
 74
0
 40
0
 40
0
 40
0
 40
0
 40
1
 40
1
 40
1
 40
1
 10
630.869050
 20
705.977015
 30
0.0
 10
628.774480
 20
709.373218
 30
0.0
 10
626.075265
 20
712.356827
 30
0.0
 10
622.905150
 20
714.780005
 30
0.0
  0
SPLINE
  5
317
100
AcDbEntity
  8
0
 62
1
100
AcDbSpline
 70
8
 71
3
 72
8
 73
4
 74
0
 40
0
 40
0
 40
0
 40
0
 40
1
 40
1
 40
1
 40
1
 10
622.905150
 20
714.780005
 30
0.0
 10
619.983265
 20
716.455754
 30
0.0
 10
616.582947
 20
717.100821
 30
0.0
 10
613.250350
 20
716.611595
 30
0.0
  0
SPLINE
  5
318
100
AcDbEntity
  8
0
 62
1
100
AcDbSpline
 70
8
 71
3
 72
8
 73
4
 74
0
 40
0
 40
0
 40
0
 40
0
 40
1
 40
1
 40
1
 40
1
 10
613.250350
 20
716.611595
 30
0.0
 10
610.723232
 20
715.548569
 30
0.0
 10
608.548098
 20
713.792807
 30
0.0
 10
606.975850
 20
711.546835
 30
0.0
  0
SPLINE
  5
319
100
AcDbEntity
  8
0
 62
1
100
AcDbSpline
 70
8
 71
3
 72
8
 73
4
 74
0
 40
0
 40
0
 40
0
 40
0
 40
1
 40
1
 40
1
 40
1
 10
606.975850
 20
711.546835
 30
0.0
 10
607.132557
 20
719.975661
 30
0.0
 10
608.395419
 20
728.347416
 30
0.0
 10
610.732050
 20
736.447405
 30
0.0
  0
SPLINE
  5
31a
100
AcDbEntity
  8
0
 62
1
100
AcDbSpline
 70
8
 71
3
 72
8
 73
4
 74
0
 40
0
 40
0
 40
0
 40
0
 40
1
 40
1
 40
1
 40
1
 10
610.732050
 20
736.447405
 30
0.0
 10
611.631399
 20
744.832361
 30
0.0
 10
611.530558
 20
753.294512
 30
0.0
 10
610.431650
 20
761.655655
 30
0.0
  0
LWPOLYLINE
  5
31b
100
AcDbEntity
  8
0
 62
1
100
AcDbPolyline
 90
4
 70
0
 10
598.033050
 20
680.754195
 30
0.0
 10
604.926050
 20
678.241435
 30
0.0
 10
613.493250
 20
678.120835
 30
0.0
 10
621.939850
 20
683.667965
 30
0.0
  0
SPLINE
  5
31c
100
AcDbEntity
  8
0
 62
1
100
AcDbSpline
 70
8
 71
3
 72
8
 73
4
 74
0
 40
0
 40
0
 40
0
 40
0
 40
1
 40
1
 40
1
 40
1
 10
580.292070
 20
771.175405
 30
0.0
 10
573.215496
 20
770.768245
 30
0.0
 10
566.117321
 20
770.950145
 30
0.0
 10
559.070890
 20
771.719225
 30
0.0
  0
SPLINE
  5
31d
100
AcDbEntity
  8
0
 62
1
100
AcDbSpline
 70
8
 71
3
 72
8
 73
4
 74
0
 40
0
 40
0
 40
0
 40
0
 40
1
 40
1
 40
1
 40
1
 10
559.070890
 20
771.719225
 30
0.0
 10
558.763821
 20
766.770666
 30
0.0
 10
559.257119
 20
761.804974
 30
0.0
 10
560.531770
 20
757.013545
 30
0.0
  0
LWPOLYLINE
  5
31e
100
AcDbEntity
  8
0
 62
1
100
AcDbPolyline
 90
10
 70
0
 10
610.431650
 20
761.655655
 30
0.0
 10
607.653550
 20
786.002495
 30
0.0
 10
603.300050
 20
795.201705
 30
0.0
 10
596.323250
 20
798.687925
 30
0.0
 10
561.876000
 20
797.337865
 30
0.0
 10
557.647650
 20
793.079675
 30
0.0
 10
557.799280
 20
785.500985
 30
0.0
 10
560.074360
 20
780.499045
 30
0.0
 10
579.747980
 20
779.876065
 30
0.0
 10
580.292070
 20
771.175405
 30
0.0
  0
SPLINE
  5
31f
100
AcDbEntity
  8
0
 62
1
100
AcDbSpline
 70
8
 71
3
 72
8
 73
4
 74
0
 40
0
 40
0
 40
0
 40
0
 40
1
 40
1
 40
1
 40
1
 10
537.448340
 20
202.204075
 30
0.0
 10
534.672085
 20
210.860644
 30
0.0
 10
530.800750
 20
219.126857
 30
0.0
 10
525.928440
 20
226.801775
 30
0.0
  0
SPLINE
  5
320
100
AcDbEntity
  8
0
 62
1
100
AcDbSpline
 70
8
 71
3
 72
8
 73
4
 74
0
 40
0
 40
0
 40
0
 40
0
 40
1
 40
1
 40
1
 40
1
 10
525.928440
 20
226.801775
 30
0.0
 10
520.497111
 20
231.741423
 30
0.0
 10
514.533663
 20
236.062193
 30
0.0
 10
508.147890
 20
239.684535
 30
0.0
  0
SPLINE
  5
321
100
AcDbEntity
  8
0
 62
1
100
AcDbSpline
 70
8
 71
3
 72
8
 73
4
 74
0
 40
0
 40
0
 40
0
 40
0
 40
1
 40
1
 40
1
 40
1
 10
508.147890
 20
239.684535
 30
0.0
 10
508.147890
 20
239.684535
 30
0.0
 10
507.703420
 20
245.237445
 30
0.0
 10
507.703420
 20
245.237445
 30
0.0
  0
SPLINE
  5
322
100
AcDbEntity
  8
0
 62
1
100
AcDbSpline
 70
8
 71
3
 72
8
 73
4
 74
0
 40
0
 40
0
 40
0
 40
0
 40
1
 40
1
 40
1
 40
1
 10
507.703420
 20
245.237445
 30
0.0
 10
513.279779
 20
249.558807
 30
0.0
 10
519.146317
 20
253.492123
 30
0.0
 10
525.261630
 20
257.009635
 30
0.0
  0
LWPOLYLINE
  5
323
100
AcDbEntity
  8
0
 62
1
100
AcDbPolyline
 90
15
 70
0
 10
560.531770
 20
757.013545
 30
0.0
 10
567.585410
 20
756.441975
 30
0.0
 10
586.268050
 20
757.013545
 30
0.0
 10
585.886850
 20
747.868585
 30
0.0
 10
565.107140
 20
747.297055
 30
0.0
 10
570.639940
 20
735.655475
 30
0.0
 10
575.596560
 20
732.988175
 30
0.0
 10
591.991550
 20
733.559745
 30
0.0
 10
591.038350
 20
723.652725
 30
0.0
 10
575.596560
 20
724.224255
 30
0.0
 10
577.883150
 20
711.815275
 30
0.0
 10
591.418550
 20
709.719545
 30
0.0
 10
591.418550
 20
700.574585
 30
0.0
 10
577.501900
 20
700.574585
 30
0.0
 10
578.126690
 20
698.192025
 30
0.0
  0
SPLINE
  5
324
100
AcDbEntity
  8
0
 62
1
100
AcDbSpline
 70
8
 71
3
 72
8
 73
4
 74
0
 40
0
 40
0
 40
0
 40
0
 40
1
 40
1
 40
1
 40
1
 10
538.161950
 20
284.601395
 30
0.0
 10
532.356889
 20
289.090052
 30
0.0
 10
527.329044
 20
294.502303
 30
0.0
 10
523.279450
 20
300.621745
 30
0.0
  0
LWPOLYLINE
  5
325
100
AcDbEntity
  8
0
 62
1
100
AcDbPolyline
 90
4
 70
0
 10
525.261630
 20
257.009635
 30
0.0
 10
531.938790
 20
264.610885
 30
0.0
 10
537.495220
 20
275.938845
 30
0.0
 10
538.161950
 20
284.601395
 30
0.0
  0
SPLINE
  5
326
100
AcDbEntity
  8
0
 62
1
100
AcDbSpline
 70
8
 71
3
 72
8
 73
4
 74
0
 40
0
 40
0
 40
0
 40
0
 40
1
 40
1
 40
1
 40
1
 10
562.496710
 20
262.724035
 30
0.0
 10
562.496710
 20
262.724035
 30
0.0
 10
544.674600
 20
265.561175
 30
0.0
 10
544.674600
 20
265.561175
 30
0.0
  0
SPLINE
  5
327
100
AcDbEntity
  8
0
 62
1
100
AcDbSpline
 70
8
 71
3
 72
8
 73
4
 74
0
 40
0
 40
0
 40
0
 40
0
 40
1
 40
1
 40
1
 40
1
 10
544.674600
 20
265.561175
 30
0.0
 10
543.022600
 20
262.935544
 30
0.0
 10
542.404364
 20
259.790038
 30
0.0
 10
542.939750
 20
256.734485
 30
0.0
  0
LWPOLYLINE
  5
328
100
AcDbEntity
  8
0
 62
1
100
AcDbPolyline
 90
29
 70
0
 10
523.279450
 20
300.621745
 30
0.0
 10
553.284050
 20
299.733295
 30
0.0
 10
555.506590
 20
309.950645
 30
0.0
 10
515.722750
 20
309.506425
 30
0.0
 10
506.165780
 20
319.279545
 30
0.0
 10
504.832250
 20
323.944025
 30
0.0
 10
545.949620
 20
322.833445
 30
0.0
 10
550.839240
 20
323.499795
 30
0.0
 10
552.395050
 20
331.051735
 30
0.0
 10
547.505430
 20
332.384435
 30
0.0
 10
503.498710
 20
332.828705
 30
0.0
 10
497.942280
 20
337.937355
 30
0.0
 10
495.810580
 20
346.535045
 30
0.0
 10
564.417800
 20
345.746965
 30
0.0
 10
564.260100
 20
355.676955
 30
0.0
 10
496.126050
 20
354.573615
 30
0.0
 10
493.602500
 20
361.351235
 30
0.0
 10
495.810580
 20
370.020295
 30
0.0
 10
608.736500
 20
369.862665
 30
0.0
 10
606.370730
 20
349.056965
 30
0.0
 10
599.108970
 20
329.931995
 30
0.0
 10
596.112350
 20
312.751565
 30
0.0
 10
589.015110
 20
293.994915
 30
0.0
 10
584.104060
 20
287.312555
 30
0.0
 10
560.288710
 20
288.258265
 30
0.0
 10
556.976620
 20
278.958765
 30
0.0
 10
577.006740
 20
278.485905
 30
0.0
 10
569.436340
 20
267.452605
 30
0.0
 10
562.496710
 20
262.724035
 30
0.0
  0
SPLINE
  5
329
100
AcDbEntity
  8
0
 62
1
100
AcDbSpline
 70
8
 71
3
 72
8
 73
4
 74
0
 40
0
 40
0
 40
0
 40
0
 40
1
 40
1
 40
1
 40
1
 10
418.693570
 20
540.647565
 30
0.0
 10
425.060362
 20
540.558826
 30
0.0
 10
431.274973
 20
538.688264
 30
0.0
 10
436.632950
 20
535.247915
 30
0.0
  0
LWPOLYLINE
  5
32a
100
AcDbEntity
  8
0
 62
1
100
AcDbPolyline
 90
20
 70
0
 10
542.939750
 20
256.734485
 30
0.0
 10
554.190690
 20
255.923715
 30
0.0
 10
549.171620
 20
243.684815
 30
0.0
 10
537.928850
 20
242.681635
 30
0.0
 10
538.531160
 20
233.652935
 30
0.0
 10
558.607530
 20
233.652935
 30
0.0
 10
563.626610
 20
228.436325
 30
0.0
 10
577.077750
 20
228.636975
 30
0.0
 10
578.483140
 20
232.047815
 30
0.0
 10
583.100670
 20
234.455475
 30
0.0
 10
592.938130
 20
230.442735
 30
0.0
 10
598.960970
 20
225.025485
 30
0.0
 10
599.563280
 20
219.808915
 30
0.0
 10
567.039600
 20
219.608275
 30
0.0
 10
567.441140
 20
212.184695
 30
0.0
 10
596.953360
 20
212.786585
 30
0.0
 10
601.169430
 20
211.582765
 30
0.0
 10
597.756430
 20
204.560475
 30
0.0
 10
592.437980
 20
202.870645
 30
0.0
 10
537.448340
 20
202.204075
 30
0.0
  0
SPLINE
  5
32b
100
AcDbEntity
  8
0
 62
1
100
AcDbSpline
 70
8
 71
3
 72
8
 73
4
 74
0
 40
0
 40
0
 40
0
 40
0
 40
1
 40
1
 40
1
 40
1
 10
436.872200
 20
519.586925
 30
0.0
 10
439.463207
 20
518.427492
 30
0.0
 10
442.477028
 20
518.746938
 30
0.0
 10
444.767410
 20
520.423765
 30
0.0
  0
LWPOLYLINE
  5
32c
100
AcDbEntity
  8
0
 62
1
100
AcDbPolyline
 90
2
 70
0
 10
436.632950
 20
535.247915
 30
0.0
 10
436.872200
 20
519.586925
 30
0.0
  0
SPLINE
  5
32d
100
AcDbEntity
  8
0
 62
1
100
AcDbSpline
 70
8
 71
3
 72
8
 73
4
 74
0
 40
0
 40
0
 40
0
 40
0
 40
1
 40
1
 40
1
 40
1
 10
450.270140
 20
527.835835
 30
0.0
 10
450.270140
 20
527.835835
 30
0.0
 10
461.764610
 20
516.666755
 30
0.0
 10
461.764610
 20
516.666755
 30
0.0
  0
SPLINE
  5
32e
100
AcDbEntity
  8
0
 62
1
100
AcDbSpline
 70
8
 71
3
 72
8
 73
4
 74
0
 40
0
 40
0
 40
0
 40
0
 40
1
 40
1
 40
1
 40
1
 10
461.764610
 20
516.666755
 30
0.0
 10
467.587128
 20
509.194430
 30
0.0
 10
472.412616
 20
500.996253
 30
0.0
 10
476.119550
 20
492.278685
 30
0.0
  0
SPLINE
  5
32f
100
AcDbEntity
  8
0
 62
1
100
AcDbSpline
 70
8
 71
3
 72
8
 73
4
 74
0
 40
0
 40
0
 40
0
 40
0
 40
1
 40
1
 40
1
 40
1
 10
476.119550
 20
492.278685
 30
0.0
 10
476.119550
 20
492.278685
 30
0.0
 10
479.108470
 20
481.717985
 30
0.0
 10
479.108470
 20
481.717985
 30
0.0
  0
SPLINE
  5
330
100
AcDbEntity
  8
0
 62
1
100
AcDbSpline
 70
8
 71
3
 72
8
 73
4
 74
0
 40
0
 40
0
 40
0
 40
0
 40
1
 40
1
 40
1
 40
1
 10
479.108470
 20
481.717985
 30
0.0
 10
479.753601
 20
471.282732
 30
0.0
 10
478.946788
 20
460.808438
 30
0.0
 10
476.711140
 20
450.595085
 30
0.0
  0
SPLINE
  5
331
100
AcDbEntity
  8
0
 62
1
100
AcDbSpline
 70
8
 71
3
 72
8
 73
4
 74
0
 40
0
 40
0
 40
0
 40
0
 40
1
 40
1
 40
1
 40
1
 10
476.711140
 20
450.595085
 30
0.0
 10
476.711140
 20
450.595085
 30
0.0
 10
470.610290
 20
433.977685
 30
0.0
 10
470.610290
 20
433.977685
 30
0.0
  0
SPLINE
  5
332
100
AcDbEntity
  8
0
 62
1
100
AcDbSpline
 70
8
 71
3
 72
8
 73
4
 74
0
 40
0
 40
0
 40
0
 40
0
 40
1
 40
1
 40
1
 40
1
 10
470.610290
 20
433.977685
 30
0.0
 10
466.432200
 20
426.164147
 30
0.0
 10
461.589482
 20
418.724637
 30
0.0
 10
456.135730
 20
411.741485
 30
0.0
  0
SPLINE
  5
333
100
AcDbEntity
  8
0
 62
1
100
AcDbSpline
 70
8
 71
3
 72
8
 73
4
 74
0
 40
0
 40
0
 40
0
 40
0
 40
1
 40
1
 40
1
 40
1
 10
456.135730
 20
411.741485
 30
0.0
 10
451.188797
 20
406.887184
 30
0.0
 10
445.817818
 20
402.484830
 30
0.0
 10
440.086920
 20
398.586985
 30
0.0
  0
LWPOLYLINE
  5
334
100
AcDbEntity
  8
0
 62
1
100
AcDbPolyline
 90
3
 70
0
 10
444.767410
 20
520.423765
 30
0.0
 10
446.202910
 20
529.868175
 30
0.0
 10
450.270140
 20
527.835835
 30
0.0
  0
SPLINE
  5
335
100
AcDbEntity
  8
0
 62
1
100
AcDbSpline
 70
8
 71
3
 72
8
 73
4
 74
0
 40
0
 40
0
 40
0
 40
0
 40
1
 40
1
 40
1
 40
1
 10
420.925000
 20
407.382385
 30
0.0
 10
421.658403
 20
402.066240
 30
0.0
 10
421.489862
 20
396.664468
 30
0.0
 10
420.426470
 20
391.404385
 30
0.0
  0
LWPOLYLINE
  5
336
100
AcDbEntity
  8
0
 62
1
100
AcDbPolyline
 90
4
 70
0
 10
440.086920
 20
398.586985
 30
0.0
 10
429.050850
 20
394.769285
 30
0.0
 10
429.396640
 20
406.691285
 30
0.0
 10
420.925000
 20
407.382385
 30
0.0
  0
SPLINE
  5
337
100
AcDbEntity
  8
0
 62
1
100
AcDbSpline
 70
8
 71
3
 72
8
 73
4
 74
0
 40
0
 40
0
 40
0
 40
0
 40
1
 40
1
 40
1
 40
1
 10
396.584240
 20
394.245285
 30
0.0
 10
390.592824
 20
397.175953
 30
0.0
 10
385.096198
 20
401.024921
 30
0.0
 10
380.293300
 20
405.652885
 30
0.0
  0
SPLINE
  5
338
100
AcDbEntity
  8
0
 62
1
100
AcDbSpline
 70
8
 71
3
 72
8
 73
4
 74
0
 40
0
 40
0
 40
0
 40
0
 40
1
 40
1
 40
1
 40
1
 10
380.293300
 20
405.652885
 30
0.0
 10
373.064841
 20
413.089841
 30
0.0
 10
366.508145
 20
421.151401
 30
0.0
 10
360.699810
 20
429.743385
 30
0.0
  0
LWPOLYLINE
  5
339
100
AcDbEntity
  8
0
 62
1
100
AcDbPolyline
 90
7
 70
0
 10
420.426470
 20
391.404385
 30
0.0
 10
412.366990
 20
390.813685
 30
0.0
 10
409.993790
 20
394.245285
 30
0.0
 10
410.215420
 20
407.535685
 30
0.0
 10
401.017140
 20
408.753985
 30
0.0
 10
400.795500
 20
395.020585
 30
0.0
 10
396.584240
 20
394.245285
 30
0.0
  0
SPLINE
  5
33a
100
AcDbEntity
  8
0
 62
1
100
AcDbSpline
 70
8
 71
3
 72
8
 73
4
 74
0
 40
0
 40
0
 40
0
 40
0
 40
1
 40
1
 40
1
 40
1
 10
354.060100
 20
490.659385
 30
0.0
 10
360.028108
 20
505.236469
 30
0.0
 10
368.458855
 20
518.678480
 30
0.0
 10
378.983650
 20
530.397575
 30
0.0
  0
LWPOLYLINE
  5
33b
100
AcDbEntity
  8
0
 62
1
100
AcDbPolyline
 90
5
 70
0
 10
360.699810
 20
429.743385
 30
0.0
 10
353.585620
 20
444.506285
 30
0.0
 10
349.631680
 20
459.521885
 30
0.0
 10
349.789840
 20
473.430985
 30
0.0
 10
354.060100
 20
490.659385
 30
0.0
  0
SPLINE
  5
33c
100
AcDbEntity
  8
0
 62
1
100
AcDbSpline
 70
8
 71
3
 72
8
 73
4
 74
0
 40
0
 40
0
 40
0
 40
0
 40
1
 40
1
 40
1
 40
1
 10
392.195530
 20
537.235145
 30
0.0
 10
397.804977
 20
539.148589
 30
0.0
 10
403.682202
 20
540.161055
 30
0.0
 10
409.608560
 20
540.234875
 30
0.0
  0
LWPOLYLINE
  5
33d
100
AcDbEntity
  8
0
 62
1
100
AcDbPolyline
 90
5
 70
0
 10
378.983650
 20
530.397575
 30
0.0
 10
383.230330
 20
531.733655
 30
0.0
 10
384.488600
 20
519.001615
 30
0.0
 10
391.880960
 20
519.944725
 30
0.0
 10
392.195530
 20
537.235145
 30
0.0
  0
LWPOLYLINE
  5
33e
100
AcDbEntity
  8
0
 62
1
100
AcDbPolyline
 90
4
 70
0
 10
409.608560
 20
540.234875
 30
0.0
 10
409.608560
 20
513.409625
 30
0.0
 10
418.693570
 20
513.409625
 30
0.0
 10
418.693570
 20
540.647565
 30
0.0
  0
SPLINE
  5
33f
100
AcDbEntity
  8
0
 62
1
100
AcDbSpline
 70
8
 71
3
 72
8
 73
4
 74
0
 40
0
 40
0
 40
0
 40
0
 40
1
 40
1
 40
1
 40
1
 10
633.050270
 20
495.312685
 30
0.0
 10
637.892454
 20
505.583810
 30
0.0
 10
644.289897
 20
515.046622
 30
0.0
 10
652.016970
 20
523.367385
 30
0.0
  0
LWPOLYLINE
  5
340
100
AcDbEntity
  8
0
 62
1
100
AcDbPolyline
 90
3
 70
0
 10
628.308770
 20
453.696815
 30
0.0
 10
628.927170
 20
482.333495
 30
0.0
 10
633.050270
 20
495.312685
 30
0.0
  0
SPLINE
  5
341
100
AcDbEntity
  8
0
 62
1
100
AcDbSpline
 70
8
 71
3
 72
8
 73
4
 74
0
 40
0
 40
0
 40
0
 40
0
 40
1
 40
1
 40
1
 40
1
 10
745.633770
 20
469.546685
 30
0.0
 10
745.633770
 20
469.546685
 30
0.0
 10
738.330870
 20
465.669405
 30
0.0
 10
738.330870
 20
465.669405
 30
0.0
  0
SPLINE
  5
342
100
AcDbEntity
  8
0
 62
1
100
AcDbSpline
 70
8
 71
3
 72
8
 73
4
 74
0
 40
0
 40
0
 40
0
 40
0
 40
1
 40
1
 40
1
 40
1
 10
738.330870
 20
465.669405
 30
0.0
 10
743.562427
 20
450.404798
 30
0.0
 10
748.206706
 20
434.945190
 30
0.0
 10
752.253470
 20
419.324655
 30
0.0
  0
LWPOLYLINE
  5
343
100
AcDbEntity
  8
0
 62
1
100
AcDbPolyline
 90
20
 70
0
 10
652.016970
 20
523.367385
 30
0.0
 10
665.622770
 20
534.698435
 30
0.0
 10
681.290170
 20
543.351225
 30
0.0
 10
694.071270
 20
547.265565
 30
0.0
 10
694.689670
 20
524.397475
 30
0.0
 10
705.203270
 20
523.573365
 30
0.0
 10
705.203270
 20
547.059585
 30
0.0
 10
712.540270
 20
545.782335
 30
0.0
 10
728.287270
 20
537.571685
 30
0.0
 10
745.631870
 20
525.027605
 30
0.0
 10
759.553070
 20
507.465875
 30
0.0
 10
770.737770
 20
483.915365
 30
0.0
 10
771.650570
 20
453.353405
 30
0.0
 10
768.911970
 20
450.844575
 30
0.0
 10
760.239670
 20
477.529305
 30
0.0
 10
752.936770
 20
473.423955
 30
0.0
 10
765.488770
 20
440.125095
 30
0.0
 10
763.891170
 20
432.370585
 30
0.0
 10
757.501170
 20
428.949465
 30
0.0
 10
745.633770
 20
469.546685
 30
0.0
  0
SPLINE
  5
344
100
AcDbEntity
  8
0
 62
1
100
AcDbSpline
 70
8
 71
3
 72
8
 73
4
 74
0
 40
0
 40
0
 40
0
 40
0
 40
1
 40
1
 40
1
 40
1
 10
637.496170
 20
430.057025
 30
0.0
 10
637.496170
 20
430.057025
 30
0.0
 10
632.019470
 20
439.275485
 30
0.0
 10
632.019470
 20
439.275485
 30
0.0
  0
SPLINE
  5
345
100
AcDbEntity
  8
0
 62
1
100
AcDbSpline
 70
8
 71
3
 72
8
 73
4
 74
0
 40
0
 40
0
 40
0
 40
0
 40
1
 40
1
 40
1
 40
1
 10
632.019470
 20
439.275485
 30
0.0
 10
636.519402
 20
450.335848
 30
0.0
 10
641.192678
 20
461.324892
 30
0.0
 10
646.037570
 20
472.238555
 30
0.0
  0
LWPOLYLINE
  5
346
100
AcDbEntity
  8
0
 62
1
100
AcDbPolyline
 90
18
 70
0
 10
752.253470
 20
419.324655
 30
0.0
 10
731.373570
 20
394.102875
 30
0.0
 10
719.753270
 20
383.578695
 30
0.0
 10
712.127570
 20
381.401245
 30
0.0
 10
714.124770
 20
402.449645
 30
0.0
 10
704.501770
 20
403.356915
 30
0.0
 10
704.138670
 20
380.675455
 30
0.0
 10
696.694470
 20
376.864965
 30
0.0
 10
691.973770
 20
380.675455
 30
0.0
 10
693.063170
 20
402.994025
 30
0.0
 10
683.621770
 20
403.538365
 30
0.0
 10
681.987670
 20
381.764185
 30
0.0
 10
675.814470
 20
384.123045
 30
0.0
 10
666.241270
 20
390.318795
 30
0.0
 10
644.140770
 20
419.085695
 30
0.0
 10
662.485970
 20
465.713825
 30
0.0
 10
653.818970
 20
470.333355
 30
0.0
 10
637.496170
 20
430.057025
 30
0.0
  0
LWPOLYLINE
  5
347
100
AcDbEntity
  8
0
 62
1
100
AcDbPolyline
 90
4
 70
0
 10
646.037570
 20
472.238555
 30
0.0
 10
639.234570
 20
475.328835
 30
0.0
 10
629.463070
 20
452.728095
 30
0.0
 10
628.308770
 20
453.696815
 30
0.0
  0
SPLINE
  5
348
100
AcDbEntity
  8
0
 62
1
100
AcDbSpline
 70
8
 71
3
 72
8
 73
4
 74
0
 40
0
 40
0
 40
0
 40
0
 40
1
 40
1
 40
1
 40
1
 10
315.179350
 20
979.731665
 30
0.0
 10
318.025567
 20
977.606733
 30
0.0
 10
321.507318
 20
976.507923
 30
0.0
 10
325.057670
 20
976.614155
 30
0.0
  0
SPLINE
  5
349
100
AcDbEntity
  8
0
 62
1
100
AcDbSpline
 70
8
 71
3
 72
8
 73
4
 74
0
 40
0
 40
0
 40
0
 40
0
 40
1
 40
1
 40
1
 40
1
 10
325.057670
 20
976.614155
 30
0.0
 10
331.738697
 20
978.454916
 30
0.0
 10
337.867285
 20
981.903803
 30
0.0
 10
342.907940
 20
986.659465
 30
0.0
  0
LWPOLYLINE
  5
34a
100
AcDbEntity
  8
0
 62
1
100
AcDbPolyline
 90
6
 70
0
 10
298.542200
 20
971.071915
 30
0.0
 10
294.902820
 20
974.535815
 30
0.0
 10
294.729530
 20
978.865695
 30
0.0
 10
296.982470
 20
981.983205
 30
0.0
 10
305.820950
 20
982.502785
 30
0.0
 10
315.179350
 20
979.731665
 30
0.0
  0
SPLINE
  5
34b
100
AcDbEntity
  8
0
 62
1
100
AcDbSpline
 70
8
 71
3
 72
8
 73
4
 74
0
 40
0
 40
0
 40
0
 40
0
 40
1
 40
1
 40
1
 40
1
 10
342.408800
 20
1017.535415
 30
0.0
 10
339.281102
 20
1011.685053
 30
0.0
 10
337.115970
 20
1005.369174
 30
0.0
 10
335.996560
 20
998.830355
 30
0.0
  0
LWPOLYLINE
  5
34c
100
AcDbEntity
  8
0
 62
1
100
AcDbPolyline
 90
5
 70
0
 10
342.907940
 20
986.659465
 30
0.0
 10
347.434600
 20
994.500475
 30
0.0
 10
349.340950
 20
1005.584965
 30
0.0
 10
347.781210
 20
1014.244715
 30
0.0
 10
342.408800
 20
1017.535415
 30
0.0
  0
SPLINE
  5
34d
100
AcDbEntity
  8
0
 62
1
100
AcDbSpline
 70
8
 71
3
 72
8
 73
4
 74
0
 40
0
 40
0
 40
0
 40
0
 40
1
 40
1
 40
1
 40
1
 10
274.647060
 20
995.366455
 30
0.0
 10
274.647060
 20
995.366455
 30
0.0
 10
269.447960
 20
996.578815
 30
0.0
 10
269.447960
 20
996.578815
 30
0.0
  0
SPLINE
  5
34e
100
AcDbEntity
  8
0
 62
1
100
AcDbSpline
 70
8
 71
3
 72
8
 73
4
 74
0
 40
0
 40
0
 40
0
 40
0
 40
1
 40
1
 40
1
 40
1
 10
269.447960
 20
996.578815
 30
0.0
 10
270.051486
 20
1007.026700
 30
0.0
 10
269.877701
 20
1017.504992
 30
0.0
 10
268.928040
 20
1027.927117
 30
0.0
  0
LWPOLYLINE
  5
34f
100
AcDbEntity
  8
0
 62
1
100
AcDbPolyline
 90
21
 70
0
 10
335.996560
 20
998.830355
 30
0.0
 10
329.930940
 20
1000.389105
 30
0.0
 10
331.317360
 20
1014.937485
 30
0.0
 10
330.450840
 20
1021.345705
 30
0.0
 10
325.078430
 20
1022.038485
 30
0.0
 10
321.612360
 20
1020.479735
 30
0.0
 10
318.839500
 20
1000.908695
 30
0.0
 10
316.239940
 20
997.271595
 30
0.0
 10
309.654410
 20
998.137575
 30
0.0
 10
310.347620
 20
1014.417905
 30
0.0
 10
308.441280
 20
1017.362225
 30
0.0
 10
302.548950
 20
1014.591095
 30
0.0
 10
300.989220
 20
1011.993175
 30
0.0
 10
299.082880
 20
998.310765
 30
0.0
 10
296.829930
 20
996.232425
 30
0.0
 10
290.937610
 20
996.232425
 30
0.0
 10
291.110910
 20
1011.819975
 30
0.0
 10
282.272420
 20
1011.300395
 30
0.0
 10
278.459740
 20
1009.222055
 30
0.0
 10
277.419920
 20
998.830355
 30
0.0
 10
274.647060
 20
995.366455
 30
0.0
  0
SPLINE
  5
350
100
AcDbEntity
  8
0
 62
1
100
AcDbSpline
 70
8
 71
3
 72
8
 73
4
 74
0
 40
0
 40
0
 40
0
 40
0
 40
1
 40
1
 40
1
 40
1
 10
321.961410
 20
1060.194874
 30
0.0
 10
321.961410
 20
1060.194874
 30
0.0
 10
325.947390
 20
1063.312383
 30
0.0
 10
325.947390
 20
1063.312383
 30
0.0
  0
SPLINE
  5
351
100
AcDbEntity
  8
0
 62
1
100
AcDbSpline
 70
8
 71
3
 72
8
 73
4
 74
0
 40
0
 40
0
 40
0
 40
0
 40
1
 40
1
 40
1
 40
1
 10
325.947390
 20
1063.312383
 30
0.0
 10
328.245509
 20
1068.780138
 30
0.0
 10
329.196480
 20
1074.719961
 30
0.0
 10
328.720260
 20
1080.631890
 30
0.0
  0
LWPOLYLINE
  5
352
100
AcDbEntity
  8
0
 62
1
100
AcDbPolyline
 90
8
 70
0
 10
268.928040
 20
1027.927117
 30
0.0
 10
271.356740
 20
1047.032051
 30
0.0
 10
276.729160
 20
1058.809317
 30
0.0
 10
285.740950
 20
1066.429898
 30
0.0
 10
294.232830
 20
1070.240186
 30
0.0
 10
303.071320
 20
1070.240186
 30
0.0
 10
314.509360
 20
1066.083506
 30
0.0
 10
321.961410
 20
1060.194874
 30
0.0
  0
SPLINE
  5
353
100
AcDbEntity
  8
0
 62
1
100
AcDbSpline
 70
8
 71
3
 72
8
 73
4
 74
0
 40
0
 40
0
 40
0
 40
0
 40
1
 40
1
 40
1
 40
1
 10
276.902090
 20
1087.430947
 30
0.0
 10
276.349389
 20
1080.624027
 30
0.0
 10
274.212889
 20
1074.040603
 30
0.0
 10
270.663170
 20
1068.206296
 30
0.0
  0
LWPOLYLINE
  5
354
100
AcDbEntity
  8
0
 62
1
100
AcDbPolyline
 90
17
 70
0
 10
328.720260
 20
1080.631890
 30
0.0
 10
325.253820
 20
1088.989700
 30
0.0
 10
320.401310
 20
1090.375261
 30
0.0
 10
316.415330
 20
1077.039243
 30
0.0
 10
310.523010
 20
1077.732026
 30
0.0
 10
307.230240
 20
1080.503145
 30
0.0
 10
312.256040
 20
1096.090698
 30
0.0
 10
309.309880
 20
1099.900987
 30
0.0
 10
300.471390
 20
1103.364888
 30
0.0
 10
298.391750
 20
1091.414431
 30
0.0
 10
293.712550
 20
1085.872190
 30
0.0
 10
289.899870
 20
1088.989700
 30
0.0
 10
291.112990
 20
1102.325718
 30
0.0
 10
290.766390
 20
1107.521568
 30
0.0
 10
286.780400
 20
1109.773103
 30
0.0
 10
280.194860
 20
1110.639082
 30
0.0
 10
276.902090
 20
1087.430947
 30
0.0
  0
SPLINE
  5
355
100
AcDbEntity
  8
0
 62
1
100
AcDbSpline
 70
8
 71
3
 72
8
 73
4
 74
0
 40
0
 40
0
 40
0
 40
0
 40
1
 40
1
 40
1
 40
1
 10
267.717000
 20
1067.686714
 30
0.0
 10
267.717000
 20
1067.686714
 30
0.0
 10
263.211110
 20
1071.323811
 30
0.0
 10
263.211110
 20
1071.323811
 30
0.0
  0
SPLINE
  5
356
100
AcDbEntity
  8
0
 62
1
100
AcDbSpline
 70
8
 71
3
 72
8
 73
4
 74
0
 40
0
 40
0
 40
0
 40
0
 40
1
 40
1
 40
1
 40
1
 10
263.211110
 20
1071.323811
 30
0.0
 10
266.448070
 20
1083.992522
 30
0.0
 10
268.993613
 20
1096.827908
 30
0.0
 10
270.836460
 20
1109.773103
 30
0.0
  0
LWPOLYLINE
  5
357
100
AcDbEntity
  8
0
 62
1
100
AcDbPolyline
 90
2
 70
0
 10
270.663170
 20
1068.206296
 30
0.0
 10
267.717000
 20
1067.686714
 30
0.0
  0
SPLINE
  5
358
100
AcDbEntity
  8
0
 62
1
100
AcDbSpline
 70
8
 71
3
 72
8
 73
4
 74
0
 40
0
 40
0
 40
0
 40
0
 40
1
 40
1
 40
1
 40
1
 10
266.850480
 20
1112.197835
 30
0.0
 10
266.850480
 20
1112.197835
 30
0.0
 10
256.798880
 20
1108.387547
 30
0.0
 10
256.798880
 20
1108.387547
 30
0.0
  0
SPLINE
  5
359
100
AcDbEntity
  8
0
 62
1
100
AcDbSpline
 70
8
 71
3
 72
8
 73
4
 74
0
 40
0
 40
0
 40
0
 40
0
 40
1
 40
1
 40
1
 40
1
 10
256.798880
 20
1108.387547
 30
0.0
 10
257.131770
 20
1104.967371
 30
0.0
 10
258.666981
 20
1101.776131
 30
0.0
 10
261.131470
 20
1099.381404
 30
0.0
  0
LWPOLYLINE
  5
35a
100
AcDbEntity
  8
0
 62
1
100
AcDbPolyline
 90
2
 70
0
 10
270.836460
 20
1109.773103
 30
0.0
 10
266.850480
 20
1112.197835
 30
0.0
  0
SPLINE
  5
35b
100
AcDbEntity
  8
0
 62
1
100
AcDbSpline
 70
8
 71
3
 72
8
 73
4
 74
0
 40
0
 40
0
 40
0
 40
0
 40
1
 40
1
 40
1
 40
1
 10
247.787090
 20
1083.274268
 30
0.0
 10
247.787090
 20
1083.274268
 30
0.0
 10
243.974410
 20
1079.290779
 30
0.0
 10
243.974410
 20
1079.290779
 30
0.0
  0
SPLINE
  5
35c
100
AcDbEntity
  8
0
 62
1
100
AcDbSpline
 70
8
 71
3
 72
8
 73
4
 74
0
 40
0
 40
0
 40
0
 40
0
 40
1
 40
1
 40
1
 40
1
 10
243.974410
 20
1079.290779
 30
0.0
 10
239.583130
 20
1081.272506
 30
0.0
 10
234.993701
 20
1082.782004
 30
0.0
 10
230.283420
 20
1083.793850
 30
0.0
  0
LWPOLYLINE
  5
35d
100
AcDbEntity
  8
0
 62
1
100
AcDbPolyline
 90
9
 70
0
 10
261.131470
 20
1099.381404
 30
0.0
 10
259.225130
 20
1096.090698
 30
0.0
 10
253.852720
 20
1095.917503
 30
0.0
 10
249.520130
 20
1100.074182
 30
0.0
 10
244.321020
 20
1101.459744
 30
0.0
 10
240.161730
 20
1098.861817
 30
0.0
 10
236.349040
 20
1092.453601
 30
0.0
 10
246.747270
 20
1087.430947
 30
0.0
 10
247.787090
 20
1083.274268
 30
0.0
  0
SPLINE
  5
35e
100
AcDbEntity
  8
0
 62
1
100
AcDbSpline
 70
8
 71
3
 72
8
 73
4
 74
0
 40
0
 40
0
 40
0
 40
0
 40
1
 40
1
 40
1
 40
1
 10
222.311450
 20
1059.719741
 30
0.0
 10
221.204696
 20
1054.800215
 30
0.0
 10
221.214195
 20
1049.695227
 30
0.0
 10
222.339250
 20
1044.779854
 30
0.0
  0
SPLINE
  5
35f
100
AcDbEntity
  8
0
 62
1
100
AcDbSpline
 70
8
 71
3
 72
8
 73
4
 74
0
 40
0
 40
0
 40
0
 40
0
 40
1
 40
1
 40
1
 40
1
 10
222.339250
 20
1044.779854
 30
0.0
 10
226.796604
 20
1044.044560
 30
0.0
 10
230.890888
 20
1041.870834
 30
0.0
 10
233.997050
 20
1038.590526
 30
0.0
  0
LWPOLYLINE
  5
360
100
AcDbEntity
  8
0
 62
1
100
AcDbPolyline
 90
10
 70
0
 10
230.283420
 20
1083.793850
 30
0.0
 10
225.084310
 20
1079.983562
 30
0.0
 10
224.391100
 20
1073.402151
 30
0.0
 10
226.990650
 20
1069.591858
 30
0.0
 10
235.655830
 20
1067.340322
 30
0.0
 10
241.201550
 20
1063.530034
 30
0.0
 10
238.948600
 20
1057.641401
 30
0.0
 10
234.616020
 20
1055.216670
 30
0.0
 10
225.430910
 20
1060.412524
 30
0.0
 10
222.311450
 20
1059.719741
 30
0.0
  0
SPLINE
  5
361
100
AcDbEntity
  8
0
 62
1
100
AcDbSpline
 70
8
 71
3
 72
8
 73
4
 74
0
 40
0
 40
0
 40
0
 40
0
 40
1
 40
1
 40
1
 40
1
 10
239.835550
 20
983.351085
 30
0.0
 10
247.198763
 20
985.181418
 30
0.0
 10
254.824493
 20
985.715386
 30
0.0
 10
262.370930
 20
984.929055
 30
0.0
  0
LWPOLYLINE
  5
362
100
AcDbEntity
  8
0
 62
1
100
AcDbPolyline
 90
14
 70
0
 10
233.997050
 20
1038.590526
 30
0.0
 10
235.575710
 20
1035.435182
 30
0.0
 10
233.754180
 20
1030.216732
 30
0.0
 10
223.796470
 20
1031.673042
 30
0.0
 10
221.489200
 20
1029.124494
 30
0.0
 10
221.853500
 20
1018.323515
 30
0.0
 10
226.953790
 20
1015.046805
 30
0.0
 10
237.154370
 20
1012.376905
 30
0.0
 10
238.004420
 20
1006.066215
 30
0.0
 10
234.239920
 20
1003.760395
 30
0.0
 10
224.403650
 20
1006.794375
 30
0.0
 10
224.599130
 20
1000.748565
 30
0.0
 10
230.622330
 20
990.845645
 30
0.0
 10
239.835550
 20
983.351085
 30
0.0
  0
SPLINE
  5
363
100
AcDbEntity
  8
0
 62
1
100
AcDbSpline
 70
8
 71
3
 72
8
 73
4
 74
0
 40
0
 40
0
 40
0
 40
0
 40
1
 40
1
 40
1
 40
1
 10
251.479730
 20
974.323775
 30
0.0
 10
256.454844
 20
968.783224
 30
0.0
 10
261.821135
 20
963.606831
 30
0.0
 10
267.537260
 20
958.834475
 30
0.0
  0
SPLINE
  5
364
100
AcDbEntity
  8
0
 62
1
100
AcDbSpline
 70
8
 71
3
 72
8
 73
4
 74
0
 40
0
 40
0
 40
0
 40
0
 40
1
 40
1
 40
1
 40
1
 10
267.537260
 20
958.834475
 30
0.0
 10
272.799834
 20
960.044778
 30
0.0
 10
278.198226
 20
960.560824
 30
0.0
 10
283.594790
 20
960.369455
 30
0.0
  0
LWPOLYLINE
  5
365
100
AcDbEntity
  8
0
 62
1
100
AcDbPolyline
 90
4
 70
0
 10
262.370930
 20
984.929055
 30
0.0
 10
269.492080
 20
982.277735
 30
0.0
 10
269.492080
 20
975.998285
 30
0.0
 10
251.479730
 20
974.323775
 30
0.0
  0
SPLINE
  5
366
100
AcDbEntity
  8
0
 62
1
100
AcDbSpline
 70
8
 71
3
 72
8
 73
4
 74
0
 40
0
 40
0
 40
0
 40
0
 40
1
 40
1
 40
1
 40
1
 10
299.235010
 20
904.790605
 30
0.0
 10
299.235010
 20
904.790605
 30
0.0
 10
286.249350
 20
903.674265
 30
0.0
 10
286.249350
 20
903.674265
 30
0.0
  0
SPLINE
  5
367
100
AcDbEntity
  8
0
 62
1
100
AcDbSpline
 70
8
 71
3
 72
8
 73
4
 74
0
 40
0
 40
0
 40
0
 40
0
 40
1
 40
1
 40
1
 40
1
 10
286.249350
 20
903.674265
 30
0.0
 10
285.815772
 20
899.461637
 30
0.0
 10
286.907434
 20
895.233211
 30
0.0
 10
289.326070
 20
891.756945
 30
0.0
  0
SPLINE
  5
368
100
AcDbEntity
  8
0
 62
1
100
AcDbSpline
 70
8
 71
3
 72
8
 73
4
 74
0
 40
0
 40
0
 40
0
 40
0
 40
1
 40
1
 40
1
 40
1
 10
289.326070
 20
891.756945
 30
0.0
 10
294.585618
 20
891.377412
 30
0.0
 10
299.809265
 20
890.603679
 30
0.0
 10
304.953000
 20
889.442265
 30
0.0
  0
LWPOLYLINE
  5
369
100
AcDbEntity
  8
0
 62
1
100
AcDbPolyline
 90
15
 70
0
 10
283.594790
 20
960.369455
 30
0.0
 10
288.900750
 20
959.532195
 30
0.0
 10
289.040380
 20
952.415495
 30
0.0
 10
273.960260
 20
951.159605
 30
0.0
 10
274.099890
 20
945.019705
 30
0.0
 10
278.288820
 20
938.321635
 30
0.0
 10
280.941810
 20
937.344835
 30
0.0
 10
296.580440
 20
936.228495
 30
0.0
 10
296.021920
 20
928.274525
 30
0.0
 10
283.177480
 20
928.094315
 30
0.0
 10
280.664120
 20
925.163905
 30
0.0
 10
281.920800
 20
918.186755
 30
0.0
 10
285.551200
 20
914.698175
 30
0.0
 10
300.352050
 20
912.325945
 30
0.0
 10
299.235010
 20
904.790605
 30
0.0
  0
SPLINE
  5
36a
100
AcDbEntity
  8
0
 62
1
100
AcDbSpline
 70
8
 71
3
 72
8
 73
4
 74
0
 40
0
 40
0
 40
0
 40
0
 40
1
 40
1
 40
1
 40
1
 10
290.898660
 20
882.248215
 30
0.0
 10
291.541210
 20
877.975107
 30
0.0
 10
291.883581
 20
873.662231
 30
0.0
 10
291.923260
 20
869.341265
 30
0.0
  0
LWPOLYLINE
  5
36b
100
AcDbEntity
  8
0
 62
1
100
AcDbPolyline
 90
3
 70
0
 10
304.953000
 20
889.442265
 30
0.0
 10
304.678770
 20
882.933365
 30
0.0
 10
290.898660
 20
882.248215
 30
0.0
  0
SPLINE
  5
36c
100
AcDbEntity
  8
0
 62
1
100
AcDbSpline
 70
8
 71
3
 72
8
 73
4
 74
0
 40
0
 40
0
 40
0
 40
0
 40
1
 40
1
 40
1
 40
1
 10
293.168250
 20
788.402505
 30
0.0
 10
286.108164
 20
788.964917
 30
0.0
 10
279.034728
 20
789.344867
 30
0.0
 10
271.955020
 20
789.541975
 30
0.0
  0
SPLINE
  5
36d
100
AcDbEntity
  8
0
 62
1
100
AcDbSpline
 70
8
 71
3
 72
8
 73
4
 74
0
 40
0
 40
0
 40
0
 40
0
 40
1
 40
1
 40
1
 40
1
 10
271.955020
 20
789.541975
 30
0.0
 10
267.272512
 20
788.577352
 30
0.0
 10
262.750930
 20
786.951901
 30
0.0
 10
258.526000
 20
784.714415
 30
0.0
  0
SPLINE
  5
36e
100
AcDbEntity
  8
0
 62
1
100
AcDbSpline
 70
8
 71
3
 72
8
 73
4
 74
0
 40
0
 40
0
 40
0
 40
0
 40
1
 40
1
 40
1
 40
1
 10
258.526000
 20
784.714415
 30
0.0
 10
248.149550
 20
783.128947
 30
0.0
 10
237.586485
 20
786.004790
 30
0.0
 10
229.445870
 20
792.631615
 30
0.0
  0
SPLINE
  5
36f
100
AcDbEntity
  8
0
 62
1
100
AcDbSpline
 70
8
 71
3
 72
8
 73
4
 74
0
 40
0
 40
0
 40
0
 40
0
 40
1
 40
1
 40
1
 40
1
 10
229.445870
 20
792.631615
 30
0.0
 10
224.301483
 20
797.628157
 30
0.0
 10
220.625766
 20
803.939743
 30
0.0
 10
218.818570
 20
810.879785
 30
0.0
  0
LWPOLYLINE
  5
370
100
AcDbEntity
  8
0
 62
1
100
AcDbPolyline
 90
22
 70
0
 10
291.923260
 20
869.341265
 30
0.0
 10
295.370180
 20
867.274405
 30
0.0
 10
309.020010
 20
865.758705
 30
0.0
 10
309.295770
 20
859.006965
 30
0.0
 10
294.405040
 20
856.664525
 30
0.0
 10
293.439900
 20
846.743595
 30
0.0
 10
297.989850
 20
845.227895
 30
0.0
 10
310.950290
 20
843.849995
 30
0.0
 10
310.398790
 20
836.684875
 30
0.0
 10
297.024710
 20
834.893595
 30
0.0
 10
292.612640
 20
832.137785
 30
0.0
 10
292.065240
 20
824.228085
 30
0.0
 10
293.168250
 20
820.645525
 30
0.0
 10
308.610490
 20
820.232155
 30
0.0
 10
307.231720
 20
812.240295
 30
0.0
 10
288.894060
 20
812.515875
 30
0.0
 10
284.619870
 20
809.346695
 30
0.0
 10
282.413840
 20
802.870525
 30
0.0
 10
283.378980
 20
799.012395
 30
0.0
 10
296.615180
 20
797.221115
 30
0.0
 10
298.545460
 20
793.776345
 30
0.0
 10
293.168250
 20
788.402505
 30
0.0
  0
SPLINE
  5
371
100
AcDbEntity
  8
0
 62
1
100
AcDbSpline
 70
8
 71
3
 72
8
 73
4
 74
0
 40
0
 40
0
 40
0
 40
0
 40
1
 40
1
 40
1
 40
1
 10
216.499880
 20
813.872875
 30
0.0
 10
216.499880
 20
813.872875
 30
0.0
 10
192.701300
 20
814.059705
 30
0.0
 10
192.701300
 20
814.059705
 30
0.0
  0
SPLINE
  5
372
100
AcDbEntity
  8
0
 62
1
100
AcDbSpline
 70
8
 71
3
 72
8
 73
4
 74
0
 40
0
 40
0
 40
0
 40
0
 40
1
 40
1
 40
1
 40
1
 10
192.701300
 20
814.059705
 30
0.0
 10
189.813070
 20
814.278817
 30
0.0
 10
186.909485
 20
813.948234
 30
0.0
 10
184.144430
 20
813.085475
 30
0.0
  0
LWPOLYLINE
  5
373
100
AcDbEntity
  8
0
 62
1
100
AcDbPolyline
 90
2
 70
0
 10
218.818570
 20
810.879785
 30
0.0
 10
216.499880
 20
813.872875
 30
0.0
  0
SPLINE
  5
374
100
AcDbEntity
  8
0
 62
1
100
AcDbSpline
 70
8
 71
3
 72
8
 73
4
 74
0
 40
0
 40
0
 40
0
 40
0
 40
1
 40
1
 40
1
 40
1
 10
181.761500
 20
811.245285
 30
0.0
 10
181.761500
 20
811.245285
 30
0.0
 10
182.628020
 20
804.533975
 30
0.0
 10
182.628020
 20
804.533975
 30
0.0
  0
SPLINE
  5
375
100
AcDbEntity
  8
0
 62
1
100
AcDbSpline
 70
8
 71
3
 72
8
 73
4
 74
0
 40
0
 40
0
 40
0
 40
0
 40
1
 40
1
 40
1
 40
1
 10
182.628020
 20
804.533975
 30
0.0
 10
183.913775
 20
801.471127
 30
0.0
 10
186.259169
 20
798.973502
 30
0.0
 10
189.235220
 20
797.497925
 30
0.0
  0
LWPOLYLINE
  5
376
100
AcDbEntity
  8
0
 62
1
100
AcDbPolyline
 90
2
 70
0
 10
184.144430
 20
813.085475
 30
0.0
 10
181.761500
 20
811.245285
 30
0.0
  0
SPLINE
  5
377
100
AcDbEntity
  8
0
 62
1
100
AcDbSpline
 70
8
 71
3
 72
8
 73
4
 74
0
 40
0
 40
0
 40
0
 40
0
 40
1
 40
1
 40
1
 40
1
 10
201.583110
 20
776.065035
 30
0.0
 10
201.583110
 20
776.065035
 30
0.0
 10
225.194110
 20
774.276305
 30
0.0
 10
225.194110
 20
774.276305
 30
0.0
  0
SPLINE
  5
378
100
AcDbEntity
  8
0
 62
1
100
AcDbSpline
 70
8
 71
3
 72
8
 73
4
 74
0
 40
0
 40
0
 40
0
 40
0
 40
1
 40
1
 40
1
 40
1
 10
225.194110
 20
774.276305
 30
0.0
 10
234.654246
 20
775.066399
 30
0.0
 10
244.166105
 20
775.008438
 30
0.0
 10
253.615910
 20
774.103115
 30
0.0
  0
SPLINE
  5
379
100
AcDbEntity
  8
0
 62
1
100
AcDbSpline
 70
8
 71
3
 72
8
 73
4
 74
0
 40
0
 40
0
 40
0
 40
0
 40
1
 40
1
 40
1
 40
1
 10
253.615910
 20
774.103115
 30
0.0
 10
253.615910
 20
774.103115
 30
0.0
 10
252.922700
 20
765.616555
 30
0.0
 10
252.922700
 20
765.616555
 30
0.0
  0
SPLINE
  5
37a
100
AcDbEntity
  8
0
 62
1
100
AcDbSpline
 70
8
 71
3
 72
8
 73
4
 74
0
 40
0
 40
0
 40
0
 40
0
 40
1
 40
1
 40
1
 40
1
 10
252.922700
 20
765.616555
 30
0.0
 10
240.969150
 20
766.031854
 30
0.0
 10
229.005853
 20
766.089610
 30
0.0
 10
217.048850
 20
765.789745
 30
0.0
  0
LWPOLYLINE
  5
37b
100
AcDbEntity
  8
0
 62
1
100
AcDbPolyline
 90
6
 70
0
 10
189.235220
 20
797.497925
 30
0.0
 10
208.515260
 20
796.307205
 30
0.0
 10
208.515260
 20
789.812395
 30
0.0
 10
194.650960
 20
789.162915
 30
0.0
 10
192.268040
 20
788.080445
 30
0.0
 10
201.583110
 20
776.065035
 30
0.0
  0
SPLINE
  5
37c
100
AcDbEntity
  8
0
 62
1
100
AcDbSpline
 70
8
 71
3
 72
8
 73
4
 74
0
 40
0
 40
0
 40
0
 40
0
 40
1
 40
1
 40
1
 40
1
 10
222.594560
 20
757.822775
 30
0.0
 10
222.594560
 20
757.822775
 30
0.0
 10
239.058410
 20
751.587755
 30
0.0
 10
239.058410
 20
751.587755
 30
0.0
  0
SPLINE
  5
37d
100
AcDbEntity
  8
0
 62
1
100
AcDbSpline
 70
8
 71
3
 72
8
 73
4
 74
0
 40
0
 40
0
 40
0
 40
0
 40
1
 40
1
 40
1
 40
1
 10
239.058410
 20
751.587755
 30
0.0
 10
250.981259
 20
749.878555
 30
0.0
 10
263.105769
 20
750.171236
 30
0.0
 10
274.932260
 20
752.453735
 30
0.0
  0
LWPOLYLINE
  5
37e
100
AcDbEntity
  8
0
 62
1
100
AcDbPolyline
 90
3
 70
0
 10
217.048850
 20
765.789745
 30
0.0
 10
216.528930
 20
763.018625
 30
0.0
 10
222.594560
 20
757.822775
 30
0.0
  0
SPLINE
  5
37f
100
AcDbEntity
  8
0
 62
1
100
AcDbSpline
 70
8
 71
3
 72
8
 73
4
 74
0
 40
0
 40
0
 40
0
 40
0
 40
1
 40
1
 40
1
 40
1
 10
288.276640
 20
758.342365
 30
0.0
 10
297.947558
 20
765.828041
 30
0.0
 10
306.522688
 20
774.630983
 30
0.0
 10
313.752280
 20
784.494805
 30
0.0
  0
LWPOLYLINE
  5
380
100
AcDbEntity
  8
0
 62
1
100
AcDbPolyline
 90
2
 70
0
 10
274.932260
 20
752.453735
 30
0.0
 10
288.276640
 20
758.342365
 30
0.0
  0
SPLINE
  5
381
100
AcDbEntity
  8
0
 62
1
100
AcDbSpline
 70
8
 71
3
 72
8
 73
4
 74
0
 40
0
 40
0
 40
0
 40
0
 40
1
 40
1
 40
1
 40
1
 10
320.018860
 20
796.846765
 30
0.0
 10
322.477754
 20
805.540540
 30
0.0
 10
324.616605
 20
814.321669
 30
0.0
 10
326.431090
 20
823.172405
 30
0.0
  0
SPLINE
  5
382
100
AcDbEntity
  8
0
 62
1
100
AcDbSpline
 70
8
 71
3
 72
8
 73
4
 74
0
 40
0
 40
0
 40
0
 40
0
 40
1
 40
1
 40
1
 40
1
 10
326.431090
 20
823.172405
 30
0.0
 10
327.234340
 20
839.311303
 30
0.0
 10
325.184287
 20
855.465372
 30
0.0
 10
320.375170
 20
870.892025
 30
0.0
  0
SPLINE
  5
383
100
AcDbEntity
  8
0
 62
1
100
AcDbSpline
 70
8
 71
3
 72
8
 73
4
 74
0
 40
0
 40
0
 40
0
 40
0
 40
1
 40
1
 40
1
 40
1
 10
320.375170
 20
870.892025
 30
0.0
 10
318.023443
 20
877.935463
 30
0.0
 10
316.738336
 20
885.291013
 30
0.0
 10
316.562490
 20
892.714605
 30
0.0
  0
SPLINE
  5
384
100
AcDbEntity
  8
0
 62
1
100
AcDbSpline
 70
8
 71
3
 72
8
 73
4
 74
0
 40
0
 40
0
 40
0
 40
0
 40
1
 40
1
 40
1
 40
1
 10
316.562490
 20
892.714605
 30
0.0
 10
316.602455
 20
905.228349
 30
0.0
 10
317.470870
 20
917.725720
 30
0.0
 10
319.162040
 20
930.124725
 30
0.0
  0
LWPOLYLINE
  5
385
100
AcDbEntity
  8
0
 62
1
100
AcDbPolyline
 90
2
 70
0
 10
313.752280
 20
784.494805
 30
0.0
 10
320.018860
 20
796.846765
 30
0.0
  0
SPLINE
  5
386
100
AcDbEntity
  8
0
 62
1
100
AcDbSpline
 70
8
 71
3
 72
8
 73
4
 74
0
 40
0
 40
0
 40
0
 40
0
 40
1
 40
1
 40
1
 40
1
 10
311.016770
 20
956.969955
 30
0.0
 10
306.665459
 20
961.496172
 30
0.0
 10
302.503694
 20
966.200867
 30
0.0
 10
298.542200
 20
971.071915
 30
0.0
  0
LWPOLYLINE
  5
387
100
AcDbEntity
  8
0
 62
1
100
AcDbPolyline
 90
3
 70
0
 10
319.162040
 20
930.124725
 30
0.0
 10
318.468830
 20
941.901995
 30
0.0
 10
311.016770
 20
956.969955
 30
0.0
  0
LWPOLYLINE
  5
388
100
AcDbEntity
  8
0
 62
1
100
AcDbPolyline
 90
1
 70
1
 10
298.542200
 20
971.071915
 30
0.0
  0
SPLINE
  5
389
100
AcDbEntity
  8
0
 62
1
100
AcDbSpline
 70
8
 71
3
 72
8
 73
4
 74
0
 40
0
 40
0
 40
0
 40
0
 40
1
 40
1
 40
1
 40
1
 10
591.257820
 20
418.741445
 30
0.0
 10
588.006903
 20
420.415185
 30
0.0
 10
585.323606
 20
423.013000
 30
0.0
 10
583.545530
 20
426.208045
 30
0.0
  0
LWPOLYLINE
  5
38a
100
AcDbEntity
  8
0
 62
1
100
AcDbPolyline
 90
9
 70
0
 10
618.009820
 20
395.619095
 30
0.0
 10
616.081740
 20
392.728795
 30
0.0
 10
597.283040
 20
393.692225
 30
0.0
 10
591.739840
 20
396.823375
 30
0.0
 10
588.124710
 20
403.808255
 30
0.0
 10
589.329750
 20
407.902845
 30
0.0
 10
602.826250
 20
408.625415
 30
0.0
 10
602.585240
 20
418.259735
 30
0.0
 10
591.257820
 20
418.741445
 30
0.0
  0
SPLINE
  5
38b
100
AcDbEntity
  8
0
 62
1
100
AcDbSpline
 70
8
 71
3
 72
8
 73
4
 74
0
 40
0
 40
0
 40
0
 40
0
 40
1
 40
1
 40
1
 40
1
 10
593.908920
 20
441.622945
 30
0.0
 10
588.455343
 20
442.015660
 30
0.0
 10
582.987538
 20
442.176378
 30
0.0
 10
577.520310
 20
442.104665
 30
0.0
  0
LWPOLYLINE
  5
38c
100
AcDbEntity
  8
0
 62
1
100
AcDbPolyline
 90
4
 70
0
 10
583.545530
 20
426.208045
 30
0.0
 10
583.304520
 20
430.543485
 30
0.0
 10
596.560020
 20
434.397215
 30
0.0
 10
593.908920
 20
441.622945
 30
0.0
  0
SPLINE
  5
38d
100
AcDbEntity
  8
0
 62
1
100
AcDbSpline
 70
8
 71
3
 72
8
 73
4
 74
0
 40
0
 40
0
 40
0
 40
0
 40
1
 40
1
 40
1
 40
1
 10
590.260380
 20
479.733465
 30
0.0
 10
590.260380
 20
479.733465
 30
0.0
 10
603.478530
 20
448.281395
 30
0.0
 10
603.478530
 20
448.281395
 30
0.0
  0
SPLINE
  5
38e
100
AcDbEntity
  8
0
 62
1
100
AcDbSpline
 70
8
 71
3
 72
8
 73
4
 74
0
 40
0
 40
0
 40
0
 40
0
 40
1
 40
1
 40
1
 40
1
 10
603.478530
 20
448.281395
 30
0.0
 10
608.856744
 20
439.234579
 30
0.0
 10
613.090233
 20
429.554662
 30
0.0
 10
616.081740
 20
419.464025
 30
0.0
  0
LWPOLYLINE
  5
38f
100
AcDbEntity
  8
0
 62
1
100
AcDbPolyline
 90
11
 70
0
 10
577.520310
 20
442.104665
 30
0.0
 10
573.423160
 20
449.571255
 30
0.0
 10
573.182150
 20
455.351845
 30
0.0
 10
586.919660
 20
457.760425
 30
0.0
 10
583.545530
 20
464.745305
 30
0.0
 10
573.182150
 20
463.541015
 30
0.0
 10
568.843990
 20
465.949595
 30
0.0
 10
564.987840
 20
472.452755
 30
0.0
 10
566.192890
 20
478.474205
 30
0.0
 10
575.126580
 20
480.420935
 30
0.0
 10
590.260380
 20
479.733465
 30
0.0
  0
LWPOLYLINE
  5
390
100
AcDbEntity
  8
0
 62
1
100
AcDbPolyline
 90
3
 70
0
 10
616.081740
 20
419.464025
 30
0.0
 10
618.973850
 20
403.085685
 30
0.0
 10
618.009820
 20
395.619095
 30
0.0
  0
SPLINE
  5
391
100
AcDbEntity
  8
0
 62
1
100
AcDbSpline
 70
8
 71
3
 72
8
 73
4
 74
0
 40
0
 40
0
 40
0
 40
0
 40
1
 40
1
 40
1
 40
1
 10
33.782784
 20
276.176265
 30
0.0
 10
33.782784
 20
276.176265
 30
0.0
 10
46.833834
 20
272.340155
 30
0.0
 10
46.833834
 20
272.340155
 30
0.0
  0
SPLINE
  5
392
100
AcDbEntity
  8
0
 62
1
100
AcDbSpline
 70
8
 71
3
 72
8
 73
4
 74
0
 40
0
 40
0
 40
0
 40
0
 40
1
 40
1
 40
1
 40
1
 10
46.833834
 20
272.340155
 30
0.0
 10
56.467717
 20
272.354794
 30
0.0
 10
66.016228
 20
274.146694
 30
0.0
 10
74.999944
 20
277.625885
 30
0.0
  0
SPLINE
  5
393
100
AcDbEntity
  8
0
 62
1
100
AcDbSpline
 70
8
 71
3
 72
8
 73
4
 74
0
 40
0
 40
0
 40
0
 40
0
 40
1
 40
1
 40
1
 40
1
 10
74.999944
 20
277.625885
 30
0.0
 10
81.983235
 20
279.168652
 30
0.0
 10
89.231557
 20
279.046634
 30
0.0
 10
96.158964
 20
277.269695
 30
0.0
  0
SPLINE
  5
394
100
AcDbEntity
  8
0
 62
1
100
AcDbSpline
 70
8
 71
3
 72
8
 73
4
 74
0
 40
0
 40
0
 40
0
 40
0
 40
1
 40
1
 40
1
 40
1
 10
96.158964
 20
277.269695
 30
0.0
 10
96.158964
 20
277.269695
 30
0.0
 10
103.932100
 20
270.518695
 30
0.0
 10
103.932100
 20
270.518695
 30
0.0
  0
SPLINE
  5
395
100
AcDbEntity
  8
0
 62
1
100
AcDbSpline
 70
8
 71
3
 72
8
 73
4
 74
0
 40
0
 40
0
 40
0
 40
0
 40
1
 40
1
 40
1
 40
1
 10
103.932100
 20
270.518695
 30
0.0
 10
108.378133
 20
266.257332
 30
0.0
 10
111.645740
 20
260.917935
 30
0.0
 10
113.417150
 20
255.019755
 30
0.0
  0
LWPOLYLINE
  5
396
100
AcDbEntity
  8
0
 62
1
100
AcDbPolyline
 90
33
 70
0
 10
116.425730
 20
294.239125
 30
0.0
 10
106.922740
 20
298.184075
 30
0.0
 10
102.682970
 20
288.540905
 30
0.0
 10
99.758954
 20
286.349275
 30
0.0
 10
93.179914
 20
290.586435
 30
0.0
 10
99.174134
 20
299.060705
 30
0.0
 10
94.495734
 20
303.151765
 30
0.0
 10
84.261734
 20
305.197285
 30
0.0
 10
80.752894
 20
290.148115
 30
0.0
 10
71.396094
 20
291.609175
 30
0.0
 10
72.273284
 20
306.073925
 30
0.0
 10
65.498164
 20
311.989135
 30
0.0
 10
61.969864
 20
323.155045
 30
0.0
 10
53.169034
 20
342.335785
 30
0.0
 10
47.105764
 20
349.693745
 30
0.0
 10
38.588224
 20
351.713565
 30
0.0
 10
32.380584
 20
349.549485
 30
0.0
 10
24.296224
 20
341.758715
 30
0.0
 10
25.306734
 20
337.863285
 30
0.0
 10
43.823834
 20
336.805845
 30
0.0
 10
43.352244
 20
328.341245
 30
0.0
 10
23.285644
 20
330.072515
 30
0.0
 10
13.468924
 20
324.878675
 30
0.0
 10
11.880874
 20
315.645155
 30
0.0
 10
38.324014
 20
315.791265
 30
0.0
 10
38.120594
 20
304.405875
 30
0.0
 10
12.283924
 20
304.405875
 30
0.0
 10
18.387084
 20
293.630405
 30
0.0
 10
25.337994
 20
292.287985
 30
0.0
 10
41.076034
 20
291.904405
 30
0.0
 10
44.146844
 20
284.999345
 30
0.0
 10
29.560434
 20
282.697665
 30
0.0
 10
33.782784
 20
276.176265
 30
0.0
  0
SPLINE
  5
397
100
AcDbEntity
  8
0
 62
1
100
AcDbSpline
 70
8
 71
3
 72
8
 73
4
 74
0
 40
0
 40
0
 40
0
 40
0
 40
1
 40
1
 40
1
 40
1
 10
194.127400
 20
288.522345
 30
0.0
 10
194.127400
 20
288.522345
 30
0.0
 10
188.319930
 20
275.905295
 30
0.0
 10
188.319930
 20
275.905295
 30
0.0
  0
SPLINE
  5
398
100
AcDbEntity
  8
0
 62
1
100
AcDbSpline
 70
8
 71
3
 72
8
 73
4
 74
0
 40
0
 40
0
 40
0
 40
0
 40
1
 40
1
 40
1
 40
1
 10
188.319930
 20
275.905295
 30
0.0
 10
186.398319
 20
272.772194
 30
0.0
 10
183.857068
 20
270.064559
 30
0.0
 10
180.851960
 20
267.948375
 30
0.0
  0
LWPOLYLINE
  5
399
100
AcDbEntity
  8
0
 62
1
100
AcDbPolyline
 90
11
 70
0
 10
113.417150
 20
255.019755
 30
0.0
 10
119.349220
 20
249.207725
 30
0.0
 10
123.885450
 20
247.580315
 30
0.0
 10
130.631660
 20
254.322325
 30
0.0
 10
132.027420
 20
266.295155
 30
0.0
 10
129.817450
 20
275.826945
 30
0.0
 10
127.607480
 20
278.616735
 30
0.0
 10
119.930790
 20
271.874735
 30
0.0
 10
113.882430
 20
276.989375
 30
0.0
 10
121.908120
 20
287.567325
 30
0.0
 10
116.425730
 20
294.239125
 30
0.0
  0
SPLINE
  5
39a
100
AcDbEntity
  8
0
 62
1
100
AcDbSpline
 70
8
 71
3
 72
8
 73
4
 74
0
 40
0
 40
0
 40
0
 40
0
 40
1
 40
1
 40
1
 40
1
 10
171.024730
 20
272.749755
 30
0.0
 10
171.024730
 20
272.749755
 30
0.0
 10
169.932760
 20
285.953645
 30
0.0
 10
169.932760
 20
285.953645
 30
0.0
  0
SPLINE
  5
39b
100
AcDbEntity
  8
0
 62
1
100
AcDbSpline
 70
8
 71
3
 72
8
 73
4
 74
0
 40
0
 40
0
 40
0
 40
0
 40
1
 40
1
 40
1
 40
1
 10
169.932760
 20
285.953645
 30
0.0
 10
170.793099
 20
290.373213
 30
0.0
 10
172.756513
 20
294.503642
 30
0.0
 10
175.640600
 20
297.961215
 30
0.0
  0
LWPOLYLINE
  5
39c
100
AcDbEntity
  8
0
 62
1
100
AcDbPolyline
 90
3
 70
0
 10
180.851960
 20
267.948375
 30
0.0
 10
176.811830
 20
267.293635
 30
0.0
 10
171.024730
 20
272.749755
 30
0.0
  0
SPLINE
  5
39d
100
AcDbEntity
  8
0
 62
1
100
AcDbSpline
 70
8
 71
3
 72
8
 73
4
 74
0
 40
0
 40
0
 40
0
 40
0
 40
1
 40
1
 40
1
 40
1
 10
188.394120
 20
296.040625
 30
0.0
 10
188.394120
 20
296.040625
 30
0.0
 10
180.532340
 20
305.468845
 30
0.0
 10
180.532340
 20
305.468845
 30
0.0
  0
SPLINE
  5
39e
100
AcDbEntity
  8
0
 62
1
100
AcDbSpline
 70
8
 71
3
 72
8
 73
4
 74
0
 40
0
 40
0
 40
0
 40
0
 40
1
 40
1
 40
1
 40
1
 10
180.532340
 20
305.468845
 30
0.0
 10
184.420551
 20
310.106945
 30
0.0
 10
189.491603
 20
313.606206
 30
0.0
 10
195.207630
 20
315.595475
 30
0.0
  0
LWPOLYLINE
  5
39f
100
AcDbEntity
  8
0
 62
1
100
AcDbPolyline
 90
3
 70
0
 10
175.640600
 20
297.961215
 30
0.0
 10
182.803550
 20
290.628115
 30
0.0
 10
188.394120
 20
296.040625
 30
0.0
  0
SPLINE
  5
3a0
100
AcDbEntity
  8
0
 62
1
100
AcDbSpline
 70
8
 71
3
 72
8
 73
4
 74
0
 40
0
 40
0
 40
0
 40
0
 40
1
 40
1
 40
1
 40
1
 10
231.157250
 20
323.935085
 30
0.0
 10
231.157250
 20
323.935085
 30
0.0
 10
239.928020
 20
327.471955
 30
0.0
 10
239.928020
 20
327.471955
 30
0.0
  0
SPLINE
  5
3a1
100
AcDbEntity
  8
0
 62
1
100
AcDbSpline
 70
8
 71
3
 72
8
 73
4
 74
0
 40
0
 40
0
 40
0
 40
0
 40
1
 40
1
 40
1
 40
1
 10
239.928020
 20
327.471955
 30
0.0
 10
244.592545
 20
331.512903
 30
0.0
 10
248.963340
 20
335.880941
 30
0.0
 10
253.007230
 20
340.542915
 30
0.0
  0
LWPOLYLINE
  5
3a2
100
AcDbEntity
  8
0
 62
1
100
AcDbPolyline
 90
8
 70
0
 10
195.207630
 20
315.595475
 30
0.0
 10
200.798270
 20
303.024485
 30
0.0
 10
207.786500
 20
308.436995
 30
0.0
 10
203.069420
 20
319.436565
 30
0.0
 10
218.094160
 20
320.658745
 30
0.0
 10
221.309420
 20
308.403665
 30
0.0
 10
230.695670
 20
309.172545
 30
0.0
 10
231.157250
 20
323.935085
 30
0.0
  0
SPLINE
  5
3a3
100
AcDbEntity
  8
0
 62
1
100
AcDbSpline
 70
8
 71
3
 72
8
 73
4
 74
0
 40
0
 40
0
 40
0
 40
0
 40
1
 40
1
 40
1
 40
1
 10
284.243390
 20
324.550205
 30
0.0
 10
282.071318
 20
319.709977
 30
0.0
 10
279.657096
 20
314.982098
 30
0.0
 10
277.009880
 20
310.384495
 30
0.0
  0
LWPOLYLINE
  5
3a4
100
AcDbEntity
  8
0
 62
1
100
AcDbPolyline
 90
9
 70
0
 10
253.007230
 20
340.542915
 30
0.0
 10
262.239570
 20
345.617545
 30
0.0
 10
268.394450
 20
346.232655
 30
0.0
 10
277.626870
 20
341.619345
 30
0.0
 10
281.923190
 20
332.418685
 30
0.0
 10
262.855060
 20
332.392785
 30
0.0
 10
261.931840
 20
329.163475
 30
0.0
 10
265.317050
 20
324.396425
 30
0.0
 10
284.243390
 20
324.550205
 30
0.0
  0
SPLINE
  5
3a5
100
AcDbEntity
  8
0
 62
1
100
AcDbSpline
 70
8
 71
3
 72
8
 73
4
 74
0
 40
0
 40
0
 40
0
 40
0
 40
1
 40
1
 40
1
 40
1
 10
271.897000
 20
297.101935
 30
0.0
 10
264.940132
 20
291.964768
 30
0.0
 10
256.123067
 20
290.037229
 30
0.0
 10
247.657170
 20
291.802755
 30
0.0
  0
LWPOLYLINE
  5
3a6
100
AcDbEntity
  8
0
 62
1
100
AcDbPolyline
 90
5
 70
0
 10
277.009880
 20
310.384495
 30
0.0
 10
260.433870
 20
311.464875
 30
0.0
 10
261.154570
 20
303.182085
 30
0.0
 10
273.046050
 20
302.101715
 30
0.0
 10
271.897000
 20
297.101935
 30
0.0
  0
LWPOLYLINE
  5
3a7
100
AcDbEntity
  8
0
 62
1
100
AcDbPolyline
 90
6
 70
0
 10
247.657170
 20
291.802755
 30
0.0
 10
233.517190
 20
297.101935
 30
0.0
 10
220.387260
 20
299.120635
 30
0.0
 10
208.267300
 20
297.606605
 30
0.0
 10
194.127400
 20
288.522355
 30
0.0
 10
194.127400
 20
288.522345
 30
0.0
  0
SPLINE
  5
3a8
100
AcDbEntity
  8
0
 62
1
100
AcDbSpline
 70
8
 71
3
 72
8
 73
4
 74
0
 40
0
 40
0
 40
0
 40
0
 40
1
 40
1
 40
1
 40
1
 10
430.829350
 20
248.441045
 30
0.0
 10
430.829350
 20
248.441045
 30
0.0
 10
435.145120
 20
257.786005
 30
0.0
 10
435.145120
 20
257.786005
 30
0.0
  0
SPLINE
  5
3a9
100
AcDbEntity
  8
0
 62
1
100
AcDbSpline
 70
8
 71
3
 72
8
 73
4
 74
0
 40
0
 40
0
 40
0
 40
0
 40
1
 40
1
 40
1
 40
1
 10
435.145120
 20
257.786005
 30
0.0
 10
433.467167
 20
260.918268
 30
0.0
 10
431.185461
 20
263.687184
 30
0.0
 10
428.431700
 20
265.932935
 30
0.0
  0
LWPOLYLINE
  5
3aa
100
AcDbEntity
  8
0
 62
1
100
AcDbPolyline
 90
6
 70
0
 10
451.688960
 20
233.345285
 30
0.0
 10
446.670550
 20
232.661385
 30
0.0
 10
439.700660
 20
239.096035
 30
0.0
 10
420.519420
 20
239.814875
 30
0.0
 10
419.800150
 20
247.003355
 30
0.0
 10
430.829350
 20
248.441045
 30
0.0
  0
SPLINE
  5
3ab
100
AcDbEntity
  8
0
 62
1
100
AcDbSpline
 70
8
 71
3
 72
8
 73
4
 74
0
 40
0
 40
0
 40
0
 40
0
 40
1
 40
1
 40
1
 40
1
 10
460.092490
 20
292.853685
 30
0.0
 10
460.092490
 20
292.853685
 30
0.0
 10
464.989760
 20
296.994975
 30
0.0
 10
464.989760
 20
296.994975
 30
0.0
  0
SPLINE
  5
3ac
100
AcDbEntity
  8
0
 62
1
100
AcDbSpline
 70
8
 71
3
 72
8
 73
4
 74
0
 40
0
 40
0
 40
0
 40
0
 40
1
 40
1
 40
1
 40
1
 10
464.989760
 20
296.994975
 30
0.0
 10
465.929409
 20
306.408552
 30
0.0
 10
467.253175
 20
315.779820
 30
0.0
 10
468.957750
 20
325.085345
 30
0.0
  0
SPLINE
  5
3ad
100
AcDbEntity
  8
0
 62
1
100
AcDbSpline
 70
8
 71
3
 72
8
 73
4
 74
0
 40
0
 40
0
 40
0
 40
0
 40
1
 40
1
 40
1
 40
1
 10
468.957750
 20
325.085345
 30
0.0
 10
468.957750
 20
325.085345
 30
0.0
 10
473.855010
 20
336.191455
 30
0.0
 10
473.855010
 20
336.191455
 30
0.0
  0
SPLINE
  5
3ae
100
AcDbEntity
  8
0
 62
1
100
AcDbSpline
 70
8
 71
3
 72
8
 73
4
 74
0
 40
0
 40
0
 40
0
 40
0
 40
1
 40
1
 40
1
 40
1
 10
473.855010
 20
336.191455
 30
0.0
 10
475.358620
 20
342.984418
 30
0.0
 10
475.928960
 20
349.950685
 30
0.0
 10
475.550270
 20
356.897755
 30
0.0
  0
SPLINE
  5
3af
100
AcDbEntity
  8
0
 62
1
100
AcDbSpline
 70
8
 71
3
 72
8
 73
4
 74
0
 40
0
 40
0
 40
0
 40
0
 40
1
 40
1
 40
1
 40
1
 10
475.550270
 20
356.897755
 30
0.0
 10
475.550270
 20
356.897755
 30
0.0
 10
470.087870
 20
364.239085
 30
0.0
 10
470.087870
 20
364.239085
 30
0.0
  0
SPLINE
  5
3b0
100
AcDbEntity
  8
0
 62
1
100
AcDbSpline
 70
8
 71
3
 72
8
 73
4
 74
0
 40
0
 40
0
 40
0
 40
0
 40
1
 40
1
 40
1
 40
1
 10
470.087870
 20
364.239085
 30
0.0
 10
465.249330
 20
367.801936
 30
0.0
 10
460.286171
 20
371.192373
 30
0.0
 10
455.207720
 20
374.404025
 30
0.0
  0
LWPOLYLINE
  5
3b1
100
AcDbEntity
  8
0
 62
1
100
AcDbPolyline
 90
10
 70
0
 10
428.431700
 20
265.932935
 30
0.0
 10
432.747480
 20
270.006395
 30
0.0
 10
440.420010
 20
267.610255
 30
0.0
 10
449.531070
 20
269.047945
 30
0.0
 10
456.244500
 20
278.872155
 30
0.0
 10
457.643820
 20
283.818235
 30
0.0
 10
442.185140
 20
284.169345
 30
0.0
 10
441.633480
 20
289.841885
 30
0.0
 10
444.458780
 20
294.171365
 30
0.0
 10
460.092490
 20
292.853685
 30
0.0
  0
SPLINE
  5
3b2
100
AcDbEntity
  8
0
 62
1
100
AcDbSpline
 70
8
 71
3
 72
8
 73
4
 74
0
 40
0
 40
0
 40
0
 40
0
 40
1
 40
1
 40
1
 40
1
 10
447.673430
 20
374.027515
 30
0.0
 10
447.673430
 20
374.027515
 30
0.0
 10
435.995290
 20
368.380345
 30
0.0
 10
435.995290
 20
368.380345
 30
0.0
  0
SPLINE
  5
3b3
100
AcDbEntity
  8
0
 62
1
100
AcDbSpline
 70
8
 71
3
 72
8
 73
4
 74
0
 40
0
 40
0
 40
0
 40
0
 40
1
 40
1
 40
1
 40
1
 10
435.995290
 20
368.380345
 30
0.0
 10
433.268134
 20
366.653407
 30
0.0
 10
431.413485
 20
363.838894
 30
0.0
 10
430.902400
 20
360.651655
 30
0.0
  0
LWPOLYLINE
  5
3b4
100
AcDbEntity
  8
0
 62
1
100
AcDbPolyline
 90
2
 70
0
 10
455.207720
 20
374.404025
 30
0.0
 10
447.673430
 20
374.027515
 30
0.0
  0
SPLINE
  5
3b5
100
AcDbEntity
  8
0
 62
1
100
AcDbSpline
 70
8
 71
3
 72
8
 73
4
 74
0
 40
0
 40
0
 40
0
 40
0
 40
1
 40
1
 40
1
 40
1
 10
398.423850
 20
344.060295
 30
0.0
 10
398.423850
 20
344.060295
 30
0.0
 10
400.082840
 20
339.418115
 30
0.0
 10
400.082840
 20
339.418115
 30
0.0
  0
SPLINE
  5
3b6
100
AcDbEntity
  8
0
 62
1
100
AcDbSpline
 70
8
 71
3
 72
8
 73
4
 74
0
 40
0
 40
0
 40
0
 40
0
 40
1
 40
1
 40
1
 40
1
 10
400.082840
 20
339.418115
 30
0.0
 10
411.171489
 20
338.846045
 30
0.0
 10
422.285795
 20
339.005805
 30
0.0
 10
433.353420
 20
339.896355
 30
0.0
  0
LWPOLYLINE
  5
3b7
100
AcDbEntity
  8
0
 62
1
100
AcDbPolyline
 90
7
 70
0
 10
430.902400
 20
360.651655
 30
0.0
 10
447.673430
 20
359.721365
 30
0.0
 10
448.615200
 20
354.638895
 30
0.0
 10
444.848050
 20
352.944735
 30
0.0
 10
401.337500
 20
354.074195
 30
0.0
 10
398.589790
 20
351.852515
 30
0.0
 10
398.423850
 20
344.060295
 30
0.0
  0
SPLINE
  5
3b8
100
AcDbEntity
  8
0
 62
1
100
AcDbSpline
 70
8
 71
3
 72
8
 73
4
 74
0
 40
0
 40
0
 40
0
 40
0
 40
1
 40
1
 40
1
 40
1
 10
414.650940
 20
315.832025
 30
0.0
 10
422.600244
 20
315.919636
 30
0.0
 10
430.550510
 20
315.841732
 30
0.0
 10
438.496570
 20
315.598365
 30
0.0
  0
LWPOLYLINE
  5
3b9
100
AcDbEntity
  8
0
 62
1
100
AcDbPolyline
 90
6
 70
0
 10
433.353420
 20
339.896355
 30
0.0
 10
431.716990
 20
328.681885
 30
0.0
 10
404.130850
 20
330.317325
 30
0.0
 10
403.663220
 20
325.644665
 30
0.0
 10
407.403720
 20
320.738345
 30
0.0
 10
414.650940
 20
315.832025
 30
0.0
  0
SPLINE
  5
3ba
100
AcDbEntity
  8
0
 62
1
100
AcDbSpline
 70
8
 71
3
 72
8
 73
4
 74
0
 40
0
 40
0
 40
0
 40
0
 40
1
 40
1
 40
1
 40
1
 10
413.949610
 20
306.252995
 30
0.0
 10
415.724054
 20
301.677235
 30
0.0
 10
419.141987
 20
297.928211
 30
0.0
 10
423.534660
 20
295.739455
 30
0.0
  0
LWPOLYLINE
  5
3bb
100
AcDbEntity
  8
0
 62
1
100
AcDbPolyline
 90
3
 70
0
 10
438.496570
 20
315.598365
 30
0.0
 10
438.964130
 20
305.318445
 30
0.0
 10
413.949610
 20
306.252995
 30
0.0
  0
SPLINE
  5
3bc
100
AcDbEntity
  8
0
 62
1
100
AcDbSpline
 70
8
 71
3
 72
8
 73
4
 74
0
 40
0
 40
0
 40
0
 40
0
 40
1
 40
1
 40
1
 40
1
 10
424.698250
 20
289.389785
 30
0.0
 10
424.698250
 20
289.389785
 30
0.0
 10
423.295510
 20
280.745315
 30
0.0
 10
423.295510
 20
280.745315
 30
0.0
  0
SPLINE
  5
3bd
100
AcDbEntity
  8
0
 62
1
100
AcDbSpline
 70
8
 71
3
 72
8
 73
4
 74
0
 40
0
 40
0
 40
0
 40
0
 40
1
 40
1
 40
1
 40
1
 10
423.295510
 20
280.745315
 30
0.0
 10
419.984019
 20
274.624527
 30
0.0
 10
415.983785
 20
268.902291
 30
0.0
 10
411.372690
 20
263.690015
 30
0.0
  0
SPLINE
  5
3be
100
AcDbEntity
  8
0
 62
1
100
AcDbSpline
 70
8
 71
3
 72
8
 73
4
 74
0
 40
0
 40
0
 40
0
 40
0
 40
1
 40
1
 40
1
 40
1
 10
411.372690
 20
263.690015
 30
0.0
 10
406.250080
 20
261.128718
 30
0.0
 10
401.588873
 20
257.733692
 30
0.0
 10
397.579660
 20
253.643755
 30
0.0
  0
SPLINE
  5
3bf
100
AcDbEntity
  8
0
 62
1
100
AcDbSpline
 70
8
 71
3
 72
8
 73
4
 74
0
 40
0
 40
0
 40
0
 40
0
 40
1
 40
1
 40
1
 40
1
 10
397.579660
 20
253.643755
 30
0.0
 10
397.579660
 20
253.643755
 30
0.0
 10
396.644560
 20
248.036535
 30
0.0
 10
396.644560
 20
248.036535
 30
0.0
  0
SPLINE
  5
3c0
100
AcDbEntity
  8
0
 62
1
100
AcDbSpline
 70
8
 71
3
 72
8
 73
4
 74
0
 40
0
 40
0
 40
0
 40
0
 40
1
 40
1
 40
1
 40
1
 10
396.644560
 20
248.036535
 30
0.0
 10
404.555747
 20
241.834613
 30
0.0
 10
411.420680
 20
234.403607
 30
0.0
 10
416.977650
 20
226.026805
 30
0.0
  0
SPLINE
  5
3c1
100
AcDbEntity
  8
0
 62
1
100
AcDbSpline
 70
8
 71
3
 72
8
 73
4
 74
0
 40
0
 40
0
 40
0
 40
0
 40
1
 40
1
 40
1
 40
1
 10
416.977650
 20
226.026805
 30
0.0
 10
417.875007
 20
220.505756
 30
0.0
 10
419.603281
 20
215.152433
 30
0.0
 10
422.103690
 20
210.148915
 30
0.0
  0
LWPOLYLINE
  5
3c2
100
AcDbEntity
  8
0
 62
1
100
AcDbPolyline
 90
2
 70
0
 10
423.534660
 20
295.739455
 30
0.0
 10
424.698250
 20
289.389785
 30
0.0
  0
SPLINE
  5
3c3
100
AcDbEntity
  8
0
 62
1
100
AcDbSpline
 70
8
 71
3
 72
8
 73
4
 74
0
 40
0
 40
0
 40
0
 40
0
 40
1
 40
1
 40
1
 40
1
 10
667.490190
 20
199.193795
 30
0.0
 10
664.713935
 20
207.850364
 30
0.0
 10
660.842600
 20
216.116577
 30
0.0
 10
655.970290
 20
223.791495
 30
0.0
  0
SPLINE
  5
3c4
100
AcDbEntity
  8
0
 62
1
100
AcDbSpline
 70
8
 71
3
 72
8
 73
4
 74
0
 40
0
 40
0
 40
0
 40
0
 40
1
 40
1
 40
1
 40
1
 10
655.970290
 20
223.791495
 30
0.0
 10
650.538961
 20
228.731143
 30
0.0
 10
644.575513
 20
233.051913
 30
0.0
 10
638.189740
 20
236.674255
 30
0.0
  0
SPLINE
  5
3c5
100
AcDbEntity
  8
0
 62
1
100
AcDbSpline
 70
8
 71
3
 72
8
 73
4
 74
0
 40
0
 40
0
 40
0
 40
0
 40
1
 40
1
 40
1
 40
1
 10
638.189740
 20
236.674255
 30
0.0
 10
638.189740
 20
236.674255
 30
0.0
 10
637.745270
 20
242.227165
 30
0.0
 10
637.745270
 20
242.227165
 30
0.0
  0
SPLINE
  5
3c6
100
AcDbEntity
  8
0
 62
1
100
AcDbSpline
 70
8
 71
3
 72
8
 73
4
 74
0
 40
0
 40
0
 40
0
 40
0
 40
1
 40
1
 40
1
 40
1
 10
637.745270
 20
242.227165
 30
0.0
 10
643.321629
 20
246.548527
 30
0.0
 10
649.188167
 20
250.481843
 30
0.0
 10
655.303480
 20
253.999355
 30
0.0
  0
LWPOLYLINE
  5
3c7
100
AcDbEntity
  8
0
 62
1
100
AcDbPolyline
 90
14
 70
0
 10
422.103690
 20
210.148915
 30
0.0
 10
424.785230
 20
209.136245
 30
0.0
 10
471.663210
 20
208.794275
 30
0.0
 10
481.659640
 20
210.342205
 30
0.0
 10
484.297050
 20
217.291085
 30
0.0
 10
453.367340
 20
217.051445
 30
0.0
 10
453.127500
 20
225.677605
 30
0.0
 10
482.858430
 20
225.198365
 30
0.0
 10
483.817530
 20
229.511425
 30
0.0
 10
480.221030
 20
234.064125
 30
0.0
 10
471.829230
 20
239.575275
 30
0.0
 10
464.396530
 20
238.137585
 30
0.0
 10
462.238650
 20
234.782975
 30
0.0
 10
451.688960
 20
233.345285
 30
0.0
  0
SPLINE
  5
3c8
100
AcDbEntity
  8
0
 62
1
100
AcDbSpline
 70
8
 71
3
 72
8
 73
4
 74
0
 40
0
 40
0
 40
0
 40
0
 40
1
 40
1
 40
1
 40
1
 10
667.537070
 20
272.928565
 30
0.0
 10
667.537070
 20
272.928565
 30
0.0
 10
668.203800
 20
281.591115
 30
0.0
 10
668.203800
 20
281.591115
 30
0.0
  0
SPLINE
  5
3c9
100
AcDbEntity
  8
0
 62
1
100
AcDbSpline
 70
8
 71
3
 72
8
 73
4
 74
0
 40
0
 40
0
 40
0
 40
0
 40
1
 40
1
 40
1
 40
1
 10
668.203800
 20
281.591115
 30
0.0
 10
662.398739
 20
286.079772
 30
0.0
 10
657.370894
 20
291.492023
 30
0.0
 10
653.321300
 20
297.611465
 30
0.0
  0
LWPOLYLINE
  5
3ca
100
AcDbEntity
  8
0
 62
1
100
AcDbPolyline
 90
3
 70
0
 10
655.303480
 20
253.999355
 30
0.0
 10
661.980640
 20
261.600605
 30
0.0
 10
667.537070
 20
272.928565
 30
0.0
  0
SPLINE
  5
3cb
100
AcDbEntity
  8
0
 62
1
100
AcDbSpline
 70
8
 71
3
 72
8
 73
4
 74
0
 40
0
 40
0
 40
0
 40
0
 40
1
 40
1
 40
1
 40
1
 10
674.716450
 20
262.550895
 30
0.0
 10
673.064450
 20
259.925264
 30
0.0
 10
672.446214
 20
256.779758
 30
0.0
 10
672.981600
 20
253.724205
 30
0.0
  0
LWPOLYLINE
  5
3cc
100
AcDbEntity
  8
0
 62
1
100
AcDbPolyline
 90
30
 70
0
 10
653.321300
 20
297.611465
 30
0.0
 10
683.325900
 20
296.723015
 30
0.0
 10
685.548440
 20
306.940365
 30
0.0
 10
645.764600
 20
306.496145
 30
0.0
 10
636.207630
 20
316.269265
 30
0.0
 10
634.874100
 20
320.933745
 30
0.0
 10
675.991470
 20
319.823165
 30
0.0
 10
680.881090
 20
320.489515
 30
0.0
 10
682.436900
 20
328.041455
 30
0.0
 10
677.547280
 20
329.374155
 30
0.0
 10
633.540560
 20
329.818425
 30
0.0
 10
627.984130
 20
334.927075
 30
0.0
 10
625.852430
 20
343.524765
 30
0.0
 10
694.459650
 20
342.736685
 30
0.0
 10
694.301950
 20
352.666675
 30
0.0
 10
626.167900
 20
351.563335
 30
0.0
 10
623.644350
 20
358.340955
 30
0.0
 10
625.852430
 20
367.010015
 30
0.0
 10
738.778350
 20
366.852385
 30
0.0
 10
736.412580
 20
346.046685
 30
0.0
 10
729.150820
 20
326.921715
 30
0.0
 10
726.154200
 20
309.741285
 30
0.0
 10
719.056960
 20
290.984635
 30
0.0
 10
714.145910
 20
284.302275
 30
0.0
 10
690.330560
 20
285.247985
 30
0.0
 10
687.018470
 20
275.948485
 30
0.0
 10
707.048590
 20
275.475625
 30
0.0
 10
699.478190
 20
264.442325
 30
0.0
 10
692.538560
 20
259.713755
 30
0.0
 10
674.716450
 20
262.550895
 30
0.0
  0
SPLINE
  5
3cd
100
AcDbEntity
  8
0
 62
1
100
AcDbSpline
 70
8
 71
3
 72
8
 73
4
 74
0
 40
0
 40
0
 40
0
 40
0
 40
1
 40
1
 40
1
 40
1
 10
115.802920
 20
146.131655
 30
0.0
 10
115.837263
 20
150.000768
 30
0.0
 10
116.695084
 20
153.818218
 30
0.0
 10
118.319320
 20
157.330065
 30
0.0
  0
LWPOLYLINE
  5
3ce
100
AcDbEntity
  8
0
 62
1
100
AcDbPolyline
 90
20
 70
0
 10
672.981600
 20
253.724205
 30
0.0
 10
684.232540
 20
252.913435
 30
0.0
 10
679.213470
 20
240.674535
 30
0.0
 10
667.970700
 20
239.671355
 30
0.0
 10
668.573010
 20
230.642655
 30
0.0
 10
688.649380
 20
230.642655
 30
0.0
 10
693.668460
 20
225.426045
 30
0.0
 10
707.119600
 20
225.626695
 30
0.0
 10
708.524990
 20
229.037535
 30
0.0
 10
713.142520
 20
231.445195
 30
0.0
 10
722.979980
 20
227.432455
 30
0.0
 10
729.002820
 20
222.015205
 30
0.0
 10
729.605130
 20
216.798635
 30
0.0
 10
697.081450
 20
216.597995
 30
0.0
 10
697.482990
 20
209.174415
 30
0.0
 10
726.995210
 20
209.776305
 30
0.0
 10
731.211280
 20
208.572485
 30
0.0
 10
727.798280
 20
201.550195
 30
0.0
 10
722.479830
 20
199.860365
 30
0.0
 10
667.490190
 20
199.193795
 30
0.0
  0
SPLINE
  5
3cf
100
AcDbEntity
  8
0
 62
1
100
AcDbSpline
 70
8
 71
3
 72
8
 73
4
 74
0
 40
0
 40
0
 40
0
 40
0
 40
1
 40
1
 40
1
 40
1
 10
132.653420
 20
175.771665
 30
0.0
 10
132.653420
 20
175.771665
 30
0.0
 10
129.987120
 20
189.565635
 30
0.0
 10
129.987120
 20
189.565635
 30
0.0
  0
SPLINE
  5
3d0
100
AcDbEntity
  8
0
 62
1
100
AcDbSpline
 70
8
 71
3
 72
8
 73
4
 74
0
 40
0
 40
0
 40
0
 40
0
 40
1
 40
1
 40
1
 40
1
 10
129.987120
 20
189.565635
 30
0.0
 10
129.796958
 20
200.383963
 30
0.0
 10
129.907468
 20
211.205487
 30
0.0
 10
130.318520
 20
222.017675
 30
0.0
  0
LWPOLYLINE
  5
3d1
100
AcDbEntity
  8
0
 62
1
100
AcDbPolyline
 90
6
 70
0
 10
118.319320
 20
157.330065
 30
0.0
 10
121.285020
 20
158.976635
 30
0.0
 10
123.756420
 20
153.707615
 30
0.0
 10
126.227820
 20
153.707615
 30
0.0
 10
131.500120
 20
159.964575
 30
0.0
 10
132.653420
 20
175.771665
 30
0.0
  0
SPLINE
  5
3d2
100
AcDbEntity
  8
0
 62
1
100
AcDbSpline
 70
8
 71
3
 72
8
 73
4
 74
0
 40
0
 40
0
 40
0
 40
0
 40
1
 40
1
 40
1
 40
1
 10
126.010920
 20
231.289695
 30
0.0
 10
126.010920
 20
231.289695
 30
0.0
 10
122.459120
 20
233.317045
 30
0.0
 10
122.459120
 20
233.317045
 30
0.0
  0
SPLINE
  5
3d3
100
AcDbEntity
  8
0
 62
1
100
AcDbSpline
 70
8
 71
3
 72
8
 73
4
 74
0
 40
0
 40
0
 40
0
 40
0
 40
1
 40
1
 40
1
 40
1
 10
122.459120
 20
233.317045
 30
0.0
 10
121.601517
 20
221.450656
 30
0.0
 10
121.221210
 20
209.554591
 30
0.0
 10
121.319120
 20
197.657655
 30
0.0
  0
LWPOLYLINE
  5
3d4
100
AcDbEntity
  8
0
 62
1
100
AcDbPolyline
 90
2
 70
0
 10
130.318520
 20
222.017675
 30
0.0
 10
126.010920
 20
231.289695
 30
0.0
  0
SPLINE
  5
3d5
100
AcDbEntity
  8
0
 62
1
100
AcDbSpline
 70
8
 71
3
 72
8
 73
4
 74
0
 40
0
 40
0
 40
0
 40
0
 40
1
 40
1
 40
1
 40
1
 10
112.541220
 20
196.632305
 30
0.0
 10
112.541220
 20
196.632305
 30
0.0
 10
112.997220
 20
215.088605
 30
0.0
 10
112.997220
 20
215.088605
 30
0.0
  0
SPLINE
  5
3d6
100
AcDbEntity
  8
0
 62
1
100
AcDbSpline
 70
8
 71
3
 72
8
 73
4
 74
0
 40
0
 40
0
 40
0
 40
0
 40
1
 40
1
 40
1
 40
1
 10
112.997220
 20
215.088605
 30
0.0
 10
113.749049
 20
221.563102
 30
0.0
 10
113.710768
 20
228.105000
 30
0.0
 10
112.883220
 20
234.570255
 30
0.0
  0
LWPOLYLINE
  5
3d7
100
AcDbEntity
  8
0
 62
1
100
AcDbPolyline
 90
4
 70
0
 10
121.319120
 20
197.657655
 30
0.0
 10
119.039220
 20
194.467675
 30
0.0
 10
115.391220
 20
193.898045
 30
0.0
 10
112.541220
 20
196.632305
 30
0.0
  0
SPLINE
  5
3d8
100
AcDbEntity
  8
0
 62
1
100
AcDbSpline
 70
8
 71
3
 72
8
 73
4
 74
0
 40
0
 40
0
 40
0
 40
0
 40
1
 40
1
 40
1
 40
1
 10
105.701220
 20
234.000615
 30
0.0
 10
105.701220
 20
234.000615
 30
0.0
 10
104.675320
 20
225.228175
 30
0.0
 10
104.675320
 20
225.228175
 30
0.0
  0
SPLINE
  5
3d9
100
AcDbEntity
  8
0
 62
1
100
AcDbSpline
 70
8
 71
3
 72
8
 73
4
 74
0
 40
0
 40
0
 40
0
 40
0
 40
1
 40
1
 40
1
 40
1
 10
104.675320
 20
225.228175
 30
0.0
 10
105.341195
 20
215.630374
 30
0.0
 10
105.303093
 20
205.996688
 30
0.0
 10
104.561320
 20
196.404455
 30
0.0
  0
LWPOLYLINE
  5
3da
100
AcDbEntity
  8
0
 62
1
100
AcDbPolyline
 90
3
 70
0
 10
112.883220
 20
234.570255
 30
0.0
 10
109.007220
 20
236.620945
 30
0.0
 10
105.701220
 20
234.000615
 30
0.0
  0
SPLINE
  5
3db
100
AcDbEntity
  8
0
 62
1
100
AcDbSpline
 70
8
 71
3
 72
8
 73
4
 74
0
 40
0
 40
0
 40
0
 40
0
 40
1
 40
1
 40
1
 40
1
 10
103.649320
 20
194.353755
 30
0.0
 10
101.231852
 20
194.076290
 30
0.0
 10
98.789933
 20
194.596369
 30
0.0
 10
96.695323
 20
195.834815
 30
0.0
  0
SPLINE
  5
3dc
100
AcDbEntity
  8
0
 62
1
100
AcDbSpline
 70
8
 71
3
 72
8
 73
4
 74
0
 40
0
 40
0
 40
0
 40
0
 40
1
 40
1
 40
1
 40
1
 10
96.695323
 20
195.834815
 30
0.0
 10
96.335402
 20
205.970269
 30
0.0
 10
96.259372
 20
216.113815
 30
0.0
 10
96.467323
 20
226.253525
 30
0.0
  0
LWPOLYLINE
  5
3dd
100
AcDbEntity
  8
0
 62
1
100
AcDbPolyline
 90
2
 70
0
 10
104.561320
 20
196.404455
 30
0.0
 10
103.649320
 20
194.353755
 30
0.0
  0
SPLINE
  5
3de
100
AcDbEntity
  8
0
 62
1
100
AcDbSpline
 70
8
 71
3
 72
8
 73
4
 74
0
 40
0
 40
0
 40
0
 40
0
 40
1
 40
1
 40
1
 40
1
 10
86.671423
 20
200.725415
 30
0.0
 10
86.671423
 20
200.725415
 30
0.0
 10
90.005723
 20
192.243505
 30
0.0
 10
90.005723
 20
192.243505
 30
0.0
  0
SPLINE
  5
3df
100
AcDbEntity
  8
0
 62
1
100
AcDbSpline
 70
8
 71
3
 72
8
 73
4
 74
0
 40
0
 40
0
 40
0
 40
0
 40
1
 40
1
 40
1
 40
1
 10
90.005723
 20
192.243505
 30
0.0
 10
87.824541
 20
183.959127
 30
0.0
 10
84.756616
 20
175.934033
 30
0.0
 10
80.855123
 20
168.307315
 30
0.0
  0
LWPOLYLINE
  5
3e0
100
AcDbEntity
  8
0
 62
1
100
AcDbPolyline
 90
5
 70
0
 10
96.467323
 20
226.253525
 30
0.0
 10
94.847323
 20
231.837995
 30
0.0
 10
90.005723
 20
226.171155
 30
0.0
 10
86.368323
 20
211.327805
 30
0.0
 10
86.671423
 20
200.725415
 30
0.0
  0
SPLINE
  5
3e1
100
AcDbEntity
  8
0
 62
1
100
AcDbSpline
 70
8
 71
3
 72
8
 73
4
 74
0
 40
0
 40
0
 40
0
 40
0
 40
1
 40
1
 40
1
 40
1
 10
90.528923
 20
158.490845
 30
0.0
 10
90.528923
 20
158.490845
 30
0.0
 10
94.249623
 20
158.044645
 30
0.0
 10
94.249623
 20
158.044645
 30
0.0
  0
SPLINE
  5
3e2
100
AcDbEntity
  8
0
 62
1
100
AcDbSpline
 70
8
 71
3
 72
8
 73
4
 74
0
 40
0
 40
0
 40
0
 40
0
 40
1
 40
1
 40
1
 40
1
 10
94.249623
 20
158.044645
 30
0.0
 10
93.197897
 20
153.395290
 30
0.0
 10
93.507927
 20
148.541372
 30
0.0
 10
95.142623
 20
144.063605
 30
0.0
  0
LWPOLYLINE
  5
3e3
100
AcDbEntity
  8
0
 62
1
100
AcDbPolyline
 90
5
 70
0
 10
80.855123
 20
168.307315
 30
0.0
 10
81.301623
 20
158.788305
 30
0.0
 10
85.022323
 20
150.756655
 30
0.0
 10
88.594223
 20
153.285135
 30
0.0
 10
90.528923
 20
158.490845
 30
0.0
  0
LWPOLYLINE
  5
3e4
100
AcDbEntity
  8
0
 62
1
100
AcDbPolyline
 90
7
 70
0
 10
95.142623
 20
144.063605
 30
0.0
 10
99.458623
 20
145.699685
 30
0.0
 10
103.481420
 20
157.397495
 30
0.0
 10
108.200320
 20
156.611505
 30
0.0
 10
108.855720
 20
147.572635
 30
0.0
 10
111.084020
 20
145.345665
 30
0.0
 10
115.802920
 20
146.131655
 30
0.0
  0
SPLINE
  5
3e5
100
AcDbEntity
  8
0
 62
1
100
AcDbSpline
 70
8
 71
3
 72
8
 73
4
 74
0
 40
0
 40
0
 40
0
 40
0
 40
1
 40
1
 40
1
 40
1
 10
217.224850
 20
53.397985
 30
0.0
 10
222.920543
 20
57.085511
 30
0.0
 10
227.982486
 20
61.669776
 30
0.0
 10
232.214690
 20
66.973285
 30
0.0
  0
SPLINE
  5
3e6
100
AcDbEntity
  8
0
 62
1
100
AcDbSpline
 70
8
 71
3
 72
8
 73
4
 74
0
 40
0
 40
0
 40
0
 40
0
 40
1
 40
1
 40
1
 40
1
 10
232.214690
 20
66.973285
 30
0.0
 10
242.685239
 20
73.638909
 30
0.0
 10
252.868593
 20
80.745286
 30
0.0
 10
262.737340
 20
88.273285
 30
0.0
  0
SPLINE
  5
3e7
100
AcDbEntity
  8
0
 62
1
100
AcDbSpline
 70
8
 71
3
 72
8
 73
4
 74
0
 40
0
 40
0
 40
0
 40
0
 40
1
 40
1
 40
1
 40
1
 10
262.737340
 20
88.273285
 30
0.0
 10
275.662585
 20
101.110970
 30
0.0
 10
287.021103
 20
115.435007
 30
0.0
 10
296.575330
 20
130.945805
 30
0.0
  0
SPLINE
  5
3e8
100
AcDbEntity
  8
0
 62
1
100
AcDbSpline
 70
8
 71
3
 72
8
 73
4
 74
0
 40
0
 40
0
 40
0
 40
0
 40
1
 40
1
 40
1
 40
1
 10
296.575330
 20
130.945805
 30
0.0
 10
303.292830
 20
142.480223
 30
0.0
 10
308.424266
 20
154.867806
 30
0.0
 10
311.830930
 20
167.773705
 30
0.0
  0
SPLINE
  5
3e9
100
AcDbEntity
  8
0
 62
1
100
AcDbSpline
 70
8
 71
3
 72
8
 73
4
 74
0
 40
0
 40
0
 40
0
 40
0
 40
1
 40
1
 40
1
 40
1
 10
311.830930
 20
167.773705
 30
0.0
 10
313.034010
 20
173.031309
 30
0.0
 10
313.535204
 20
178.425137
 30
0.0
 10
313.321430
 20
183.814395
 30
0.0
  0
LWPOLYLINE
  5
3ea
100
AcDbEntity
  8
0
 62
1
100
AcDbPolyline
 90
9
 70
0
 10
186.892830
 20
25.675185
 30
0.0
 10
192.584690
 20
29.770785
 30
0.0
 10
199.389610
 20
14.314585
 30
0.0
 10
202.374680
 20
19.076785
 30
0.0
 10
206.700450
 20
32.273585
 30
0.0
 10
203.092240
 20
48.701085
 30
0.0
 10
211.204430
 20
48.600885
 30
0.0
 10
213.563770
 20
44.047785
 30
0.0
 10
217.224850
 20
53.397985
 30
0.0
  0
SPLINE
  5
3eb
100
AcDbEntity
  8
0
 62
1
100
AcDbSpline
 70
8
 71
3
 72
8
 73
4
 74
0
 40
0
 40
0
 40
0
 40
0
 40
1
 40
1
 40
1
 40
1
 10
308.506130
 20
189.772375
 30
0.0
 10
299.009763
 20
182.304294
 30
0.0
 10
290.290628
 20
173.897693
 30
0.0
 10
282.481030
 20
164.680135
 30
0.0
  0
SPLINE
  5
3ec
100
AcDbEntity
  8
0
 62
1
100
AcDbSpline
 70
8
 71
3
 72
8
 73
4
 74
0
 40
0
 40
0
 40
0
 40
0
 40
1
 40
1
 40
1
 40
1
 10
282.481030
 20
164.680135
 30
0.0
 10
269.797649
 20
155.843745
 30
0.0
 10
257.330685
 20
146.700704
 30
0.0
 10
245.091160
 20
137.259095
 30
0.0
  0
SPLINE
  5
3ed
100
AcDbEntity
  8
0
 62
1
100
AcDbSpline
 70
8
 71
3
 72
8
 73
4
 74
0
 40
0
 40
0
 40
0
 40
0
 40
1
 40
1
 40
1
 40
1
 10
245.091160
 20
137.259095
 30
0.0
 10
236.884033
 20
130.693617
 30
0.0
 10
229.523774
 20
123.134601
 30
0.0
 10
223.179260
 20
114.755485
 30
0.0
  0
SPLINE
  5
3ee
100
AcDbEntity
  8
0
 62
1
100
AcDbSpline
 70
8
 71
3
 72
8
 73
4
 74
0
 40
0
 40
0
 40
0
 40
0
 40
1
 40
1
 40
1
 40
1
 10
223.179260
 20
114.755485
 30
0.0
 10
219.286466
 20
107.727417
 30
0.0
 10
215.240209
 20
100.785452
 30
0.0
 10
211.043400
 20
93.934585
 30
0.0
  0
SPLINE
  5
3ef
100
AcDbEntity
  8
0
 62
1
100
AcDbSpline
 70
8
 71
3
 72
8
 73
4
 74
0
 40
0
 40
0
 40
0
 40
0
 40
1
 40
1
 40
1
 40
1
 10
211.043400
 20
93.934585
 30
0.0
 10
207.738939
 20
86.303416
 30
0.0
 10
205.064081
 20
78.414791
 30
0.0
 10
203.045570
 20
70.347585
 30
0.0
  0
SPLINE
  5
3f0
100
AcDbEntity
  8
0
 62
1
100
AcDbSpline
 70
8
 71
3
 72
8
 73
4
 74
0
 40
0
 40
0
 40
0
 40
0
 40
1
 40
1
 40
1
 40
1
 10
203.045570
 20
70.347585
 30
0.0
 10
201.753812
 20
63.582139
 30
0.0
 10
199.170898
 20
57.128868
 30
0.0
 10
195.438000
 20
51.340485
 30
0.0
  0
SPLINE
  5
3f1
100
AcDbEntity
  8
0
 62
1
100
AcDbSpline
 70
8
 71
3
 72
8
 73
4
 74
0
 40
0
 40
0
 40
0
 40
0
 40
1
 40
1
 40
1
 40
1
 10
195.438000
 20
51.340485
 30
0.0
 10
186.718544
 20
43.944385
 30
0.0
 10
177.530821
 20
37.118765
 30
0.0
 10
167.932120
 20
30.906185
 30
0.0
  0
LWPOLYLINE
  5
3f2
100
AcDbEntity
  8
0
 62
1
100
AcDbPolyline
 90
2
 70
0
 10
313.321430
 20
183.814395
 30
0.0
 10
308.506130
 20
189.772375
 30
0.0
  0
SPLINE
  5
3f3
100
AcDbEntity
  8
0
 62
1
100
AcDbSpline
 70
8
 71
3
 72
8
 73
4
 74
0
 40
0
 40
0
 40
0
 40
0
 40
1
 40
1
 40
1
 40
1
 10
189.169570
 20
9.975485
 30
0.0
 10
189.169570
 20
9.975485
 30
0.0
 10
191.901610
 20
14.071085
 30
0.0
 10
191.901610
 20
14.071085
 30
0.0
  0
SPLINE
  5
3f4
100
AcDbEntity
  8
0
 62
1
100
AcDbSpline
 70
8
 71
3
 72
8
 73
4
 74
0
 40
0
 40
0
 40
0
 40
0
 40
1
 40
1
 40
1
 40
1
 10
191.901610
 20
14.071085
 30
0.0
 10
189.167865
 20
17.387389
 30
0.0
 10
187.431032
 20
21.411199
 30
0.0
 10
186.892830
 20
25.675185
 30
0.0
  0
LWPOLYLINE
  5
3f5
100
AcDbEntity
  8
0
 62
1
100
AcDbPolyline
 90
10
 70
0
 10
167.932120
 20
30.906185
 30
0.0
 10
159.927930
 20
22.195985
 30
0.0
 10
156.993080
 20
16.329885
 30
0.0
 10
157.750510
 20
9.520485
 30
0.0
 10
164.580740
 20
5.424885
 30
0.0
 10
170.272600
 20
6.107485
 30
0.0
 10
168.082050
 20
19.242485
 30
0.0
 10
173.915370
 20
20.897085
 30
0.0
 10
181.424070
 20
6.571285
 30
0.0
 10
189.169570
 20
9.975485
 30
0.0
  0
LWPOLYLINE
  5
3f6
100
AcDbEntity
  8
0
 62
1
100
AcDbPolyline
 90
1
 70
1
 10
186.892830
 20
25.675185
 30
0.0
  0
SPLINE
  5
3f7
100
AcDbEntity
  8
0
 62
1
100
AcDbSpline
 70
8
 71
3
 72
8
 73
4
 74
0
 40
0
 40
0
 40
0
 40
0
 40
1
 40
1
 40
1
 40
1
 10
736.351290
 20
37.751985
 30
0.0
 10
737.317542
 20
45.475689
 30
0.0
 10
737.835710
 20
53.248868
 30
0.0
 10
737.903190
 20
61.032485
 30
0.0
  0
SPLINE
  5
3f8
100
AcDbEntity
  8
0
 62
1
100
AcDbSpline
 70
8
 71
3
 72
8
 73
4
 74
0
 40
0
 40
0
 40
0
 40
0
 40
1
 40
1
 40
1
 40
1
 10
737.903190
 20
61.032485
 30
0.0
 10
737.903190
 20
61.032485
 30
0.0
 10
743.541190
 20
61.032485
 30
0.0
 10
743.541190
 20
61.032485
 30
0.0
  0
SPLINE
  5
3f9
100
AcDbEntity
  8
0
 62
1
100
AcDbSpline
 70
8
 71
3
 72
8
 73
4
 74
0
 40
0
 40
0
 40
0
 40
0
 40
1
 40
1
 40
1
 40
1
 10
743.541190
 20
61.032485
 30
0.0
 10
743.645057
 20
55.193598
 30
0.0
 10
743.969288
 20
49.360712
 30
0.0
 10
744.513190
 20
43.546285
 30
0.0
  0
LWPOLYLINE
  5
3fa
100
AcDbEntity
  8
0
 62
1
100
AcDbPolyline
 90
10
 70
0
 10
716.422390
 20
41.814685
 30
0.0
 10
720.257990
 20
40.171885
 30
0.0
 10
722.913290
 20
43.123785
 30
0.0
 10
723.105290
 20
54.251185
 30
0.0
 10
725.408890
 20
58.855585
 30
0.0
 10
728.288490
 20
54.826685
 30
0.0
 10
727.904590
 20
43.123785
 30
0.0
 10
729.632290
 20
35.257985
 30
0.0
 10
733.663690
 20
34.490485
 30
0.0
 10
736.351290
 20
37.751985
 30
0.0
  0
SPLINE
  5
3fb
100
AcDbEntity
  8
0
 62
1
100
AcDbSpline
 70
8
 71
3
 72
8
 73
4
 74
0
 40
0
 40
0
 40
0
 40
0
 40
1
 40
1
 40
1
 40
1
 10
752.484150
 20
69.581285
 30
0.0
 10
752.484150
 20
69.581285
 30
0.0
 10
746.010890
 20
82.610185
 30
0.0
 10
746.010890
 20
82.610185
 30
0.0
  0
SPLINE
  5
3fc
100
AcDbEntity
  8
0
 62
1
100
AcDbSpline
 70
8
 71
3
 72
8
 73
4
 74
0
 40
0
 40
0
 40
0
 40
0
 40
1
 40
1
 40
1
 40
1
 10
746.010890
 20
82.610185
 30
0.0
 10
741.039462
 20
84.744057
 30
0.0
 10
736.015140
 20
86.752526
 30
0.0
 10
730.942690
 20
88.633685
 30
0.0
  0
LWPOLYLINE
  5
3fd
100
AcDbEntity
  8
0
 62
1
100
AcDbPolyline
 90
5
 70
0
 10
744.513190
 20
43.546285
 30
0.0
 10
748.207050
 20
41.214785
 30
0.0
 10
751.900950
 20
46.266285
 30
0.0
 10
753.456250
 20
56.952285
 30
0.0
 10
752.484150
 20
69.581285
 30
0.0
  0
LWPOLYLINE
  5
3fe
100
AcDbEntity
  8
0
 62
1
100
AcDbPolyline
 90
6
 70
0
 10
730.942690
 20
88.633685
 30
0.0
 10
725.463390
 20
86.717085
 30
0.0
 10
718.066190
 20
77.681885
 30
0.0
 10
712.312890
 20
62.623085
 30
0.0
 10
711.764990
 20
50.576085
 30
0.0
 10
716.422390
 20
41.814685
 30
0.0
  0
SPLINE
  5
3ff
100
AcDbEntity
  8
0
 62
1
100
AcDbSpline
 70
8
 71
3
 72
8
 73
4
 74
0
 40
0
 40
0
 40
0
 40
0
 40
1
 40
1
 40
1
 40
1
 10
608.879570
 20
58.385985
 30
0.0
 10
610.794101
 20
53.389171
 30
0.0
 10
611.871947
 20
48.110962
 30
0.0
 10
612.069770
 20
42.763585
 30
0.0
  0
LWPOLYLINE
  5
400
100
AcDbEntity
  8
0
 62
1
100
AcDbPolyline
 90
2
 70
0
 10
606.599170
 20
58.163685
 30
0.0
 10
608.879570
 20
58.385985
 30
0.0
  0
SPLINE
  5
401
100
AcDbEntity
  8
0
 62
1
100
AcDbSpline
 70
8
 71
3
 72
8
 73
4
 74
0
 40
0
 40
0
 40
0
 40
0
 40
1
 40
1
 40
1
 40
1
 10
667.104610
 20
47.421985
 30
0.0
 10
666.538578
 20
52.358827
 30
0.0
 10
666.746785
 20
57.353775
 30
0.0
 10
667.721710
 20
62.226385
 30
0.0
  0
LWPOLYLINE
  5
402
100
AcDbEntity
  8
0
 62
1
100
AcDbPolyline
 90
18
 70
0
 10
612.069770
 20
42.763585
 30
0.0
 10
616.466370
 20
41.419185
 30
0.0
 10
620.045370
 20
43.720085
 30
0.0
 10
621.959470
 20
55.516585
 30
0.0
 10
625.468770
 20
58.385985
 30
0.0
 10
629.297070
 20
47.545985
 30
0.0
 10
635.996470
 20
55.197685
 30
0.0
 10
636.315570
 20
62.211785
 30
0.0
 10
634.082370
 20
74.964785
 30
0.0
 10
626.744870
 20
86.442385
 30
0.0
 10
618.131170
 20
91.543585
 30
0.0
 10
609.198570
 20
90.587085
 30
0.0
 10
599.627870
 20
80.703585
 30
0.0
 10
595.799570
 20
64.124785
 30
0.0
 10
597.075670
 20
51.371885
 30
0.0
 10
602.499070
 20
44.038885
 30
0.0
 10
606.327370
 20
53.603585
 30
0.0
 10
606.599170
 20
58.163685
 30
0.0
  0
SPLINE
  5
403
100
AcDbEntity
  8
0
 62
1
100
AcDbSpline
 70
8
 71
3
 72
8
 73
4
 74
0
 40
0
 40
0
 40
0
 40
0
 40
1
 40
1
 40
1
 40
1
 10
660.342310
 20
55.353685
 30
0.0
 10
659.788946
 20
52.541658
 30
0.0
 10
657.517004
 20
50.387590
 30
0.0
 10
654.679510
 20
49.984685
 30
0.0
  0
SPLINE
  5
404
100
AcDbEntity
  8
0
 62
1
100
AcDbSpline
 70
8
 71
3
 72
8
 73
4
 74
0
 40
0
 40
0
 40
0
 40
0
 40
1
 40
1
 40
1
 40
1
 10
654.679510
 20
49.984685
 30
0.0
 10
654.679510
 20
49.984685
 30
0.0
 10
650.613910
 20
55.934085
 30
0.0
 10
650.613910
 20
55.934085
 30
0.0
  0
SPLINE
  5
405
100
AcDbEntity
  8
0
 62
1
100
AcDbSpline
 70
8
 71
3
 72
8
 73
4
 74
0
 40
0
 40
0
 40
0
 40
0
 40
1
 40
1
 40
1
 40
1
 10
650.613910
 20
55.934085
 30
0.0
 10
650.345036
 20
62.705747
 30
0.0
 10
650.571808
 20
69.488007
 30
0.0
 10
651.292410
 20
76.226585
 30
0.0
  0
LWPOLYLINE
  5
406
100
AcDbEntity
  8
0
 62
1
100
AcDbPolyline
 90
4
 70
0
 10
667.721710
 20
62.226385
 30
0.0
 10
666.073110
 20
65.109585
 30
0.0
 10
662.672910
 20
63.050185
 30
0.0
 10
660.342310
 20
55.353685
 30
0.0
  0
SPLINE
  5
407
100
AcDbEntity
  8
0
 62
1
100
AcDbSpline
 70
8
 71
3
 72
8
 73
4
 74
0
 40
0
 40
0
 40
0
 40
0
 40
1
 40
1
 40
1
 40
1
 10
677.386910
 20
87.546185
 30
0.0
 10
685.621847
 20
81.960220
 30
0.0
 10
691.135281
 20
73.175396
 30
0.0
 10
692.584710
 20
63.330785
 30
0.0
  0
LWPOLYLINE
  5
408
100
AcDbEntity
  8
0
 62
1
100
AcDbPolyline
 90
5
 70
0
 10
651.292410
 20
76.226585
 30
0.0
 10
655.306910
 20
84.823785
 30
0.0
 10
662.045610
 20
88.835785
 30
0.0
 10
672.655410
 20
88.835785
 30
0.0
 10
677.386910
 20
87.546185
 30
0.0
  0
SPLINE
  5
409
100
AcDbEntity
  8
0
 62
1
100
AcDbSpline
 70
8
 71
3
 72
8
 73
4
 74
0
 40
0
 40
0
 40
0
 40
0
 40
1
 40
1
 40
1
 40
1
 10
678.999510
 20
67.649185
 30
0.0
 10
678.999510
 20
67.649185
 30
0.0
 10
675.807310
 20
65.057285
 30
0.0
 10
675.807310
 20
65.057285
 30
0.0
  0
SPLINE
  5
40a
100
AcDbEntity
  8
0
 62
1
100
AcDbSpline
 70
8
 71
3
 72
8
 73
4
 74
0
 40
0
 40
0
 40
0
 40
0
 40
1
 40
1
 40
1
 40
1
 10
675.807310
 20
65.057285
 30
0.0
 10
674.502159
 20
59.569070
 30
0.0
 10
674.298733
 20
53.876462
 30
0.0
 10
675.208810
 20
48.309085
 30
0.0
  0
LWPOLYLINE
  5
40b
100
AcDbEntity
  8
0
 62
1
100
AcDbPolyline
 90
6
 70
0
 10
692.584710
 20
63.330785
 30
0.0
 10
691.581110
 20
54.876985
 30
0.0
 10
687.136410
 20
49.575385
 30
0.0
 10
682.191610
 20
50.900985
 30
0.0
 10
681.194110
 20
64.857885
 30
0.0
 10
678.999510
 20
67.649185
 30
0.0
  0
LWPOLYLINE
  5
40c
100
AcDbEntity
  8
0
 62
1
100
AcDbPolyline
 90
3
 70
0
 10
675.208810
 20
48.309085
 30
0.0
 10
670.420610
 20
46.115785
 30
0.0
 10
667.104610
 20
47.421985
 30
0.0
  0
LWPOLYLINE
  5
40d
100
AcDbEntity
  8
0
 62
1
100
AcDbPolyline
 90
17
 70
1
 10
478.950460
 20
132.791285
 30
0.0
 10
476.716870
 20
143.952175
 30
0.0
 10
471.970480
 20
143.115095
 30
0.0
 10
468.899370
 20
131.117165
 30
0.0
 10
462.756990
 20
131.954245
 30
0.0
 10
461.932330
 20
135.246695
 30
0.0
 10
462.643130
 20
144.481265
 30
0.0
 10
454.113550
 20
144.126075
 30
0.0
 10
453.047400
 20
135.957065
 30
0.0
 10
450.943180
 20
133.238075
 30
0.0
 10
447.288990
 20
143.161045
 30
0.0
 10
450.078180
 20
157.098035
 30
0.0
 10
459.242470
 20
162.274595
 30
0.0
 10
470.399080
 20
162.274595
 30
0.0
 10
479.229580
 20
158.182305
 30
0.0
 10
483.417570
 20
150.927725
 30
0.0
 10
483.975970
 20
142.836095
 30
0.0
  0
LWPOLYLINE
  5
40e
100
AcDbEntity
  8
0
 62
1
100
AcDbPolyline
 90
17
 70
1
 10
424.750020
 20
84.296185
 30
0.0
 10
422.516430
 20
95.457085
 30
0.0
 10
417.770040
 20
94.619985
 30
0.0
 10
414.698930
 20
82.622085
 30
0.0
 10
408.556550
 20
83.459085
 30
0.0
 10
407.731890
 20
86.751585
 30
0.0
 10
408.442690
 20
95.986185
 30
0.0
 10
399.913110
 20
95.630985
 30
0.0
 10
398.846960
 20
87.461985
 30
0.0
 10
396.742740
 20
84.742985
 30
0.0
 10
393.088550
 20
94.665885
 30
0.0
 10
395.877740
 20
108.602885
 30
0.0
 10
405.042030
 20
113.779485
 30
0.0
 10
416.198640
 20
113.779485
 30
0.0
 10
425.029140
 20
109.687185
 30
0.0
 10
429.217130
 20
102.432585
 30
0.0
 10
429.775530
 20
94.340985
 30
0.0
  0
LWPOLYLINE
  5
40f
100
AcDbEntity
  8
0
 62
1
100
AcDbPolyline
 90
17
 70
1
 10
477.524130
 20
85.722485
 30
0.0
 10
475.290540
 20
96.883385
 30
0.0
 10
470.544150
 20
96.046285
 30
0.0
 10
467.473040
 20
84.048385
 30
0.0
 10
461.330660
 20
84.885485
 30
0.0
 10
460.506000
 20
88.177885
 30
0.0
 10
461.216800
 20
97.412485
 30
0.0
 10
452.687220
 20
97.057285
 30
0.0
 10
451.621070
 20
88.888285
 30
0.0
 10
449.516850
 20
86.169285
 30
0.0
 10
445.862660
 20
96.092285
 30
0.0
 10
448.651850
 20
110.029285
 30
0.0
 10
457.816140
 20
115.205785
 30
0.0
 10
468.972750
 20
115.205785
 30
0.0
 10
477.803250
 20
111.113485
 30
0.0
 10
481.991240
 20
103.858885
 30
0.0
 10
482.549640
 20
95.767285
 30
0.0
  0
LWPOLYLINE
  5
410
100
AcDbEntity
  8
0
 62
1
100
AcDbPolyline
 90
17
 70
1
 10
423.323690
 20
32.948385
 30
0.0
 10
421.090100
 20
44.109285
 30
0.0
 10
416.343710
 20
43.272185
 30
0.0
 10
413.272600
 20
31.274285
 30
0.0
 10
407.130220
 20
32.111285
 30
0.0
 10
406.305560
 20
35.403785
 30
0.0
 10
407.016360
 20
44.638385
 30
0.0
 10
398.486780
 20
44.283185
 30
0.0
 10
397.420630
 20
36.114185
 30
0.0
 10
395.316410
 20
33.395185
 30
0.0
 10
391.662220
 20
43.318085
 30
0.0
 10
394.451410
 20
57.255085
 30
0.0
 10
403.615700
 20
62.431685
 30
0.0
 10
414.772310
 20
62.431685
 30
0.0
 10
423.602810
 20
58.339385
 30
0.0
 10
427.790800
 20
51.084785
 30
0.0
 10
428.349200
 20
42.993185
 30
0.0
  0
LWPOLYLINE
  5
411
100
AcDbEntity
  8
0
 62
1
100
AcDbPolyline
 90
17
 70
1
 10
476.097800
 20
34.374685
 30
0.0
 10
473.864210
 20
45.535585
 30
0.0
 10
469.117820
 20
44.698485
 30
0.0
 10
466.046710
 20
32.700585
 30
0.0
 10
459.904330
 20
33.537685
 30
0.0
 10
459.079670
 20
36.830085
 30
0.0
 10
459.790470
 20
46.064685
 30
0.0
 10
451.260890
 20
45.709485
 30
0.0
 10
450.194740
 20
37.540485
 30
0.0
 10
448.090520
 20
34.821485
 30
0.0
 10
444.436330
 20
44.744485
 30
0.0
 10
447.225520
 20
58.681485
 30
0.0
 10
456.389810
 20
63.857985
 30
0.0
 10
467.546420
 20
63.857985
 30
0.0
 10
476.376920
 20
59.765685
 30
0.0
 10
480.564910
 20
52.511185
 30
0.0
 10
481.123310
 20
44.419485
 30
0.0
  0
ENDSEC
  0
SECTION
  2
OBJECTS
  0
DICTIONARY
  5
C
330
0
100
AcDbDictionary
  3
ACAD_GROUP
350
D
  3
ACAD_MLINESTYLE
350
17
  0
DICTIONARY
  5
D
330
C
100
AcDbDictionary
  0
DICTIONARY
  5
1A
330
C
100
AcDbDictionary
  0
DICTIONARY
  5
17
330
C
100
AcDbDictionary
  3
STANDARD
350
18
  0
DICTIONARY
  5
19
330
C
100
AcDbDictionary
  0
ENDSEC
  0
EOF
