  0
SECTION
  2
HEADER
  9
$ACADVER
  1
AC1015
  9
$ACADMAINTVER
 70
     6
  9
$DWGCODEPAGE
  3
ANSI_1252
  9
$INSBASE
 10
0.0
 20
0.0
 30
0.0
  9
$EXTMIN
 10
-32.1437851739
 20
10.7905621222
 30
0.0
  9
$EXTMAX
 10
-16.5217265319
 20
15.7070602556
 30
0.0
  9
$LIMMIN
 10
0.0
 20
0.0
  9
$LIMMAX
 10
12.0
 20
9.0
  9
$ORTHOMODE
 70
     0
  9
$REGENMODE
 70
     1
  9
$FILLMODE
 70
     1
  9
$QTEXTMODE
 70
     0
  9
$MIRRTEXT
 70
     1
  9
$LTSCALE
 40
1.0
  9
$ATTMODE
 70
     1
  9
$TEXTSIZE
 40
0.1377952756
  9
$TRACEWID
 40
0.05
  9
$TEXTSTYLE
  7
Standard
  9
$CLAYER
  8
0
  9
$CELTYPE
  6
ByLayer
  9
$CECOLOR
 62
   256
  9
$CELTSCALE
 40
1.0
  9
$DISPSILH
 70
     0
  9
$DIMSCALE
 40
1.0
  9
$DIMASZ
 40
0.13
  9
$DIMEXO
 40
0.0393700787
  9
$DIMDLI
 40
0.38
  9
$DIMRND
 40
0.0
  9
$DIMDLE
 40
0.0
  9
$DIMEXE
 40
0.0393700787
  9
$DIMTP
 40
0.0
  9
$DIMTM
 40
0.0
  9
$DIMTXT
 40
0.1377952756
  9
$DIMCEN
 40
0.09
  9
$DIMTSZ
 40
0.0
  9
$DIMTOL
 70
     0
  9
$DIMLIM
 70
     0
  9
$DIMTIH
 70
     1
  9
$DIMTOH
 70
     1
  9
$DIMSE1
 70
     0
  9
$DIMSE2
 70
     0
  9
$DIMTAD
 70
     1
  9
$DIMZIN
 70
     0
  9
$DIMBLK
  1

  9
$DIMASO
 70
     1
  9
$DIMSHO
 70
     1
  9
$DIMPOST
  1

  9
$DIMAPOST
  1

  9
$DIMALT
 70
     0
  9
$DIMALTD
 70
     2
  9
$DIMALTF
 40
25.4
  9
$DIMLFAC
 40
1.0
  9
$DIMTOFL
 70
     0
  9
$DIMTVP
 40
0.0
  9
$DIMTIX
 70
     0
  9
$DIMSOXD
 70
     0
  9
$DIMSAH
 70
     0
  9
$DIMBLK1
  1

  9
$DIMBLK2
  1

  9
$DIMSTYLE
  2
Standard
  9
$DIMCLRD
 70
     0
  9
$DIMCLRE
 70
     0
  9
$DIMCLRT
 70
     0
  9
$DIMTFAC
 40
1.0
  9
$DIMGAP
 40
0.06
  9
$DIMJUST
 70
     0
  9
$DIMSD1
 70
     0
  9
$DIMSD2
 70
     0
  9
$DIMTOLJ
 70
     1
  9
$DIMTZIN
 70
     0
  9
$DIMALTZ
 70
     0
  9
$DIMALTTZ
 70
     0
  9
$DIMUPT
 70
     0
  9
$DIMDEC
 70
     4
  9
$DIMTDEC
 70
     4
  9
$DIMALTU
 70
     2
  9
$DIMALTTD
 70
     2
  9
$DIMTXSTY
  7
Standard
  9
$DIMAUNIT
 70
     0
  9
$DIMADEC
 70
     3
  9
$DIMALTRND
 40
0.0
  9
$DIMAZIN
 70
     0
  9
$DIMDSEP
 70
    46
  9
$DIMATFIT
 70
     3
  9
$DIMFRAC
 70
     0
  9
$DIMLDRBLK
  1

  9
$DIMLUNIT
 70
     2
  9
$DIMLWD
 70
    -2
  9
$DIMLWE
 70
    -2
  9
$DIMTMOVE
 70
     0
  9
$LUNITS
 70
     2
  9
$LUPREC
 70
     2
  9
$SKETCHINC
 40
0.1
  9
$FILLETRAD
 40
0.5
  9
$AUNITS
 70
     0
  9
$AUPREC
 70
     2
  9
$MENU
  1
.
  9
$ELEVATION
 40
0.0
  9
$PELEVATION
 40
0.0
  9
$THICKNESS
 40
0.0
  9
$LIMCHECK
 70
     0
  9
$CHAMFERA
 40
0.5
  9
$CHAMFERB
 40
0.5
  9
$CHAMFERC
 40
1.0
  9
$CHAMFERD
 40
0.0
  9
$SKPOLY
 70
     0
  9
$TDCREATE
 40
2457779.886486505
  9
$TDUCREATE
 40
2457780.136486505
  9
$TDUPDATE
 40
2457779.886524398
  9
$TDUUPDATE
 40
2457780.136524398
  9
$TDINDWG
 40
0.0000000116
  9
$TDUSRTIMER
 40
0.0000000116
  9
$USRTIMER
 70
     1
  9
$ANGBASE
 50
0.0
  9
$ANGDIR
 70
     0
  9
$PDMODE
 70
     0
  9
$PDSIZE
 40
-1.0
  9
$PLINEWID
 40
0.0
  9
$SPLFRAME
 70
     0
  9
$SPLINETYPE
 70
     6
  9
$SPLINESEGS
 70
     8
  9
$HANDSEED
  5
434
  9
$SURFTAB1
 70
     6
  9
$SURFTAB2
 70
     6
  9
$SURFTYPE
 70
     6
  9
$SURFU
 70
     6
  9
$SURFV
 70
     6
  9
$UCSBASE
  2

  9
$UCSNAME
  2

  9
$UCSORG
 10
0.0
 20
0.0
 30
0.0
  9
$UCSXDIR
 10
1.0
 20
0.0
 30
0.0
  9
$UCSYDIR
 10
0.0
 20
1.0
 30
0.0
  9
$UCSORTHOREF
  2

  9
$UCSORTHOVIEW
 70
     0
  9
$UCSORGTOP
 10
0.0
 20
0.0
 30
0.0
  9
$UCSORGBOTTOM
 10
0.0
 20
0.0
 30
0.0
  9
$UCSORGLEFT
 10
0.0
 20
0.0
 30
0.0
  9
$UCSORGRIGHT
 10
0.0
 20
0.0
 30
0.0
  9
$UCSORGFRONT
 10
0.0
 20
0.0
 30
0.0
  9
$UCSORGBACK
 10
0.0
 20
0.0
 30
0.0
  9
$PUCSBASE
  2

  9
$PUCSNAME
  2

  9
$PUCSORG
 10
0.0
 20
0.0
 30
0.0
  9
$PUCSXDIR
 10
1.0
 20
0.0
 30
0.0
  9
$PUCSYDIR
 10
0.0
 20
1.0
 30
0.0
  9
$PUCSORTHOREF
  2

  9
$PUCSORTHOVIEW
 70
     0
  9
$PUCSORGTOP
 10
0.0
 20
0.0
 30
0.0
  9
$PUCSORGBOTTOM
 10
0.0
 20
0.0
 30
0.0
  9
$PUCSORGLEFT
 10
0.0
 20
0.0
 30
0.0
  9
$PUCSORGRIGHT
 10
0.0
 20
0.0
 30
0.0
  9
$PUCSORGFRONT
 10
0.0
 20
0.0
 30
0.0
  9
$PUCSORGBACK
 10
0.0
 20
0.0
 30
0.0
  9
$USERI1
 70
     0
  9
$USERI2
 70
     0
  9
$USERI3
 70
     0
  9
$USERI4
 70
     0
  9
$USERI5
 70
     0
  9
$USERR1
 40
0.0
  9
$USERR2
 40
0.0
  9
$USERR3
 40
0.0
  9
$USERR4
 40
0.0
  9
$USERR5
 40
0.0
  9
$WORLDVIEW
 70
     1
  9
$SHADEDGE
 70
     3
  9
$SHADEDIF
 70
    70
  9
$TILEMODE
 70
     1
  9
$MAXACTVP
 70
    64
  9
$PINSBASE
 10
0.0
 20
0.0
 30
0.0
  9
$PLIMCHECK
 70
     0
  9
$PEXTMIN
 10
1.0000000000E+20
 20
1.0000000000E+20
 30
1.0000000000E+20
  9
$PEXTMAX
 10
-1.0000000000E+20
 20
-1.0000000000E+20
 30
-1.0000000000E+20
  9
$PLIMMIN
 10
0.0
 20
0.0
  9
$PLIMMAX
 10
12.0
 20
9.0
  9
$UNITMODE
 70
     0
  9
$VISRETAIN
 70
     1
  9
$PLINEGEN
 70
     0
  9
$PSLTSCALE
 70
     1
  9
$TREEDEPTH
 70
  3020
  9
$CMLSTYLE
  2
Standard
  9
$CMLJUST
 70
     0
  9
$CMLSCALE
 40
1.0
  9
$PROXYGRAPHICS
 70
     1
  9
$MEASUREMENT
 70
     0
  9
$CELWEIGHT
370
    -1
  9
$ENDCAPS
280
     0
  9
$JOINSTYLE
280
     0
  9
$LWDISPLAY
290
     1
  9
$INSUNITS
 70
     1
  9
$HYPERLINKBASE
  1

  9
$STYLESHEET
  1

  9
$XEDIT
290
     1
  9
$CEPSNTYPE
380
     0
  9
$PSTYLEMODE
290
     1
  9
$FINGERPRINTGUID
  2
{601E9617-216F-4C5B-A2B2-D41715E9FA0F}
  9
$VERSIONGUID
  2
{FAEB1C32-E019-11D5-929B-00C0DF256EC4}
  9
$EXTNAMES
290
     1
  9
$PSVPSCALE
 40
0.0
  9
$OLESTARTUP
290
     0
  0
ENDSEC
  0
SECTION
  2
CLASSES
  0
CLASS
  1
ACDBDICTIONARYWDFLT
  2
AcDbDictionaryWithDefault
  3
ObjectDBX Classes
 90
        0
280
     0
281
     0
  0
CLASS
  1
VISUALSTYLE
  2
AcDbVisualStyle
  3
ObjectDBX Classes
 90
     4095
280
     0
281
     0
  0
CLASS
  1
MATERIAL
  2
AcDbMaterial
  3
ObjectDBX Classes
 90
     1153
280
     0
281
     0
  0
CLASS
  1
ACDBPLACEHOLDER
  2
AcDbPlaceHolder
  3
ObjectDBX Classes
 90
        0
280
     0
281
     0
  0
CLASS
  1
LAYOUT
  2
AcDbLayout
  3
ObjectDBX Classes
 90
        0
280
     0
281
     0
  0
ENDSEC
  0
SECTION
  2
TABLES
  0
TABLE
  2
VPORT
  5
8
330
0
100
AcDbSymbolTable
 70
     1
  0
VPORT
  5
29
330
8
100
AcDbSymbolTableRecord
100
AcDbViewportTableRecord
  2
*Active
 70
     0
 10
0.0
 20
0.0
 11
1.0
 21
1.0
 12
-24.3327558529
 22
13.2488111889
 13
0.0
 23
0.0
 14
0.5
 24
0.5
 15
0.5
 25
0.5
 16
0.0
 26
0.0
 36
1.0
 17
0.0
 27
0.0
 37
0.0
 40
5.0148280961
 41
3.1774767768
 42
50.0
 43
0.0
 44
0.0
 50
0.0
 51
0.0
 71
     0
 72
   100
 73
     1
 74
     3
 75
     0
 76
     0
 77
     0
 78
     0
281
     0
 65
     1
110
0.0
120
0.0
130
0.0
111
1.0
121
0.0
131
0.0
112
0.0
122
1.0
132
0.0
 79
     0
146
0.0
  0
ENDTAB
  0
TABLE
  2
LTYPE
  5
5
330
0
100
AcDbSymbolTable
 70
     6
  0
LTYPE
  5
14
330
5
100
AcDbSymbolTableRecord
100
AcDbLinetypeTableRecord
  2
ByBlock
 70
     0
  3

 72
    65
 73
     0
 40
0.0
  0
LTYPE
  5
15
330
5
100
AcDbSymbolTableRecord
100
AcDbLinetypeTableRecord
  2
ByLayer
 70
     0
  3

 72
    65
 73
     0
 40
0.0
  0
LTYPE
  5
16
330
5
100
AcDbSymbolTableRecord
100
AcDbLinetypeTableRecord
  2
Continuous
 70
     0
  3
Solid line
 72
    65
 73
     0
 40
0.0
  0
LTYPE
  5
3F
330
5
100
AcDbSymbolTableRecord
100
AcDbLinetypeTableRecord
  2
HIDDEN
 70
     0
  3
Hidden __ __ __ __ __ __ __ __ __ __ __ __ __ __
 72
    65
 73
     2
 40
0.075
 49
0.05
 74
     0
 49
-0.025
 74
     0
  0
LTYPE
  5
40
330
5
100
AcDbSymbolTableRecord
100
AcDbLinetypeTableRecord
  2
PHANTOM
 70
     0
  3
Phantom ______  __  __  ______  __  __  ______
 72
    65
 73
     6
 40
0.5
 49
0.25
 74
     0
 49
-0.05
 74
     0
 49
0.05
 74
     0
 49
-0.05
 74
     0
 49
0.05
 74
     0
 49
-0.05
 74
     0
  0
LTYPE
  5
41
330
5
100
AcDbSymbolTableRecord
100
AcDbLinetypeTableRecord
  2
CENTER
 70
     0
  3
Center ____ _ ____ _ ____ _ ____ _ ____ _ ____
 72
    65
 73
     4
 40
0.4
 49
0.25
 74
     0
 49
-0.05
 74
     0
 49
0.05
 74
     0
 49
-0.05
 74
     0
  0
LTYPE
  5
42
330
5
100
AcDbSymbolTableRecord
100
AcDbLinetypeTableRecord
  2
CENTERX2
 70
     0
  3
Center (2x) ________  __  ________  __  _____
 72
    65
 73
     4
 40
0.8
 49
0.5
 74
     0
 49
-0.1
 74
     0
 49
0.1
 74
     0
 49
-0.1
 74
     0
  0
LTYPE
  5
43
330
5
100
AcDbSymbolTableRecord
100
AcDbLinetypeTableRecord
  2
DOT2
 70
     0
  3
Dot (.5x) ........................................
 72
    65
 73
     2
 40
0.025
 49
0.0
 74
     0
 49
-0.025
 74
     0
  0
ENDTAB
  0
TABLE
  2
LAYER
  5
2
330
0
100
AcDbSymbolTable
 70
     1
  0
LAYER
  5
10
330
2
100
AcDbSymbolTableRecord
100
AcDbLayerTableRecord
  2
0
 70
     0
 62
     7
  6
Continuous
370
    -3
390
F
  0
ENDTAB
  0
TABLE
  2
STYLE
  5
3
330
0
100
AcDbSymbolTable
 70
     1
  0
STYLE
  5
11
330
3
100
AcDbSymbolTableRecord
100
AcDbTextStyleTableRecord
  2
Standard
 70
     0
 40
0.0
 41
1.0
 50
0.0
 71
     0
 42
0.1377952756
  3
txt
  4

  0
ENDTAB
  0
TABLE
  2
VIEW
  5
6
330
0
100
AcDbSymbolTable
 70
     0
  0
ENDTAB
  0
TABLE
  2
UCS
  5
7
330
0
100
AcDbSymbolTable
 70
     0
  0
ENDTAB
  0
TABLE
  2
APPID
  5
9
330
0
100
AcDbSymbolTable
 70
     1
  0
APPID
  5
12
330
9
100
AcDbSymbolTableRecord
100
AcDbRegAppTableRecord
  2
ACAD
 70
     0
  0
ENDTAB
  0
TABLE
  2
DIMSTYLE
  5
A
330
0
100
AcDbSymbolTable
 70
     1
100
AcDbDimStyleTable
  0
DIMSTYLE
105
27
330
A
100
AcDbSymbolTableRecord
100
AcDbDimStyleTableRecord
  2
Standard
 70
     0
178
     0
340
11
  0
ENDTAB
  0
TABLE
  2
BLOCK_RECORD
  5
1
330
0
100
AcDbSymbolTable
 70
     1
  0
BLOCK_RECORD
  5
1F
330
1
100
AcDbSymbolTableRecord
100
AcDbBlockTableRecord
  2
*Model_Space
340
22
  0
BLOCK_RECORD
  5
1B
330
1
100
AcDbSymbolTableRecord
100
AcDbBlockTableRecord
  2
*Paper_Space
340
1E
  0
BLOCK_RECORD
  5
23
330
1
100
AcDbSymbolTableRecord
100
AcDbBlockTableRecord
  2
*Paper_Space0
340
26
  0
ENDTAB
  0
ENDSEC
  0
SECTION
  2
BLOCKS
  0
BLOCK
  5
20
330
1F
100
AcDbEntity
  8
0
100
AcDbBlockBegin
  2
*Model_Space
 70
     0
 10
0.0
 20
0.0
 30
0.0
  3
*Model_Space
  1

  0
ENDBLK
  5
21
330
1F
100
AcDbEntity
  8
0
100
AcDbBlockEnd
  0
BLOCK
  5
1C
330
1B
100
AcDbEntity
 67
     1
  8
0
100
AcDbBlockBegin
  2
*Paper_Space
 70
     0
 10
0.0
 20
0.0
 30
0.0
  3
*Paper_Space
  1

  0
ENDBLK
  5
1D
330
1B
100
AcDbEntity
 67
     1
  8
0
100
AcDbBlockEnd
  0
BLOCK
  5
24
330
23
100
AcDbEntity
  8
0
100
AcDbBlockBegin
  2
*Paper_Space0
 70
     0
 10
0.0
 20
0.0
 30
0.0
  3
*Paper_Space0
  1

  0
ENDBLK
  5
25
330
23
100
AcDbEntity
  8
0
100
AcDbBlockEnd
  0
ENDSEC
  0
SECTION
  2
ENTITIES
  0
LINE
  5
23C
330
1F
100
AcDbEntity
  8
0
  6
Continuous
 62
     7
370
    15
100
AcDbLine
 10
-18.6813612566
 20
11.1748120185
 30
0.0
 11
-18.6813612566
 21
12.1037908136
 31
0.0
  0
LINE
  5
23D
330
1F
100
AcDbEntity
  8
0
  6
Continuous
 62
     7
370
    15
100
AcDbLine
 10
-18.6813612566
 20
12.1037908136
 30
0.0
 11
-18.7677778887
 21
12.1037908136
 31
0.0
  0
LINE
  5
23E
330
1F
100
AcDbEntity
  8
0
  6
Continuous
 62
     7
370
    15
100
AcDbLine
 10
-18.7677778887
 20
12.1037908136
 30
0.0
 11
-18.7677778887
 21
11.1748120185
 31
0.0
  0
LINE
  5
23F
330
1F
100
AcDbEntity
  8
0
  6
Continuous
 62
     7
370
    15
100
AcDbLine
 10
-18.7677778887
 20
11.1748120185
 30
0.0
 11
-18.6813612566
 21
11.1748120185
 31
0.0
  0
LINE
  5
240
330
1F
100
AcDbEntity
  8
0
  6
Continuous
 62
     7
370
    15
100
AcDbLine
 10
-18.4221113603
 20
11.1748120185
 30
0.0
 11
-18.4221113603
 21
12.1037908136
 31
0.0
  0
LINE
  5
241
330
1F
100
AcDbEntity
  8
0
  6
Continuous
 62
     7
370
    15
100
AcDbLine
 10
-18.4221113603
 20
12.1037908136
 30
0.0
 11
-18.5085279924
 21
12.1037908136
 31
0.0
  0
LINE
  5
242
330
1F
100
AcDbEntity
  8
0
  6
Continuous
 62
     7
370
    15
100
AcDbLine
 10
-18.5085279924
 20
12.1037908136
 30
0.0
 11
-18.5085279924
 21
11.1748120185
 31
0.0
  0
LINE
  5
243
330
1F
100
AcDbEntity
  8
0
  6
Continuous
 62
     7
370
    15
100
AcDbLine
 10
-18.5085279924
 20
11.1748120185
 30
0.0
 11
-18.4221113603
 21
11.1748120185
 31
0.0
  0
LINE
  5
244
330
1F
100
AcDbEntity
  8
0
  6
Continuous
 62
     7
370
    15
100
AcDbLine
 10
-18.162861464
 20
11.1748120185
 30
0.0
 11
-18.162861464
 21
12.1037908136
 31
0.0
  0
LINE
  5
245
330
1F
100
AcDbEntity
  8
0
  6
Continuous
 62
     7
370
    15
100
AcDbLine
 10
-18.162861464
 20
12.1037908136
 30
0.0
 11
-18.2492780961
 21
12.1037908136
 31
0.0
  0
LINE
  5
246
330
1F
100
AcDbEntity
  8
0
  6
Continuous
 62
     7
370
    15
100
AcDbLine
 10
-18.2492780961
 20
12.1037908136
 30
0.0
 11
-18.2492780961
 21
11.1748120185
 31
0.0
  0
LINE
  5
247
330
1F
100
AcDbEntity
  8
0
  6
Continuous
 62
     7
370
    15
100
AcDbLine
 10
-18.2492780961
 20
11.1748120185
 30
0.0
 11
-18.162861464
 21
11.1748120185
 31
0.0
  0
LINE
  5
248
330
1F
100
AcDbEntity
  8
0
  6
Continuous
 62
     7
370
    15
100
AcDbLine
 10
-17.9036115677
 20
11.1748120185
 30
0.0
 11
-17.9036115677
 21
12.1037908136
 31
0.0
  0
LINE
  5
249
330
1F
100
AcDbEntity
  8
0
  6
Continuous
 62
     7
370
    15
100
AcDbLine
 10
-17.9036115677
 20
12.1037908136
 30
0.0
 11
-17.9900281998
 21
12.1037908136
 31
0.0
  0
LINE
  5
24A
330
1F
100
AcDbEntity
  8
0
  6
Continuous
 62
     7
370
    15
100
AcDbLine
 10
-17.9900281998
 20
12.1037908136
 30
0.0
 11
-17.9900281998
 21
11.1748120185
 31
0.0
  0
LINE
  5
24B
330
1F
100
AcDbEntity
  8
0
  6
Continuous
 62
     7
370
    15
100
AcDbLine
 10
-17.9900281998
 20
11.1748120185
 30
0.0
 11
-17.9036115677
 21
11.1748120185
 31
0.0
  0
LINE
  5
24C
330
1F
100
AcDbEntity
  8
0
  6
Continuous
 62
     7
370
    15
100
AcDbLine
 10
-17.5147367232
 20
11.1748120185
 30
0.0
 11
-17.5147367232
 21
12.1037908136
 31
0.0
  0
LINE
  5
24D
330
1F
100
AcDbEntity
  8
0
  6
Continuous
 62
     7
370
    15
100
AcDbLine
 10
-17.5147367232
 20
12.1037908136
 30
0.0
 11
-17.6011533553
 21
12.1037908136
 31
0.0
  0
LINE
  5
24E
330
1F
100
AcDbEntity
  8
0
  6
Continuous
 62
     7
370
    15
100
AcDbLine
 10
-17.6011533553
 20
12.1037908136
 30
0.0
 11
-17.6011533553
 21
11.1748120185
 31
0.0
  0
LINE
  5
24F
330
1F
100
AcDbEntity
  8
0
  6
Continuous
 62
     7
370
    15
100
AcDbLine
 10
-17.6011533553
 20
11.1748120185
 30
0.0
 11
-17.5147367232
 21
11.1748120185
 31
0.0
  0
LINE
  5
250
330
1F
100
AcDbEntity
  8
0
  6
Continuous
 62
     7
370
    15
100
AcDbLine
 10
-17.1258618788
 20
11.1748120185
 30
0.0
 11
-17.1258618788
 21
12.1037908136
 31
0.0
  0
LINE
  5
251
330
1F
100
AcDbEntity
  8
0
  6
Continuous
 62
     7
370
    15
100
AcDbLine
 10
-17.1258618788
 20
12.1037908136
 30
0.0
 11
-17.2122785109
 21
12.1037908136
 31
0.0
  0
LINE
  5
252
330
1F
100
AcDbEntity
  8
0
  6
Continuous
 62
     7
370
    15
100
AcDbLine
 10
-17.2122785109
 20
12.1037908136
 30
0.0
 11
-17.2122785109
 21
11.1748120185
 31
0.0
  0
LINE
  5
253
330
1F
100
AcDbEntity
  8
0
  6
Continuous
 62
     7
370
    15
100
AcDbLine
 10
-17.2122785109
 20
11.1748120185
 30
0.0
 11
-17.1258618788
 21
11.1748120185
 31
0.0
  0
LINE
  5
254
330
1F
100
AcDbEntity
  8
0
  6
Continuous
 62
     7
370
    15
100
AcDbLine
 10
-16.7421926603
 20
11.1748120185
 30
0.0
 11
-16.7414745603
 21
12.1037908136
 31
0.0
  0
LINE
  5
255
330
1F
100
AcDbEntity
  8
0
  6
Continuous
 62
     7
370
    15
100
AcDbLine
 10
-16.7414745603
 20
12.1037908136
 30
0.0
 11
-16.8234036664
 21
12.1037908136
 31
0.0
  0
LINE
  5
256
330
1F
100
AcDbEntity
  8
0
  6
Continuous
 62
     7
370
    15
100
AcDbLine
 10
-16.8234036664
 20
12.1037908136
 30
0.0
 11
-16.8234036664
 21
11.1748120185
 31
0.0
  0
LINE
  5
257
330
1F
100
AcDbEntity
  8
0
  6
Continuous
 62
     7
370
    15
100
AcDbLine
 10
-16.8234036664
 20
11.1748120185
 30
0.0
 11
-16.7421926603
 21
11.1748120185
 31
0.0
  0
LINE
  5
258
330
1F
100
AcDbEntity
  8
0
  6
Continuous
 62
     7
370
    15
100
AcDbLine
 10
-16.8666119825
 20
11.1748120185
 30
0.0
 11
-16.8666119825
 21
12.1037908136
 31
0.0
  0
LINE
  5
259
330
1F
100
AcDbEntity
  8
0
  6
Continuous
 62
     7
370
    15
100
AcDbLine
 10
-16.8666119825
 20
12.1037908136
 30
0.0
 11
-16.9530286146
 21
12.1037908136
 31
0.0
  0
LINE
  5
25A
330
1F
100
AcDbEntity
  8
0
  6
Continuous
 62
     7
370
    15
100
AcDbLine
 10
-16.9530286146
 20
12.1037908136
 30
0.0
 11
-16.9530286146
 21
11.1748120185
 31
0.0
  0
LINE
  5
25B
330
1F
100
AcDbEntity
  8
0
  6
Continuous
 62
     7
370
    15
100
AcDbLine
 10
-16.9530286146
 20
11.1748120185
 30
0.0
 11
-16.8666119825
 21
11.1748120185
 31
0.0
  0
LINE
  5
25C
330
1F
100
AcDbEntity
  8
0
  6
Continuous
 62
     7
370
    15
100
AcDbLine
 10
-17.6443616714
 20
11.1748120185
 30
0.0
 11
-17.6443616714
 21
12.1037908136
 31
0.0
  0
LINE
  5
25D
330
1F
100
AcDbEntity
  8
0
  6
Continuous
 62
     7
370
    15
100
AcDbLine
 10
-17.6443616714
 20
12.1037908136
 30
0.0
 11
-17.7307783035
 21
12.1037908136
 31
0.0
  0
LINE
  5
25E
330
1F
100
AcDbEntity
  8
0
  6
Continuous
 62
     7
370
    15
100
AcDbLine
 10
-17.7307783035
 20
12.1037908136
 30
0.0
 11
-17.7307783035
 21
11.1748120185
 31
0.0
  0
LINE
  5
25F
330
1F
100
AcDbEntity
  8
0
  6
Continuous
 62
     7
370
    15
100
AcDbLine
 10
-17.7307783035
 20
11.1748120185
 30
0.0
 11
-17.6443616714
 21
11.1748120185
 31
0.0
  0
LINE
  5
260
330
1F
100
AcDbEntity
  8
0
  6
Continuous
 62
     7
370
    15
100
AcDbLine
 10
-19.5887358936
 20
11.1748120185
 30
0.0
 11
-19.5887358936
 21
12.1037908136
 31
0.0
  0
LINE
  5
261
330
1F
100
AcDbEntity
  8
0
  6
Continuous
 62
     7
370
    15
100
AcDbLine
 10
-19.5887358936
 20
12.1037908136
 30
0.0
 11
-19.6751525257
 21
12.1037908136
 31
0.0
  0
LINE
  5
262
330
1F
100
AcDbEntity
  8
0
  6
Continuous
 62
     7
370
    15
100
AcDbLine
 10
-19.6751525257
 20
12.1037908136
 30
0.0
 11
-19.6751525257
 21
11.1748120185
 31
0.0
  0
LINE
  5
263
330
1F
100
AcDbEntity
  8
0
  6
Continuous
 62
     7
370
    15
100
AcDbLine
 10
-19.6751525257
 20
11.1748120185
 30
0.0
 11
-19.5887358936
 21
11.1748120185
 31
0.0
  0
LINE
  5
264
330
1F
100
AcDbEntity
  8
0
  6
Continuous
 62
     7
370
    15
100
AcDbLine
 10
-19.3294859973
 20
11.1748120185
 30
0.0
 11
-19.3294859973
 21
12.1037908136
 31
0.0
  0
LINE
  5
265
330
1F
100
AcDbEntity
  8
0
  6
Continuous
 62
     7
370
    15
100
AcDbLine
 10
-19.3294859973
 20
12.1037908136
 30
0.0
 11
-19.4159026294
 21
12.1037908136
 31
0.0
  0
LINE
  5
266
330
1F
100
AcDbEntity
  8
0
  6
Continuous
 62
     7
370
    15
100
AcDbLine
 10
-19.4159026294
 20
12.1037908136
 30
0.0
 11
-19.4159026294
 21
11.1748120185
 31
0.0
  0
LINE
  5
267
330
1F
100
AcDbEntity
  8
0
  6
Continuous
 62
     7
370
    15
100
AcDbLine
 10
-19.4159026294
 20
11.1748120185
 30
0.0
 11
-19.3294859973
 21
11.1748120185
 31
0.0
  0
LINE
  5
268
330
1F
100
AcDbEntity
  8
0
  6
Continuous
 62
     7
370
    15
100
AcDbLine
 10
-19.070236101
 20
11.1748120185
 30
0.0
 11
-19.070236101
 21
12.1037908136
 31
0.0
  0
LINE
  5
269
330
1F
100
AcDbEntity
  8
0
  6
Continuous
 62
     7
370
    15
100
AcDbLine
 10
-19.070236101
 20
12.1037908136
 30
0.0
 11
-19.1566527331
 21
12.1037908136
 31
0.0
  0
LINE
  5
26A
330
1F
100
AcDbEntity
  8
0
  6
Continuous
 62
     7
370
    15
100
AcDbLine
 10
-19.1566527331
 20
12.1037908136
 30
0.0
 11
-19.1566527331
 21
11.1748120185
 31
0.0
  0
LINE
  5
26B
330
1F
100
AcDbEntity
  8
0
  6
Continuous
 62
     7
370
    15
100
AcDbLine
 10
-19.1566527331
 20
11.1748120185
 30
0.0
 11
-19.070236101
 21
11.1748120185
 31
0.0
  0
LINE
  5
26C
330
1F
100
AcDbEntity
  8
0
  6
Continuous
 62
     7
370
    15
100
AcDbLine
 10
-18.8109862047
 20
11.1748120185
 30
0.0
 11
-18.8109862047
 21
12.1037908136
 31
0.0
  0
LINE
  5
26D
330
1F
100
AcDbEntity
  8
0
  6
Continuous
 62
     7
370
    15
100
AcDbLine
 10
-18.8109862047
 20
12.1037908136
 30
0.0
 11
-18.8974028368
 21
12.1037908136
 31
0.0
  0
LINE
  5
26E
330
1F
100
AcDbEntity
  8
0
  6
Continuous
 62
     7
370
    15
100
AcDbLine
 10
-18.8974028368
 20
12.1037908136
 30
0.0
 11
-18.8974028368
 21
11.1748120185
 31
0.0
  0
LINE
  5
26F
330
1F
100
AcDbEntity
  8
0
  6
Continuous
 62
     7
370
    15
100
AcDbLine
 10
-18.8974028368
 20
11.1748120185
 30
0.0
 11
-18.8109862047
 21
11.1748120185
 31
0.0
  0
LINE
  5
270
330
1F
100
AcDbEntity
  8
0
  6
Continuous
 62
     7
370
    15
100
AcDbLine
 10
-22.0852843368
 20
11.1748120185
 30
0.0
 11
-22.0852843368
 21
12.1037908136
 31
0.0
  0
LINE
  5
271
330
1F
100
AcDbEntity
  8
0
  6
Continuous
 62
     7
370
    15
100
AcDbLine
 10
-22.0852843368
 20
12.1037908136
 30
0.0
 11
-22.1717009689
 21
12.1037908136
 31
0.0
  0
LINE
  5
272
330
1F
100
AcDbEntity
  8
0
  6
Continuous
 62
     7
370
    15
100
AcDbLine
 10
-22.1717009689
 20
12.1037908136
 30
0.0
 11
-22.1717009689
 21
11.1748120185
 31
0.0
  0
LINE
  5
273
330
1F
100
AcDbEntity
  8
0
  6
Continuous
 62
     7
370
    15
100
AcDbLine
 10
-22.1717009689
 20
11.1748120185
 30
0.0
 11
-22.0852843368
 21
11.1748120185
 31
0.0
  0
LINE
  5
274
330
1F
100
AcDbEntity
  8
0
  6
Continuous
 62
     7
370
    15
100
AcDbLine
 10
-21.8260344405
 20
11.1748120185
 30
0.0
 11
-21.8260344405
 21
12.1037908136
 31
0.0
  0
LINE
  5
275
330
1F
100
AcDbEntity
  8
0
  6
Continuous
 62
     7
370
    15
100
AcDbLine
 10
-21.8260344405
 20
12.1037908136
 30
0.0
 11
-21.9124510726
 21
12.1037908136
 31
0.0
  0
LINE
  5
276
330
1F
100
AcDbEntity
  8
0
  6
Continuous
 62
     7
370
    15
100
AcDbLine
 10
-21.9124510726
 20
12.1037908136
 30
0.0
 11
-21.9124510726
 21
11.1748120185
 31
0.0
  0
LINE
  5
277
330
1F
100
AcDbEntity
  8
0
  6
Continuous
 62
     7
370
    15
100
AcDbLine
 10
-21.9124510726
 20
11.1748120185
 30
0.0
 11
-21.8260344405
 21
11.1748120185
 31
0.0
  0
LINE
  5
278
330
1F
100
AcDbEntity
  8
0
  6
Continuous
 62
     7
370
    15
100
AcDbLine
 10
-21.5667845442
 20
11.1748120185
 30
0.0
 11
-21.5667845442
 21
12.1037908136
 31
0.0
  0
LINE
  5
279
330
1F
100
AcDbEntity
  8
0
  6
Continuous
 62
     7
370
    15
100
AcDbLine
 10
-21.5667845442
 20
12.1037908136
 30
0.0
 11
-21.6532011763
 21
12.1037908136
 31
0.0
  0
LINE
  5
27A
330
1F
100
AcDbEntity
  8
0
  6
Continuous
 62
     7
370
    15
100
AcDbLine
 10
-21.6532011763
 20
12.1037908136
 30
0.0
 11
-21.6532011763
 21
11.1748120185
 31
0.0
  0
LINE
  5
27B
330
1F
100
AcDbEntity
  8
0
  6
Continuous
 62
     7
370
    15
100
AcDbLine
 10
-21.6532011763
 20
11.1748120185
 30
0.0
 11
-21.5667845442
 21
11.1748120185
 31
0.0
  0
LINE
  5
27C
330
1F
100
AcDbEntity
  8
0
  6
Continuous
 62
     7
370
    15
100
AcDbLine
 10
-21.3075346479
 20
11.1748120185
 30
0.0
 11
-21.3075346479
 21
12.1037908136
 31
0.0
  0
LINE
  5
27D
330
1F
100
AcDbEntity
  8
0
  6
Continuous
 62
     7
370
    15
100
AcDbLine
 10
-21.3075346479
 20
12.1037908136
 30
0.0
 11
-21.39395128
 21
12.1037908136
 31
0.0
  0
LINE
  5
27E
330
1F
100
AcDbEntity
  8
0
  6
Continuous
 62
     7
370
    15
100
AcDbLine
 10
-21.39395128
 20
12.1037908136
 30
0.0
 11
-21.39395128
 21
11.1748120185
 31
0.0
  0
LINE
  5
27F
330
1F
100
AcDbEntity
  8
0
  6
Continuous
 62
     7
370
    15
100
AcDbLine
 10
-21.39395128
 20
11.1748120185
 30
0.0
 11
-21.3075346479
 21
11.1748120185
 31
0.0
  0
LINE
  5
280
330
1F
100
AcDbEntity
  8
0
  6
Continuous
 62
     7
370
    15
100
AcDbLine
 10
-20.7890348553
 20
11.1748120185
 30
0.0
 11
-20.7890348553
 21
12.1037908136
 31
0.0
  0
LINE
  5
281
330
1F
100
AcDbEntity
  8
0
  6
Continuous
 62
     7
370
    15
100
AcDbLine
 10
-20.7890348553
 20
12.1037908136
 30
0.0
 11
-20.8754514874
 21
12.1037908136
 31
0.0
  0
LINE
  5
282
330
1F
100
AcDbEntity
  8
0
  6
Continuous
 62
     7
370
    15
100
AcDbLine
 10
-20.8754514874
 20
12.1037908136
 30
0.0
 11
-20.8754514874
 21
11.1748120185
 31
0.0
  0
LINE
  5
283
330
1F
100
AcDbEntity
  8
0
  6
Continuous
 62
     7
370
    15
100
AcDbLine
 10
-20.8754514874
 20
11.1748120185
 30
0.0
 11
-20.7890348553
 21
11.1748120185
 31
0.0
  0
LINE
  5
284
330
1F
100
AcDbEntity
  8
0
  6
Continuous
 62
     7
370
    15
100
AcDbLine
 10
-23.4638225887
 20
11.1748120185
 30
0.0
 11
-23.3815088702
 21
11.1748120185
 31
0.0
  0
LINE
  5
285
330
1F
100
AcDbEntity
  8
0
  6
Continuous
 62
     7
370
    15
100
AcDbLine
 10
-23.3815088702
 20
11.1748120185
 30
0.0
 11
-23.3815088702
 21
12.1037908136
 31
0.0
  0
LINE
  5
286
330
1F
100
AcDbEntity
  8
0
  6
Continuous
 62
     7
370
    15
100
AcDbLine
 10
-23.3815088702
 20
12.1037908136
 30
0.0
 11
-23.4638225887
 21
12.1037908136
 31
0.0
  0
LINE
  5
287
330
1F
100
AcDbEntity
  8
0
  6
Continuous
 62
     7
370
    15
100
AcDbLine
 10
-23.4638225887
 20
12.1037908136
 30
0.0
 11
-23.4638225887
 21
11.1748120185
 31
0.0
  0
LINE
  5
288
330
1F
100
AcDbEntity
  8
0
  6
Continuous
 62
     7
370
    15
100
AcDbLine
 10
-20.529784959
 20
11.1748120185
 30
0.0
 11
-20.529784959
 21
12.1037908136
 31
0.0
  0
LINE
  5
289
330
1F
100
AcDbEntity
  8
0
  6
Continuous
 62
     7
370
    15
100
AcDbLine
 10
-20.529784959
 20
12.1037908136
 30
0.0
 11
-20.6162015911
 21
12.1037908136
 31
0.0
  0
LINE
  5
28A
330
1F
100
AcDbEntity
  8
0
  6
Continuous
 62
     7
370
    15
100
AcDbLine
 10
-20.6162015911
 20
12.1037908136
 30
0.0
 11
-20.6162015911
 21
11.1748120185
 31
0.0
  0
LINE
  5
28B
330
1F
100
AcDbEntity
  8
0
  6
Continuous
 62
     7
370
    15
100
AcDbLine
 10
-20.6162015911
 20
11.1748120185
 30
0.0
 11
-20.529784959
 21
11.1748120185
 31
0.0
  0
LINE
  5
28C
330
1F
100
AcDbEntity
  8
0
  6
Continuous
 62
     7
370
    15
100
AcDbLine
 10
-20.9186598035
 20
11.1748120185
 30
0.0
 11
-20.9186598035
 21
12.1037908136
 31
0.0
  0
LINE
  5
28D
330
1F
100
AcDbEntity
  8
0
  6
Continuous
 62
     7
370
    15
100
AcDbLine
 10
-20.9186598035
 20
12.1037908136
 30
0.0
 11
-21.0050764356
 21
12.1037908136
 31
0.0
  0
LINE
  5
28E
330
1F
100
AcDbEntity
  8
0
  6
Continuous
 62
     7
370
    15
100
AcDbLine
 10
-21.0050764356
 20
12.1037908136
 30
0.0
 11
-21.0050764356
 21
11.1748120185
 31
0.0
  0
LINE
  5
28F
330
1F
100
AcDbEntity
  8
0
  6
Continuous
 62
     7
370
    15
100
AcDbLine
 10
-21.0050764356
 20
11.1748120185
 30
0.0
 11
-20.9186598035
 21
11.1748120185
 31
0.0
  0
LINE
  5
290
330
1F
100
AcDbEntity
  8
0
  6
Continuous
 62
     7
370
    15
100
AcDbLine
 10
-23.2519088702
 20
11.1748120185
 30
0.0
 11
-23.2519088702
 21
12.1037908136
 31
0.0
  0
LINE
  5
291
330
1F
100
AcDbEntity
  8
0
  6
Continuous
 62
     7
370
    15
100
AcDbLine
 10
-23.2519088702
 20
12.1037908136
 30
0.0
 11
-23.3383255023
 21
12.1037908136
 31
0.0
  0
LINE
  5
292
330
1F
100
AcDbEntity
  8
0
  6
Continuous
 62
     7
370
    15
100
AcDbLine
 10
-23.3383255023
 20
12.1037908136
 30
0.0
 11
-23.3383255023
 21
11.1748120185
 31
0.0
  0
LINE
  5
293
330
1F
100
AcDbEntity
  8
0
  6
Continuous
 62
     7
370
    15
100
AcDbLine
 10
-23.3383255023
 20
11.1748120185
 30
0.0
 11
-23.2519088702
 21
11.1748120185
 31
0.0
  0
LINE
  5
294
330
1F
100
AcDbEntity
  8
0
  6
Continuous
 62
     7
370
    15
100
AcDbLine
 10
-22.9926589739
 20
11.1748120185
 30
0.0
 11
-22.9926589739
 21
12.1037908136
 31
0.0
  0
LINE
  5
295
330
1F
100
AcDbEntity
  8
0
  6
Continuous
 62
     7
370
    15
100
AcDbLine
 10
-22.9926589739
 20
12.1037908136
 30
0.0
 11
-23.079075606
 21
12.1037908136
 31
0.0
  0
LINE
  5
296
330
1F
100
AcDbEntity
  8
0
  6
Continuous
 62
     7
370
    15
100
AcDbLine
 10
-23.079075606
 20
12.1037908136
 30
0.0
 11
-23.079075606
 21
11.1748120185
 31
0.0
  0
LINE
  5
297
330
1F
100
AcDbEntity
  8
0
  6
Continuous
 62
     7
370
    15
100
AcDbLine
 10
-23.079075606
 20
11.1748120185
 30
0.0
 11
-22.9926589739
 21
11.1748120185
 31
0.0
  0
LINE
  5
298
330
1F
100
AcDbEntity
  8
0
  6
Continuous
 62
     7
370
    15
100
AcDbLine
 10
-22.7334090776
 20
11.1748120185
 30
0.0
 11
-22.7334090776
 21
12.1037908136
 31
0.0
  0
LINE
  5
299
330
1F
100
AcDbEntity
  8
0
  6
Continuous
 62
     7
370
    15
100
AcDbLine
 10
-22.7334090776
 20
12.1037908136
 30
0.0
 11
-22.8198257097
 21
12.1037908136
 31
0.0
  0
LINE
  5
29A
330
1F
100
AcDbEntity
  8
0
  6
Continuous
 62
     7
370
    15
100
AcDbLine
 10
-22.8198257097
 20
12.1037908136
 30
0.0
 11
-22.8198257097
 21
11.1748120185
 31
0.0
  0
LINE
  5
29B
330
1F
100
AcDbEntity
  8
0
  6
Continuous
 62
     7
370
    15
100
AcDbLine
 10
-22.8198257097
 20
11.1748120185
 30
0.0
 11
-22.7334090776
 21
11.1748120185
 31
0.0
  0
LINE
  5
29C
330
1F
100
AcDbEntity
  8
0
  6
Continuous
 62
     7
370
    15
100
AcDbLine
 10
-22.4741591813
 20
11.1748120185
 30
0.0
 11
-22.4741591813
 21
12.1037908136
 31
0.0
  0
LINE
  5
29D
330
1F
100
AcDbEntity
  8
0
  6
Continuous
 62
     7
370
    15
100
AcDbLine
 10
-22.4741591813
 20
12.1037908136
 30
0.0
 11
-22.5605758134
 21
12.1037908136
 31
0.0
  0
LINE
  5
29E
330
1F
100
AcDbEntity
  8
0
  6
Continuous
 62
     7
370
    15
100
AcDbLine
 10
-22.5605758134
 20
12.1037908136
 30
0.0
 11
-22.5605758134
 21
11.1748120185
 31
0.0
  0
LINE
  5
29F
330
1F
100
AcDbEntity
  8
0
  6
Continuous
 62
     7
370
    15
100
AcDbLine
 10
-22.5605758134
 20
11.1748120185
 30
0.0
 11
-22.4741591813
 21
11.1748120185
 31
0.0
  0
LINE
  5
2A0
330
1F
100
AcDbEntity
  8
0
  6
Continuous
 62
     7
370
    15
100
AcDbLine
 10
-25.7484573134
 20
11.1748120185
 30
0.0
 11
-25.7484573134
 21
12.1037908136
 31
0.0
  0
LINE
  5
2A1
330
1F
100
AcDbEntity
  8
0
  6
Continuous
 62
     7
370
    15
100
AcDbLine
 10
-25.7484573134
 20
12.1037908136
 30
0.0
 11
-25.8348739455
 21
12.1037908136
 31
0.0
  0
LINE
  5
2A2
330
1F
100
AcDbEntity
  8
0
  6
Continuous
 62
     7
370
    15
100
AcDbLine
 10
-25.8348739455
 20
12.1037908136
 30
0.0
 11
-25.8348739455
 21
11.1748120185
 31
0.0
  0
LINE
  5
2A3
330
1F
100
AcDbEntity
  8
0
  6
Continuous
 62
     7
370
    15
100
AcDbLine
 10
-25.8348739455
 20
11.1748120185
 30
0.0
 11
-25.7484573134
 21
11.1748120185
 31
0.0
  0
LINE
  5
2A4
330
1F
100
AcDbEntity
  8
0
  6
Continuous
 62
     7
370
    15
100
AcDbLine
 10
-25.4892074171
 20
11.1748120185
 30
0.0
 11
-25.4892074171
 21
12.1037908136
 31
0.0
  0
LINE
  5
2A5
330
1F
100
AcDbEntity
  8
0
  6
Continuous
 62
     7
370
    15
100
AcDbLine
 10
-25.4892074171
 20
12.1037908136
 30
0.0
 11
-25.5756240492
 21
12.1037908136
 31
0.0
  0
LINE
  5
2A6
330
1F
100
AcDbEntity
  8
0
  6
Continuous
 62
     7
370
    15
100
AcDbLine
 10
-25.5756240492
 20
12.1037908136
 30
0.0
 11
-25.5756240492
 21
11.1748120185
 31
0.0
  0
LINE
  5
2A7
330
1F
100
AcDbEntity
  8
0
  6
Continuous
 62
     7
370
    15
100
AcDbLine
 10
-25.5756240492
 20
11.1748120185
 30
0.0
 11
-25.4892074171
 21
11.1748120185
 31
0.0
  0
LINE
  5
2A8
330
1F
100
AcDbEntity
  8
0
  6
Continuous
 62
     7
370
    15
100
AcDbLine
 10
-25.2299575208
 20
11.1748120185
 30
0.0
 11
-25.2299575208
 21
12.1037908136
 31
0.0
  0
LINE
  5
2A9
330
1F
100
AcDbEntity
  8
0
  6
Continuous
 62
     7
370
    15
100
AcDbLine
 10
-25.2299575208
 20
12.1037908136
 30
0.0
 11
-25.3163741529
 21
12.1037908136
 31
0.0
  0
LINE
  5
2AA
330
1F
100
AcDbEntity
  8
0
  6
Continuous
 62
     7
370
    15
100
AcDbLine
 10
-25.3163741529
 20
12.1037908136
 30
0.0
 11
-25.3163741529
 21
11.1748120185
 31
0.0
  0
LINE
  5
2AB
330
1F
100
AcDbEntity
  8
0
  6
Continuous
 62
     7
370
    15
100
AcDbLine
 10
-25.3163741529
 20
11.1748120185
 30
0.0
 11
-25.2299575208
 21
11.1748120185
 31
0.0
  0
LINE
  5
2AC
330
1F
100
AcDbEntity
  8
0
  6
Continuous
 62
     7
370
    15
100
AcDbLine
 10
-24.9707076245
 20
11.1748120185
 30
0.0
 11
-24.9707076245
 21
12.1037908136
 31
0.0
  0
LINE
  5
2AD
330
1F
100
AcDbEntity
  8
0
  6
Continuous
 62
     7
370
    15
100
AcDbLine
 10
-24.9707076245
 20
12.1037908136
 30
0.0
 11
-25.0571242566
 21
12.1037908136
 31
0.0
  0
LINE
  5
2AE
330
1F
100
AcDbEntity
  8
0
  6
Continuous
 62
     7
370
    15
100
AcDbLine
 10
-25.0571242566
 20
12.1037908136
 30
0.0
 11
-25.0571242566
 21
11.1748120185
 31
0.0
  0
LINE
  5
2AF
330
1F
100
AcDbEntity
  8
0
  6
Continuous
 62
     7
370
    15
100
AcDbLine
 10
-25.0571242566
 20
11.1748120185
 30
0.0
 11
-24.9707076245
 21
11.1748120185
 31
0.0
  0
LINE
  5
2B0
330
1F
100
AcDbEntity
  8
0
  6
Continuous
 62
     7
370
    15
100
AcDbLine
 10
-24.58183278
 20
11.1748120185
 30
0.0
 11
-24.58183278
 21
12.1037908136
 31
0.0
  0
LINE
  5
2B1
330
1F
100
AcDbEntity
  8
0
  6
Continuous
 62
     7
370
    15
100
AcDbLine
 10
-24.58183278
 20
12.1037908136
 30
0.0
 11
-24.6682494121
 21
12.1037908136
 31
0.0
  0
LINE
  5
2B2
330
1F
100
AcDbEntity
  8
0
  6
Continuous
 62
     7
370
    15
100
AcDbLine
 10
-24.6682494121
 20
12.1037908136
 30
0.0
 11
-24.6682494121
 21
11.1748120185
 31
0.0
  0
LINE
  5
2B3
330
1F
100
AcDbEntity
  8
0
  6
Continuous
 62
     7
370
    15
100
AcDbLine
 10
-24.6682494121
 20
11.1748120185
 30
0.0
 11
-24.58183278
 21
11.1748120185
 31
0.0
  0
LINE
  5
2B4
330
1F
100
AcDbEntity
  8
0
  6
Continuous
 62
     7
370
    15
100
AcDbLine
 10
-24.1929579356
 20
11.1748120185
 30
0.0
 11
-24.1929579356
 21
12.1037908136
 31
0.0
  0
LINE
  5
2B5
330
1F
100
AcDbEntity
  8
0
  6
Continuous
 62
     7
370
    15
100
AcDbLine
 10
-24.1929579356
 20
12.1037908136
 30
0.0
 11
-24.2793745677
 21
12.1037908136
 31
0.0
  0
LINE
  5
2B6
330
1F
100
AcDbEntity
  8
0
  6
Continuous
 62
     7
370
    15
100
AcDbLine
 10
-24.2793745677
 20
12.1037908136
 30
0.0
 11
-24.2793745677
 21
11.1748120185
 31
0.0
  0
LINE
  5
2B7
330
1F
100
AcDbEntity
  8
0
  6
Continuous
 62
     7
370
    15
100
AcDbLine
 10
-24.2793745677
 20
11.1748120185
 30
0.0
 11
-24.1929579356
 21
11.1748120185
 31
0.0
  0
LINE
  5
2B8
330
1F
100
AcDbEntity
  8
0
  6
Continuous
 62
     7
370
    15
100
AcDbLine
 10
-23.8085706171
 20
11.1748120185
 30
0.0
 11
-23.8085706171
 21
12.1037908136
 31
0.0
  0
LINE
  5
2B9
330
1F
100
AcDbEntity
  8
0
  6
Continuous
 62
     7
370
    15
100
AcDbLine
 10
-23.8085706171
 20
12.1037908136
 30
0.0
 11
-23.8904997232
 21
12.1037908136
 31
0.0
  0
LINE
  5
2BA
330
1F
100
AcDbEntity
  8
0
  6
Continuous
 62
     7
370
    15
100
AcDbLine
 10
-23.8904997232
 20
12.1037908136
 30
0.0
 11
-23.8904997232
 21
11.1748120185
 31
0.0
  0
LINE
  5
2BB
330
1F
100
AcDbEntity
  8
0
  6
Continuous
 62
     7
370
    15
100
AcDbLine
 10
-23.8904997232
 20
11.1748120185
 30
0.0
 11
-23.8085706171
 21
11.1748120185
 31
0.0
  0
LINE
  5
2BC
330
1F
100
AcDbEntity
  8
0
  6
Continuous
 62
     7
370
    15
100
AcDbLine
 10
-23.9337080393
 20
11.1748120185
 30
0.0
 11
-23.9337080393
 21
12.1037908136
 31
0.0
  0
LINE
  5
2BD
330
1F
100
AcDbEntity
  8
0
  6
Continuous
 62
     7
370
    15
100
AcDbLine
 10
-23.9337080393
 20
12.1037908136
 30
0.0
 11
-24.0201246714
 21
12.1037908136
 31
0.0
  0
LINE
  5
2BE
330
1F
100
AcDbEntity
  8
0
  6
Continuous
 62
     7
370
    15
100
AcDbLine
 10
-24.0201246714
 20
12.1037908136
 30
0.0
 11
-24.0201246714
 21
11.1748120185
 31
0.0
  0
LINE
  5
2BF
330
1F
100
AcDbEntity
  8
0
  6
Continuous
 62
     7
370
    15
100
AcDbLine
 10
-24.0201246714
 20
11.1748120185
 30
0.0
 11
-23.9337080393
 21
11.1748120185
 31
0.0
  0
LINE
  5
2C0
330
1F
100
AcDbEntity
  8
0
  6
Continuous
 62
     7
370
    15
100
AcDbLine
 10
-24.7114577282
 20
11.1748120185
 30
0.0
 11
-24.7114577282
 21
12.1037908136
 31
0.0
  0
LINE
  5
2C1
330
1F
100
AcDbEntity
  8
0
  6
Continuous
 62
     7
370
    15
100
AcDbLine
 10
-24.7114577282
 20
12.1037908136
 30
0.0
 11
-24.7978743603
 21
12.1037908136
 31
0.0
  0
LINE
  5
2C2
330
1F
100
AcDbEntity
  8
0
  6
Continuous
 62
     7
370
    15
100
AcDbLine
 10
-24.7978743603
 20
12.1037908136
 30
0.0
 11
-24.7978743603
 21
11.1748120185
 31
0.0
  0
LINE
  5
2C3
330
1F
100
AcDbEntity
  8
0
  6
Continuous
 62
     7
370
    15
100
AcDbLine
 10
-24.7978743603
 20
11.1748120185
 30
0.0
 11
-24.7114577282
 21
11.1748120185
 31
0.0
  0
LINE
  5
2C4
330
1F
100
AcDbEntity
  8
0
  6
Continuous
 62
     7
370
    15
100
AcDbLine
 10
-26.6558319504
 20
11.1748120185
 30
0.0
 11
-26.6558319504
 21
12.1037908136
 31
0.0
  0
LINE
  5
2C5
330
1F
100
AcDbEntity
  8
0
  6
Continuous
 62
     7
370
    15
100
AcDbLine
 10
-26.6558319504
 20
12.1037908136
 30
0.0
 11
-26.7422485825
 21
12.1037908136
 31
0.0
  0
LINE
  5
2C6
330
1F
100
AcDbEntity
  8
0
  6
Continuous
 62
     7
370
    15
100
AcDbLine
 10
-26.7422485825
 20
12.1037908136
 30
0.0
 11
-26.7422485825
 21
11.1748120185
 31
0.0
  0
LINE
  5
2C7
330
1F
100
AcDbEntity
  8
0
  6
Continuous
 62
     7
370
    15
100
AcDbLine
 10
-26.7422485825
 20
11.1748120185
 30
0.0
 11
-26.6558319504
 21
11.1748120185
 31
0.0
  0
LINE
  5
2C8
330
1F
100
AcDbEntity
  8
0
  6
Continuous
 62
     7
370
    15
100
AcDbLine
 10
-26.3965820541
 20
11.1748120185
 30
0.0
 11
-26.3965820541
 21
12.1037908136
 31
0.0
  0
LINE
  5
2C9
330
1F
100
AcDbEntity
  8
0
  6
Continuous
 62
     7
370
    15
100
AcDbLine
 10
-26.3965820541
 20
12.1037908136
 30
0.0
 11
-26.4829986862
 21
12.1037908136
 31
0.0
  0
LINE
  5
2CA
330
1F
100
AcDbEntity
  8
0
  6
Continuous
 62
     7
370
    15
100
AcDbLine
 10
-26.4829986862
 20
12.1037908136
 30
0.0
 11
-26.4829986862
 21
11.1748120185
 31
0.0
  0
LINE
  5
2CB
330
1F
100
AcDbEntity
  8
0
  6
Continuous
 62
     7
370
    15
100
AcDbLine
 10
-26.4829986862
 20
11.1748120185
 30
0.0
 11
-26.3965820541
 21
11.1748120185
 31
0.0
  0
LINE
  5
2CC
330
1F
100
AcDbEntity
  8
0
  6
Continuous
 62
     7
370
    15
100
AcDbLine
 10
-26.1373321578
 20
11.1748120185
 30
0.0
 11
-26.1373321578
 21
12.1037908136
 31
0.0
  0
LINE
  5
2CD
330
1F
100
AcDbEntity
  8
0
  6
Continuous
 62
     7
370
    15
100
AcDbLine
 10
-26.1373321578
 20
12.1037908136
 30
0.0
 11
-26.2237487899
 21
12.1037908136
 31
0.0
  0
LINE
  5
2CE
330
1F
100
AcDbEntity
  8
0
  6
Continuous
 62
     7
370
    15
100
AcDbLine
 10
-26.2237487899
 20
12.1037908136
 30
0.0
 11
-26.2237487899
 21
11.1748120185
 31
0.0
  0
LINE
  5
2CF
330
1F
100
AcDbEntity
  8
0
  6
Continuous
 62
     7
370
    15
100
AcDbLine
 10
-26.2237487899
 20
11.1748120185
 30
0.0
 11
-26.1373321578
 21
11.1748120185
 31
0.0
  0
LINE
  5
2D0
330
1F
100
AcDbEntity
  8
0
  6
Continuous
 62
     7
370
    15
100
AcDbLine
 10
-25.8780822615
 20
11.1748120185
 30
0.0
 11
-25.8780822615
 21
12.1037908136
 31
0.0
  0
LINE
  5
2D1
330
1F
100
AcDbEntity
  8
0
  6
Continuous
 62
     7
370
    15
100
AcDbLine
 10
-25.8780822615
 20
12.1037908136
 30
0.0
 11
-25.9644988936
 21
12.1037908136
 31
0.0
  0
LINE
  5
2D2
330
1F
100
AcDbEntity
  8
0
  6
Continuous
 62
     7
370
    15
100
AcDbLine
 10
-25.9644988936
 20
12.1037908136
 30
0.0
 11
-25.9644988936
 21
11.1748120185
 31
0.0
  0
LINE
  5
2D3
330
1F
100
AcDbEntity
  8
0
  6
Continuous
 62
     7
370
    15
100
AcDbLine
 10
-25.9644988936
 20
11.1748120185
 30
0.0
 11
-25.8780822615
 21
11.1748120185
 31
0.0
  0
LINE
  5
2D4
330
1F
100
AcDbEntity
  8
0
  6
Continuous
 62
     7
370
    15
100
AcDbLine
 10
-23.5876222308
 20
14.4021129486
 30
0.0
 11
-23.4645799786
 21
13.0921405578
 31
0.0
  0
LINE
  5
2D5
330
1F
100
AcDbEntity
  8
0
  6
Continuous
 62
     7
370
    15
100
AcDbLine
 10
-23.4638225887
 20
12.7737475225
 30
0.0
 11
-23.4638225887
 21
12.6868752701
 31
0.0
  0
LINE
  5
2D6
330
1F
100
AcDbEntity
  8
0
  6
Continuous
 62
     7
370
    15
100
AcDbLine
 10
-23.5144442798
 20
12.2118116037
 30
0.0
 11
-20.2253193976
 21
12.2118116037
 31
0.0
  0
LINE
  5
2D7
330
1F
100
AcDbEntity
  8
0
  6
Continuous
 62
     7
370
    15
100
AcDbLine
 10
-20.2759410887
 20
12.6868752701
 30
0.0
 11
-20.2759410887
 21
12.7737475225
 31
0.0
  0
LINE
  5
2D8
330
1F
100
AcDbEntity
  8
0
  6
Continuous
 62
     7
370
    15
100
AcDbLine
 10
-20.2751836988
 20
13.0921405578
 30
0.0
 11
-20.1521414466
 21
14.4021129486
 31
0.0
  0
LINE
  5
2D9
330
1F
100
AcDbEntity
  8
0
  6
Continuous
 62
     7
370
    15
100
AcDbLine
 10
-20.2253193976
 20
14.8043105667
 30
0.0
 11
-20.2759410887
 21
14.8043105667
 31
0.0
  0
LINE
  5
2DA
330
1F
100
AcDbEntity
  8
0
  6
Continuous
 62
     7
370
    15
100
AcDbLine
 10
-20.2759410887
 20
14.8043105667
 30
0.0
 11
-20.2759410887
 21
14.8907271988
 31
0.0
  0
LINE
  5
2DB
330
1F
100
AcDbEntity
  8
0
  6
Continuous
 62
     7
370
    15
100
AcDbLine
 10
-20.2759410887
 20
14.8907271988
 30
0.0
 11
-20.3623577187
 21
14.8907271988
 31
0.0
  0
LINE
  5
2DC
330
1F
100
AcDbEntity
  8
0
  6
Continuous
 62
     7
370
    15
100
AcDbLine
 10
-20.3623577187
 20
14.8907271988
 30
0.0
 11
-20.3623577187
 21
14.9355367299
 31
0.0
  0
LINE
  5
2DD
330
1F
100
AcDbEntity
  8
0
  6
Continuous
 62
     7
370
    15
100
AcDbLine
 10
-23.3774059587
 20
14.9355367299
 30
0.0
 11
-23.3774059587
 21
14.8907271988
 31
0.0
  0
LINE
  5
2DE
330
1F
100
AcDbEntity
  8
0
  6
Continuous
 62
     7
370
    15
100
AcDbLine
 10
-23.3774059587
 20
14.8907271988
 30
0.0
 11
-23.4638225887
 21
14.8907271988
 31
0.0
  0
LINE
  5
2DF
330
1F
100
AcDbEntity
  8
0
  6
Continuous
 62
     7
370
    15
100
AcDbLine
 10
-23.4638225887
 20
14.8907271988
 30
0.0
 11
-23.4638225887
 21
14.8043105667
 31
0.0
  0
LINE
  5
2E0
330
1F
100
AcDbEntity
  8
0
  6
Continuous
 62
     7
370
    15
100
AcDbLine
 10
-23.4638225887
 20
14.8043105667
 30
0.0
 11
-23.5144442798
 21
14.8043105667
 31
0.0
  0
LINE
  5
2E1
330
1F
100
AcDbEntity
  8
0
  6
Continuous
 62
     7
370
    15
100
AcDbLine
 10
-27.3430371455
 20
12.7737475225
 30
0.0
 11
-27.3430371455
 21
12.6868752701
 31
0.0
  0
LINE
  5
2E2
330
1F
100
AcDbEntity
  8
0
  6
Continuous
 62
     7
370
    15
100
AcDbLine
 10
-27.2192375034
 20
14.4021129486
 30
0.0
 11
-27.3422797556
 21
13.0921405578
 31
0.0
  0
LINE
  5
2E3
330
1F
100
AcDbEntity
  8
0
  6
Continuous
 62
     7
370
    15
100
AcDbLine
 10
-27.3430371455
 20
14.8043105667
 30
0.0
 11
-27.2924154544
 21
14.8043105667
 31
0.0
  0
LINE
  5
2E4
330
1F
100
AcDbEntity
  8
0
  6
Continuous
 62
     7
370
    15
100
AcDbLine
 10
-27.3430371455
 20
14.8907271988
 30
0.0
 11
-27.3430371455
 21
14.8043105667
 31
0.0
  0
LINE
  5
2E5
330
1F
100
AcDbEntity
  8
0
  6
Continuous
 62
     7
370
    15
100
AcDbLine
 10
-27.4294537755
 20
14.8907271988
 30
0.0
 11
-27.3430371455
 21
14.8907271988
 31
0.0
  0
LINE
  5
2E6
330
1F
100
AcDbEntity
  8
0
  6
Continuous
 62
     7
370
    15
100
AcDbLine
 10
-27.4294537755
 20
14.9355367299
 30
0.0
 11
-27.4294537755
 21
14.8907271988
 31
0.0
  0
LINE
  5
2E7
330
1F
100
AcDbEntity
  8
0
  6
Continuous
 62
     7
370
    15
100
AcDbLine
 10
-31.8367020155
 20
14.8907271988
 30
0.0
 11
-31.8367020155
 21
14.9355367299
 31
0.0
  0
LINE
  5
2E8
330
1F
100
AcDbEntity
  8
0
  6
Continuous
 62
     7
370
    15
100
AcDbLine
 10
-31.9231186455
 20
14.8907271988
 30
0.0
 11
-31.8367020155
 21
14.8907271988
 31
0.0
  0
LINE
  5
2E9
330
1F
100
AcDbEntity
  8
0
  6
Continuous
 62
     7
370
    15
100
AcDbLine
 10
-31.9231186455
 20
14.8043105667
 30
0.0
 11
-31.9231186455
 21
14.8907271988
 31
0.0
  0
LINE
  5
2EA
330
1F
100
AcDbEntity
  8
0
  6
Continuous
 62
     7
370
    15
100
AcDbLine
 10
-31.9737403366
 20
14.8043105667
 30
0.0
 11
-31.9231186455
 21
14.8043105667
 31
0.0
  0
LINE
  5
2EB
330
1F
100
AcDbEntity
  8
0
  6
Continuous
 62
     7
370
    15
100
AcDbLine
 10
-31.9238760354
 20
13.0921405578
 30
0.0
 11
-32.0469182876
 21
14.4021129486
 31
0.0
  0
LINE
  5
2EC
330
1F
100
AcDbEntity
  8
0
  6
Continuous
 62
     7
370
    15
100
AcDbLine
 10
-31.9231186455
 20
12.6868752701
 30
0.0
 11
-31.9231186455
 21
12.7737475225
 31
0.0
  0
LINE
  5
2ED
330
1F
100
AcDbEntity
  8
0
  6
Continuous
 62
     7
370
    15
100
AcDbLine
 10
-31.9231186455
 20
12.2118116037
 30
0.0
 11
-31.9737403366
 21
12.2118116037
 31
0.0
  0
LINE
  5
2EE
330
1F
100
AcDbEntity
  8
0
  6
Continuous
 62
     7
370
    15
100
AcDbLine
 10
-31.9231186455
 20
10.9155621222
 30
0.0
 11
-31.9231186455
 21
12.2118116037
 31
0.0
  0
LINE
  5
2EF
330
1F
100
AcDbEntity
  8
0
  6
Continuous
 62
     7
370
    15
100
AcDbLine
 10
-31.9584519097
 20
10.9155621222
 30
0.0
 11
-31.9231186455
 21
10.9155621222
 31
0.0
  0
LINE
  5
2F0
330
1F
100
AcDbEntity
  8
0
  6
Continuous
 62
     7
370
    15
100
AcDbLine
 10
-31.9584519097
 20
10.7905621222
 30
0.0
 11
-31.9584519097
 21
10.9155621222
 31
0.0
  0
LINE
  5
2F1
330
1F
100
AcDbEntity
  8
0
  6
Continuous
 62
     7
370
    15
100
AcDbLine
 10
-32.1084519097
 20
10.7905621222
 30
0.0
 11
-31.9584519097
 21
10.7905621222
 31
0.0
  0
LINE
  5
2F2
330
1F
100
AcDbEntity
  8
0
  6
Continuous
 62
     7
370
    15
100
AcDbLine
 10
-32.1084519097
 20
10.9155621222
 30
0.0
 11
-32.1084519097
 21
10.7905621222
 31
0.0
  0
LINE
  5
2F3
330
1F
100
AcDbEntity
  8
0
  6
Continuous
 62
     7
370
    15
100
AcDbLine
 10
-32.1437851739
 20
10.9155621222
 30
0.0
 11
-32.1084519097
 21
10.9155621222
 31
0.0
  0
LINE
  5
2F4
330
1F
100
AcDbEntity
  8
0
  6
Continuous
 62
     7
370
    15
100
AcDbLine
 10
-32.1437851739
 20
15.5820602556
 30
0.0
 11
-32.1437851739
 21
10.9155621222
 31
0.0
  0
LINE
  5
2F5
330
1F
100
AcDbEntity
  8
0
  6
Continuous
 62
     7
370
    15
100
AcDbLine
 10
-32.1084519097
 20
15.5820602556
 30
0.0
 11
-32.1437851739
 21
15.5820602556
 31
0.0
  0
LINE
  5
2F6
330
1F
100
AcDbEntity
  8
0
  6
Continuous
 62
     7
370
    15
100
AcDbLine
 10
-32.1084519097
 20
15.7070602556
 30
0.0
 11
-32.1084519097
 21
15.5820602556
 31
0.0
  0
LINE
  5
2F7
330
1F
100
AcDbEntity
  8
0
  6
Continuous
 62
     7
370
    15
100
AcDbLine
 10
-31.9584519097
 20
15.7070602556
 30
0.0
 11
-32.1084519097
 21
15.7070602556
 31
0.0
  0
LINE
  5
2F8
330
1F
100
AcDbEntity
  8
0
  6
Continuous
 62
     7
370
    15
100
AcDbLine
 10
-31.9584519097
 20
15.5820602556
 30
0.0
 11
-31.9584519097
 21
15.7070602556
 31
0.0
  0
LINE
  5
2F9
330
1F
100
AcDbEntity
  8
0
  6
Continuous
 62
     7
370
    15
100
AcDbLine
 10
-27.2952038813
 20
15.5820602556
 30
0.0
 11
-31.9584519097
 21
15.5820602556
 31
0.0
  0
LINE
  5
2FA
330
1F
100
AcDbEntity
  8
0
  6
Continuous
 62
     7
370
    15
100
AcDbLine
 10
-27.2952038813
 20
15.7070602556
 30
0.0
 11
-27.2952038813
 21
15.5820602556
 31
0.0
  0
LINE
  5
2FB
330
1F
100
AcDbEntity
  8
0
  6
Continuous
 62
     7
370
    15
100
AcDbLine
 10
-27.0452038813
 20
15.7070602556
 30
0.0
 11
-27.2952038813
 21
15.7070602556
 31
0.0
  0
LINE
  5
2FC
330
1F
100
AcDbEntity
  8
0
  6
Continuous
 62
     7
370
    15
100
AcDbLine
 10
-27.0452038813
 20
15.5820602556
 30
0.0
 11
-27.0452038813
 21
15.7070602556
 31
0.0
  0
LINE
  5
2FD
330
1F
100
AcDbEntity
  8
0
  6
Continuous
 62
     7
370
    15
100
AcDbLine
 10
-23.7616558529
 20
15.5820602556
 30
0.0
 11
-27.0452038813
 21
15.5820602556
 31
0.0
  0
LINE
  5
2FE
330
1F
100
AcDbEntity
  8
0
  6
Continuous
 62
     7
370
    15
100
AcDbLine
 10
-23.7616558529
 20
15.7070602556
 30
0.0
 11
-23.7616558529
 21
15.5820602556
 31
0.0
  0
LINE
  5
2FF
330
1F
100
AcDbEntity
  8
0
  6
Continuous
 62
     7
370
    15
100
AcDbLine
 10
-23.5116558529
 20
15.7070602556
 30
0.0
 11
-23.7616558529
 21
15.7070602556
 31
0.0
  0
LINE
  5
300
330
1F
100
AcDbEntity
  8
0
  6
Continuous
 62
     7
370
    15
100
AcDbLine
 10
-23.5116558529
 20
15.5820602556
 30
0.0
 11
-23.5116558529
 21
15.7070602556
 31
0.0
  0
LINE
  5
301
330
1F
100
AcDbEntity
  8
0
  6
Continuous
 62
     7
370
    15
100
AcDbLine
 10
-20.2281078245
 20
15.5820602556
 30
0.0
 11
-23.5116558529
 21
15.5820602556
 31
0.0
  0
LINE
  5
302
330
1F
100
AcDbEntity
  8
0
  6
Continuous
 62
     7
370
    15
100
AcDbLine
 10
-20.2281078245
 20
15.7070602556
 30
0.0
 11
-20.2281078245
 21
15.5820602556
 31
0.0
  0
LINE
  5
303
330
1F
100
AcDbEntity
  8
0
  6
Continuous
 62
     7
370
    15
100
AcDbLine
 10
-19.9781078245
 20
15.7070602556
 30
0.0
 11
-20.2281078245
 21
15.7070602556
 31
0.0
  0
LINE
  5
304
330
1F
100
AcDbEntity
  8
0
  6
Continuous
 62
     7
370
    15
100
AcDbLine
 10
-19.9781078245
 20
15.5820602556
 30
0.0
 11
-19.9781078245
 21
15.7070602556
 31
0.0
  0
LINE
  5
305
330
1F
100
AcDbEntity
  8
0
  6
Continuous
 62
     7
370
    15
100
AcDbLine
 10
-16.7070597961
 20
15.5820602556
 30
0.0
 11
-19.9781078245
 21
15.5820602556
 31
0.0
  0
LINE
  5
306
330
1F
100
AcDbEntity
  8
0
  6
Continuous
 62
     7
370
    15
100
AcDbLine
 10
-16.7070597961
 20
15.7070602556
 30
0.0
 11
-16.7070597961
 21
15.5820602556
 31
0.0
  0
LINE
  5
307
330
1F
100
AcDbEntity
  8
0
  6
Continuous
 62
     7
370
    15
100
AcDbLine
 10
-16.5570597961
 20
15.7070602556
 30
0.0
 11
-16.7070597961
 21
15.7070602556
 31
0.0
  0
LINE
  5
308
330
1F
100
AcDbEntity
  8
0
  6
Continuous
 62
     7
370
    15
100
AcDbLine
 10
-16.5570597961
 20
15.5820602556
 30
0.0
 11
-16.5570597961
 21
15.7070602556
 31
0.0
  0
LINE
  5
309
330
1F
100
AcDbEntity
  8
0
  6
Continuous
 62
     7
370
    15
100
AcDbLine
 10
-16.5217265319
 20
15.5820602556
 30
0.0
 11
-16.5570597961
 21
15.5820602556
 31
0.0
  0
LINE
  5
30A
330
1F
100
AcDbEntity
  8
0
  6
Continuous
 62
     7
370
    15
100
AcDbLine
 10
-16.5217265319
 20
10.9155621222
 30
0.0
 11
-16.5217265319
 21
15.5820602556
 31
0.0
  0
LINE
  5
30B
330
1F
100
AcDbEntity
  8
0
  6
Continuous
 62
     7
370
    15
100
AcDbLine
 10
-16.5570597961
 20
10.9155621222
 30
0.0
 11
-16.5217265319
 21
10.9155621222
 31
0.0
  0
LINE
  5
30C
330
1F
100
AcDbEntity
  8
0
  6
Continuous
 62
     7
370
    15
100
AcDbLine
 10
-16.5570597961
 20
10.7905621222
 30
0.0
 11
-16.5570597961
 21
10.9155621222
 31
0.0
  0
LINE
  5
30D
330
1F
100
AcDbEntity
  8
0
  6
Continuous
 62
     7
370
    15
100
AcDbLine
 10
-16.7070597961
 20
10.7905621222
 30
0.0
 11
-16.5570597961
 21
10.7905621222
 31
0.0
  0
LINE
  5
30E
330
1F
100
AcDbEntity
  8
0
  6
Continuous
 62
     7
370
    15
100
AcDbLine
 10
-16.7070597961
 20
10.9155621222
 30
0.0
 11
-16.7070597961
 21
10.7905621222
 31
0.0
  0
LINE
  5
30F
330
1F
100
AcDbEntity
  8
0
  6
Continuous
 62
     7
370
    15
100
AcDbLine
 10
-16.7423930603
 20
10.9155621222
 30
0.0
 11
-16.7070597961
 21
10.9155621222
 31
0.0
  0
LINE
  5
310
330
1F
100
AcDbEntity
  8
0
  6
Continuous
 62
     7
370
    15
100
AcDbLine
 10
-16.7422761603
 20
11.0667912284
 30
0.0
 11
-16.7423930603
 21
10.9155621222
 31
0.0
  0
LINE
  5
311
330
1F
100
AcDbEntity
  8
0
  6
Continuous
 62
     7
370
    15
100
AcDbLine
 10
-19.9302745603
 20
11.0667912284
 30
0.0
 11
-16.7422761603
 21
11.0667912284
 31
0.0
  0
LINE
  5
312
330
1F
100
AcDbEntity
  8
0
  6
Continuous
 62
     7
370
    15
100
AcDbLine
 10
-19.9302745603
 20
10.9155621222
 30
0.0
 11
-19.9302745603
 21
11.0667912284
 31
0.0
  0
LINE
  5
313
330
1F
100
AcDbEntity
  8
0
  6
Continuous
 62
     7
370
    15
100
AcDbLine
 10
-19.9781078245
 20
10.9155621222
 30
0.0
 11
-19.9302745603
 21
10.9155621222
 31
0.0
  0
LINE
  5
314
330
1F
100
AcDbEntity
  8
0
  6
Continuous
 62
     7
370
    15
100
AcDbLine
 10
-19.9781078245
 20
10.7905621222
 30
0.0
 11
-19.9781078245
 21
10.9155621222
 31
0.0
  0
LINE
  5
315
330
1F
100
AcDbEntity
  8
0
  6
Continuous
 62
     7
370
    15
100
AcDbLine
 10
-20.2281078245
 20
10.7905621222
 30
0.0
 11
-19.9781078245
 21
10.7905621222
 31
0.0
  0
LINE
  5
316
330
1F
100
AcDbEntity
  8
0
  6
Continuous
 62
     7
370
    15
100
AcDbLine
 10
-20.2281078245
 20
10.9155621222
 30
0.0
 11
-20.2281078245
 21
10.7905621222
 31
0.0
  0
LINE
  5
317
330
1F
100
AcDbEntity
  8
0
  6
Continuous
 62
     7
370
    15
100
AcDbLine
 10
-20.2750225887
 20
10.9155621222
 30
0.0
 11
-20.2281078245
 21
10.9155621222
 31
0.0
  0
LINE
  5
318
330
1F
100
AcDbEntity
  8
0
  6
Continuous
 62
     7
370
    15
100
AcDbLine
 10
-20.2750225887
 20
11.0667912284
 30
0.0
 11
-20.2750225887
 21
10.9155621222
 31
0.0
  0
LINE
  5
319
330
1F
100
AcDbEntity
  8
0
  6
Continuous
 62
     7
370
    15
100
AcDbLine
 10
-23.4638225887
 20
11.0667912284
 30
0.0
 11
-20.2750225887
 21
11.0667912284
 31
0.0
  0
LINE
  5
31A
330
1F
100
AcDbEntity
  8
0
  6
Continuous
 62
     7
370
    15
100
AcDbLine
 10
-23.4638225887
 20
10.9155621222
 30
0.0
 11
-23.4638225887
 21
11.0667912284
 31
0.0
  0
LINE
  5
31B
330
1F
100
AcDbEntity
  8
0
  6
Continuous
 62
     7
370
    15
100
AcDbLine
 10
-23.5116558529
 20
10.9155621222
 30
0.0
 11
-23.4638225887
 21
10.9155621222
 31
0.0
  0
LINE
  5
31C
330
1F
100
AcDbEntity
  8
0
  6
Continuous
 62
     7
370
    15
100
AcDbLine
 10
-23.5116558529
 20
10.7905621222
 30
0.0
 11
-23.5116558529
 21
10.9155621222
 31
0.0
  0
LINE
  5
31D
330
1F
100
AcDbEntity
  8
0
  6
Continuous
 62
     7
370
    15
100
AcDbLine
 10
-23.7616558529
 20
10.7905621222
 30
0.0
 11
-23.5116558529
 21
10.7905621222
 31
0.0
  0
LINE
  5
31E
330
1F
100
AcDbEntity
  8
0
  6
Continuous
 62
     7
370
    15
100
AcDbLine
 10
-23.7616558529
 20
10.9155621222
 30
0.0
 11
-23.7616558529
 21
10.7905621222
 31
0.0
  0
LINE
  5
31F
330
1F
100
AcDbEntity
  8
0
  6
Continuous
 62
     7
370
    15
100
AcDbLine
 10
-23.8085706171
 20
10.9155621222
 30
0.0
 11
-23.7616558529
 21
10.9155621222
 31
0.0
  0
LINE
  5
320
330
1F
100
AcDbEntity
  8
0
  6
Continuous
 62
     7
370
    15
100
AcDbLine
 10
-23.8085706171
 20
11.0667912284
 30
0.0
 11
-23.8085706171
 21
10.9155621222
 31
0.0
  0
LINE
  5
321
330
1F
100
AcDbEntity
  8
0
  6
Continuous
 62
     7
370
    15
100
AcDbLine
 10
-26.9973706171
 20
11.0667912284
 30
0.0
 11
-23.8085706171
 21
11.0667912284
 31
0.0
  0
LINE
  5
322
330
1F
100
AcDbEntity
  8
0
  6
Continuous
 62
     7
370
    15
100
AcDbLine
 10
-26.9973706171
 20
10.9155621222
 30
0.0
 11
-26.9973706171
 21
11.0667912284
 31
0.0
  0
LINE
  5
323
330
1F
100
AcDbEntity
  8
0
  6
Continuous
 62
     7
370
    15
100
AcDbLine
 10
-27.0452038813
 20
10.9155621222
 30
0.0
 11
-26.9973706171
 21
10.9155621222
 31
0.0
  0
LINE
  5
324
330
1F
100
AcDbEntity
  8
0
  6
Continuous
 62
     7
370
    15
100
AcDbLine
 10
-27.0452038813
 20
10.7905621222
 30
0.0
 11
-27.0452038813
 21
10.9155621222
 31
0.0
  0
LINE
  5
325
330
1F
100
AcDbEntity
  8
0
  6
Continuous
 62
     7
370
    15
100
AcDbLine
 10
-27.2952038813
 20
10.7905621222
 30
0.0
 11
-27.0452038813
 21
10.7905621222
 31
0.0
  0
LINE
  5
326
330
1F
100
AcDbEntity
  8
0
  6
Continuous
 62
     7
370
    15
100
AcDbLine
 10
-27.2952038813
 20
10.9155621222
 30
0.0
 11
-27.2952038813
 21
10.7905621222
 31
0.0
  0
LINE
  5
327
330
1F
100
AcDbEntity
  8
0
  6
Continuous
 62
     7
370
    15
100
AcDbLine
 10
-27.3430371455
 20
10.9155621222
 30
0.0
 11
-27.2952038813
 21
10.9155621222
 31
0.0
  0
LINE
  5
328
330
1F
100
AcDbEntity
  8
0
  6
Continuous
 62
     7
370
    15
100
AcDbLine
 10
-27.3430371455
 20
12.2118116037
 30
0.0
 11
-27.3430371455
 21
10.9155621222
 31
0.0
  0
LINE
  5
329
330
1F
100
AcDbEntity
  8
0
  6
Continuous
 62
     7
370
    15
100
AcDbLine
 10
-27.2924154544
 20
12.2118116037
 30
0.0
 11
-27.3430371455
 21
12.2118116037
 31
0.0
  0
LINE
  5
32A
330
1F
100
AcDbEntity
  8
0
  6
Continuous
 62
     7
370
    15
100
AcDbLine
 10
-27.1211702592
 20
14.4021129486
 30
0.0
 11
-26.998128007
 21
13.0921405578
 31
0.0
  0
LINE
  5
32B
330
1F
100
AcDbEntity
  8
0
  6
Continuous
 62
     7
370
    15
100
AcDbLine
 10
-26.9973706171
 20
12.7737475225
 30
0.0
 11
-26.9973706171
 21
12.6868752701
 31
0.0
  0
LINE
  5
32C
330
1F
100
AcDbEntity
  8
0
  6
Continuous
 62
     7
370
    15
100
AcDbLine
 10
-27.0479923082
 20
12.2118116037
 30
0.0
 11
-23.758867426
 21
12.2118116037
 31
0.0
  0
LINE
  5
32D
330
1F
100
AcDbEntity
  8
0
  6
Continuous
 62
     7
370
    15
100
AcDbLine
 10
-23.8094891171
 20
12.6868752701
 30
0.0
 11
-23.8094891171
 21
12.7737475225
 31
0.0
  0
LINE
  5
32E
330
1F
100
AcDbEntity
  8
0
  6
Continuous
 62
     7
370
    15
100
AcDbLine
 10
-23.8087317272
 20
13.0921405578
 30
0.0
 11
-23.685689475
 21
14.4021129486
 31
0.0
  0
LINE
  5
32F
330
1F
100
AcDbEntity
  8
0
  6
Continuous
 62
     7
370
    15
100
AcDbLine
 10
-23.758867426
 20
14.8043105667
 30
0.0
 11
-23.8094891171
 21
14.8043105667
 31
0.0
  0
LINE
  5
330
330
1F
100
AcDbEntity
  8
0
  6
Continuous
 62
     7
370
    15
100
AcDbLine
 10
-23.8094891171
 20
14.8043105667
 30
0.0
 11
-23.8094891171
 21
14.8907271988
 31
0.0
  0
LINE
  5
331
330
1F
100
AcDbEntity
  8
0
  6
Continuous
 62
     7
370
    15
100
AcDbLine
 10
-23.8094891171
 20
14.8907271988
 30
0.0
 11
-23.8959057471
 21
14.8907271988
 31
0.0
  0
LINE
  5
332
330
1F
100
AcDbEntity
  8
0
  6
Continuous
 62
     7
370
    15
100
AcDbLine
 10
-23.8959057471
 20
14.8907271988
 30
0.0
 11
-23.8959057471
 21
14.9355367299
 31
0.0
  0
LINE
  5
333
330
1F
100
AcDbEntity
  8
0
  6
Continuous
 62
     7
370
    15
100
AcDbLine
 10
-26.9109539871
 20
14.9355367299
 30
0.0
 11
-26.9109539871
 21
14.8907271988
 31
0.0
  0
LINE
  5
334
330
1F
100
AcDbEntity
  8
0
  6
Continuous
 62
     7
370
    15
100
AcDbLine
 10
-26.9109539871
 20
14.8907271988
 30
0.0
 11
-26.9973706171
 21
14.8907271988
 31
0.0
  0
LINE
  5
335
330
1F
100
AcDbEntity
  8
0
  6
Continuous
 62
     7
370
    15
100
AcDbLine
 10
-26.9973706171
 20
14.8907271988
 30
0.0
 11
-26.9973706171
 21
14.8043105667
 31
0.0
  0
LINE
  5
336
330
1F
100
AcDbEntity
  8
0
  6
Continuous
 62
     7
370
    15
100
AcDbLine
 10
-26.9973706171
 20
14.8043105667
 30
0.0
 11
-27.0479923082
 21
14.8043105667
 31
0.0
  0
LINE
  5
337
330
1F
100
AcDbEntity
  8
0
  6
Continuous
 62
     7
370
    15
100
AcDbLine
 10
-20.0540742024
 20
14.4021129486
 30
0.0
 11
-19.9310319502
 21
13.0921405578
 31
0.0
  0
LINE
  5
338
330
1F
100
AcDbEntity
  8
0
  6
Continuous
 62
     7
370
    15
100
AcDbLine
 10
-19.9302745603
 20
12.7737475225
 30
0.0
 11
-19.9302745603
 21
12.6868752701
 31
0.0
  0
LINE
  5
339
330
1F
100
AcDbEntity
  8
0
  6
Continuous
 62
     7
370
    15
100
AcDbLine
 10
-19.9808962514
 20
12.2118116037
 30
0.0
 11
-16.6917713692
 21
12.2118116037
 31
0.0
  0
LINE
  5
33A
330
1F
100
AcDbEntity
  8
0
  6
Continuous
 62
     7
370
    15
100
AcDbLine
 10
-16.7423930603
 20
12.6868752701
 30
0.0
 11
-16.7423930603
 21
12.7737475225
 31
0.0
  0
LINE
  5
33B
330
1F
100
AcDbEntity
  8
0
  6
Continuous
 62
     7
370
    15
100
AcDbLine
 10
-16.7416356704
 20
13.0921405578
 30
0.0
 11
-16.6185934182
 21
14.4021129486
 31
0.0
  0
LINE
  5
33C
330
1F
100
AcDbEntity
  8
0
  6
Continuous
 62
     7
370
    15
100
AcDbLine
 10
-16.6917713692
 20
14.8043105667
 30
0.0
 11
-16.7423930603
 21
14.8043105667
 31
0.0
  0
LINE
  5
33D
330
1F
100
AcDbEntity
  8
0
  6
Continuous
 62
     7
370
    15
100
AcDbLine
 10
-16.7423930603
 20
14.8043105667
 30
0.0
 11
-16.7423930603
 21
14.8907271988
 31
0.0
  0
LINE
  5
33E
330
1F
100
AcDbEntity
  8
0
  6
Continuous
 62
     7
370
    15
100
AcDbLine
 10
-16.7423930603
 20
14.8907271988
 30
0.0
 11
-16.8288096903
 21
14.8907271988
 31
0.0
  0
LINE
  5
33F
330
1F
100
AcDbEntity
  8
0
  6
Continuous
 62
     7
370
    15
100
AcDbLine
 10
-16.8288096903
 20
14.8907271988
 30
0.0
 11
-16.8288096903
 21
14.9355367299
 31
0.0
  0
LINE
  5
340
330
1F
100
AcDbEntity
  8
0
  6
Continuous
 62
     7
370
    15
100
AcDbLine
 10
-19.8438579303
 20
14.9355367299
 30
0.0
 11
-19.8438579303
 21
14.8907271988
 31
0.0
  0
LINE
  5
341
330
1F
100
AcDbEntity
  8
0
  6
Continuous
 62
     7
370
    15
100
AcDbLine
 10
-19.8438579303
 20
14.8907271988
 30
0.0
 11
-19.9302745603
 21
14.8907271988
 31
0.0
  0
LINE
  5
342
330
1F
100
AcDbEntity
  8
0
  6
Continuous
 62
     7
370
    15
100
AcDbLine
 10
-19.9302745603
 20
14.8907271988
 30
0.0
 11
-19.9302745603
 21
14.8043105667
 31
0.0
  0
LINE
  5
343
330
1F
100
AcDbEntity
  8
0
  6
Continuous
 62
     7
370
    15
100
AcDbLine
 10
-19.9302745603
 20
14.8043105667
 30
0.0
 11
-19.9808962514
 21
14.8043105667
 31
0.0
  0
LINE
  5
344
330
1F
100
AcDbEntity
  8
0
  6
Continuous
 62
     7
370
    15
100
AcDbLine
 10
-26.0077072097
 20
11.1748120185
 30
0.0
 11
-26.0077072097
 21
12.1037908136
 31
0.0
  0
LINE
  5
345
330
1F
100
AcDbEntity
  8
0
  6
Continuous
 62
     7
370
    15
100
AcDbLine
 10
-26.0077072097
 20
12.1037908136
 30
0.0
 11
-26.0941238418
 21
12.1037908136
 31
0.0
  0
LINE
  5
346
330
1F
100
AcDbEntity
  8
0
  6
Continuous
 62
     7
370
    15
100
AcDbLine
 10
-26.0941238418
 20
12.1037908136
 30
0.0
 11
-26.0941238418
 21
11.1748120185
 31
0.0
  0
LINE
  5
347
330
1F
100
AcDbEntity
  8
0
  6
Continuous
 62
     7
370
    15
100
AcDbLine
 10
-26.0941238418
 20
11.1748120185
 30
0.0
 11
-26.0077072097
 21
11.1748120185
 31
0.0
  0
LINE
  5
348
330
1F
100
AcDbEntity
  8
0
  6
Continuous
 62
     7
370
    15
100
AcDbLine
 10
-26.266957106
 20
11.1748120185
 30
0.0
 11
-26.266957106
 21
12.1037908136
 31
0.0
  0
LINE
  5
349
330
1F
100
AcDbEntity
  8
0
  6
Continuous
 62
     7
370
    15
100
AcDbLine
 10
-26.266957106
 20
12.1037908136
 30
0.0
 11
-26.3533737381
 21
12.1037908136
 31
0.0
  0
LINE
  5
34A
330
1F
100
AcDbEntity
  8
0
  6
Continuous
 62
     7
370
    15
100
AcDbLine
 10
-26.3533737381
 20
12.1037908136
 30
0.0
 11
-26.3533737381
 21
11.1748120185
 31
0.0
  0
LINE
  5
34B
330
1F
100
AcDbEntity
  8
0
  6
Continuous
 62
     7
370
    15
100
AcDbLine
 10
-26.3533737381
 20
11.1748120185
 30
0.0
 11
-26.266957106
 21
11.1748120185
 31
0.0
  0
LINE
  5
34C
330
1F
100
AcDbEntity
  8
0
  6
Continuous
 62
     7
370
    15
100
AcDbLine
 10
-26.5262070023
 20
11.1748120185
 30
0.0
 11
-26.5262070023
 21
12.1037908136
 31
0.0
  0
LINE
  5
34D
330
1F
100
AcDbEntity
  8
0
  6
Continuous
 62
     7
370
    15
100
AcDbLine
 10
-26.5262070023
 20
12.1037908136
 30
0.0
 11
-26.6126236344
 21
12.1037908136
 31
0.0
  0
LINE
  5
34E
330
1F
100
AcDbEntity
  8
0
  6
Continuous
 62
     7
370
    15
100
AcDbLine
 10
-26.6126236344
 20
12.1037908136
 30
0.0
 11
-26.6126236344
 21
11.1748120185
 31
0.0
  0
LINE
  5
34F
330
1F
100
AcDbEntity
  8
0
  6
Continuous
 62
     7
370
    15
100
AcDbLine
 10
-26.6126236344
 20
11.1748120185
 30
0.0
 11
-26.5262070023
 21
11.1748120185
 31
0.0
  0
LINE
  5
350
330
1F
100
AcDbEntity
  8
0
  6
Continuous
 62
     7
370
    15
100
AcDbLine
 10
-26.7854568986
 20
11.1748120185
 30
0.0
 11
-26.7854568986
 21
12.1037908136
 31
0.0
  0
LINE
  5
351
330
1F
100
AcDbEntity
  8
0
  6
Continuous
 62
     7
370
    15
100
AcDbLine
 10
-26.7854568986
 20
12.1037908136
 30
0.0
 11
-26.8718735307
 21
12.1037908136
 31
0.0
  0
LINE
  5
352
330
1F
100
AcDbEntity
  8
0
  6
Continuous
 62
     7
370
    15
100
AcDbLine
 10
-26.8718735307
 20
12.1037908136
 30
0.0
 11
-26.8718735307
 21
11.1748120185
 31
0.0
  0
LINE
  5
353
330
1F
100
AcDbEntity
  8
0
  6
Continuous
 62
     7
370
    15
100
AcDbLine
 10
-26.8718735307
 20
11.1748120185
 30
0.0
 11
-26.7854568986
 21
11.1748120185
 31
0.0
  0
LINE
  5
354
330
1F
100
AcDbEntity
  8
0
  6
Continuous
 62
     7
370
    15
100
AcDbLine
 10
-24.4522078319
 20
11.1748120185
 30
0.0
 11
-24.4522078319
 21
12.1037908136
 31
0.0
  0
LINE
  5
355
330
1F
100
AcDbEntity
  8
0
  6
Continuous
 62
     7
370
    15
100
AcDbLine
 10
-24.4522078319
 20
12.1037908136
 30
0.0
 11
-24.538624464
 21
12.1037908136
 31
0.0
  0
LINE
  5
356
330
1F
100
AcDbEntity
  8
0
  6
Continuous
 62
     7
370
    15
100
AcDbLine
 10
-24.538624464
 20
12.1037908136
 30
0.0
 11
-24.538624464
 21
11.1748120185
 31
0.0
  0
LINE
  5
357
330
1F
100
AcDbEntity
  8
0
  6
Continuous
 62
     7
370
    15
100
AcDbLine
 10
-24.538624464
 20
11.1748120185
 30
0.0
 11
-24.4522078319
 21
11.1748120185
 31
0.0
  0
LINE
  5
358
330
1F
100
AcDbEntity
  8
0
  6
Continuous
 62
     7
370
    15
100
AcDbLine
 10
-24.0633329874
 20
11.1748120185
 30
0.0
 11
-24.0633329874
 21
12.1037908136
 31
0.0
  0
LINE
  5
359
330
1F
100
AcDbEntity
  8
0
  6
Continuous
 62
     7
370
    15
100
AcDbLine
 10
-24.0633329874
 20
12.1037908136
 30
0.0
 11
-24.1497496195
 21
12.1037908136
 31
0.0
  0
LINE
  5
35A
330
1F
100
AcDbEntity
  8
0
  6
Continuous
 62
     7
370
    15
100
AcDbLine
 10
-24.1497496195
 20
12.1037908136
 30
0.0
 11
-24.1497496195
 21
11.1748120185
 31
0.0
  0
LINE
  5
35B
330
1F
100
AcDbEntity
  8
0
  6
Continuous
 62
     7
370
    15
100
AcDbLine
 10
-24.1497496195
 20
11.1748120185
 30
0.0
 11
-24.0633329874
 21
11.1748120185
 31
0.0
  0
LINE
  5
35C
330
1F
100
AcDbEntity
  8
0
  6
Continuous
 62
     7
370
    15
100
AcDbLine
 10
-26.9973706171
 20
11.1748120185
 30
0.0
 11
-26.9150568986
 21
11.1748120185
 31
0.0
  0
LINE
  5
35D
330
1F
100
AcDbEntity
  8
0
  6
Continuous
 62
     7
370
    15
100
AcDbLine
 10
-26.9150568986
 20
11.1748120185
 30
0.0
 11
-26.9150568986
 21
12.1037908136
 31
0.0
  0
LINE
  5
35E
330
1F
100
AcDbEntity
  8
0
  6
Continuous
 62
     7
370
    15
100
AcDbLine
 10
-26.9150568986
 20
12.1037908136
 30
0.0
 11
-26.9973706171
 21
12.1037908136
 31
0.0
  0
LINE
  5
35F
330
1F
100
AcDbEntity
  8
0
  6
Continuous
 62
     7
370
    15
100
AcDbLine
 10
-26.9973706171
 20
12.1037908136
 30
0.0
 11
-26.9973706171
 21
11.1748120185
 31
0.0
  0
LINE
  5
360
330
1F
100
AcDbEntity
  8
0
  6
Continuous
 62
     7
370
    15
100
AcDbLine
 10
-24.3225828837
 20
11.1748120185
 30
0.0
 11
-24.3225828837
 21
12.1037908136
 31
0.0
  0
LINE
  5
361
330
1F
100
AcDbEntity
  8
0
  6
Continuous
 62
     7
370
    15
100
AcDbLine
 10
-24.3225828837
 20
12.1037908136
 30
0.0
 11
-24.4089995158
 21
12.1037908136
 31
0.0
  0
LINE
  5
362
330
1F
100
AcDbEntity
  8
0
  6
Continuous
 62
     7
370
    15
100
AcDbLine
 10
-24.4089995158
 20
12.1037908136
 30
0.0
 11
-24.4089995158
 21
11.1748120185
 31
0.0
  0
LINE
  5
363
330
1F
100
AcDbEntity
  8
0
  6
Continuous
 62
     7
370
    15
100
AcDbLine
 10
-24.4089995158
 20
11.1748120185
 30
0.0
 11
-24.3225828837
 21
11.1748120185
 31
0.0
  0
LINE
  5
364
330
1F
100
AcDbEntity
  8
0
  6
Continuous
 62
     7
370
    15
100
AcDbLine
 10
-24.8410826763
 20
11.1748120185
 30
0.0
 11
-24.8410826763
 21
12.1037908136
 31
0.0
  0
LINE
  5
365
330
1F
100
AcDbEntity
  8
0
  6
Continuous
 62
     7
370
    15
100
AcDbLine
 10
-24.8410826763
 20
12.1037908136
 30
0.0
 11
-24.9274993084
 21
12.1037908136
 31
0.0
  0
LINE
  5
366
330
1F
100
AcDbEntity
  8
0
  6
Continuous
 62
     7
370
    15
100
AcDbLine
 10
-24.9274993084
 20
12.1037908136
 30
0.0
 11
-24.9274993084
 21
11.1748120185
 31
0.0
  0
LINE
  5
367
330
1F
100
AcDbEntity
  8
0
  6
Continuous
 62
     7
370
    15
100
AcDbLine
 10
-24.9274993084
 20
11.1748120185
 30
0.0
 11
-24.8410826763
 21
11.1748120185
 31
0.0
  0
LINE
  5
368
330
1F
100
AcDbEntity
  8
0
  6
Continuous
 62
     7
370
    15
100
AcDbLine
 10
-25.1003325726
 20
11.1748120185
 30
0.0
 11
-25.1003325726
 21
12.1037908136
 31
0.0
  0
LINE
  5
369
330
1F
100
AcDbEntity
  8
0
  6
Continuous
 62
     7
370
    15
100
AcDbLine
 10
-25.1003325726
 20
12.1037908136
 30
0.0
 11
-25.1867492047
 21
12.1037908136
 31
0.0
  0
LINE
  5
36A
330
1F
100
AcDbEntity
  8
0
  6
Continuous
 62
     7
370
    15
100
AcDbLine
 10
-25.1867492047
 20
12.1037908136
 30
0.0
 11
-25.1867492047
 21
11.1748120185
 31
0.0
  0
LINE
  5
36B
330
1F
100
AcDbEntity
  8
0
  6
Continuous
 62
     7
370
    15
100
AcDbLine
 10
-25.1867492047
 20
11.1748120185
 30
0.0
 11
-25.1003325726
 21
11.1748120185
 31
0.0
  0
LINE
  5
36C
330
1F
100
AcDbEntity
  8
0
  6
Continuous
 62
     7
370
    15
100
AcDbLine
 10
-25.3595824689
 20
11.1748120185
 30
0.0
 11
-25.3595824689
 21
12.1037908136
 31
0.0
  0
LINE
  5
36D
330
1F
100
AcDbEntity
  8
0
  6
Continuous
 62
     7
370
    15
100
AcDbLine
 10
-25.3595824689
 20
12.1037908136
 30
0.0
 11
-25.445999101
 21
12.1037908136
 31
0.0
  0
LINE
  5
36E
330
1F
100
AcDbEntity
  8
0
  6
Continuous
 62
     7
370
    15
100
AcDbLine
 10
-25.445999101
 20
12.1037908136
 30
0.0
 11
-25.445999101
 21
11.1748120185
 31
0.0
  0
LINE
  5
36F
330
1F
100
AcDbEntity
  8
0
  6
Continuous
 62
     7
370
    15
100
AcDbLine
 10
-25.445999101
 20
11.1748120185
 30
0.0
 11
-25.3595824689
 21
11.1748120185
 31
0.0
  0
LINE
  5
370
330
1F
100
AcDbEntity
  8
0
  6
Continuous
 62
     7
370
    15
100
AcDbLine
 10
-25.6188323652
 20
11.1748120185
 30
0.0
 11
-25.6188323652
 21
12.1037908136
 31
0.0
  0
LINE
  5
371
330
1F
100
AcDbEntity
  8
0
  6
Continuous
 62
     7
370
    15
100
AcDbLine
 10
-25.6188323652
 20
12.1037908136
 30
0.0
 11
-25.7052489973
 21
12.1037908136
 31
0.0
  0
LINE
  5
372
330
1F
100
AcDbEntity
  8
0
  6
Continuous
 62
     7
370
    15
100
AcDbLine
 10
-25.7052489973
 20
12.1037908136
 30
0.0
 11
-25.7052489973
 21
11.1748120185
 31
0.0
  0
LINE
  5
373
330
1F
100
AcDbEntity
  8
0
  6
Continuous
 62
     7
370
    15
100
AcDbLine
 10
-25.7052489973
 20
11.1748120185
 30
0.0
 11
-25.6188323652
 21
11.1748120185
 31
0.0
  0
LINE
  5
374
330
1F
100
AcDbEntity
  8
0
  6
Continuous
 62
     7
370
    15
100
AcDbLine
 10
-22.3445342331
 20
11.1748120185
 30
0.0
 11
-22.3445342331
 21
12.1037908136
 31
0.0
  0
LINE
  5
375
330
1F
100
AcDbEntity
  8
0
  6
Continuous
 62
     7
370
    15
100
AcDbLine
 10
-22.3445342331
 20
12.1037908136
 30
0.0
 11
-22.4309508652
 21
12.1037908136
 31
0.0
  0
LINE
  5
376
330
1F
100
AcDbEntity
  8
0
  6
Continuous
 62
     7
370
    15
100
AcDbLine
 10
-22.4309508652
 20
12.1037908136
 30
0.0
 11
-22.4309508652
 21
11.1748120185
 31
0.0
  0
LINE
  5
377
330
1F
100
AcDbEntity
  8
0
  6
Continuous
 62
     7
370
    15
100
AcDbLine
 10
-22.4309508652
 20
11.1748120185
 30
0.0
 11
-22.3445342331
 21
11.1748120185
 31
0.0
  0
LINE
  5
378
330
1F
100
AcDbEntity
  8
0
  6
Continuous
 62
     7
370
    15
100
AcDbLine
 10
-22.6037841294
 20
11.1748120185
 30
0.0
 11
-22.6037841294
 21
12.1037908136
 31
0.0
  0
LINE
  5
379
330
1F
100
AcDbEntity
  8
0
  6
Continuous
 62
     7
370
    15
100
AcDbLine
 10
-22.6037841294
 20
12.1037908136
 30
0.0
 11
-22.6902007615
 21
12.1037908136
 31
0.0
  0
LINE
  5
37A
330
1F
100
AcDbEntity
  8
0
  6
Continuous
 62
     7
370
    15
100
AcDbLine
 10
-22.6902007615
 20
12.1037908136
 30
0.0
 11
-22.6902007615
 21
11.1748120185
 31
0.0
  0
LINE
  5
37B
330
1F
100
AcDbEntity
  8
0
  6
Continuous
 62
     7
370
    15
100
AcDbLine
 10
-22.6902007615
 20
11.1748120185
 30
0.0
 11
-22.6037841294
 21
11.1748120185
 31
0.0
  0
LINE
  5
37C
330
1F
100
AcDbEntity
  8
0
  6
Continuous
 62
     7
370
    15
100
AcDbLine
 10
-22.8630340257
 20
11.1748120185
 30
0.0
 11
-22.8630340257
 21
12.1037908136
 31
0.0
  0
LINE
  5
37D
330
1F
100
AcDbEntity
  8
0
  6
Continuous
 62
     7
370
    15
100
AcDbLine
 10
-22.8630340257
 20
12.1037908136
 30
0.0
 11
-22.9494506578
 21
12.1037908136
 31
0.0
  0
LINE
  5
37E
330
1F
100
AcDbEntity
  8
0
  6
Continuous
 62
     7
370
    15
100
AcDbLine
 10
-22.9494506578
 20
12.1037908136
 30
0.0
 11
-22.9494506578
 21
11.1748120185
 31
0.0
  0
LINE
  5
37F
330
1F
100
AcDbEntity
  8
0
  6
Continuous
 62
     7
370
    15
100
AcDbLine
 10
-22.9494506578
 20
11.1748120185
 30
0.0
 11
-22.8630340257
 21
11.1748120185
 31
0.0
  0
LINE
  5
380
330
1F
100
AcDbEntity
  8
0
  6
Continuous
 62
     7
370
    15
100
AcDbLine
 10
-23.122283922
 20
11.1748120185
 30
0.0
 11
-23.122283922
 21
12.1037908136
 31
0.0
  0
LINE
  5
381
330
1F
100
AcDbEntity
  8
0
  6
Continuous
 62
     7
370
    15
100
AcDbLine
 10
-23.122283922
 20
12.1037908136
 30
0.0
 11
-23.2087005541
 21
12.1037908136
 31
0.0
  0
LINE
  5
382
330
1F
100
AcDbEntity
  8
0
  6
Continuous
 62
     7
370
    15
100
AcDbLine
 10
-23.2087005541
 20
12.1037908136
 30
0.0
 11
-23.2087005541
 21
11.1748120185
 31
0.0
  0
LINE
  5
383
330
1F
100
AcDbEntity
  8
0
  6
Continuous
 62
     7
370
    15
100
AcDbLine
 10
-23.2087005541
 20
11.1748120185
 30
0.0
 11
-23.122283922
 21
11.1748120185
 31
0.0
  0
LINE
  5
384
330
1F
100
AcDbEntity
  8
0
  6
Continuous
 62
     7
370
    15
100
AcDbLine
 10
-21.1779096998
 20
11.1748120185
 30
0.0
 11
-21.1779096998
 21
12.1037908136
 31
0.0
  0
LINE
  5
385
330
1F
100
AcDbEntity
  8
0
  6
Continuous
 62
     7
370
    15
100
AcDbLine
 10
-21.1779096998
 20
12.1037908136
 30
0.0
 11
-21.2643263319
 21
12.1037908136
 31
0.0
  0
LINE
  5
386
330
1F
100
AcDbEntity
  8
0
  6
Continuous
 62
     7
370
    15
100
AcDbLine
 10
-21.2643263319
 20
12.1037908136
 30
0.0
 11
-21.2643263319
 21
11.1748120185
 31
0.0
  0
LINE
  5
387
330
1F
100
AcDbEntity
  8
0
  6
Continuous
 62
     7
370
    15
100
AcDbLine
 10
-21.2643263319
 20
11.1748120185
 30
0.0
 11
-21.1779096998
 21
11.1748120185
 31
0.0
  0
LINE
  5
388
330
1F
100
AcDbEntity
  8
0
  6
Continuous
 62
     7
370
    15
100
AcDbLine
 10
-20.4001600109
 20
11.1748120185
 30
0.0
 11
-20.4001600109
 21
12.1037908136
 31
0.0
  0
LINE
  5
389
330
1F
100
AcDbEntity
  8
0
  6
Continuous
 62
     7
370
    15
100
AcDbLine
 10
-20.4001600109
 20
12.1037908136
 30
0.0
 11
-20.486576643
 21
12.1037908136
 31
0.0
  0
LINE
  5
38A
330
1F
100
AcDbEntity
  8
0
  6
Continuous
 62
     7
370
    15
100
AcDbLine
 10
-20.486576643
 20
12.1037908136
 30
0.0
 11
-20.486576643
 21
11.1748120185
 31
0.0
  0
LINE
  5
38B
330
1F
100
AcDbEntity
  8
0
  6
Continuous
 62
     7
370
    15
100
AcDbLine
 10
-20.486576643
 20
11.1748120185
 30
0.0
 11
-20.4001600109
 21
11.1748120185
 31
0.0
  0
LINE
  5
38C
330
1F
100
AcDbEntity
  8
0
  6
Continuous
 62
     7
370
    15
100
AcDbLine
 10
-20.2750225887
 20
11.1748120185
 30
0.0
 11
-20.2750225887
 21
12.1037908136
 31
0.0
  0
LINE
  5
38D
330
1F
100
AcDbEntity
  8
0
  6
Continuous
 62
     7
370
    15
100
AcDbLine
 10
-20.2750225887
 20
12.1037908136
 30
0.0
 11
-20.3569516948
 21
12.1037908136
 31
0.0
  0
LINE
  5
38E
330
1F
100
AcDbEntity
  8
0
  6
Continuous
 62
     7
370
    15
100
AcDbLine
 10
-20.3569516948
 20
12.1037908136
 30
0.0
 11
-20.3569516948
 21
11.1748120185
 31
0.0
  0
LINE
  5
38F
330
1F
100
AcDbEntity
  8
0
  6
Continuous
 62
     7
370
    15
100
AcDbLine
 10
-20.3569516948
 20
11.1748120185
 30
0.0
 11
-20.2750225887
 21
11.1748120185
 31
0.0
  0
LINE
  5
390
330
1F
100
AcDbEntity
  8
0
  6
Continuous
 62
     7
370
    15
100
AcDbLine
 10
-20.6594099072
 20
11.1748120185
 30
0.0
 11
-20.6594099072
 21
12.1037908136
 31
0.0
  0
LINE
  5
391
330
1F
100
AcDbEntity
  8
0
  6
Continuous
 62
     7
370
    15
100
AcDbLine
 10
-20.6594099072
 20
12.1037908136
 30
0.0
 11
-20.7458265393
 21
12.1037908136
 31
0.0
  0
LINE
  5
392
330
1F
100
AcDbEntity
  8
0
  6
Continuous
 62
     7
370
    15
100
AcDbLine
 10
-20.7458265393
 20
12.1037908136
 30
0.0
 11
-20.7458265393
 21
11.1748120185
 31
0.0
  0
LINE
  5
393
330
1F
100
AcDbEntity
  8
0
  6
Continuous
 62
     7
370
    15
100
AcDbLine
 10
-20.7458265393
 20
11.1748120185
 30
0.0
 11
-20.6594099072
 21
11.1748120185
 31
0.0
  0
LINE
  5
394
330
1F
100
AcDbEntity
  8
0
  6
Continuous
 62
     7
370
    15
100
AcDbLine
 10
-21.0482847516
 20
11.1748120185
 30
0.0
 11
-21.0482847516
 21
12.1037908136
 31
0.0
  0
LINE
  5
395
330
1F
100
AcDbEntity
  8
0
  6
Continuous
 62
     7
370
    15
100
AcDbLine
 10
-21.0482847516
 20
12.1037908136
 30
0.0
 11
-21.1347013837
 21
12.1037908136
 31
0.0
  0
LINE
  5
396
330
1F
100
AcDbEntity
  8
0
  6
Continuous
 62
     7
370
    15
100
AcDbLine
 10
-21.1347013837
 20
12.1037908136
 30
0.0
 11
-21.1347013837
 21
11.1748120185
 31
0.0
  0
LINE
  5
397
330
1F
100
AcDbEntity
  8
0
  6
Continuous
 62
     7
370
    15
100
AcDbLine
 10
-21.1347013837
 20
11.1748120185
 30
0.0
 11
-21.0482847516
 21
11.1748120185
 31
0.0
  0
LINE
  5
398
330
1F
100
AcDbEntity
  8
0
  6
Continuous
 62
     7
370
    15
100
AcDbLine
 10
-21.4371595961
 20
11.1748120185
 30
0.0
 11
-21.4371595961
 21
12.1037908136
 31
0.0
  0
LINE
  5
399
330
1F
100
AcDbEntity
  8
0
  6
Continuous
 62
     7
370
    15
100
AcDbLine
 10
-21.4371595961
 20
12.1037908136
 30
0.0
 11
-21.5235762282
 21
12.1037908136
 31
0.0
  0
LINE
  5
39A
330
1F
100
AcDbEntity
  8
0
  6
Continuous
 62
     7
370
    15
100
AcDbLine
 10
-21.5235762282
 20
12.1037908136
 30
0.0
 11
-21.5235762282
 21
11.1748120185
 31
0.0
  0
LINE
  5
39B
330
1F
100
AcDbEntity
  8
0
  6
Continuous
 62
     7
370
    15
100
AcDbLine
 10
-21.5235762282
 20
11.1748120185
 30
0.0
 11
-21.4371595961
 21
11.1748120185
 31
0.0
  0
LINE
  5
39C
330
1F
100
AcDbEntity
  8
0
  6
Continuous
 62
     7
370
    15
100
AcDbLine
 10
-21.6964094924
 20
11.1748120185
 30
0.0
 11
-21.6964094924
 21
12.1037908136
 31
0.0
  0
LINE
  5
39D
330
1F
100
AcDbEntity
  8
0
  6
Continuous
 62
     7
370
    15
100
AcDbLine
 10
-21.6964094924
 20
12.1037908136
 30
0.0
 11
-21.7828261245
 21
12.1037908136
 31
0.0
  0
LINE
  5
39E
330
1F
100
AcDbEntity
  8
0
  6
Continuous
 62
     7
370
    15
100
AcDbLine
 10
-21.7828261245
 20
12.1037908136
 30
0.0
 11
-21.7828261245
 21
11.1748120185
 31
0.0
  0
LINE
  5
39F
330
1F
100
AcDbEntity
  8
0
  6
Continuous
 62
     7
370
    15
100
AcDbLine
 10
-21.7828261245
 20
11.1748120185
 30
0.0
 11
-21.6964094924
 21
11.1748120185
 31
0.0
  0
LINE
  5
3A0
330
1F
100
AcDbEntity
  8
0
  6
Continuous
 62
     7
370
    15
100
AcDbLine
 10
-21.9556593887
 20
11.1748120185
 30
0.0
 11
-21.9556593887
 21
12.1037908136
 31
0.0
  0
LINE
  5
3A1
330
1F
100
AcDbEntity
  8
0
  6
Continuous
 62
     7
370
    15
100
AcDbLine
 10
-21.9556593887
 20
12.1037908136
 30
0.0
 11
-22.0420760208
 21
12.1037908136
 31
0.0
  0
LINE
  5
3A2
330
1F
100
AcDbEntity
  8
0
  6
Continuous
 62
     7
370
    15
100
AcDbLine
 10
-22.0420760208
 20
12.1037908136
 30
0.0
 11
-22.0420760208
 21
11.1748120185
 31
0.0
  0
LINE
  5
3A3
330
1F
100
AcDbEntity
  8
0
  6
Continuous
 62
     7
370
    15
100
AcDbLine
 10
-22.0420760208
 20
11.1748120185
 30
0.0
 11
-21.9556593887
 21
11.1748120185
 31
0.0
  0
LINE
  5
3A4
330
1F
100
AcDbEntity
  8
0
  6
Continuous
 62
     7
370
    15
100
AcDbLine
 10
-22.214909285
 20
11.1748120185
 30
0.0
 11
-22.214909285
 21
12.1037908136
 31
0.0
  0
LINE
  5
3A5
330
1F
100
AcDbEntity
  8
0
  6
Continuous
 62
     7
370
    15
100
AcDbLine
 10
-22.214909285
 20
12.1037908136
 30
0.0
 11
-22.3013259171
 21
12.1037908136
 31
0.0
  0
LINE
  5
3A6
330
1F
100
AcDbEntity
  8
0
  6
Continuous
 62
     7
370
    15
100
AcDbLine
 10
-22.3013259171
 20
12.1037908136
 30
0.0
 11
-22.3013259171
 21
11.1748120185
 31
0.0
  0
LINE
  5
3A7
330
1F
100
AcDbEntity
  8
0
  6
Continuous
 62
     7
370
    15
100
AcDbLine
 10
-22.3013259171
 20
11.1748120185
 30
0.0
 11
-22.214909285
 21
11.1748120185
 31
0.0
  0
LINE
  5
3A8
330
1F
100
AcDbEntity
  8
0
  6
Continuous
 62
     7
370
    15
100
AcDbLine
 10
-18.9406111529
 20
11.1748120185
 30
0.0
 11
-18.9406111529
 21
12.1037908136
 31
0.0
  0
LINE
  5
3A9
330
1F
100
AcDbEntity
  8
0
  6
Continuous
 62
     7
370
    15
100
AcDbLine
 10
-18.9406111529
 20
12.1037908136
 30
0.0
 11
-19.027027785
 21
12.1037908136
 31
0.0
  0
LINE
  5
3AA
330
1F
100
AcDbEntity
  8
0
  6
Continuous
 62
     7
370
    15
100
AcDbLine
 10
-19.027027785
 20
12.1037908136
 30
0.0
 11
-19.027027785
 21
11.1748120185
 31
0.0
  0
LINE
  5
3AB
330
1F
100
AcDbEntity
  8
0
  6
Continuous
 62
     7
370
    15
100
AcDbLine
 10
-19.027027785
 20
11.1748120185
 30
0.0
 11
-18.9406111529
 21
11.1748120185
 31
0.0
  0
LINE
  5
3AC
330
1F
100
AcDbEntity
  8
0
  6
Continuous
 62
     7
370
    15
100
AcDbLine
 10
-19.1998610492
 20
11.1748120185
 30
0.0
 11
-19.1998610492
 21
12.1037908136
 31
0.0
  0
LINE
  5
3AD
330
1F
100
AcDbEntity
  8
0
  6
Continuous
 62
     7
370
    15
100
AcDbLine
 10
-19.1998610492
 20
12.1037908136
 30
0.0
 11
-19.2862776813
 21
12.1037908136
 31
0.0
  0
LINE
  5
3AE
330
1F
100
AcDbEntity
  8
0
  6
Continuous
 62
     7
370
    15
100
AcDbLine
 10
-19.2862776813
 20
12.1037908136
 30
0.0
 11
-19.2862776813
 21
11.1748120185
 31
0.0
  0
LINE
  5
3AF
330
1F
100
AcDbEntity
  8
0
  6
Continuous
 62
     7
370
    15
100
AcDbLine
 10
-19.2862776813
 20
11.1748120185
 30
0.0
 11
-19.1998610492
 21
11.1748120185
 31
0.0
  0
LINE
  5
3B0
330
1F
100
AcDbEntity
  8
0
  6
Continuous
 62
     7
370
    15
100
AcDbLine
 10
-19.4591109455
 20
11.1748120185
 30
0.0
 11
-19.4591109455
 21
12.1037908136
 31
0.0
  0
LINE
  5
3B1
330
1F
100
AcDbEntity
  8
0
  6
Continuous
 62
     7
370
    15
100
AcDbLine
 10
-19.4591109455
 20
12.1037908136
 30
0.0
 11
-19.5455275776
 21
12.1037908136
 31
0.0
  0
LINE
  5
3B2
330
1F
100
AcDbEntity
  8
0
  6
Continuous
 62
     7
370
    15
100
AcDbLine
 10
-19.5455275776
 20
12.1037908136
 30
0.0
 11
-19.5455275776
 21
11.1748120185
 31
0.0
  0
LINE
  5
3B3
330
1F
100
AcDbEntity
  8
0
  6
Continuous
 62
     7
370
    15
100
AcDbLine
 10
-19.5455275776
 20
11.1748120185
 30
0.0
 11
-19.4591109455
 21
11.1748120185
 31
0.0
  0
LINE
  5
3B4
330
1F
100
AcDbEntity
  8
0
  6
Continuous
 62
     7
370
    15
100
AcDbLine
 10
-19.7183608418
 20
11.1748120185
 30
0.0
 11
-19.7183608418
 21
12.1037908136
 31
0.0
  0
LINE
  5
3B5
330
1F
100
AcDbEntity
  8
0
  6
Continuous
 62
     7
370
    15
100
AcDbLine
 10
-19.7183608418
 20
12.1037908136
 30
0.0
 11
-19.8047774739
 21
12.1037908136
 31
0.0
  0
LINE
  5
3B6
330
1F
100
AcDbEntity
  8
0
  6
Continuous
 62
     7
370
    15
100
AcDbLine
 10
-19.8047774739
 20
12.1037908136
 30
0.0
 11
-19.8047774739
 21
11.1748120185
 31
0.0
  0
LINE
  5
3B7
330
1F
100
AcDbEntity
  8
0
  6
Continuous
 62
     7
370
    15
100
AcDbLine
 10
-19.8047774739
 20
11.1748120185
 30
0.0
 11
-19.7183608418
 21
11.1748120185
 31
0.0
  0
LINE
  5
3B8
330
1F
100
AcDbEntity
  8
0
  6
Continuous
 62
     7
370
    15
100
AcDbLine
 10
-17.3851117751
 20
11.1748120185
 30
0.0
 11
-17.3851117751
 21
12.1037908136
 31
0.0
  0
LINE
  5
3B9
330
1F
100
AcDbEntity
  8
0
  6
Continuous
 62
     7
370
    15
100
AcDbLine
 10
-17.3851117751
 20
12.1037908136
 30
0.0
 11
-17.4715284072
 21
12.1037908136
 31
0.0
  0
LINE
  5
3BA
330
1F
100
AcDbEntity
  8
0
  6
Continuous
 62
     7
370
    15
100
AcDbLine
 10
-17.4715284072
 20
12.1037908136
 30
0.0
 11
-17.4715284072
 21
11.1748120185
 31
0.0
  0
LINE
  5
3BB
330
1F
100
AcDbEntity
  8
0
  6
Continuous
 62
     7
370
    15
100
AcDbLine
 10
-17.4715284072
 20
11.1748120185
 30
0.0
 11
-17.3851117751
 21
11.1748120185
 31
0.0
  0
LINE
  5
3BC
330
1F
100
AcDbEntity
  8
0
  6
Continuous
 62
     7
370
    15
100
AcDbLine
 10
-16.9962369306
 20
11.1748120185
 30
0.0
 11
-16.9962369306
 21
12.1037908136
 31
0.0
  0
LINE
  5
3BD
330
1F
100
AcDbEntity
  8
0
  6
Continuous
 62
     7
370
    15
100
AcDbLine
 10
-16.9962369306
 20
12.1037908136
 30
0.0
 11
-17.0826535627
 21
12.1037908136
 31
0.0
  0
LINE
  5
3BE
330
1F
100
AcDbEntity
  8
0
  6
Continuous
 62
     7
370
    15
100
AcDbLine
 10
-17.0826535627
 20
12.1037908136
 30
0.0
 11
-17.0826535627
 21
11.1748120185
 31
0.0
  0
LINE
  5
3BF
330
1F
100
AcDbEntity
  8
0
  6
Continuous
 62
     7
370
    15
100
AcDbLine
 10
-17.0826535627
 20
11.1748120185
 30
0.0
 11
-16.9962369306
 21
11.1748120185
 31
0.0
  0
LINE
  5
3C0
330
1F
100
AcDbEntity
  8
0
  6
Continuous
 62
     7
370
    15
100
AcDbLine
 10
-19.9302745603
 20
11.1748120185
 30
0.0
 11
-19.8479608418
 21
11.1748120185
 31
0.0
  0
LINE
  5
3C1
330
1F
100
AcDbEntity
  8
0
  6
Continuous
 62
     7
370
    15
100
AcDbLine
 10
-19.8479608418
 20
11.1748120185
 30
0.0
 11
-19.8479608418
 21
12.1037908136
 31
0.0
  0
LINE
  5
3C2
330
1F
100
AcDbEntity
  8
0
  6
Continuous
 62
     7
370
    15
100
AcDbLine
 10
-19.8479608418
 20
12.1037908136
 30
0.0
 11
-19.9302745603
 21
12.1037908136
 31
0.0
  0
LINE
  5
3C3
330
1F
100
AcDbEntity
  8
0
  6
Continuous
 62
     7
370
    15
100
AcDbLine
 10
-19.9302745603
 20
12.1037908136
 30
0.0
 11
-19.9302745603
 21
11.1748120185
 31
0.0
  0
LINE
  5
3C4
330
1F
100
AcDbEntity
  8
0
  6
Continuous
 62
     7
370
    15
100
AcDbLine
 10
-17.2554868269
 20
11.1748120185
 30
0.0
 11
-17.2554868269
 21
12.1037908136
 31
0.0
  0
LINE
  5
3C5
330
1F
100
AcDbEntity
  8
0
  6
Continuous
 62
     7
370
    15
100
AcDbLine
 10
-17.2554868269
 20
12.1037908136
 30
0.0
 11
-17.341903459
 21
12.1037908136
 31
0.0
  0
LINE
  5
3C6
330
1F
100
AcDbEntity
  8
0
  6
Continuous
 62
     7
370
    15
100
AcDbLine
 10
-17.341903459
 20
12.1037908136
 30
0.0
 11
-17.341903459
 21
11.1748120185
 31
0.0
  0
LINE
  5
3C7
330
1F
100
AcDbEntity
  8
0
  6
Continuous
 62
     7
370
    15
100
AcDbLine
 10
-17.341903459
 20
11.1748120185
 30
0.0
 11
-17.2554868269
 21
11.1748120185
 31
0.0
  0
LINE
  5
3C8
330
1F
100
AcDbEntity
  8
0
  6
Continuous
 62
     7
370
    15
100
AcDbLine
 10
-17.7739866195
 20
11.1748120185
 30
0.0
 11
-17.7739866195
 21
12.1037908136
 31
0.0
  0
LINE
  5
3C9
330
1F
100
AcDbEntity
  8
0
  6
Continuous
 62
     7
370
    15
100
AcDbLine
 10
-17.7739866195
 20
12.1037908136
 30
0.0
 11
-17.8604032516
 21
12.1037908136
 31
0.0
  0
LINE
  5
3CA
330
1F
100
AcDbEntity
  8
0
  6
Continuous
 62
     7
370
    15
100
AcDbLine
 10
-17.8604032516
 20
12.1037908136
 30
0.0
 11
-17.8604032516
 21
11.1748120185
 31
0.0
  0
LINE
  5
3CB
330
1F
100
AcDbEntity
  8
0
  6
Continuous
 62
     7
370
    15
100
AcDbLine
 10
-17.8604032516
 20
11.1748120185
 30
0.0
 11
-17.7739866195
 21
11.1748120185
 31
0.0
  0
LINE
  5
3CC
330
1F
100
AcDbEntity
  8
0
  6
Continuous
 62
     7
370
    15
100
AcDbLine
 10
-18.0332365158
 20
11.1748120185
 30
0.0
 11
-18.0332365158
 21
12.1037908136
 31
0.0
  0
LINE
  5
3CD
330
1F
100
AcDbEntity
  8
0
  6
Continuous
 62
     7
370
    15
100
AcDbLine
 10
-18.0332365158
 20
12.1037908136
 30
0.0
 11
-18.1196531479
 21
12.1037908136
 31
0.0
  0
LINE
  5
3CE
330
1F
100
AcDbEntity
  8
0
  6
Continuous
 62
     7
370
    15
100
AcDbLine
 10
-18.1196531479
 20
12.1037908136
 30
0.0
 11
-18.1196531479
 21
11.1748120185
 31
0.0
  0
LINE
  5
3CF
330
1F
100
AcDbEntity
  8
0
  6
Continuous
 62
     7
370
    15
100
AcDbLine
 10
-18.1196531479
 20
11.1748120185
 30
0.0
 11
-18.0332365158
 21
11.1748120185
 31
0.0
  0
LINE
  5
3D0
330
1F
100
AcDbEntity
  8
0
  6
Continuous
 62
     7
370
    15
100
AcDbLine
 10
-18.2924864121
 20
11.1748120185
 30
0.0
 11
-18.2924864121
 21
12.1037908136
 31
0.0
  0
LINE
  5
3D1
330
1F
100
AcDbEntity
  8
0
  6
Continuous
 62
     7
370
    15
100
AcDbLine
 10
-18.2924864121
 20
12.1037908136
 30
0.0
 11
-18.3789030442
 21
12.1037908136
 31
0.0
  0
LINE
  5
3D2
330
1F
100
AcDbEntity
  8
0
  6
Continuous
 62
     7
370
    15
100
AcDbLine
 10
-18.3789030442
 20
12.1037908136
 30
0.0
 11
-18.3789030442
 21
11.1748120185
 31
0.0
  0
LINE
  5
3D3
330
1F
100
AcDbEntity
  8
0
  6
Continuous
 62
     7
370
    15
100
AcDbLine
 10
-18.3789030442
 20
11.1748120185
 30
0.0
 11
-18.2924864121
 21
11.1748120185
 31
0.0
  0
LINE
  5
3D4
330
1F
100
AcDbEntity
  8
0
  6
Continuous
 62
     7
370
    15
100
AcDbLine
 10
-18.5517363084
 20
11.1748120185
 30
0.0
 11
-18.5517363084
 21
12.1037908136
 31
0.0
  0
LINE
  5
3D5
330
1F
100
AcDbEntity
  8
0
  6
Continuous
 62
     7
370
    15
100
AcDbLine
 10
-18.5517363084
 20
12.1037908136
 30
0.0
 11
-18.6381529405
 21
12.1037908136
 31
0.0
  0
LINE
  5
3D6
330
1F
100
AcDbEntity
  8
0
  6
Continuous
 62
     7
370
    15
100
AcDbLine
 10
-18.6381529405
 20
12.1037908136
 30
0.0
 11
-18.6381529405
 21
11.1748120185
 31
0.0
  0
LINE
  5
3D7
330
1F
100
AcDbEntity
  8
0
  6
Continuous
 62
     7
370
    15
100
AcDbLine
 10
-18.6381529405
 20
11.1748120185
 30
0.0
 11
-18.5517363084
 21
11.1748120185
 31
0.0
  0
ARC
  5
3D8
330
1F
100
AcDbEntity
  8
0
  6
Continuous
 62
     7
370
    15
100
AcDbCircle
 10
-23.6366558529
 20
13.0759779247
 30
0.0
 40
0.1728332641999632
100
AcDbArc
 50
305.0968012247
 51
5.3658984785
  0
ARC
  5
3D9
330
1F
100
AcDbEntity
  8
0
  6
Continuous
 62
     7
370
    15
100
AcDbCircle
 10
-23.5000191603
 20
12.8815405025
 30
0.0
 40
0.0648124740749974
100
AcDbArc
 50
125.0968012295
 51
266.2782533166
  0
ARC
  5
3DA
330
1F
100
AcDbEntity
  8
0
  6
Continuous
 62
     7
370
    15
100
AcDbCircle
 10
-23.5070309048
 20
12.7737475225
 30
0.0
 40
0.0432083160499958
100
AcDbArc
 50
359.9999999957
 51
86.2782532287
  0
ARC
  5
3DB
330
1F
100
AcDbEntity
  8
0
  6
Continuous
 62
     7
370
    15
100
AcDbCircle
 10
-23.5070309048
 20
12.6868752701
 30
0.0
 40
0.0432083160500038
100
AcDbArc
 50
273.7217467336
 51
359.9999999894
  0
ARC
  5
3DC
330
1F
100
AcDbEntity
  8
0
  6
Continuous
 62
     7
370
    15
100
AcDbCircle
 10
-23.5000191603
 20
12.5790822901
 30
0.0
 40
0.0648124740750192
100
AcDbArc
 50
93.7217467162
 51
234.9031987353
  0
ARC
  5
3DD
330
1F
100
AcDbEntity
  8
0
  6
Continuous
 62
     7
370
    15
100
AcDbCircle
 10
-23.6366558529
 20
12.3846448679
 30
0.0
 40
0.1728332641999733
100
AcDbArc
 50
308.9424412559
 51
54.9031987725
  0
ARC
  5
3DE
330
1F
100
AcDbEntity
  8
0
  6
Continuous
 62
     7
370
    15
100
AcDbCircle
 10
-23.5144442798
 20
12.2334157617
 30
0.0
 40
0.0216041580250065
100
AcDbArc
 50
128.9424413745
 51
269.9999999179
  0
ARC
  5
3DF
330
1F
100
AcDbEntity
  8
0
  6
Continuous
 62
     7
370
    15
100
AcDbCircle
 10
-20.2253193976
 20
12.2334157617
 30
0.0
 40
0.0216041580250046
100
AcDbArc
 50
270.0000000808
 51
51.0575587311
  0
ARC
  5
3E0
330
1F
100
AcDbEntity
  8
0
  6
Continuous
 62
     7
370
    15
100
AcDbCircle
 10
-20.1031078245
 20
12.3846448679
 30
0.0
 40
0.1728332641961571
100
AcDbArc
 50
125.0968012382
 51
231.0575587309
  0
ARC
  5
3E1
330
1F
100
AcDbEntity
  8
0
  6
Continuous
 62
     7
370
    15
100
AcDbCircle
 10
-20.2397445171
 20
12.5790822901
 30
0.0
 40
0.0648124740750077
100
AcDbArc
 50
305.0968012342
 51
86.2782532262
  0
ARC
  5
3E2
330
1F
100
AcDbEntity
  8
0
  6
Continuous
 62
     7
370
    15
100
AcDbCircle
 10
-20.2327327727
 20
12.6868752701
 30
0.0
 40
0.0432083160499914
100
AcDbArc
 50
180.0000000043
 51
266.2782533616
  0
ARC
  5
3E3
330
1F
100
AcDbEntity
  8
0
  6
Continuous
 62
     7
370
    15
100
AcDbCircle
 10
-20.2327327727
 20
12.7737475225
 30
0.0
 40
0.0432083160500092
100
AcDbArc
 50
93.7217467336
 51
179.9999999894
  0
ARC
  5
3E4
330
1F
100
AcDbEntity
  8
0
  6
Continuous
 62
     7
370
    15
100
AcDbCircle
 10
-20.2397445171
 20
12.8815405025
 30
0.0
 40
0.0648124740749988
100
AcDbArc
 50
273.7217467162
 51
54.9031987353
  0
ARC
  5
3E5
330
1F
100
AcDbEntity
  8
0
  6
Continuous
 62
     7
370
    15
100
AcDbCircle
 10
-20.1031078245
 20
13.0759779247
 30
0.0
 40
0.1728332642489701
100
AcDbArc
 50
174.6341015233
 51
234.9031987703
  0
ARC
  5
3E6
330
1F
100
AcDbEntity
  8
0
  6
Continuous
 62
     7
370
    15
100
AcDbCircle
 10
-20.2381793837
 20
14.4101942651
 30
0.0
 40
0.0864166320999942
100
AcDbArc
 50
354.6341015097
 51
58.6000346428
  0
ARC
  5
3E7
330
1F
100
AcDbEntity
  8
0
  6
Continuous
 62
     7
370
    15
100
AcDbCircle
 10
-20.1031078245
 20
14.6314773025
 30
0.0
 40
0.1728332641999943
100
AcDbArc
 50
128.9424412559
 51
238.6000346419
  0
ARC
  5
3E8
330
1F
100
AcDbEntity
  8
0
  6
Continuous
 62
     7
370
    15
100
AcDbCircle
 10
-20.2253193976
 20
14.7827064087
 30
0.0
 40
0.0216041580250064
100
AcDbArc
 50
308.9424413745
 51
89.9999999179
  0
ARC
  5
3E9
330
1F
100
AcDbEntity
  8
0
  6
Continuous
 62
     7
370
    15
100
AcDbCircle
 10
-20.621607615
 20
14.9355367293
 30
0.0
 40
0.2592498963000141
100
AcDbArc
 50
0.0000001311
 51
68.223943226
  0
ARC
  5
3EA
330
1F
100
AcDbEntity
  8
0
  6
Continuous
 62
     7
370
    15
100
AcDbCircle
 10
-21.8698818387
 20
12.0415791913
 30
0.0
 40
3.410856116169579
100
AcDbArc
 50
66.7858988806
 51
113.2141011197
  0
ARC
  5
3EB
330
1F
100
AcDbEntity
  8
0
  6
Continuous
 62
     7
370
    15
100
AcDbCircle
 10
-23.1181560624
 20
14.9355367293
 30
0.0
 40
0.2592498963000126
100
AcDbArc
 50
111.7760567746
 51
179.9999998674
  0
ARC
  5
3EC
330
1F
100
AcDbEntity
  8
0
  6
Continuous
 62
     7
370
    15
100
AcDbCircle
 10
-23.5144442798
 20
14.7827064087
 30
0.0
 40
0.0216041580250106
100
AcDbArc
 50
90.0000000807
 51
231.0575587311
  0
ARC
  5
3ED
330
1F
100
AcDbEntity
  8
0
  6
Continuous
 62
     7
370
    15
100
AcDbCircle
 10
-23.6366558529
 20
14.6314773025
 30
0.0
 40
0.1728332642001702
100
AcDbArc
 50
301.3999653583
 51
51.0575587309
  0
ARC
  5
3EE
330
1F
100
AcDbEntity
  8
0
  6
Continuous
 62
     7
370
    15
100
AcDbCircle
 10
-23.5015842937
 20
14.4101942651
 30
0.0
 40
0.0864166320999615
100
AcDbArc
 50
121.3999653514
 51
185.3658984868
  0
ARC
  5
3EF
330
1F
100
AcDbEntity
  8
0
  6
Continuous
 62
     7
370
    15
100
AcDbCircle
 10
-27.1702038813
 20
12.3846448679
 30
0.0
 40
0.1728332641961583
100
AcDbArc
 50
125.0968012382
 51
231.0575587309
  0
ARC
  5
3F0
330
1F
100
AcDbEntity
  8
0
  6
Continuous
 62
     7
370
    15
100
AcDbCircle
 10
-27.3068405739
 20
12.5790822901
 30
0.0
 40
0.0648124740750067
100
AcDbArc
 50
305.0968012342
 51
86.2782532262
  0
ARC
  5
3F1
330
1F
100
AcDbEntity
  8
0
  6
Continuous
 62
     7
370
    15
100
AcDbCircle
 10
-27.2998288295
 20
12.6868752701
 30
0.0
 40
0.0432083160499957
100
AcDbArc
 50
180.0000000043
 51
266.2782533615
  0
ARC
  5
3F2
330
1F
100
AcDbEntity
  8
0
  6
Continuous
 62
     7
370
    15
100
AcDbCircle
 10
-27.2998288295
 20
12.7737475225
 30
0.0
 40
0.0432083160500092
100
AcDbArc
 50
93.7217467336
 51
179.9999999894
  0
ARC
  5
3F3
330
1F
100
AcDbEntity
  8
0
  6
Continuous
 62
     7
370
    15
100
AcDbCircle
 10
-27.3068405739
 20
12.8815405025
 30
0.0
 40
0.0648124740750002
100
AcDbArc
 50
273.7217467163
 51
54.9031987353
  0
ARC
  5
3F4
330
1F
100
AcDbEntity
  8
0
  6
Continuous
 62
     7
370
    15
100
AcDbCircle
 10
-27.1702038813
 20
13.0759779247
 30
0.0
 40
0.1728332642489497
100
AcDbArc
 50
174.6341015233
 51
234.9031987703
  0
ARC
  5
3F5
330
1F
100
AcDbEntity
  8
0
  6
Continuous
 62
     7
370
    15
100
AcDbCircle
 10
-27.3052754405
 20
14.4101942652
 30
0.0
 40
0.0864166321000021
100
AcDbArc
 50
354.6341015097
 51
58.6000346428
  0
ARC
  5
3F6
330
1F
100
AcDbEntity
  8
0
  6
Continuous
 62
     7
370
    15
100
AcDbCircle
 10
-27.1702038813
 20
14.6314773025
 30
0.0
 40
0.1728332641999979
100
AcDbArc
 50
128.9424412559
 51
238.6000346419
  0
ARC
  5
3F7
330
1F
100
AcDbEntity
  8
0
  6
Continuous
 62
     7
370
    15
100
AcDbCircle
 10
-27.2924154544
 20
14.7827064087
 30
0.0
 40
0.0216041580250046
100
AcDbArc
 50
308.9424413745
 51
89.9999999179
  0
ARC
  5
3F8
330
1F
100
AcDbEntity
  8
0
  6
Continuous
 62
     7
370
    15
100
AcDbCircle
 10
-27.6887036718
 20
14.9355367293
 30
0.0
 40
0.2592498963000267
100
AcDbArc
 50
0.0000001239
 51
68.2239432239
  0
ARC
  5
3F9
330
1F
100
AcDbEntity
  8
0
  6
Continuous
 62
     7
370
    15
100
AcDbCircle
 10
-29.6330778955
 20
7.7752163982
 30
0.0
 40
7.677218909301882
100
AcDbArc
 50
74.5859243843
 51
105.4140756157
  0
ARC
  5
3FA
330
1F
100
AcDbEntity
  8
0
  6
Continuous
 62
     7
370
    15
100
AcDbCircle
 10
-31.5774521192
 20
14.9355367293
 30
0.0
 40
0.2592498962999998
100
AcDbArc
 50
111.776056776
 51
179.9999998761
  0
ARC
  5
3FB
330
1F
100
AcDbEntity
  8
0
  6
Continuous
 62
     7
370
    15
100
AcDbCircle
 10
-31.9737403366
 20
14.7827064087
 30
0.0
 40
0.0216041580250028
100
AcDbArc
 50
90.000000082
 51
231.0575586255
  0
ARC
  5
3FC
330
1F
100
AcDbEntity
  8
0
  6
Continuous
 62
     7
370
    15
100
AcDbCircle
 10
-32.0959519097
 20
14.6314773025
 30
0.0
 40
0.1728332642000014
100
AcDbArc
 50
301.3999653356
 51
51.0575587537
  0
ARC
  5
3FD
330
1F
100
AcDbEntity
  8
0
  6
Continuous
 62
     7
370
    15
100
AcDbCircle
 10
-31.9608803505
 20
14.4101942651
 30
0.0
 40
0.086416632099999
100
AcDbArc
 50
121.3999653868
 51
185.3658984702
  0
ARC
  5
3FE
330
1F
100
AcDbEntity
  8
0
  6
Continuous
 62
     7
370
    15
100
AcDbCircle
 10
-32.0959519097
 20
13.0759779247
 30
0.0
 40
0.1728332642000069
100
AcDbArc
 50
305.0968012247
 51
5.3658984785
  0
ARC
  5
3FF
330
1F
100
AcDbEntity
  8
0
  6
Continuous
 62
     7
370
    15
100
AcDbCircle
 10
-31.9593152171
 20
12.8815405025
 30
0.0
 40
0.0648124740749991
100
AcDbArc
 50
125.0968012342
 51
266.2782532262
  0
ARC
  5
400
330
1F
100
AcDbEntity
  8
0
  6
Continuous
 62
     7
370
    15
100
AcDbCircle
 10
-31.9663269616
 20
12.7737475225
 30
0.0
 40
0.0432083160500092
100
AcDbArc
 50
0.0000000043
 51
86.2782533615
  0
ARC
  5
401
330
1F
100
AcDbEntity
  8
0
  6
Continuous
 62
     7
370
    15
100
AcDbCircle
 10
-31.9663269615
 20
12.6868752701
 30
0.0
 40
0.0432083160499991
100
AcDbArc
 50
273.7217467336
 51
359.9999999894
  0
ARC
  5
402
330
1F
100
AcDbEntity
  8
0
  6
Continuous
 62
     7
370
    15
100
AcDbCircle
 10
-31.9593152171
 20
12.5790822901
 30
0.0
 40
0.0648124740750128
100
AcDbArc
 50
93.7217467163
 51
234.9031987353
  0
ARC
  5
403
330
1F
100
AcDbEntity
  8
0
  6
Continuous
 62
     7
370
    15
100
AcDbCircle
 10
-32.0959519097
 20
12.3846448679
 30
0.0
 40
0.172833264200002
100
AcDbArc
 50
308.9424412559
 51
54.9031987725
  0
ARC
  5
404
330
1F
100
AcDbEntity
  8
0
  6
Continuous
 62
     7
370
    15
100
AcDbCircle
 10
-31.9737403366
 20
12.2334157617
 30
0.0
 40
0.0216041580250012
100
AcDbArc
 50
128.9424413745
 51
269.999999918
  0
ARC
  5
405
330
1F
100
AcDbEntity
  8
0
  6
Continuous
 62
     7
370
    15
100
AcDbCircle
 10
-27.2924154544
 20
12.2334157617
 30
0.0
 40
0.0216041580250046
100
AcDbArc
 50
270.0000000808
 51
51.0575587311
  0
ARC
  5
406
330
1F
100
AcDbEntity
  8
0
  6
Continuous
 62
     7
370
    15
100
AcDbCircle
 10
-27.1702038813
 20
13.0759779247
 30
0.0
 40
0.1728332641999643
100
AcDbArc
 50
305.0968012247
 51
5.3658984785
  0
ARC
  5
407
330
1F
100
AcDbEntity
  8
0
  6
Continuous
 62
     7
370
    15
100
AcDbCircle
 10
-27.0335671887
 20
12.8815405025
 30
0.0
 40
0.064812474075004
100
AcDbArc
 50
125.0968012295
 51
266.2782533166
  0
ARC
  5
408
330
1F
100
AcDbEntity
  8
0
  6
Continuous
 62
     7
370
    15
100
AcDbCircle
 10
-27.0405789332
 20
12.7737475225
 30
0.0
 40
0.0432083160499989
100
AcDbArc
 50
359.9999999957
 51
86.2782532287
  0
ARC
  5
409
330
1F
100
AcDbEntity
  8
0
  6
Continuous
 62
     7
370
    15
100
AcDbCircle
 10
-27.0405789332
 20
12.6868752701
 30
0.0
 40
0.0432083160500127
100
AcDbArc
 50
273.7217467336
 51
359.9999999894
  0
ARC
  5
40A
330
1F
100
AcDbEntity
  8
0
  6
Continuous
 62
     7
370
    15
100
AcDbCircle
 10
-27.0335671887
 20
12.5790822901
 30
0.0
 40
0.0648124740750151
100
AcDbArc
 50
93.7217467162
 51
234.9031987353
  0
ARC
  5
40B
330
1F
100
AcDbEntity
  8
0
  6
Continuous
 62
     7
370
    15
100
AcDbCircle
 10
-27.1702038813
 20
12.3846448679
 30
0.0
 40
0.1728332641999797
100
AcDbArc
 50
308.9424412559
 51
54.9031987725
  0
ARC
  5
40C
330
1F
100
AcDbEntity
  8
0
  6
Continuous
 62
     7
370
    15
100
AcDbCircle
 10
-27.0479923082
 20
12.2334157617
 30
0.0
 40
0.0216041580250046
100
AcDbArc
 50
128.9424413745
 51
269.999999918
  0
ARC
  5
40D
330
1F
100
AcDbEntity
  8
0
  6
Continuous
 62
     7
370
    15
100
AcDbCircle
 10
-23.758867426
 20
12.2334157617
 30
0.0
 40
0.0216041580250037
100
AcDbArc
 50
270.0000000808
 51
51.0575587311
  0
ARC
  5
40E
330
1F
100
AcDbEntity
  8
0
  6
Continuous
 62
     7
370
    15
100
AcDbCircle
 10
-23.6366558529
 20
12.3846448679
 30
0.0
 40
0.172833264196168
100
AcDbArc
 50
125.0968012382
 51
231.0575587309
  0
ARC
  5
40F
330
1F
100
AcDbEntity
  8
0
  6
Continuous
 62
     7
370
    15
100
AcDbCircle
 10
-23.7732925455
 20
12.5790822901
 30
0.0
 40
0.0648124740750158
100
AcDbArc
 50
305.0968012342
 51
86.2782532262
  0
ARC
  5
410
330
1F
100
AcDbEntity
  8
0
  6
Continuous
 62
     7
370
    15
100
AcDbCircle
 10
-23.7662808011
 20
12.6868752701
 30
0.0
 40
0.0432083160499987
100
AcDbArc
 50
180.0000000043
 51
266.2782533616
  0
ARC
  5
411
330
1F
100
AcDbEntity
  8
0
  6
Continuous
 62
     7
370
    15
100
AcDbCircle
 10
-23.7662808011
 20
12.7737475225
 30
0.0
 40
0.0432083160500021
100
AcDbArc
 50
93.7217467336
 51
179.9999999894
  0
ARC
  5
412
330
1F
100
AcDbEntity
  8
0
  6
Continuous
 62
     7
370
    15
100
AcDbCircle
 10
-23.7732925455
 20
12.8815405025
 30
0.0
 40
0.0648124740749977
100
AcDbArc
 50
273.7217467162
 51
54.9031987353
  0
ARC
  5
413
330
1F
100
AcDbEntity
  8
0
  6
Continuous
 62
     7
370
    15
100
AcDbCircle
 10
-23.6366558529
 20
13.0759779247
 30
0.0
 40
0.1728332642489767
100
AcDbArc
 50
174.6341015233
 51
234.9031987703
  0
ARC
  5
414
330
1F
100
AcDbEntity
  8
0
  6
Continuous
 62
     7
370
    15
100
AcDbCircle
 10
-23.7717274121
 20
14.4101942651
 30
0.0
 40
0.0864166320999965
100
AcDbArc
 50
354.6341015097
 51
58.6000346428
  0
ARC
  5
415
330
1F
100
AcDbEntity
  8
0
  6
Continuous
 62
     7
370
    15
100
AcDbCircle
 10
-23.6366558529
 20
14.6314773025
 30
0.0
 40
0.1728332641999921
100
AcDbArc
 50
128.9424412559
 51
238.6000346419
  0
ARC
  5
416
330
1F
100
AcDbEntity
  8
0
  6
Continuous
 62
     7
370
    15
100
AcDbCircle
 10
-23.758867426
 20
14.7827064087
 30
0.0
 40
0.0216041580250065
100
AcDbArc
 50
308.9424413745
 51
89.9999999179
  0
ARC
  5
417
330
1F
100
AcDbEntity
  8
0
  6
Continuous
 62
     7
370
    15
100
AcDbCircle
 10
-24.1551556434
 20
14.9355367293
 30
0.0
 40
0.259249896300016
100
AcDbArc
 50
0.0000001311
 51
68.223943226
  0
ARC
  5
418
330
1F
100
AcDbEntity
  8
0
  6
Continuous
 62
     7
370
    15
100
AcDbCircle
 10
-25.4034298671
 20
12.0415791913
 30
0.0
 40
3.410856116169612
100
AcDbArc
 50
66.7858988806
 51
113.2141011197
  0
ARC
  5
419
330
1F
100
AcDbEntity
  8
0
  6
Continuous
 62
     7
370
    15
100
AcDbCircle
 10
-26.6517040908
 20
14.9355367293
 30
0.0
 40
0.2592498963000119
100
AcDbArc
 50
111.7760567746
 51
179.9999998674
  0
ARC
  5
41A
330
1F
100
AcDbEntity
  8
0
  6
Continuous
 62
     7
370
    15
100
AcDbCircle
 10
-27.0479923082
 20
14.7827064087
 30
0.0
 40
0.0216041580250067
100
AcDbArc
 50
90.0000000807
 51
231.0575587311
  0
ARC
  5
41B
330
1F
100
AcDbEntity
  8
0
  6
Continuous
 62
     7
370
    15
100
AcDbCircle
 10
-27.1702038813
 20
14.6314773025
 30
0.0
 40
0.1728332642003044
100
AcDbArc
 50
301.3999653584
 51
51.0575587308
  0
ARC
  5
41C
330
1F
100
AcDbEntity
  8
0
  6
Continuous
 62
     7
370
    15
100
AcDbCircle
 10
-27.0351323221
 20
14.4101942651
 30
0.0
 40
0.0864166320999047
100
AcDbArc
 50
121.3999653515
 51
185.3658984868
  0
ARC
  5
41D
330
1F
100
AcDbEntity
  8
0
  6
Continuous
 62
     7
370
    15
100
AcDbCircle
 10
-20.1031078245
 20
13.0759779247
 30
0.0
 40
0.1728332641999754
100
AcDbArc
 50
305.0968012247
 51
5.3658984785
  0
ARC
  5
41E
330
1F
100
AcDbEntity
  8
0
  6
Continuous
 62
     7
370
    15
100
AcDbCircle
 10
-19.9664711319
 20
12.8815405025
 30
0.0
 40
0.0648124740750036
100
AcDbArc
 50
125.0968012295
 51
266.2782533166
  0
ARC
  5
41F
330
1F
100
AcDbEntity
  8
0
  6
Continuous
 62
     7
370
    15
100
AcDbCircle
 10
-19.9734828764
 20
12.7737475225
 30
0.0
 40
0.0432083160500035
100
AcDbArc
 50
359.9999999957
 51
86.2782532287
  0
ARC
  5
420
330
1F
100
AcDbEntity
  8
0
  6
Continuous
 62
     7
370
    15
100
AcDbCircle
 10
-19.9734828764
 20
12.6868752701
 30
0.0
 40
0.0432083160500036
100
AcDbArc
 50
273.7217467336
 51
359.9999999894
  0
ARC
  5
421
330
1F
100
AcDbEntity
  8
0
  6
Continuous
 62
     7
370
    15
100
AcDbCircle
 10
-19.9664711319
 20
12.5790822901
 30
0.0
 40
0.0648124740750212
100
AcDbArc
 50
93.7217467162
 51
234.9031987353
  0
ARC
  5
422
330
1F
100
AcDbEntity
  8
0
  6
Continuous
 62
     7
370
    15
100
AcDbCircle
 10
-20.1031078245
 20
12.3846448679
 30
0.0
 40
0.1728332641999755
100
AcDbArc
 50
308.9424412559
 51
54.9031987725
  0
ARC
  5
423
330
1F
100
AcDbEntity
  8
0
  6
Continuous
 62
     7
370
    15
100
AcDbCircle
 10
-19.9808962514
 20
12.2334157617
 30
0.0
 40
0.0216041580250048
100
AcDbArc
 50
128.9424413745
 51
269.999999918
  0
ARC
  5
424
330
1F
100
AcDbEntity
  8
0
  6
Continuous
 62
     7
370
    15
100
AcDbCircle
 10
-16.6917713692
 20
12.2334157617
 30
0.0
 40
0.0216041580250051
100
AcDbArc
 50
270.0000000821
 51
51.0575586255
  0
ARC
  5
425
330
1F
100
AcDbEntity
  8
0
  6
Continuous
 62
     7
370
    15
100
AcDbCircle
 10
-16.5695597961
 20
12.3846448679
 30
0.0
 40
0.1728332642000017
100
AcDbArc
 50
125.0968012275
 51
231.0575587441
  0
ARC
  5
426
330
1F
100
AcDbEntity
  8
0
  6
Continuous
 62
     7
370
    15
100
AcDbCircle
 10
-16.7061964887
 20
12.5790822901
 30
0.0
 40
0.0648124740750126
100
AcDbArc
 50
305.0968012647
 51
86.2782532837
  0
ARC
  5
427
330
1F
100
AcDbEntity
  8
0
  6
Continuous
 62
     7
370
    15
100
AcDbCircle
 10
-16.6991847443
 20
12.6868752701
 30
0.0
 40
0.0432083160499985
100
AcDbArc
 50
180.0000000106
 51
266.2782532664
  0
ARC
  5
428
330
1F
100
AcDbEntity
  8
0
  6
Continuous
 62
     7
370
    15
100
AcDbCircle
 10
-16.6991847443
 20
12.7737475225
 30
0.0
 40
0.0432083160499985
100
AcDbArc
 50
93.7217466385
 51
179.9999999957
  0
ARC
  5
429
330
1F
100
AcDbEntity
  8
0
  6
Continuous
 62
     7
370
    15
100
AcDbCircle
 10
-16.7061964887
 20
12.8815405025
 30
0.0
 40
0.0648124740750051
100
AcDbArc
 50
273.7217467738
 51
54.9031987658
  0
ARC
  5
42A
330
1F
100
AcDbEntity
  8
0
  6
Continuous
 62
     7
370
    15
100
AcDbCircle
 10
-16.5695597961
 20
13.0759779247
 30
0.0
 40
0.1728332642000031
100
AcDbArc
 50
174.6341015215
 51
234.9031987753
  0
ARC
  5
42B
330
1F
100
AcDbEntity
  8
0
  6
Continuous
 62
     7
370
    15
100
AcDbCircle
 10
-16.7046313554
 20
14.4101942651
 30
0.0
 40
0.0864166320999953
100
AcDbArc
 50
354.6341015298
 51
58.6000346132
  0
ARC
  5
42C
330
1F
100
AcDbEntity
  8
0
  6
Continuous
 62
     7
370
    15
100
AcDbCircle
 10
-16.5695597961
 20
14.6314773025
 30
0.0
 40
0.1728332641999981
100
AcDbArc
 50
128.9424412463
 51
238.6000346644
  0
ARC
  5
42D
330
1F
100
AcDbEntity
  8
0
  6
Continuous
 62
     7
370
    15
100
AcDbCircle
 10
-16.6917713692
 20
14.7827064087
 30
0.0
 40
0.0216041580250064
100
AcDbArc
 50
308.9424413745
 51
89.9999999179
  0
ARC
  5
42E
330
1F
100
AcDbEntity
  8
0
  6
Continuous
 62
     7
370
    15
100
AcDbCircle
 10
-17.0880595866
 20
14.9355367293
 30
0.0
 40
0.2592498963000196
100
AcDbArc
 50
0.0000001311
 51
68.223943226
  0
ARC
  5
42F
330
1F
100
AcDbEntity
  8
0
  6
Continuous
 62
     7
370
    15
100
AcDbCircle
 10
-18.3363338103
 20
12.0415791913
 30
0.0
 40
3.410856116169593
100
AcDbArc
 50
66.7858988806
 51
113.2141011197
  0
ARC
  5
430
330
1F
100
AcDbEntity
  8
0
  6
Continuous
 62
     7
370
    15
100
AcDbCircle
 10
-19.584608034
 20
14.9355367293
 30
0.0
 40
0.2592498963000232
100
AcDbArc
 50
111.7760567746
 51
179.9999998674
  0
ARC
  5
431
330
1F
100
AcDbEntity
  8
0
  6
Continuous
 62
     7
370
    15
100
AcDbCircle
 10
-19.9808962514
 20
14.7827064087
 30
0.0
 40
0.0216041580250081
100
AcDbArc
 50
90.0000000807
 51
231.0575587311
  0
ARC
  5
432
330
1F
100
AcDbEntity
  8
0
  6
Continuous
 62
     7
370
    15
100
AcDbCircle
 10
-20.1031078245
 20
14.6314773025
 30
0.0
 40
0.1728332642001689
100
AcDbArc
 50
301.3999653583
 51
51.0575587309
  0
ARC
  5
433
330
1F
100
AcDbEntity
  8
0
  6
Continuous
 62
     7
370
    15
100
AcDbCircle
 10
-19.9680362653
 20
14.4101942651
 30
0.0
 40
0.0864166320999677
100
AcDbArc
 50
121.3999653515
 51
185.3658984868
  0
ENDSEC
  0
SECTION
  2
OBJECTS
  0
DICTIONARY
  5
C
330
0
100
AcDbDictionary
281
     1
  3
ACAD_GROUP
350
D
  3
ACAD_LAYOUT
350
1A
  3
ACAD_MLINESTYLE
350
17
  3
ACAD_PLOTSETTINGS
350
19
  3
ACAD_PLOTSTYLENAME
350
E
  0
DICTIONARY
  5
D
102
{ACAD_REACTORS
330
C
102
}
330
C
100
AcDbDictionary
281
     1
  0
DICTIONARY
  5
1A
102
{ACAD_REACTORS
330
C
102
}
330
C
100
AcDbDictionary
281
     1
  3
Layout1
350
1E
  3
Layout2
350
26
  3
Model
350
22
  0
DICTIONARY
  5
17
102
{ACAD_REACTORS
330
C
102
}
330
C
100
AcDbDictionary
281
     1
  3
Standard
350
18
  0
DICTIONARY
  5
19
102
{ACAD_REACTORS
330
C
102
}
330
C
100
AcDbDictionary
281
     1
  0
ACDBDICTIONARYWDFLT
  5
E
102
{ACAD_REACTORS
330
C
102
}
330
C
100
AcDbDictionary
281
     1
  3
Normal
350
F
100
AcDbDictionaryWithDefault
340
F
  0
LAYOUT
  5
1E
102
{ACAD_REACTORS
330
1A
102
}
330
1A
100
AcDbPlotSettings
  1

  2
none_device
  4

  6

 40
0.0
 41
0.0
 42
0.0
 43
0.0
 44
0.0
 45
0.0
 46
0.0
 47
0.0
 48
0.0
 49
0.0
140
0.0
141
0.0
142
1.0
143
1.0
 70
   688
 72
     0
 73
     0
 74
     5
  7

 75
    16
147
1.0
148
0.0
149
0.0
100
AcDbLayout
  1
Layout1
 70
     1
 71
     1
 10
0.0
 20
0.0
 11
12.0
 21
9.0
 12
0.0
 22
0.0
 32
0.0
 14
1.0000000000E+20
 24
1.0000000000E+20
 34
1.0000000000E+20
 15
-1.0000000000E+20
 25
-1.0000000000E+20
 35
-1.0000000000E+20
146
0.0
 13
0.0
 23
0.0
 33
0.0
 16
1.0
 26
0.0
 36
0.0
 17
0.0
 27
1.0
 37
0.0
 76
     0
330
1B
  0
LAYOUT
  5
26
102
{ACAD_REACTORS
330
1A
102
}
330
1A
100
AcDbPlotSettings
  1

  2
none_device
  4

  6

 40
0.0
 41
0.0
 42
0.0
 43
0.0
 44
0.0
 45
0.0
 46
0.0
 47
0.0
 48
0.0
 49
0.0
140
0.0
141
0.0
142
1.0
143
1.0
 70
   688
 72
     0
 73
     0
 74
     5
  7

 75
    16
147
1.0
148
0.0
149
0.0
100
AcDbLayout
  1
Layout2
 70
     1
 71
     2
 10
0.0
 20
0.0
 11
0.0
 21
0.0
 12
0.0
 22
0.0
 32
0.0
 14
0.0
 24
0.0
 34
0.0
 15
0.0
 25
0.0
 35
0.0
146
0.0
 13
0.0
 23
0.0
 33
0.0
 16
1.0
 26
0.0
 36
0.0
 17
0.0
 27
1.0
 37
0.0
 76
     0
330
23
  0
LAYOUT
  5
22
102
{ACAD_REACTORS
330
1A
102
}
330
1A
100
AcDbPlotSettings
  1

  2
none_device
  4
ANSI_A_(11.00_x_8.50_Inches)
  6

 40
6.35
 41
19.05
 42
6.35000508
 43
19.05000254
 44
279.4
 45
215.9
 46
564.1886224894
 47
-145.6850039062
 48
0.0
 49
0.0
140
0.0
141
0.0
142
0.6970912253
143
1.0
 70
  1696
 72
     0
 73
     0
 74
     0
  7

 75
     0
147
0.5913241897
148
0.0
149
0.0
100
AcDbLayout
  1
Model
 70
     1
 71
     0
 10
0.0
 20
0.0
 11
12.0
 21
9.0
 12
0.0
 22
0.0
 32
0.0
 14
-32.1437851739
 24
10.7905621222
 34
0.0
 15
-16.5217265319
 25
15.7070602556
 35
0.0
146
0.0
 13
0.0
 23
0.0
 33
0.0
 16
1.0
 26
0.0
 36
0.0
 17
0.0
 27
1.0
 37
0.0
 76
     0
330
1F
331
29
  0
MLINESTYLE
  5
18
102
{ACAD_REACTORS
330
17
102
}
330
17
100
AcDbMlineStyle
  2
Standard
 70
     0
  3

 62
   256
 51
90.0
 52
90.0
 71
     2
 49
0.5
 62
   256
  6
BYLAYER
 49
-0.5
 62
   256
  6
BYLAYER
  0
ACDBPLACEHOLDER
  5
F
102
{ACAD_REACTORS
330
E
102
}
330
E
  0
ENDSEC
  0
EOF
