  0
SECTION
  2
HEADER
  9
$ACADVER
  1
AC1015
  9
$ACADMAINTVER
 70
     6
  9
$DWGCODEPAGE
  3
ANSI_1251
  9
$INSBASE
 10
0.0
 20
0.0
 30
0.0
  9
$EXTMIN
 10
0.0
 20
0.0
 30
0.0
  9
$EXTMAX
 10
279.4
 20
215.9
 30
0.0
  9
$LIMMIN
 10
0.0
 20
0.0
  9
$LIMMAX
 10
279.4
 20
215.9
  9
$ORTHOMODE
 70
     0
  9
$REGENMODE
 70
     1
  9
$FILLMODE
 70
     1
  9
$QTEXTMODE
 70
     0
  9
$MIRRTEXT
 70
     1
  9
$LTSCALE
 40
1.0
  9
$ATTMODE
 70
     1
  9
$TEXTSIZE
 40
3.5
  9
$TRACEWID
 40
1.0
  9
$TEXTSTYLE
  7
Standard
  9
$CLAYER
  8
0
  9
$CELTYPE
  6
ByLayer
  9
$CECOLOR
 62
   256
  9
$CELTSCALE
 40
1.0
  9
$DISPSILH
 70
     0
  9
$DIMSCALE
 40
1.0
  9
$DIMASZ
 40
3.5
  9
$DIMEXO
 40
0.01
  9
$DIMDLI
 40
3.75
  9
$DIMRND
 40
0.0
  9
$DIMDLE
 40
0.0
  9
$DIMEXE
 40
1.0
  9
$DIMTP
 40
0.0
  9
$DIMTM
 40
0.0
  9
$DIMTXT
 40
3.5
  9
$DIMCEN
 40
2.5
  9
$DIMTSZ
 40
0.0
  9
$DIMTOL
 70
     0
  9
$DIMLIM
 70
     0
  9
$DIMTIH
 70
     1
  9
$DIMTOH
 70
     1
  9
$DIMSE1
 70
     0
  9
$DIMSE2
 70
     0
  9
$DIMTAD
 70
     1
  9
$DIMZIN
 70
     0
  9
$DIMBLK
  1

  9
$DIMASO
 70
     1
  9
$DIMSHO
 70
     1
  9
$DIMPOST
  1

  9
$DIMAPOST
  1

  9
$DIMALT
 70
     0
  9
$DIMALTD
 70
     3
  9
$DIMALTF
 40
0.0393700787
  9
$DIMLFAC
 40
0.5
  9
$DIMTOFL
 70
     1
  9
$DIMTVP
 40
0.0
  9
$DIMTIX
 70
     0
  9
$DIMSOXD
 70
     0
  9
$DIMSAH
 70
     0
  9
$DIMBLK1
  1

  9
$DIMBLK2
  1

  9
$DIMSTYLE
  2
ISO-25
  9
$DIMCLRD
 70
     0
  9
$DIMCLRE
 70
     0
  9
$DIMCLRT
 70
     0
  9
$DIMTFAC
 40
1.0
  9
$DIMGAP
 40
3.0
  9
$DIMJUST
 70
     0
  9
$DIMSD1
 70
     0
  9
$DIMSD2
 70
     0
  9
$DIMTOLJ
 70
     0
  9
$DIMTZIN
 70
     0
  9
$DIMALTZ
 70
     0
  9
$DIMALTTZ
 70
     0
  9
$DIMUPT
 70
     0
  9
$DIMDEC
 70
     2
  9
$DIMTDEC
 70
     3
  9
$DIMALTU
 70
     2
  9
$DIMALTTD
 70
     3
  9
$DIMTXSTY
  7
Standard
  9
$DIMAUNIT
 70
     0
  9
$DIMADEC
 70
     2
  9
$DIMALTRND
 40
0.0
  9
$DIMAZIN
 70
     0
  9
$DIMDSEP
 70
    44
  9
$DIMATFIT
 70
     3
  9
$DIMFRAC
 70
     0
  9
$DIMLDRBLK
  1

  9
$DIMLUNIT
 70
     2
  9
$DIMLWD
 70
    -2
  9
$DIMLWE
 70
    -2
  9
$DIMTMOVE
 70
     0
  9
$LUNITS
 70
     2
  9
$LUPREC
 70
     2
  9
$SKETCHINC
 40
1.0
  9
$FILLETRAD
 40
10.0
  9
$AUNITS
 70
     0
  9
$AUPREC
 70
     2
  9
$MENU
  1
.
  9
$ELEVATION
 40
0.0
  9
$PELEVATION
 40
0.0
  9
$THICKNESS
 40
0.0
  9
$LIMCHECK
 70
     0
  9
$CHAMFERA
 40
10.0
  9
$CHAMFERB
 40
10.0
  9
$CHAMFERC
 40
20.0
  9
$CHAMFERD
 40
0.0
  9
$SKPOLY
 70
     0
  9
$TDCREATE
 40
2457408.665013553
  9
$TDUCREATE
 40
2457408.58168022
  9
$TDUPDATE
 40
2457408.665014097
  9
$TDUUPDATE
 40
2457408.581680764
  9
$TDINDWG
 40
0.0000000116
  9
$TDUSRTIMER
 40
0.0000000116
  9
$USRTIMER
 70
     1
  9
$ANGBASE
 50
0.0
  9
$ANGDIR
 70
     0
  9
$PDMODE
 70
     0
  9
$PDSIZE
 40
-1.0
  9
$PLINEWID
 40
0.0
  9
$SPLFRAME
 70
     0
  9
$SPLINETYPE
 70
     6
  9
$SPLINESEGS
 70
     8
  9
$HANDSEED
  5
60
  9
$SURFTAB1
 70
     6
  9
$SURFTAB2
 70
     6
  9
$SURFTYPE
 70
     6
  9
$SURFU
 70
     6
  9
$SURFV
 70
     6
  9
$UCSBASE
  2

  9
$UCSNAME
  2

  9
$UCSORG
 10
0.0
 20
0.0
 30
0.0
  9
$UCSXDIR
 10
1.0
 20
0.0
 30
0.0
  9
$UCSYDIR
 10
0.0
 20
1.0
 30
0.0
  9
$UCSORTHOREF
  2

  9
$UCSORTHOVIEW
 70
     0
  9
$UCSORGTOP
 10
0.0
 20
0.0
 30
0.0
  9
$UCSORGBOTTOM
 10
0.0
 20
0.0
 30
0.0
  9
$UCSORGLEFT
 10
0.0
 20
0.0
 30
0.0
  9
$UCSORGRIGHT
 10
0.0
 20
0.0
 30
0.0
  9
$UCSORGFRONT
 10
0.0
 20
0.0
 30
0.0
  9
$UCSORGBACK
 10
0.0
 20
0.0
 30
0.0
  9
$PUCSBASE
  2

  9
$PUCSNAME
  2

  9
$PUCSORG
 10
0.0
 20
0.0
 30
0.0
  9
$PUCSXDIR
 10
1.0
 20
0.0
 30
0.0
  9
$PUCSYDIR
 10
0.0
 20
1.0
 30
0.0
  9
$PUCSORTHOREF
  2

  9
$PUCSORTHOVIEW
 70
     0
  9
$PUCSORGTOP
 10
0.0
 20
0.0
 30
0.0
  9
$PUCSORGBOTTOM
 10
0.0
 20
0.0
 30
0.0
  9
$PUCSORGLEFT
 10
0.0
 20
0.0
 30
0.0
  9
$PUCSORGRIGHT
 10
0.0
 20
0.0
 30
0.0
  9
$PUCSORGFRONT
 10
0.0
 20
0.0
 30
0.0
  9
$PUCSORGBACK
 10
0.0
 20
0.0
 30
0.0
  9
$USERI1
 70
     0
  9
$USERI2
 70
     0
  9
$USERI3
 70
     0
  9
$USERI4
 70
     0
  9
$USERI5
 70
     0
  9
$USERR1
 40
0.0
  9
$USERR2
 40
0.0
  9
$USERR3
 40
0.0
  9
$USERR4
 40
0.0
  9
$USERR5
 40
0.0
  9
$WORLDVIEW
 70
     1
  9
$SHADEDGE
 70
     3
  9
$SHADEDIF
 70
    70
  9
$TILEMODE
 70
     1
  9
$MAXACTVP
 70
    64
  9
$PINSBASE
 10
0.0
 20
0.0
 30
0.0
  9
$PLIMCHECK
 70
     0
  9
$PEXTMIN
 10
1.0000000000E+20
 20
1.0000000000E+20
 30
1.0000000000E+20
  9
$PEXTMAX
 10
-1.0000000000E+20
 20
-1.0000000000E+20
 30
-1.0000000000E+20
  9
$PLIMMIN
 10
0.0
 20
0.0
  9
$PLIMMAX
 10
420.0
 20
297.0
  9
$UNITMODE
 70
     0
  9
$VISRETAIN
 70
     1
  9
$PLINEGEN
 70
     0
  9
$PSLTSCALE
 70
     1
  9
$TREEDEPTH
 70
  3020
  9
$CMLSTYLE
  2
Standard
  9
$CMLJUST
 70
     0
  9
$CMLSCALE
 40
20.0
  9
$PROXYGRAPHICS
 70
     1
  9
$MEASUREMENT
 70
     1
  9
$CELWEIGHT
370
    -1
  9
$ENDCAPS
280
     0
  9
$JOINSTYLE
280
     0
  9
$LWDISPLAY
290
     1
  9
$INSUNITS
 70
     4
  9
$HYPERLINKBASE
  1

  9
$STYLESHEET
  1

  9
$XEDIT
290
     1
  9
$CEPSNTYPE
380
     0
  9
$PSTYLEMODE
290
     1
  9
$FINGERPRINTGUID
  2
{9ED92F98-E46A-4EFA-A1C3-F372C1BD8295}
  9
$VERSIONGUID
  2
{FAEB1C32-E019-11D5-929B-00C0DF256EC4}
  9
$EXTNAMES
290
     1
  9
$PSVPSCALE
 40
0.0
  9
$OLESTARTUP
290
     0
  0
ENDSEC
  0
SECTION
  2
CLASSES
  0
CLASS
  1
ACDBDICTIONARYWDFLT
  2
AcDbDictionaryWithDefault
  3
ObjectDBX Classes
 90
        0
280
     0
281
     0
  0
CLASS
  1
VISUALSTYLE
  2
AcDbVisualStyle
  3
ObjectDBX Classes
 90
     4095
280
     0
281
     0
  0
CLASS
  1
MATERIAL
  2
AcDbMaterial
  3
ObjectDBX Classes
 90
     1153
280
     0
281
     0
  0
CLASS
  1
ACDBPLACEHOLDER
  2
AcDbPlaceHolder
  3
ObjectDBX Classes
 90
        0
280
     0
281
     0
  0
CLASS
  1
LAYOUT
  2
AcDbLayout
  3
ObjectDBX Classes
 90
        0
280
     0
281
     0
  0
ENDSEC
  0
SECTION
  2
TABLES
  0
TABLE
  2
VPORT
  5
8
330
0
100
AcDbSymbolTable
 70
     1
  0
VPORT
  5
29
330
8
100
AcDbSymbolTableRecord
100
AcDbViewportTableRecord
  2
*Active
 70
     0
 10
0.0
 20
0.0
 11
1.0
 21
1.0
 12
139.7
 22
107.95
 13
0.0
 23
0.0
 14
10.0
 24
10.0
 15
10.0
 25
10.0
 16
0.0
 26
0.0
 36
1.0
 17
0.0
 27
0.0
 37
0.0
 40
215.9
 41
1.2941176471
 42
50.0
 43
0.0
 44
0.0
 50
0.0
 51
0.0
 71
     0
 72
  2000
 73
     1
 74
     3
 75
     0
 76
     0
 77
     0
 78
     0
281
     0
 65
     1
110
0.0
120
0.0
130
0.0
111
1.0
121
0.0
131
0.0
112
0.0
122
1.0
132
0.0
 79
     0
146
0.0
  0
ENDTAB
  0
TABLE
  2
LTYPE
  5
5
330
0
100
AcDbSymbolTable
 70
     6
  0
LTYPE
  5
14
330
5
100
AcDbSymbolTableRecord
100
AcDbLinetypeTableRecord
  2
ByBlock
 70
     0
  3

 72
    65
 73
     0
 40
0.0
  0
LTYPE
  5
15
330
5
100
AcDbSymbolTableRecord
100
AcDbLinetypeTableRecord
  2
ByLayer
 70
     0
  3

 72
    65
 73
     0
 40
0.0
  0
LTYPE
  5
16
330
5
100
AcDbSymbolTableRecord
100
AcDbLinetypeTableRecord
  2
Continuous
 70
     0
  3
Solid line
 72
    65
 73
     0
 40
0.0
  0
LTYPE
  5
3F
330
5
100
AcDbSymbolTableRecord
100
AcDbLinetypeTableRecord
  2
HIDDEN
 70
     0
  3
Hidden __ __ __ __ __ __ __ __ __ __ __ __ __ __
 72
    65
 73
     2
 40
1.905
 49
1.27
 74
     0
 49
-0.635
 74
     0
  0
LTYPE
  5
40
330
5
100
AcDbSymbolTableRecord
100
AcDbLinetypeTableRecord
  2
PHANTOM
 70
     0
  3
Phantom ______  __  __  ______  __  __  ______
 72
    65
 73
     6
 40
12.7
 49
6.35
 74
     0
 49
-1.27
 74
     0
 49
1.27
 74
     0
 49
-1.27
 74
     0
 49
1.27
 74
     0
 49
-1.27
 74
     0
  0
LTYPE
  5
41
330
5
100
AcDbSymbolTableRecord
100
AcDbLinetypeTableRecord
  2
CENTER
 70
     0
  3
Center ____ _ ____ _ ____ _ ____ _ ____ _ ____
 72
    65
 73
     4
 40
10.16
 49
6.35
 74
     0
 49
-1.27
 74
     0
 49
1.27
 74
     0
 49
-1.27
 74
     0
  0
LTYPE
  5
42
330
5
100
AcDbSymbolTableRecord
100
AcDbLinetypeTableRecord
  2
CENTERX2
 70
     0
  3
Center (2x) ________  __  ________  __  _____
 72
    65
 73
     4
 40
20.32
 49
12.7
 74
     0
 49
-2.54
 74
     0
 49
2.54
 74
     0
 49
-2.54
 74
     0
  0
LTYPE
  5
43
330
5
100
AcDbSymbolTableRecord
100
AcDbLinetypeTableRecord
  2
DOT2
 70
     0
  3
Dot (.5x) ........................................
 72
    65
 73
     2
 40
0.635
 49
0.0
 74
     0
 49
-0.635
 74
     0
  0
ENDTAB
  0
TABLE
  2
LAYER
  5
2
330
0
100
AcDbSymbolTable
 70
     1
  0
LAYER
  5
10
330
2
100
AcDbSymbolTableRecord
100
AcDbLayerTableRecord
  2
0
 70
     0
 62
     7
  6
Continuous
370
    -3
390
F
  0
ENDTAB
  0
TABLE
  2
STYLE
  5
3
330
0
100
AcDbSymbolTable
 70
     1
  0
STYLE
  5
11
330
3
100
AcDbSymbolTableRecord
100
AcDbTextStyleTableRecord
  2
Standard
 70
     0
 40
0.0
 41
1.0
 50
0.0
 71
     0
 42
3.5
  3
txt
  4

  0
ENDTAB
  0
TABLE
  2
VIEW
  5
6
330
0
100
AcDbSymbolTable
 70
     0
  0
ENDTAB
  0
TABLE
  2
UCS
  5
7
330
0
100
AcDbSymbolTable
 70
     0
  0
ENDTAB
  0
TABLE
  2
APPID
  5
9
330
0
100
AcDbSymbolTable
 70
     1
  0
APPID
  5
12
330
9
100
AcDbSymbolTableRecord
100
AcDbRegAppTableRecord
  2
ACAD
 70
     0
  0
ENDTAB
  0
TABLE
  2
DIMSTYLE
  5
A
330
0
100
AcDbSymbolTable
 70
     1
100
AcDbDimStyleTable
  0
DIMSTYLE
105
27
330
A
100
AcDbSymbolTableRecord
100
AcDbDimStyleTableRecord
  2
ISO-25
 70
     0
 41
2.5
 42
0.625
 43
3.75
 44
1.25
 73
     0
 74
     0
 77
     1
 78
     8
140
2.5
141
2.5
143
0.0393700787
147
0.625
171
     3
172
     1
178
     0
271
     2
272
     2
274
     3
278
    44
283
     0
284
     8
340
11
  0
ENDTAB
  0
TABLE
  2
BLOCK_RECORD
  5
1
330
0
100
AcDbSymbolTable
 70
     1
  0
BLOCK_RECORD
  5
1F
330
1
100
AcDbSymbolTableRecord
100
AcDbBlockTableRecord
  2
*Model_Space
340
22
  0
BLOCK_RECORD
  5
1B
330
1
100
AcDbSymbolTableRecord
100
AcDbBlockTableRecord
  2
*Paper_Space
340
1E
  0
BLOCK_RECORD
  5
23
330
1
100
AcDbSymbolTableRecord
100
AcDbBlockTableRecord
  2
*Paper_Space0
340
26
  0
ENDTAB
  0
ENDSEC
  0
SECTION
  2
BLOCKS
  0
BLOCK
  5
20
330
1F
100
AcDbEntity
  8
0
100
AcDbBlockBegin
  2
*Model_Space
 70
     0
 10
0.0
 20
0.0
 30
0.0
  3
*Model_Space
  1

  0
ENDBLK
  5
21
330
1F
100
AcDbEntity
  8
0
100
AcDbBlockEnd
  0
BLOCK
  5
1C
330
1B
100
AcDbEntity
 67
     1
  8
0
100
AcDbBlockBegin
  2
*Paper_Space
 70
     0
 10
0.0
 20
0.0
 30
0.0
  3
*Paper_Space
  1

  0
ENDBLK
  5
1D
330
1B
100
AcDbEntity
 67
     1
  8
0
100
AcDbBlockEnd
  0
BLOCK
  5
24
330
23
100
AcDbEntity
  8
0
100
AcDbBlockBegin
  2
*Paper_Space0
 70
     0
 10
0.0
 20
0.0
 30
0.0
  3
*Paper_Space0
  1

  0
ENDBLK
  5
25
330
23
100
AcDbEntity
  8
0
100
AcDbBlockEnd
  0
ENDSEC
  0
SECTION
  2
ENTITIES
  0
ARC
  5
44
330
1F
100
AcDbEntity
  8
0
  6
Continuous
 62
     7
370
    15
100
AcDbCircle
 10
-16.6755580306
 20
174.6597596405
 30
0.0
 40
104.0
100
AcDbArc
 50
357.0756591568
 51
358.8764813423
  0
ARC
  5
45
330
1F
100
AcDbEntity
  8
0
  6
Continuous
 62
     7
370
    15
100
AcDbCircle
 10
-16.6755580306
 20
174.6597596405
 30
0.0
 40
104.0
100
AcDbArc
 50
338.1270919336
 51
340.7394743046
  0
ARC
  5
46
330
1F
100
AcDbEntity
  8
0
  6
Continuous
 62
     7
370
    15
100
AcDbCircle
 10
135.3244419694
 20
174.6597596405
 30
0.0
 40
104.0
100
AcDbArc
 50
199.2621874383
 51
201.8729080664
  0
ARC
  5
47
330
1F
100
AcDbEntity
  8
0
  6
Continuous
 62
     7
370
    15
100
AcDbCircle
 10
135.3244419694
 20
174.6597596405
 30
0.0
 40
104.0
100
AcDbArc
 50
181.1235186577
 51
182.920401044
  0
ARC
  5
48
330
1F
100
AcDbEntity
  8
0
  6
Continuous
 62
     7
370
    15
100
AcDbCircle
 10
33.3440516975
 20
172.6597596405
 30
0.0
 40
2.000000000000005
100
AcDbArc
 50
90.0
 51
181.1235186577
  0
ARC
  5
49
330
1F
100
AcDbEntity
  8
0
  6
Continuous
 62
     7
370
    15
100
AcDbCircle
 10
85.3048322413
 20
172.6597596405
 30
0.0
 40
2.000000000000002
100
AcDbArc
 50
358.8764813423
 51
90.0
  0
ARC
  5
4A
330
1F
100
AcDbEntity
  8
0
  6
Continuous
 62
     7
370
    15
100
AcDbCircle
 10
77.981718499
 20
136.6597596405
 30
0.0
 40
2.000000000000018
100
AcDbArc
 50
270.0
 51
338.1270919336
  0
ARC
  5
4B
330
1F
100
AcDbEntity
  8
0
  6
Continuous
 62
     7
370
    15
100
AcDbCircle
 10
40.6671654398
 20
136.6597596405
 30
0.0
 40
2.0
100
AcDbArc
 50
201.8729080664
 51
270.0
  0
SPLINE
  5
4C
330
1F
100
AcDbEntity
  8
0
  6
Continuous
 62
     7
370
    15
100
AcDbSpline
210
0.0
220
0.0
230
1.0
 70
     8
 71
     3
 72
    74
 73
    70
 74
     0
 42
0.00000001
 43
0.00000001
 12
1.0
 22
0.0
 32
0.0
 13
1.0
 23
0.0
 33
0.0
 40
-0.0078124999999998
 40
-0.0078124999999998
 40
0.0
 40
0.0
 40
0.015625
 40
0.015625
 40
0.0312500000000001
 40
0.0312500000000001
 40
0.0468750000000001
 40
0.0468750000000001
 40
0.0625000000000002
 40
0.0625000000000002
 40
0.0937500000000003
 40
0.0937500000000003
 40
0.1250000000000004
 40
0.1250000000000004
 40
0.1875000000000004
 40
0.1875000000000004
 40
0.2500000000000004
 40
0.2500000000000004
 40
0.3125000000000004
 40
0.3125000000000004
 40
0.3750000000000005
 40
0.3750000000000005
 40
0.4062500000000005
 40
0.4062500000000005
 40
0.4375000000000004
 40
0.4375000000000004
 40
0.4531250000000004
 40
0.4531250000000004
 40
0.4687500000000004
 40
0.4687500000000004
 40
0.4843750000000004
 40
0.4843750000000004
 40
0.5000000000000004
 40
0.5000000000000004
 40
0.5078125000000004
 40
0.5078125000000004
 40
0.5156250000000004
 40
0.5156250000000004
 40
0.5234375000000006
 40
0.5234375000000006
 40
0.5312500000000006
 40
0.5312500000000006
 40
0.5468750000000006
 40
0.5468750000000006
 40
0.5625000000000007
 40
0.5625000000000007
 40
0.5937500000000006
 40
0.5937500000000006
 40
0.6250000000000003
 40
0.6250000000000003
 40
0.6875000000000003
 40
0.6875000000000003
 40
0.7500000000000003
 40
0.7500000000000003
 40
0.8125000000000003
 40
0.8125000000000003
 40
0.8750000000000002
 40
0.8750000000000002
 40
0.9062500000000002
 40
0.9062500000000002
 40
0.9375000000000002
 40
0.9375000000000002
 40
0.9687500000000003
 40
0.9687500000000003
 40
0.9843750000000003
 40
0.9843750000000003
 40
0.9921875000000002
 40
0.9921875000000002
 40
1.0
 40
1.0
 40
1.015625
 40
1.015625
 10
58.3713301803914
 20
140.6423387712686
 30
0.0
 10
58.81741814390848
 20
140.3866186388734
 30
0.0
 10
59.16203976651767
 20
140.2984895191169
 30
0.0
 10
59.8493091139081
 20
140.3846008543353
 30
0.0
 10
60.16148943581937
 20
140.5484792206456
 30
0.0
 10
60.68658786075805
 20
140.9720581715155
 30
0.0
 10
60.90459122753285
 20
141.2301410019411
 30
0.0
 10
61.28199380182946
 20
141.7766643803612
 30
0.0
 10
61.44332058596749
 20
142.0700699702049
 30
0.0
 10
61.86432334862284
 20
142.9612938341126
 30
0.0
 10
62.06983637398578
 20
143.5806926174816
 30
0.0
 10
62.40695529063085
 20
144.8453246296766
 30
0.0
 10
62.53607228969604
 20
145.4917823293201
 30
0.0
 10
62.8466494875606
 20
147.4267637594557
 30
0.0
 10
62.95705192933669
 20
148.7247227678004
 30
0.0
 10
63.10031595186061
 20
151.3334841599976
 30
0.0
 10
63.1312566700169
 20
152.6443935535154
 30
0.0
 10
63.15010816190876
 20
155.278609504087
 30
0.0
 10
63.13798383457026
 20
156.6024267397986
 30
0.0
 10
63.05343409942552
 20
159.260912011428
 30
0.0
 10
62.98185375219489
 20
160.5907966491189
 30
0.0
 10
62.77114928407765
 20
162.5803902896242
 30
0.0
 10
62.6832877785272
 20
163.2426739743846
 30
0.0
 10
62.45097861351483
 20
164.5633055808388
 30
0.0
 10
62.30747701566847
 20
165.2189274662001
 30
0.0
 10
62.02396746508455
 20
166.1811189974813
 30
0.0
 10
61.91789930369963
 20
166.4985683914741
 30
0.0
 10
61.67285201306873
 20
167.1240275966604
 30
0.0
 10
61.53317845246237
 20
167.4335711749277
 30
0.0
 10
61.21037875244826
 20
168.0227668168078
 30
0.0
 10
61.02780844351038
 20
168.3042555330516
 30
0.0
 10
60.58539956174824
 20
168.8192552717572
 30
0.0
 10
60.3239054685862
 20
169.0517344022302
 30
0.0
 10
59.87071384999156
 20
169.2778731327045
 30
0.0
 10
59.70708504388846
 20
169.3330866997687
 30
0.0
 10
59.36989914962373
 20
169.3836035972242
 30
0.0
 10
59.1964390705408
 20
169.3784476507784
 30
0.0
 10
58.862669846777
 20
169.3094175732462
 30
0.0
 10
58.70143665353573
 20
169.2458491056541
 30
0.0
 10
58.40439397866447
 20
169.080940464001
 30
0.0
 10
58.26813415577866
 20
168.980482629201
 30
0.0
 10
57.885672861234
 20
168.6404810526661
 30
0.0
 10
57.6767668561056
 20
168.3747674118502
 30
0.0
 10
57.30936009907737
 20
167.8075616108301
 30
0.0
 10
57.15313521187059
 20
167.5064982800922
 30
0.0
 10
56.7439397360648
 20
166.5912536580329
 30
0.0
 10
56.54333251075236
 20
165.9553010823233
 30
0.0
 10
56.21488708079452
 20
164.6578896790705
 30
0.0
 10
56.09010450031865
 20
163.9994200962661
 30
0.0
 10
55.78964816174964
 20
162.0306958505427
 30
0.0
 10
55.68316766140708
 20
160.7147055763921
 30
0.0
 10
55.54536959650761
 20
158.0844952490232
 30
0.0
 10
55.51590753942099
 20
156.7701668549655
 30
0.0
 10
55.49929780479871
 20
154.1461405127479
 30
0.0
 10
55.5122996542197
 20
152.8346560413268
 30
0.0
 10
55.59790526570327
 20
150.2282174408246
 30
0.0
 10
55.66983038753626
 20
148.9323549564003
 30
0.0
 10
55.87859501660246
 20
147.0021786183783
 30
0.0
 10
55.96538036750792
 20
146.3610731192345
 30
0.0
 10
56.19346486184754
 20
145.0845476604061
 30
0.0
 10
56.33422893887986
 20
144.4498854623044
 30
0.0
 10
56.70310630308249
 20
143.2071001368347
 30
0.0
 10
56.93078826856295
 20
142.5938779048793
 30
0.0
 10
57.39093305934326
 20
141.7416892159745
 30
0.0
 10
57.56425307802988
 20
141.4679667643732
 30
0.0
 10
57.87891335515927
 20
141.0855958196509
 30
0.0
 10
57.99340611738716
 20
140.9631009539885
 30
0.0
 10
58.24006748978092
 20
140.7416422482627
 30
0.0
 10
58.3713301803914
 20
140.6423387712686
 30
0.0
 10
58.81741814390848
 20
140.3866186388734
 30
0.0
  0
SPLINE
  5
4D
330
1F
100
AcDbEntity
  8
0
  6
Continuous
 62
     7
370
    15
100
AcDbSpline
210
0.0
220
0.0
230
1.0
 70
     8
 71
     3
 72
    15
 73
    11
 74
     0
 42
0.00000001
 43
0.00000001
 12
1.0
 22
0.0
 32
0.0
 13
1.0
 23
0.0
 33
0.0
 40
0.0
 40
0.0
 40
0.0
 40
0.0
 40
0.2604990636124
 40
0.3924225381390859
 40
0.5242640666623177
 40
0.654641423103827
 40
0.7883087002626209
 40
0.8927072309285787
 40
0.9625661850618659
 40
0.9999999999999999
 40
0.9999999999999999
 40
0.9999999999999999
 40
0.9999999999999999
 10
83.16177742910466
 20
146.3446734540488
 30
0.0
 10
82.99501802345979
 20
145.7211469703365
 30
0.0
 10
82.74380733458342
 20
144.7818505216574
 30
0.0
 10
82.40498451187463
 20
143.5565708375378
 30
0.0
 10
82.15352381335445
 20
142.6560875954196
 30
0.0
 10
81.90955024009956
 20
141.7904589075881
 30
0.0
 10
81.69834616764165
 20
141.0452783052672
 30
0.0
 10
81.560632128137
 20
140.5606194390562
 30
0.0
 10
81.49770220740452
 20
140.3392928933953
 30
0.0
 10
81.50086609780367
 20
140.3504204725262
 30
0.0
 10
81.50196996052165
 20
140.354302819319
 30
0.0
  0
SPLINE
  5
4E
330
1F
100
AcDbEntity
  8
0
  6
Continuous
 62
     7
370
    15
100
AcDbSpline
210
0.0
220
0.0
230
1.0
 70
     8
 71
     3
 72
    22
 73
    18
 74
     0
 42
0.00000001
 43
0.00000001
 12
1.0
 22
0.0
 32
0.0
 13
1.0
 23
0.0
 33
0.0
 40
0.0
 40
0.0
 40
0.0
 40
0.0
 40
0.008787574054461
 40
0.0284112821267248
 40
0.0579385178246715
 40
0.0835056456997679
 40
0.1096982348481616
 40
0.1449507299408292
 40
0.1802414401693101
 40
0.252648923464775
 40
0.3444268731375313
 40
0.4363752901673553
 40
0.5283079203263293
 40
0.6684864985753186
 40
0.808660693641536
 40
0.9042073638069009
 40
1.0
 40
1.0
 40
1.0
 40
1.0
 10
87.1879567054756
 20
169.3538982396495
 30
0.0
 10
87.18842458562143
 20
169.3584707498361
 30
0.0
 10
87.18993729831575
 20
169.3732542243347
 30
0.0
 10
87.1716930818744
 20
169.1949512584989
 30
0.0
 10
87.13379132481855
 20
168.8272456678739
 30
0.0
 10
87.07977144306598
 20
168.3106433441043
 30
0.0
 10
87.01521186284272
 20
167.7033317293684
 30
0.0
 10
86.9369040647028
 20
166.9830742863225
 30
0.0
 10
86.81316193993982
 20
165.878043923201
 30
0.0
 10
86.6258900567531
 20
164.2864539221323
 30
0.0
 10
86.35834129428677
 20
162.2118012388454
 30
0.0
 10
86.03530617125543
 20
159.9668972799246
 30
0.0
 10
85.61054346095469
 20
157.3290373624489
 30
0.0
 10
85.0485030178967
 20
154.3088450268791
 30
0.0
 10
84.39253758088032
 20
151.2781479261252
 30
0.0
 10
83.75455746820919
 20
148.6205607338673
 30
0.0
 10
83.35954005412118
 20
147.1039524092807
 30
0.0
 10
83.16177745030585
 20
146.3446734495652
 30
0.0
  0
SPLINE
  5
4F
330
1F
100
AcDbEntity
  8
0
  6
Continuous
 62
     7
370
    15
100
AcDbSpline
210
0.0
220
0.0
230
1.0
 70
     8
 71
     3
 72
    21
 73
    17
 74
     0
 42
0.00000001
 43
0.00000001
 12
1.0
 22
0.0
 32
0.0
 13
1.0
 23
0.0
 33
0.0
 40
0.0
 40
0.0
 40
0.0
 40
0.0
 40
0.0809614317619588
 40
0.161947573630597
 40
0.3249151585171476
 40
0.4866113035470577
 40
0.5677589770159256
 40
0.648891924948243
 40
0.7297584246085297
 40
0.8111956403709589
 40
0.8709271482127631
 40
0.9007699145908815
 40
0.9311169776859308
 40
0.9575552143923587
 40
0.9842156043642487
 40
1.0
 40
1.0
 40
1.0
 40
1.0
 10
35.48710650968859
 20
146.3446734540488
 30
0.0
 10
35.31974307075381
 20
146.9858516214815
 30
0.0
 10
34.98496511216175
 20
148.2684036492907
 30
0.0
 10
34.34985922346392
 20
150.868406452207
 30
0.0
 10
33.62820327975917
 20
154.1359581676511
 30
0.0
 10
33.02002907981719
 20
157.4289670057321
 30
0.0
 10
32.59959349284447
 20
160.0657514601634
 30
0.0
 10
32.31414985175692
 20
162.0448953440475
 30
0.0
 10
32.05619518067868
 20
164.0192764885703
 30
0.0
 10
31.84410453564385
 20
165.797335475958
 30
0.0
 10
31.69645203143662
 20
167.1219836171648
 30
0.0
 10
31.60257659602356
 20
167.9940996710009
 30
0.0
 10
31.54090600302641
 20
168.5792529756217
 30
0.0
 10
31.4919554764764
 20
169.0511536048368
 30
0.0
 10
31.46235061326302
 20
169.3399435487139
 30
0.0
 10
31.46078162699754
 20
169.3553130716376
 30
0.0
 10
31.46019815132185
 20
169.3610287002381
 30
0.0
  0
SPLINE
  5
50
330
1F
100
AcDbEntity
  8
0
  6
Continuous
 62
     7
370
    15
100
AcDbSpline
210
0.0
220
0.0
230
1.0
 70
     8
 71
     3
 72
    15
 73
    11
 74
     0
 42
0.00000001
 43
0.00000001
 12
1.0
 22
0.0
 32
0.0
 13
1.0
 23
0.0
 33
0.0
 40
0.0
 40
0.0
 40
0.0
 40
0.0
 40
0.0415725686971383
 40
0.1044728576754991
 40
0.2078460349223884
 40
0.3017739729973408
 40
0.3979348621001549
 40
0.5462845696814298
 40
0.6948355184230829
 40
1.0
 40
1.0
 40
1.0
 40
1.0
 10
37.14774643487551
 20
140.3513751870832
 30
0.0
 10
37.14820453200056
 20
140.3497637875865
 30
0.0
 10
37.14935574101278
 20
140.3457143021792
 30
0.0
 10
37.08910282852032
 20
140.557630641011
 30
0.0
 10
36.97367875804584
 20
140.963826170242
 30
0.0
 10
36.81192601867276
 20
141.5342700034994
 30
0.0
 10
36.60982653006597
 20
142.2493338243478
 30
0.0
 10
36.36226791455066
 20
143.1314197013911
 30
0.0
 10
35.97380802252077
 20
144.5284429218226
 30
0.0
 10
35.68282127630236
 20
145.6143219969985
 30
0.0
 10
35.48710648764475
 20
146.3446734527526
 30
0.0
  0
SPLINE
  5
51
330
1F
100
AcDbEntity
  8
0
  6
Continuous
 62
     7
370
    15
100
AcDbSpline
210
0.0
220
0.0
230
1.0
 70
     8
 71
     3
 72
    78
 73
    74
 74
     0
 42
0.00000001
 43
0.00000001
 12
1.0
 22
0.0
 32
0.0
 13
1.0
 23
0.0
 33
0.0
 40
-0.0078124999999998
 40
-0.0078124999999998
 40
0.0
 40
0.0
 40
0.0156250000000002
 40
0.0156250000000002
 40
0.0312500000000003
 40
0.0312500000000003
 40
0.0625000000000004
 40
0.0625000000000004
 40
0.0937500000000005
 40
0.0937500000000005
 40
0.1250000000000006
 40
0.1250000000000006
 40
0.1875000000000007
 40
0.1875000000000007
 40
0.2500000000000009
 40
0.2500000000000009
 40
0.3125000000000011
 40
0.3125000000000011
 40
0.3750000000000013
 40
0.3750000000000013
 40
0.4062500000000014
 40
0.4062500000000014
 40
0.4375000000000014
 40
0.4375000000000014
 40
0.4531250000000014
 40
0.4531250000000014
 40
0.4609375000000014
 40
0.4609375000000014
 40
0.4687500000000015
 40
0.4687500000000015
 40
0.4765625000000015
 40
0.4765625000000015
 40
0.4843750000000016
 40
0.4843750000000016
 40
0.4921875000000016
 40
0.4921875000000016
 40
0.5000000000000016
 40
0.5000000000000016
 40
0.5156250000000017
 40
0.5156250000000017
 40
0.5312500000000016
 40
0.5312500000000016
 40
0.5625000000000016
 40
0.5625000000000016
 40
0.5937500000000016
 40
0.5937500000000016
 40
0.6250000000000016
 40
0.6250000000000016
 40
0.6875000000000016
 40
0.6875000000000016
 40
0.7500000000000016
 40
0.7500000000000016
 40
0.8125000000000017
 40
0.8125000000000017
 40
0.8750000000000017
 40
0.8750000000000017
 40
0.9062500000000016
 40
0.9062500000000016
 40
0.9218750000000013
 40
0.9218750000000013
 40
0.9375000000000012
 40
0.9375000000000012
 40
0.953125000000001
 40
0.953125000000001
 40
0.9609375000000009
 40
0.9609375000000009
 40
0.9687500000000008
 40
0.9687500000000008
 40
0.9843750000000003
 40
0.9843750000000003
 40
0.9921875000000002
 40
0.9921875000000002
 40
1.0
 40
1.0
 40
1.015625
 40
1.015625
 10
40.51785798067084
 20
140.6319334657815
 30
0.0
 10
40.64212107156035
 20
140.9485175607351
 30
0.0
 10
40.68801899776069
 20
141.2003248631229
 30
0.0
 10
40.74554709618907
 20
141.742120021913
 30
0.0
 10
40.75565543402353
 20
142.0353859759692
 30
0.0
 10
40.7516715653023
 20
142.9268467050903
 30
0.0
 10
40.70554377905857
 20
143.5460276278169
 30
0.0
 10
40.57434426544521
 20
144.809454744741
 30
0.0
 10
40.48749997026646
 20
145.4564830865878
 30
0.0
 10
40.29466587110642
 20
146.7489140862154
 30
0.0
 10
40.18821707252107
 20
147.3969188536475
 30
0.0
 10
39.85533552373109
 20
149.3457048172528
 30
0.0
 10
39.61636390502944
 20
150.651239126553
 30
0.0
 10
39.14829760669963
 20
153.2740841467976
 30
0.0
 10
38.918945916238
 20
154.5914199788118
 30
0.0
 10
38.47700415756731
 20
157.2379346832429
 30
0.0
 10
38.26404352096286
 20
158.5699715132459
 30
0.0
 10
37.82999806120183
 20
161.2319316958584
 30
0.0
 10
37.61025295852063
 20
162.5602220554747
 30
0.0
 10
37.22256847013913
 20
164.5349656179772
 30
0.0
 10
37.08323811587864
 20
165.1913570152335
 30
0.0
 10
36.76382044371569
 20
166.4876657463794
 30
0.0
 10
36.58751878605359
 20
167.1199851418786
 30
0.0
 10
36.26053848929394
 20
168.0141952798197
 30
0.0
 10
36.14251258384264
 20
168.2985767384354
 30
0.0
 10
35.94127392847797
 20
168.6865092848123
 30
0.0
 10
35.87086407629398
 20
168.8075612166454
 30
0.0
 10
35.7220693503134
 20
169.0248807243087
 30
0.0
 10
35.64239474920371
 20
169.1226427764778
 30
0.0
 10
35.47682917406298
 20
169.275771902865
 30
0.0
 10
35.38994592786818
 20
169.3315774889419
 30
0.0
 10
35.21711005825212
 20
169.383358082574
 30
0.0
 10
35.13165846358464
 20
169.3792354148965
 30
0.0
 10
34.96989693859317
 20
169.311519628337
 30
0.0
 10
34.89515713257597
 20
169.2489512040494
 30
0.0
 10
34.7604552725892
 20
169.0844952861501
 30
0.0
 10
34.7012166332295
 20
168.9844171475388
 30
0.0
 10
34.5406386037921
 20
168.6467563346625
 30
0.0
 10
34.45927838601346
 20
168.3793766374023
 30
0.0
 10
34.32764591053561
 20
167.8140135494955
 30
0.0
 10
34.27715175971773
 20
167.5117619708319
 30
0.0
 10
34.1587641216224
 20
166.5948796414592
 30
0.0
 10
34.12071312337049
 20
165.9596680226277
 30
0.0
 10
34.08886894206641
 20
164.6659833744338
 30
0.0
 10
34.09638568225546
 20
164.0054845844108
 30
0.0
 10
34.14282203184099
 20
162.6901111198723
 30
0.0
 10
34.18184291519562
 20
162.0320361353261
 30
0.0
 10
34.33418603285446
 20
160.0581621938134
 30
0.0
 10
34.48212684327498
 20
158.7428117640672
 30
0.0
 10
34.84246814942567
 20
156.1174193970314
 30
0.0
 10
35.0551898039261
 20
154.8073630165713
 30
0.0
 10
35.54197842904644
 20
152.1931371112036
 30
0.0
 10
35.81650322295052
 20
150.886752576468
 30
0.0
 10
36.44178463219208
 20
148.2898866738102
 30
0.0
 10
36.79284676419584
 20
146.9946331433917
 30
0.0
 10
37.40581577688548
 20
145.0870810130858
 30
0.0
 10
37.62415964983083
 20
144.4585622704066
 30
0.0
 10
37.98280583500907
 20
143.5329250898175
 30
0.0
 10
38.10759870732229
 20
143.2272683671731
 30
0.0
 10
38.37136055681272
 20
142.6239071841813
 30
0.0
 10
38.51114908045239
 20
142.3243341980023
 30
0.0
 10
38.80698207161122
 20
141.7478174771962
 30
0.0
 10
38.96371876071045
 20
141.4688977215237
 30
0.0
 10
39.21434056059012
 20
141.0872209787535
 30
0.0
 10
39.29995286302459
 20
140.9670055759196
 30
0.0
 10
39.47686524101104
 20
140.7459737707755
 30
0.0
 10
39.56934685508521
 20
140.6440265798586
 30
0.0
 10
39.84831583660343
 20
140.3931101317674
 30
0.0
 10
40.04157585638893
 20
140.3018918628976
 30
0.0
 10
40.28106033589587
 20
140.3573834604768
 30
0.0
 10
40.35109433859884
 20
140.4053585845984
 30
0.0
 10
40.47021253183581
 20
140.5446428791635
 30
0.0
 10
40.51785798067084
 20
140.6319334657815
 30
0.0
 10
40.64212107156035
 20
140.9485175607351
 30
0.0
  0
SPLINE
  5
52
330
1F
100
AcDbEntity
  8
0
  6
Continuous
 62
     7
370
    15
100
AcDbSpline
210
0.0
220
0.0
230
1.0
 70
     8
 71
     3
 72
    80
 73
    76
 74
     0
 42
0.00000001
 43
0.00000001
 12
1.0
 22
0.0
 32
0.0
 13
1.0
 23
0.0
 33
0.0
 40
-0.0078125000000001
 40
-0.0078125000000001
 40
0.0
 40
0.0
 40
0.015625
 40
0.015625
 40
0.0312499999999999
 40
0.0312499999999999
 40
0.0468749999999999
 40
0.0468749999999999
 40
0.0546874999999998
 40
0.0546874999999998
 40
0.0624999999999998
 40
0.0624999999999998
 40
0.0781249999999997
 40
0.0781249999999997
 40
0.0937499999999996
 40
0.0937499999999996
 40
0.1249999999999996
 40
0.1249999999999996
 40
0.1562499999999996
 40
0.1562499999999996
 40
0.1874999999999996
 40
0.1874999999999996
 40
0.2499999999999993
 40
0.2499999999999993
 40
0.3124999999999991
 40
0.3124999999999991
 40
0.3749999999999989
 40
0.3749999999999989
 40
0.4374999999999987
 40
0.4374999999999987
 40
0.4687499999999987
 40
0.4687499999999987
 40
0.4999999999999986
 40
0.4999999999999986
 40
0.5156249999999986
 40
0.5156249999999986
 40
0.5312499999999984
 40
0.5312499999999984
 40
0.5390624999999984
 40
0.5390624999999984
 40
0.5468749999999984
 40
0.5468749999999984
 40
0.5546874999999983
 40
0.5546874999999983
 40
0.5624999999999983
 40
0.5624999999999983
 40
0.5703124999999983
 40
0.5703124999999983
 40
0.5781249999999983
 40
0.5781249999999983
 40
0.5937499999999983
 40
0.5937499999999983
 40
0.6093749999999984
 40
0.6093749999999984
 40
0.6249999999999984
 40
0.6249999999999984
 40
0.6562499999999987
 40
0.6562499999999987
 40
0.6874999999999988
 40
0.6874999999999988
 40
0.7499999999999991
 40
0.7499999999999991
 40
0.8124999999999993
 40
0.8124999999999993
 40
0.8749999999999996
 40
0.8749999999999996
 40
0.9374999999999999
 40
0.9374999999999999
 40
0.96875
 40
0.96875
 40
0.9843749999999999
 40
0.9843749999999999
 40
0.9921874999999999
 40
0.9921874999999999
 40
1.0
 40
1.0
 40
1.015625
 40
1.015625
 10
45.89187987025496
 20
142.554945507221
 30
0.0
 10
46.13548348825587
 20
142.1071133402887
 30
0.0
 10
46.31153612266833
 20
141.8187080539889
 30
0.0
 10
46.70689081326937
 20
141.274117909603
 30
0.0
 10
46.92891389564151
 20
141.0137832870145
 30
0.0
 10
47.43266637145206
 20
140.582190387361
 30
0.0
 10
47.71944158979378
 20
140.4103200449097
 30
0.0
 10
48.16840758927093
 20
140.3227713446815
 30
0.0
 10
48.3185222862161
 20
140.3232714820231
 30
0.0
 10
48.60037912890934
 20
140.3832270984542
 30
0.0
 10
48.73249750000608
 20
140.4423241596825
 30
0.0
 10
49.08743273647455
 20
140.6767443487692
 30
0.0
 10
49.27370789434907
 20
140.9066425838028
 30
0.0
 10
49.57443731112958
 20
141.4087748806155
 30
0.0
 10
49.69278422877527
 20
141.6883053869715
 30
0.0
 10
49.98266830081374
 20
142.5498248857096
 30
0.0
 10
50.09453833017936
 20
143.1568528987945
 30
0.0
 10
50.24666585486739
 20
144.4012886248098
 30
0.0
 10
50.28348075886689
 20
145.0401007946427
 30
0.0
 10
50.31216064242998
 20
146.3150700952024
 30
0.0
 10
50.30393949545216
 20
146.9552791628514
 30
0.0
 10
50.23969528844337
 20
148.8824901180887
 30
0.0
 10
50.1455324790441
 20
150.176012865655
 30
0.0
 10
49.92689698255991
 20
152.7772514989067
 30
0.0
 10
49.80185752827195
 20
154.0851331690414
 30
0.0
 10
49.53712827338878
 20
156.7142290423679
 30
0.0
 10
49.39803276874023
 20
158.0299654414981
 30
0.0
 10
49.07364574347275
 20
160.65942975547
 30
0.0
 10
48.88971488820239
 20
161.973317336015
 30
0.0
 10
48.5079717226531
 20
163.9333317561526
 30
0.0
 10
48.36277451605077
 20
164.5848266993113
 30
0.0
 10
48.00758490709251
 20
165.8804802899608
 30
0.0
 10
47.7963990290492
 20
166.5318370248359
 30
0.0
 10
47.39346738673962
 20
167.4581279595363
 30
0.0
 10
47.24468595271122
 20
167.7589200776326
 30
0.0
 10
46.89864411137794
 20
168.3339826656513
 30
0.0
 10
46.70284919675947
 20
168.606371313536
 30
0.0
 10
46.35929654076262
 20
168.9517107410325
 30
0.0
 10
46.2379483207013
 20
169.0545256306699
 30
0.0
 10
45.97612927421815
 20
169.2258326202461
 30
0.0
 10
45.83336483644518
 20
169.2944607900849
 30
0.0
 10
45.54202150094604
 20
169.3735548980166
 30
0.0
 10
45.38977634037141
 20
169.384372601604
 30
0.0
 10
45.09886727943804
 20
169.3439851847462
 30
0.0
 10
44.95657733111992
 20
169.2927904321625
 30
0.0
 10
44.6963255537573
 20
169.1467445758741
 30
0.0
 10
44.57568154946775
 20
169.051217482498
 30
0.0
 10
44.35840436553431
 20
168.8371602490919
 30
0.0
 10
44.26001105838499
 20
168.7176023951985
 30
0.0
 10
43.9872313084179
 20
168.3316440991738
 30
0.0
 10
43.84124994794754
 20
168.048710080122
 30
0.0
 10
43.58956858785921
 20
167.4577074444679
 30
0.0
 10
43.48404698272437
 20
167.1468103316137
 30
0.0
 10
43.30449253914539
 20
166.5194897499809
 30
0.0
 10
43.22996928708246
 20
166.2017577883316
 30
0.0
 10
43.03855162944892
 20
165.2402154044659
 30
0.0
 10
42.95330623721598
 20
164.5881989973942
 30
0.0
 10
42.83399579389572
 20
163.2719623892206
 30
0.0
 10
42.80055716483957
 20
162.6060770047062
 30
0.0
 10
42.75423133678502
 20
160.6107691461385
 30
0.0
 10
42.79307853862321
 20
159.2823174333498
 30
0.0
 10
42.94324990860942
 20
156.6321437266781
 30
0.0
 10
43.05536707180492
 20
155.3104140316111
 30
0.0
 10
43.33990337053866
 20
152.6743921584572
 30
0.0
 10
43.51236795303265
 20
151.3592295312513
 30
0.0
 10
43.94831024033648
 20
148.738189365176
 30
0.0
 10
44.20939024681365
 20
147.4396632412002
 30
0.0
 10
44.72904145082758
 20
145.5211801437085
 30
0.0
 10
44.92384878446953
 20
144.8866137693605
 30
0.0
 10
45.26764283331381
 20
143.9458104232777
 30
0.0
 10
45.39093734495095
 20
143.6340702628757
 30
0.0
 10
45.59372526686386
 20
143.1701942344972
 30
0.0
 10
45.66431908387095
 20
143.0161960204661
 30
0.0
 10
45.81278439175894
 20
142.7097087137537
 30
0.0
 10
45.89187987025496
 20
142.554945507221
 30
0.0
 10
46.13548348825587
 20
142.1071133402887
 30
0.0
  0
SPLINE
  5
53
330
1F
100
AcDbEntity
  8
0
  6
Continuous
 62
     7
370
    15
100
AcDbSpline
210
0.0
220
0.0
230
1.0
 70
     8
 71
     3
 72
    78
 73
    74
 74
     0
 42
0.00000001
 43
0.00000001
 12
1.0
 22
0.0
 32
0.0
 13
1.0
 23
0.0
 33
0.0
 40
-0.0078124999999999
 40
-0.0078124999999999
 40
0.0
 40
0.0
 40
0.0156250000000002
 40
0.0156250000000002
 40
0.0312500000000004
 40
0.0312500000000004
 40
0.0625000000000005
 40
0.0625000000000005
 40
0.0937500000000005
 40
0.0937500000000005
 40
0.1250000000000005
 40
0.1250000000000005
 40
0.1875000000000004
 40
0.1875000000000004
 40
0.2500000000000004
 40
0.2500000000000004
 40
0.3125000000000003
 40
0.3125000000000003
 40
0.3750000000000003
 40
0.3750000000000003
 40
0.4062500000000004
 40
0.4062500000000004
 40
0.4375000000000004
 40
0.4375000000000004
 40
0.4531250000000004
 40
0.4531250000000004
 40
0.4609375000000004
 40
0.4609375000000004
 40
0.4687500000000004
 40
0.4687500000000004
 40
0.4765625000000004
 40
0.4765625000000004
 40
0.4843750000000003
 40
0.4843750000000003
 40
0.4921875000000003
 40
0.4921875000000003
 40
0.5000000000000003
 40
0.5000000000000003
 40
0.5156250000000003
 40
0.5156250000000003
 40
0.5312500000000003
 40
0.5312500000000003
 40
0.5625000000000003
 40
0.5625000000000003
 40
0.5937500000000004
 40
0.5937500000000004
 40
0.6250000000000004
 40
0.6250000000000004
 40
0.6875000000000004
 40
0.6875000000000004
 40
0.7500000000000004
 40
0.7500000000000004
 40
0.8125000000000006
 40
0.8125000000000006
 40
0.8750000000000006
 40
0.8750000000000006
 40
0.9062500000000006
 40
0.9062500000000006
 40
0.9218750000000006
 40
0.9218750000000006
 40
0.9375000000000006
 40
0.9375000000000006
 40
0.9531250000000006
 40
0.9531250000000006
 40
0.9609375000000004
 40
0.9609375000000004
 40
0.9687500000000002
 40
0.9687500000000002
 40
0.9843750000000002
 40
0.9843750000000002
 40
0.9921875000000001
 40
0.9921875000000001
 40
1.0
 40
1.0
 40
1.015625
 40
1.015625
 10
71.26338544514856
 20
140.6319334657815
 30
0.0
 10
71.65848570429176
 20
140.948517560735
 30
0.0
 10
71.88094213843307
 20
141.2003248631228
 30
0.0
 10
72.28742778328348
 20
141.7421200219128
 30
0.0
 10
72.47066452523339
 20
142.0353859759691
 30
0.0
 10
72.96552846344916
 20
142.9268467050902
 30
0.0
 10
73.23155529623213
 20
143.5460276278168
 30
0.0
 10
73.6999993230401
 20
144.8094547447409
 30
0.0
 10
73.90079509400739
 20
145.4564830865876
 30
0.0
 10
74.25378613342518
 20
146.7489140862152
 30
0.0
 10
74.40665542485601
 20
147.3969188536473
 30
0.0
 10
74.81737804816504
 20
149.3457048172526
 30
0.0
 10
75.0286118710256
 20
150.6512391265528
 30
0.0
 10
75.38241542285637
 20
153.2740841467973
 30
0.0
 10
75.52452054291844
 20
154.5914199788116
 30
0.0
 10
75.74749060383373
 20
157.2379346832426
 30
0.0
 10
75.82865307209983
 20
158.5699715132456
 30
0.0
 10
75.8920582684699
 20
161.2319316958582
 30
0.0
 10
75.87641845517679
 20
162.5602220554744
 30
0.0
 10
75.70180664753687
 20
164.534965617977
 30
0.0
 10
75.61798967893813
 20
165.1913570152333
 30
0.0
 10
75.3639375979514
 20
166.4876657463791
 30
0.0
 10
75.19848684009715
 20
167.1199851418783
 30
0.0
 10
74.82444547662136
 20
168.0141952798194
 30
0.0
 10
74.68019148293753
 20
168.2985767384351
 30
0.0
 10
74.4128412625256
 20
168.686509284812
 30
0.0
 10
74.31606748963378
 20
168.8075612166451
 30
0.0
 10
74.10336170911181
 20
169.0248807243085
 30
0.0
 10
73.98550341408254
 20
169.1226427764776
 30
0.0
 10
73.7302048554484
 20
169.2757719028649
 30
0.0
 10
73.59114059767339
 20
169.3315774889418
 30
0.0
 10
73.30237650378145
 20
169.3833580825739
 30
0.0
 10
73.15352815207764
 20
169.3792354148966
 30
0.0
 10
72.85948714650439
 20
169.3115196283372
 30
0.0
 10
72.71721942959014
 20
169.2489512040495
 30
0.0
 10
72.45008187392584
 20
169.0844952861503
 30
0.0
 10
72.32683533944599
 20
168.984417147539
 30
0.0
 10
71.97867619288304
 20
168.6467563346628
 30
0.0
 10
71.7818265774454
 20
168.3793766374026
 30
0.0
 10
71.43377058749331
 20
167.8140135494959
 30
0.0
 10
71.28127672068109
 20
167.5117619708322
 30
0.0
 10
70.87549020363177
 20
166.5948796414596
 30
0.0
 10
70.66606718362246
 20
165.9596680226281
 30
0.0
 10
70.30565348244549
 20
164.6659833744342
 30
0.0
 10
70.15638088212296
 20
164.0054845844111
 30
0.0
 10
69.89749833836667
 20
162.6901111198726
 30
0.0
 10
69.7873440911737
 20
162.0320361353264
 30
0.0
 10
69.49020551838954
 20
160.0581621938137
 30
0.0
 10
69.3350879866002
 20
158.7428117640675
 30
0.0
 10
69.04842865234203
 20
156.1174193970317
 30
0.0
 10
68.91733120328253
 20
154.8073630165715
 30
0.0
 10
68.67089918405975
 20
152.1931371112038
 30
0.0
 10
68.55524639805232
 20
150.8867525764681
 30
0.0
 10
68.38252826814013
 20
148.2898866738104
 30
0.0
 10
68.3236481491373
 20
146.9946331433918
 30
0.0
 10
68.3632989474506
 20
145.0870810130859
 30
0.0
 10
68.39811828848272
 20
144.4585622704068
 30
0.0
 10
68.50713168130831
 20
143.5329250898176
 30
0.0
 10
68.55305044192315
 20
143.2272683671732
 30
0.0
 10
68.67224726675117
 20
142.6239071841814
 30
0.0
 10
68.7458887522634
 20
142.3243341980023
 30
0.0
 10
68.93300337997003
 20
141.7478174771963
 30
0.0
 10
69.04656459034426
 20
141.4688977215237
 30
0.0
 10
69.26420379778105
 20
141.0872209787535
 30
0.0
 10
69.34424913568479
 20
140.9670055759197
 30
0.0
 10
69.52513773982677
 20
140.7459737707755
 30
0.0
 10
69.62738451697028
 20
140.6440265798586
 30
0.0
 10
69.96794349231632
 20
140.3931101317674
 30
0.0
 10
70.25078877811086
 20
140.3018918628975
 30
0.0
 10
70.69714545227448
 20
140.3573834604767
 30
0.0
 10
70.84573142306382
 20
140.4053585845984
 30
0.0
 10
71.131239399785
 20
140.5446428791634
 30
0.0
 10
71.26338544514856
 20
140.6319334657815
 30
0.0
 10
71.65848570429176
 20
140.948517560735
 30
0.0
  0
SPLINE
  5
54
330
1F
100
AcDbEntity
  8
0
  6
Continuous
 62
     7
370
    15
100
AcDbSpline
210
0.0
220
0.0
230
1.0
 70
     8
 71
     3
 72
    76
 73
    72
 74
     0
 42
0.00000001
 43
0.00000001
 12
1.0
 22
0.0
 32
0.0
 13
1.0
 23
0.0
 33
0.0
 40
-0.0156249999999999
 40
-0.0156249999999999
 40
0.0
 40
0.0
 40
0.0078125000000001
 40
0.0078125000000001
 40
0.0156250000000002
 40
0.0156250000000002
 40
0.0234375000000002
 40
0.0234375000000002
 40
0.0312500000000003
 40
0.0312500000000003
 40
0.0390625000000004
 40
0.0390625000000004
 40
0.0468750000000005
 40
0.0468750000000005
 40
0.0625000000000006
 40
0.0625000000000006
 40
0.0937500000000011
 40
0.0937500000000011
 40
0.1250000000000015
 40
0.1250000000000015
 40
0.1875000000000019
 40
0.1875000000000019
 40
0.2500000000000023
 40
0.2500000000000023
 40
0.3125000000000027
 40
0.3125000000000027
 40
0.3750000000000031
 40
0.3750000000000031
 40
0.4375000000000035
 40
0.4375000000000035
 40
0.4531250000000036
 40
0.4531250000000036
 40
0.4687500000000036
 40
0.4687500000000036
 40
0.4843750000000037
 40
0.4843750000000037
 40
0.5000000000000037
 40
0.5000000000000037
 40
0.5078125000000037
 40
0.5078125000000037
 40
0.5156250000000036
 40
0.5156250000000036
 40
0.5234375000000036
 40
0.5234375000000036
 40
0.5312500000000036
 40
0.5312500000000036
 40
0.5390625000000036
 40
0.5390625000000036
 40
0.5468750000000034
 40
0.5468750000000034
 40
0.5625000000000033
 40
0.5625000000000033
 40
0.5937500000000031
 40
0.5937500000000031
 40
0.6250000000000029
 40
0.6250000000000029
 40
0.6875000000000024
 40
0.6875000000000024
 40
0.750000000000002
 40
0.750000000000002
 40
0.8125000000000016
 40
0.8125000000000016
 40
0.8750000000000011
 40
0.8750000000000011
 40
0.9375000000000007
 40
0.9375000000000007
 40
0.9687500000000003
 40
0.9687500000000003
 40
0.9843750000000001
 40
0.9843750000000001
 40
1.0
 40
1.0
 40
1.0078125
 40
1.0078125
 10
78.00746609909376
 20
140.9467259424794
 30
0.0
 10
78.13067434219231
 20
140.6328292749094
 30
0.0
 10
78.1797961723042
 20
140.5425518054672
 30
0.0
 10
78.30084638596537
 20
140.4025875046877
 30
0.0
 10
78.37197220096043
 20
140.3550212145555
 30
0.0
 10
78.53431914715893
 20
140.3203036501903
 30
0.0
 10
78.6237982876418
 20
140.3338153587715
 30
0.0
 10
78.81076381882163
 20
140.4175943219237
 30
0.0
 10
78.90607299982285
 20
140.4863205224129
 30
0.0
 10
79.09410778319825
 20
140.659079437164
 30
0.0
 10
79.1871965301442
 20
140.7634624576752
 30
0.0
 10
79.36556453085905
 20
140.9895506980331
 30
0.0
 10
79.45201608802405
 20
141.1124692439596
 30
0.0
 10
79.70533713860772
 20
141.5028398284768
 30
0.0
 10
79.86148023168354
 20
141.7837304121786
 30
0.0
 10
80.3047364277348
 20
142.6547409662463
 30
0.0
 10
80.56938239243364
 20
143.279043632606
 30
0.0
 10
81.05036632747452
 20
144.5295182248678
 30
0.0
 10
81.26891115452229
 20
145.1633836024261
 30
0.0
 10
81.88108097135623
 20
147.0816358917556
 30
0.0
 10
82.23223169951194
 20
148.3853578525099
 30
0.0
 10
82.8581665353641
 20
151.0035044258105
 30
0.0
 10
83.13231737654286
 20
152.3180367129063
 30
0.0
 10
83.61939106768926
 20
154.9582115955907
 30
0.0
 10
83.8323994889461
 20
156.2850731002821
 30
0.0
 10
84.19057439286736
 20
158.9412009036711
 30
0.0
 10
84.33625472506392
 20
160.271026718753
 30
0.0
 10
84.5301457185171
 20
162.9283763426931
 30
0.0
 10
84.58118083101857
 20
164.262260373811
 30
0.0
 10
84.52598473859828
 20
165.8765663733424
 30
0.0
 10
84.50868774112536
 20
166.1968813619895
 30
0.0
 10
84.45733229223555
 20
166.8302866149428
 30
0.0
 10
84.42316250109184
 20
167.1441504512298
 30
0.0
 10
84.33234230426307
 20
167.7473306638059
 30
0.0
 10
84.2759540731019
 20
168.0383350247406
 30
0.0
 10
84.1266284009989
 20
168.5840223793588
 30
0.0
 10
84.03300035937342
 20
168.8405726792101
 30
0.0
 10
83.85140448258427
 20
169.1363312225062
 30
0.0
 10
83.78490196042384
 20
169.2185214340572
 30
0.0
 10
83.63537805809065
 20
169.3372463006775
 30
0.0
 10
83.55395400518914
 20
169.3713353965631
 30
0.0
 10
83.38321232647681
 20
169.3769962835145
 30
0.0
 10
83.2958866559384
 20
169.3485923319795
 30
0.0
 10
83.12382372008013
 20
169.2386464485085
 30
0.0
 10
83.04117099069921
 20
169.1590561645416
 30
0.0
 10
82.88381250999348
 20
168.967924058859
 30
0.0
 10
82.80857423742115
 20
168.8554816007674
 30
0.0
 10
82.6682612782537
 20
168.6152257680231
 30
0.0
 10
82.60227439307657
 20
168.4862234556562
 30
0.0
 10
82.41332799773419
 20
168.0797729258815
 30
0.0
 10
82.30060146368395
 20
167.7858879048137
 30
0.0
 10
81.99222078001613
 20
166.8846988945441
 30
0.0
 10
81.82023765623516
 20
166.2425620746718
 30
0.0
 10
81.51337820830744
 20
164.9527768486731
 30
0.0
 10
81.37878517177296
 20
164.3030301043306
 30
0.0
 10
81.00191192060947
 20
162.3463499645313
 30
0.0
 10
80.78586030293259
 20
161.0321346686987
 30
0.0
 10
80.35761662667234
 20
158.3998347948851
 30
0.0
 10
80.14606926603605
 20
157.0799797184983
 30
0.0
 10
79.70588708086483
 20
154.4511919385313
 30
0.0
 10
79.4772061574028
 20
153.141674822483
 30
0.0
 10
79.01098154073946
 20
150.5320871436854
 30
0.0
 10
78.77303035064665
 20
149.2310972806697
 30
0.0
 10
78.33437583904484
 20
146.6515987402427
 30
0.0
 10
78.12993693050811
 20
145.3637256320578
 30
0.0
 10
77.94031994488202
 20
143.5058663663367
 30
0.0
 10
77.89606465357421
 20
142.8978588477392
 30
0.0
 10
77.89369420476167
 20
142.0197203775455
 30
0.0
 10
77.90417289639456
 20
141.7299836735949
 30
0.0
 10
77.96192401267888
 20
141.1947561702713
 30
0.0
 10
78.00746609909376
 20
140.9467259424794
 30
0.0
 10
78.13067434219231
 20
140.6328292749094
 30
0.0
  0
LINE
  5
55
330
1F
100
AcDbEntity
  8
0
  6
Continuous
 62
     7
370
    15
100
AcDbLine
 10
33.3440516975
 20
174.6597596405
 30
0.0
 11
85.3048322392
 21
174.6597596405
 31
0.0
  0
LINE
  5
56
330
1F
100
AcDbEntity
  8
0
  6
Continuous
 62
     7
370
    15
100
AcDbLine
 10
77.981718499
 20
134.6597596405
 30
0.0
 11
40.667165444
 21
134.6597596405
 31
0.0
  0
LINE
  5
57
330
1F
100
AcDbEntity
  8
0
  6
Continuous
 62
     8
370
    15
100
AcDbLine
 10
87.3044477368
 20
172.6205439543
 30
0.0
 11
31.344436202
 21
172.6205439543
 31
0.0
  0
LINE
  5
58
330
1F
100
AcDbEntity
  8
0
  6
Continuous
 62
     8
370
    15
100
AcDbLine
 10
38.8111404098
 20
135.9146616013
 30
0.0
 11
79.837743529
 21
135.9146616013
 31
0.0
  0
CIRCLE
  5
59
330
1F
100
AcDbEntity
  8
0
  6
Continuous
 62
     7
370
    15
100
AcDbCircle
 10
59.3244419694
 20
92.6154974952
 30
0.0
 40
27.9803902718557
  0
CIRCLE
  5
5A
330
1F
100
AcDbEntity
  8
0
  6
Continuous
 62
     7
370
    15
100
AcDbCircle
 10
59.3244419694
 20
92.6154974952
 30
0.0
 40
25.9803902718557
  0
CIRCLE
  5
5B
330
1F
100
AcDbEntity
  8
0
  6
Continuous
 62
     7
370
    15
100
AcDbCircle
 10
59.3244419694
 20
92.6154974952
 30
0.0
 40
6.800000000000011
  0
ARC
  5
5C
330
1F
100
AcDbEntity
  8
0
  6
Continuous
 62
     7
370
    15
100
AcDbCircle
 10
59.3244419694
 20
92.6154974952
 30
0.0
 40
4.800000000000008
100
AcDbArc
 50
2.001414093
 51
112.4955983764
  0
SPLINE
  5
5D
330
1F
100
AcDbEntity
  8
0
  6
Continuous
 62
     7
370
    15
100
AcDbSpline
210
0.0
220
0.0
230
1.0
 70
     8
 71
     3
 72
    22
 73
    18
 74
     0
 42
0.00000001
 43
0.00000001
 12
1.0
 22
0.0
 32
0.0
 13
1.0
 23
0.0
 33
0.0
 40
0.0
 40
0.0
 40
0.0
 40
0.0
 40
0.1249999999999999
 40
0.1249999999999999
 40
0.2499999999999998
 40
0.2499999999999998
 40
0.3749999999999997
 40
0.3749999999999997
 40
0.4999999999999996
 40
0.4999999999999996
 40
0.6249999999999997
 40
0.6249999999999997
 40
0.7499999999999998
 40
0.7499999999999998
 40
0.8749999999999999
 40
0.8749999999999999
 40
1.0
 40
1.0
 40
1.0
 40
1.0
 10
64.1215138031964
 20
92.78313347395988
 30
0.0
 10
64.16331784078119
 20
93.1458251282151
 30
0.0
 10
64.16522607693165
 20
93.50624505441571
 30
0.0
 10
64.09235955118436
 20
94.22275395589251
 30
0.0
 10
64.01580205765292
 20
94.58272372487308
 30
0.0
 10
63.78994479652528
 20
95.2685615584119
 30
0.0
 10
63.64131738678258
 20
95.59677909808204
 30
0.0
 10
63.27135490833957
 20
96.22317996698693
 30
0.0
 10
63.05139731361728
 20
96.51536319000749
 30
0.0
 10
62.56444671959502
 20
97.04918471236054
 30
0.0
 10
62.29220936591251
 20
97.29509749882993
 30
0.0
 10
61.70910677639506
 20
97.72666777883622
 30
0.0
 10
61.39989697385847
 20
97.91215170412326
 30
0.0
 10
60.74649198471877
 20
98.22304085226433
 30
0.0
 10
60.40014433934432
 20
98.34832296848784
 30
0.0
 10
59.69853893846806
 20
98.52760168971334
 30
0.0
 10
59.33997860762402
 20
98.58235228979491
 30
0.0
 10
58.97485479601416
 20
98.60530457127152
 30
0.0
  0
SPLINE
  5
5E
330
1F
100
AcDbEntity
  8
0
  6
Continuous
 62
     7
370
    15
100
AcDbSpline
210
0.0
220
0.0
230
1.0
 70
     8
 71
     3
 72
    58
 73
    54
 74
     0
 42
0.00000001
 43
0.00000001
 12
1.0
 22
0.0
 32
0.0
 13
1.0
 23
0.0
 33
0.0
 40
0.0
 40
0.0
 40
0.0
 40
0.0
 40
0.0625
 40
0.0625
 40
0.125
 40
0.125
 40
0.1875000000000001
 40
0.1875000000000001
 40
0.2500000000000001
 40
0.2500000000000001
 40
0.3125000000000001
 40
0.3125000000000001
 40
0.3437500000000001
 40
0.3437500000000001
 40
0.3750000000000001
 40
0.3750000000000001
 40
0.4062500000000001
 40
0.4062500000000001
 40
0.4375000000000001
 40
0.4375000000000001
 40
0.4687500000000001
 40
0.4687500000000001
 40
0.5
 40
0.5
 40
0.53125
 40
0.53125
 40
0.5625
 40
0.5625
 40
0.59375
 40
0.59375
 40
0.625
 40
0.625
 40
0.6875
 40
0.6875
 40
0.71875
 40
0.71875
 40
0.75
 40
0.75
 40
0.7812500000000001
 40
0.7812500000000001
 40
0.8125000000000001
 40
0.8125000000000001
 40
0.8437500000000001
 40
0.8437500000000001
 40
0.8750000000000001
 40
0.8750000000000001
 40
0.9062500000000001
 40
0.9062500000000001
 40
0.9375000000000001
 40
0.9375000000000001
 40
0.9687500000000001
 40
0.9687500000000001
 40
1.0
 40
1.0
 40
1.0
 40
1.0
 10
58.97485479601419
 20
98.60530457127152
 30
0.0
 10
59.6501914548771
 20
98.62266944596293
 30
0.0
 10
60.30951112247874
 20
98.52874730137859
 30
0.0
 10
61.59520181489354
 20
98.11321908058639
 30
0.0
 10
62.18527174548974
 20
97.8041135589413
 30
0.0
 10
63.25897518082872
 20
96.98360273735211
 30
0.0
 10
63.71303744542269
 20
96.49564634075004
 30
0.0
 10
64.44630216186047
 20
95.36058751045005
 30
0.0
 10
64.70565251843479
 20
94.74486496198656
 30
0.0
 10
65.00565995954989
 20
93.42892705423864
 30
0.0
 10
65.03961768634636
 20
92.75878040436756
 30
0.0
 10
64.91066405493882
 20
91.7565055587491
 30
0.0
 10
64.83831369181208
 20
91.4308253965342
 30
0.0
 10
64.636786444465
 20
90.79574303361679
 30
0.0
 10
64.50617663389899
 20
90.48376629193214
 30
0.0
 10
64.19132696748744
 20
89.8896479972722
 30
0.0
 10
64.00919526962302
 20
89.61023008209105
 30
0.0
 10
63.59665835736844
 20
89.08586214096897
 30
0.0
 10
63.36359893220843
 20
88.83852654795207
 30
0.0
 10
62.86100701634678
 20
88.39485072012845
 30
0.0
 10
62.59201138872274
 20
88.19842660259344
 30
0.0
 10
62.019057653157
 20
87.8557804468107
 30
0.0
 10
61.71184338881102
 20
87.7087367734861
 30
0.0
 10
61.08414511299291
 20
87.4771578639182
 30
0.0
 10
60.7622169915845
 20
87.39105931946683
 30
0.0
 10
60.10216367970259
 20
87.27838695162163
 30
0.0
 10
59.76276971203875
 20
87.25253721364517
 30
0.0
 10
59.09537720732754
 20
87.26351196835334
 30
0.0
 10
58.76399676111001
 20
87.3000092309894
 30
0.0
 10
58.10608307255198
 20
87.43737488209386
 30
0.0
 10
57.78262618195733
 20
87.53816338631854
 30
0.0
 10
56.86026549192579
 20
87.92464384931623
 30
0.0
 10
56.28838006693849
 20
88.30528753802713
 30
0.0
 10
55.57567689957924
 20
89.0072369317666
 30
0.0
 10
55.35795280447411
 20
89.26699652184325
 30
0.0
 10
54.97977055915368
 20
89.82276809739034
 30
0.0
 10
54.82022306344301
 20
90.11557707632538
 30
0.0
 10
54.55912791865563
 20
90.73049115478403
 30
0.0
 10
54.45733295982978
 20
91.05598313031324
 30
0.0
 10
54.32153810985416
 20
91.71109036147695
 30
0.0
 10
54.2859907870893
 20
92.04277029561749
 30
0.0
 10
54.28037034743135
 20
92.714482586012
 30
0.0
 10
54.31140722789814
 20
93.05250058591132
 30
0.0
 10
54.43947583396029
 20
93.70665383610502
 30
0.0
 10
54.53622638822809
 20
94.02707652256112
 30
0.0
 10
54.79700999075965
 20
94.65078228131829
 30
0.0
 10
54.95680294398195
 20
94.94421199778529
 30
0.0
 10
55.33299061569867
 20
95.49560414237241
 30
0.0
 10
55.55244805617883
 20
95.75613059367538
 30
0.0
 10
56.03400608918586
 20
96.22188682392311
 30
0.0
 10
56.29616521412912
 20
96.4277911386752
 30
0.0
 10
56.86417225580861
 20
96.78439093051591
 30
0.0
 10
57.16995214595298
 20
96.93437716063221
 30
0.0
 10
57.48790217963034
 20
97.05026035254073
 30
0.0
  0
SPLINE
  5
5F
330
1F
100
AcDbEntity
  8
0
  6
Continuous
 62
     7
370
    15
100
AcDbSpline
210
0.0
220
0.0
230
1.0
 70
     8
 71
     3
 72
    25
 73
    21
 74
     0
 42
0.00000001
 43
0.00000001
 12
1.0
 22
0.0
 32
0.0
 13
1.0
 23
0.0
 33
0.0
 40
0.0
 40
0.0
 40
0.0
 40
0.0
 40
0.0079151288278891
 40
0.0667391504969238
 40
0.1265934944752619
 40
0.185417516144297
 40
0.2442415378133318
 40
0.30409588179167
 40
0.3629199034607048
 40
0.4217439251297395
 40
0.4815982691080776
 40
0.5404222907771127
 40
0.5992463124461475
 40
0.6591006564244856
 40
0.7179246780935206
 40
0.7767486997625553
 40
0.8366030437408936
 40
0.8954270654099283
 40
0.9542510870789632
 40
1.0
 40
1.0
 40
1.0
 40
1.0
 10
64.1215138031964
 20
92.78313347395988
 30
0.0
 10
64.12284018847417
 20
92.72726539810321
 30
0.0
 10
64.13402406540096
 20
92.2561943639296
 30
0.0
 10
64.01350393617376
 20
91.35836606163213
 30
0.0
 10
63.52963729291893
 20
90.18785972672337
 30
0.0
 10
62.7570291931383
 20
89.18280842160338
 30
0.0
 10
61.75222525564788
 20
88.41056762136589
 30
0.0
 10
60.58108913463469
 20
87.92546523049748
 30
0.0
 10
59.32444326379916
 20
87.76099045466975
 30
0.0
 10
58.06778958120363
 20
87.92546734009667
 30
0.0
 10
56.89667716912169
 20
88.41055907211859
 30
0.0
 10
55.89178743203076
 20
89.18283984770473
 30
0.0
 10
55.11949977243437
 20
90.18774147068946
 30
0.0
 10
54.63442388790673
 20
91.35881276303114
 30
0.0
 10
54.46989131490153
 20
92.61561691520984
 30
0.0
 10
54.63457361459007
 20
93.87170036414442
 30
0.0
 10
55.11889299816355
 20
95.0449590129325
 30
0.0
 10
55.89401786806454
 20
96.04194487170044
 30
0.0
 10
56.80927356036739
 20
96.78006959008627
 30
0.0
 10
57.50764937798721
 20
97.03011971618542
 30
0.0
 10
57.8131771380304
 20
97.13951247148724
 30
0.0
  0
ENDSEC
  0
SECTION
  2
OBJECTS
  0
DICTIONARY
  5
C
330
0
100
AcDbDictionary
281
     1
  3
ACAD_GROUP
350
D
  3
ACAD_LAYOUT
350
1A
  3
ACAD_MLINESTYLE
350
17
  3
ACAD_PLOTSETTINGS
350
19
  3
ACAD_PLOTSTYLENAME
350
E
  0
DICTIONARY
  5
D
102
{ACAD_REACTORS
330
C
102
}
330
C
100
AcDbDictionary
281
     1
  0
DICTIONARY
  5
1A
102
{ACAD_REACTORS
330
C
102
}
330
C
100
AcDbDictionary
281
     1
  3
Layout1
350
1E
  3
Layout2
350
26
  3
Model
350
22
  0
DICTIONARY
  5
17
102
{ACAD_REACTORS
330
C
102
}
330
C
100
AcDbDictionary
281
     1
  3
Standard
350
18
  0
DICTIONARY
  5
19
102
{ACAD_REACTORS
330
C
102
}
330
C
100
AcDbDictionary
281
     1
  0
ACDBDICTIONARYWDFLT
  5
E
102
{ACAD_REACTORS
330
C
102
}
330
C
100
AcDbDictionary
281
     1
  3
Normal
350
F
100
AcDbDictionaryWithDefault
340
F
  0
LAYOUT
  5
1E
102
{ACAD_REACTORS
330
1A
102
}
330
1A
100
AcDbPlotSettings
  1

  2
none_device
  4

  6

 40
0.0
 41
0.0
 42
0.0
 43
0.0
 44
0.0
 45
0.0
 46
0.0
 47
0.0
 48
0.0
 49
0.0
140
0.0
141
0.0
142
1.0
143
1.0
 70
   688
 72
     0
 73
     0
 74
     5
  7

 75
    16
147
1.0
148
0.0
149
0.0
100
AcDbLayout
  1
Layout1
 70
     1
 71
     1
 10
0.0
 20
0.0
 11
420.0
 21
297.0
 12
0.0
 22
0.0
 32
0.0
 14
1.0000000000E+20
 24
1.0000000000E+20
 34
1.0000000000E+20
 15
-1.0000000000E+20
 25
-1.0000000000E+20
 35
-1.0000000000E+20
146
0.0
 13
0.0
 23
0.0
 33
0.0
 16
1.0
 26
0.0
 36
0.0
 17
0.0
 27
1.0
 37
0.0
 76
     0
330
1B
  0
LAYOUT
  5
26
102
{ACAD_REACTORS
330
1A
102
}
330
1A
100
AcDbPlotSettings
  1

  2
none_device
  4

  6

 40
0.0
 41
0.0
 42
0.0
 43
0.0
 44
0.0
 45
0.0
 46
0.0
 47
0.0
 48
0.0
 49
0.0
140
0.0
141
0.0
142
1.0
143
1.0
 70
   688
 72
     0
 73
     0
 74
     5
  7

 75
    16
147
1.0
148
0.0
149
0.0
100
AcDbLayout
  1
Layout2
 70
     1
 71
     2
 10
0.0
 20
0.0
 11
0.0
 21
0.0
 12
0.0
 22
0.0
 32
0.0
 14
0.0
 24
0.0
 34
0.0
 15
0.0
 25
0.0
 35
0.0
146
0.0
 13
0.0
 23
0.0
 33
0.0
 16
1.0
 26
0.0
 36
0.0
 17
0.0
 27
1.0
 37
0.0
 76
     0
330
23
  0
LAYOUT
  5
22
102
{ACAD_REACTORS
330
1A
102
}
330
1A
100
AcDbPlotSettings
  1

  2
none_device
  4

  6

 40
0.0
 41
0.0
 42
0.0
 43
0.0
 44
0.0
 45
0.0
 46
0.0
 47
0.0
 48
0.0
 49
0.0
140
0.0
141
0.0
142
1.0
143
1.0
 70
  1712
 72
     0
 73
     0
 74
     0
  7

 75
     0
147
1.0
148
0.0
149
0.0
100
AcDbLayout
  1
Model
 70
     1
 71
     0
 10
0.0
 20
0.0
 11
279.4
 21
215.9
 12
0.0
 22
0.0
 32
0.0
 14
0.0
 24
0.0
 34
0.0
 15
279.4
 25
215.9
 35
0.0
146
0.0
 13
0.0
 23
0.0
 33
0.0
 16
1.0
 26
0.0
 36
0.0
 17
0.0
 27
1.0
 37
0.0
 76
     0
330
1F
331
29
  0
MLINESTYLE
  5
18
102
{ACAD_REACTORS
330
17
102
}
330
17
100
AcDbMlineStyle
  2
Standard
 70
     0
  3

 62
   256
 51
90.0
 52
90.0
 71
     2
 49
0.5
 62
   256
  6
BYLAYER
 49
-0.5
 62
   256
  6
BYLAYER
  0
ACDBPLACEHOLDER
  5
F
102
{ACAD_REACTORS
330
E
102
}
330
E
  0
ENDSEC
  0
EOF
