  0
SECTION
  2
HEADER
  9
$ACADVER
  1
AC1015
  9
$ACADMAINTVER
 70
     6
  9
$DWGCODEPAGE
  3
ANSI_1251
  9
$INSBASE
 10
0.0
 20
0.0
 30
0.0
  9
$EXTMIN
 10
0.0
 20
0.0
 30
0.0
  9
$EXTMAX
 10
279.4
 20
215.9
 30
0.0
  9
$LIMMIN
 10
0.0
 20
0.0
  9
$LIMMAX
 10
279.4
 20
215.9
  9
$ORTHOMODE
 70
     0
  9
$REGENMODE
 70
     1
  9
$FILLMODE
 70
     1
  9
$QTEXTMODE
 70
     0
  9
$MIRRTEXT
 70
     1
  9
$LTSCALE
 40
1.0
  9
$ATTMODE
 70
     1
  9
$TEXTSIZE
 40
3.5
  9
$TRACEWID
 40
1.0
  9
$TEXTSTYLE
  7
Standard
  9
$CLAYER
  8
0
  9
$CELTYPE
  6
ByLayer
  9
$CECOLOR
 62
   256
  9
$CELTSCALE
 40
1.0
  9
$DISPSILH
 70
     0
  9
$DIMSCALE
 40
1.0
  9
$DIMASZ
 40
3.5
  9
$DIMEXO
 40
0.01
  9
$DIMDLI
 40
3.75
  9
$DIMRND
 40
0.0
  9
$DIMDLE
 40
0.0
  9
$DIMEXE
 40
1.0
  9
$DIMTP
 40
0.0
  9
$DIMTM
 40
0.0
  9
$DIMTXT
 40
3.5
  9
$DIMCEN
 40
2.5
  9
$DIMTSZ
 40
0.0
  9
$DIMTOL
 70
     0
  9
$DIMLIM
 70
     0
  9
$DIMTIH
 70
     1
  9
$DIMTOH
 70
     1
  9
$DIMSE1
 70
     0
  9
$DIMSE2
 70
     0
  9
$DIMTAD
 70
     1
  9
$DIMZIN
 70
     0
  9
$DIMBLK
  1

  9
$DIMASO
 70
     1
  9
$DIMSHO
 70
     1
  9
$DIMPOST
  1

  9
$DIMAPOST
  1

  9
$DIMALT
 70
     0
  9
$DIMALTD
 70
     3
  9
$DIMALTF
 40
0.0393700787
  9
$DIMLFAC
 40
2.0
  9
$DIMTOFL
 70
     1
  9
$DIMTVP
 40
0.0
  9
$DIMTIX
 70
     0
  9
$DIMSOXD
 70
     0
  9
$DIMSAH
 70
     0
  9
$DIMBLK1
  1

  9
$DIMBLK2
  1

  9
$DIMSTYLE
  2
ISO-25
  9
$DIMCLRD
 70
     0
  9
$DIMCLRE
 70
     0
  9
$DIMCLRT
 70
     0
  9
$DIMTFAC
 40
1.0
  9
$DIMGAP
 40
3.0
  9
$DIMJUST
 70
     0
  9
$DIMSD1
 70
     0
  9
$DIMSD2
 70
     0
  9
$DIMTOLJ
 70
     0
  9
$DIMTZIN
 70
     0
  9
$DIMALTZ
 70
     0
  9
$DIMALTTZ
 70
     0
  9
$DIMUPT
 70
     0
  9
$DIMDEC
 70
     2
  9
$DIMTDEC
 70
     3
  9
$DIMALTU
 70
     2
  9
$DIMALTTD
 70
     3
  9
$DIMTXSTY
  7
Standard
  9
$DIMAUNIT
 70
     0
  9
$DIMADEC
 70
     2
  9
$DIMALTRND
 40
0.0
  9
$DIMAZIN
 70
     0
  9
$DIMDSEP
 70
    44
  9
$DIMATFIT
 70
     3
  9
$DIMFRAC
 70
     0
  9
$DIMLDRBLK
  1

  9
$DIMLUNIT
 70
     2
  9
$DIMLWD
 70
    -2
  9
$DIMLWE
 70
    -2
  9
$DIMTMOVE
 70
     0
  9
$LUNITS
 70
     2
  9
$LUPREC
 70
     2
  9
$SKETCHINC
 40
1.0
  9
$FILLETRAD
 40
10.0
  9
$AUNITS
 70
     0
  9
$AUPREC
 70
     2
  9
$MENU
  1
.
  9
$ELEVATION
 40
0.0
  9
$PELEVATION
 40
0.0
  9
$THICKNESS
 40
0.0
  9
$LIMCHECK
 70
     0
  9
$CHAMFERA
 40
10.0
  9
$CHAMFERB
 40
10.0
  9
$CHAMFERC
 40
20.0
  9
$CHAMFERD
 40
0.0
  9
$SKPOLY
 70
     0
  9
$TDCREATE
 40
2457408.696028461
  9
$TDUCREATE
 40
2457408.612695127
  9
$TDUPDATE
 40
2457408.69603081
  9
$TDUUPDATE
 40
2457408.612697477
  9
$TDINDWG
 40
0.0000000116
  9
$TDUSRTIMER
 40
0.0000000116
  9
$USRTIMER
 70
     1
  9
$ANGBASE
 50
0.0
  9
$ANGDIR
 70
     0
  9
$PDMODE
 70
     0
  9
$PDSIZE
 40
-1.0
  9
$PLINEWID
 40
0.0
  9
$SPLFRAME
 70
     0
  9
$SPLINETYPE
 70
     6
  9
$SPLINESEGS
 70
     8
  9
$HANDSEED
  5
2C4
  9
$SURFTAB1
 70
     6
  9
$SURFTAB2
 70
     6
  9
$SURFTYPE
 70
     6
  9
$SURFU
 70
     6
  9
$SURFV
 70
     6
  9
$UCSBASE
  2

  9
$UCSNAME
  2

  9
$UCSORG
 10
0.0
 20
0.0
 30
0.0
  9
$UCSXDIR
 10
1.0
 20
0.0
 30
0.0
  9
$UCSYDIR
 10
0.0
 20
1.0
 30
0.0
  9
$UCSORTHOREF
  2

  9
$UCSORTHOVIEW
 70
     0
  9
$UCSORGTOP
 10
0.0
 20
0.0
 30
0.0
  9
$UCSORGBOTTOM
 10
0.0
 20
0.0
 30
0.0
  9
$UCSORGLEFT
 10
0.0
 20
0.0
 30
0.0
  9
$UCSORGRIGHT
 10
0.0
 20
0.0
 30
0.0
  9
$UCSORGFRONT
 10
0.0
 20
0.0
 30
0.0
  9
$UCSORGBACK
 10
0.0
 20
0.0
 30
0.0
  9
$PUCSBASE
  2

  9
$PUCSNAME
  2

  9
$PUCSORG
 10
0.0
 20
0.0
 30
0.0
  9
$PUCSXDIR
 10
1.0
 20
0.0
 30
0.0
  9
$PUCSYDIR
 10
0.0
 20
1.0
 30
0.0
  9
$PUCSORTHOREF
  2

  9
$PUCSORTHOVIEW
 70
     0
  9
$PUCSORGTOP
 10
0.0
 20
0.0
 30
0.0
  9
$PUCSORGBOTTOM
 10
0.0
 20
0.0
 30
0.0
  9
$PUCSORGLEFT
 10
0.0
 20
0.0
 30
0.0
  9
$PUCSORGRIGHT
 10
0.0
 20
0.0
 30
0.0
  9
$PUCSORGFRONT
 10
0.0
 20
0.0
 30
0.0
  9
$PUCSORGBACK
 10
0.0
 20
0.0
 30
0.0
  9
$USERI1
 70
     0
  9
$USERI2
 70
     0
  9
$USERI3
 70
     0
  9
$USERI4
 70
     0
  9
$USERI5
 70
     0
  9
$USERR1
 40
0.0
  9
$USERR2
 40
0.0
  9
$USERR3
 40
0.0
  9
$USERR4
 40
0.0
  9
$USERR5
 40
0.0
  9
$WORLDVIEW
 70
     1
  9
$SHADEDGE
 70
     3
  9
$SHADEDIF
 70
    70
  9
$TILEMODE
 70
     1
  9
$MAXACTVP
 70
    64
  9
$PINSBASE
 10
0.0
 20
0.0
 30
0.0
  9
$PLIMCHECK
 70
     0
  9
$PEXTMIN
 10
1.0000000000E+20
 20
1.0000000000E+20
 30
1.0000000000E+20
  9
$PEXTMAX
 10
-1.0000000000E+20
 20
-1.0000000000E+20
 30
-1.0000000000E+20
  9
$PLIMMIN
 10
0.0
 20
0.0
  9
$PLIMMAX
 10
420.0
 20
297.0
  9
$UNITMODE
 70
     0
  9
$VISRETAIN
 70
     1
  9
$PLINEGEN
 70
     0
  9
$PSLTSCALE
 70
     1
  9
$TREEDEPTH
 70
  3020
  9
$CMLSTYLE
  2
Standard
  9
$CMLJUST
 70
     0
  9
$CMLSCALE
 40
20.0
  9
$PROXYGRAPHICS
 70
     1
  9
$MEASUREMENT
 70
     1
  9
$CELWEIGHT
370
    -1
  9
$ENDCAPS
280
     0
  9
$JOINSTYLE
280
     0
  9
$LWDISPLAY
290
     1
  9
$INSUNITS
 70
     4
  9
$HYPERLINKBASE
  1

  9
$STYLESHEET
  1

  9
$XEDIT
290
     1
  9
$CEPSNTYPE
380
     0
  9
$PSTYLEMODE
290
     1
  9
$FINGERPRINTGUID
  2
{BF5A7365-86B5-4B17-B91D-FE3FD0EE7CF4}
  9
$VERSIONGUID
  2
{FAEB1C32-E019-11D5-929B-00C0DF256EC4}
  9
$EXTNAMES
290
     1
  9
$PSVPSCALE
 40
0.0
  9
$OLESTARTUP
290
     0
  0
ENDSEC
  0
SECTION
  2
CLASSES
  0
CLASS
  1
ACDBDICTIONARYWDFLT
  2
AcDbDictionaryWithDefault
  3
ObjectDBX Classes
 90
        0
280
     0
281
     0
  0
CLASS
  1
VISUALSTYLE
  2
AcDbVisualStyle
  3
ObjectDBX Classes
 90
     4095
280
     0
281
     0
  0
CLASS
  1
MATERIAL
  2
AcDbMaterial
  3
ObjectDBX Classes
 90
     1153
280
     0
281
     0
  0
CLASS
  1
ACDBPLACEHOLDER
  2
AcDbPlaceHolder
  3
ObjectDBX Classes
 90
        0
280
     0
281
     0
  0
CLASS
  1
LAYOUT
  2
AcDbLayout
  3
ObjectDBX Classes
 90
        0
280
     0
281
     0
  0
ENDSEC
  0
SECTION
  2
TABLES
  0
TABLE
  2
VPORT
  5
8
330
0
100
AcDbSymbolTable
 70
     1
  0
VPORT
  5
29
330
8
100
AcDbSymbolTableRecord
100
AcDbViewportTableRecord
  2
*Active
 70
     0
 10
0.0
 20
0.0
 11
1.0
 21
1.0
 12
139.7
 22
107.95
 13
0.0
 23
0.0
 14
10.0
 24
10.0
 15
10.0
 25
10.0
 16
0.0
 26
0.0
 36
1.0
 17
0.0
 27
0.0
 37
0.0
 40
215.9
 41
1.2941176471
 42
50.0
 43
0.0
 44
0.0
 50
0.0
 51
0.0
 71
     0
 72
  2000
 73
     1
 74
     3
 75
     0
 76
     0
 77
     0
 78
     0
281
     0
 65
     1
110
0.0
120
0.0
130
0.0
111
1.0
121
0.0
131
0.0
112
0.0
122
1.0
132
0.0
 79
     0
146
0.0
  0
ENDTAB
  0
TABLE
  2
LTYPE
  5
5
330
0
100
AcDbSymbolTable
 70
     6
  0
LTYPE
  5
14
330
5
100
AcDbSymbolTableRecord
100
AcDbLinetypeTableRecord
  2
ByBlock
 70
     0
  3

 72
    65
 73
     0
 40
0.0
  0
LTYPE
  5
15
330
5
100
AcDbSymbolTableRecord
100
AcDbLinetypeTableRecord
  2
ByLayer
 70
     0
  3

 72
    65
 73
     0
 40
0.0
  0
LTYPE
  5
16
330
5
100
AcDbSymbolTableRecord
100
AcDbLinetypeTableRecord
  2
Continuous
 70
     0
  3
Solid line
 72
    65
 73
     0
 40
0.0
  0
LTYPE
  5
3F
330
5
100
AcDbSymbolTableRecord
100
AcDbLinetypeTableRecord
  2
HIDDEN
 70
     0
  3
Hidden __ __ __ __ __ __ __ __ __ __ __ __ __ __
 72
    65
 73
     2
 40
1.905
 49
1.27
 74
     0
 49
-0.635
 74
     0
  0
LTYPE
  5
40
330
5
100
AcDbSymbolTableRecord
100
AcDbLinetypeTableRecord
  2
PHANTOM
 70
     0
  3
Phantom ______  __  __  ______  __  __  ______
 72
    65
 73
     6
 40
12.7
 49
6.35
 74
     0
 49
-1.27
 74
     0
 49
1.27
 74
     0
 49
-1.27
 74
     0
 49
1.27
 74
     0
 49
-1.27
 74
     0
  0
LTYPE
  5
41
330
5
100
AcDbSymbolTableRecord
100
AcDbLinetypeTableRecord
  2
CENTER
 70
     0
  3
Center ____ _ ____ _ ____ _ ____ _ ____ _ ____
 72
    65
 73
     4
 40
10.16
 49
6.35
 74
     0
 49
-1.27
 74
     0
 49
1.27
 74
     0
 49
-1.27
 74
     0
  0
LTYPE
  5
42
330
5
100
AcDbSymbolTableRecord
100
AcDbLinetypeTableRecord
  2
CENTERX2
 70
     0
  3
Center (2x) ________  __  ________  __  _____
 72
    65
 73
     4
 40
20.32
 49
12.7
 74
     0
 49
-2.54
 74
     0
 49
2.54
 74
     0
 49
-2.54
 74
     0
  0
LTYPE
  5
43
330
5
100
AcDbSymbolTableRecord
100
AcDbLinetypeTableRecord
  2
DOT2
 70
     0
  3
Dot (.5x) ........................................
 72
    65
 73
     2
 40
0.635
 49
0.0
 74
     0
 49
-0.635
 74
     0
  0
ENDTAB
  0
TABLE
  2
LAYER
  5
2
330
0
100
AcDbSymbolTable
 70
     1
  0
LAYER
  5
10
330
2
100
AcDbSymbolTableRecord
100
AcDbLayerTableRecord
  2
0
 70
     0
 62
     7
  6
Continuous
370
    -3
390
F
  0
ENDTAB
  0
TABLE
  2
STYLE
  5
3
330
0
100
AcDbSymbolTable
 70
     1
  0
STYLE
  5
11
330
3
100
AcDbSymbolTableRecord
100
AcDbTextStyleTableRecord
  2
Standard
 70
     0
 40
0.0
 41
1.0
 50
0.0
 71
     0
 42
3.5
  3
txt
  4

  0
ENDTAB
  0
TABLE
  2
VIEW
  5
6
330
0
100
AcDbSymbolTable
 70
     0
  0
ENDTAB
  0
TABLE
  2
UCS
  5
7
330
0
100
AcDbSymbolTable
 70
     0
  0
ENDTAB
  0
TABLE
  2
APPID
  5
9
330
0
100
AcDbSymbolTable
 70
     1
  0
APPID
  5
12
330
9
100
AcDbSymbolTableRecord
100
AcDbRegAppTableRecord
  2
ACAD
 70
     0
  0
ENDTAB
  0
TABLE
  2
DIMSTYLE
  5
A
330
0
100
AcDbSymbolTable
 70
     1
100
AcDbDimStyleTable
  0
DIMSTYLE
105
27
330
A
100
AcDbSymbolTableRecord
100
AcDbDimStyleTableRecord
  2
ISO-25
 70
     0
 41
2.5
 42
0.625
 43
3.75
 44
1.25
 73
     0
 74
     0
 77
     1
 78
     8
140
2.5
141
2.5
143
0.0393700787
147
0.625
171
     3
172
     1
178
     0
271
     2
272
     2
274
     3
278
    44
283
     0
284
     8
340
11
  0
ENDTAB
  0
TABLE
  2
BLOCK_RECORD
  5
1
330
0
100
AcDbSymbolTable
 70
     1
  0
BLOCK_RECORD
  5
1F
330
1
100
AcDbSymbolTableRecord
100
AcDbBlockTableRecord
  2
*Model_Space
340
22
  0
BLOCK_RECORD
  5
1B
330
1
100
AcDbSymbolTableRecord
100
AcDbBlockTableRecord
  2
*Paper_Space
340
1E
  0
BLOCK_RECORD
  5
23
330
1
100
AcDbSymbolTableRecord
100
AcDbBlockTableRecord
  2
*Paper_Space0
340
26
  0
ENDTAB
  0
ENDSEC
  0
SECTION
  2
BLOCKS
  0
BLOCK
  5
20
330
1F
100
AcDbEntity
  8
0
100
AcDbBlockBegin
  2
*Model_Space
 70
     0
 10
0.0
 20
0.0
 30
0.0
  3
*Model_Space
  1

  0
ENDBLK
  5
21
330
1F
100
AcDbEntity
  8
0
100
AcDbBlockEnd
  0
BLOCK
  5
1C
330
1B
100
AcDbEntity
 67
     1
  8
0
100
AcDbBlockBegin
  2
*Paper_Space
 70
     0
 10
0.0
 20
0.0
 30
0.0
  3
*Paper_Space
  1

  0
ENDBLK
  5
1D
330
1B
100
AcDbEntity
 67
     1
  8
0
100
AcDbBlockEnd
  0
BLOCK
  5
24
330
23
100
AcDbEntity
  8
0
100
AcDbBlockBegin
  2
*Paper_Space0
 70
     0
 10
0.0
 20
0.0
 30
0.0
  3
*Paper_Space0
  1

  0
ENDBLK
  5
25
330
23
100
AcDbEntity
  8
0
100
AcDbBlockEnd
  0
ENDSEC
  0
SECTION
  2
ENTITIES
  0
SPLINE
  5
44
330
1F
100
AcDbEntity
  8
0
  6
Continuous
 62
     7
370
    15
100
AcDbSpline
210
0.0
220
0.0
230
1.0
 70
     8
 71
     3
 72
    29
 73
    25
 74
     0
 42
0.00000001
 43
0.00000001
 12
1.0
 22
0.0
 32
0.0
 13
1.0
 23
0.0
 33
0.0
 40
0.0
 40
0.0
 40
0.0
 40
0.0
 40
0.0359029580425774
 40
0.0717218376847076
 40
0.1074705323272345
 40
0.1431630173302236
 40
0.1788133341584014
 40
0.2144355741416967
 40
0.2500438619427426
 40
0.2856523388272401
 40
0.321275145835703
 40
0.3569264069565616
 40
0.3926202124005034
 40
0.4283706020745902
 40
0.4641915493519189
 40
0.5000969452285577
 40
0.5635573316222984
 40
0.62657830382744
 40
0.6892392178120237
 40
0.7516208036555152
 40
0.8138048793548235
 40
0.8758740439703514
 40
0.9379113555564026
 40
1.0
 40
1.0
 40
1.0
 40
1.0
 10
53.61099434243728
 20
159.1884392265194
 30
0.0
 10
53.52723308174887
 20
159.1879971429079
 30
0.0
 10
53.35990671448305
 20
159.1871140109668
 30
0.0
 10
53.10927306924965
 20
159.179551594883
 30
0.0
 10
52.8593225355338
 20
159.1674185308752
 30
0.0
 10
52.61005504546601
 20
159.1502700394166
 30
0.0
 10
52.36147076312936
 20
159.1282249482612
 30
0.0
 10
52.11356979282175
 20
159.1012514752806
 30
0.0
 10
51.86635225542786
 20
159.0693581230832
 30
0.0
 10
51.6198182684918
 20
159.0325426292564
 30
0.0
 10
51.37396794411621
 20
158.9908056189953
 30
0.0
 10
51.12880141170521
 20
158.9441469787715
 30
0.0
 10
50.88431872349106
 20
158.8925667176877
 30
0.0
 10
50.64052020502688
 20
158.8360651468178
 30
0.0
 10
50.39740513952825
 20
158.7746412938247
 30
0.0
 10
50.0931898318112
 20
158.6913906817785
 30
0.0
 10
49.73054510083398
 20
158.5815202462031
 30
0.0
 10
49.31293283062259
 20
158.4387279902302
 30
0.0
 10
48.90303041145233
 20
158.28201537534
 30
0.0
 10
48.50085825825494
 20
158.1113580751785
 30
0.0
 10
48.10636203372233
 20
157.9268442747517
 30
0.0
 10
47.71975170086286
 20
157.72814773045
 30
0.0
 10
47.34025613991761
 20
157.5164869787177
 30
0.0
 10
47.0941400676726
 20
157.3638375830849
 30
0.0
 10
46.9710311403357
 20
157.2874813208402
 30
0.0
  0
SPLINE
  5
45
330
1F
100
AcDbEntity
  8
0
  6
Continuous
 62
     7
370
    15
100
AcDbSpline
210
0.0
220
0.0
230
1.0
 70
     8
 71
     3
 72
     8
 73
     4
 74
     0
 42
0.00000001
 43
0.00000001
 12
1.0
 22
0.0
 32
0.0
 13
1.0
 23
0.0
 33
0.0
 40
0.0
 40
0.0
 40
0.0
 40
0.0
 40
1.0
 40
1.0
 40
1.0
 40
1.0
 10
46.74239823735556
 20
157.2872843615328
 30
0.0
 10
46.81859506538012
 20
157.2879801733352
 30
0.0
 10
46.89464463666659
 20
157.2879359750745
 30
0.0
 10
46.9705144337015
 20
157.2871531792356
 30
0.0
  0
SPLINE
  5
46
330
1F
100
AcDbEntity
  8
0
  6
Continuous
 62
     7
370
    15
100
AcDbSpline
210
0.0
220
0.0
230
1.0
 70
     8
 71
     3
 72
     8
 73
     4
 74
     0
 42
0.00000001
 43
0.00000001
 12
1.0
 22
0.0
 32
0.0
 13
1.0
 23
0.0
 33
0.0
 40
0.0
 40
0.0
 40
0.0
 40
0.0
 40
0.9999974939949549
 40
0.9999974939949549
 40
0.9999974939949549
 40
0.9999974939949549
 10
46.74405948048
 20
157.2849492978387
 30
0.0
 10
48.75762458254229
 20
158.6245690892304
 30
0.0
 10
51.20172427001518
 20
159.3134392265194
 30
0.0
 10
53.61099434243728
 20
159.3134392265194
 30
0.0
  0
LINE
  5
47
330
1F
100
AcDbEntity
  8
0
  6
Continuous
 62
     7
370
    15
100
AcDbLine
 10
53.6109920625
 20
159.1884391688
 30
0.0
 11
53.6109920625
 21
159.3134391893
 31
0.0
  0
LINE
  5
48
330
1F
100
AcDbEntity
  8
0
  6
Continuous
 62
     7
370
    15
100
AcDbLine
 10
88.305145878
 20
165.9517889217
 30
0.0
 11
88.305145878
 21
172.028039147
 31
0.0
  0
ARC
  5
49
330
1F
100
AcDbEntity
  8
0
  6
Continuous
 62
     7
370
    15
100
AcDbCircle
 10
88.9301443424
 20
165.9517892265
 30
0.0
 40
0.625
100
AcDbArc
 50
180.0
 51
270.0
  0
LINE
  5
4A
330
1F
100
AcDbEntity
  8
0
  6
Continuous
 62
     7
370
    15
100
AcDbLine
 10
89.5276743952
 20
165.3267895177
 30
0.0
 11
88.9301452819
 21
165.3267895177
 31
0.0
  0
ARC
  5
4B
330
1F
100
AcDbEntity
  8
0
  6
Continuous
 62
     7
370
    15
100
AcDbCircle
 10
89.5276747483
 20
165.9517892265
 30
0.0
 40
0.624999999999994
100
AcDbArc
 50
270.0
 51
308.0626412969
  0
LINE
  5
4C
330
1F
100
AcDbEntity
  8
0
  6
Continuous
 62
     7
370
    15
100
AcDbLine
 10
94.8448669199
 20
169.3215905994
 30
0.0
 11
89.9129997973
 21
165.4597032189
 31
0.0
  0
ARC
  5
4D
330
1F
100
AcDbEntity
  8
0
  6
Continuous
 62
     7
370
    15
100
AcDbCircle
 10
95.0760639366
 20
169.0263392265
 30
0.0
 40
0.375
100
AcDbArc
 50
90.0
 51
128.0626412969
  0
LINE
  5
4E
330
1F
100
AcDbEntity
  8
0
  6
Continuous
 62
     7
370
    15
100
AcDbLine
 10
99.9573659186
 20
169.4013388202
 30
0.0
 11
95.0760621611
 21
169.4013388202
 31
0.0
  0
ARC
  5
4F
330
1F
100
AcDbEntity
  8
0
  6
Continuous
 62
     7
370
    15
100
AcDbCircle
 10
99.9573664805
 20
170.0263392265
 30
0.0
 40
0.6249999999999972
100
AcDbArc
 50
270.0
 51
11.2753162333
  0
SPLINE
  5
50
330
1F
100
AcDbEntity
  8
0
  6
Continuous
 62
     7
370
    15
100
AcDbSpline
210
0.0
220
0.0
230
1.0
 70
     8
 71
     3
 72
    37
 73
    33
 74
     0
 42
0.00000001
 43
0.00000001
 12
1.0
 22
0.0
 32
0.0
 13
1.0
 23
0.0
 33
0.0
 40
0.0
 40
0.0
 40
0.0
 40
0.0
 40
0.010247768812724
 40
0.0204881369228474
 40
0.030733505477625
 40
0.0409962574972507
 40
0.0512887132591207
 40
0.0616230868059037
 40
0.0720114443276439
 40
0.082465665092254
 40
0.0929974054988333
 40
0.1036180667112334
 40
0.1143387662026964
 40
0.1251703134137182
 40
0.1873856446637508
 40
0.250432328892871
 40
0.3111203839951358
 40
0.371996634984382
 40
0.4346553077440537
 40
0.500561407951768
 40
0.563135698125948
 40
0.6251710423240122
 40
0.687978554198001
 40
0.7494947929526679
 40
0.8125932070759602
 40
0.8743002318716313
 40
0.8958540113550568
 40
0.9170765294200046
 40
0.9380333711336138
 40
0.9587926397815432
 40
0.9794243952468414
 40
0.9999999999999999
 40
0.9999999999999999
 40
0.9999999999999999
 40
0.9999999999999999
 10
88.84131394079061
 20
172.4737512375208
 30
0.0
 10
88.86421687892773
 20
172.5204156306567
 30
0.0
 10
88.91000621522754
 20
172.6137107169787
 30
0.0
 10
88.98481098570235
 20
172.750523476674
 30
0.0
 10
89.06402601067
 20
172.8848918563808
 30
0.0
 10
89.14809485569366
 20
173.0166029242535
 30
0.0
 10
89.23689793442603
 20
173.1457131740928
 30
0.0
 10
89.33046672368809
 20
173.2722068688319
 30
0.0
 10
89.42879207871846
 20
173.3960878215975
 30
0.0
 10
89.53187554889364
 20
173.517354587595
 30
0.0
 10
89.63971656674104
 20
173.6360076252134
 30
0.0
 10
89.75231215852223
 20
173.7520455709203
 30
0.0
 10
89.86967127806336
 20
173.865473009485
 30
0.0
 10
90.184293310145
 20
174.1510102997449
 30
0.0
 10
90.74401393631804
 20
174.5621297839699
 30
0.0
 10
91.59517193528599
 20
174.9787070750411
 30
0.0
 10
92.49566243402279
 20
175.2499129900564
 30
0.0
 10
93.42676355425914
 20
175.3683364133422
 30
0.0
 10
94.39090559081596
 20
175.336017056735
 30
0.0
 10
95.34743785980513
 20
175.1607009992981
 30
0.0
 10
96.27206037484157
 20
174.8727220853382
 30
0.0
 10
97.14145738567936
 20
174.4827917272974
 30
0.0
 10
97.95293599311044
 20
173.9930293203358
 30
0.0
 10
98.69664685905396
 20
173.396479830566
 30
0.0
 10
99.34968711575262
 20
172.7091816224392
 30
0.0
 10
99.7793868898536
 20
172.1001548426876
 30
0.0
 10
100.03961309954
 20
171.6383002351345
 30
0.0
 10
100.1826770438073
 20
171.3482341814698
 30
0.0
 10
100.3076717062252
 20
171.0542969208783
 30
0.0
 10
100.4141477388103
 20
170.756387729735
 30
0.0
 10
100.5037646036642
 20
170.4548520057667
 30
0.0
 10
100.5481439223999
 20
170.2505522176082
 30
0.0
 10
100.5703033452962
 20
170.1485415168495
 30
0.0
  0
ARC
  5
51
330
1F
100
AcDbEntity
  8
0
  6
Continuous
 62
     7
370
    15
100
AcDbCircle
 10
88.7287181405
 20
172.5280392265
 30
0.0
 40
0.1250000000000284
100
AcDbArc
 50
270.0
 51
334.2589910127
  0
LINE
  5
52
330
1F
100
AcDbEntity
  8
0
  6
Continuous
 62
     7
370
    15
100
AcDbLine
 10
88.6801447753
 20
172.4030389756
 30
0.0
 11
88.7287188355
 21
172.4030389756
 31
0.0
  0
ARC
  5
53
330
1F
100
AcDbEntity
  8
0
  6
Continuous
 62
     7
370
    15
100
AcDbCircle
 10
88.6801443424
 20
172.0280392265
 30
0.0
 40
0.375
100
AcDbArc
 50
90.0
 51
180.0
  0
SPLINE
  5
54
330
1F
100
AcDbEntity
  8
0
  6
Continuous
 62
     7
370
    15
100
AcDbSpline
210
0.0
220
0.0
230
1.0
 70
     8
 71
     3
 72
    70
 73
    66
 74
     0
 42
0.00000001
 43
0.00000001
 12
1.0
 22
0.0
 32
0.0
 13
1.0
 23
0.0
 33
0.0
 40
-0.0263057972473288
 40
-0.0164508826782565
 40
-0.0077734803397232
 40
0.0
 40
0.0051896280586354
 40
0.0103756430886542
 40
0.0156577029168521
 40
0.0234978677230904
 40
0.0313481421276838
 40
0.0401578934765295
 40
0.0505135645333972
 40
0.0625393271623368
 40
0.071251226195862
 40
0.0800222847237974
 40
0.0888543820381231
 40
0.0977493587428753
 40
0.106709016689782
 40
0.1157351189943304
 40
0.1248293901271865
 40
0.1476363135414072
 40
0.1683451853453848
 40
0.1869866211003586
 40
0.2191551001345331
 40
0.2493977957865034
 40
0.2649724750383303
 40
0.2805264604945134
 40
0.2961278078348141
 40
0.311843957477204
 40
0.3444150955097034
 40
0.3742957425557271
 40
0.3951111087041119
 40
0.4158252593811868
 40
0.4369804447138413
 40
0.4583956949568171
 40
0.479112581415522
 40
0.4998475816960335
 40
0.5153991121517321
 40
0.5309235559022742
 40
0.5466384972857822
 40
0.5627538063515295
 40
0.5790275230790078
 40
0.5946735753374501
 40
0.6100077746880929
 40
0.6253651836974351
 40
0.6398121770543151
 40
0.6542736812731272
 40
0.6689295041396106
 40
0.6839524777441525
 40
0.699503197353155
 40
0.7157265933354667
 40
0.7327504244684986
 40
0.75068535207078
 40
0.7667379690802788
 40
0.7833158631919607
 40
0.8004450434044305
 40
0.8181490892011694
 40
0.8364493580965549
 40
0.8553651881592944
 40
0.8749140907763242
 40
0.9024061689178575
 40
0.9247628169636143
 40
0.9442603185223825
 40
0.9624739939289064
 40
0.9736942027526712
 40
0.9835491173217435
 40
0.9922265196602768
 40
1.0
 40
1.005189628058635
 40
1.010375643088654
 40
1.015657702916852
 10
91.78492235235613
 20
161.3012013005475
 30
0.0
 10
91.71271232976562
 20
161.4997526776892
 30
0.0
 10
91.6855157864102
 20
161.6739046398692
 30
0.0
 10
91.68257840703573
 20
161.8259141722127
 30
0.0
 10
91.70383754586058
 20
162.0023195318009
 30
0.0
 10
91.76013370915909
 20
162.19883311056
 30
0.0
 10
91.87171148462025
 20
162.4099136619204
 30
0.0
 10
92.0358963256829
 20
162.6147812810159
 30
0.0
 10
92.25171550413651
 20
162.8266056001096
 30
0.0
 10
92.48608014563824
 20
163.0159147542002
 30
0.0
 10
92.71507242378433
 20
163.1865919811219
 30
0.0
 10
92.92081460486682
 20
163.3367696163687
 30
0.0
 10
93.13035087480147
 20
163.4846933751761
 30
0.0
 10
93.34344043168714
 20
163.6307049386339
 30
0.0
 10
93.56015405196081
 20
163.7747021952573
 30
0.0
 10
93.78045134325386
 20
163.9167491980331
 30
0.0
 10
94.11641359077194
 20
164.1266653436078
 30
0.0
 10
94.55372003350242
 20
164.3877444944985
 30
0.0
 10
95.08066901302176
 20
164.6783731797089
 30
0.0
 10
95.70005452157362
 20
164.9878923825852
 30
0.0
 10
96.43005143686756
 20
165.2807654120886
 30
0.0
 10
97.16459371361888
 20
165.4657984874123
 30
0.0
 10
97.75325446340463
 20
165.5483694068316
 30
0.0
 10
98.20460523672057
 20
165.5823624404637
 30
0.0
 10
98.65863449997758
 20
165.5860407317552
 30
0.0
 10
99.27628140733363
 20
165.5514721737356
 30
0.0
 10
100.0268598367199
 20
165.429299483069
 30
0.0
 10
100.7883516033477
 20
165.1470571205593
 30
0.0
 10
101.381476964361
 20
164.7864266538036
 30
0.0
 10
101.8433738105052
 20
164.3888030595725
 30
0.0
 10
102.2395763208206
 20
163.9185307501551
 30
0.0
 10
102.5588630784618
 20
163.3922833187709
 30
0.0
 10
102.7746537584916
 20
162.8192759608217
 30
0.0
 10
102.8666846816204
 20
162.2719606793161
 30
0.0
 10
102.8756391967965
 20
161.7694777405562
 30
0.0
 10
102.8309885622845
 20
161.3177065457103
 30
0.0
 10
102.7315813602112
 20
160.8692006723249
 30
0.0
 10
102.5806597394377
 20
160.4277887563211
 30
0.0
 10
102.3808559421448
 20
160.0065383399051
 30
0.0
 10
102.1279877199316
 20
159.6235188433187
 30
0.0
 10
101.8279687146264
 20
159.2878186737523
 30
0.0
 10
101.4891454645724
 20
159.0095024023003
 30
0.0
 10
101.1253479991035
 20
158.7814855132042
 30
0.0
 10
100.7450079298043
 20
158.5974578842973
 30
0.0
 10
100.3412119049539
 20
158.4552357101989
 30
0.0
 10
99.91440904271471
 20
158.3543568538111
 30
0.0
 10
99.46466169645136
 20
158.2948212497709
 30
0.0
 10
98.99208086069
 20
158.2765582656405
 30
0.0
 10
98.49663579530603
 20
158.2991060419978
 30
0.0
 10
98.00627236265653
 20
158.3603029865118
 30
0.0
 10
97.52458269147937
 20
158.4477833596123
 30
0.0
 10
97.05426659495866
 20
158.5521325529363
 30
0.0
 10
96.57290654754527
 20
158.6787580074973
 30
0.0
 10
96.08042517992642
 20
158.8272862416517
 30
0.0
 10
95.57684612623619
 20
158.9978343861234
 30
0.0
 10
95.06212414372835
 20
159.1903019960802
 30
0.0
 10
94.47102321791546
 20
159.4316600918878
 30
0.0
 10
93.85705835818725
 20
159.7045946730287
 30
0.0
 10
93.25906916982917
 20
160.0108163701266
 30
0.0
 10
92.76601220461033
 20
160.3202445025246
 30
0.0
 10
92.38735716117502
 20
160.6059828848993
 30
0.0
 10
92.1067958620795
 20
160.8636146566194
 30
0.0
 10
91.91947163312419
 20
161.0834934402494
 30
0.0
 10
91.78492235235613
 20
161.3012013005475
 30
0.0
 10
91.71271232976562
 20
161.4997526776892
 30
0.0
 10
91.6855157864102
 20
161.6739046398692
 30
0.0
  0
ARC
  5
55
330
1F
100
AcDbEntity
  8
0
  6
Continuous
 62
     7
370
    15
100
AcDbCircle
 10
57.4621149313
 20
159.8134392265
 30
0.0
 40
0.625
100
AcDbArc
 50
270.0
 51
343.7780320891
  0
SPLINE
  5
56
330
1F
100
AcDbEntity
  8
0
  6
Continuous
 62
     7
370
    15
100
AcDbSpline
210
0.0
220
0.0
230
1.0
 70
     8
 71
     3
 72
    25
 73
    21
 74
     0
 42
0.00000001
 43
0.00000001
 12
1.0
 22
0.0
 32
0.0
 13
1.0
 23
0.0
 33
0.0
 40
0.0
 40
0.0
 40
0.0
 40
0.0
 40
0.0369304866600035
 40
0.0721275512255901
 40
0.105623869029972
 40
0.1374573530083054
 40
0.1676721762127222
 40
0.196320000278052
 40
0.2234614363014233
 40
0.2491677530051447
 40
0.3139330063353583
 40
0.3742291301695945
 40
0.4405903795218802
 40
0.4992661719605937
 40
0.5581767720909181
 40
0.6246971226401911
 40
0.6850523029737643
 40
0.7500327983873402
 40
0.8621808482760125
 40
0.9999999999999999
 40
0.9999999999999999
 40
0.9999999999999999
 40
0.9999999999999999
 10
61.13650709955176
 20
159.6388396802653
 30
0.0
 10
61.11838784158645
 20
159.6991558114648
 30
0.0
 10
61.08299979703958
 20
159.81695698974
 30
0.0
 10
61.0250259109844
 20
159.9875251861825
 30
0.0
 10
60.96499486909511
 20
160.148120406259
 30
0.0
 10
60.90251756613428
 20
160.2986319664639
 30
0.0
 10
60.83769385006998
 20
160.4390976207187
 30
0.0
 10
60.77047091948891
 20
160.5694924505935
 30
0.0
 10
60.7009337132212
 20
160.6898968796372
 30
0.0
 10
60.59101157400271
 20
160.8577151312704
 30
0.0
 10
60.43001846868205
 20
161.059464268939
 30
0.0
 10
60.19052220215135
 20
161.2826703362036
 30
0.0
 10
59.91804909025225
 20
161.451118575134
 30
0.0
 10
59.60353965420661
 20
161.5175006540152
 30
0.0
 10
59.28789851720953
 20
161.4544027931021
 30
0.0
 10
59.01369308759421
 20
161.2870138256155
 30
0.0
 10
58.77295788369441
 20
161.0640037213998
 30
0.0
 10
58.51843891910685
 20
160.7471760843531
 30
0.0
 10
58.2636387950593
 20
160.2695323802881
 30
0.0
 10
58.13381164624588
 20
159.8629876735295
 30
0.0
 10
58.06223158532281
 20
159.6388396802653
 30
0.0
  0
ARC
  5
57
330
1F
100
AcDbEntity
  8
0
  6
Continuous
 62
     7
370
    15
100
AcDbCircle
 10
61.7366237536
 20
159.8134392265
 30
0.0
 40
0.625
100
AcDbArc
 50
196.2219679109
 51
270.0
  0
LINE
  5
58
330
1F
100
AcDbEntity
  8
0
  6
Continuous
 62
     7
370
    15
100
AcDbLine
 10
65.4581975226
 20
159.1884391688
 30
0.0
 11
61.7366250638
 21
159.1884391688
 31
0.0
  0
ARC
  5
59
330
1F
100
AcDbEntity
  8
0
  6
Continuous
 62
     7
370
    15
100
AcDbCircle
 10
65.4581943424
 20
159.8134392265
 30
0.0
 40
0.6250000000000284
100
AcDbArc
 50
270.0
 51
0.0
  0
LINE
  5
5A
330
1F
100
AcDbEntity
  8
0
  6
Continuous
 62
     7
370
    15
100
AcDbLine
 10
66.0831969265
 20
161.4945391499
 30
0.0
 11
66.0831969265
 21
159.8134392712
 31
0.0
  0
ARC
  5
5B
330
1F
100
AcDbEntity
  8
0
  6
Continuous
 62
     7
370
    15
100
AcDbCircle
 10
66.4581943424
 20
161.4945392265
 30
0.0
 40
0.375
100
AcDbArc
 50
90.0
 51
180.0
  0
LINE
  5
5C
330
1F
100
AcDbEntity
  8
0
  6
Continuous
 62
     7
370
    15
100
AcDbLine
 10
67.1005290035
 20
161.8695394442
 30
0.0
 11
66.4581920985
 21
161.8695394442
 31
0.0
  0
ARC
  5
5D
330
1F
100
AcDbEntity
  8
0
  6
Continuous
 62
     7
370
    15
100
AcDbCircle
 10
67.1005278228
 20
161.4945392265
 30
0.0
 40
0.375
100
AcDbArc
 50
50.2873483667
 51
90.0
  0
LINE
  5
5E
330
1F
100
AcDbEntity
  8
0
  6
Continuous
 62
     7
370
    15
100
AcDbLine
 10
70.2902715687
 20
159.3326526068
 30
0.0
 11
67.340132225
 21
161.7830111951
 31
0.0
  0
ARC
  5
5F
330
1F
100
AcDbEntity
  8
0
  6
Continuous
 62
     7
370
    15
100
AcDbCircle
 10
70.6896108621
 20
159.8134392265
 30
0.0
 40
0.6250000000000284
100
AcDbArc
 50
230.2873483667
 51
270.0
  0
LINE
  5
60
330
1F
100
AcDbEntity
  8
0
  6
Continuous
 62
     7
370
    15
100
AcDbLine
 10
74.5463337783
 20
159.1884391688
 30
0.0
 11
70.6896077875
 21
159.1884391688
 31
0.0
  0
ARC
  5
61
330
1F
100
AcDbEntity
  8
0
  6
Continuous
 62
     7
370
    15
100
AcDbCircle
 10
74.5463323574
 20
159.8134392265
 30
0.0
 40
0.625
100
AcDbArc
 50
270.0
 51
348.6094248691
  0
SPLINE
  5
62
330
1F
100
AcDbEntity
  8
0
  6
Continuous
 62
     7
370
    15
100
AcDbSpline
210
0.0
220
0.0
230
1.0
 70
     8
 71
     3
 72
    37
 73
    33
 74
     0
 42
0.00000001
 43
0.00000001
 12
1.0
 22
0.0
 32
0.0
 13
1.0
 23
0.0
 33
0.0
 40
0.0
 40
0.0
 40
0.0
 40
0.0
 40
0.029843145738141
 40
0.0585110281450645
 40
0.08601591052029
 40
0.1123716796398062
 40
0.1375941203606399
 40
0.1617012438841804
 40
0.1847136803451672
 40
0.2066551478847634
 40
0.2275530114679117
 40
0.2474389448258676
 40
0.2824358908523604
 40
0.3146267103551471
 40
0.3442678588400772
 40
0.371687426687061
 40
0.4069547012470108
 40
0.4384266995860467
 40
0.4679298781259234
 40
0.4976558473851059
 40
0.5211783174392942
 40
0.545465525359279
 40
0.5710178831500702
 40
0.598266188745287
 40
0.6436561405309941
 40
0.6936344736674439
 40
0.7487242124967625
 40
0.7873762900636398
 40
0.8292191981909135
 40
0.874364747031251
 40
0.9252169439841954
 40
1.0
 40
1.0
 40
1.0
 40
1.0
 10
79.47276894072823
 20
160.3243078217295
 30
0.0
 10
79.45293432851538
 20
160.4074939102644
 30
0.0
 10
79.41404621787127
 20
160.5705901069675
 30
0.0
 10
79.35098846889706
 20
160.8088913433358
 30
0.0
 10
79.28587667243912
 20
161.0362534908667
 30
0.0
 10
79.21833407126785
 20
161.2525907365884
 30
0.0
 10
79.1484553338188
 20
161.4579273893846
 30
0.0
 10
79.07621387090114
 20
161.6522589828626
 30
0.0
 10
79.00162093744345
 20
161.8355937007813
 30
0.0
 10
78.92464982878276
 20
162.0079194042733
 30
0.0
 10
78.84537856880394
 20
162.1692902633056
 30
0.0
 10
78.74146595343676
 20
162.3600193976496
 30
0.0
 10
78.60986431379936
 20
162.5723042507041
 30
0.0
 10
78.44507674946165
 20
162.7959404058666
 30
0.0
 10
78.27397133151548
 20
162.9867184945952
 30
0.0
 10
78.0753830545731
 20
163.1623221405104
 30
0.0
 10
77.84802246011742
 20
163.310728977843
 30
0.0
 10
77.5876753912951
 20
163.4094179976271
 30
0.0
 10
77.32536306339938
 20
163.4344138118671
 30
0.0
 10
77.08996039659421
 20
163.3871863944938
 30
0.0
 10
76.88482840803579
 20
163.2998456718281
 30
0.0
 10
76.7046555979064
 20
163.1901731268505
 30
0.0
 10
76.53316351636055
 20
163.0498910142576
 30
0.0
 10
76.33886222187228
 20
162.8456313735255
 30
0.0
 10
76.12877162164844
 20
162.5627413457921
 30
0.0
 10
75.91073655513588
 20
162.1900794459351
 30
0.0
 10
75.73524408763885
 20
161.8169138385405
 30
0.0
 10
75.59470025671858
 20
161.4545003649378
 30
0.0
 10
75.4842899520067
 20
161.1116460690288
 30
0.0
 10
75.38048255110668
 20
160.7304067885518
 30
0.0
 10
75.27375945937348
 20
160.252715515612
 30
0.0
 10
75.20183464159501
 20
159.8999713854884
 30
0.0
 10
75.15902215425763
 20
159.6900041715183
 30
0.0
  0
ARC
  5
63
330
1F
100
AcDbEntity
  8
0
  6
Continuous
 62
     7
370
    15
100
AcDbCircle
 10
80.0814749726
 20
160.4660892265
 30
0.0
 40
0.6249999999999928
100
AcDbArc
 50
193.1117032727
 51
270.0
  0
LINE
  5
64
330
1F
100
AcDbEntity
  8
0
  6
Continuous
 62
     7
370
    15
100
AcDbLine
 10
81.9152932648
 20
159.8410893072
 30
0.0
 11
80.0814744119
 21
159.8410893072
 31
0.0
  0
ARC
  5
65
330
1F
100
AcDbEntity
  8
0
  6
Continuous
 62
     7
370
    15
100
AcDbCircle
 10
81.9152943424
 20
160.4660892265
 30
0.0
 40
0.625
100
AcDbArc
 50
270.0
 51
0.0
  0
LINE
  5
66
330
1F
100
AcDbEntity
  8
0
  6
Continuous
 62
     7
370
    15
100
AcDbLine
 10
82.5402926687
 20
160.4772080042
 30
0.0
 11
82.5402926687
 21
160.4660891768
 31
0.0
  0
ARC
  5
67
330
1F
100
AcDbEntity
  8
0
  6
Continuous
 62
     7
370
    15
100
AcDbCircle
 10
82.9152943424
 20
160.4772079519
 30
0.0
 40
0.375
100
AcDbArc
 50
115.1066547753
 51
180.0
  0
LINE
  5
68
330
1F
100
AcDbEntity
  8
0
  6
Continuous
 62
     7
370
    15
100
AcDbLine
 10
85.2672833983
 20
161.9934207134
 30
0.0
 11
82.7561806921
 21
160.8167777609
 31
0.0
  0
ARC
  5
69
330
1F
100
AcDbEntity
  8
0
  6
Continuous
 62
     7
370
    15
100
AcDbCircle
 10
85.0020943424
 20
162.5593705011
 30
0.0
 40
0.625000000000029
100
AcDbArc
 50
295.1066547753
 51
0.0
  0
LINE
  5
6A
330
1F
100
AcDbEntity
  8
0
  6
Continuous
 62
     7
370
    15
100
AcDbLine
 10
85.6270942871
 20
165.8549397558
 30
0.0
 11
85.6270942871
 21
162.5593705408
 31
0.0
  0
ARC
  5
6B
330
1F
100
AcDbEntity
  8
0
  6
Continuous
 62
     7
370
    15
100
AcDbCircle
 10
85.0020943424
 20
165.8549393187
 30
0.0
 40
0.6250000000000142
100
AcDbArc
 50
0.0
 51
46.3805661311
  0
LINE
  5
6C
330
1F
100
AcDbEntity
  8
0
  6
Continuous
 62
     7
370
    15
100
AcDbLine
 10
81.2454450909
 20
170.2981121212
 30
0.0
 11
85.4332599823
 21
166.3074004769
 31
0.0
  0
ARC
  5
6D
330
1F
100
AcDbEntity
  8
0
  6
Continuous
 62
     7
370
    15
100
AcDbCircle
 10
81.5041443424
 20
170.5695891344
 30
0.0
 40
0.3750000000000112
100
AcDbArc
 50
180.0
 51
226.3805661311
  0
LINE
  5
6E
330
1F
100
AcDbEntity
  8
0
  6
Continuous
 62
     7
370
    15
100
AcDbLine
 10
81.1291452531
 20
171.7780395717
 30
0.0
 11
81.1291452531
 21
170.5695889264
 31
0.0
  0
ARC
  5
6F
330
1F
100
AcDbEntity
  8
0
  6
Continuous
 62
     7
370
    15
100
AcDbCircle
 10
81.5041443424
 20
171.7780392265
 30
0.0
 40
0.375
100
AcDbArc
 50
90.0
 51
180.0
  0
LINE
  5
70
330
1F
100
AcDbEntity
  8
0
  6
Continuous
 62
     7
370
    15
100
AcDbLine
 10
84.736381102
 20
172.1530394003
 30
0.0
 11
81.5041441504
 21
172.1530394003
 31
0.0
  0
ARC
  5
71
330
1F
100
AcDbEntity
  8
0
  6
Continuous
 62
     7
370
    15
100
AcDbCircle
 10
84.7363795072
 20
172.7780392265
 30
0.0
 40
0.625
100
AcDbArc
 50
270.0
 51
357.2003609777
  0
SPLINE
  5
72
330
1F
100
AcDbEntity
  8
0
  6
Continuous
 62
     7
370
    15
100
AcDbSpline
210
0.0
220
0.0
230
1.0
 70
     8
 71
     3
 72
    49
 73
    45
 74
     0
 42
0.00000001
 43
0.00000001
 12
1.0
 22
0.0
 32
0.0
 13
1.0
 23
0.0
 33
0.0
 40
0.0
 40
0.0
 40
0.0
 40
0.0
 40
0.0083791149220765
 40
0.0167302567420889
 40
0.0250583765988494
 40
0.033368466780622
 40
0.0416655521206578
 40
0.0499546811026736
 40
0.0582409167529055
 40
0.0665293273998188
 40
0.074824977385358
 40
0.0831329178126422
 40
0.0914581774142429
 40
0.0998057536226287
 40
0.1081806039201317
 40
0.1165876375400466
 40
0.1250317075834079
 40
0.1559244516878393
 40
0.1868858842592666
 40
0.218161044893105
 40
0.2499877276560634
 40
0.3120216500784935
 40
0.3748146326392053
 40
0.4369252264538899
 40
0.499526056161637
 40
0.563347979703543
 40
0.6239218416530369
 40
0.6490814246784888
 40
0.6740208910196188
 40
0.6988826171814674
 40
0.7238103117622696
 40
0.7489465519242634
 40
0.8121551805291316
 40
0.8741137450242501
 40
0.8904128050633697
 40
0.906280834981067
 40
0.9217908976264068
 40
0.9370212084419843
 40
0.947925077806108
 40
0.9586154055614221
 40
0.9691288207148776
 40
0.979503826215044
 40
0.9897804808426341
 40
1.0
 40
1.0
 40
1.0
 40
1.0
 10
103.8626443424373
 20
169.2441392265194
 30
0.0
 10
103.8619868642403
 20
169.3196257692953
 30
0.0
 10
103.8606741027924
 20
169.4703468481871
 30
0.0
 10
103.8517734017861
 20
169.6959507805005
 30
0.0
 10
103.8377927370705
 20
169.9206577329525
 30
0.0
 10
103.8182392175998
 20
170.1444666380133
 30
0.0
 10
103.7932443553714
 20
170.3673774707079
 30
0.0
 10
103.7627729958036
 20
170.5893899221734
 30
0.0
 10
103.7268345518867
 20
170.8105037575949
 30
0.0
 10
103.68542654275
 20
171.0307187245392
 30
0.0
 10
103.6385497230955
 20
171.2500345808469
 30
0.0
 10
103.5862039329886
 20
171.4684510926953
 30
0.0
 10
103.5283895763129
 20
171.6859680319403
 30
0.0
 10
103.4651058449176
 20
171.9025852051771
 30
0.0
 10
103.3963563545914
 20
172.1183023546847
 30
0.0
 10
103.3221282655215
 20
172.333119540538
 30
0.0
 10
103.1720250926827
 20
172.7362130938715
 30
0.0
 10
102.9175353463571
 20
173.317178443346
 30
0.0
 10
102.5127761138529
 20
174.0532896008311
 30
0.0
 10
102.0397195110152
 20
174.7577226784746
 30
0.0
 10
101.3326026373471
 20
175.6370901342328
 30
0.0
 10
100.3166264466547
 20
176.6263016167821
 30
0.0
 10
98.93008641275947
 20
177.5941440237501
 30
0.0
 10
97.40901622066428
 20
178.3436990125893
 30
0.0
 10
95.78314515631637
 20
178.8554689688041
 30
0.0
 10
94.11138295596946
 20
179.1188476667155
 30
0.0
 10
92.75557720313321
 20
179.0789925046645
 30
0.0
 10
91.77144074125552
 20
178.9147041373546
 30
0.0
 10
91.11463614704319
 20
178.7548736034219
 30
0.0
 10
90.47401876308837
 20
178.5458527450932
 30
0.0
 10
89.8493994288061
 20
178.2881489817442
 30
0.0
 10
88.93771038522613
 20
177.8282902387495
 30
0.0
 10
87.80720451938694
 20
177.0681342526022
 30
0.0
 10
86.89851103471868
 20
176.1615650593345
 30
0.0
 10
86.37929173761711
 20
175.4907129796813
 30
0.0
 10
86.1400029700544
 20
175.133577299989
 30
0.0
 10
85.93074644818532
 20
174.769165199644
 30
0.0
 10
85.76787639670303
 20
174.4307973151698
 30
0.0
 10
85.64361339676144
 20
174.1230274271937
 30
0.0
 10
85.55090691972153
 20
173.8488633796508
 30
0.0
 10
85.47586180127587
 20
173.5742568544404
 30
0.0
 10
85.41894120340804
 20
173.2991866786407
 30
0.0
 10
85.37851080246412
 20
173.0237401834457
 30
0.0
 10
85.36658153966593
 20
172.8394168224421
 30
0.0
 10
85.36063353537115
 20
172.7475120533526
 30
0.0
  0
LINE
  5
73
330
1F
100
AcDbEntity
  8
0
  6
Continuous
 62
     7
370
    15
100
AcDbLine
 10
103.8626436178
 20
165.9517889217
 30
0.0
 11
103.8626436178
 21
169.2441390202
 31
0.0
  0
ARC
  5
74
330
1F
100
AcDbEntity
  8
0
  6
Continuous
 62
     7
370
    15
100
AcDbCircle
 10
104.4876443424
 20
165.9517892265
 30
0.0
 40
0.6250000000000142
100
AcDbArc
 50
180.0
 51
270.0
  0
LINE
  5
75
330
1F
100
AcDbEntity
  8
0
  6
Continuous
 62
     7
370
    15
100
AcDbLine
 10
104.5897495035
 20
165.3267895177
 30
0.0
 11
104.4876430217
 21
165.3267895177
 31
0.0
  0
ARC
  5
76
330
1F
100
AcDbEntity
  8
0
  6
Continuous
 62
     7
370
    15
100
AcDbCircle
 10
104.5897479284
 20
164.9517892265
 30
0.0
 40
0.375
100
AcDbArc
 50
12.2212026595
 51
90.0
  0
LINE
  5
77
330
1F
100
AcDbEntity
  8
0
  6
Continuous
 62
     7
370
    15
100
AcDbLine
 10
105.6145545129
 20
161.9918351367
 30
0.0
 11
104.9562510137
 21
165.0311714344
 31
0.0
  0
ARC
  5
78
330
1F
100
AcDbEntity
  8
0
  6
Continuous
 62
     7
370
    15
100
AcDbCircle
 10
106.2253907565
 20
162.1241392265
 30
0.0
 40
0.6250000000000284
100
AcDbArc
 50
192.2212026595
 51
270.0
  0
LINE
  5
79
330
1F
100
AcDbEntity
  8
0
  6
Continuous
 62
     7
370
    15
100
AcDbLine
 10
106.4645651762
 20
161.4991394177
 30
0.0
 11
106.2253903631
 21
161.4991394177
 31
0.0
  0
ARC
  5
7A
330
1F
100
AcDbEntity
  8
0
  6
Continuous
 62
     7
370
    15
100
AcDbCircle
 10
106.4645635635
 20
162.1241392265
 30
0.0
 40
0.625
100
AcDbArc
 50
270.0
 51
332.4906898725
  0
SPLINE
  5
7B
330
1F
100
AcDbEntity
  8
0
  6
Continuous
 62
     7
370
    15
100
AcDbSpline
210
0.0
220
0.0
230
1.0
 70
     8
 71
     3
 72
    34
 73
    30
 74
     0
 42
0.00000001
 43
0.00000001
 12
1.0
 22
0.0
 32
0.0
 13
1.0
 23
0.0
 33
0.0
 40
0.0
 40
0.0
 40
0.0
 40
0.0
 40
0.0222292571173779
 40
0.0441439112925354
 40
0.0657561921029298
 40
0.0870788494097041
 40
0.1081251594426119
 40
0.1289089280124504
 40
0.1494444904472194
 40
0.1697467078542965
 40
0.1898309593305259
 40
0.2097131297769566
 40
0.2294095930266283
 40
0.2489371900629952
 40
0.3194098732986685
 40
0.3836321403943504
 40
0.4430178098034727
 40
0.4993460753831694
 40
0.5616141284967816
 40
0.6215200412321169
 40
0.6829510023636769
 40
0.7495276067622206
 40
0.7820254464177739
 40
0.8152955371134882
 40
0.8495493217970519
 40
0.8849806366614308
 40
0.9217647073784316
 40
0.96005819405217
 40
1.0
 40
1.0
 40
1.0
 40
1.0
 10
113.6152628989811
 20
160.297615904201
 30
0.0
 10
113.5955262741776
 20
160.3661101387817
 30
0.0
 10
113.556332350155
 20
160.5021292328708
 30
0.0
 10
113.4920315428149
 20
160.7029624889041
 30
0.0
 10
113.4242096728076
 20
160.8995481259809
 30
0.0
 10
113.3524572725787
 20
161.0917711246091
 30
0.0
 10
113.2768814253103
 20
161.2796614948788
 30
0.0
 10
113.1974536113164
 20
161.4632110975989
 30
0.0
 10
113.1141809637506
 20
161.642421864423
 30
0.0
 10
113.0270611624975
 20
161.8172926458982
 30
0.0
 10
112.9360947534799
 20
161.9878244377882
 30
0.0
 10
112.8412802550087
 20
162.15401250757
 30
0.0
 10
112.742621565436
 20
162.3158723679172
 30
0.0
 10
112.5507123391019
 20
162.610654104521
 30
0.0
 10
112.2526875319469
 20
163.0069819212852
 30
0.0
 10
111.8136746343105
 20
163.4511125438111
 30
0.0
 10
111.3449837697175
 20
163.7928033233172
 30
0.0
 10
110.826283348065
 20
164.0385416355034
 30
0.0
 10
110.2641977555995
 20
164.1729659496455
 30
0.0
 10
109.6688223758219
 20
164.1606507324304
 30
0.0
 10
109.0841981888339
 20
163.9910112693353
 30
0.0
 10
108.6324268879366
 20
163.7364226193059
 30
0.0
 10
108.292874665784
 20
163.4814361251968
 30
0.0
 10
108.0527354499434
 20
163.2682631381888
 30
0.0
 10
107.8234209217317
 20
163.0303727088368
 30
0.0
 10
107.6047563889376
 20
162.7678100619482
 30
0.0
 10
107.3971104572452
 20
162.4804195081981
 30
0.0
 10
107.1989721050652
 20
162.1689818145327
 30
0.0
 10
107.0797602051507
 20
161.9481821051186
 30
0.0
 10
107.0188984327524
 20
161.835456264245
 30
0.0
  0
ARC
  5
7C
330
1F
100
AcDbEntity
  8
0
  6
Continuous
 62
     7
370
    15
100
AcDbCircle
 10
114.2171281162
 20
160.4660892265
 30
0.0
 40
0.6250000000000033
100
AcDbArc
 50
195.6379262628
 51
270.0
  0
LINE
  5
7D
330
1F
100
AcDbEntity
  8
0
  6
Continuous
 62
     7
370
    15
100
AcDbLine
 10
117.6789425347
 20
159.8410893072
 30
0.0
 11
114.2171289806
 21
159.8410893072
 31
0.0
  0
ARC
  5
7E
330
1F
100
AcDbEntity
  8
0
  6
Continuous
 62
     7
370
    15
100
AcDbCircle
 10
117.6789421106
 20
160.4660892265
 30
0.0
 40
0.6249999999999861
100
AcDbArc
 50
270.0
 51
341.1891607357
  0
SPLINE
  5
7F
330
1F
100
AcDbEntity
  8
0
  6
Continuous
 62
     7
370
    15
100
AcDbSpline
210
0.0
220
0.0
230
1.0
 70
     8
 71
     3
 72
    36
 73
    32
 74
     0
 42
0.00000001
 43
0.00000001
 12
1.0
 22
0.0
 32
0.0
 13
1.0
 23
0.0
 33
0.0
 40
0.0
 40
0.0
 40
0.0
 40
0.0
 40
0.0192617058043575
 40
0.0382343516629951
 40
0.0569318136279434
 40
0.0753685890958457
 40
0.0935597987325594
 40
0.1115211833982683
 40
0.1292690954682017
 40
0.1468204839957329
 40
0.1641928732475443
 40
0.1814043342563682
 40
0.1984734491856751
 40
0.2154192684798614
 40
0.2322612609778522
 40
0.2490192573892182
 40
0.3134998589981001
 40
0.3742014311299753
 40
0.4378540549211433
 40
0.4990660895234705
 40
0.5606272878046515
 40
0.6245045021925694
 40
0.6852181476045456
 40
0.7497188395034363
 40
0.783470533099661
 40
0.8176426323312169
 40
0.852391766473387
 40
0.8878669224819358
 40
0.9242081590664637
 40
0.9615457898377849
 40
1.0
 40
1.0
 40
1.0
 40
1.0
 10
125.1059957985253
 20
160.264583064989
 30
0.0
 10
125.0850342764521
 20
160.3245961568975
 30
0.0
 10
125.0434258013523
 20
160.4437217257188
 30
0.0
 10
124.975553813927
 20
160.6189486685147
 30
0.0
 10
124.9042685601059
 20
160.7898531528495
 30
0.0
 10
124.8291608794206
 20
160.9562957134191
 30
0.0
 10
124.7503375507544
 20
161.1183125494536
 30
0.0
 10
124.6677700685665
 20
161.2758937124346
 30
0.0
 10
124.5814654586624
 20
161.4290412834262
 30
0.0
 10
124.4914215104054
 20
161.5777541148042
 30
0.0
 10
124.3976383184047
 20
161.7220317894937
 30
0.0
 10
124.3001161407276
 20
161.8618737887329
 30
0.0
 10
124.1988527383785
 20
161.9972789776676
 30
0.0
 10
124.0938560340704
 20
162.1282484998581
 30
0.0
 10
123.9850966646371
 20
162.254774892529
 30
0.0
 10
123.7658756869681
 20
162.4929018411482
 30
0.0
 10
123.4177668566082
 20
162.8096662278203
 30
0.0
 10
122.889272240048
 20
163.1456943120286
 30
0.0
 10
122.3131632152726
 20
163.3685856819074
 30
0.0
 10
121.6966800777896
 20
163.4469474454212
 30
0.0
 10
121.0789147598275
 20
163.3723774035176
 30
0.0
 10
120.4996790119884
 20
163.1520913278951
 30
0.0
 10
119.9689898411811
 20
162.817756949369
 30
0.0
 10
119.578221275929
 20
162.4641322778847
 30
0.0
 10
119.287095191719
 20
162.1379148801684
 30
0.0
 10
119.0790022477376
 20
161.8701578104413
 30
0.0
 10
118.886166358855
 20
161.5843816643985
 30
0.0
 10
118.7083777177478
 20
161.2806730858682
 30
0.0
 10
118.5460617725082
 20
160.9589026254461
 30
0.0
 10
118.3976169153036
 20
160.6196230608613
 30
0.0
 10
118.3133260900968
 20
160.3840719084133
 30
0.0
 10
118.2705597834955
 20
160.2645612406604
 30
0.0
  0
ARC
  5
80
330
1F
100
AcDbEntity
  8
0
  6
Continuous
 62
     7
370
    15
100
AcDbCircle
 10
125.6976209052
 20
160.4660892265
 30
0.0
 40
0.6250000000000151
100
AcDbArc
 50
198.8087256796
 51
270.0
  0
LINE
  5
81
330
1F
100
AcDbEntity
  8
0
  6
Continuous
 62
     7
370
    15
100
AcDbLine
 10
131.6225318272
 20
159.8410893072
 30
0.0
 11
125.6976205889
 21
159.8410893072
 31
0.0
  0
ARC
  5
82
330
1F
100
AcDbEntity
  8
0
  6
Continuous
 62
     7
370
    15
100
AcDbCircle
 10
131.6225322289
 20
160.4660892265
 30
0.0
 40
0.6250000000000193
100
AcDbArc
 50
270.0
 51
342.3641245547
  0
ARC
  5
83
330
1F
100
AcDbEntity
  8
0
  6
Continuous
 62
     7
370
    15
100
AcDbCircle
 10
141.6290443424
 20
157.2849392265
 30
0.0
 40
9.874999999999986
100
AcDbArc
 50
197.6358754453
 51
162.3641245547
  0
ARC
  5
84
330
1F
100
AcDbEntity
  8
0
  6
Continuous
 62
     7
370
    15
100
AcDbCircle
 10
131.6225322289
 20
154.1037892265
 30
0.0
 40
0.6250000000000193
100
AcDbArc
 50
17.6358754453
 51
90.0
  0
LINE
  5
85
330
1F
100
AcDbEntity
  8
0
  6
Continuous
 62
     7
370
    15
100
AcDbLine
 10
125.6976205889
 20
154.7287891459
 30
0.0
 11
131.6225318272
 21
154.7287891459
 31
0.0
  0
ARC
  5
86
330
1F
100
AcDbEntity
  8
0
  6
Continuous
 62
     7
370
    15
100
AcDbCircle
 10
125.6976209052
 20
154.1037892265
 30
0.0
 40
0.6249999999999881
100
AcDbArc
 50
90.0
 51
161.1912743204
  0
SPLINE
  5
87
330
1F
100
AcDbEntity
  8
0
  6
Continuous
 62
     7
370
    15
100
AcDbSpline
210
0.0
220
0.0
230
1.0
 70
     8
 71
     3
 72
    36
 73
    32
 74
     0
 42
0.00000001
 43
0.00000001
 12
1.0
 22
0.0
 32
0.0
 13
1.0
 23
0.0
 33
0.0
 40
0.0
 40
0.0
 40
0.0
 40
0.0
 40
0.0192684471143243
 40
0.0382468637393918
 40
0.0569491175762737
 40
0.0753896993770518
 40
0.0935837251358173
 40
0.1115469332862997
 40
0.1292956762950863
 40
0.1468469060899975
 40
0.1642181528449971
 40
0.1814274967581083
 40
0.1984935326072448
 40
0.2154353270480843
 40
0.2322723688231347
 40
0.2490245122734912
 40
0.313495674590311
 40
0.3742112847348667
 40
0.4378973982370438
 40
0.4990781355151489
 40
0.5606696233282047
 40
0.6245163618441749
 40
0.6852211594666225
 40
0.749727188832376
 40
0.7834928959963916
 40
0.817674171520864
 40
0.8524274334988354
 40
0.8879015345469887
 40
0.9242364692197721
 40
0.961562547444142
 40
1.0
 40
1.0
 40
1.0
 40
1.0
 10
118.2705597834955
 20
154.3053172123784
 30
0.0
 10
118.2915305514675
 20
154.2452837853534
 30
0.0
 10
118.3331564334276
 20
154.1261205601278
 30
0.0
 10
118.4010515349606
 20
153.9508413491284
 30
0.0
 10
118.4723557578534
 20
153.7798933985473
 30
0.0
 10
118.5474781130235
 20
153.6134161368423
 30
0.0
 10
118.626311870992
 20
153.4513733752591
 30
0.0
 10
118.7088855250674
 20
153.2937750573086
 30
0.0
 10
118.795192056403
 20
153.140619102169
 30
0.0
 10
118.8852336776528
 20
152.9919066570373
 30
0.0
 10
118.9790102963068
 20
152.847638137708
 30
0.0
 10
119.0765216628574
 20
152.7078140688315
 30
0.0
 10
119.1777699996063
 20
152.5724355668989
 30
0.0
 10
119.2827474615807
 20
152.4415015626923
 30
0.0
 10
119.3914831367943
 20
152.3150192530773
 30
0.0
 10
119.6106824298883
 20
152.0769630674415
 30
0.0
 10
119.9588309524838
 20
151.7602460870135
 30
0.0
 10
120.4874228280269
 20
151.4241680750796
 30
0.0
 10
121.063523808444
 20
151.2010601566942
 30
0.0
 10
121.680168531253
 20
151.1229216765219
 30
0.0
 10
122.2977765426828
 20
151.1977308252506
 30
0.0
 10
122.87703586333
 20
151.417818236401
 30
0.0
 10
123.4076471675221
 20
151.7520986355656
 30
0.0
 10
123.7983841856562
 20
152.1058095809764
 30
0.0
 10
124.0895275868175
 20
152.4321370559112
 30
0.0
 10
124.2976627777092
 20
152.6999748415551
 30
0.0
 10
124.4905181504081
 20
152.9857864445397
 30
0.0
 10
124.6683056037725
 20
153.2894832559979
 30
0.0
 10
124.8305986394347
 20
153.6111953615746
 30
0.0
 10
124.9789999074641
 20
153.9503695249865
 30
0.0
 10
125.063251871154
 20
154.1858354182333
 30
0.0
 10
125.1059957985253
 20
154.3052953880498
 30
0.0
  0
ARC
  5
88
330
1F
100
AcDbEntity
  8
0
  6
Continuous
 62
     7
370
    15
100
AcDbCircle
 10
117.6789421106
 20
154.1037892265
 30
0.0
 40
0.6249999999999996
100
AcDbArc
 50
18.8108392643
 51
90.0
  0
LINE
  5
89
330
1F
100
AcDbEntity
  8
0
  6
Continuous
 62
     7
370
    15
100
AcDbLine
 10
114.2171289806
 20
154.7287891459
 30
0.0
 11
117.6789425347
 21
154.7287891459
 31
0.0
  0
ARC
  5
8A
330
1F
100
AcDbEntity
  8
0
  6
Continuous
 62
     7
370
    15
100
AcDbCircle
 10
114.2171281162
 20
154.1037892265
 30
0.0
 40
0.625000000000011
100
AcDbArc
 50
90.0
 51
164.3620737372
  0
SPLINE
  5
8B
330
1F
100
AcDbEntity
  8
0
  6
Continuous
 62
     7
370
    15
100
AcDbSpline
210
0.0
220
0.0
230
1.0
 70
     8
 71
     3
 72
    36
 73
    32
 74
     0
 42
0.00000001
 43
0.00000001
 12
1.0
 22
0.0
 32
0.0
 13
1.0
 23
0.0
 33
0.0
 40
0.0
 40
0.0
 40
0.0
 40
0.0
 40
0.0200554722457872
 40
0.0396867020728067
 40
0.0589090633021141
 40
0.0777389312551244
 40
0.0961937260850496
 40
0.1142919510391843
 40
0.1320532237963762
 40
0.1494982988208429
 40
0.1666490785247573
 40
0.1835286109674583
 40
0.2001610718709212
 40
0.2165717289301396
 40
0.2327868867682338
 40
0.2488338114425272
 40
0.315482417930959
 40
0.3770417872295826
 40
0.4371233824651499
 40
0.499595481514796
 40
0.5443103837484363
 40
0.5907996637553921
 40
0.6400467458631576
 40
0.6928812828958186
 40
0.7499767536228821
 40
0.7895058903089287
 40
0.829724019105894
 40
0.8707627213060097
 40
0.9127458635200647
 40
0.9557891596254595
 40
1.0
 40
1.0
 40
1.0
 40
1.0
 10
107.0188984327524
 20
152.7344221887937
 30
0.0
 10
107.0490538221837
 20
152.6776137668697
 30
0.0
 10
107.1087267105399
 20
152.5651986171044
 30
0.0
 10
107.2029904092402
 20
152.4014524637043
 30
0.0
 10
107.2995383516628
 20
152.243649455784
 30
0.0
 10
107.3987585399186
 20
152.0919914102952
 30
0.0
 10
107.5005511655218
 20
151.9464262723963
 30
0.0
 10
107.6049431259423
 20
151.8069680711461
 30
0.0
 10
107.7119284013372
 20
151.673613825484
 30
0.0
 10
107.8215094665959
 20
151.5463651859831
 30
0.0
 10
107.9336866559478
 20
151.4252227104922
 30
0.0
 10
108.0484602543675
 20
151.3101877340986
 30
0.0
 10
108.1658322260086
 20
151.2012604985239
 30
0.0
 10
108.2857972421676
 20
151.0984456441893
 30
0.0
 10
108.4083759933359
 20
151.0017323567075
 30
0.0
 10
108.6652922916397
 20
150.8157641262502
 30
0.0
 10
109.0705254103475
 20
150.585162061133
 30
0.0
 10
109.6555492661804
 20
150.4126232262635
 30
0.0
 10
110.252442394146
 20
150.3971508732433
 30
0.0
 10
110.7801246961406
 20
150.5195747778617
 30
0.0
 10
111.2325496076239
 20
150.7192142653646
 30
0.0
 10
111.6129916225064
 20
150.9634766180147
 30
0.0
 10
111.975633439031
 20
151.2744610677088
 30
0.0
 10
112.3207317433769
 20
151.6520191927625
 30
0.0
 10
112.6061042442617
 20
152.0380081723175
 30
0.0
 10
112.8407182683768
 20
152.4090893058211
 30
0.0
 10
113.0282716794905
 20
152.7482278493111
 30
0.0
 10
113.2000095082269
 20
153.1043869743911
 30
0.0
 10
113.3555055415665
 20
153.4777052825819
 30
0.0
 10
113.4963813653772
 20
153.8677184191766
 30
0.0
 10
113.5752837909981
 20
154.1362169162378
 30
0.0
 10
113.6152628989811
 20
154.2722625488377
 30
0.0
  0
ARC
  5
8C
330
1F
100
AcDbEntity
  8
0
  6
Continuous
 62
     7
370
    15
100
AcDbCircle
 10
106.4645635635
 20
152.4457392265
 30
0.0
 40
0.625
100
AcDbArc
 50
27.5093101275
 51
90.0
  0
LINE
  5
8D
330
1F
100
AcDbEntity
  8
0
  6
Continuous
 62
     7
370
    15
100
AcDbLine
 10
106.2253903631
 20
153.0707390353
 30
0.0
 11
106.4645651762
 21
153.0707390353
 31
0.0
  0
ARC
  5
8E
330
1F
100
AcDbEntity
  8
0
  6
Continuous
 62
     7
370
    15
100
AcDbCircle
 10
106.2253907565
 20
152.4457392265
 30
0.0
 40
0.6250000000000093
100
AcDbArc
 50
90.0
 51
167.7787973405
  0
LINE
  5
8F
330
1F
100
AcDbEntity
  8
0
  6
Continuous
 62
     7
370
    15
100
AcDbLine
 10
104.9562510137
 20
149.5387070187
 30
0.0
 11
105.6145545129
 21
152.5780433163
 31
0.0
  0
ARC
  5
90
330
1F
100
AcDbEntity
  8
0
  6
Continuous
 62
     7
370
    15
100
AcDbCircle
 10
104.5897479284
 20
149.6180892265
 30
0.0
 40
0.3750000000000108
100
AcDbArc
 50
270.0
 51
347.7787973405
  0
LINE
  5
91
330
1F
100
AcDbEntity
  8
0
  6
Continuous
 62
     7
370
    15
100
AcDbLine
 10
104.4876430217
 20
149.2430889353
 30
0.0
 11
104.5897495035
 21
149.2430889353
 31
0.0
  0
ARC
  5
92
330
1F
100
AcDbEntity
  8
0
  6
Continuous
 62
     7
370
    15
100
AcDbCircle
 10
104.4876443424
 20
148.6180892265
 30
0.0
 40
0.6250000000000142
100
AcDbArc
 50
90.0
 51
180.0
  0
LINE
  5
93
330
1F
100
AcDbEntity
  8
0
  6
Continuous
 62
     7
370
    15
100
AcDbLine
 10
103.8626436178
 20
145.3257394329
 30
0.0
 11
103.8626436178
 21
148.6180895314
 31
0.0
  0
SPLINE
  5
94
330
1F
100
AcDbEntity
  8
0
  6
Continuous
 62
     7
370
    15
100
AcDbSpline
210
0.0
220
0.0
230
1.0
 70
     8
 71
     3
 72
    56
 73
    52
 74
     0
 42
0.00000001
 43
0.00000001
 12
1.0
 22
0.0
 32
0.0
 13
1.0
 23
0.0
 33
0.0
 40
0.0
 40
0.0
 40
0.0
 40
0.0
 40
0.005662412405557
 40
0.0113177540932953
 40
0.0169723817884754
 40
0.0226326546218891
 40
0.0283049127381803
 40
0.0339954562217627
 40
0.0397105246859906
 40
0.0454562778459027
 40
0.0512387773582273
 40
0.0570639701667953
 40
0.0629376735399241
 40
0.0688655619317192
 40
0.0748531557445309
 40
0.0809058120176407
 40
0.0870287170197764
 40
0.0932268806818217
 40
0.0995051327721237
 40
0.1058681206904545
 40
0.1123203087379178
 40
0.118865978708394
 40
0.1255092316417485
 40
0.1563367966668478
 40
0.1872806312703674
 40
0.218631670107169
 40
0.2506697564093618
 40
0.2922789659802885
 40
0.3337382589094508
 40
0.3757115589697608
 40
0.3997641555465772
 40
0.4241512025460934
 40
0.4490131769094858
 40
0.4744826984156923
 40
0.5006831627414269
 40
0.5633435221135988
 40
0.6254052730179976
 40
0.6881012406883577
 40
0.7499626695165548
 40
0.7817344623251741
 40
0.8129559335086979
 40
0.8438627358035642
 40
0.8746977372461604
 40
0.8905253250934598
 40
0.9062393679361903
 40
0.9218726667017955
 40
0.9374585321111498
 40
0.9530305792872493
 40
0.9686225127267926
 40
0.9842679084055205
 40
0.9999999999999999
 40
0.9999999999999999
 40
0.9999999999999999
 40
0.9999999999999999
 10
85.36063353537115
 20
141.8223663996862
 30
0.0
 10
85.36366224731431
 20
141.7714262334468
 30
0.0
 10
85.36971588921409
 20
141.6696095105246
 30
0.0
 10
85.38526811958633
 20
141.5174163926544
 30
0.0
 10
85.40555081974763
 20
141.3658220702166
 30
0.0
 10
85.43102742181338
 20
141.2148501645952
 30
0.0
 10
85.46157350357694
 20
141.0644950481821
 30
0.0
 10
85.49722218099689
 20
140.914758898156
 30
0.0
 10
85.53796417520441
 20
140.7656417435773
 30
0.0
 10
85.58380154272406
 20
140.6171441280346
 30
0.0
 10
85.63473322760741
 20
140.4692663840766
 30
0.0
 10
85.69075896984332
 20
140.3220088225868
 30
0.0
 10
85.75187826446312
 20
140.1753716786031
 30
0.0
 10
85.81809065608334
 20
140.0293551246021
 30
0.0
 10
85.88939567545964
 20
139.8839592721533
 30
0.0
 10
85.96579285643863
 20
139.7391841633222
 30
0.0
 10
86.04728178768576
 20
139.595029825567
 30
0.0
 10
86.13386193236316
 20
139.4514960866491
 30
0.0
 10
86.22553334850905
 20
139.3085833070875
 30
0.0
 10
86.32229396859825
 20
139.1662896236489
 30
0.0
 10
86.42414997683109
 20
139.0246214797094
 30
0.0
 10
86.53107626541257
 20
138.8835535200917
 30
0.0
 10
86.77858959722667
 20
138.5735917384062
 30
0.0
 10
87.19255027792214
 20
138.1152116186989
 30
0.0
 10
87.81380781054737
 20
137.5492258229999
 30
0.0
 10
88.49564827454873
 20
137.0394184226221
 30
0.0
 10
89.30314716029538
 20
136.5440251712022
 30
0.0
 10
90.24189705728446
 20
136.0962099495428
 30
0.0
 10
91.31581407863357
 20
135.7454324892848
 30
0.0
 10
92.26937343578543
 20
135.5607780232325
 30
0.0
 10
93.08138314463467
 20
135.4861731638604
 30
0.0
 10
93.7425586963135
 20
135.4778574783452
 30
0.0
 10
94.41515281210499
 20
135.519412096405
 30
0.0
 10
95.09929300636949
 20
135.6111020347234
 30
0.0
 10
96.1092228708191
 20
135.8173188886754
 30
0.0
 10
97.41185247798191
 20
136.2274219920864
 30
0.0
 10
98.93221711577989
 20
136.9770949510712
 30
0.0
 10
100.3167311883595
 20
137.9436968312943
 30
0.0
 10
101.3309647636893
 20
138.9310039082826
 30
0.0
 10
102.0367325076376
 20
139.8085963282701
 30
0.0
 10
102.5094203185403
 20
140.5117621932252
 30
0.0
 10
102.9141444939909
 20
141.2464518790705
 30
0.0
 10
103.1956892531337
 20
141.8873394501829
 30
0.0
 10
103.3870259648509
 20
142.4160278049399
 30
0.0
 10
103.5135191232645
 20
142.8220380662447
 30
0.0
 10
103.6206402689803
 20
143.2313290978825
 30
0.0
 10
103.7083854622849
 20
143.6438962457066
 30
0.0
 10
103.7768678946303
 20
144.05973368231
 30
0.0
 10
103.8256268926869
 20
144.4788362220908
 30
0.0
 10
103.8563935895452
 20
144.9011955845702
 30
0.0
 10
103.8605569237128
 20
145.1839642495076
 30
0.0
 10
103.8626443424373
 20
145.3257392265194
 30
0.0
  0
ARC
  5
95
330
1F
100
AcDbEntity
  8
0
  6
Continuous
 62
     7
370
    15
100
AcDbCircle
 10
84.7363795072
 20
141.7918392265
 30
0.0
 40
0.6250000000000284
100
AcDbArc
 50
2.7996390223
 51
90.0
  0
LINE
  5
96
330
1F
100
AcDbEntity
  8
0
  6
Continuous
 62
     7
370
    15
100
AcDbLine
 10
81.5041441504
 20
142.4168390527
 30
0.0
 11
84.736381102
 21
142.4168390527
 31
0.0
  0
ARC
  5
97
330
1F
100
AcDbEntity
  8
0
  6
Continuous
 62
     7
370
    15
100
AcDbCircle
 10
81.5041443424
 20
142.7918392265
 30
0.0
 40
0.3749999999999716
100
AcDbArc
 50
180.0
 51
270.0
  0
LINE
  5
98
330
1F
100
AcDbEntity
  8
0
  6
Continuous
 62
     7
370
    15
100
AcDbLine
 10
81.1291452531
 20
144.0002895266
 30
0.0
 11
81.1291452531
 21
142.7918388814
 31
0.0
  0
ARC
  5
99
330
1F
100
AcDbEntity
  8
0
  6
Continuous
 62
     7
370
    15
100
AcDbCircle
 10
81.5041443424
 20
144.0002893187
 30
0.0
 40
0.375
100
AcDbArc
 50
133.6194338689
 51
180.0
  0
LINE
  5
9A
330
1F
100
AcDbEntity
  8
0
  6
Continuous
 62
     7
370
    15
100
AcDbLine
 10
85.4332599823
 20
148.2624779761
 30
0.0
 11
81.2454450909
 21
144.2717663318
 31
0.0
  0
ARC
  5
9B
330
1F
100
AcDbEntity
  8
0
  6
Continuous
 62
     7
370
    15
100
AcDbCircle
 10
85.0020943424
 20
148.7149391344
 30
0.0
 40
0.6250000000000142
100
AcDbArc
 50
313.6194338689
 51
0.0
  0
LINE
  5
9C
330
1F
100
AcDbEntity
  8
0
  6
Continuous
 62
     7
370
    15
100
AcDbLine
 10
85.6270942871
 20
152.0105079122
 30
0.0
 11
85.6270942871
 21
148.7149386972
 31
0.0
  0
ARC
  5
9D
330
1F
100
AcDbEntity
  8
0
  6
Continuous
 62
     7
370
    15
100
AcDbCircle
 10
85.0020943424
 20
152.0105079519
 30
0.0
 40
0.6250000000000142
100
AcDbArc
 50
0.0
 51
64.8933452247
  0
LINE
  5
9E
330
1F
100
AcDbEntity
  8
0
  6
Continuous
 62
     7
370
    15
100
AcDbLine
 10
82.7561806921
 20
153.7531006921
 30
0.0
 11
85.2672833983
 21
152.5764577396
 31
0.0
  0
ARC
  5
9F
330
1F
100
AcDbEntity
  8
0
  6
Continuous
 62
     7
370
    15
100
AcDbCircle
 10
82.9152943424
 20
154.0926705011
 30
0.0
 40
0.3750000000000019
100
AcDbArc
 50
180.0
 51
244.8933452247
  0
LINE
  5
A0
330
1F
100
AcDbEntity
  8
0
  6
Continuous
 62
     7
370
    15
100
AcDbLine
 10
82.5402926687
 20
154.1037892763
 30
0.0
 11
82.5402926687
 21
154.0926704489
 31
0.0
  0
ARC
  5
A1
330
1F
100
AcDbEntity
  8
0
  6
Continuous
 62
     7
370
    15
100
AcDbCircle
 10
81.9152943424
 20
154.1037892265
 30
0.0
 40
0.625
100
AcDbArc
 50
0.0
 51
90.0
  0
LINE
  5
A2
330
1F
100
AcDbEntity
  8
0
  6
Continuous
 62
     7
370
    15
100
AcDbLine
 10
80.0814744119
 20
154.7287891459
 30
0.0
 11
81.9152932648
 21
154.7287891459
 31
0.0
  0
ARC
  5
A3
330
1F
100
AcDbEntity
  8
0
  6
Continuous
 62
     7
370
    15
100
AcDbCircle
 10
80.0814749726
 20
154.1037892265
 30
0.0
 40
0.6250000000000131
100
AcDbArc
 50
90.0
 51
166.8882967273
  0
SPLINE
  5
A4
330
1F
100
AcDbEntity
  8
0
  6
Continuous
 62
     7
370
    15
100
AcDbSpline
210
0.0
220
0.0
230
1.0
 70
     8
 71
     3
 72
    32
 73
    28
 74
     0
 42
0.00000001
 43
0.00000001
 12
1.0
 22
0.0
 32
0.0
 13
1.0
 23
0.0
 33
0.0
 40
0.0
 40
0.0
 40
0.0
 40
0.0
 40
0.0736447080990477
 40
0.1236238062472269
 40
0.1886262992757505
 40
0.2465596945461157
 40
0.3099329035122209
 40
0.371304675674365
 40
0.3996857659825811
 40
0.4261433897425585
 40
0.4509858511665097
 40
0.4745848424756959
 40
0.4973729832216225
 40
0.5217108911579671
 40
0.545399446351371
 40
0.5696072349411924
 40
0.5954324533622138
 40
0.6237859766248175
 40
0.6516275800628767
 40
0.681610087920776
 40
0.7140940521797191
 40
0.7493633922867279
 40
0.7907660655189845
 40
0.8363409228718726
 40
0.8863025728909366
 40
0.9408138368686798
 40
1.0
 40
1.0
 40
1.0
 40
1.0
 10
75.1590221542576
 20
154.8798742815204
 30
0.0
 10
75.20114331138141
 20
154.6731050395146
 30
0.0
 10
75.27185005870373
 20
154.3260115229347
 30
0.0
 10
75.38945899343936
 20
153.7984091880774
 30
0.0
 10
75.52278935830846
 20
153.3208322171003
 30
0.0
 10
75.70335370478868
 20
152.8177957700884
 30
0.0
 10
75.92920560567354
 20
152.3445520760369
 30
0.0
 10
76.15850290502425
 20
151.9692632049734
 30
0.0
 10
76.35996221002722
 20
151.70364033986
 30
0.0
 10
76.51671293028856
 20
151.5369868412366
 30
0.0
 10
76.68091447054827
 20
151.3979778557456
 30
0.0
 10
76.85312996846724
 20
151.2872936402828
 30
0.0
 10
77.03762575775511
 20
151.2018300523886
 30
0.0
 10
77.23512191454006
 20
151.149105788242
 30
0.0
 10
77.44383617877503
 20
151.1423907698308
 30
0.0
 10
77.65278247262498
 20
151.183126633758
 30
0.0
 10
77.86105632495557
 20
151.2706870227732
 30
0.0
 10
78.05986767166658
 20
151.3977721459303
 30
0.0
 10
78.24841188340535
 20
151.5581696839861
 30
0.0
 10
78.4245056928425
 20
151.7485061818984
 30
0.0
 10
78.59326225682624
 20
151.9724686642536
 30
0.0
 10
78.76007184278146
 20
152.2374361297722
 30
0.0
 10
78.92186212171174
 20
152.5485543218979
 30
0.0
 10
79.07606530711149
 20
152.9097009460371
 30
0.0
 10
79.22018089097291
 20
153.3149712380852
 30
0.0
 10
79.35539640323245
 20
153.7642375005578
 30
0.0
 10
79.43258681504642
 20
154.0807877206955
 30
0.0
 10
79.47276894072822
 20
154.2455706313092
 30
0.0
  0
ARC
  5
A5
330
1F
100
AcDbEntity
  8
0
  6
Continuous
 62
     7
370
    15
100
AcDbCircle
 10
74.5463323574
 20
154.7564392265
 30
0.0
 40
0.6250000000000284
100
AcDbArc
 50
11.3905751309
 51
90.0
  0
LINE
  5
A6
330
1F
100
AcDbEntity
  8
0
  6
Continuous
 62
     7
370
    15
100
AcDbLine
 10
70.6896077875
 20
155.3814392842
 30
0.0
 11
74.5463337783
 21
155.3814392842
 31
0.0
  0
ARC
  5
A7
330
1F
100
AcDbEntity
  8
0
  6
Continuous
 62
     7
370
    15
100
AcDbCircle
 10
70.6896108621
 20
154.7564392265
 30
0.0
 40
0.6250000000000284
100
AcDbArc
 50
90.0
 51
129.7126516333
  0
LINE
  5
A8
330
1F
100
AcDbEntity
  8
0
  6
Continuous
 62
     7
370
    15
100
AcDbLine
 10
67.340132225
 20
152.786867258
 30
0.0
 11
70.2902715687
 21
155.2372258462
 31
0.0
  0
ARC
  5
A9
330
1F
100
AcDbEntity
  8
0
  6
Continuous
 62
     7
370
    15
100
AcDbCircle
 10
67.1005278228
 20
153.0753392265
 30
0.0
 40
0.375
100
AcDbArc
 50
270.0
 51
309.7126516333
  0
LINE
  5
AA
330
1F
100
AcDbEntity
  8
0
  6
Continuous
 62
     7
370
    15
100
AcDbLine
 10
66.4581920985
 20
152.7003390089
 30
0.0
 11
67.1005290035
 21
152.7003390089
 31
0.0
  0
ARC
  5
AB
330
1F
100
AcDbEntity
  8
0
  6
Continuous
 62
     7
370
    15
100
AcDbCircle
 10
66.4581943424
 20
153.0753392265
 30
0.0
 40
0.375
100
AcDbArc
 50
180.0
 51
270.0
  0
LINE
  5
AC
330
1F
100
AcDbEntity
  8
0
  6
Continuous
 62
     7
370
    15
100
AcDbLine
 10
66.0831969265
 20
154.7564391818
 30
0.0
 11
66.0831969265
 21
153.0753393032
 31
0.0
  0
ARC
  5
AD
330
1F
100
AcDbEntity
  8
0
  6
Continuous
 62
     7
370
    15
100
AcDbCircle
 10
65.4581943424
 20
154.7564392265
 30
0.0
 40
0.6250000000000284
100
AcDbArc
 50
0.0
 51
90.0
  0
LINE
  5
AE
330
1F
100
AcDbEntity
  8
0
  6
Continuous
 62
     7
370
    15
100
AcDbLine
 10
61.7366250638
 20
155.3814392842
 30
0.0
 11
65.4581975226
 21
155.3814392842
 31
0.0
  0
ARC
  5
AF
330
1F
100
AcDbEntity
  8
0
  6
Continuous
 62
     7
370
    15
100
AcDbCircle
 10
61.7366237536
 20
154.7564392265
 30
0.0
 40
0.6250000000000284
100
AcDbArc
 50
90.0
 51
163.7780320891
  0
SPLINE
  5
B0
330
1F
100
AcDbEntity
  8
0
  6
Continuous
 62
     7
370
    15
100
AcDbSpline
210
0.0
220
0.0
230
1.0
 70
     8
 71
     3
 72
    25
 73
    21
 74
     0
 42
0.00000001
 43
0.00000001
 12
1.0
 22
0.0
 32
0.0
 13
1.0
 23
0.0
 33
0.0
 40
0.0
 40
0.0
 40
0.0
 40
0.0
 40
0.036930486660929
 40
0.0721275512271784
 40
0.1056238690319585
 40
0.1374573530104261
 40
0.1676721762147159
 40
0.1963200002796608
 40
0.2234614363023948
 40
0.2491677530052328
 40
0.3139330063387294
 40
0.3742291301696959
 40
0.4405903795231003
 40
0.4992661719605892
 40
0.5581767720905617
 40
0.624697122640132
 40
0.6850523029728975
 40
0.7500327983873106
 40
0.8621808482760162
 40
1.0
 40
1.0
 40
1.0
 40
1.0
 10
58.06223158532277
 20
154.9310387727734
 30
0.0
 10
58.08035084328853
 20
154.8707226415724
 30
0.0
 10
58.11573888783618
 20
154.7529214632946
 30
0.0
 10
58.17371277389235
 20
154.5823532668489
 30
0.0
 10
58.23374381578223
 20
154.4217580467705
 30
0.0
 10
58.29622111874325
 20
154.2712464865649
 30
0.0
 10
58.36104483480727
 20
154.1307808323107
 30
0.0
 10
58.42826776538779
 20
154.0003860024379
 30
0.0
 10
58.49780497165433
 20
153.8799815733972
 30
0.0
 10
58.60772711087675
 20
153.7121633217631
 30
0.0
 10
58.76872021619594
 20
153.5104141840954
 30
0.0
 10
59.00821648272914
 20
153.2872081168302
 30
0.0
 10
59.28068959462534
 20
153.1187598779069
 30
0.0
 10
59.59519903066934
 20
153.0523777990229
 30
0.0
 10
59.91084016766389
 20
153.1154756599384
 30
0.0
 10
60.18504559727877
 20
153.2828646274218
 30
0.0
 10
60.42578080117979
 20
153.5058747316373
 30
0.0
 10
60.68029976576666
 20
153.8227023686846
 30
0.0
 10
60.93509988981555
 20
154.3003460727505
 30
0.0
 10
61.06492703862879
 20
154.7068907795092
 30
0.0
 10
61.13650709955176
 20
154.9310387727734
 30
0.0
  0
ARC
  5
B1
330
1F
100
AcDbEntity
  8
0
  6
Continuous
 62
     7
370
    15
100
AcDbCircle
 10
57.4621149313
 20
154.7564392265
 30
0.0
 40
0.6250000000000017
100
AcDbArc
 50
16.2219679109
 51
90.0
  0
LINE
  5
B2
330
1F
100
AcDbEntity
  8
0
  6
Continuous
 62
     7
370
    15
100
AcDbLine
 10
53.6109920625
 20
155.3814392842
 30
0.0
 11
57.4621152167
 21
155.3814392842
 31
0.0
  0
SPLINE
  5
B3
330
1F
100
AcDbEntity
  8
0
  6
Continuous
 62
     7
370
    15
100
AcDbSpline
210
0.0
220
0.0
230
1.0
 70
     8
 71
     3
 72
    28
 73
    24
 74
     0
 42
0.00000001
 43
0.00000001
 12
1.0
 22
0.0
 32
0.0
 13
1.0
 23
0.0
 33
0.0
 40
0.0
 40
0.0
 40
0.0
 40
0.0
 40
0.0353150402414441
 40
0.0706250194324381
 40
0.1059461873832614
 40
0.1412947784737152
 40
0.1766869893467031
 40
0.2121389568605674
 40
0.2476667364486359
 40
0.2832862810279907
 40
0.3190134205909478
 40
0.3548638426022644
 40
0.3908530733130787
 40
0.4269964600892362
 40
0.4633091548374055
 40
0.4998060985974609
 40
0.5710939074686973
 40
0.6422564533353669
 40
0.7134028102004587
 40
0.7846421264275854
 40
0.8560831243085472
 40
0.9278336093266383
 40
0.9999999999999999
 40
0.9999999999999999
 40
0.9999999999999999
 40
0.9999999999999999
 10
46.97035561773447
 20
157.2864278983158
 30
0.0
 10
47.04001606340587
 20
157.2423713050245
 30
0.0
 10
47.17932697160757
 20
157.1542644322572
 30
0.0
 10
47.3918442764145
 20
157.0278158796822
 30
0.0
 10
47.60689336048032
 20
156.9055928775501
 30
0.0
 10
47.82473453465416
 20
156.7880017129855
 30
0.0
 10
48.04529781530547
 20
156.6749335176116
 30
0.0
 10
48.26860179103016
 20
156.5664175590609
 30
0.0
 10
48.49464127882375
 20
156.4624460179291
 30
0.0
 10
48.72341747645578
 20
156.363021018582
 30
0.0
 10
48.95492987472512
 20
156.2681419932183
 30
0.0
 10
49.18917839956796
 20
156.1778090951492
 30
0.0
 10
49.4261629624222
 20
156.0920222182963
 30
0.0
 10
49.66588311396586
 20
156.0107814987713
 30
0.0
 10
49.90833989966688
 20
155.9340862906282
 30
0.0
 10
50.23098187687602
 20
155.8391479872544
 30
0.0
 10
50.63503578664709
 20
155.7330539402447
 30
0.0
 10
51.12189810895652
 20
155.6253748090143
 30
0.0
 10
51.61249925623365
 20
155.5369073060625
 30
0.0
 10
52.10683056653198
 20
155.4675304473131
 30
0.0
 10
52.60489168011775
 20
155.4177012374621
 30
0.0
 10
53.10667177236651
 20
155.3857028314237
 30
0.0
 10
53.44255342603947
 20
155.3805785936628
 30
0.0
 10
53.61097958539374
 20
155.3780090705101
 30
0.0
  0
LINE
  5
B4
330
1F
100
AcDbEntity
  8
0
  6
Continuous
 62
     7
370
    15
100
AcDbLine
 10
57.4621152167
 20
159.1884391688
 30
0.0
 11
53.6109920625
 21
159.1884391688
 31
0.0
  0
CIRCLE
  5
B5
330
1F
100
AcDbEntity
  8
0
  6
Continuous
 62
     7
370
    15
100
AcDbCircle
 10
141.6290443424
 20
157.2849392265
 30
0.0
 40
4.125
  0
ARC
  5
B6
330
1F
100
AcDbEntity
  8
0
  6
Continuous
 62
     7
370
    15
100
AcDbCircle
 10
95.0760639366
 20
145.5435392265
 30
0.0
 40
0.3750000000000284
100
AcDbArc
 50
231.9373587031
 51
270.0
  0
LINE
  5
B7
330
1F
100
AcDbEntity
  8
0
  6
Continuous
 62
     7
370
    15
100
AcDbLine
 10
89.9129997973
 20
149.1101752341
 30
0.0
 11
94.8448669199
 21
145.2482878536
 31
0.0
  0
ARC
  5
B8
330
1F
100
AcDbEntity
  8
0
  6
Continuous
 62
     7
370
    15
100
AcDbCircle
 10
89.5276747483
 20
148.6180892265
 30
0.0
 40
0.624999999999994
100
AcDbArc
 50
51.9373587031
 51
90.0
  0
LINE
  5
B9
330
1F
100
AcDbEntity
  8
0
  6
Continuous
 62
     7
370
    15
100
AcDbLine
 10
88.9301452819
 20
149.2430889353
 30
0.0
 11
89.5276743952
 21
149.2430889353
 31
0.0
  0
ARC
  5
BA
330
1F
100
AcDbEntity
  8
0
  6
Continuous
 62
     7
370
    15
100
AcDbCircle
 10
88.9301443424
 20
148.6180892265
 30
0.0
 40
0.625
100
AcDbArc
 50
90.0
 51
180.0
  0
LINE
  5
BB
330
1F
100
AcDbEntity
  8
0
  6
Continuous
 62
     7
370
    15
100
AcDbLine
 10
88.305145878
 20
142.5418393061
 30
0.0
 11
88.305145878
 21
148.6180895314
 31
0.0
  0
ARC
  5
BC
330
1F
100
AcDbEntity
  8
0
  6
Continuous
 62
     7
370
    15
100
AcDbCircle
 10
88.6801443424
 20
142.5418392265
 30
0.0
 40
0.3749999999997442
100
AcDbArc
 50
179.9999999999
 51
270.0000000001
  0
LINE
  5
BD
330
1F
100
AcDbEntity
  8
0
  6
Continuous
 62
     7
370
    15
100
AcDbLine
 10
88.7287188355
 20
142.1668394774
 30
0.0
 11
88.6801447753
 21
142.1668394774
 31
0.0
  0
ARC
  5
BE
330
1F
100
AcDbEntity
  8
0
  6
Continuous
 62
     7
370
    15
100
AcDbCircle
 10
88.7287181405
 20
142.0418392265
 30
0.0
 40
0.1250000000003007
100
AcDbArc
 50
25.7410089873
 51
90.0000000002
  0
SPLINE
  5
BF
330
1F
100
AcDbEntity
  8
0
  6
Continuous
 62
     7
370
    15
100
AcDbSpline
210
0.0
220
0.0
230
1.0
 70
     8
 71
     3
 72
    38
 73
    34
 74
     0
 42
0.00000001
 43
0.00000001
 12
1.0
 22
0.0
 32
0.0
 13
1.0
 23
0.0
 33
0.0
 40
0.0
 40
0.0
 40
0.0
 40
0.0
 40
0.0101991726511744
 40
0.0204079914306181
 40
0.030635416563706
 40
0.0408903595041921
 40
0.0511816602213356
 40
0.0615180654023958
 40
0.0719082078249878
 40
0.0823605871203815
 40
0.0928835521106365
 40
0.1034852848612682
 40
0.1141737865487745
 40
0.1249568652005403
 40
0.1868402808255828
 40
0.2500888457641361
 40
0.3118700335543086
 40
0.3749924416829901
 40
0.4371031503690274
 40
0.4997898778847104
 40
0.5656296397550378
 40
0.6282312263713458
 40
0.6890642333527348
 40
0.7497269279656265
 40
0.8126855837428256
 40
0.8745197032483707
 40
0.8929644480667875
 40
0.9111384991232185
 40
0.9290987417018945
 40
0.9469041104558935
 40
0.9646150861699745
 40
0.9822931184790726
 40
1.0
 40
1.0
 40
1.0
 40
1.0
 10
100.5703033452963
 20
144.4213369361896
 30
0.0
 10
100.5598271325471
 20
144.3706725086511
 30
0.0
 10
100.5388647989027
 20
144.2692957363966
 30
0.0
 10
100.5016884861099
 20
144.118383305329
 30
0.0
 10
100.460311765842
 20
143.9682924207535
 30
0.0
 10
100.4143219680085
 20
143.8191050782115
 30
0.0
 10
100.3638302651652
 20
143.670799609365
 30
0.0
 10
100.3088070308301
 20
143.5233821883174
 30
0.0
 10
100.2492605452089
 20
143.3768514273497
 30
0.0
 10
100.1851890095633
 20
143.2312080291112
 30
0.0
 10
100.1165929336481
 20
143.086451725019
 30
0.0
 10
100.043473834989
 20
142.9425838254238
 30
0.0
 10
99.96582684378683
 20
142.7996000217279
 30
0.0
 10
99.75418624201718
 20
142.433577408619
 30
0.0
 10
99.3560055515499
 20
141.8672221322419
 30
0.0
 10
98.70122008305879
 20
141.1773538556291
 30
0.0
 10
97.95447407767419
 20
140.5785589495459
 30
0.0
 10
97.14007976050716
 20
140.0870967240055
 30
0.0
 10
96.26826808137818
 20
139.6962098972322
 30
0.0
 10
95.34300297283063
 20
139.4080762881341
 30
0.0
 10
94.38646295687516
 20
139.23281150088
 30
0.0
 10
93.42309689106804
 20
139.2010208030584
 30
0.0
 10
92.49264237742595
 20
139.320026735594
 30
0.0
 10
91.59324762023503
 20
139.5921907965244
 30
0.0
 10
90.74434415915786
 20
140.0075555024783
 30
0.0
 10
90.15453605326135
 20
140.4391571676152
 30
0.0
 10
89.78803257368527
 20
140.7785546094448
 30
0.0
 10
89.59548070954996
 20
140.9776821923876
 30
0.0
 10
89.41668230023744
 20
141.1849551355958
 30
0.0
 10
89.25153081279402
 20
141.4003388120072
 30
0.0
 10
89.10038893488384
 20
141.6239919706931
 30
0.0
 10
88.96196521764789
 20
141.8552865957428
 30
0.0
 10
88.88155288638538
 20
142.0158033859773
 30
0.0
 10
88.84131394079047
 20
142.0961272155182
 30
0.0
  0
ARC
  5
C0
330
1F
100
AcDbEntity
  8
0
  6
Continuous
 62
     7
370
    15
100
AcDbCircle
 10
99.9573664805
 20
144.5435392265
 30
0.0
 40
0.6250000000000152
100
AcDbArc
 50
348.7246837669
 51
90.0
  0
LINE
  5
C1
330
1F
100
AcDbEntity
  8
0
  6
Continuous
 62
     7
370
    15
100
AcDbLine
 10
95.0760621611
 20
145.1685396329
 30
0.0
 11
99.9573659186
 21
145.1685396329
 31
0.0
  0
SPLINE
  5
C2
330
1F
100
AcDbEntity
  8
0
  6
Continuous
 62
     7
370
    15
100
AcDbSpline
210
0.0
220
0.0
230
1.0
 70
     8
 71
     3
 72
    65
 73
    61
 74
     0
 42
0.00000001
 43
0.00000001
 12
1.0
 22
0.0
 32
0.0
 13
1.0
 23
0.0
 33
0.0
 40
-0.0234611814360264
 40
-0.0156308210109596
 40
-0.0077492071871739
 40
0.0
 40
0.0073361518159887
 40
0.015217810855395
 40
0.023877078440419
 40
0.0346897780409785
 40
0.0477832172460361
 40
0.0594704099382921
 40
0.0715692138320919
 40
0.0955477989453754
 40
0.1252158711938545
 40
0.1591755194255223
 40
0.1912352739587599
 40
0.2215020334007693
 40
0.2501028079914285
 40
0.2661066997929579
 40
0.2813746518493813
 40
0.2959837637930592
 40
0.3100219947411565
 40
0.3235884124372465
 40
0.3367927085048516
 40
0.3497537719164951
 40
0.3625972480605855
 40
0.3754522307035333
 40
0.3877274363204148
 40
0.3999706952487213
 40
0.4123525140912021
 40
0.4250378134145955
 40
0.4381800937499774
 40
0.4697110869609733
 40
0.5005836151800922
 40
0.5161594456728447
 40
0.5316175820478543
 40
0.5472608517557338
 40
0.5633816524937294
 40
0.584516488685048
 40
0.6052191215326991
 40
0.6260316697450099
 40
0.6558883685225444
 40
0.6884333741391933
 40
0.7197170309566663
 40
0.7508324824401912
 40
0.7707797607106865
 40
0.7915194886414784
 40
0.8132090794414437
 40
0.8318307317241646
 40
0.8525029504903107
 40
0.8752560081881275
 40
0.8962524650770975
 40
0.9169961376141381
 40
0.9375095751121925
 40
0.9449407429417506
 40
0.9517544926974295
 40
0.9579713323868779
 40
0.9636182771612581
 40
0.9687313833028154
 40
0.9765388185639736
 40
0.9843691789890404
 40
0.9922507928128261
 40
1.0
 40
1.007336151815989
 40
1.015217810855395
 40
1.023877078440419
 10
91.676984941986
 20
152.8199358444213
 30
0.0
 10
91.70420619167783
 20
153.0423603482417
 30
0.0
 10
91.77737605901855
 20
153.2538093935929
 30
0.0
 10
91.89331319577508
 20
153.4550882143697
 30
0.0
 10
92.06018823041204
 20
153.6617694804262
 30
0.0
 10
92.28946579150703
 20
153.8790286510506
 30
0.0
 10
92.55873009001763
 20
154.0943510095358
 30
0.0
 10
92.85014859334221
 20
154.3007862205947
 30
0.0
 10
93.24169853418746
 20
154.5470967995865
 30
0.0
 10
93.80636265360168
 20
154.842286760663
 30
0.0
 10
94.58087538952229
 20
155.1880937932826
 30
0.0
 10
95.44221827885295
 20
155.5295617819808
 30
0.0
 10
96.32655658960535
 20
155.8254665994578
 30
0.0
 10
97.17730572842247
 20
156.052997833351
 30
0.0
 10
97.88888825678494
 20
156.1940368820786
 30
0.0
 10
98.46413386029174
 20
156.2671663367755
 30
0.0
 10
98.9079326743221
 20
156.2920207108716
 30
0.0
 10
99.33334937272473
 20
156.2845207873597
 30
0.0
 10
99.74044134113024
 20
156.2442044751781
 30
0.0
 10
100.129163916279
 20
156.1711042189833
 30
0.0
 10
100.4994422388473
 20
156.0651060509603
 30
0.0
 10
100.8512391391746
 20
155.9262574950737
 30
0.0
 10
101.1842398515278
 20
155.7542439643484
 30
0.0
 10
101.4932442131017
 20
155.5540453632499
 30
0.0
 10
101.7746054425676
 20
155.3254011624447
 30
0.0
 10
102.0229658425619
 20
155.0674897903446
 30
0.0
 10
102.241777270607
 20
154.7792141684202
 30
0.0
 10
102.430981978158
 20
154.4604774257774
 30
0.0
 10
102.6614437619475
 20
153.9546514065777
 30
0.0
 10
102.8606559706308
 20
153.2440328530842
 30
0.0
 10
102.8882258407231
 20
152.4819676910389
 30
0.0
 10
102.7992468081876
 20
151.8877988630547
 30
0.0
 10
102.6685597058541
 20
151.4536444629188
 30
0.0
 10
102.4766338753295
 20
151.0372001069581
 30
0.0
 10
102.2006621582443
 20
150.6043876585462
 30
0.0
 10
101.8368272208658
 20
150.1743322264145
 30
0.0
 10
101.3741743023366
 20
149.7781364716406
 30
0.0
 10
100.7804952671155
 20
149.4191573931557
 30
0.0
 10
100.0188756751024
 20
149.1385888196424
 30
0.0
 10
99.11942519481109
 20
148.9936706635455
 30
0.0
 10
98.19842294064797
 20
148.9734529960627
 30
0.0
 10
97.40330115578062
 20
149.0585318236673
 30
0.0
 10
96.72452785089364
 20
149.2120196935353
 30
0.0
 10
96.14973502137845
 20
149.3994779768953
 30
0.0
 10
95.60474327109297
 20
149.6294879445484
 30
0.0
 10
95.07664018451226
 20
149.8936581479102
 30
0.0
 10
94.55073067496727
 20
150.1839316182241
 30
0.0
 10
94.01520180732295
 20
150.5035461055673
 30
0.0
 10
93.48853372060262
 20
150.838871964543
 30
0.0
 10
92.99180280419974
 20
151.1801253014255
 30
0.0
 10
92.61081136286064
 20
151.4576880006188
 30
0.0
 10
92.34637887063475
 20
151.665827888747
 30
0.0
 10
92.19765893574613
 20
151.7967944961921
 30
0.0
 10
92.06901542046603
 20
151.9239876157
 30
0.0
 10
91.96073378085953
 20
152.0478158750449
 30
0.0
 10
91.85414287898428
 20
152.1928230798721
 30
0.0
 10
91.76035576267502
 20
152.3720263371468
 30
0.0
 10
91.69729056816234
 20
152.592260200367
 30
0.0
 10
91.676984941986
 20
152.8199358444213
 30
0.0
 10
91.70420619167783
 20
153.0423603482417
 30
0.0
 10
91.77737605901855
 20
153.2538093935929
 30
0.0
  0
SPLINE
  5
C3
330
1F
100
AcDbEntity
  8
0
  6
Continuous
 62
     7
370
    15
100
AcDbSpline
210
0.0
220
0.0
230
1.0
 70
     8
 71
     3
 72
     8
 73
     4
 74
     0
 42
0.00000001
 43
0.00000001
 12
1.0
 22
0.0
 32
0.0
 13
1.0
 23
0.0
 33
0.0
 40
0.0
 40
0.0
 40
0.0
 40
0.0
 40
0.9999980120413015
 40
0.9999980120413015
 40
0.9999980120413015
 40
0.9999980120413015
 10
53.61097997381266
 20
155.2564392265275
 30
0.0
 10
51.20170851479565
 20
155.2564419654264
 30
0.0
 10
48.75760832976909
 20
155.9453154795673
 30
0.0
 10
46.74404434243727
 20
157.2849392265194
 30
0.0
  0
LINE
  5
C4
330
1F
100
AcDbEntity
  8
0
  6
Continuous
 62
     7
370
    15
100
AcDbLine
 10
53.6109771613
 20
155.2547125917
 30
0.0
 11
53.6109771613
 21
155.3797241373
 31
0.0
  0
ARC
  5
C5
330
1F
100
AcDbEntity
  8
0
  6
Continuous
 62
     7
370
    15
100
AcDbCircle
 10
61.7366237536
 20
154.7564392265
 30
0.0
 40
0.5000000000000073
100
AcDbArc
 50
90.0
 51
163.7780320891
  0
LINE
  5
C6
330
1F
100
AcDbEntity
  8
0
  6
Continuous
 62
     7
370
    15
100
AcDbLine
 10
61.2565320019
 20
154.8961189415
 30
0.0
 11
61.1365105991
 21
154.9310388815
 31
0.0
  0
LINE
  5
C7
330
1F
100
AcDbEntity
  8
0
  6
Continuous
 62
     7
370
    15
100
AcDbLine
 10
61.7366250638
 20
155.2564392638
 30
0.0
 11
61.7366250638
 21
155.3814392842
 31
0.0
  0
SPLINE
  5
C8
330
1F
100
AcDbEntity
  8
0
  6
Continuous
 62
     7
370
    15
100
AcDbSpline
210
0.0
220
0.0
230
1.0
 70
     8
 71
     3
 72
    14
 73
    10
 74
     0
 42
0.00000001
 43
0.00000001
 12
1.0
 22
0.0
 32
0.0
 13
1.0
 23
0.0
 33
0.0
 40
0.0614135222308451
 40
0.0614135222308451
 40
0.0614135222308451
 40
0.0614135222308451
 40
0.1972368773184105
 40
0.3551055080816667
 40
0.4728396395656732
 40
0.5271603604345853
 40
0.6448944919185937
 40
0.80276312268185
 40
0.9385864777694161
 40
0.9385864777694161
 40
0.9385864777694161
 40
0.9385864777694161
 10
61.25653043035839
 20
154.8961188635226
 30
0.0
 10
61.17870058478625
 20
154.6286096545313
 30
0.0
 10
60.98139854976969
 20
154.0530627003425
 30
0.0
 10
60.50972258892303
 20
153.3363592931894
 30
0.0
 10
59.90613473989055
 20
152.9429385266237
 30
0.0
 10
59.29260394498402
 20
152.9429385266237
 30
0.0
 10
58.68901609595154
 20
153.3363592931894
 30
0.0
 10
58.21734013510485
 20
154.0530627003425
 30
0.0
 10
58.02003810008832
 20
154.6286096545313
 30
0.0
 10
57.94220825451615
 20
154.8961188635226
 30
0.0
  0
LINE
  5
C9
330
1F
100
AcDbEntity
  8
0
  6
Continuous
 62
     7
370
    15
100
AcDbLine
 10
57.9422082786
 20
154.8961189415
 30
0.0
 11
58.0622296814
 21
154.9310388815
 31
0.0
  0
LINE
  5
CA
330
1F
100
AcDbEntity
  8
0
  6
Continuous
 62
     7
370
    15
100
AcDbLine
 10
118.2705596123
 20
160.2645612162
 30
0.0
 11
118.1522369419
 21
160.3048667617
 31
0.0
  0
SPLINE
  5
CB
330
1F
100
AcDbEntity
  8
0
  6
Continuous
 62
     7
370
    15
100
AcDbSpline
210
0.0
220
0.0
230
1.0
 70
     8
 71
     3
 72
    15
 73
    11
 74
     0
 42
0.00000001
 43
0.00000001
 12
1.0
 22
0.0
 32
0.0
 13
1.0
 23
0.0
 33
0.0
 40
0.0327558797686175
 40
0.0327558797686175
 40
0.0327558797686175
 40
0.0327558797686175
 40
0.1477215891893615
 40
0.278287715246578
 40
0.394669247831226
 40
0.4992087396648209
 40
0.6053310763746284
 40
0.7217126089592762
 40
0.8522787350164929
 40
0.9672436697823387
 40
0.9672436697823387
 40
0.9672436697823387
 40
0.9672436697823387
 10
118.1522362489107
 20
160.3048668378322
 30
0.0
 10
118.2866304926731
 20
160.6994026607858
 30
0.0
 10
118.6468796526686
 20
161.5218087578531
 30
0.0
 10
119.4414618068013
 20
162.5873594700093
 30
0.0
 10
120.4926315311974
 20
163.3549926521202
 30
0.0
 10
121.6848565284454
 20
163.6370814452729
 30
0.0
 10
122.8793385511019
 20
163.3585564124427
 30
0.0
 10
123.9350285236549
 20
162.587327635998
 30
0.0
 10
124.7296526438075
 20
161.521810281469
 30
0.0
 10
125.0899407764143
 20
160.6994261164562
 30
0.0
 10
125.2243208198632
 20
160.304884297295
 30
0.0
  0
LINE
  5
CC
330
1F
100
AcDbEntity
  8
0
  6
Continuous
 62
     7
370
    15
100
AcDbLine
 10
125.1059960608
 20
160.2645831023
 30
0.0
 11
125.2243205939
 21
160.304884224
 31
0.0
  0
ARC
  5
CD
330
1F
100
AcDbEntity
  8
0
  6
Continuous
 62
     7
370
    15
100
AcDbCircle
 10
125.6976209052
 20
160.4660892265
 30
0.0
 40
0.5
100
AcDbArc
 50
198.8087256796
 51
270.0
  0
LINE
  5
CE
330
1F
100
AcDbEntity
  8
0
  6
Continuous
 62
     7
370
    15
100
AcDbLine
 10
125.6976205889
 20
159.8410893072
 30
0.0
 11
125.6976205889
 21
159.9660893276
 31
0.0
  0
LINE
  5
CF
330
1F
100
AcDbEntity
  8
0
  6
Continuous
 62
     7
370
    15
100
AcDbLine
 10
61.1365105991
 20
159.6388395716
 30
0.0
 11
61.2565320019
 21
159.6737595115
 31
0.0
  0
ARC
  5
D0
330
1F
100
AcDbEntity
  8
0
  6
Continuous
 62
     7
370
    15
100
AcDbCircle
 10
61.7366237536
 20
159.8134392265
 30
0.0
 40
0.5000000000000073
100
AcDbArc
 50
196.2219679109
 51
270.0
  0
LINE
  5
D1
330
1F
100
AcDbEntity
  8
0
  6
Continuous
 62
     7
370
    15
100
AcDbLine
 10
61.7366250638
 20
159.1884391688
 30
0.0
 11
61.7366250638
 21
159.3134391893
 31
0.0
  0
LINE
  5
D2
330
1F
100
AcDbEntity
  8
0
  6
Continuous
 62
     7
370
    15
100
AcDbLine
 10
58.0622296814
 20
159.6388395716
 30
0.0
 11
57.9422082786
 21
159.6737595115
 31
0.0
  0
SPLINE
  5
D3
330
1F
100
AcDbEntity
  8
0
  6
Continuous
 62
     7
370
    15
100
AcDbSpline
210
0.0
220
0.0
230
1.0
 70
     8
 71
     3
 72
    14
 73
    10
 74
     0
 42
0.00000001
 43
0.00000001
 12
1.0
 22
0.0
 32
0.0
 13
1.0
 23
0.0
 33
0.0
 40
0.0614135222308459
 40
0.0614135222308459
 40
0.0614135222308459
 40
0.0614135222308459
 40
0.1972368773184105
 40
0.355105508081667
 40
0.4728396395656757
 40
0.527160360434588
 40
0.6448944919185947
 40
0.8027631226818515
 40
0.9385864777694187
 40
0.9385864777694187
 40
0.9385864777694187
 40
0.9385864777694187
 10
57.9422082545162
 20
159.6737595895161
 30
0.0
 10
58.02003810008835
 20
159.9412687985075
 30
0.0
 10
58.21734013510483
 20
160.5168157526962
 30
0.0
 10
58.68901609595154
 20
161.2335191598493
 30
0.0
 10
59.29260394498401
 20
161.626939926415
 30
0.0
 10
59.90613473989057
 20
161.626939926415
 30
0.0
 10
60.50972258892303
 20
161.2335191598493
 30
0.0
 10
60.98139854976971
 20
160.5168157526962
 30
0.0
 10
61.17870058478623
 20
159.9412687985074
 30
0.0
 10
61.25653043035839
 20
159.6737595895161
 30
0.0
  0
ARC
  5
D4
330
1F
100
AcDbEntity
  8
0
  6
Continuous
 62
     7
370
    15
100
AcDbCircle
 10
125.6976209052
 20
154.1037892265
 30
0.0
 40
0.5
100
AcDbArc
 50
90.0
 51
161.1912743204
  0
LINE
  5
D5
330
1F
100
AcDbEntity
  8
0
  6
Continuous
 62
     7
370
    15
100
AcDbLine
 10
125.2243205939
 20
154.264994229
 30
0.0
 11
125.1059960608
 21
154.3052953508
 31
0.0
  0
LINE
  5
D6
330
1F
100
AcDbEntity
  8
0
  6
Continuous
 62
     7
370
    15
100
AcDbLine
 10
125.6976205889
 20
154.6037891254
 30
0.0
 11
125.6976205889
 21
154.7287891459
 31
0.0
  0
SPLINE
  5
D7
330
1F
100
AcDbEntity
  8
0
  6
Continuous
 62
     7
370
    15
100
AcDbSpline
210
0.0
220
0.0
230
1.0
 70
     8
 71
     3
 72
    15
 73
    11
 74
     0
 42
0.00000001
 43
0.00000001
 12
1.0
 22
0.0
 32
0.0
 13
1.0
 23
0.0
 33
0.0
 40
0.0327558797686175
 40
0.0327558797686175
 40
0.0327558797686175
 40
0.0327558797686175
 40
0.1477208145344633
 40
0.27828694059168
 40
0.3946684731763278
 40
0.5007908098861354
 40
0.6053303017197301
 40
0.7217118343043781
 40
0.8522779603615948
 40
0.9672436697823387
 40
0.9672436697823387
 40
0.9672436697823387
 40
0.9672436697823387
 10
125.2243208198632
 20
154.2649941557437
 30
0.0
 10
125.0899407764143
 20
153.8704523365825
 30
0.0
 10
124.7296526438075
 20
153.0480681715698
 30
0.0
 10
123.9350285236549
 20
151.9825508170408
 30
0.0
 10
122.8793385511019
 20
151.211322040596
 30
0.0
 10
121.6848565284454
 20
150.9327970077658
 30
0.0
 10
120.4926315311974
 20
151.2148858009186
 30
0.0
 10
119.4414618068012
 20
151.9825189830295
 30
0.0
 10
118.6468796526686
 20
153.0480696951857
 30
0.0
 10
118.2866304926731
 20
153.870475792253
 30
0.0
 10
118.1522362489107
 20
154.2650116152066
 30
0.0
  0
LINE
  5
D8
330
1F
100
AcDbEntity
  8
0
  6
Continuous
 62
     7
370
    15
100
AcDbLine
 10
118.1522369419
 20
154.2650116913
 30
0.0
 11
118.2705596123
 21
154.3053172369
 31
0.0
  0
LINE
  5
D9
330
1F
100
AcDbEntity
  8
0
  6
Continuous
 62
     7
370
    15
100
AcDbLine
 10
79.4727694277
 20
160.3243078876
 30
0.0
 11
79.5945119146
 21
160.3526640989
 31
0.0
  0
ARC
  5
DA
330
1F
100
AcDbEntity
  8
0
  6
Continuous
 62
     7
370
    15
100
AcDbCircle
 10
80.0814749726
 20
160.4660892265
 30
0.0
 40
0.5000000000000077
100
AcDbArc
 50
193.1117032727
 51
270.0
  0
LINE
  5
DB
330
1F
100
AcDbEntity
  8
0
  6
Continuous
 62
     7
370
    15
100
AcDbLine
 10
80.0814744119
 20
159.8410893072
 30
0.0
 11
80.0814744119
 21
159.9660893276
 31
0.0
  0
LINE
  5
DC
330
1F
100
AcDbEntity
  8
0
  6
Continuous
 62
     7
370
    15
100
AcDbLine
 10
75.1590248231
 20
159.6900041055
 30
0.0
 11
75.036485124
 21
159.7146911387
 31
0.0
  0
SPLINE
  5
DD
330
1F
100
AcDbEntity
  8
0
  6
Continuous
 62
     7
370
    15
100
AcDbSpline
210
0.0
220
0.0
230
1.0
 70
     8
 71
     3
 72
    16
 73
    12
 74
     0
 42
0.00000001
 43
0.00000001
 12
1.0
 22
0.0
 32
0.0
 13
1.0
 23
0.0
 33
0.0
 40
0.0424238996729967
 40
0.0424238996729967
 40
0.0424238996729967
 40
0.0424238996729967
 40
0.1637734487063139
 40
0.2378986363131753
 40
0.3638131613765368
 40
0.4614650021721382
 40
0.5373243838926087
 40
0.6149250336095119
 40
0.7152452881247445
 40
0.8436396057437409
 40
0.9588525741077901
 40
0.9588525741077901
 40
0.9588525741077901
 40
0.9588525741077901
 10
75.03648419488226
 20
159.7146911825185
 30
0.0
 10
75.11387817121738
 20
160.0988486622543
 30
0.0
 10
75.23687029002745
 20
160.7211191890471
 30
0.0
 10
75.53533657906571
 20
161.7194235458034
 30
0.0
 10
75.9592280316987
 20
162.590301718718
 30
0.0
 10
76.58898423066572
 20
163.3573477376775
 30
0.0
 10
77.4162943494703
 20
163.6438471440295
 30
0.0
 10
78.22049843179288
 20
163.2899868876653
 30
0.0
 10
78.85534082689591
 20
162.5055949054188
 30
0.0
 10
79.30932767433788
 20
161.480324115279
 30
0.0
 10
79.5101767171558
 20
160.7147303946409
 30
0.0
 10
79.59451014710567
 20
160.3526641026874
 30
0.0
  0
LINE
  5
DE
330
1F
100
AcDbEntity
  8
0
  6
Continuous
 62
     7
370
    15
100
AcDbLine
 10
113.6152636294
 20
160.2976159498
 30
0.0
 11
113.7356352095
 21
160.3313105021
 31
0.0
  0
ARC
  5
DF
330
1F
100
AcDbEntity
  8
0
  6
Continuous
 62
     7
370
    15
100
AcDbCircle
 10
114.2171281162
 20
160.4660892265
 30
0.0
 40
0.5
100
AcDbArc
 50
195.6379262628
 51
270.0
  0
LINE
  5
E0
330
1F
100
AcDbEntity
  8
0
  6
Continuous
 62
     7
370
    15
100
AcDbLine
 10
114.2171289806
 20
159.8410893072
 30
0.0
 11
114.2171289806
 21
159.9660893276
 31
0.0
  0
LINE
  5
E1
330
1F
100
AcDbEntity
  8
0
  6
Continuous
 62
     7
370
    15
100
AcDbLine
 10
107.0188995485
 20
161.8354562976
 30
0.0
 11
106.9080311839
 21
161.8931927092
 31
0.0
  0
SPLINE
  5
E2
330
1F
100
AcDbEntity
  8
0
  6
Continuous
 62
     7
370
    15
100
AcDbSpline
210
0.0
220
0.0
230
1.0
 70
     8
 71
     3
 72
    15
 73
    11
 74
     0
 42
0.00000001
 43
0.00000001
 12
1.0
 22
0.0
 32
0.0
 13
1.0
 23
0.0
 33
0.0
 40
0.0286278872442369
 40
0.0286278872442369
 40
0.0286278872442369
 40
0.0286278872442369
 40
0.1411903696022385
 40
0.2628105150943547
 40
0.3704299832248528
 40
0.47059569299624
 40
0.5788994602939077
 40
0.7016457626341337
 40
0.8430652325500154
 40
0.9642525189713245
 40
0.9642525189713245
 40
0.9642525189713245
 40
0.9642525189713245
 10
106.9080314588977
 20
161.8931928566999
 30
0.0
 10
107.0906319664926
 20
162.2438260485913
 30
0.0
 10
107.5317153818606
 20
162.9497091788881
 30
0.0
 10
108.4031755250643
 20
163.801401888554
 30
0.0
 10
109.4812999735778
 20
164.3148784600262
 30
0.0
 10
110.6323674104748
 20
164.2869744354578
 30
0.0
 10
111.7136976687509
 20
163.7714959921792
 30
0.0
 10
112.6270480249948
 20
162.8016102732053
 30
0.0
 10
113.310081539381
 20
161.6181530105189
 30
0.0
 10
113.6205570360121
 20
160.7424260500136
 30
0.0
 10
113.7356359424197
 20
160.3313105686647
 30
0.0
  0
ARC
  5
E3
330
1F
100
AcDbEntity
  8
0
  6
Continuous
 62
     7
370
    15
100
AcDbCircle
 10
74.5463323574
 20
154.7564392265
 30
0.0
 40
0.5000000000000058
100
AcDbArc
 50
11.3905751309
 51
90.0
  0
LINE
  5
E4
330
1F
100
AcDbEntity
  8
0
  6
Continuous
 62
     7
370
    15
100
AcDbLine
 10
74.5463337783
 20
155.2564392638
 30
0.0
 11
74.5463337783
 21
155.3814392842
 31
0.0
  0
LINE
  5
E5
330
1F
100
AcDbEntity
  8
0
  6
Continuous
 62
     7
370
    15
100
AcDbLine
 10
75.036485124
 20
154.8551873144
 30
0.0
 11
75.1590248231
 21
154.8798743475
 31
0.0
  0
SPLINE
  5
E6
330
1F
100
AcDbEntity
  8
0
  6
Continuous
 62
     7
370
    15
100
AcDbSpline
210
0.0
220
0.0
230
1.0
 70
     8
 71
     3
 72
    16
 73
    12
 74
     0
 42
0.00000001
 43
0.00000001
 12
1.0
 22
0.0
 32
0.0
 13
1.0
 23
0.0
 33
0.0
 40
0.0424238996729979
 40
0.0424238996729979
 40
0.0424238996729979
 40
0.0424238996729979
 40
0.1576368680370474
 40
0.2860311856560437
 40
0.3863514401712764
 40
0.4639520898881793
 40
0.5398114716086498
 40
0.6374633124042511
 40
0.7633778374676127
 40
0.837503025074474
 40
0.9588525741077909
 40
0.9588525741077909
 40
0.9588525741077909
 40
0.9588525741077909
 10
79.59451014710567
 20
154.2172143503513
 30
0.0
 10
79.5101767171558
 20
153.8551480583979
 30
0.0
 10
79.30932767433788
 20
153.0895543377598
 30
0.0
 10
78.85534082689591
 20
152.0642835476199
 30
0.0
 10
78.22049843179288
 20
151.2798915653734
 30
0.0
 10
77.41629434947032
 20
150.9260313090093
 30
0.0
 10
76.58898423066573
 20
151.2125307153613
 30
0.0
 10
75.9592280316987
 20
151.9795767343207
 30
0.0
 10
75.53533657906571
 20
152.8504549072353
 30
0.0
 10
75.23687029002747
 20
153.8487592639916
 30
0.0
 10
75.11387817121734
 20
154.4710297907844
 30
0.0
 10
75.03648419488223
 20
154.8551872705202
 30
0.0
  0
LINE
  5
E7
330
1F
100
AcDbEntity
  8
0
  6
Continuous
 62
     7
370
    15
100
AcDbLine
 10
79.5945119146
 20
154.2172143541
 30
0.0
 11
79.4727694277
 21
154.2455705654
 31
0.0
  0
ARC
  5
E8
330
1F
100
AcDbEntity
  8
0
  6
Continuous
 62
     7
370
    15
100
AcDbCircle
 10
117.6789421106
 20
154.1037892265
 30
0.0
 40
0.5000000000000023
100
AcDbArc
 50
18.8108392643
 51
90.0
  0
LINE
  5
E9
330
1F
100
AcDbEntity
  8
0
  6
Continuous
 62
     7
370
    15
100
AcDbLine
 10
117.6789425347
 20
154.6037891254
 30
0.0
 11
117.6789425347
 21
154.7287891459
 31
0.0
  0
SPLINE
  5
EA
330
1F
100
AcDbEntity
  8
0
  6
Continuous
 62
     7
370
    15
100
AcDbSpline
210
0.0
220
0.0
230
1.0
 70
     8
 71
     3
 72
    16
 73
    12
 74
     0
 42
0.00000001
 43
0.00000001
 12
1.0
 22
0.0
 32
0.0
 13
1.0
 23
0.0
 33
0.0
 40
0.0165284669613327
 40
0.0165284669613327
 40
0.0165284669613327
 40
0.0165284669613327
 40
0.1481988881287785
 40
0.2741095883470693
 40
0.3978456172523804
 40
0.5209312432306382
 40
0.5817343289831637
 40
0.7022494312282589
 40
0.831786222523838
 40
0.937200661628092
 40
1.0
 40
1.0
 40
1.0
 40
1.0
 10
103.9876443424373
 20
145.3257392265194
 30
0.0
 10
103.9876443424373
 20
144.1032504645552
 30
0.0
 10
103.4973211354097
 20
141.7014415496691
 30
0.0
 10
101.514252630316
 20
138.6971169769195
 30
0.0
 10
98.73357072322267
 20
136.5645811501497
 30
0.0
 10
96.01373278760732
 20
135.5837858345445
 30
0.0
 10
93.21052104848772
 20
135.2361206326567
 30
0.0
 10
90.29749551573626
 20
135.7267736617491
 30
0.0
 10
87.4349359198122
 20
137.475444421991
 30
0.0
 10
85.65737823944747
 20
139.6997112949336
 30
0.0
 10
85.2648566488245
 20
141.2217247134551
 30
0.0
 10
85.23578272973523
 20
141.8162609650528
 30
0.0
  0
LINE
  5
EB
330
1F
100
AcDbEntity
  8
0
  6
Continuous
 62
     7
370
    15
100
AcDbLine
 10
85.2357823435
 20
141.8162607893
 30
0.0
 11
85.3606317226
 21
141.8223665401
 31
0.0
  0
LINE
  5
EC
330
1F
100
AcDbEntity
  8
0
  6
Continuous
 62
     7
370
    15
100
AcDbLine
 10
103.9876457338
 20
145.3257394329
 30
0.0
 11
103.8626436178
 21
145.3257394329
 31
0.0
  0
ARC
  5
ED
330
1F
100
AcDbEntity
  8
0
  6
Continuous
 62
     7
370
    15
100
AcDbCircle
 10
84.7363795072
 20
141.7918392265
 30
0.0
 40
0.5
100
AcDbArc
 50
2.7996390223
 51
90.0
  0
LINE
  5
EE
330
1F
100
AcDbEntity
  8
0
  6
Continuous
 62
     7
370
    15
100
AcDbLine
 10
84.736381102
 20
142.2918387994
 30
0.0
 11
84.736381102
 21
142.4168390527
 31
0.0
  0
ARC
  5
EF
330
1F
100
AcDbEntity
  8
0
  6
Continuous
 62
     7
370
    15
100
AcDbCircle
 10
57.4621149313
 20
154.7564392265
 30
0.0
 40
0.4999999999999937
100
AcDbArc
 50
16.2219679109
 51
90.0
  0
LINE
  5
F0
330
1F
100
AcDbEntity
  8
0
  6
Continuous
 62
     7
370
    15
100
AcDbLine
 10
57.4621152167
 20
155.2564392638
 30
0.0
 11
57.4621152167
 21
155.3814392842
 31
0.0
  0
LINE
  5
F1
330
1F
100
AcDbEntity
  8
0
  6
Continuous
 62
     7
370
    15
100
AcDbLine
 10
53.6109920625
 20
159.3134391893
 30
0.0
 11
57.4621152167
 21
159.3134391893
 31
0.0
  0
LINE
  5
F2
330
1F
100
AcDbEntity
  8
0
  6
Continuous
 62
     7
370
    15
100
AcDbLine
 10
57.4621152167
 20
159.1884391688
 30
0.0
 11
57.4621152167
 21
159.3134391893
 31
0.0
  0
ARC
  5
F3
330
1F
100
AcDbEntity
  8
0
  6
Continuous
 62
     7
370
    15
100
AcDbCircle
 10
106.4645635635
 20
152.4457392265
 30
0.0
 40
0.5
100
AcDbArc
 50
27.5093101275
 51
90.0
  0
LINE
  5
F4
330
1F
100
AcDbEntity
  8
0
  6
Continuous
 62
     7
370
    15
100
AcDbLine
 10
106.4645651762
 20
152.9457392477
 30
0.0
 11
106.4645651762
 21
153.0707390353
 31
0.0
  0
LINE
  5
F5
330
1F
100
AcDbEntity
  8
0
  6
Continuous
 62
     7
370
    15
100
AcDbLine
 10
106.9080311839
 20
152.6766857438
 30
0.0
 11
107.0188995485
 21
152.7344221555
 31
0.0
  0
SPLINE
  5
F6
330
1F
100
AcDbEntity
  8
0
  6
Continuous
 62
     7
370
    15
100
AcDbSpline
210
0.0
220
0.0
230
1.0
 70
     8
 71
     3
 72
    15
 73
    11
 74
     0
 42
0.00000001
 43
0.00000001
 12
1.0
 22
0.0
 32
0.0
 13
1.0
 23
0.0
 33
0.0
 40
0.0286278872442368
 40
0.0286278872442368
 40
0.0286278872442368
 40
0.0286278872442368
 40
0.1498151736655464
 40
0.2912346435814281
 40
0.4139809459216543
 40
0.5222847132193221
 40
0.6224504229907094
 40
0.7300698911212075
 40
0.8516900366133238
 40
0.9642525189713254
 40
0.9642525189713254
 40
0.9642525189713254
 40
0.9642525189713254
 10
113.7356359424197
 20
154.2385678843741
 30
0.0
 10
113.6205570360121
 20
153.8274524030251
 30
0.0
 10
113.310081539381
 20
152.9517254425199
 30
0.0
 10
112.6270480249948
 20
151.7682681798335
 30
0.0
 10
111.7136976687509
 20
150.7983824608596
 30
0.0
 10
110.6323674104748
 20
150.282904017581
 30
0.0
 10
109.4812999735778
 20
150.2549999930126
 30
0.0
 10
108.4031755250643
 20
150.7684765644847
 30
0.0
 10
107.5317153818606
 20
151.6201692741506
 30
0.0
 10
107.0906319664926
 20
152.3260524044474
 30
0.0
 10
106.9080314588977
 20
152.6766855963388
 30
0.0
  0
LINE
  5
F7
330
1F
100
AcDbEntity
  8
0
  6
Continuous
 62
     7
370
    15
100
AcDbLine
 10
113.7356352095
 20
154.238567951
 30
0.0
 11
113.6152636294
 21
154.2722625032
 31
0.0
  0
ARC
  5
F8
330
1F
100
AcDbEntity
  8
0
  6
Continuous
 62
     7
370
    15
100
AcDbCircle
 10
80.0814749726
 20
154.1037892265
 30
0.0
 40
0.5000000000000077
100
AcDbArc
 50
90.0
 51
166.8882967273
  0
LINE
  5
F9
330
1F
100
AcDbEntity
  8
0
  6
Continuous
 62
     7
370
    15
100
AcDbLine
 10
80.0814744119
 20
154.6037891254
 30
0.0
 11
80.0814744119
 21
154.7287891459
 31
0.0
  0
LINE
  5
FA
330
1F
100
AcDbEntity
  8
0
  6
Continuous
 62
     7
370
    15
100
AcDbLine
 10
106.4645651762
 20
161.4991394177
 30
0.0
 11
106.4645651762
 21
161.6241392054
 31
0.0
  0
ARC
  5
FB
330
1F
100
AcDbEntity
  8
0
  6
Continuous
 62
     7
370
    15
100
AcDbCircle
 10
106.4645635635
 20
162.1241392265
 30
0.0
 40
0.5
100
AcDbArc
 50
270.0
 51
332.4906898725
  0
LINE
  5
FC
330
1F
100
AcDbEntity
  8
0
  6
Continuous
 62
     7
370
    15
100
AcDbLine
 10
57.4621152167
 20
155.2564392638
 30
0.0
 11
53.6109920625
 21
155.2564392638
 31
0.0
  0
ARC
  5
FD
330
1F
100
AcDbEntity
  8
0
  6
Continuous
 62
     7
370
    15
100
AcDbCircle
 10
88.7287181405
 20
172.5280392265
 30
0.0
 40
0.2500000000000039
100
AcDbArc
 50
270.0
 51
334.2589910127
  0
LINE
  5
FE
330
1F
100
AcDbEntity
  8
0
  6
Continuous
 62
     7
370
    15
100
AcDbLine
 10
88.7287188355
 20
172.2780396536
 30
0.0
 11
88.7287188355
 21
172.4030389756
 31
0.0
  0
LINE
  5
FF
330
1F
100
AcDbEntity
  8
0
  6
Continuous
 62
     7
370
    15
100
AcDbLine
 10
88.9539089088
 20
172.4194628492
 30
0.0
 11
88.8413157348
 21
172.4737515047
 31
0.0
  0
LINE
  5
100
330
1F
100
AcDbEntity
  8
0
  6
Continuous
 62
     7
370
    15
100
AcDbLine
 10
84.736381102
 20
172.1530394003
 30
0.0
 11
84.736381102
 21
172.2780396536
 31
0.0
  0
ARC
  5
101
330
1F
100
AcDbEntity
  8
0
  6
Continuous
 62
     7
370
    15
100
AcDbCircle
 10
84.7363795072
 20
172.7780392265
 30
0.0
 40
0.4999999999999742
100
AcDbArc
 50
270.0
 51
357.2003609777
  0
LINE
  5
102
330
1F
100
AcDbEntity
  8
0
  6
Continuous
 62
     7
370
    15
100
AcDbLine
 10
85.3606317226
 20
172.7475119129
 30
0.0
 11
85.2357823435
 21
172.7536176637
 31
0.0
  0
LINE
  5
103
330
1F
100
AcDbEntity
  8
0
  6
Continuous
 62
     7
370
    15
100
AcDbLine
 10
74.5463337783
 20
159.1884391688
 30
0.0
 11
74.5463337783
 21
159.3134391893
 31
0.0
  0
ARC
  5
104
330
1F
100
AcDbEntity
  8
0
  6
Continuous
 62
     7
370
    15
100
AcDbCircle
 10
74.5463323574
 20
159.8134392265
 30
0.0
 40
0.5000000000000001
100
AcDbArc
 50
270.0
 51
348.6094248691
  0
ARC
  5
105
330
1F
100
AcDbEntity
  8
0
  6
Continuous
 62
     7
370
    15
100
AcDbCircle
 10
99.9573664805
 20
144.5435392265
 30
0.0
 40
0.500000000000015
100
AcDbArc
 50
348.7246837669
 51
90.0
  0
LINE
  5
106
330
1F
100
AcDbEntity
  8
0
  6
Continuous
 62
     7
370
    15
100
AcDbLine
 10
99.9573659186
 20
145.1685396329
 30
0.0
 11
99.9573659186
 21
145.0435393795
 31
0.0
  0
LINE
  5
107
330
1F
100
AcDbEntity
  8
0
  6
Continuous
 62
     7
370
    15
100
AcDbLine
 10
100.4477147047
 20
144.4457774356
 30
0.0
 11
100.5703028325
 21
144.4213367373
 31
0.0
  0
ARC
  5
108
330
1F
100
AcDbEntity
  8
0
  6
Continuous
 62
     7
370
    15
100
AcDbCircle
 10
57.4621149313
 20
159.8134392265
 30
0.0
 40
0.4999999999999778
100
AcDbArc
 50
270.0
 51
343.7780320891
  0
ARC
  5
109
330
1F
100
AcDbEntity
  8
0
  6
Continuous
 62
     7
370
    15
100
AcDbCircle
 10
114.2171281162
 20
154.1037892265
 30
0.0
 40
0.5000000000000049
100
AcDbArc
 50
90.0
 51
164.3620737372
  0
LINE
  5
10A
330
1F
100
AcDbEntity
  8
0
  6
Continuous
 62
     7
370
    15
100
AcDbLine
 10
114.2171289806
 20
154.6037891254
 30
0.0
 11
114.2171289806
 21
154.7287891459
 31
0.0
  0
SPLINE
  5
10B
330
1F
100
AcDbEntity
  8
0
  6
Continuous
 62
     7
370
    15
100
AcDbSpline
210
0.0
220
0.0
230
1.0
 70
    11
 71
     3
 72
    21
 73
    17
 74
     0
 42
0.00000001
 43
0.00000001
 12
1.0
 22
0.0
 32
0.0
 13
1.0
 23
0.0
 33
0.0
 40
-0.0157404247992843
 40
0.0
 40
0.0
 40
0.0
 40
0.0368980293660235
 40
0.1161691213966036
 40
0.229663006292544
 40
0.3191809520467602
 40
0.3946481584102287
 40
0.4583183845901087
 40
0.5244333126360609
 40
0.6153931942842188
 40
0.6981752817814214
 40
0.7761947383048926
 40
0.8587396665173591
 40
0.9364521401773233
 40
0.9842595752007157
 40
1.0
 40
1.0
 40
1.0
 40
1.036898029366023
 10
91.8344443424373
 20
161.5535892265194
 30
0.0
 10
91.91193923086405
 20
161.2185511288407
 30
0.0
 10
92.74115739745048
 20
160.3841019643694
 30
0.0
 10
94.6371504188626
 20
159.4412456399347
 30
0.0
 10
97.13919154338011
 20
158.5555274941124
 30
0.0
 10
99.7786441973704
 20
158.241745802028
 30
0.0
 10
101.8685434536088
 20
159.2009207885785
 30
0.0
 10
102.7738956011152
 20
160.9970110837245
 30
0.0
 10
102.8029363068975
 20
163.1489608170859
 30
0.0
 10
101.2151998283234
 20
165.0742102450462
 30
0.0
 10
98.82557042894155
 20
165.5734075895658
 30
0.0
 10
96.53739175522827
 20
165.3075456839779
 30
0.0
 10
94.5146660491262
 20
164.2596717048047
 30
0.0
 10
92.95345900398638
 20
163.2400311375961
 30
0.0
 10
91.80448897521474
 20
162.3249627306326
 30
0.0
 10
91.80138559961092
 20
161.6965139862428
 30
0.0
 10
91.8344443424373
 20
161.5535892265194
 30
0.0
  0
SPLINE
  5
10C
330
1F
100
AcDbEntity
  8
0
  6
Continuous
 62
     7
370
    15
100
AcDbSpline
210
0.0
220
0.0
230
1.0
 70
     8
 71
     3
 72
    13
 73
     9
 74
     0
 42
0.00000001
 43
0.00000001
 12
1.0
 22
0.0
 32
0.0
 13
1.0
 23
0.0
 33
0.0
 40
0.0096487838836277
 40
0.0096487838836277
 40
0.0096487838836277
 40
0.0096487838836277
 40
0.1778051341193201
 40
0.3389527440708474
 40
0.5031367140346564
 40
0.6706344956237953
 40
0.8360058235107504
 40
0.9620609337880168
 40
0.9620609337880168
 40
0.9620609337880168
 40
0.9620609337880168
 10
88.95390974111412
 20
142.1504152045165
 30
0.0
 10
89.34569832039321
 20
141.337827568548
 30
0.0
 10
90.55936260414205
 20
140.054670464674
 30
0.0
 10
93.06979887729142
 20
139.1842137784502
 30
0.0
 10
95.668211380447
 20
139.4995449792468
 30
0.0
 10
98.03449983214315
 20
140.6185493259545
 30
0.0
 10
99.73206055434297
 20
142.3810847160151
 30
0.0
 10
100.3179833855585
 20
143.7950704002412
 30
0.0
 10
100.4477159723351
 20
144.4457773942555
 30
0.0
  0
LINE
  5
10D
330
1F
100
AcDbEntity
  8
0
  6
Continuous
 62
     7
370
    15
100
AcDbLine
 10
88.9539089088
 20
142.1504156038
 30
0.0
 11
88.8413157348
 21
142.0961269483
 31
0.0
  0
SPLINE
  5
10E
330
1F
100
AcDbEntity
  8
0
  6
Continuous
 62
     7
370
    15
100
AcDbSpline
210
0.0
220
0.0
230
1.0
 70
     8
 71
     3
 72
    16
 73
    12
 74
     0
 42
0.00000001
 43
0.00000001
 12
1.0
 22
0.0
 32
0.0
 13
1.0
 23
0.0
 33
0.0
 40
0.0165284669613326
 40
0.0165284669613326
 40
0.0165284669613326
 40
0.0165284669613326
 40
0.0793278053332408
 40
0.1847422444374948
 40
0.3142790357330739
 40
0.4347941379781693
 40
0.4955972237306945
 40
0.6186828497089525
 40
0.7424188786142634
 40
0.8683295788325542
 40
1.0
 40
1.0
 40
1.0
 40
1.0
 10
85.23578272973522
 20
172.753617487986
 30
0.0
 10
85.2648566488245
 20
173.3481537395836
 30
0.0
 10
85.65737823944745
 20
174.8701671581051
 30
0.0
 10
87.43493591981222
 20
177.0944340310477
 30
0.0
 10
90.29749551573627
 20
178.8431047912896
 30
0.0
 10
93.2105210484877
 20
179.3337578203821
 30
0.0
 10
96.01373278760735
 20
178.9860926184942
 30
0.0
 10
98.73357072322267
 20
178.005297302889
 30
0.0
 10
101.514252630316
 20
175.8727614761192
 30
0.0
 10
103.4973211354097
 20
172.8684369033697
 30
0.0
 10
103.9876443424373
 20
170.4666279884836
 30
0.0
 10
103.9876443424373
 20
169.2441392265194
 30
0.0
  0
LINE
  5
10F
330
1F
100
AcDbEntity
  8
0
  6
Continuous
 62
     7
370
    15
100
AcDbLine
 10
103.8626436178
 20
169.2441390202
 30
0.0
 11
103.9876457338
 21
169.2441390202
 31
0.0
  0
ARC
  5
110
330
1F
100
AcDbEntity
  8
0
  6
Continuous
 62
     7
370
    15
100
AcDbCircle
 10
99.9573664805
 20
170.0263392265
 30
0.0
 40
0.5000000000000028
100
AcDbArc
 50
270.0
 51
11.2753162333
  0
LINE
  5
111
330
1F
100
AcDbEntity
  8
0
  6
Continuous
 62
     7
370
    15
100
AcDbLine
 10
100.4477147047
 20
170.1241010174
 30
0.0
 11
100.5703028325
 21
170.1485417158
 31
0.0
  0
LINE
  5
112
330
1F
100
AcDbEntity
  8
0
  6
Continuous
 62
     7
370
    15
100
AcDbLine
 10
99.9573659186
 20
169.5263390735
 30
0.0
 11
99.9573659186
 21
169.4013388202
 31
0.0
  0
SPLINE
  5
113
330
1F
100
AcDbEntity
  8
0
  6
Continuous
 62
     7
370
    15
100
AcDbSpline
210
0.0
220
0.0
230
1.0
 70
     8
 71
     3
 72
    13
 73
     9
 74
     0
 42
0.00000001
 43
0.00000001
 12
1.0
 22
0.0
 32
0.0
 13
1.0
 23
0.0
 33
0.0
 40
0.0096487838836277
 40
0.0096487838836277
 40
0.0096487838836277
 40
0.0096487838836277
 40
0.1357038941609023
 40
0.3010752220478571
 40
0.468573003636996
 40
0.632756973600805
 40
0.7939045835523323
 40
0.9620609337880249
 40
0.9620609337880249
 40
0.9620609337880249
 40
0.9620609337880249
 10
100.4477159723351
 20
170.1241010587831
 30
0.0
 10
100.3179833855563
 20
170.7748080527971
 30
0.0
 10
99.73206055434439
 20
172.1887937370239
 30
0.0
 10
98.03449983214274
 20
173.9513291270841
 30
0.0
 10
95.66821138044706
 20
175.0703334737919
 30
0.0
 10
93.06979887729163
 20
175.3856646745884
 30
0.0
 10
90.55936260414107
 20
174.5152079883651
 30
0.0
 10
89.3456983203954
 20
173.2320508844897
 30
0.0
 10
88.95390974111412
 20
172.4194632485222
 30
0.0
  0
LINE
  5
114
330
1F
100
AcDbEntity
  8
0
  6
Continuous
 62
     7
370
    15
100
AcDbLine
 10
103.9876457338
 20
169.2441390202
 30
0.0
 11
103.9876457338
 21
165.9517889217
 31
0.0
  0
LINE
  5
115
330
1F
100
AcDbEntity
  8
0
  6
Continuous
 62
     7
370
    15
100
AcDbLine
 10
103.8626436178
 20
165.9517889217
 30
0.0
 11
103.9876457338
 21
165.9517889217
 31
0.0
  0
ARC
  5
116
330
1F
100
AcDbEntity
  8
0
  6
Continuous
 62
     7
370
    15
100
AcDbCircle
 10
88.7287181405
 20
142.0418392265
 30
0.0
 40
0.250000000000296
100
AcDbArc
 50
25.7410089873
 51
90.0000000002
  0
LINE
  5
117
330
1F
100
AcDbEntity
  8
0
  6
Continuous
 62
     7
370
    15
100
AcDbLine
 10
88.7287188355
 20
142.2918387994
 30
0.0
 11
88.7287188355
 21
142.1668394774
 31
0.0
  0
LINE
  5
118
330
1F
100
AcDbEntity
  8
0
  6
Continuous
 62
     7
370
    15
100
AcDbLine
 10
117.6789425347
 20
159.8410893072
 30
0.0
 11
117.6789425347
 21
159.9660893276
 31
0.0
  0
ARC
  5
119
330
1F
100
AcDbEntity
  8
0
  6
Continuous
 62
     7
370
    15
100
AcDbCircle
 10
117.6789421106
 20
160.4660892265
 30
0.0
 40
0.5000000000000023
100
AcDbArc
 50
270.0
 51
341.1891607357
  0
SPLINE
  5
11A
330
1F
100
AcDbEntity
  8
0
  6
Continuous
 62
     7
370
    15
100
AcDbSpline
210
0.0
220
0.0
230
1.0
 70
    11
 71
     3
 72
    21
 73
    17
 74
     0
 42
0.00000001
 43
0.00000001
 12
1.0
 22
0.0
 32
0.0
 13
1.0
 23
0.0
 33
0.0
 40
-0.0368980293660235
 40
0.0
 40
0.0
 40
0.0
 40
0.0157404247992842
 40
0.0635478598226767
 40
0.1412603334826409
 40
0.2238052616951073
 40
0.3018247182185786
 40
0.3846068057157813
 40
0.4755666873639391
 40
0.5416816154098913
 40
0.6053518415897713
 40
0.6808190479532398
 40
0.770336993707456
 40
0.8838308786033964
 40
0.9631019706339765
 40
1.0
 40
1.0
 40
1.0
 40
1.015740424799284
 10
91.83444434243728
 20
153.0162892265193
 30
0.0
 10
91.80138559961092
 20
152.8733644667959
 30
0.0
 10
91.80448897521474
 20
152.2449157224061
 30
0.0
 10
92.95345900398635
 20
151.3298473154427
 30
0.0
 10
94.5146660491262
 20
150.310206748234
 30
0.0
 10
96.53739175522827
 20
149.2623327690608
 30
0.0
 10
98.82557042894153
 20
148.996470863473
 30
0.0
 10
101.2151998283234
 20
149.4956682079925
 30
0.0
 10
102.8029363068975
 20
151.4209176359528
 30
0.0
 10
102.7738956011152
 20
153.5728673693142
 30
0.0
 10
101.8685434536088
 20
155.3689576644603
 30
0.0
 10
99.7786441973704
 20
156.3281326510107
 30
0.0
 10
97.13919154338011
 20
156.0143509589263
 30
0.0
 10
94.63715041886259
 20
155.1286328131041
 30
0.0
 10
92.74115739745048
 20
154.1857764886693
 30
0.0
 10
91.91193923086405
 20
153.3513273241981
 30
0.0
 10
91.83444434243728
 20
153.0162892265193
 30
0.0
  0
LINE
  5
11B
330
1F
100
AcDbEntity
  8
0
  6
Continuous
 62
     7
370
    15
100
AcDbLine
 10
103.9876457338
 20
148.6180895314
 30
0.0
 11
103.9876457338
 21
145.3257394329
 31
0.0
  0
LINE
  5
11C
330
1F
100
AcDbEntity
  8
0
  6
Continuous
 62
     7
370
    15
100
AcDbLine
 10
103.9876457338
 20
148.6180895314
 30
0.0
 11
103.8626436178
 21
148.6180895314
 31
0.0
  0
LINE
  5
11D
330
1F
100
AcDbEntity
  8
0
  6
Continuous
 62
     7
370
    15
100
AcDbLine
 10
104.5897495035
 20
165.3267895177
 30
0.0
 11
104.5897495035
 21
165.4517888397
 31
0.0
  0
ARC
  5
11E
330
1F
100
AcDbEntity
  8
0
  6
Continuous
 62
     7
370
    15
100
AcDbCircle
 10
104.5897479284
 20
164.9517892265
 30
0.0
 40
0.5000000000000031
100
AcDbArc
 50
12.2212026595
 51
90.0
  0
LINE
  5
11F
330
1F
100
AcDbEntity
  8
0
  6
Continuous
 62
     7
370
    15
100
AcDbLine
 10
104.9562510137
 20
165.0311714344
 30
0.0
 11
105.0784181837
 21
165.057632637
 31
0.0
  0
LINE
  5
120
330
1F
100
AcDbEntity
  8
0
  6
Continuous
 62
     7
370
    15
100
AcDbLine
 10
104.4876430217
 20
165.3267895177
 30
0.0
 11
104.4876430217
 21
165.4517888397
 31
0.0
  0
LINE
  5
121
330
1F
100
AcDbEntity
  8
0
  6
Continuous
 62
     7
370
    15
100
AcDbLine
 10
104.4876430217
 20
165.4517888397
 30
0.0
 11
104.5897495035
 21
165.4517888397
 31
0.0
  0
ARC
  5
122
330
1F
100
AcDbEntity
  8
0
  6
Continuous
 62
     7
370
    15
100
AcDbCircle
 10
81.5041443424
 20
142.7918392265
 30
0.0
 40
0.5
100
AcDbArc
 50
180.0
 51
270.0
  0
LINE
  5
123
330
1F
100
AcDbEntity
  8
0
  6
Continuous
 62
     7
370
    15
100
AcDbLine
 10
81.0041431371
 20
142.7918388814
 30
0.0
 11
81.1291452531
 21
142.7918388814
 31
0.0
  0
LINE
  5
124
330
1F
100
AcDbEntity
  8
0
  6
Continuous
 62
     7
370
    15
100
AcDbLine
 10
81.5041441504
 20
142.2918387994
 30
0.0
 11
81.5041441504
 21
142.4168390527
 31
0.0
  0
ARC
  5
125
330
1F
100
AcDbEntity
  8
0
  6
Continuous
 62
     7
370
    15
100
AcDbCircle
 10
104.5897479284
 20
149.6180892265
 30
0.0
 40
0.5000000000000031
100
AcDbArc
 50
270.0
 51
347.7787973405
  0
LINE
  5
126
330
1F
100
AcDbEntity
  8
0
  6
Continuous
 62
     7
370
    15
100
AcDbLine
 10
104.5897495035
 20
149.1180896133
 30
0.0
 11
104.5897495035
 21
149.2430889353
 31
0.0
  0
LINE
  5
127
330
1F
100
AcDbEntity
  8
0
  6
Continuous
 62
     7
370
    15
100
AcDbLine
 10
105.0784181837
 20
149.512245816
 30
0.0
 11
104.9562510137
 21
149.5387070187
 31
0.0
  0
LINE
  5
128
330
1F
100
AcDbEntity
  8
0
  6
Continuous
 62
     7
370
    15
100
AcDbLine
 10
80.0814744119
 20
159.9660893276
 30
0.0
 11
81.9152932648
 21
159.9660893276
 31
0.0
  0
LINE
  5
129
330
1F
100
AcDbEntity
  8
0
  6
Continuous
 62
     7
370
    15
100
AcDbLine
 10
81.9152932648
 20
159.8410893072
 30
0.0
 11
81.9152932648
 21
159.9660893276
 31
0.0
  0
ARC
  5
12A
330
1F
100
AcDbEntity
  8
0
  6
Continuous
 62
     7
370
    15
100
AcDbCircle
 10
104.4876443424
 20
148.6180892265
 30
0.0
 40
0.5
100
AcDbArc
 50
90.0
 51
180.0
  0
LINE
  5
12B
330
1F
100
AcDbEntity
  8
0
  6
Continuous
 62
     7
370
    15
100
AcDbLine
 10
104.4876430217
 20
149.1180896133
 30
0.0
 11
104.4876430217
 21
149.2430889353
 31
0.0
  0
ARC
  5
12C
330
1F
100
AcDbEntity
  8
0
  6
Continuous
 62
     7
370
    15
100
AcDbCircle
 10
104.4876443424
 20
165.9517892265
 30
0.0
 40
0.5
100
AcDbArc
 50
180.0
 51
270.0
  0
LINE
  5
12D
330
1F
100
AcDbEntity
  8
0
  6
Continuous
 62
     7
370
    15
100
AcDbLine
 10
84.736381102
 20
142.2918387994
 30
0.0
 11
81.5041441504
 21
142.2918387994
 31
0.0
  0
ARC
  5
12E
330
1F
100
AcDbEntity
  8
0
  6
Continuous
 62
     7
370
    15
100
AcDbCircle
 10
85.0020943424
 20
152.0105079519
 30
0.0
 40
0.5
100
AcDbArc
 50
0.0
 51
64.8933452247
  0
LINE
  5
12F
330
1F
100
AcDbEntity
  8
0
  6
Continuous
 62
     7
370
    15
100
AcDbLine
 10
85.2142464403
 20
152.4632675879
 30
0.0
 11
85.2672833983
 21
152.5764577396
 31
0.0
  0
LINE
  5
130
330
1F
100
AcDbEntity
  8
0
  6
Continuous
 62
     7
370
    15
100
AcDbLine
 10
85.5020958964
 20
152.0105079122
 30
0.0
 11
85.6270942871
 21
152.0105079122
 31
0.0
  0
LINE
  5
131
330
1F
100
AcDbEntity
  8
0
  6
Continuous
 62
     7
370
    15
100
AcDbLine
 10
105.6145545129
 20
161.9918351367
 30
0.0
 11
105.7367216829
 21
162.0182958737
 31
0.0
  0
ARC
  5
132
330
1F
100
AcDbEntity
  8
0
  6
Continuous
 62
     7
370
    15
100
AcDbCircle
 10
106.2253907565
 20
162.1241392265
 30
0.0
 40
0.5000000000000031
100
AcDbArc
 50
192.2212026595
 51
270.0
  0
LINE
  5
133
330
1F
100
AcDbEntity
  8
0
  6
Continuous
 62
     7
370
    15
100
AcDbLine
 10
106.2253903631
 20
161.4991394177
 30
0.0
 11
106.2253903631
 21
161.6241392054
 31
0.0
  0
ARC
  5
134
330
1F
100
AcDbEntity
  8
0
  6
Continuous
 62
     7
370
    15
100
AcDbCircle
 10
106.2253907565
 20
152.4457392265
 30
0.0
 40
0.5
100
AcDbArc
 50
90.0
 51
167.7787973405
  0
LINE
  5
135
330
1F
100
AcDbEntity
  8
0
  6
Continuous
 62
     7
370
    15
100
AcDbLine
 10
105.7367216829
 20
152.5515825793
 30
0.0
 11
105.6145545129
 21
152.5780433163
 31
0.0
  0
LINE
  5
136
330
1F
100
AcDbEntity
  8
0
  6
Continuous
 62
     7
370
    15
100
AcDbLine
 10
106.2253903631
 20
152.9457392477
 30
0.0
 11
106.2253903631
 21
153.0707390353
 31
0.0
  0
LINE
  5
137
330
1F
100
AcDbEntity
  8
0
  6
Continuous
 62
     7
370
    15
100
AcDbLine
 10
105.0784181837
 20
165.057632637
 30
0.0
 11
105.7367216829
 21
162.0182958737
 31
0.0
  0
ARC
  5
138
330
1F
100
AcDbEntity
  8
0
  6
Continuous
 62
     7
370
    15
100
AcDbCircle
 10
81.9152943424
 20
154.1037892265
 30
0.0
 40
0.5000000000000284
100
AcDbArc
 50
0.0
 51
90.0
  0
LINE
  5
139
330
1F
100
AcDbEntity
  8
0
  6
Continuous
 62
     7
370
    15
100
AcDbLine
 10
81.9152932648
 20
154.6037891254
 30
0.0
 11
81.9152932648
 21
154.7287891459
 31
0.0
  0
LINE
  5
13A
330
1F
100
AcDbEntity
  8
0
  6
Continuous
 62
     7
370
    15
100
AcDbLine
 10
82.4152942781
 20
154.1037892763
 30
0.0
 11
82.5402926687
 21
154.1037892763
 31
0.0
  0
LINE
  5
13B
330
1F
100
AcDbEntity
  8
0
  6
Continuous
 62
     7
370
    15
100
AcDbLine
 10
104.5897495035
 20
149.1180896133
 30
0.0
 11
104.4876430217
 21
149.1180896133
 31
0.0
  0
LINE
  5
13C
330
1F
100
AcDbEntity
  8
0
  6
Continuous
 62
     7
370
    15
100
AcDbLine
 10
70.2902715687
 20
159.3326526068
 30
0.0
 11
70.3701417927
 21
159.4288100328
 31
0.0
  0
ARC
  5
13D
330
1F
100
AcDbEntity
  8
0
  6
Continuous
 62
     7
370
    15
100
AcDbCircle
 10
70.6896108621
 20
159.8134392265
 30
0.0
 40
0.500000000000007
100
AcDbArc
 50
230.2873483667
 51
270.0
  0
LINE
  5
13E
330
1F
100
AcDbEntity
  8
0
  6
Continuous
 62
     7
370
    15
100
AcDbLine
 10
70.6896077875
 20
159.1884391688
 30
0.0
 11
70.6896077875
 21
159.3134391893
 31
0.0
  0
LINE
  5
13F
330
1F
100
AcDbEntity
  8
0
  6
Continuous
 62
     7
370
    15
100
AcDbLine
 10
70.3701417927
 20
155.1410684202
 30
0.0
 11
67.4199949984
 21
152.6907100648
 31
0.0
  0
LINE
  5
140
330
1F
100
AcDbEntity
  8
0
  6
Continuous
 62
     7
370
    15
100
AcDbLine
 10
67.4199949984
 20
152.6907100648
 30
0.0
 11
67.340132225
 21
152.786867258
 31
0.0
  0
LINE
  5
141
330
1F
100
AcDbEntity
  8
0
  6
Continuous
 62
     7
370
    15
100
AcDbLine
 10
70.3701417927
 20
155.1410684202
 30
0.0
 11
70.2902715687
 21
155.2372258462
 31
0.0
  0
LINE
  5
142
330
1F
100
AcDbEntity
  8
0
  6
Continuous
 62
     7
370
    15
100
AcDbLine
 10
67.340132225
 20
161.7830111951
 30
0.0
 11
67.4199949984
 21
161.8791683883
 31
0.0
  0
LINE
  5
143
330
1F
100
AcDbEntity
  8
0
  6
Continuous
 62
     7
370
    15
100
AcDbLine
 10
67.4199949984
 20
161.8791683883
 30
0.0
 11
70.3701417927
 21
159.4288100328
 31
0.0
  0
ARC
  5
144
330
1F
100
AcDbEntity
  8
0
  6
Continuous
 62
     7
370
    15
100
AcDbCircle
 10
67.1005278228
 20
153.0753392265
 30
0.0
 40
0.5
100
AcDbArc
 50
270.0
 51
309.7126516333
  0
LINE
  5
145
330
1F
100
AcDbEntity
  8
0
  6
Continuous
 62
     7
370
    15
100
AcDbLine
 10
67.1005290035
 20
152.5753392212
 30
0.0
 11
67.1005290035
 21
152.7003390089
 31
0.0
  0
ARC
  5
146
330
1F
100
AcDbEntity
  8
0
  6
Continuous
 62
     7
370
    15
100
AcDbCircle
 10
70.6896108621
 20
154.7564392265
 30
0.0
 40
0.500000000000007
100
AcDbArc
 50
90.0
 51
129.7126516333
  0
LINE
  5
147
330
1F
100
AcDbEntity
  8
0
  6
Continuous
 62
     7
370
    15
100
AcDbLine
 10
70.6896077875
 20
155.2564392638
 30
0.0
 11
70.6896077875
 21
155.3814392842
 31
0.0
  0
LINE
  5
148
330
1F
100
AcDbEntity
  8
0
  6
Continuous
 62
     7
370
    15
100
AcDbLine
 10
106.4645651762
 20
152.9457392477
 30
0.0
 11
106.2253903631
 21
152.9457392477
 31
0.0
  0
LINE
  5
149
330
1F
100
AcDbEntity
  8
0
  6
Continuous
 62
     7
370
    15
100
AcDbLine
 10
66.4581920985
 20
161.8695394442
 30
0.0
 11
66.4581920985
 21
161.9945392318
 31
0.0
  0
LINE
  5
14A
330
1F
100
AcDbEntity
  8
0
  6
Continuous
 62
     7
370
    15
100
AcDbLine
 10
66.4581920985
 20
161.9945392318
 30
0.0
 11
67.1005290035
 21
161.9945392318
 31
0.0
  0
LINE
  5
14B
330
1F
100
AcDbEntity
  8
0
  6
Continuous
 62
     7
370
    15
100
AcDbLine
 10
67.1005290035
 20
161.8695394442
 30
0.0
 11
67.1005290035
 21
161.9945392318
 31
0.0
  0
ARC
  5
14C
330
1F
100
AcDbEntity
  8
0
  6
Continuous
 62
     7
370
    15
100
AcDbCircle
 10
66.4581943424
 20
153.0753392265
 30
0.0
 40
0.5
100
AcDbArc
 50
180.0
 51
270.0
  0
LINE
  5
14D
330
1F
100
AcDbEntity
  8
0
  6
Continuous
 62
     7
370
    15
100
AcDbLine
 10
65.9581910853
 20
153.0753393032
 30
0.0
 11
66.0831969265
 21
153.0753393032
 31
0.0
  0
LINE
  5
14E
330
1F
100
AcDbEntity
  8
0
  6
Continuous
 62
     7
370
    15
100
AcDbLine
 10
66.4581920985
 20
152.5753392212
 30
0.0
 11
66.4581920985
 21
152.7003390089
 31
0.0
  0
LINE
  5
14F
330
1F
100
AcDbEntity
  8
0
  6
Continuous
 62
     7
370
    15
100
AcDbLine
 10
105.7367216829
 20
152.5515825793
 30
0.0
 11
105.0784181837
 21
149.512245816
 31
0.0
  0
LINE
  5
150
330
1F
100
AcDbEntity
  8
0
  6
Continuous
 62
     7
370
    15
100
AcDbLine
 10
70.6896077875
 20
159.3134391893
 30
0.0
 11
74.5463337783
 21
159.3134391893
 31
0.0
  0
LINE
  5
151
330
1F
100
AcDbEntity
  8
0
  6
Continuous
 62
     7
370
    15
100
AcDbLine
 10
88.4301442687
 20
148.6180895314
 30
0.0
 11
88.4301442687
 21
142.5418393061
 31
0.0
  0
LINE
  5
152
330
1F
100
AcDbEntity
  8
0
  6
Continuous
 62
     7
370
    15
100
AcDbLine
 10
88.4301442687
 20
142.5418393061
 30
0.0
 11
88.305145878
 21
142.5418393061
 31
0.0
  0
LINE
  5
153
330
1F
100
AcDbEntity
  8
0
  6
Continuous
 62
     7
370
    15
100
AcDbLine
 10
88.4301442687
 20
148.6180895314
 30
0.0
 11
88.305145878
 21
148.6180895314
 31
0.0
  0
LINE
  5
154
330
1F
100
AcDbEntity
  8
0
  6
Continuous
 62
     7
370
    15
100
AcDbLine
 10
89.5276743952
 20
149.2430889353
 30
0.0
 11
89.5276743952
 21
149.1180896133
 31
0.0
  0
LINE
  5
155
330
1F
100
AcDbEntity
  8
0
  6
Continuous
 62
     7
370
    15
100
AcDbLine
 10
89.5276743952
 20
149.1180896133
 30
0.0
 11
88.9301452819
 21
149.1180896133
 31
0.0
  0
LINE
  5
156
330
1F
100
AcDbEntity
  8
0
  6
Continuous
 62
     7
370
    15
100
AcDbLine
 10
88.9301452819
 20
149.2430889353
 30
0.0
 11
88.9301452819
 21
149.1180896133
 31
0.0
  0
LINE
  5
157
330
1F
100
AcDbEntity
  8
0
  6
Continuous
 62
     7
370
    15
100
AcDbLine
 10
81.5041441504
 20
172.1530394003
 30
0.0
 11
81.5041441504
 21
172.2780396536
 31
0.0
  0
LINE
  5
158
330
1F
100
AcDbEntity
  8
0
  6
Continuous
 62
     7
370
    15
100
AcDbLine
 10
81.5041441504
 20
172.2780396536
 30
0.0
 11
84.736381102
 21
172.2780396536
 31
0.0
  0
LINE
  5
159
330
1F
100
AcDbEntity
  8
0
  6
Continuous
 62
     7
370
    15
100
AcDbLine
 10
89.9129997973
 20
149.1101752341
 30
0.0
 11
89.8359347169
 21
149.011757721
 31
0.0
  0
ARC
  5
15A
330
1F
100
AcDbEntity
  8
0
  6
Continuous
 62
     7
370
    15
100
AcDbCircle
 10
89.5276747483
 20
148.6180892265
 30
0.0
 40
0.5
100
AcDbArc
 50
51.9373587031
 51
90.0
  0
LINE
  5
15B
330
1F
100
AcDbEntity
  8
0
  6
Continuous
 62
     7
370
    15
100
AcDbLine
 10
88.6801447753
 20
142.2918387994
 30
0.0
 11
88.7287188355
 21
142.2918387994
 31
0.0
  0
LINE
  5
15C
330
1F
100
AcDbEntity
  8
0
  6
Continuous
 62
     7
370
    15
100
AcDbLine
 10
88.6801447753
 20
142.2918387994
 30
0.0
 11
88.6801447753
 21
142.1668394774
 31
0.0
  0
ARC
  5
15D
330
1F
100
AcDbEntity
  8
0
  6
Continuous
 62
     7
370
    15
100
AcDbCircle
 10
67.1005278228
 20
161.4945392265
 30
0.0
 40
0.5
100
AcDbArc
 50
50.2873483667
 51
90.0
  0
LINE
  5
15E
330
1F
100
AcDbEntity
  8
0
  6
Continuous
 62
     7
370
    15
100
AcDbLine
 10
67.1005290035
 20
152.5753392212
 30
0.0
 11
66.4581920985
 21
152.5753392212
 31
0.0
  0
LINE
  5
15F
330
1F
100
AcDbEntity
  8
0
  6
Continuous
 62
     7
370
    15
100
AcDbLine
 10
81.1291452531
 20
170.5695889264
 30
0.0
 11
81.0041431371
 21
170.5695889264
 31
0.0
  0
LINE
  5
160
330
1F
100
AcDbEntity
  8
0
  6
Continuous
 62
     7
370
    15
100
AcDbLine
 10
81.0041431371
 20
170.5695889264
 30
0.0
 11
81.0041431371
 21
171.7780395717
 31
0.0
  0
LINE
  5
161
330
1F
100
AcDbEntity
  8
0
  6
Continuous
 62
     7
370
    15
100
AcDbLine
 10
81.1291452531
 20
171.7780395717
 30
0.0
 11
81.0041431371
 21
171.7780395717
 31
0.0
  0
LINE
  5
162
330
1F
100
AcDbEntity
  8
0
  6
Continuous
 62
     7
370
    15
100
AcDbLine
 10
106.2253903631
 20
161.6241392054
 30
0.0
 11
106.4645651762
 21
161.6241392054
 31
0.0
  0
LINE
  5
163
330
1F
100
AcDbEntity
  8
0
  6
Continuous
 62
     7
370
    15
100
AcDbLine
 10
81.2454450909
 20
170.2981121212
 30
0.0
 11
81.1592120711
 21
170.2076201633
 31
0.0
  0
ARC
  5
164
330
1F
100
AcDbEntity
  8
0
  6
Continuous
 62
     7
370
    15
100
AcDbCircle
 10
81.5041443424
 20
170.5695891344
 30
0.0
 40
0.5000000000000011
100
AcDbArc
 50
180.0
 51
226.3805661311
  0
ARC
  5
165
330
1F
100
AcDbEntity
  8
0
  6
Continuous
 62
     7
370
    15
100
AcDbCircle
 10
88.9301443424
 20
148.6180892265
 30
0.0
 40
0.5
100
AcDbArc
 50
90.0
 51
180.0
  0
LINE
  5
166
330
1F
100
AcDbEntity
  8
0
  6
Continuous
 62
     7
370
    15
100
AcDbLine
 10
85.4332599823
 20
166.3074004769
 30
0.0
 11
85.3470269624
 21
166.216908519
 31
0.0
  0
LINE
  5
167
330
1F
100
AcDbEntity
  8
0
  6
Continuous
 62
     7
370
    15
100
AcDbLine
 10
85.3470269624
 20
166.216908519
 30
0.0
 11
81.1592120711
 21
170.2076201633
 31
0.0
  0
ARC
  5
168
330
1F
100
AcDbEntity
  8
0
  6
Continuous
 62
     7
370
    15
100
AcDbCircle
 10
85.0020943424
 20
148.7149391344
 30
0.0
 40
0.5
100
AcDbArc
 50
313.6194338689
 51
0.0
  0
LINE
  5
169
330
1F
100
AcDbEntity
  8
0
  6
Continuous
 62
     7
370
    15
100
AcDbLine
 10
85.5020958964
 20
148.7149386972
 30
0.0
 11
85.6270942871
 21
148.7149386972
 31
0.0
  0
LINE
  5
16A
330
1F
100
AcDbEntity
  8
0
  6
Continuous
 62
     7
370
    15
100
AcDbLine
 10
85.3470269624
 20
148.3529699341
 30
0.0
 11
85.4332599823
 21
148.2624779761
 31
0.0
  0
LINE
  5
16B
330
1F
100
AcDbEntity
  8
0
  6
Continuous
 62
     7
370
    15
100
AcDbLine
 10
85.6270942871
 20
165.8549397558
 30
0.0
 11
85.5020958964
 21
165.8549397558
 31
0.0
  0
ARC
  5
16C
330
1F
100
AcDbEntity
  8
0
  6
Continuous
 62
     7
370
    15
100
AcDbCircle
 10
85.0020943424
 20
165.8549393187
 30
0.0
 40
0.5
100
AcDbArc
 50
0.0
 51
46.3805661311
  0
LINE
  5
16D
330
1F
100
AcDbEntity
  8
0
  6
Continuous
 62
     7
370
    15
100
AcDbLine
 10
85.5020958964
 20
148.7149386972
 30
0.0
 11
85.5020958964
 21
152.0105079122
 31
0.0
  0
LINE
  5
16E
330
1F
100
AcDbEntity
  8
0
  6
Continuous
 62
     7
370
    15
100
AcDbLine
 10
85.6270942871
 20
162.5593705408
 30
0.0
 11
85.5020958964
 21
162.5593705408
 31
0.0
  0
LINE
  5
16F
330
1F
100
AcDbEntity
  8
0
  6
Continuous
 62
     7
370
    15
100
AcDbLine
 10
85.5020958964
 20
162.5593705408
 30
0.0
 11
85.5020958964
 21
165.8549397558
 31
0.0
  0
LINE
  5
170
330
1F
100
AcDbEntity
  8
0
  6
Continuous
 62
     7
370
    15
100
AcDbLine
 10
125.6976205889
 20
159.9660893276
 30
0.0
 11
131.6225318272
 21
159.9660893276
 31
0.0
  0
LINE
  5
171
330
1F
100
AcDbEntity
  8
0
  6
Continuous
 62
     7
370
    15
100
AcDbLine
 10
131.6225318272
 20
159.8410893072
 30
0.0
 11
131.6225318272
 21
159.9660893276
 31
0.0
  0
LINE
  5
172
330
1F
100
AcDbEntity
  8
0
  6
Continuous
 62
     7
370
    15
100
AcDbLine
 10
85.2672833983
 20
161.9934207134
 30
0.0
 11
85.2142464403
 21
162.1066108652
 31
0.0
  0
ARC
  5
173
330
1F
100
AcDbEntity
  8
0
  6
Continuous
 62
     7
370
    15
100
AcDbCircle
 10
85.0020943424
 20
162.5593705011
 30
0.0
 40
0.5
100
AcDbArc
 50
295.1066547753
 51
0.0
  0
LINE
  5
174
330
1F
100
AcDbEntity
  8
0
  6
Continuous
 62
     7
370
    15
100
AcDbLine
 10
85.2142464403
 20
152.4632675879
 30
0.0
 11
82.7031437341
 21
153.6399107732
 31
0.0
  0
LINE
  5
175
330
1F
100
AcDbEntity
  8
0
  6
Continuous
 62
     7
370
    15
100
AcDbLine
 10
82.7031437341
 20
153.6399107732
 30
0.0
 11
82.7561806921
 21
153.7531006921
 31
0.0
  0
LINE
  5
176
330
1F
100
AcDbEntity
  8
0
  6
Continuous
 62
     7
370
    15
100
AcDbLine
 10
82.7561806921
 20
160.8167777609
 30
0.0
 11
82.7031437341
 21
160.9299676798
 31
0.0
  0
LINE
  5
177
330
1F
100
AcDbEntity
  8
0
  6
Continuous
 62
     7
370
    15
100
AcDbLine
 10
82.7031437341
 20
160.9299676798
 30
0.0
 11
85.2142464403
 21
162.1066108652
 31
0.0
  0
ARC
  5
178
330
1F
100
AcDbEntity
  8
0
  6
Continuous
 62
     7
370
    15
100
AcDbCircle
 10
82.9152943424
 20
154.0926705011
 30
0.0
 40
0.5
100
AcDbArc
 50
180.0
 51
244.8933452247
  0
LINE
  5
179
330
1F
100
AcDbEntity
  8
0
  6
Continuous
 62
     7
370
    15
100
AcDbLine
 10
82.4152942781
 20
154.0926704489
 30
0.0
 11
82.5402926687
 21
154.0926704489
 31
0.0
  0
LINE
  5
17A
330
1F
100
AcDbEntity
  8
0
  6
Continuous
 62
     7
370
    15
100
AcDbLine
 10
74.5463337783
 20
155.2564392638
 30
0.0
 11
70.6896077875
 21
155.2564392638
 31
0.0
  0
LINE
  5
17B
330
1F
100
AcDbEntity
  8
0
  6
Continuous
 62
     7
370
    15
100
AcDbLine
 10
82.4152942781
 20
154.0926704489
 30
0.0
 11
82.4152942781
 21
154.1037892763
 31
0.0
  0
LINE
  5
17C
330
1F
100
AcDbEntity
  8
0
  6
Continuous
 62
     7
370
    15
100
AcDbLine
 10
82.5402926687
 20
160.4660891768
 30
0.0
 11
82.4152942781
 21
160.4660891768
 31
0.0
  0
LINE
  5
17D
330
1F
100
AcDbEntity
  8
0
  6
Continuous
 62
     7
370
    15
100
AcDbLine
 10
82.4152942781
 20
160.4660891768
 30
0.0
 11
82.4152942781
 21
160.4772080042
 31
0.0
  0
LINE
  5
17E
330
1F
100
AcDbEntity
  8
0
  6
Continuous
 62
     7
370
    15
100
AcDbLine
 10
82.5402926687
 20
160.4772080042
 30
0.0
 11
82.4152942781
 21
160.4772080042
 31
0.0
  0
LINE
  5
17F
330
1F
100
AcDbEntity
  8
0
  6
Continuous
 62
     7
370
    15
100
AcDbLine
 10
114.2171289806
 20
159.9660893276
 30
0.0
 11
117.6789425347
 21
159.9660893276
 31
0.0
  0
ARC
  5
180
330
1F
100
AcDbEntity
  8
0
  6
Continuous
 62
     7
370
    15
100
AcDbCircle
 10
88.6801443424
 20
142.5418392265
 30
0.0
 40
0.2499999999997442
100
AcDbArc
 50
179.9999999999
 51
270.0000000001
  0
LINE
  5
181
330
1F
100
AcDbEntity
  8
0
  6
Continuous
 62
     7
370
    15
100
AcDbLine
 10
81.9152932648
 20
154.6037891254
 30
0.0
 11
80.0814744119
 21
154.6037891254
 31
0.0
  0
LINE
  5
182
330
1F
100
AcDbEntity
  8
0
  6
Continuous
 62
     7
370
    15
100
AcDbLine
 10
88.7287188355
 20
172.2780396536
 30
0.0
 11
88.6801447753
 21
172.2780396536
 31
0.0
  0
LINE
  5
183
330
1F
100
AcDbEntity
  8
0
  6
Continuous
 62
     7
370
    15
100
AcDbLine
 10
88.6801447753
 20
172.4030389756
 30
0.0
 11
88.6801447753
 21
172.2780396536
 31
0.0
  0
ARC
  5
184
330
1F
100
AcDbEntity
  8
0
  6
Continuous
 62
     7
370
    15
100
AcDbCircle
 10
81.5041443424
 20
171.7780392265
 30
0.0
 40
0.5
100
AcDbArc
 50
90.0
 51
180.0
  0
LINE
  5
185
330
1F
100
AcDbEntity
  8
0
  6
Continuous
 62
     7
370
    15
100
AcDbLine
 10
94.8448669199
 20
145.2482878536
 30
0.0
 11
94.7678018395
 21
145.1498703405
 31
0.0
  0
LINE
  5
186
330
1F
100
AcDbEntity
  8
0
  6
Continuous
 62
     7
370
    15
100
AcDbLine
 10
94.7678018395
 20
145.1498703405
 30
0.0
 11
89.8359347169
 21
149.011757721
 31
0.0
  0
LINE
  5
187
330
1F
100
AcDbEntity
  8
0
  6
Continuous
 62
     7
370
    15
100
AcDbLine
 10
81.0041431371
 20
142.7918388814
 30
0.0
 11
81.0041431371
 21
144.0002895266
 31
0.0
  0
LINE
  5
188
330
1F
100
AcDbEntity
  8
0
  6
Continuous
 62
     7
370
    15
100
AcDbLine
 10
81.0041431371
 20
144.0002895266
 30
0.0
 11
81.1291452531
 21
144.0002895266
 31
0.0
  0
LINE
  5
189
330
1F
100
AcDbEntity
  8
0
  6
Continuous
 62
     7
370
    15
100
AcDbLine
 10
95.0760621611
 20
145.1685396329
 30
0.0
 11
95.0760621611
 21
145.0435393795
 31
0.0
  0
ARC
  5
18A
330
1F
100
AcDbEntity
  8
0
  6
Continuous
 62
     7
370
    15
100
AcDbCircle
 10
95.0760639366
 20
145.5435392265
 30
0.0
 40
0.5000000000000284
100
AcDbArc
 50
231.9373587031
 51
270.0
  0
ARC
  5
18B
330
1F
100
AcDbEntity
  8
0
  6
Continuous
 62
     7
370
    15
100
AcDbCircle
 10
81.5041443424
 20
144.0002893187
 30
0.0
 40
0.5
100
AcDbArc
 50
133.6194338689
 51
180.0
  0
LINE
  5
18C
330
1F
100
AcDbEntity
  8
0
  6
Continuous
 62
     7
370
    15
100
AcDbLine
 10
81.1592120711
 20
144.3622582898
 30
0.0
 11
81.2454450909
 21
144.2717663318
 31
0.0
  0
LINE
  5
18D
330
1F
100
AcDbEntity
  8
0
  6
Continuous
 62
     7
370
    15
100
AcDbLine
 10
99.9573659186
 20
145.0435393795
 30
0.0
 11
95.0760621611
 21
145.0435393795
 31
0.0
  0
LINE
  5
18E
330
1F
100
AcDbEntity
  8
0
  6
Continuous
 62
     7
370
    15
100
AcDbLine
 10
81.1592120711
 20
144.3622582898
 30
0.0
 11
85.3470269624
 21
148.3529699341
 31
0.0
  0
CIRCLE
  5
18F
330
1F
100
AcDbEntity
  8
0
  6
Continuous
 62
     7
370
    15
100
AcDbCircle
 10
141.6290443424
 20
157.2849392265
 30
0.0
 40
4.0
  0
ARC
  5
190
330
1F
100
AcDbEntity
  8
0
  6
Continuous
 62
     7
370
    15
100
AcDbCircle
 10
141.6290443424
 20
157.2849392265
 30
0.0
 40
9.999999999999972
100
AcDbArc
 50
197.6358754453
 51
162.3641245547
  0
LINE
  5
191
330
1F
100
AcDbEntity
  8
0
  6
Continuous
 62
     7
370
    15
100
AcDbLine
 10
132.0990327779
 20
154.2552726183
 30
0.0
 11
132.2181582485
 21
154.2931434538
 31
0.0
  0
LINE
  5
192
330
1F
100
AcDbEntity
  8
0
  6
Continuous
 62
     7
370
    15
100
AcDbLine
 10
132.2181582485
 20
160.2767349992
 30
0.0
 11
132.0990327779
 21
160.3146058347
 31
0.0
  0
ARC
  5
193
330
1F
100
AcDbEntity
  8
0
  6
Continuous
 62
     7
370
    15
100
AcDbCircle
 10
131.6225322289
 20
154.1037892265
 30
0.0
 40
0.500000000000035
100
AcDbArc
 50
17.6358754453
 51
90.0
  0
LINE
  5
194
330
1F
100
AcDbEntity
  8
0
  6
Continuous
 62
     7
370
    15
100
AcDbLine
 10
131.6225318272
 20
154.6037891254
 30
0.0
 11
131.6225318272
 21
154.7287891459
 31
0.0
  0
ARC
  5
195
330
1F
100
AcDbEntity
  8
0
  6
Continuous
 62
     7
370
    15
100
AcDbCircle
 10
131.6225322289
 20
160.4660892265
 30
0.0
 40
0.5000000000000263
100
AcDbArc
 50
270.0
 51
342.3641245547
  0
LINE
  5
196
330
1F
100
AcDbEntity
  8
0
  6
Continuous
 62
     7
370
    15
100
AcDbLine
 10
131.6225318272
 20
154.6037891254
 30
0.0
 11
125.6976205889
 21
154.6037891254
 31
0.0
  0
LINE
  5
197
330
1F
100
AcDbEntity
  8
0
  6
Continuous
 62
     7
370
    15
100
AcDbLine
 10
89.8359347169
 20
165.558120732
 30
0.0
 11
94.7678018395
 21
169.4200081125
 31
0.0
  0
LINE
  5
198
330
1F
100
AcDbEntity
  8
0
  6
Continuous
 62
     7
370
    15
100
AcDbLine
 10
94.7678018395
 20
169.4200081125
 30
0.0
 11
94.8448669199
 21
169.3215905994
 31
0.0
  0
LINE
  5
199
330
1F
100
AcDbEntity
  8
0
  6
Continuous
 62
     7
370
    15
100
AcDbLine
 10
89.9129997973
 20
165.4597032189
 30
0.0
 11
89.8359347169
 21
165.558120732
 31
0.0
  0
ARC
  5
19A
330
1F
100
AcDbEntity
  8
0
  6
Continuous
 62
     7
370
    15
100
AcDbCircle
 10
95.0760639366
 20
169.0263392265
 30
0.0
 40
0.5
100
AcDbArc
 50
90.0
 51
128.0626412969
  0
LINE
  5
19B
330
1F
100
AcDbEntity
  8
0
  6
Continuous
 62
     7
370
    15
100
AcDbLine
 10
95.0760621611
 20
169.5263390735
 30
0.0
 11
95.0760621611
 21
169.4013388202
 31
0.0
  0
LINE
  5
19C
330
1F
100
AcDbEntity
  8
0
  6
Continuous
 62
     7
370
    15
100
AcDbLine
 10
89.5276743952
 20
165.3267895177
 30
0.0
 11
89.5276743952
 21
165.4517888397
 31
0.0
  0
ARC
  5
19D
330
1F
100
AcDbEntity
  8
0
  6
Continuous
 62
     7
370
    15
100
AcDbCircle
 10
89.5276747483
 20
165.9517892265
 30
0.0
 40
0.5
100
AcDbArc
 50
270.0
 51
308.0626412969
  0
LINE
  5
19E
330
1F
100
AcDbEntity
  8
0
  6
Continuous
 62
     7
370
    15
100
AcDbLine
 10
95.0760621611
 20
169.5263390735
 30
0.0
 11
99.9573659186
 21
169.5263390735
 31
0.0
  0
LINE
  5
19F
330
1F
100
AcDbEntity
  8
0
  6
Continuous
 62
     7
370
    15
100
AcDbLine
 10
88.9301452819
 20
165.3267895177
 30
0.0
 11
88.9301452819
 21
165.4517888397
 31
0.0
  0
LINE
  5
1A0
330
1F
100
AcDbEntity
  8
0
  6
Continuous
 62
     7
370
    15
100
AcDbLine
 10
88.9301452819
 20
165.4517888397
 30
0.0
 11
89.5276743952
 21
165.4517888397
 31
0.0
  0
LINE
  5
1A1
330
1F
100
AcDbEntity
  8
0
  6
Continuous
 62
     7
370
    15
100
AcDbLine
 10
66.0831969265
 20
161.4945391499
 30
0.0
 11
65.9581910853
 21
161.4945391499
 31
0.0
  0
ARC
  5
1A2
330
1F
100
AcDbEntity
  8
0
  6
Continuous
 62
     7
370
    15
100
AcDbCircle
 10
66.4581943424
 20
161.4945392265
 30
0.0
 40
0.5
100
AcDbArc
 50
90.0
 51
180.0
  0
LINE
  5
1A3
330
1F
100
AcDbEntity
  8
0
  6
Continuous
 62
     7
370
    15
100
AcDbLine
 10
65.9581910853
 20
153.0753393032
 30
0.0
 11
65.9581910853
 21
154.7564391818
 31
0.0
  0
LINE
  5
1A4
330
1F
100
AcDbEntity
  8
0
  6
Continuous
 62
     7
370
    15
100
AcDbLine
 10
65.9581910853
 20
154.7564391818
 30
0.0
 11
66.0831969265
 21
154.7564391818
 31
0.0
  0
LINE
  5
1A5
330
1F
100
AcDbEntity
  8
0
  6
Continuous
 62
     7
370
    15
100
AcDbLine
 10
66.0831969265
 20
159.8134392712
 30
0.0
 11
65.9581910853
 21
159.8134392712
 31
0.0
  0
LINE
  5
1A6
330
1F
100
AcDbEntity
  8
0
  6
Continuous
 62
     7
370
    15
100
AcDbLine
 10
65.9581910853
 20
159.8134392712
 30
0.0
 11
65.9581910853
 21
161.4945391499
 31
0.0
  0
ARC
  5
1A7
330
1F
100
AcDbEntity
  8
0
  6
Continuous
 62
     7
370
    15
100
AcDbCircle
 10
65.4581943424
 20
154.7564392265
 30
0.0
 40
0.5
100
AcDbArc
 50
0.0
 51
90.0
  0
LINE
  5
1A8
330
1F
100
AcDbEntity
  8
0
  6
Continuous
 62
     7
370
    15
100
AcDbLine
 10
65.4581975226
 20
155.2564392638
 30
0.0
 11
65.4581975226
 21
155.3814392842
 31
0.0
  0
LINE
  5
1A9
330
1F
100
AcDbEntity
  8
0
  6
Continuous
 62
     7
370
    15
100
AcDbLine
 10
65.4581975226
 20
159.1884391688
 30
0.0
 11
65.4581975226
 21
159.3134391893
 31
0.0
  0
ARC
  5
1AA
330
1F
100
AcDbEntity
  8
0
  6
Continuous
 62
     7
370
    15
100
AcDbCircle
 10
65.4581943424
 20
159.8134392265
 30
0.0
 40
0.5
100
AcDbArc
 50
270.0
 51
0.0
  0
LINE
  5
1AB
330
1F
100
AcDbEntity
  8
0
  6
Continuous
 62
     7
370
    15
100
AcDbLine
 10
65.4581975226
 20
155.2564392638
 30
0.0
 11
61.7366250638
 21
155.2564392638
 31
0.0
  0
LINE
  5
1AC
330
1F
100
AcDbEntity
  8
0
  6
Continuous
 62
     7
370
    15
100
AcDbLine
 10
61.7366250638
 20
159.3134391893
 30
0.0
 11
65.4581975226
 21
159.3134391893
 31
0.0
  0
ARC
  5
1AD
330
1F
100
AcDbEntity
  8
0
  6
Continuous
 62
     7
370
    15
100
AcDbCircle
 10
82.9152943424
 20
160.4772079519
 30
0.0
 40
0.5
100
AcDbArc
 50
115.1066547753
 51
180.0
  0
LINE
  5
1AE
330
1F
100
AcDbEntity
  8
0
  6
Continuous
 62
     7
370
    15
100
AcDbLine
 10
88.305145878
 20
165.9517889217
 30
0.0
 11
88.4301442687
 21
165.9517889217
 31
0.0
  0
ARC
  5
1AF
330
1F
100
AcDbEntity
  8
0
  6
Continuous
 62
     7
370
    15
100
AcDbCircle
 10
88.9301443424
 20
165.9517892265
 30
0.0
 40
0.5
100
AcDbArc
 50
180.0
 51
270.0
  0
LINE
  5
1B0
330
1F
100
AcDbEntity
  8
0
  6
Continuous
 62
     7
370
    15
100
AcDbLine
 10
117.6789425347
 20
154.6037891254
 30
0.0
 11
114.2171289806
 21
154.6037891254
 31
0.0
  0
LINE
  5
1B1
330
1F
100
AcDbEntity
  8
0
  6
Continuous
 62
     7
370
    15
100
AcDbLine
 10
88.305145878
 20
172.028039147
 30
0.0
 11
88.4301442687
 21
172.028039147
 31
0.0
  0
LINE
  5
1B2
330
1F
100
AcDbEntity
  8
0
  6
Continuous
 62
     7
370
    15
100
AcDbLine
 10
88.4301442687
 20
172.028039147
 30
0.0
 11
88.4301442687
 21
165.9517889217
 31
0.0
  0
ARC
  5
1B3
330
1F
100
AcDbEntity
  8
0
  6
Continuous
 62
     7
370
    15
100
AcDbCircle
 10
81.9152943424
 20
160.4660892265
 30
0.0
 40
0.5
100
AcDbArc
 50
270.0
 51
0.0
  0
ARC
  5
1B4
330
1F
100
AcDbEntity
  8
0
  6
Continuous
 62
     7
370
    15
100
AcDbCircle
 10
88.6801443424
 20
172.0280392265
 30
0.0
 40
0.25
100
AcDbArc
 50
90.0
 51
180.0
  0
LINE
  5
1B5
330
1F
100
AcDbEntity
  8
0
  6
Continuous
 62
     7
370
    15
100
AcDbLine
 10
151.6290441189
 20
107.8634278796
 30
0.0
 11
151.5040447969
 21
107.9884278855
 31
0.0
  0
LINE
  5
1B6
330
1F
100
AcDbEntity
  8
0
  6
Continuous
 62
     7
370
    15
100
AcDbLine
 10
151.6290441189
 20
107.1134278585
 30
0.0
 11
151.6290441189
 21
107.8634278796
 31
0.0
  0
LINE
  5
1B7
330
1F
100
AcDbEntity
  8
0
  6
Continuous
 62
     7
370
    15
100
AcDbLine
 10
151.5040447969
 20
106.988427838
 30
0.0
 11
151.6290441189
 21
107.1134278585
 31
0.0
  0
LINE
  5
1B8
330
1F
100
AcDbEntity
  8
0
  6
Continuous
 62
     7
370
    15
100
AcDbLine
 10
147.7540441822
 20
107.9884278855
 30
0.0
 11
147.6290443946
 21
108.1134278914
 31
0.0
  0
LINE
  5
1B9
330
1F
100
AcDbEntity
  8
0
  6
Continuous
 62
     7
370
    15
100
AcDbLine
 10
135.6290442903
 20
108.1134278914
 30
0.0
 11
135.5040445026
 21
107.9884278855
 31
0.0
  0
LINE
  5
1BA
330
1F
100
AcDbEntity
  8
0
  6
Continuous
 62
     7
370
    15
100
AcDbLine
 10
147.6290443946
 20
109.363427878
 30
0.0
 11
147.5040441413
 21
109.4884278985
 31
0.0
  0
LINE
  5
1BB
330
1F
100
AcDbEntity
  8
0
  6
Continuous
 62
     7
370
    15
100
AcDbLine
 10
135.7540445436
 20
109.4884278985
 30
0.0
 11
135.6290442903
 21
109.363427878
 31
0.0
  0
LINE
  5
1BC
330
1F
100
AcDbEntity
  8
0
  6
Continuous
 62
     7
370
    15
100
AcDbLine
 10
147.6290443946
 20
108.1134278914
 30
0.0
 11
147.6290443946
 21
109.363427878
 31
0.0
  0
LINE
  5
1BD
330
1F
100
AcDbEntity
  8
0
  6
Continuous
 62
     7
370
    15
100
AcDbLine
 10
135.6290442903
 20
109.363427878
 30
0.0
 11
135.6290442903
 21
108.1134278914
 31
0.0
  0
SPLINE
  5
1BE
330
1F
100
AcDbEntity
  8
0
  6
Continuous
 62
     7
370
    15
100
AcDbSpline
210
0.0
220
0.0
230
1.0
 70
    24
 71
     3
 72
    16
 73
    12
 74
     0
 42
0.00000001
 43
0.00000001
 12
1.0
 22
0.0
 32
0.0
 13
1.0
 23
0.0
 33
0.0
 40
0.0165284669613326
 40
0.0165284669613326
 40
0.0165284669613326
 40
0.0165284669613326
 40
0.1481988881287784
 40
0.2741095883470692
 40
0.3978456172523802
 40
0.5209312432306381
 40
0.5817343289831634
 40
0.7022494312282588
 40
0.8317862225238378
 40
0.9372006616280918
 40
1.0
 40
1.0
 40
1.0
 40
1.0
 10
103.9876443424373
 20
107.8634278855005
 30
0.0
 10
103.9876443424373
 20
107.8634278855005
 30
0.0
 10
103.4973211354097
 20
107.8634278855005
 30
0.0
 10
101.514252630316
 20
107.8634278855005
 30
0.0
 10
98.73357072322267
 20
107.8634278855005
 30
0.0
 10
96.01373278760735
 20
107.8634278855005
 30
0.0
 10
93.2105210484877
 20
107.8634278855005
 30
0.0
 10
90.29749551573627
 20
107.8634278855005
 30
0.0
 10
87.43493591981222
 20
107.8634278855005
 30
0.0
 10
85.65737823944745
 20
107.8634278855005
 30
0.0
 10
85.2648566488245
 20
107.8634278855005
 30
0.0
 10
85.23578272973522
 20
107.8634278855005
 30
0.0
  0
LINE
  5
1BF
330
1F
100
AcDbEntity
  8
0
  6
Continuous
 62
     7
370
    15
100
AcDbLine
 10
85.2357823435
 20
107.8634278796
 30
0.0
 11
85.3606317226
 21
107.9884278855
 31
0.0
  0
SPLINE
  5
1C0
330
1F
100
AcDbEntity
  8
0
  6
Continuous
 62
     7
370
    15
100
AcDbSpline
210
0.0
220
0.0
230
1.0
 70
    24
 71
     3
 72
    56
 73
    52
 74
     0
 42
0.00000001
 43
0.00000001
 12
1.0
 22
0.0
 32
0.0
 13
1.0
 23
0.0
 33
0.0
 40
0.0
 40
0.0
 40
0.0
 40
0.0
 40
0.0056624124055332
 40
0.0113177540932502
 40
0.0169723817884115
 40
0.0226326546218087
 40
0.0283049127380857
 40
0.0339954562216565
 40
0.0397105246858751
 40
0.0454562778457805
 40
0.0512387773581006
 40
0.057063970166666
 40
0.0629376735397951
 40
0.0688655619315925
 40
0.0748531557444085
 40
0.080905812017525
 40
0.0870287170196692
 40
0.093226880681725
 40
0.0995051327720394
 40
0.1058681206903847
 40
0.1123203087378641
 40
0.1188659787083583
 40
0.1255092316417321
 40
0.1563367966664784
 40
0.1872806312698798
 40
0.2186316701067995
 40
0.2506697564093406
 40
0.2922789659797551
 40
0.3337382589089178
 40
0.3757115589697402
 40
0.3997641555462708
 40
0.4241512025456424
 40
0.4490131769090349
 40
0.4744826984153871
 40
0.5006831627414114
 40
0.5633435221133968
 40
0.6254052730179883
 40
0.6881012406878304
 40
0.7499626695165337
 40
0.7817344623247557
 40
0.8129559335081444
 40
0.8438627358031484
 40
0.8746977372461575
 40
0.8905253250934341
 40
0.9062393679361478
 40
0.921872666701743
 40
0.9374585321110939
 40
0.9530305792871968
 40
0.9686225127267506
 40
0.984267908405496
 40
1.0
 40
1.0
 40
1.0
 40
1.0
 10
85.36063353537115
 20
107.9884278855005
 30
0.0
 10
85.3636622473143
 20
107.9884278855005
 30
0.0
 10
85.36971588921405
 20
107.9884278855005
 30
0.0
 10
85.38526811958627
 20
107.9884278855005
 30
0.0
 10
85.40555081974755
 20
107.9884278855005
 30
0.0
 10
85.43102742181327
 20
107.9884278855005
 30
0.0
 10
85.4615735035768
 20
107.9884278855005
 30
0.0
 10
85.49722218099676
 20
107.9884278855005
 30
0.0
 10
85.53796417520427
 20
107.9884278855005
 30
0.0
 10
85.5838015427239
 20
107.9884278855005
 30
0.0
 10
85.63473322760721
 20
107.9884278855005
 30
0.0
 10
85.69075896984316
 20
107.9884278855005
 30
0.0
 10
85.75187826446296
 20
107.9884278855005
 30
0.0
 10
85.81809065608314
 20
107.9884278855005
 30
0.0
 10
85.88939567545947
 20
107.9884278855005
 30
0.0
 10
85.96579285643848
 20
107.9884278855005
 30
0.0
 10
86.04728178768562
 20
107.9884278855005
 30
0.0
 10
86.13386193236306
 20
107.9884278855005
 30
0.0
 10
86.22553334850892
 20
107.9884278855005
 30
0.0
 10
86.32229396859819
 20
107.9884278855005
 30
0.0
 10
86.42414997683102
 20
107.9884278855005
 30
0.0
 10
86.53107626541254
 20
107.9884278855005
 30
0.0
 10
86.7785895972242
 20
107.9884278855005
 30
0.0
 10
87.19255027791648
 20
107.9884278855005
 30
0.0
 10
87.8138078105396
 20
107.9884278855005
 30
0.0
 10
88.49564827454353
 20
107.9884278855005
 30
0.0
 10
89.30314716028836
 20
107.9884278855005
 30
0.0
 10
90.24189705727532
 20
107.9884278855005
 30
0.0
 10
91.31581407862492
 20
107.9884278855005
 30
0.0
 10
92.26937343577829
 20
107.9884278855005
 30
0.0
 10
93.08138314462806
 20
107.9884278855005
 30
0.0
 10
93.74255869630302
 20
107.9884278855005
 30
0.0
 10
94.41515281209455
 20
107.9884278855005
 30
0.0
 10
95.09929300636286
 20
107.9884278855005
 30
0.0
 10
96.10922287081503
 20
107.9884278855005
 30
0.0
 10
97.41185247798059
 20
107.9884278855005
 30
0.0
 10
98.93221711577462
 20
107.9884278855005
 30
0.0
 10
100.3167311883538
 20
107.9884278855005
 30
0.0
 10
101.3309647636827
 20
107.9884278855005
 30
0.0
 10
102.036732507635
 20
107.9884278855005
 30
0.0
 10
102.5094203185358
 20
107.9884278855005
 30
0.0
 10
102.9141444939876
 20
107.9884278855005
 30
0.0
 10
103.1956892531322
 20
107.9884278855005
 30
0.0
 10
103.387025964851
 20
107.9884278855005
 30
0.0
 10
103.5135191232645
 20
107.9884278855005
 30
0.0
 10
103.6206402689804
 20
107.9884278855005
 30
0.0
 10
103.7083854622849
 20
107.9884278855005
 30
0.0
 10
103.7768678946303
 20
107.9884278855005
 30
0.0
 10
103.8256268926869
 20
107.9884278855005
 30
0.0
 10
103.8563935895452
 20
107.9884278855005
 30
0.0
 10
103.8605569237128
 20
107.9884278855005
 30
0.0
 10
103.8626443424373
 20
107.9884278855005
 30
0.0
  0
LINE
  5
1C1
330
1F
100
AcDbEntity
  8
0
  6
Continuous
 62
     7
370
    15
100
AcDbLine
 10
103.9876457338
 20
107.8634278796
 30
0.0
 11
103.8626436178
 21
107.9884278855
 31
0.0
  0
SPLINE
  5
1C2
330
1F
100
AcDbEntity
  8
0
  6
Continuous
 62
     7
370
    15
100
AcDbSpline
210
0.0
220
0.0
230
1.0
 70
    24
 71
     3
 72
    16
 73
    12
 74
     0
 42
0.00000001
 43
0.00000001
 12
1.0
 22
0.0
 32
0.0
 13
1.0
 23
0.0
 33
0.0
 40
0.0165284669613326
 40
0.0165284669613326
 40
0.0165284669613326
 40
0.0165284669613326
 40
0.0793278053332408
 40
0.1847422444374948
 40
0.3142790357330739
 40
0.4347941379781693
 40
0.4955972237306945
 40
0.6186828497089525
 40
0.7424188786142634
 40
0.8683295788325542
 40
1.0
 40
1.0
 40
1.0
 40
1.0
 10
85.23578272973522
 20
107.1134278855005
 30
0.0
 10
85.2648566488245
 20
107.1134278855005
 30
0.0
 10
85.65737823944745
 20
107.1134278855005
 30
0.0
 10
87.43493591981222
 20
107.1134278855005
 30
0.0
 10
90.29749551573627
 20
107.1134278855005
 30
0.0
 10
93.2105210484877
 20
107.1134278855005
 30
0.0
 10
96.01373278760735
 20
107.1134278855005
 30
0.0
 10
98.73357072322267
 20
107.1134278855005
 30
0.0
 10
101.514252630316
 20
107.1134278855005
 30
0.0
 10
103.4973211354097
 20
107.1134278855005
 30
0.0
 10
103.9876443424373
 20
107.1134278855005
 30
0.0
 10
103.9876443424373
 20
107.1134278855005
 30
0.0
  0
LINE
  5
1C3
330
1F
100
AcDbEntity
  8
0
  6
Continuous
 62
     7
370
    15
100
AcDbLine
 10
85.2357823435
 20
107.1134278585
 30
0.0
 11
85.2357823435
 21
107.8634278796
 31
0.0
  0
LINE
  5
1C4
330
1F
100
AcDbEntity
  8
0
  6
Continuous
 62
     7
370
    15
100
AcDbLine
 10
103.9876457338
 20
107.1134278585
 30
0.0
 11
103.9876457338
 21
107.8634278796
 31
0.0
  0
SPLINE
  5
1C5
330
1F
100
AcDbEntity
  8
0
  6
Continuous
 62
     7
370
    15
100
AcDbSpline
210
0.0
220
0.0
230
1.0
 70
    24
 71
     3
 72
    49
 73
    45
 74
     0
 42
0.00000001
 43
0.00000001
 12
1.0
 22
0.0
 32
0.0
 13
1.0
 23
0.0
 33
0.0
 40
0.0
 40
0.0
 40
0.0
 40
0.0
 40
0.0083791149220765
 40
0.0167302567420889
 40
0.0250583765988494
 40
0.033368466780622
 40
0.0416655521206578
 40
0.0499546811026736
 40
0.0582409167529055
 40
0.0665293273998188
 40
0.074824977385358
 40
0.0831329178126422
 40
0.0914581774142429
 40
0.0998057536226287
 40
0.1081806039201317
 40
0.1165876375400466
 40
0.1250317075834079
 40
0.1559244516878393
 40
0.1868858842592666
 40
0.218161044893105
 40
0.2499877276560634
 40
0.3120216500784935
 40
0.3748146326392053
 40
0.4369252264538899
 40
0.499526056161637
 40
0.563347979703543
 40
0.6239218416530369
 40
0.6490814246784888
 40
0.6740208910196188
 40
0.6988826171814674
 40
0.7238103117622696
 40
0.7489465519242634
 40
0.8121551805291316
 40
0.8741137450242501
 40
0.8904128050633697
 40
0.906280834981067
 40
0.9217908976264068
 40
0.9370212084419843
 40
0.947925077806108
 40
0.9586154055614221
 40
0.9691288207148776
 40
0.979503826215044
 40
0.9897804808426341
 40
1.0
 40
1.0
 40
1.0
 40
1.0
 10
103.8626443424373
 20
106.9884278855005
 30
0.0
 10
103.8619868642403
 20
106.9884278855005
 30
0.0
 10
103.8606741027924
 20
106.9884278855005
 30
0.0
 10
103.8517734017861
 20
106.9884278855005
 30
0.0
 10
103.8377927370705
 20
106.9884278855005
 30
0.0
 10
103.8182392175998
 20
106.9884278855005
 30
0.0
 10
103.7932443553714
 20
106.9884278855005
 30
0.0
 10
103.7627729958036
 20
106.9884278855005
 30
0.0
 10
103.7268345518867
 20
106.9884278855005
 30
0.0
 10
103.68542654275
 20
106.9884278855005
 30
0.0
 10
103.6385497230955
 20
106.9884278855005
 30
0.0
 10
103.5862039329886
 20
106.9884278855005
 30
0.0
 10
103.5283895763129
 20
106.9884278855005
 30
0.0
 10
103.4651058449176
 20
106.9884278855005
 30
0.0
 10
103.3963563545914
 20
106.9884278855005
 30
0.0
 10
103.3221282655215
 20
106.9884278855005
 30
0.0
 10
103.1720250926827
 20
106.9884278855005
 30
0.0
 10
102.9175353463571
 20
106.9884278855005
 30
0.0
 10
102.5127761138529
 20
106.9884278855005
 30
0.0
 10
102.0397195110152
 20
106.9884278855005
 30
0.0
 10
101.3326026373471
 20
106.9884278855005
 30
0.0
 10
100.3166264466547
 20
106.9884278855005
 30
0.0
 10
98.93008641275947
 20
106.9884278855005
 30
0.0
 10
97.40901622066428
 20
106.9884278855005
 30
0.0
 10
95.78314515631637
 20
106.9884278855005
 30
0.0
 10
94.11138295596946
 20
106.9884278855005
 30
0.0
 10
92.75557720313321
 20
106.9884278855005
 30
0.0
 10
91.77144074125552
 20
106.9884278855005
 30
0.0
 10
91.11463614704319
 20
106.9884278855005
 30
0.0
 10
90.47401876308837
 20
106.9884278855005
 30
0.0
 10
89.8493994288061
 20
106.9884278855005
 30
0.0
 10
88.93771038522613
 20
106.9884278855005
 30
0.0
 10
87.80720451938694
 20
106.9884278855005
 30
0.0
 10
86.89851103471868
 20
106.9884278855005
 30
0.0
 10
86.37929173761711
 20
106.9884278855005
 30
0.0
 10
86.1400029700544
 20
106.9884278855005
 30
0.0
 10
85.93074644818532
 20
106.9884278855005
 30
0.0
 10
85.76787639670303
 20
106.9884278855005
 30
0.0
 10
85.64361339676144
 20
106.9884278855005
 30
0.0
 10
85.55090691972153
 20
106.9884278855005
 30
0.0
 10
85.47586180127587
 20
106.9884278855005
 30
0.0
 10
85.41894120340804
 20
106.9884278855005
 30
0.0
 10
85.37851080246412
 20
106.9884278855005
 30
0.0
 10
85.36658153966593
 20
106.9884278855005
 30
0.0
 10
85.36063353537115
 20
106.9884278855005
 30
0.0
  0
LINE
  5
1C6
330
1F
100
AcDbEntity
  8
0
  6
Continuous
 62
     7
370
    15
100
AcDbLine
 10
85.3606317226
 20
106.988427838
 30
0.0
 11
85.2357823435
 21
107.1134278585
 31
0.0
  0
LINE
  5
1C7
330
1F
100
AcDbEntity
  8
0
  6
Continuous
 62
     7
370
    15
100
AcDbLine
 10
103.8626436178
 20
106.988427838
 30
0.0
 11
103.9876457338
 21
107.1134278585
 31
0.0
  0
LINE
  5
1C8
330
1F
100
AcDbEntity
  8
0
  6
Continuous
 62
     7
370
    15
100
AcDbLine
 10
85.2357823435
 20
107.8634278796
 30
0.0
 11
84.736381102
 21
107.8634278796
 31
0.0
  0
LINE
  5
1C9
330
1F
100
AcDbEntity
  8
0
  6
Continuous
 62
     7
370
    15
100
AcDbLine
 10
84.736381102
 20
107.8634278796
 30
0.0
 11
84.736381102
 21
107.9884278855
 31
0.0
  0
LINE
  5
1CA
330
1F
100
AcDbEntity
  8
0
  6
Continuous
 62
     7
370
    15
100
AcDbLine
 10
84.736381102
 20
107.9884278855
 30
0.0
 11
85.3606317226
 21
107.9884278855
 31
0.0
  0
LINE
  5
1CB
330
1F
100
AcDbEntity
  8
0
  6
Continuous
 62
     7
370
    15
100
AcDbLine
 10
84.736381102
 20
107.1134278585
 30
0.0
 11
85.2357823435
 21
107.1134278585
 31
0.0
  0
LINE
  5
1CC
330
1F
100
AcDbEntity
  8
0
  6
Continuous
 62
     7
370
    15
100
AcDbLine
 10
84.736381102
 20
107.1134278585
 30
0.0
 11
84.736381102
 21
107.8634278796
 31
0.0
  0
LINE
  5
1CD
330
1F
100
AcDbEntity
  8
0
  6
Continuous
 62
     7
370
    15
100
AcDbLine
 10
84.736381102
 20
106.988427838
 30
0.0
 11
84.736381102
 21
107.1134278585
 31
0.0
  0
LINE
  5
1CE
330
1F
100
AcDbEntity
  8
0
  6
Continuous
 62
     7
370
    15
100
AcDbLine
 10
85.3606317226
 20
106.988427838
 30
0.0
 11
84.736381102
 21
106.988427838
 31
0.0
  0
LINE
  5
1CF
330
1F
100
AcDbEntity
  8
0
  6
Continuous
 62
     7
370
    15
100
AcDbLine
 10
81.5041441504
 20
107.8634278796
 30
0.0
 11
81.0041431371
 21
107.8634278796
 31
0.0
  0
LINE
  5
1D0
330
1F
100
AcDbEntity
  8
0
  6
Continuous
 62
     7
370
    15
100
AcDbLine
 10
81.0041431371
 20
107.8634278796
 30
0.0
 11
81.1291452531
 21
107.9884278855
 31
0.0
  0
LINE
  5
1D1
330
1F
100
AcDbEntity
  8
0
  6
Continuous
 62
     7
370
    15
100
AcDbLine
 10
81.5041441504
 20
107.8634278796
 30
0.0
 11
81.5041441504
 21
107.9884278855
 31
0.0
  0
LINE
  5
1D2
330
1F
100
AcDbEntity
  8
0
  6
Continuous
 62
     7
370
    15
100
AcDbLine
 10
81.1291452531
 20
107.9884278855
 30
0.0
 11
81.5041441504
 21
107.9884278855
 31
0.0
  0
LINE
  5
1D3
330
1F
100
AcDbEntity
  8
0
  6
Continuous
 62
     7
370
    15
100
AcDbLine
 10
81.5041441504
 20
107.1134278585
 30
0.0
 11
84.736381102
 21
107.1134278585
 31
0.0
  0
LINE
  5
1D4
330
1F
100
AcDbEntity
  8
0
  6
Continuous
 62
     7
370
    15
100
AcDbLine
 10
81.5041441504
 20
107.1134278585
 30
0.0
 11
81.5041441504
 21
107.8634278796
 31
0.0
  0
LINE
  5
1D5
330
1F
100
AcDbEntity
  8
0
  6
Continuous
 62
     7
370
    15
100
AcDbLine
 10
84.736381102
 20
107.8634278796
 30
0.0
 11
81.5041441504
 21
107.8634278796
 31
0.0
  0
LINE
  5
1D6
330
1F
100
AcDbEntity
  8
0
  6
Continuous
 62
     7
370
    15
100
AcDbLine
 10
81.5041441504
 20
107.9884278855
 30
0.0
 11
84.736381102
 21
107.9884278855
 31
0.0
  0
LINE
  5
1D7
330
1F
100
AcDbEntity
  8
0
  6
Continuous
 62
     7
370
    15
100
AcDbLine
 10
81.0041431371
 20
107.1134278585
 30
0.0
 11
81.5041441504
 21
107.1134278585
 31
0.0
  0
LINE
  5
1D8
330
1F
100
AcDbEntity
  8
0
  6
Continuous
 62
     7
370
    15
100
AcDbLine
 10
81.0041431371
 20
107.1134278585
 30
0.0
 11
81.0041431371
 21
107.8634278796
 31
0.0
  0
LINE
  5
1D9
330
1F
100
AcDbEntity
  8
0
  6
Continuous
 62
     7
370
    15
100
AcDbLine
 10
81.1291452531
 20
106.988427838
 30
0.0
 11
81.0041431371
 21
107.1134278585
 31
0.0
  0
LINE
  5
1DA
330
1F
100
AcDbEntity
  8
0
  6
Continuous
 62
     7
370
    15
100
AcDbLine
 10
81.5041441504
 20
106.988427838
 30
0.0
 11
81.5041441504
 21
107.1134278585
 31
0.0
  0
LINE
  5
1DB
330
1F
100
AcDbEntity
  8
0
  6
Continuous
 62
     7
370
    15
100
AcDbLine
 10
81.5041441504
 20
106.988427838
 30
0.0
 11
81.1291452531
 21
106.988427838
 31
0.0
  0
LINE
  5
1DC
330
1F
100
AcDbEntity
  8
0
  6
Continuous
 62
     7
370
    15
100
AcDbLine
 10
84.736381102
 20
106.988427838
 30
0.0
 11
81.5041441504
 21
106.988427838
 31
0.0
  0
LINE
  5
1DD
330
1F
100
AcDbEntity
  8
0
  6
Continuous
 62
     7
370
    15
100
AcDbLine
 10
151.6290441189
 20
107.8634278796
 30
0.0
 11
132.0990327779
 21
107.8634278796
 31
0.0
  0
LINE
  5
1DE
330
1F
100
AcDbEntity
  8
0
  6
Continuous
 62
     7
370
    15
100
AcDbLine
 10
132.2181582485
 20
107.9884278855
 30
0.0
 11
132.0990327779
 21
107.8634278796
 31
0.0
  0
LINE
  5
1DF
330
1F
100
AcDbEntity
  8
0
  6
Continuous
 62
     7
370
    15
100
AcDbLine
 10
132.2181582485
 20
107.9884278855
 30
0.0
 11
151.5040447969
 21
107.9884278855
 31
0.0
  0
LINE
  5
1E0
330
1F
100
AcDbEntity
  8
0
  6
Continuous
 62
     7
370
    15
100
AcDbLine
 10
132.0990327779
 20
107.1134278585
 30
0.0
 11
151.6290441189
 21
107.1134278585
 31
0.0
  0
LINE
  5
1E1
330
1F
100
AcDbEntity
  8
0
  6
Continuous
 62
     7
370
    15
100
AcDbLine
 10
132.0990327779
 20
107.1134278585
 30
0.0
 11
132.0990327779
 21
107.8634278796
 31
0.0
  0
LINE
  5
1E2
330
1F
100
AcDbEntity
  8
0
  6
Continuous
 62
     7
370
    15
100
AcDbLine
 10
132.2181582485
 20
106.988427838
 30
0.0
 11
132.0990327779
 21
107.1134278585
 31
0.0
  0
LINE
  5
1E3
330
1F
100
AcDbEntity
  8
0
  6
Continuous
 62
     7
370
    15
100
AcDbLine
 10
151.5040447969
 20
106.988427838
 30
0.0
 11
132.2181582485
 21
106.988427838
 31
0.0
  0
LINE
  5
1E4
330
1F
100
AcDbEntity
  8
0
  6
Continuous
 62
     7
370
    15
100
AcDbLine
 10
104.4876430217
 20
107.8634278796
 30
0.0
 11
103.9876457338
 21
107.8634278796
 31
0.0
  0
LINE
  5
1E5
330
1F
100
AcDbEntity
  8
0
  6
Continuous
 62
     7
370
    15
100
AcDbLine
 10
104.4876430217
 20
107.8634278796
 30
0.0
 11
104.4876430217
 21
107.9884278855
 31
0.0
  0
LINE
  5
1E6
330
1F
100
AcDbEntity
  8
0
  6
Continuous
 62
     7
370
    15
100
AcDbLine
 10
103.8626436178
 20
107.9884278855
 30
0.0
 11
104.4876430217
 21
107.9884278855
 31
0.0
  0
LINE
  5
1E7
330
1F
100
AcDbEntity
  8
0
  6
Continuous
 62
     7
370
    15
100
AcDbLine
 10
103.9876457338
 20
107.1134278585
 30
0.0
 11
104.4876430217
 21
107.1134278585
 31
0.0
  0
LINE
  5
1E8
330
1F
100
AcDbEntity
  8
0
  6
Continuous
 62
     7
370
    15
100
AcDbLine
 10
104.4876430217
 20
107.1134278585
 30
0.0
 11
104.4876430217
 21
107.8634278796
 31
0.0
  0
LINE
  5
1E9
330
1F
100
AcDbEntity
  8
0
  6
Continuous
 62
     7
370
    15
100
AcDbLine
 10
104.4876430217
 20
106.988427838
 30
0.0
 11
104.4876430217
 21
107.1134278585
 31
0.0
  0
LINE
  5
1EA
330
1F
100
AcDbEntity
  8
0
  6
Continuous
 62
     7
370
    15
100
AcDbLine
 10
104.4876430217
 20
106.988427838
 30
0.0
 11
103.8626436178
 21
106.988427838
 31
0.0
  0
LINE
  5
1EB
330
1F
100
AcDbEntity
  8
0
  6
Continuous
 62
     7
370
    15
100
AcDbLine
 10
104.5897495035
 20
107.8634278796
 30
0.0
 11
104.4876430217
 21
107.8634278796
 31
0.0
  0
LINE
  5
1EC
330
1F
100
AcDbEntity
  8
0
  6
Continuous
 62
     7
370
    15
100
AcDbLine
 10
104.5897495035
 20
107.8634278796
 30
0.0
 11
104.5897495035
 21
107.9884278855
 31
0.0
  0
LINE
  5
1ED
330
1F
100
AcDbEntity
  8
0
  6
Continuous
 62
     7
370
    15
100
AcDbLine
 10
104.4876430217
 20
107.9884278855
 30
0.0
 11
104.5897495035
 21
107.9884278855
 31
0.0
  0
LINE
  5
1EE
330
1F
100
AcDbEntity
  8
0
  6
Continuous
 62
     7
370
    15
100
AcDbLine
 10
104.4876430217
 20
107.1134278585
 30
0.0
 11
104.5897495035
 21
107.1134278585
 31
0.0
  0
LINE
  5
1EF
330
1F
100
AcDbEntity
  8
0
  6
Continuous
 62
     7
370
    15
100
AcDbLine
 10
104.5897495035
 20
107.1134278585
 30
0.0
 11
104.5897495035
 21
107.8634278796
 31
0.0
  0
LINE
  5
1F0
330
1F
100
AcDbEntity
  8
0
  6
Continuous
 62
     7
370
    15
100
AcDbLine
 10
104.5897495035
 20
107.1134278585
 30
0.0
 11
105.0784181837
 21
107.1134278585
 31
0.0
  0
LINE
  5
1F1
330
1F
100
AcDbEntity
  8
0
  6
Continuous
 62
     7
370
    15
100
AcDbLine
 10
105.0784181837
 20
107.8634278796
 30
0.0
 11
104.5897495035
 21
107.8634278796
 31
0.0
  0
LINE
  5
1F2
330
1F
100
AcDbEntity
  8
0
  6
Continuous
 62
     7
370
    15
100
AcDbLine
 10
105.0784181837
 20
107.1134278585
 30
0.0
 11
105.0784181837
 21
107.8634278796
 31
0.0
  0
LINE
  5
1F3
330
1F
100
AcDbEntity
  8
0
  6
Continuous
 62
     7
370
    15
100
AcDbLine
 10
105.0784181837
 20
107.8634278796
 30
0.0
 11
104.9562510137
 21
107.9884278855
 31
0.0
  0
LINE
  5
1F4
330
1F
100
AcDbEntity
  8
0
  6
Continuous
 62
     7
370
    15
100
AcDbLine
 10
104.5897495035
 20
107.9884278855
 30
0.0
 11
104.9562510137
 21
107.9884278855
 31
0.0
  0
LINE
  5
1F5
330
1F
100
AcDbEntity
  8
0
  6
Continuous
 62
     7
370
    15
100
AcDbLine
 10
104.5897495035
 20
106.988427838
 30
0.0
 11
104.5897495035
 21
107.1134278585
 31
0.0
  0
LINE
  5
1F6
330
1F
100
AcDbEntity
  8
0
  6
Continuous
 62
     7
370
    15
100
AcDbLine
 10
104.9562510137
 20
106.988427838
 30
0.0
 11
105.0784181837
 21
107.1134278585
 31
0.0
  0
LINE
  5
1F7
330
1F
100
AcDbEntity
  8
0
  6
Continuous
 62
     7
370
    15
100
AcDbLine
 10
104.9562510137
 20
106.988427838
 30
0.0
 11
104.5897495035
 21
106.988427838
 31
0.0
  0
LINE
  5
1F8
330
1F
100
AcDbEntity
  8
0
  6
Continuous
 62
     7
370
    15
100
AcDbLine
 10
104.5897495035
 20
106.988427838
 30
0.0
 11
104.4876430217
 21
106.988427838
 31
0.0
  0
LINE
  5
1F9
330
1F
100
AcDbEntity
  8
0
  6
Continuous
 62
     7
370
    15
100
AcDbLine
 10
105.0784181837
 20
107.1134278585
 30
0.0
 11
105.7367216829
 21
107.1134278585
 31
0.0
  0
LINE
  5
1FA
330
1F
100
AcDbEntity
  8
0
  6
Continuous
 62
     7
370
    15
100
AcDbLine
 10
105.7367216829
 20
107.8634278796
 30
0.0
 11
105.0784181837
 21
107.8634278796
 31
0.0
  0
LINE
  5
1FB
330
1F
100
AcDbEntity
  8
0
  6
Continuous
 62
     7
370
    15
100
AcDbLine
 10
105.7367216829
 20
107.1134278585
 30
0.0
 11
105.7367216829
 21
107.8634278796
 31
0.0
  0
LINE
  5
1FC
330
1F
100
AcDbEntity
  8
0
  6
Continuous
 62
     7
370
    15
100
AcDbLine
 10
105.7367216829
 20
107.8634278796
 30
0.0
 11
105.6145545129
 21
107.9884278855
 31
0.0
  0
LINE
  5
1FD
330
1F
100
AcDbEntity
  8
0
  6
Continuous
 62
     7
370
    15
100
AcDbLine
 10
104.9562510137
 20
107.9884278855
 30
0.0
 11
105.6145545129
 21
107.9884278855
 31
0.0
  0
LINE
  5
1FE
330
1F
100
AcDbEntity
  8
0
  6
Continuous
 62
     7
370
    15
100
AcDbLine
 10
105.6145545129
 20
106.988427838
 30
0.0
 11
105.7367216829
 21
107.1134278585
 31
0.0
  0
LINE
  5
1FF
330
1F
100
AcDbEntity
  8
0
  6
Continuous
 62
     7
370
    15
100
AcDbLine
 10
105.6145545129
 20
106.988427838
 30
0.0
 11
104.9562510137
 21
106.988427838
 31
0.0
  0
SPLINE
  5
200
330
1F
100
AcDbEntity
  8
0
  6
Continuous
 62
     7
370
    15
100
AcDbSpline
210
0.0
220
0.0
230
1.0
 70
    24
 71
     3
 72
    15
 73
    11
 74
     0
 42
0.00000001
 43
0.00000001
 12
1.0
 22
0.0
 32
0.0
 13
1.0
 23
0.0
 33
0.0
 40
0.0286278872442369
 40
0.0286278872442369
 40
0.0286278872442369
 40
0.0286278872442369
 40
0.1411903696022385
 40
0.2628105150943547
 40
0.3704299832248528
 40
0.47059569299624
 40
0.5788994602939077
 40
0.7016457626341337
 40
0.8430652325500154
 40
0.9642525189713245
 40
0.9642525189713245
 40
0.9642525189713245
 40
0.9642525189713245
 10
106.9080314588977
 20
107.1134278855005
 30
0.0
 10
107.0906319664926
 20
107.1134278855005
 30
0.0
 10
107.5317153818606
 20
107.1134278855005
 30
0.0
 10
108.4031755250643
 20
107.1134278855005
 30
0.0
 10
109.4812999735778
 20
107.1134278855005
 30
0.0
 10
110.6323674104748
 20
107.1134278855005
 30
0.0
 10
111.7136976687509
 20
107.1134278855005
 30
0.0
 10
112.6270480249948
 20
107.1134278855005
 30
0.0
 10
113.310081539381
 20
107.1134278855005
 30
0.0
 10
113.6205570360121
 20
107.1134278855005
 30
0.0
 10
113.7356359424197
 20
107.1134278855005
 30
0.0
  0
LINE
  5
201
330
1F
100
AcDbEntity
  8
0
  6
Continuous
 62
     7
370
    15
100
AcDbLine
 10
106.9080311839
 20
107.1134278585
 30
0.0
 11
106.9080311839
 21
107.8634278796
 31
0.0
  0
SPLINE
  5
202
330
1F
100
AcDbEntity
  8
0
  6
Continuous
 62
     7
370
    15
100
AcDbSpline
210
0.0
220
0.0
230
1.0
 70
    24
 71
     3
 72
    15
 73
    11
 74
     0
 42
0.00000001
 43
0.00000001
 12
1.0
 22
0.0
 32
0.0
 13
1.0
 23
0.0
 33
0.0
 40
0.0286278872442369
 40
0.0286278872442369
 40
0.0286278872442369
 40
0.0286278872442369
 40
0.149815173665546
 40
0.2912346435814276
 40
0.4139809459216537
 40
0.5222847132193214
 40
0.6224504229907085
 40
0.7300698911212067
 40
0.8516900366133229
 40
0.9642525189713245
 40
0.9642525189713245
 40
0.9642525189713245
 40
0.9642525189713245
 10
113.7356359424197
 20
107.8634278855005
 30
0.0
 10
113.6205570360121
 20
107.8634278855005
 30
0.0
 10
113.310081539381
 20
107.8634278855005
 30
0.0
 10
112.6270480249948
 20
107.8634278855005
 30
0.0
 10
111.7136976687509
 20
107.8634278855005
 30
0.0
 10
110.6323674104748
 20
107.8634278855005
 30
0.0
 10
109.4812999735778
 20
107.8634278855005
 30
0.0
 10
108.4031755250643
 20
107.8634278855005
 30
0.0
 10
107.5317153818606
 20
107.8634278855005
 30
0.0
 10
107.0906319664926
 20
107.8634278855005
 30
0.0
 10
106.9080314588977
 20
107.8634278855005
 30
0.0
  0
LINE
  5
203
330
1F
100
AcDbEntity
  8
0
  6
Continuous
 62
     7
370
    15
100
AcDbLine
 10
113.7356352095
 20
107.1134278585
 30
0.0
 11
113.7356352095
 21
107.8634278796
 31
0.0
  0
LINE
  5
204
330
1F
100
AcDbEntity
  8
0
  6
Continuous
 62
     7
370
    15
100
AcDbLine
 10
106.9080311839
 20
107.8634278796
 30
0.0
 11
107.0188995485
 21
107.9884278855
 31
0.0
  0
LINE
  5
205
330
1F
100
AcDbEntity
  8
0
  6
Continuous
 62
     7
370
    15
100
AcDbLine
 10
113.7356352095
 20
107.8634278796
 30
0.0
 11
113.6152636294
 21
107.9884278855
 31
0.0
  0
SPLINE
  5
206
330
1F
100
AcDbEntity
  8
0
  6
Continuous
 62
     7
370
    15
100
AcDbSpline
210
0.0
220
0.0
230
1.0
 70
    24
 71
     3
 72
    36
 73
    32
 74
     0
 42
0.00000001
 43
0.00000001
 12
1.0
 22
0.0
 32
0.0
 13
1.0
 23
0.0
 33
0.0
 40
0.0
 40
0.0
 40
0.0
 40
0.0
 40
0.0200554722457915
 40
0.0396867020728143
 40
0.0589090633021252
 40
0.077738931255139
 40
0.0961937260850667
 40
0.1142919510392044
 40
0.1320532237963986
 40
0.1494982988208672
 40
0.1666490785247851
 40
0.1835286109674873
 40
0.2001610718709523
 40
0.216571728930171
 40
0.2327868867682672
 40
0.2488338114425613
 40
0.315482417930903
 40
0.3770417872295032
 40
0.4371233824651064
 40
0.4995954815148312
 40
0.5443103837474824
 40
0.5907996637539538
 40
0.6400467458617268
 40
0.6928812828948471
 40
0.7499767536227762
 40
0.7895058903076901
 40
0.8297240191039679
 40
0.870762721303855
 40
0.9127458635181517
 40
0.9557891596242643
 40
1.0
 40
1.0
 40
1.0
 40
1.0
 10
107.0188984327524
 20
107.9884278855005
 30
0.0
 10
107.0490538221838
 20
107.9884278855005
 30
0.0
 10
107.1087267105399
 20
107.9884278855005
 30
0.0
 10
107.2029904092403
 20
107.9884278855005
 30
0.0
 10
107.2995383516628
 20
107.9884278855005
 30
0.0
 10
107.3987585399186
 20
107.9884278855005
 30
0.0
 10
107.5005511655218
 20
107.9884278855005
 30
0.0
 10
107.6049431259423
 20
107.9884278855005
 30
0.0
 10
107.7119284013372
 20
107.9884278855005
 30
0.0
 10
107.8215094665959
 20
107.9884278855005
 30
0.0
 10
107.9336866559478
 20
107.9884278855005
 30
0.0
 10
108.0484602543675
 20
107.9884278855005
 30
0.0
 10
108.1658322260086
 20
107.9884278855005
 30
0.0
 10
108.2857972421676
 20
107.9884278855005
 30
0.0
 10
108.4083759933359
 20
107.9884278855005
 30
0.0
 10
108.6652922916394
 20
107.9884278855005
 30
0.0
 10
109.0705254103469
 20
107.9884278855005
 30
0.0
 10
109.6555492661796
 20
107.9884278855005
 30
0.0
 10
110.2524423941452
 20
107.9884278855005
 30
0.0
 10
110.7801246961374
 20
107.9884278855005
 30
0.0
 10
111.2325496076165
 20
107.9884278855005
 30
0.0
 10
111.6129916224942
 20
107.9884278855005
 30
0.0
 10
111.9756334390186
 20
107.9884278855005
 30
0.0
 10
112.3207317433685
 20
107.9884278855005
 30
0.0
 10
112.6061042442577
 20
107.9884278855005
 30
0.0
 10
112.8407182683748
 20
107.9884278855005
 30
0.0
 10
113.0282716794863
 20
107.9884278855005
 30
0.0
 10
113.2000095082221
 20
107.9884278855005
 30
0.0
 10
113.3555055415622
 20
107.9884278855005
 30
0.0
 10
113.4963813653747
 20
107.9884278855005
 30
0.0
 10
113.5752837909971
 20
107.9884278855005
 30
0.0
 10
113.6152628989811
 20
107.9884278855005
 30
0.0
  0
LINE
  5
207
330
1F
100
AcDbEntity
  8
0
  6
Continuous
 62
     7
370
    15
100
AcDbLine
 10
107.0188995485
 20
106.988427838
 30
0.0
 11
106.9080311839
 21
107.1134278585
 31
0.0
  0
LINE
  5
208
330
1F
100
AcDbEntity
  8
0
  6
Continuous
 62
     7
370
    15
100
AcDbLine
 10
113.6152636294
 20
106.988427838
 30
0.0
 11
113.7356352095
 21
107.1134278585
 31
0.0
  0
SPLINE
  5
209
330
1F
100
AcDbEntity
  8
0
  6
Continuous
 62
     7
370
    15
100
AcDbSpline
210
0.0
220
0.0
230
1.0
 70
    24
 71
     3
 72
    34
 73
    30
 74
     0
 42
0.00000001
 43
0.00000001
 12
1.0
 22
0.0
 32
0.0
 13
1.0
 23
0.0
 33
0.0
 40
0.0
 40
0.0
 40
0.0
 40
0.0
 40
0.0222292571173779
 40
0.0441439112925354
 40
0.0657561921029298
 40
0.0870788494097041
 40
0.1081251594426119
 40
0.1289089280124504
 40
0.1494444904472194
 40
0.1697467078542965
 40
0.1898309593305259
 40
0.2097131297769566
 40
0.2294095930266283
 40
0.2489371900629952
 40
0.3194098732986685
 40
0.3836321403943504
 40
0.4430178098034727
 40
0.4993460753831694
 40
0.5616141284967816
 40
0.6215200412321169
 40
0.6829510023636769
 40
0.7495276067622206
 40
0.7820254464177739
 40
0.8152955371134882
 40
0.8495493217970519
 40
0.8849806366614308
 40
0.9217647073784316
 40
0.96005819405217
 40
1.0
 40
1.0
 40
1.0
 40
1.0
 10
113.6152628989811
 20
106.9884278855005
 30
0.0
 10
113.5955262741776
 20
106.9884278855005
 30
0.0
 10
113.556332350155
 20
106.9884278855005
 30
0.0
 10
113.4920315428149
 20
106.9884278855005
 30
0.0
 10
113.4242096728076
 20
106.9884278855005
 30
0.0
 10
113.3524572725787
 20
106.9884278855005
 30
0.0
 10
113.2768814253103
 20
106.9884278855005
 30
0.0
 10
113.1974536113164
 20
106.9884278855005
 30
0.0
 10
113.1141809637506
 20
106.9884278855005
 30
0.0
 10
113.0270611624975
 20
106.9884278855005
 30
0.0
 10
112.9360947534799
 20
106.9884278855005
 30
0.0
 10
112.8412802550087
 20
106.9884278855005
 30
0.0
 10
112.742621565436
 20
106.9884278855005
 30
0.0
 10
112.5507123391019
 20
106.9884278855005
 30
0.0
 10
112.2526875319469
 20
106.9884278855005
 30
0.0
 10
111.8136746343105
 20
106.9884278855005
 30
0.0
 10
111.3449837697175
 20
106.9884278855005
 30
0.0
 10
110.826283348065
 20
106.9884278855005
 30
0.0
 10
110.2641977555995
 20
106.9884278855005
 30
0.0
 10
109.6688223758219
 20
106.9884278855005
 30
0.0
 10
109.0841981888339
 20
106.9884278855005
 30
0.0
 10
108.6324268879366
 20
106.9884278855005
 30
0.0
 10
108.292874665784
 20
106.9884278855005
 30
0.0
 10
108.0527354499434
 20
106.9884278855005
 30
0.0
 10
107.8234209217317
 20
106.9884278855005
 30
0.0
 10
107.6047563889376
 20
106.9884278855005
 30
0.0
 10
107.3971104572452
 20
106.9884278855005
 30
0.0
 10
107.1989721050652
 20
106.9884278855005
 30
0.0
 10
107.0797602051507
 20
106.9884278855005
 30
0.0
 10
107.0188984327524
 20
106.9884278855005
 30
0.0
  0
SPLINE
  5
20A
330
1F
100
AcDbEntity
  8
0
  6
Continuous
 62
     7
370
    15
100
AcDbSpline
210
0.0
220
0.0
230
1.0
 70
    24
 71
     3
 72
    16
 73
    12
 74
     0
 42
0.00000001
 43
0.00000001
 12
1.0
 22
0.0
 32
0.0
 13
1.0
 23
0.0
 33
0.0
 40
0.0424238996729967
 40
0.0424238996729967
 40
0.0424238996729967
 40
0.0424238996729967
 40
0.1576368680370461
 40
0.2860311856560423
 40
0.3863514401712749
 40
0.4639520898881781
 40
0.5398114716086486
 40
0.63746331240425
 40
0.7633778374676116
 40
0.8375030250744729
 40
0.9588525741077901
 40
0.9588525741077901
 40
0.9588525741077901
 40
0.9588525741077901
 10
79.59451014710567
 20
107.8634278855005
 30
0.0
 10
79.5101767171558
 20
107.8634278855005
 30
0.0
 10
79.30932767433788
 20
107.8634278855005
 30
0.0
 10
78.85534082689591
 20
107.8634278855005
 30
0.0
 10
78.22049843179288
 20
107.8634278855005
 30
0.0
 10
77.4162943494703
 20
107.8634278855005
 30
0.0
 10
76.58898423066572
 20
107.8634278855005
 30
0.0
 10
75.9592280316987
 20
107.8634278855005
 30
0.0
 10
75.53533657906571
 20
107.8634278855005
 30
0.0
 10
75.23687029002745
 20
107.8634278855005
 30
0.0
 10
75.11387817121738
 20
107.8634278855005
 30
0.0
 10
75.03648419488226
 20
107.8634278855005
 30
0.0
  0
LINE
  5
20B
330
1F
100
AcDbEntity
  8
0
  6
Continuous
 62
     7
370
    15
100
AcDbLine
 10
75.036485124
 20
107.8634278796
 30
0.0
 11
75.1590248231
 21
107.9884278855
 31
0.0
  0
LINE
  5
20C
330
1F
100
AcDbEntity
  8
0
  6
Continuous
 62
     7
370
    15
100
AcDbLine
 10
79.5945119146
 20
107.8634278796
 30
0.0
 11
79.4727694277
 21
107.9884278855
 31
0.0
  0
SPLINE
  5
20D
330
1F
100
AcDbEntity
  8
0
  6
Continuous
 62
     7
370
    15
100
AcDbSpline
210
0.0
220
0.0
230
1.0
 70
    24
 71
     3
 72
    31
 73
    27
 74
     0
 42
0.00000001
 43
0.00000001
 12
1.0
 22
0.0
 32
0.0
 13
1.0
 23
0.0
 33
0.0
 40
0.0
 40
0.0
 40
0.0
 40
0.0
 40
0.0740324008681626
 40
0.1242665709694049
 40
0.1897948348032363
 40
0.2482857862159197
 40
0.312073919854371
 40
0.3735472602652887
 40
0.4021925644391504
 40
0.4287389166209638
 40
0.4535068854174925
 40
0.4768902949988194
 40
0.499355902272775
 40
0.5296536396266244
 40
0.5593721681534515
 40
0.5906702767603255
 40
0.6254135477989969
 40
0.6532394300747418
 40
0.6832414382888587
 40
0.715769880825847
 40
0.7510999948283551
 40
0.7921728375082441
 40
0.8374140492298999
 40
0.8870327838643489
 40
0.9411874990039145
 40
1.0
 40
1.0
 40
1.0
 40
1.0
 10
75.15902215425763
 20
107.9884278855005
 30
0.0
 10
75.20136647150684
 20
107.9884278855005
 30
0.0
 10
75.27244323037046
 20
107.9884278855005
 30
0.0
 10
75.39087778819157
 20
107.9884278855005
 30
0.0
 10
75.52567814973341
 20
107.9884278855005
 30
0.0
 10
75.70872087850911
 20
107.9884278855005
 30
0.0
 10
75.93707719828909
 20
107.9884278855005
 30
0.0
 10
76.16919473251028
 20
107.9884278855005
 30
0.0
 10
76.37297152294931
 20
107.9884278855005
 30
0.0
 10
76.53133521869033
 20
107.9884278855005
 30
0.0
 10
76.69637640074511
 20
107.9884278855005
 30
0.0
 10
76.8686435144523
 20
107.9884278855005
 30
0.0
 10
77.0692548991482
 20
107.9884278855005
 30
0.0
 10
77.30302239657557
 20
107.9884278855005
 30
0.0
 10
77.5674325882005
 20
107.9884278855005
 30
0.0
 10
77.82875134224183
 20
107.9884278855005
 30
0.0
 10
78.05773658634709
 20
107.9884278855005
 30
0.0
 10
78.25873015939574
 20
107.9884278855005
 30
0.0
 10
78.43367018341154
 20
107.9884278855005
 30
0.0
 10
78.6014961453486
 20
107.9884278855005
 30
0.0
 10
78.76706372541915
 20
107.9884278855005
 30
0.0
 10
78.92729328516316
 20
107.9884278855005
 30
0.0
 10
79.07965352074527
 20
107.9884278855005
 30
0.0
 10
79.2222539501171
 20
107.9884278855005
 30
0.0
 10
79.35623143398065
 20
107.9884278855005
 30
0.0
 10
79.43286980510202
 20
107.9884278855005
 30
0.0
 10
79.47276894072824
 20
107.9884278855005
 30
0.0
  0
SPLINE
  5
20E
330
1F
100
AcDbEntity
  8
0
  6
Continuous
 62
     7
370
    15
100
AcDbSpline
210
0.0
220
0.0
230
1.0
 70
    24
 71
     3
 72
    16
 73
    12
 74
     0
 42
0.00000001
 43
0.00000001
 12
1.0
 22
0.0
 32
0.0
 13
1.0
 23
0.0
 33
0.0
 40
0.0424238996729967
 40
0.0424238996729967
 40
0.0424238996729967
 40
0.0424238996729967
 40
0.1637734487063139
 40
0.2378986363131753
 40
0.3638131613765368
 40
0.4614650021721382
 40
0.5373243838926087
 40
0.6149250336095119
 40
0.7152452881247445
 40
0.8436396057437409
 40
0.9588525741077901
 40
0.9588525741077901
 40
0.9588525741077901
 40
0.9588525741077901
 10
75.03648419488226
 20
107.1134278855005
 30
0.0
 10
75.11387817121738
 20
107.1134278855005
 30
0.0
 10
75.23687029002745
 20
107.1134278855005
 30
0.0
 10
75.53533657906571
 20
107.1134278855005
 30
0.0
 10
75.9592280316987
 20
107.1134278855005
 30
0.0
 10
76.58898423066572
 20
107.1134278855005
 30
0.0
 10
77.4162943494703
 20
107.1134278855005
 30
0.0
 10
78.22049843179288
 20
107.1134278855005
 30
0.0
 10
78.85534082689591
 20
107.1134278855005
 30
0.0
 10
79.30932767433788
 20
107.1134278855005
 30
0.0
 10
79.5101767171558
 20
107.1134278855005
 30
0.0
 10
79.59451014710567
 20
107.1134278855005
 30
0.0
  0
LINE
  5
20F
330
1F
100
AcDbEntity
  8
0
  6
Continuous
 62
     7
370
    15
100
AcDbLine
 10
75.036485124
 20
107.1134278585
 30
0.0
 11
75.036485124
 21
107.8634278796
 31
0.0
  0
LINE
  5
210
330
1F
100
AcDbEntity
  8
0
  6
Continuous
 62
     7
370
    15
100
AcDbLine
 10
79.5945119146
 20
107.1134278585
 30
0.0
 11
79.5945119146
 21
107.8634278796
 31
0.0
  0
LINE
  5
211
330
1F
100
AcDbEntity
  8
0
  6
Continuous
 62
     7
370
    15
100
AcDbLine
 10
75.1590248231
 20
106.988427838
 30
0.0
 11
75.036485124
 21
107.1134278585
 31
0.0
  0
LINE
  5
212
330
1F
100
AcDbEntity
  8
0
  6
Continuous
 62
     7
370
    15
100
AcDbLine
 10
79.4727694277
 20
106.988427838
 30
0.0
 11
79.5945119146
 21
107.1134278585
 31
0.0
  0
SPLINE
  5
213
330
1F
100
AcDbEntity
  8
0
  6
Continuous
 62
     7
370
    15
100
AcDbSpline
210
0.0
220
0.0
230
1.0
 70
    24
 71
     3
 72
    37
 73
    33
 74
     0
 42
0.00000001
 43
0.00000001
 12
1.0
 22
0.0
 32
0.0
 13
1.0
 23
0.0
 33
0.0
 40
0.0
 40
0.0
 40
0.0
 40
0.0
 40
0.029843145738141
 40
0.0585110281450645
 40
0.08601591052029
 40
0.1123716796398062
 40
0.1375941203606399
 40
0.1617012438841804
 40
0.1847136803451672
 40
0.2066551478847634
 40
0.2275530114679117
 40
0.2474389448258676
 40
0.2824358908523604
 40
0.3146267103551471
 40
0.3442678588400772
 40
0.371687426687061
 40
0.4069547012470108
 40
0.4384266995860467
 40
0.4679298781259234
 40
0.4976558473851059
 40
0.5211783174392942
 40
0.545465525359279
 40
0.5710178831500702
 40
0.598266188745287
 40
0.6436561405309941
 40
0.6936344736674439
 40
0.7487242124967625
 40
0.7873762900636398
 40
0.8292191981909135
 40
0.874364747031251
 40
0.9252169439841954
 40
1.0
 40
1.0
 40
1.0
 40
1.0
 10
79.47276894072823
 20
106.9884278855005
 30
0.0
 10
79.45293432851538
 20
106.9884278855005
 30
0.0
 10
79.41404621787127
 20
106.9884278855005
 30
0.0
 10
79.35098846889706
 20
106.9884278855005
 30
0.0
 10
79.28587667243912
 20
106.9884278855005
 30
0.0
 10
79.21833407126785
 20
106.9884278855005
 30
0.0
 10
79.1484553338188
 20
106.9884278855005
 30
0.0
 10
79.07621387090114
 20
106.9884278855005
 30
0.0
 10
79.00162093744345
 20
106.9884278855005
 30
0.0
 10
78.92464982878276
 20
106.9884278855005
 30
0.0
 10
78.84537856880394
 20
106.9884278855005
 30
0.0
 10
78.74146595343676
 20
106.9884278855005
 30
0.0
 10
78.60986431379936
 20
106.9884278855005
 30
0.0
 10
78.44507674946165
 20
106.9884278855005
 30
0.0
 10
78.27397133151548
 20
106.9884278855005
 30
0.0
 10
78.0753830545731
 20
106.9884278855005
 30
0.0
 10
77.84802246011742
 20
106.9884278855005
 30
0.0
 10
77.5876753912951
 20
106.9884278855005
 30
0.0
 10
77.32536306339938
 20
106.9884278855005
 30
0.0
 10
77.08996039659421
 20
106.9884278855005
 30
0.0
 10
76.88482840803579
 20
106.9884278855005
 30
0.0
 10
76.7046555979064
 20
106.9884278855005
 30
0.0
 10
76.53316351636055
 20
106.9884278855005
 30
0.0
 10
76.33886222187228
 20
106.9884278855005
 30
0.0
 10
76.12877162164844
 20
106.9884278855005
 30
0.0
 10
75.91073655513588
 20
106.9884278855005
 30
0.0
 10
75.73524408763885
 20
106.9884278855005
 30
0.0
 10
75.59470025671858
 20
106.9884278855005
 30
0.0
 10
75.4842899520067
 20
106.9884278855005
 30
0.0
 10
75.38048255110668
 20
106.9884278855005
 30
0.0
 10
75.27375945937348
 20
106.9884278855005
 30
0.0
 10
75.20183464159501
 20
106.9884278855005
 30
0.0
 10
75.15902215425763
 20
106.9884278855005
 30
0.0
  0
SPLINE
  5
214
330
1F
100
AcDbEntity
  8
0
  6
Continuous
 62
     7
370
    15
100
AcDbSpline
210
0.0
220
0.0
230
1.0
 70
    24
 71
     3
 72
    15
 73
    11
 74
     0
 42
0.00000001
 43
0.00000001
 12
1.0
 22
0.0
 32
0.0
 13
1.0
 23
0.0
 33
0.0
 40
0.0327558797686175
 40
0.0327558797686175
 40
0.0327558797686175
 40
0.0327558797686175
 40
0.1477215891893615
 40
0.278287715246578
 40
0.394669247831226
 40
0.4992087396648209
 40
0.6053310763746284
 40
0.7217126089592762
 40
0.8522787350164929
 40
0.9672436697823387
 40
0.9672436697823387
 40
0.9672436697823387
 40
0.9672436697823387
 10
118.1522362489107
 20
107.1134278855005
 30
0.0
 10
118.2866304926731
 20
107.1134278855005
 30
0.0
 10
118.6468796526686
 20
107.1134278855005
 30
0.0
 10
119.4414618068013
 20
107.1134278855005
 30
0.0
 10
120.4926315311974
 20
107.1134278855005
 30
0.0
 10
121.6848565284454
 20
107.1134278855005
 30
0.0
 10
122.8793385511019
 20
107.1134278855005
 30
0.0
 10
123.9350285236549
 20
107.1134278855005
 30
0.0
 10
124.7296526438075
 20
107.1134278855005
 30
0.0
 10
125.0899407764143
 20
107.1134278855005
 30
0.0
 10
125.2243208198632
 20
107.1134278855005
 30
0.0
  0
LINE
  5
215
330
1F
100
AcDbEntity
  8
0
  6
Continuous
 62
     7
370
    15
100
AcDbLine
 10
118.1522369419
 20
107.1134278585
 30
0.0
 11
118.1522369419
 21
107.8634278796
 31
0.0
  0
SPLINE
  5
216
330
1F
100
AcDbEntity
  8
0
  6
Continuous
 62
     7
370
    15
100
AcDbSpline
210
0.0
220
0.0
230
1.0
 70
    24
 71
     3
 72
    15
 73
    11
 74
     0
 42
0.00000001
 43
0.00000001
 12
1.0
 22
0.0
 32
0.0
 13
1.0
 23
0.0
 33
0.0
 40
0.0327558797686175
 40
0.0327558797686175
 40
0.0327558797686175
 40
0.0327558797686175
 40
0.1477208145344633
 40
0.2782869405916799
 40
0.3946684731763278
 40
0.5007908098861352
 40
0.6053303017197301
 40
0.7217118343043781
 40
0.8522779603615946
 40
0.9672436697823387
 40
0.9672436697823387
 40
0.9672436697823387
 40
0.9672436697823387
 10
125.2243208198632
 20
107.8634278855005
 30
0.0
 10
125.0899407764143
 20
107.8634278855005
 30
0.0
 10
124.7296526438075
 20
107.8634278855005
 30
0.0
 10
123.9350285236549
 20
107.8634278855005
 30
0.0
 10
122.8793385511019
 20
107.8634278855005
 30
0.0
 10
121.6848565284454
 20
107.8634278855005
 30
0.0
 10
120.4926315311974
 20
107.8634278855005
 30
0.0
 10
119.4414618068013
 20
107.8634278855005
 30
0.0
 10
118.6468796526686
 20
107.8634278855005
 30
0.0
 10
118.2866304926731
 20
107.8634278855005
 30
0.0
 10
118.1522362489107
 20
107.8634278855005
 30
0.0
  0
LINE
  5
217
330
1F
100
AcDbEntity
  8
0
  6
Continuous
 62
     7
370
    15
100
AcDbLine
 10
125.2243205939
 20
107.1134278585
 30
0.0
 11
125.2243205939
 21
107.8634278796
 31
0.0
  0
LINE
  5
218
330
1F
100
AcDbEntity
  8
0
  6
Continuous
 62
     7
370
    15
100
AcDbLine
 10
118.1522369419
 20
107.8634278796
 30
0.0
 11
118.2705596123
 21
107.9884278855
 31
0.0
  0
LINE
  5
219
330
1F
100
AcDbEntity
  8
0
  6
Continuous
 62
     7
370
    15
100
AcDbLine
 10
125.2243205939
 20
107.8634278796
 30
0.0
 11
125.1059960608
 21
107.9884278855
 31
0.0
  0
SPLINE
  5
21A
330
1F
100
AcDbEntity
  8
0
  6
Continuous
 62
     7
370
    15
100
AcDbSpline
210
0.0
220
0.0
230
1.0
 70
    24
 71
     3
 72
    36
 73
    32
 74
     0
 42
0.00000001
 43
0.00000001
 12
1.0
 22
0.0
 32
0.0
 13
1.0
 23
0.0
 33
0.0
 40
0.0
 40
0.0
 40
0.0
 40
0.0
 40
0.0192684471143034
 40
0.0382468637393529
 40
0.0569491175762202
 40
0.075389699376986
 40
0.093583725135744
 40
0.1115469332862216
 40
0.1292956762950069
 40
0.1468469060899194
 40
0.1642181528449221
 40
0.181427496758043
 40
0.1984935326071898
 40
0.2154353270480429
 40
0.2322723688231082
 40
0.2490245122734843
 40
0.3134956745900997
 40
0.3742112847348607
 40
0.4378973982368103
 40
0.499078135515145
 40
0.5606696233278535
 40
0.6245163618441618
 40
0.6852211594662738
 40
0.7497271888323699
 40
0.7834928959963453
 40
0.8176741715207916
 40
0.8524274334987497
 40
0.8879015345469033
 40
0.9242364692197019
 40
0.9615625474440993
 40
1.0
 40
1.0
 40
1.0
 40
1.0
 10
118.2705597834955
 20
107.9884278855005
 30
0.0
 10
118.2915305514675
 20
107.9884278855005
 30
0.0
 10
118.3331564334276
 20
107.9884278855005
 30
0.0
 10
118.4010515349605
 20
107.9884278855005
 30
0.0
 10
118.4723557578533
 20
107.9884278855005
 30
0.0
 10
118.5474781130233
 20
107.9884278855005
 30
0.0
 10
118.6263118709918
 20
107.9884278855005
 30
0.0
 10
118.7088855250672
 20
107.9884278855005
 30
0.0
 10
118.7951920564028
 20
107.9884278855005
 30
0.0
 10
118.8852336776526
 20
107.9884278855005
 30
0.0
 10
118.9790102963065
 20
107.9884278855005
 30
0.0
 10
119.0765216628572
 20
107.9884278855005
 30
0.0
 10
119.1777699996061
 20
107.9884278855005
 30
0.0
 10
119.2827474615806
 20
107.9884278855005
 30
0.0
 10
119.3914831367942
 20
107.9884278855005
 30
0.0
 10
119.6106824298877
 20
107.9884278855005
 30
0.0
 10
119.9588309524833
 20
107.9884278855005
 30
0.0
 10
120.4874228280256
 20
107.9884278855005
 30
0.0
 10
121.0635238084432
 20
107.9884278855005
 30
0.0
 10
121.6801685312511
 20
107.9884278855005
 30
0.0
 10
122.2977765426816
 20
107.9884278855005
 30
0.0
 10
122.8770358633279
 20
107.9884278855005
 30
0.0
 10
123.4076471675215
 20
107.9884278855005
 30
0.0
 10
123.7983841856552
 20
107.9884278855005
 30
0.0
 10
124.0895275868174
 20
107.9884278855005
 30
0.0
 10
124.297662777709
 20
107.9884278855005
 30
0.0
 10
124.4905181504079
 20
107.9884278855005
 30
0.0
 10
124.6683056037723
 20
107.9884278855005
 30
0.0
 10
124.8305986394345
 20
107.9884278855005
 30
0.0
 10
124.978999907464
 20
107.9884278855005
 30
0.0
 10
125.0632518711539
 20
107.9884278855005
 30
0.0
 10
125.1059957985253
 20
107.9884278855005
 30
0.0
  0
LINE
  5
21B
330
1F
100
AcDbEntity
  8
0
  6
Continuous
 62
     7
370
    15
100
AcDbLine
 10
118.2705596123
 20
106.988427838
 30
0.0
 11
118.1522369419
 21
107.1134278585
 31
0.0
  0
LINE
  5
21C
330
1F
100
AcDbEntity
  8
0
  6
Continuous
 62
     7
370
    15
100
AcDbLine
 10
125.1059960608
 20
106.988427838
 30
0.0
 11
125.2243205939
 21
107.1134278585
 31
0.0
  0
SPLINE
  5
21D
330
1F
100
AcDbEntity
  8
0
  6
Continuous
 62
     7
370
    15
100
AcDbSpline
210
0.0
220
0.0
230
1.0
 70
    24
 71
     3
 72
    36
 73
    32
 74
     0
 42
0.00000001
 43
0.00000001
 12
1.0
 22
0.0
 32
0.0
 13
1.0
 23
0.0
 33
0.0
 40
0.0
 40
0.0
 40
0.0
 40
0.0
 40
0.0192617058043575
 40
0.0382343516629951
 40
0.0569318136279434
 40
0.0753685890958457
 40
0.0935597987325594
 40
0.1115211833982683
 40
0.1292690954682017
 40
0.1468204839957329
 40
0.1641928732475443
 40
0.1814043342563682
 40
0.1984734491856751
 40
0.2154192684798614
 40
0.2322612609778522
 40
0.2490192573892182
 40
0.3134998589981001
 40
0.3742014311299753
 40
0.4378540549211433
 40
0.4990660895234705
 40
0.5606272878046515
 40
0.6245045021925694
 40
0.6852181476045456
 40
0.7497188395034363
 40
0.783470533099661
 40
0.8176426323312169
 40
0.852391766473387
 40
0.8878669224819358
 40
0.9242081590664637
 40
0.9615457898377849
 40
1.0
 40
1.0
 40
1.0
 40
1.0
 10
125.1059957985253
 20
106.9884278855005
 30
0.0
 10
125.0850342764521
 20
106.9884278855005
 30
0.0
 10
125.0434258013523
 20
106.9884278855005
 30
0.0
 10
124.975553813927
 20
106.9884278855005
 30
0.0
 10
124.9042685601059
 20
106.9884278855005
 30
0.0
 10
124.8291608794206
 20
106.9884278855005
 30
0.0
 10
124.7503375507544
 20
106.9884278855005
 30
0.0
 10
124.6677700685665
 20
106.9884278855005
 30
0.0
 10
124.5814654586624
 20
106.9884278855005
 30
0.0
 10
124.4914215104054
 20
106.9884278855005
 30
0.0
 10
124.3976383184047
 20
106.9884278855005
 30
0.0
 10
124.3001161407276
 20
106.9884278855005
 30
0.0
 10
124.1988527383785
 20
106.9884278855005
 30
0.0
 10
124.0938560340704
 20
106.9884278855005
 30
0.0
 10
123.9850966646371
 20
106.9884278855005
 30
0.0
 10
123.7658756869681
 20
106.9884278855005
 30
0.0
 10
123.4177668566082
 20
106.9884278855005
 30
0.0
 10
122.889272240048
 20
106.9884278855005
 30
0.0
 10
122.3131632152726
 20
106.9884278855005
 30
0.0
 10
121.6966800777896
 20
106.9884278855005
 30
0.0
 10
121.0789147598275
 20
106.9884278855005
 30
0.0
 10
120.4996790119884
 20
106.9884278855005
 30
0.0
 10
119.9689898411811
 20
106.9884278855005
 30
0.0
 10
119.578221275929
 20
106.9884278855005
 30
0.0
 10
119.287095191719
 20
106.9884278855005
 30
0.0
 10
119.0790022477376
 20
106.9884278855005
 30
0.0
 10
118.886166358855
 20
106.9884278855005
 30
0.0
 10
118.7083777177478
 20
106.9884278855005
 30
0.0
 10
118.5460617725082
 20
106.9884278855005
 30
0.0
 10
118.3976169153036
 20
106.9884278855005
 30
0.0
 10
118.3133260900968
 20
106.9884278855005
 30
0.0
 10
118.2705597834955
 20
106.9884278855005
 30
0.0
  0
LINE
  5
21E
330
1F
100
AcDbEntity
  8
0
  6
Continuous
 62
     7
370
    15
100
AcDbLine
 10
135.6290442903
 20
108.1134278914
 30
0.0
 11
147.6290443946
 21
108.1134278914
 31
0.0
  0
LINE
  5
21F
330
1F
100
AcDbEntity
  8
0
  6
Continuous
 62
     7
370
    15
100
AcDbLine
 10
135.7540445436
 20
109.4884278985
 30
0.0
 11
147.5040441413
 21
109.4884278985
 31
0.0
  0
LINE
  5
220
330
1F
100
AcDbEntity
  8
0
  6
Continuous
 62
     7
370
    15
100
AcDbLine
 10
147.6290443946
 20
109.363427878
 30
0.0
 11
135.6290442903
 21
109.363427878
 31
0.0
  0
LINE
  5
221
330
1F
100
AcDbEntity
  8
0
  6
Continuous
 62
     7
370
    15
100
AcDbLine
 10
106.2253903631
 20
107.8634278796
 30
0.0
 11
105.7367216829
 21
107.8634278796
 31
0.0
  0
LINE
  5
222
330
1F
100
AcDbEntity
  8
0
  6
Continuous
 62
     7
370
    15
100
AcDbLine
 10
106.2253903631
 20
107.8634278796
 30
0.0
 11
106.2253903631
 21
107.9884278855
 31
0.0
  0
LINE
  5
223
330
1F
100
AcDbEntity
  8
0
  6
Continuous
 62
     7
370
    15
100
AcDbLine
 10
105.6145545129
 20
107.9884278855
 30
0.0
 11
106.2253903631
 21
107.9884278855
 31
0.0
  0
LINE
  5
224
330
1F
100
AcDbEntity
  8
0
  6
Continuous
 62
     7
370
    15
100
AcDbLine
 10
105.7367216829
 20
107.1134278585
 30
0.0
 11
106.2253903631
 21
107.1134278585
 31
0.0
  0
LINE
  5
225
330
1F
100
AcDbEntity
  8
0
  6
Continuous
 62
     7
370
    15
100
AcDbLine
 10
106.2253903631
 20
107.1134278585
 30
0.0
 11
106.2253903631
 21
107.8634278796
 31
0.0
  0
LINE
  5
226
330
1F
100
AcDbEntity
  8
0
  6
Continuous
 62
     7
370
    15
100
AcDbLine
 10
106.2253903631
 20
106.988427838
 30
0.0
 11
106.2253903631
 21
107.1134278585
 31
0.0
  0
LINE
  5
227
330
1F
100
AcDbEntity
  8
0
  6
Continuous
 62
     7
370
    15
100
AcDbLine
 10
106.2253903631
 20
106.988427838
 30
0.0
 11
105.6145545129
 21
106.988427838
 31
0.0
  0
LINE
  5
228
330
1F
100
AcDbEntity
  8
0
  6
Continuous
 62
     7
370
    15
100
AcDbLine
 10
66.4581920985
 20
107.8634278796
 30
0.0
 11
65.9581910853
 21
107.8634278796
 31
0.0
  0
LINE
  5
229
330
1F
100
AcDbEntity
  8
0
  6
Continuous
 62
     7
370
    15
100
AcDbLine
 10
65.9581910853
 20
107.8634278796
 30
0.0
 11
66.0831969265
 21
107.9884278855
 31
0.0
  0
LINE
  5
22A
330
1F
100
AcDbEntity
  8
0
  6
Continuous
 62
     7
370
    15
100
AcDbLine
 10
66.4581920985
 20
107.8634278796
 30
0.0
 11
66.4581920985
 21
107.9884278855
 31
0.0
  0
LINE
  5
22B
330
1F
100
AcDbEntity
  8
0
  6
Continuous
 62
     7
370
    15
100
AcDbLine
 10
66.0831969265
 20
107.9884278855
 30
0.0
 11
66.4581920985
 21
107.9884278855
 31
0.0
  0
LINE
  5
22C
330
1F
100
AcDbEntity
  8
0
  6
Continuous
 62
     7
370
    15
100
AcDbLine
 10
67.1005290035
 20
107.8634278796
 30
0.0
 11
66.4581920985
 21
107.8634278796
 31
0.0
  0
LINE
  5
22D
330
1F
100
AcDbEntity
  8
0
  6
Continuous
 62
     7
370
    15
100
AcDbLine
 10
67.1005290035
 20
107.8634278796
 30
0.0
 11
67.1005290035
 21
107.9884278855
 31
0.0
  0
LINE
  5
22E
330
1F
100
AcDbEntity
  8
0
  6
Continuous
 62
     7
370
    15
100
AcDbLine
 10
66.4581920985
 20
107.9884278855
 30
0.0
 11
67.1005290035
 21
107.9884278855
 31
0.0
  0
LINE
  5
22F
330
1F
100
AcDbEntity
  8
0
  6
Continuous
 62
     7
370
    15
100
AcDbLine
 10
65.9581910853
 20
107.1134278585
 30
0.0
 11
66.4581920985
 21
107.1134278585
 31
0.0
  0
LINE
  5
230
330
1F
100
AcDbEntity
  8
0
  6
Continuous
 62
     7
370
    15
100
AcDbLine
 10
65.9581910853
 20
107.1134278585
 30
0.0
 11
65.9581910853
 21
107.8634278796
 31
0.0
  0
LINE
  5
231
330
1F
100
AcDbEntity
  8
0
  6
Continuous
 62
     7
370
    15
100
AcDbLine
 10
66.4581920985
 20
107.1134278585
 30
0.0
 11
66.4581920985
 21
107.8634278796
 31
0.0
  0
LINE
  5
232
330
1F
100
AcDbEntity
  8
0
  6
Continuous
 62
     7
370
    15
100
AcDbLine
 10
66.4581920985
 20
107.1134278585
 30
0.0
 11
67.1005290035
 21
107.1134278585
 31
0.0
  0
LINE
  5
233
330
1F
100
AcDbEntity
  8
0
  6
Continuous
 62
     7
370
    15
100
AcDbLine
 10
67.1005290035
 20
107.1134278585
 30
0.0
 11
67.1005290035
 21
107.8634278796
 31
0.0
  0
LINE
  5
234
330
1F
100
AcDbEntity
  8
0
  6
Continuous
 62
     7
370
    15
100
AcDbLine
 10
67.4199949984
 20
107.8634278796
 30
0.0
 11
67.1005290035
 21
107.8634278796
 31
0.0
  0
LINE
  5
235
330
1F
100
AcDbEntity
  8
0
  6
Continuous
 62
     7
370
    15
100
AcDbLine
 10
67.4199949984
 20
107.8634278796
 30
0.0
 11
67.340132225
 21
107.9884278855
 31
0.0
  0
LINE
  5
236
330
1F
100
AcDbEntity
  8
0
  6
Continuous
 62
     7
370
    15
100
AcDbLine
 10
67.1005290035
 20
107.9884278855
 30
0.0
 11
67.340132225
 21
107.9884278855
 31
0.0
  0
LINE
  5
237
330
1F
100
AcDbEntity
  8
0
  6
Continuous
 62
     7
370
    15
100
AcDbLine
 10
67.1005290035
 20
107.1134278585
 30
0.0
 11
67.4199949984
 21
107.1134278585
 31
0.0
  0
LINE
  5
238
330
1F
100
AcDbEntity
  8
0
  6
Continuous
 62
     7
370
    15
100
AcDbLine
 10
67.4199949984
 20
107.1134278585
 30
0.0
 11
67.4199949984
 21
107.8634278796
 31
0.0
  0
LINE
  5
239
330
1F
100
AcDbEntity
  8
0
  6
Continuous
 62
     7
370
    15
100
AcDbLine
 10
66.0831969265
 20
106.988427838
 30
0.0
 11
65.9581910853
 21
107.1134278585
 31
0.0
  0
LINE
  5
23A
330
1F
100
AcDbEntity
  8
0
  6
Continuous
 62
     7
370
    15
100
AcDbLine
 10
66.4581920985
 20
106.988427838
 30
0.0
 11
66.4581920985
 21
107.1134278585
 31
0.0
  0
LINE
  5
23B
330
1F
100
AcDbEntity
  8
0
  6
Continuous
 62
     7
370
    15
100
AcDbLine
 10
66.4581920985
 20
106.988427838
 30
0.0
 11
66.0831969265
 21
106.988427838
 31
0.0
  0
LINE
  5
23C
330
1F
100
AcDbEntity
  8
0
  6
Continuous
 62
     7
370
    15
100
AcDbLine
 10
67.1005290035
 20
106.988427838
 30
0.0
 11
67.1005290035
 21
107.1134278585
 31
0.0
  0
LINE
  5
23D
330
1F
100
AcDbEntity
  8
0
  6
Continuous
 62
     7
370
    15
100
AcDbLine
 10
67.1005290035
 20
106.988427838
 30
0.0
 11
66.4581920985
 21
106.988427838
 31
0.0
  0
LINE
  5
23E
330
1F
100
AcDbEntity
  8
0
  6
Continuous
 62
     7
370
    15
100
AcDbLine
 10
67.340132225
 20
106.988427838
 30
0.0
 11
67.4199949984
 21
107.1134278585
 31
0.0
  0
LINE
  5
23F
330
1F
100
AcDbEntity
  8
0
  6
Continuous
 62
     7
370
    15
100
AcDbLine
 10
67.340132225
 20
106.988427838
 30
0.0
 11
67.1005290035
 21
106.988427838
 31
0.0
  0
LINE
  5
240
330
1F
100
AcDbEntity
  8
0
  6
Continuous
 62
     7
370
    15
100
AcDbLine
 10
106.9080311839
 20
107.8634278796
 30
0.0
 11
106.4645651762
 21
107.8634278796
 31
0.0
  0
LINE
  5
241
330
1F
100
AcDbEntity
  8
0
  6
Continuous
 62
     7
370
    15
100
AcDbLine
 10
106.4645651762
 20
107.8634278796
 30
0.0
 11
106.4645651762
 21
107.9884278855
 31
0.0
  0
LINE
  5
242
330
1F
100
AcDbEntity
  8
0
  6
Continuous
 62
     7
370
    15
100
AcDbLine
 10
106.4645651762
 20
107.9884278855
 30
0.0
 11
107.0188995485
 21
107.9884278855
 31
0.0
  0
LINE
  5
243
330
1F
100
AcDbEntity
  8
0
  6
Continuous
 62
     7
370
    15
100
AcDbLine
 10
106.4645651762
 20
107.1134278585
 30
0.0
 11
106.9080311839
 21
107.1134278585
 31
0.0
  0
LINE
  5
244
330
1F
100
AcDbEntity
  8
0
  6
Continuous
 62
     7
370
    15
100
AcDbLine
 10
106.4645651762
 20
107.1134278585
 30
0.0
 11
106.4645651762
 21
107.8634278796
 31
0.0
  0
LINE
  5
245
330
1F
100
AcDbEntity
  8
0
  6
Continuous
 62
     7
370
    15
100
AcDbLine
 10
106.4645651762
 20
106.988427838
 30
0.0
 11
106.4645651762
 21
107.1134278585
 31
0.0
  0
LINE
  5
246
330
1F
100
AcDbEntity
  8
0
  6
Continuous
 62
     7
370
    15
100
AcDbLine
 10
107.0188995485
 20
106.988427838
 30
0.0
 11
106.4645651762
 21
106.988427838
 31
0.0
  0
LINE
  5
247
330
1F
100
AcDbEntity
  8
0
  6
Continuous
 62
     7
370
    15
100
AcDbLine
 10
70.3701417927
 20
107.8634278796
 30
0.0
 11
67.4199949984
 21
107.8634278796
 31
0.0
  0
LINE
  5
248
330
1F
100
AcDbEntity
  8
0
  6
Continuous
 62
     7
370
    15
100
AcDbLine
 10
70.3701417927
 20
107.8634278796
 30
0.0
 11
70.2902715687
 21
107.9884278855
 31
0.0
  0
LINE
  5
249
330
1F
100
AcDbEntity
  8
0
  6
Continuous
 62
     7
370
    15
100
AcDbLine
 10
67.340132225
 20
107.9884278855
 30
0.0
 11
70.2902715687
 21
107.9884278855
 31
0.0
  0
LINE
  5
24A
330
1F
100
AcDbEntity
  8
0
  6
Continuous
 62
     7
370
    15
100
AcDbLine
 10
67.4199949984
 20
107.1134278585
 30
0.0
 11
70.3701417927
 21
107.1134278585
 31
0.0
  0
LINE
  5
24B
330
1F
100
AcDbEntity
  8
0
  6
Continuous
 62
     7
370
    15
100
AcDbLine
 10
70.3701417927
 20
107.1134278585
 30
0.0
 11
70.3701417927
 21
107.8634278796
 31
0.0
  0
LINE
  5
24C
330
1F
100
AcDbEntity
  8
0
  6
Continuous
 62
     7
370
    15
100
AcDbLine
 10
70.2902715687
 20
106.988427838
 30
0.0
 11
70.3701417927
 21
107.1134278585
 31
0.0
  0
LINE
  5
24D
330
1F
100
AcDbEntity
  8
0
  6
Continuous
 62
     7
370
    15
100
AcDbLine
 10
70.2902715687
 20
106.988427838
 30
0.0
 11
67.340132225
 21
106.988427838
 31
0.0
  0
SPLINE
  5
24E
330
1F
100
AcDbEntity
  8
0
  6
Continuous
 62
     7
370
    15
100
AcDbSpline
210
0.0
220
0.0
230
1.0
 70
    24
 71
     3
 72
    14
 73
    10
 74
     0
 42
0.00000001
 43
0.00000001
 12
1.0
 22
0.0
 32
0.0
 13
1.0
 23
0.0
 33
0.0
 40
0.0614135222308459
 40
0.0614135222308459
 40
0.0614135222308459
 40
0.0614135222308459
 40
0.1972368773184105
 40
0.355105508081667
 40
0.4728396395656757
 40
0.527160360434588
 40
0.6448944919185947
 40
0.8027631226818515
 40
0.9385864777694187
 40
0.9385864777694187
 40
0.9385864777694187
 40
0.9385864777694187
 10
57.9422082545162
 20
107.1134278855005
 30
0.0
 10
58.02003810008835
 20
107.1134278855005
 30
0.0
 10
58.21734013510483
 20
107.1134278855005
 30
0.0
 10
58.68901609595154
 20
107.1134278855005
 30
0.0
 10
59.29260394498401
 20
107.1134278855005
 30
0.0
 10
59.90613473989057
 20
107.1134278855005
 30
0.0
 10
60.50972258892303
 20
107.1134278855005
 30
0.0
 10
60.98139854976971
 20
107.1134278855005
 30
0.0
 10
61.17870058478623
 20
107.1134278855005
 30
0.0
 10
61.25653043035839
 20
107.1134278855005
 30
0.0
  0
LINE
  5
24F
330
1F
100
AcDbEntity
  8
0
  6
Continuous
 62
     7
370
    15
100
AcDbLine
 10
57.9422082786
 20
107.1134278585
 30
0.0
 11
57.9422082786
 21
107.8634278796
 31
0.0
  0
SPLINE
  5
250
330
1F
100
AcDbEntity
  8
0
  6
Continuous
 62
     7
370
    15
100
AcDbSpline
210
0.0
220
0.0
230
1.0
 70
    24
 71
     3
 72
    14
 73
    10
 74
     0
 42
0.00000001
 43
0.00000001
 12
1.0
 22
0.0
 32
0.0
 13
1.0
 23
0.0
 33
0.0
 40
0.0614135222308459
 40
0.0614135222308459
 40
0.0614135222308459
 40
0.0614135222308459
 40
0.1972368773184132
 40
0.3551055080816699
 40
0.4728396395656766
 40
0.5271603604345889
 40
0.6448944919185976
 40
0.8027631226818541
 40
0.9385864777694187
 40
0.9385864777694187
 40
0.9385864777694187
 40
0.9385864777694187
 10
61.25653043035839
 20
107.8634278855005
 30
0.0
 10
61.17870058478623
 20
107.8634278855005
 30
0.0
 10
60.98139854976971
 20
107.8634278855005
 30
0.0
 10
60.50972258892303
 20
107.8634278855005
 30
0.0
 10
59.90613473989057
 20
107.8634278855005
 30
0.0
 10
59.29260394498401
 20
107.8634278855005
 30
0.0
 10
58.68901609595154
 20
107.8634278855005
 30
0.0
 10
58.21734013510483
 20
107.8634278855005
 30
0.0
 10
58.02003810008835
 20
107.8634278855005
 30
0.0
 10
57.9422082545162
 20
107.8634278855005
 30
0.0
  0
LINE
  5
251
330
1F
100
AcDbEntity
  8
0
  6
Continuous
 62
     7
370
    15
100
AcDbLine
 10
61.2565320019
 20
107.1134278585
 30
0.0
 11
61.2565320019
 21
107.8634278796
 31
0.0
  0
LINE
  5
252
330
1F
100
AcDbEntity
  8
0
  6
Continuous
 62
     7
370
    15
100
AcDbLine
 10
57.9422082786
 20
107.8634278796
 30
0.0
 11
58.0622296814
 21
107.9884278855
 31
0.0
  0
LINE
  5
253
330
1F
100
AcDbEntity
  8
0
  6
Continuous
 62
     7
370
    15
100
AcDbLine
 10
61.2565320019
 20
107.8634278796
 30
0.0
 11
61.1365105991
 21
107.9884278855
 31
0.0
  0
SPLINE
  5
254
330
1F
100
AcDbEntity
  8
0
  6
Continuous
 62
     7
370
    15
100
AcDbSpline
210
0.0
220
0.0
230
1.0
 70
    24
 71
     3
 72
    25
 73
    21
 74
     0
 42
0.00000001
 43
0.00000001
 12
1.0
 22
0.0
 32
0.0
 13
1.0
 23
0.0
 33
0.0
 40
0.0
 40
0.0
 40
0.0
 40
0.0
 40
0.0369296492438206
 40
0.0721261902251688
 40
0.1056222934955665
 40
0.1374558654757817
 40
0.1676710704098386
 40
0.196319558098787
 40
0.2234619238392584
 40
0.2491694154046456
 40
0.313941963794974
 40
0.3742510479110704
 40
0.4406186606615352
 40
0.4993023983443791
 40
0.5582031010389249
 40
0.6247199952439619
 40
0.6850659444726338
 40
0.7500427078146703
 40
0.8621982257718751
 40
1.0
 40
1.0
 40
1.0
 40
1.0
 10
58.06223158532283
 20
107.9884278855005
 30
0.0
 10
58.08035110121257
 20
107.9884278855005
 30
0.0
 10
58.11573978419796
 20
107.9884278855005
 30
0.0
 10
58.17371437178056
 20
107.9884278855005
 30
0.0
 10
58.23374613912492
 20
107.9884278855005
 30
0.0
 10
58.29622416460646
 20
107.9884278855005
 30
0.0
 10
58.36104862893657
 20
107.9884278855005
 30
0.0
 10
58.4282722394264
 20
107.9884278855005
 30
0.0
 10
58.49781036705851
 20
107.9884278855005
 30
0.0
 10
58.60773643857839
 20
107.9884278855005
 30
0.0
 10
58.76875361616145
 20
107.9884278855005
 30
0.0
 10
59.00829588498312
 20
107.9884278855005
 30
0.0
 10
59.28082692708055
 20
107.9884278855005
 30
0.0
 10
59.5953631286041
 20
107.9884278855005
 30
0.0
 10
59.91097506406395
 20
107.9884278855005
 30
0.0
 10
60.18513089641021
 20
107.9884278855005
 30
0.0
 10
60.42583939884608
 20
107.9884278855005
 30
0.0
 10
60.68033501371934
 20
107.9884278855005
 30
0.0
 10
60.93513295072979
 20
107.9884278855005
 30
0.0
 10
61.06494277676748
 20
107.9884278855005
 30
0.0
 10
61.13650709955176
 20
107.9884278855005
 30
0.0
  0
LINE
  5
255
330
1F
100
AcDbEntity
  8
0
  6
Continuous
 62
     7
370
    15
100
AcDbLine
 10
58.0622296814
 20
106.988427838
 30
0.0
 11
57.9422082786
 21
107.1134278585
 31
0.0
  0
LINE
  5
256
330
1F
100
AcDbEntity
  8
0
  6
Continuous
 62
     7
370
    15
100
AcDbLine
 10
61.1365105991
 20
106.988427838
 30
0.0
 11
61.2565320019
 21
107.1134278585
 31
0.0
  0
SPLINE
  5
257
330
1F
100
AcDbEntity
  8
0
  6
Continuous
 62
     7
370
    15
100
AcDbSpline
210
0.0
220
0.0
230
1.0
 70
    24
 71
     3
 72
    25
 73
    21
 74
     0
 42
0.00000001
 43
0.00000001
 12
1.0
 22
0.0
 32
0.0
 13
1.0
 23
0.0
 33
0.0
 40
0.0
 40
0.0
 40
0.0
 40
0.0
 40
0.0369304866600035
 40
0.0721275512255901
 40
0.105623869029972
 40
0.1374573530083054
 40
0.1676721762127222
 40
0.196320000278052
 40
0.2234614363014233
 40
0.2491677530051447
 40
0.3139330063353583
 40
0.3742291301695945
 40
0.4405903795218802
 40
0.4992661719605937
 40
0.5581767720909181
 40
0.6246971226401911
 40
0.6850523029737643
 40
0.7500327983873402
 40
0.8621808482760125
 40
0.9999999999999999
 40
0.9999999999999999
 40
0.9999999999999999
 40
0.9999999999999999
 10
61.13650709955176
 20
106.9884278855005
 30
0.0
 10
61.11838784158645
 20
106.9884278855005
 30
0.0
 10
61.08299979703958
 20
106.9884278855005
 30
0.0
 10
61.0250259109844
 20
106.9884278855005
 30
0.0
 10
60.96499486909511
 20
106.9884278855005
 30
0.0
 10
60.90251756613428
 20
106.9884278855005
 30
0.0
 10
60.83769385006998
 20
106.9884278855005
 30
0.0
 10
60.77047091948891
 20
106.9884278855005
 30
0.0
 10
60.7009337132212
 20
106.9884278855005
 30
0.0
 10
60.59101157400271
 20
106.9884278855005
 30
0.0
 10
60.43001846868205
 20
106.9884278855005
 30
0.0
 10
60.19052220215135
 20
106.9884278855005
 30
0.0
 10
59.91804909025225
 20
106.9884278855005
 30
0.0
 10
59.60353965420661
 20
106.9884278855005
 30
0.0
 10
59.28789851720953
 20
106.9884278855005
 30
0.0
 10
59.01369308759421
 20
106.9884278855005
 30
0.0
 10
58.77295788369441
 20
106.9884278855005
 30
0.0
 10
58.51843891910685
 20
106.9884278855005
 30
0.0
 10
58.2636387950593
 20
106.9884278855005
 30
0.0
 10
58.13381164624588
 20
106.9884278855005
 30
0.0
 10
58.06223158532281
 20
106.9884278855005
 30
0.0
  0
LINE
  5
258
330
1F
100
AcDbEntity
  8
0
  6
Continuous
 62
     7
370
    15
100
AcDbLine
 10
106.4645651762
 20
107.8634278796
 30
0.0
 11
106.2253903631
 21
107.8634278796
 31
0.0
  0
LINE
  5
259
330
1F
100
AcDbEntity
  8
0
  6
Continuous
 62
     7
370
    15
100
AcDbLine
 10
106.2253903631
 20
107.9884278855
 30
0.0
 11
106.4645651762
 21
107.9884278855
 31
0.0
  0
LINE
  5
25A
330
1F
100
AcDbEntity
  8
0
  6
Continuous
 62
     7
370
    15
100
AcDbLine
 10
106.2253903631
 20
107.1134278585
 30
0.0
 11
106.4645651762
 21
107.1134278585
 31
0.0
  0
LINE
  5
25B
330
1F
100
AcDbEntity
  8
0
  6
Continuous
 62
     7
370
    15
100
AcDbLine
 10
106.4645651762
 20
106.988427838
 30
0.0
 11
106.2253903631
 21
106.988427838
 31
0.0
  0
LINE
  5
25C
330
1F
100
AcDbEntity
  8
0
  6
Continuous
 62
     7
370
    15
100
AcDbLine
 10
80.0814744119
 20
107.8634278796
 30
0.0
 11
79.5945119146
 21
107.8634278796
 31
0.0
  0
LINE
  5
25D
330
1F
100
AcDbEntity
  8
0
  6
Continuous
 62
     7
370
    15
100
AcDbLine
 10
80.0814744119
 20
107.8634278796
 30
0.0
 11
80.0814744119
 21
107.9884278855
 31
0.0
  0
LINE
  5
25E
330
1F
100
AcDbEntity
  8
0
  6
Continuous
 62
     7
370
    15
100
AcDbLine
 10
79.4727694277
 20
107.9884278855
 30
0.0
 11
80.0814744119
 21
107.9884278855
 31
0.0
  0
LINE
  5
25F
330
1F
100
AcDbEntity
  8
0
  6
Continuous
 62
     7
370
    15
100
AcDbLine
 10
79.5945119146
 20
107.1134278585
 30
0.0
 11
80.0814744119
 21
107.1134278585
 31
0.0
  0
LINE
  5
260
330
1F
100
AcDbEntity
  8
0
  6
Continuous
 62
     7
370
    15
100
AcDbLine
 10
80.0814744119
 20
107.1134278585
 30
0.0
 11
80.0814744119
 21
107.8634278796
 31
0.0
  0
LINE
  5
261
330
1F
100
AcDbEntity
  8
0
  6
Continuous
 62
     7
370
    15
100
AcDbLine
 10
80.0814744119
 20
106.988427838
 30
0.0
 11
80.0814744119
 21
107.1134278585
 31
0.0
  0
LINE
  5
262
330
1F
100
AcDbEntity
  8
0
  6
Continuous
 62
     7
370
    15
100
AcDbLine
 10
80.0814744119
 20
106.988427838
 30
0.0
 11
79.4727694277
 21
106.988427838
 31
0.0
  0
LINE
  5
263
330
1F
100
AcDbEntity
  8
0
  6
Continuous
 62
     7
370
    15
100
AcDbLine
 10
114.2171289806
 20
107.8634278796
 30
0.0
 11
113.7356352095
 21
107.8634278796
 31
0.0
  0
LINE
  5
264
330
1F
100
AcDbEntity
  8
0
  6
Continuous
 62
     7
370
    15
100
AcDbLine
 10
114.2171289806
 20
107.8634278796
 30
0.0
 11
114.2171289806
 21
107.9884278855
 31
0.0
  0
LINE
  5
265
330
1F
100
AcDbEntity
  8
0
  6
Continuous
 62
     7
370
    15
100
AcDbLine
 10
113.6152636294
 20
107.9884278855
 30
0.0
 11
114.2171289806
 21
107.9884278855
 31
0.0
  0
LINE
  5
266
330
1F
100
AcDbEntity
  8
0
  6
Continuous
 62
     7
370
    15
100
AcDbLine
 10
113.7356352095
 20
107.1134278585
 30
0.0
 11
114.2171289806
 21
107.1134278585
 31
0.0
  0
LINE
  5
267
330
1F
100
AcDbEntity
  8
0
  6
Continuous
 62
     7
370
    15
100
AcDbLine
 10
114.2171289806
 20
107.1134278585
 30
0.0
 11
114.2171289806
 21
107.8634278796
 31
0.0
  0
LINE
  5
268
330
1F
100
AcDbEntity
  8
0
  6
Continuous
 62
     7
370
    15
100
AcDbLine
 10
114.2171289806
 20
106.988427838
 30
0.0
 11
114.2171289806
 21
107.1134278585
 31
0.0
  0
LINE
  5
269
330
1F
100
AcDbEntity
  8
0
  6
Continuous
 62
     7
370
    15
100
AcDbLine
 10
114.2171289806
 20
106.988427838
 30
0.0
 11
113.6152636294
 21
106.988427838
 31
0.0
  0
LINE
  5
26A
330
1F
100
AcDbEntity
  8
0
  6
Continuous
 62
     7
370
    15
100
AcDbLine
 10
125.6976205889
 20
107.8634278796
 30
0.0
 11
125.2243205939
 21
107.8634278796
 31
0.0
  0
LINE
  5
26B
330
1F
100
AcDbEntity
  8
0
  6
Continuous
 62
     7
370
    15
100
AcDbLine
 10
125.6976205889
 20
107.8634278796
 30
0.0
 11
125.6976205889
 21
107.9884278855
 31
0.0
  0
LINE
  5
26C
330
1F
100
AcDbEntity
  8
0
  6
Continuous
 62
     7
370
    15
100
AcDbLine
 10
125.1059960608
 20
107.9884278855
 30
0.0
 11
125.6976205889
 21
107.9884278855
 31
0.0
  0
LINE
  5
26D
330
1F
100
AcDbEntity
  8
0
  6
Continuous
 62
     7
370
    15
100
AcDbLine
 10
125.2243205939
 20
107.1134278585
 30
0.0
 11
125.6976205889
 21
107.1134278585
 31
0.0
  0
LINE
  5
26E
330
1F
100
AcDbEntity
  8
0
  6
Continuous
 62
     7
370
    15
100
AcDbLine
 10
125.6976205889
 20
107.1134278585
 30
0.0
 11
125.6976205889
 21
107.8634278796
 31
0.0
  0
LINE
  5
26F
330
1F
100
AcDbEntity
  8
0
  6
Continuous
 62
     7
370
    15
100
AcDbLine
 10
125.6976205889
 20
106.988427838
 30
0.0
 11
125.6976205889
 21
107.1134278585
 31
0.0
  0
LINE
  5
270
330
1F
100
AcDbEntity
  8
0
  6
Continuous
 62
     7
370
    15
100
AcDbLine
 10
125.6976205889
 20
106.988427838
 30
0.0
 11
125.1059960608
 21
106.988427838
 31
0.0
  0
LINE
  5
271
330
1F
100
AcDbEntity
  8
0
  6
Continuous
 62
     7
370
    15
100
AcDbLine
 10
118.1522369419
 20
107.8634278796
 30
0.0
 11
117.6789425347
 21
107.8634278796
 31
0.0
  0
LINE
  5
272
330
1F
100
AcDbEntity
  8
0
  6
Continuous
 62
     7
370
    15
100
AcDbLine
 10
117.6789425347
 20
107.8634278796
 30
0.0
 11
117.6789425347
 21
107.9884278855
 31
0.0
  0
LINE
  5
273
330
1F
100
AcDbEntity
  8
0
  6
Continuous
 62
     7
370
    15
100
AcDbLine
 10
117.6789425347
 20
107.9884278855
 30
0.0
 11
118.2705596123
 21
107.9884278855
 31
0.0
  0
LINE
  5
274
330
1F
100
AcDbEntity
  8
0
  6
Continuous
 62
     7
370
    15
100
AcDbLine
 10
117.6789425347
 20
107.1134278585
 30
0.0
 11
118.1522369419
 21
107.1134278585
 31
0.0
  0
LINE
  5
275
330
1F
100
AcDbEntity
  8
0
  6
Continuous
 62
     7
370
    15
100
AcDbLine
 10
117.6789425347
 20
107.1134278585
 30
0.0
 11
117.6789425347
 21
107.8634278796
 31
0.0
  0
LINE
  5
276
330
1F
100
AcDbEntity
  8
0
  6
Continuous
 62
     7
370
    15
100
AcDbLine
 10
117.6789425347
 20
106.988427838
 30
0.0
 11
117.6789425347
 21
107.1134278585
 31
0.0
  0
LINE
  5
277
330
1F
100
AcDbEntity
  8
0
  6
Continuous
 62
     7
370
    15
100
AcDbLine
 10
118.2705596123
 20
106.988427838
 30
0.0
 11
117.6789425347
 21
106.988427838
 31
0.0
  0
LINE
  5
278
330
1F
100
AcDbEntity
  8
0
  6
Continuous
 62
     7
370
    15
100
AcDbLine
 10
132.0990327779
 20
107.8634278796
 30
0.0
 11
131.6225318272
 21
107.8634278796
 31
0.0
  0
LINE
  5
279
330
1F
100
AcDbEntity
  8
0
  6
Continuous
 62
     7
370
    15
100
AcDbLine
 10
131.6225318272
 20
107.9884278855
 30
0.0
 11
131.6225318272
 21
107.8634278796
 31
0.0
  0
LINE
  5
27A
330
1F
100
AcDbEntity
  8
0
  6
Continuous
 62
     7
370
    15
100
AcDbLine
 10
131.6225318272
 20
107.9884278855
 30
0.0
 11
132.2181582485
 21
107.9884278855
 31
0.0
  0
LINE
  5
27B
330
1F
100
AcDbEntity
  8
0
  6
Continuous
 62
     7
370
    15
100
AcDbLine
 10
131.6225318272
 20
107.1134278585
 30
0.0
 11
132.0990327779
 21
107.1134278585
 31
0.0
  0
LINE
  5
27C
330
1F
100
AcDbEntity
  8
0
  6
Continuous
 62
     7
370
    15
100
AcDbLine
 10
131.6225318272
 20
107.1134278585
 30
0.0
 11
131.6225318272
 21
107.8634278796
 31
0.0
  0
LINE
  5
27D
330
1F
100
AcDbEntity
  8
0
  6
Continuous
 62
     7
370
    15
100
AcDbLine
 10
131.6225318272
 20
106.988427838
 30
0.0
 11
131.6225318272
 21
107.1134278585
 31
0.0
  0
LINE
  5
27E
330
1F
100
AcDbEntity
  8
0
  6
Continuous
 62
     7
370
    15
100
AcDbLine
 10
132.2181582485
 20
106.988427838
 30
0.0
 11
131.6225318272
 21
106.988427838
 31
0.0
  0
LINE
  5
27F
330
1F
100
AcDbEntity
  8
0
  6
Continuous
 62
     7
370
    15
100
AcDbLine
 10
81.0041431371
 20
107.8634278796
 30
0.0
 11
80.0814744119
 21
107.8634278796
 31
0.0
  0
LINE
  5
280
330
1F
100
AcDbEntity
  8
0
  6
Continuous
 62
     7
370
    15
100
AcDbLine
 10
80.0814744119
 20
107.9884278855
 30
0.0
 11
81.1291452531
 21
107.9884278855
 31
0.0
  0
LINE
  5
281
330
1F
100
AcDbEntity
  8
0
  6
Continuous
 62
     7
370
    15
100
AcDbLine
 10
117.6789425347
 20
107.8634278796
 30
0.0
 11
114.2171289806
 21
107.8634278796
 31
0.0
  0
LINE
  5
282
330
1F
100
AcDbEntity
  8
0
  6
Continuous
 62
     7
370
    15
100
AcDbLine
 10
114.2171289806
 20
107.9884278855
 30
0.0
 11
117.6789425347
 21
107.9884278855
 31
0.0
  0
LINE
  5
283
330
1F
100
AcDbEntity
  8
0
  6
Continuous
 62
     7
370
    15
100
AcDbLine
 10
114.2171289806
 20
107.1134278585
 30
0.0
 11
117.6789425347
 21
107.1134278585
 31
0.0
  0
LINE
  5
284
330
1F
100
AcDbEntity
  8
0
  6
Continuous
 62
     7
370
    15
100
AcDbLine
 10
80.0814744119
 20
107.1134278585
 30
0.0
 11
81.0041431371
 21
107.1134278585
 31
0.0
  0
LINE
  5
285
330
1F
100
AcDbEntity
  8
0
  6
Continuous
 62
     7
370
    15
100
AcDbLine
 10
131.6225318272
 20
107.8634278796
 30
0.0
 11
125.6976205889
 21
107.8634278796
 31
0.0
  0
LINE
  5
286
330
1F
100
AcDbEntity
  8
0
  6
Continuous
 62
     7
370
    15
100
AcDbLine
 10
125.6976205889
 20
107.9884278855
 30
0.0
 11
131.6225318272
 21
107.9884278855
 31
0.0
  0
LINE
  5
287
330
1F
100
AcDbEntity
  8
0
  6
Continuous
 62
     7
370
    15
100
AcDbLine
 10
125.6976205889
 20
107.1134278585
 30
0.0
 11
131.6225318272
 21
107.1134278585
 31
0.0
  0
LINE
  5
288
330
1F
100
AcDbEntity
  8
0
  6
Continuous
 62
     7
370
    15
100
AcDbLine
 10
117.6789425347
 20
106.988427838
 30
0.0
 11
114.2171289806
 21
106.988427838
 31
0.0
  0
LINE
  5
289
330
1F
100
AcDbEntity
  8
0
  6
Continuous
 62
     7
370
    15
100
AcDbLine
 10
81.1291452531
 20
106.988427838
 30
0.0
 11
80.0814744119
 21
106.988427838
 31
0.0
  0
LINE
  5
28A
330
1F
100
AcDbEntity
  8
0
  6
Continuous
 62
     7
370
    15
100
AcDbLine
 10
131.6225318272
 20
106.988427838
 30
0.0
 11
125.6976205889
 21
106.988427838
 31
0.0
  0
LINE
  5
28B
330
1F
100
AcDbEntity
  8
0
  6
Continuous
 62
     7
370
    15
100
AcDbLine
 10
65.9581910853
 20
107.8634278796
 30
0.0
 11
65.4581975226
 21
107.8634278796
 31
0.0
  0
LINE
  5
28C
330
1F
100
AcDbEntity
  8
0
  6
Continuous
 62
     7
370
    15
100
AcDbLine
 10
65.4581975226
 20
107.8634278796
 30
0.0
 11
65.4581975226
 21
107.9884278855
 31
0.0
  0
LINE
  5
28D
330
1F
100
AcDbEntity
  8
0
  6
Continuous
 62
     7
370
    15
100
AcDbLine
 10
65.4581975226
 20
107.9884278855
 30
0.0
 11
66.0831969265
 21
107.9884278855
 31
0.0
  0
LINE
  5
28E
330
1F
100
AcDbEntity
  8
0
  6
Continuous
 62
     7
370
    15
100
AcDbLine
 10
65.4581975226
 20
107.1134278585
 30
0.0
 11
65.9581910853
 21
107.1134278585
 31
0.0
  0
LINE
  5
28F
330
1F
100
AcDbEntity
  8
0
  6
Continuous
 62
     7
370
    15
100
AcDbLine
 10
65.4581975226
 20
107.1134278585
 30
0.0
 11
65.4581975226
 21
107.8634278796
 31
0.0
  0
LINE
  5
290
330
1F
100
AcDbEntity
  8
0
  6
Continuous
 62
     7
370
    15
100
AcDbLine
 10
65.4581975226
 20
106.988427838
 30
0.0
 11
65.4581975226
 21
107.1134278585
 31
0.0
  0
LINE
  5
291
330
1F
100
AcDbEntity
  8
0
  6
Continuous
 62
     7
370
    15
100
AcDbLine
 10
66.0831969265
 20
106.988427838
 30
0.0
 11
65.4581975226
 21
106.988427838
 31
0.0
  0
LINE
  5
292
330
1F
100
AcDbEntity
  8
0
  6
Continuous
 62
     7
370
    15
100
AcDbLine
 10
75.036485124
 20
107.8634278796
 30
0.0
 11
74.5463337783
 21
107.8634278796
 31
0.0
  0
LINE
  5
293
330
1F
100
AcDbEntity
  8
0
  6
Continuous
 62
     7
370
    15
100
AcDbLine
 10
74.5463337783
 20
107.8634278796
 30
0.0
 11
74.5463337783
 21
107.9884278855
 31
0.0
  0
LINE
  5
294
330
1F
100
AcDbEntity
  8
0
  6
Continuous
 62
     7
370
    15
100
AcDbLine
 10
74.5463337783
 20
107.9884278855
 30
0.0
 11
75.1590248231
 21
107.9884278855
 31
0.0
  0
LINE
  5
295
330
1F
100
AcDbEntity
  8
0
  6
Continuous
 62
     7
370
    15
100
AcDbLine
 10
74.5463337783
 20
107.1134278585
 30
0.0
 11
75.036485124
 21
107.1134278585
 31
0.0
  0
LINE
  5
296
330
1F
100
AcDbEntity
  8
0
  6
Continuous
 62
     7
370
    15
100
AcDbLine
 10
74.5463337783
 20
107.1134278585
 30
0.0
 11
74.5463337783
 21
107.8634278796
 31
0.0
  0
LINE
  5
297
330
1F
100
AcDbEntity
  8
0
  6
Continuous
 62
     7
370
    15
100
AcDbLine
 10
74.5463337783
 20
106.988427838
 30
0.0
 11
74.5463337783
 21
107.1134278585
 31
0.0
  0
LINE
  5
298
330
1F
100
AcDbEntity
  8
0
  6
Continuous
 62
     7
370
    15
100
AcDbLine
 10
75.1590248231
 20
106.988427838
 30
0.0
 11
74.5463337783
 21
106.988427838
 31
0.0
  0
LINE
  5
299
330
1F
100
AcDbEntity
  8
0
  6
Continuous
 62
     7
370
    15
100
AcDbLine
 10
57.9422082786
 20
107.8634278796
 30
0.0
 11
57.4621152167
 21
107.8634278796
 31
0.0
  0
LINE
  5
29A
330
1F
100
AcDbEntity
  8
0
  6
Continuous
 62
     7
370
    15
100
AcDbLine
 10
57.4621152167
 20
107.8634278796
 30
0.0
 11
57.4621152167
 21
107.9884278855
 31
0.0
  0
LINE
  5
29B
330
1F
100
AcDbEntity
  8
0
  6
Continuous
 62
     7
370
    15
100
AcDbLine
 10
57.4621152167
 20
107.9884278855
 30
0.0
 11
58.0622296814
 21
107.9884278855
 31
0.0
  0
LINE
  5
29C
330
1F
100
AcDbEntity
  8
0
  6
Continuous
 62
     7
370
    15
100
AcDbLine
 10
57.4621152167
 20
107.1134278585
 30
0.0
 11
57.9422082786
 21
107.1134278585
 31
0.0
  0
LINE
  5
29D
330
1F
100
AcDbEntity
  8
0
  6
Continuous
 62
     7
370
    15
100
AcDbLine
 10
57.4621152167
 20
107.1134278585
 30
0.0
 11
57.4621152167
 21
107.8634278796
 31
0.0
  0
LINE
  5
29E
330
1F
100
AcDbEntity
  8
0
  6
Continuous
 62
     7
370
    15
100
AcDbLine
 10
57.4621152167
 20
106.988427838
 30
0.0
 11
57.4621152167
 21
107.1134278585
 31
0.0
  0
LINE
  5
29F
330
1F
100
AcDbEntity
  8
0
  6
Continuous
 62
     7
370
    15
100
AcDbLine
 10
58.0622296814
 20
106.988427838
 30
0.0
 11
57.4621152167
 21
106.988427838
 31
0.0
  0
LINE
  5
2A0
330
1F
100
AcDbEntity
  8
0
  6
Continuous
 62
     7
370
    15
100
AcDbLine
 10
61.7366250638
 20
107.8634278796
 30
0.0
 11
61.2565320019
 21
107.8634278796
 31
0.0
  0
LINE
  5
2A1
330
1F
100
AcDbEntity
  8
0
  6
Continuous
 62
     7
370
    15
100
AcDbLine
 10
61.7366250638
 20
107.8634278796
 30
0.0
 11
61.7366250638
 21
107.9884278855
 31
0.0
  0
LINE
  5
2A2
330
1F
100
AcDbEntity
  8
0
  6
Continuous
 62
     7
370
    15
100
AcDbLine
 10
61.1365105991
 20
107.9884278855
 30
0.0
 11
61.7366250638
 21
107.9884278855
 31
0.0
  0
LINE
  5
2A3
330
1F
100
AcDbEntity
  8
0
  6
Continuous
 62
     7
370
    15
100
AcDbLine
 10
61.2565320019
 20
107.1134278585
 30
0.0
 11
61.7366250638
 21
107.1134278585
 31
0.0
  0
LINE
  5
2A4
330
1F
100
AcDbEntity
  8
0
  6
Continuous
 62
     7
370
    15
100
AcDbLine
 10
61.7366250638
 20
107.1134278585
 30
0.0
 11
61.7366250638
 21
107.8634278796
 31
0.0
  0
LINE
  5
2A5
330
1F
100
AcDbEntity
  8
0
  6
Continuous
 62
     7
370
    15
100
AcDbLine
 10
61.7366250638
 20
106.988427838
 30
0.0
 11
61.7366250638
 21
107.1134278585
 31
0.0
  0
LINE
  5
2A6
330
1F
100
AcDbEntity
  8
0
  6
Continuous
 62
     7
370
    15
100
AcDbLine
 10
61.7366250638
 20
106.988427838
 30
0.0
 11
61.1365105991
 21
106.988427838
 31
0.0
  0
LINE
  5
2A7
330
1F
100
AcDbEntity
  8
0
  6
Continuous
 62
     7
370
    15
100
AcDbLine
 10
70.6896077875
 20
107.8634278796
 30
0.0
 11
70.3701417927
 21
107.8634278796
 31
0.0
  0
LINE
  5
2A8
330
1F
100
AcDbEntity
  8
0
  6
Continuous
 62
     7
370
    15
100
AcDbLine
 10
70.6896077875
 20
107.8634278796
 30
0.0
 11
70.6896077875
 21
107.9884278855
 31
0.0
  0
LINE
  5
2A9
330
1F
100
AcDbEntity
  8
0
  6
Continuous
 62
     7
370
    15
100
AcDbLine
 10
70.2902715687
 20
107.9884278855
 30
0.0
 11
70.6896077875
 21
107.9884278855
 31
0.0
  0
LINE
  5
2AA
330
1F
100
AcDbEntity
  8
0
  6
Continuous
 62
     7
370
    15
100
AcDbLine
 10
70.3701417927
 20
107.1134278585
 30
0.0
 11
70.6896077875
 21
107.1134278585
 31
0.0
  0
LINE
  5
2AB
330
1F
100
AcDbEntity
  8
0
  6
Continuous
 62
     7
370
    15
100
AcDbLine
 10
70.6896077875
 20
107.1134278585
 30
0.0
 11
70.6896077875
 21
107.8634278796
 31
0.0
  0
LINE
  5
2AC
330
1F
100
AcDbEntity
  8
0
  6
Continuous
 62
     7
370
    15
100
AcDbLine
 10
70.6896077875
 20
106.988427838
 30
0.0
 11
70.6896077875
 21
107.1134278585
 31
0.0
  0
LINE
  5
2AD
330
1F
100
AcDbEntity
  8
0
  6
Continuous
 62
     7
370
    15
100
AcDbLine
 10
70.6896077875
 20
106.988427838
 30
0.0
 11
70.2902715687
 21
106.988427838
 31
0.0
  0
SPLINE
  5
2AE
330
1F
100
AcDbEntity
  8
0
  6
Continuous
 62
     7
370
    15
100
AcDbSpline
210
0.0
220
0.0
230
1.0
 70
    24
 71
     3
 72
     8
 73
     4
 74
     0
 42
0.00000001
 43
0.00000001
 12
1.0
 22
0.0
 32
0.0
 13
1.0
 23
0.0
 33
0.0
 40
0.0
 40
0.0
 40
0.0
 40
0.0
 40
0.9999974939949549
 40
0.9999974939949549
 40
0.9999974939949549
 40
0.9999974939949549
 10
53.61099434243728
 20
107.8634278855005
 30
0.0
 10
51.20172427001518
 20
107.8634278855005
 30
0.0
 10
48.75762458254229
 20
107.8634278855005
 30
0.0
 10
46.74405948048
 20
107.8634278855005
 30
0.0
  0
SPLINE
  5
2AF
330
1F
100
AcDbEntity
  8
0
  6
Continuous
 62
     7
370
    15
100
AcDbSpline
210
0.0
220
0.0
230
1.0
 70
     8
 71
     3
 72
     8
 73
     4
 74
     0
 42
0.00000001
 43
0.00000001
 12
1.0
 22
0.0
 32
0.0
 13
1.0
 23
0.0
 33
0.0
 40
0.0
 40
0.0
 40
0.0
 40
0.0
 40
1.0
 40
1.0
 40
1.0
 40
1.0
 10
46.74487310131457
 20
107.8649240775547
 30
0.0
 10
46.82043375527506
 20
107.9062537369341
 30
0.0
 10
46.89573996293026
 20
107.9475833963134
 30
0.0
 10
46.97076866019746
 20
107.9889130556928
 30
0.0
  0
LINE
  5
2B0
330
1F
100
AcDbEntity
  8
0
  6
Continuous
 62
     7
370
    15
100
AcDbLine
 10
53.6109920625
 20
107.8634278796
 30
0.0
 11
53.6109920625
 21
107.9884278855
 31
0.0
  0
SPLINE
  5
2B1
330
1F
100
AcDbEntity
  8
0
  6
Continuous
 62
     7
370
    15
100
AcDbSpline
210
0.0
220
0.0
230
1.0
 70
    24
 71
     3
 72
    28
 73
    24
 74
     0
 42
0.00000001
 43
0.00000001
 12
1.0
 22
0.0
 32
0.0
 13
1.0
 23
0.0
 33
0.0
 40
0.0
 40
0.0
 40
0.0
 40
0.0
 40
0.0354828550338962
 40
0.0709387146475266
 40
0.1063830879464642
 40
0.1418314991124853
 40
0.1772994670252954
 40
0.2128024849190072
 40
0.2483560002063305
 40
0.2839753946009438
 40
0.3196759646638972
 40
0.3554729028937066
 40
0.3913812794716809
 40
0.4274160247646695
 40
0.4635919126766941
 40
0.4999235449293786
 40
0.5716302725860205
 40
0.6430602381542022
 40
0.7143255943935694
 40
0.7855392717861932
 40
0.8568144464590178
 40
0.9282640023044367
 40
0.9999999999999999
 40
0.9999999999999999
 40
0.9999999999999999
 40
0.9999999999999999
 10
46.9710311403357
 20
107.9884278855005
 30
0.0
 10
47.04118301575344
 20
107.9884278855005
 30
0.0
 10
47.18143339491525
 20
107.9884278855005
 30
0.0
 10
47.3951921009081
 20
107.9884278855005
 30
0.0
 10
47.61128031464681
 20
107.9884278855005
 30
0.0
 10
47.82995031792912
 20
107.9884278855005
 30
0.0
 10
48.05113436859489
 20
107.9884278855005
 30
0.0
 10
48.27485045724431
 20
107.9884278855005
 30
0.0
 10
48.50109358660546
 20
107.9884278855005
 30
0.0
 10
48.72986492134255
 20
107.9884278855005
 30
0.0
 10
48.96116397851283
 20
107.9884278855005
 30
0.0
 10
49.19499068884689
 20
107.9884278855005
 30
0.0
 10
49.43134498291424
 20
107.9884278855005
 30
0.0
 10
49.67022638465809
 20
107.9884278855005
 30
0.0
 10
49.9116360700426
 20
107.9884278855005
 30
0.0
 10
50.23434798856266
 20
107.9884278855005
 30
0.0
 10
50.63935127085448
 20
107.9884278855005
 30
0.0
 10
51.12783241362917
 20
107.9884278855005
 30
0.0
 10
51.61910003614634
 20
107.9884278855005
 30
0.0
 10
52.11314603249226
 20
107.9884278855005
 30
0.0
 10
52.60996761798753
 20
107.9884278855005
 30
0.0
 10
53.1095616903859
 20
107.9884278855005
 30
0.0
 10
53.44362735962388
 20
107.9884278855005
 30
0.0
 10
53.61099434243728
 20
107.9884278855005
 30
0.0
  0
LINE
  5
2B2
330
1F
100
AcDbEntity
  8
0
  6
Continuous
 62
     7
370
    15
100
AcDbLine
 10
57.4621152167
 20
107.8634278796
 30
0.0
 11
53.6109920625
 21
107.8634278796
 31
0.0
  0
LINE
  5
2B3
330
1F
100
AcDbEntity
  8
0
  6
Continuous
 62
     7
370
    15
100
AcDbLine
 10
53.6109920625
 20
107.9884278855
 30
0.0
 11
57.4621152167
 21
107.9884278855
 31
0.0
  0
LINE
  5
2B4
330
1F
100
AcDbEntity
  8
0
  6
Continuous
 62
     7
370
    15
100
AcDbLine
 10
53.6109920625
 20
107.1134278585
 30
0.0
 11
57.4621152167
 21
107.1134278585
 31
0.0
  0
LINE
  5
2B5
330
1F
100
AcDbEntity
  8
0
  6
Continuous
 62
     7
370
    15
100
AcDbLine
 10
53.6109920625
 20
107.1134278585
 30
0.0
 11
53.6109920625
 21
107.8634278796
 31
0.0
  0
SPLINE
  5
2B6
330
1F
100
AcDbEntity
  8
0
  6
Continuous
 62
     7
370
    15
100
AcDbSpline
210
0.0
220
0.0
230
1.0
 70
    24
 71
     3
 72
     8
 73
     4
 74
     0
 42
0.00000001
 43
0.00000001
 12
1.0
 22
0.0
 32
0.0
 13
1.0
 23
0.0
 33
0.0
 40
0.0
 40
0.0
 40
0.0
 40
0.0
 40
0.9999974939949549
 40
0.9999974939949549
 40
0.9999974939949549
 40
0.9999974939949549
 10
46.74405948048
 20
107.1134278855005
 30
0.0
 10
48.75762458254229
 20
107.1134278855005
 30
0.0
 10
51.20172427001518
 20
107.1134278855005
 30
0.0
 10
53.61099434243728
 20
107.1134278855005
 30
0.0
  0
LINE
  5
2B7
330
1F
100
AcDbEntity
  8
0
  6
Continuous
 62
     7
370
    15
100
AcDbLine
 10
46.744045246
 20
107.1134278585
 30
0.0
 11
46.744045246
 21
107.8634278796
 31
0.0
  0
SPLINE
  5
2B8
330
1F
100
AcDbEntity
  8
0
  6
Continuous
 62
     7
370
    15
100
AcDbSpline
210
0.0
220
0.0
230
1.0
 70
     8
 71
     3
 72
     8
 73
     4
 74
     0
 42
0.00000001
 43
0.00000001
 12
1.0
 22
0.0
 32
0.0
 13
1.0
 23
0.0
 33
0.0
 40
0.0
 40
0.0
 40
0.0
 40
0.0
 40
1.0
 40
1.0
 40
1.0
 40
1.0
 10
46.74239823735556
 20
107.1123877443393
 30
0.0
 10
46.81859506538012
 20
107.071067791393
 30
0.0
 10
46.89464463666659
 20
107.0297478384468
 30
0.0
 10
46.9705144337015
 20
106.9884278855005
 30
0.0
  0
LINE
  5
2B9
330
1F
100
AcDbEntity
  8
0
  6
Continuous
 62
     7
370
    15
100
AcDbLine
 10
53.6109920625
 20
106.988427838
 30
0.0
 11
53.6109920625
 21
107.1134278585
 31
0.0
  0
SPLINE
  5
2BA
330
1F
100
AcDbEntity
  8
0
  6
Continuous
 62
     7
370
    15
100
AcDbSpline
210
0.0
220
0.0
230
1.0
 70
    24
 71
     3
 72
    29
 73
    25
 74
     0
 42
0.00000001
 43
0.00000001
 12
1.0
 22
0.0
 32
0.0
 13
1.0
 23
0.0
 33
0.0
 40
0.0
 40
0.0
 40
0.0
 40
0.0
 40
0.0359029580425774
 40
0.0717218376847076
 40
0.1074705323272345
 40
0.1431630173302236
 40
0.1788133341584014
 40
0.2144355741416967
 40
0.2500438619427426
 40
0.2856523388272401
 40
0.321275145835703
 40
0.3569264069565616
 40
0.3926202124005034
 40
0.4283706020745902
 40
0.4641915493519189
 40
0.5000969452285577
 40
0.5635573316222984
 40
0.62657830382744
 40
0.6892392178120237
 40
0.7516208036555152
 40
0.8138048793548235
 40
0.8758740439703514
 40
0.9379113555564026
 40
1.0
 40
1.0
 40
1.0
 40
1.0
 10
53.61099434243728
 20
106.9884278855005
 30
0.0
 10
53.52723308174887
 20
106.9884278855005
 30
0.0
 10
53.35990671448305
 20
106.9884278855005
 30
0.0
 10
53.10927306924965
 20
106.9884278855005
 30
0.0
 10
52.8593225355338
 20
106.9884278855005
 30
0.0
 10
52.61005504546601
 20
106.9884278855005
 30
0.0
 10
52.36147076312936
 20
106.9884278855005
 30
0.0
 10
52.11356979282175
 20
106.9884278855005
 30
0.0
 10
51.86635225542786
 20
106.9884278855005
 30
0.0
 10
51.6198182684918
 20
106.9884278855005
 30
0.0
 10
51.37396794411621
 20
106.9884278855005
 30
0.0
 10
51.12880141170521
 20
106.9884278855005
 30
0.0
 10
50.88431872349106
 20
106.9884278855005
 30
0.0
 10
50.64052020502688
 20
106.9884278855005
 30
0.0
 10
50.39740513952825
 20
106.9884278855005
 30
0.0
 10
50.0931898318112
 20
106.9884278855005
 30
0.0
 10
49.73054510083398
 20
106.9884278855005
 30
0.0
 10
49.31293283062259
 20
106.9884278855005
 30
0.0
 10
48.90303041145233
 20
106.9884278855005
 30
0.0
 10
48.50085825825494
 20
106.9884278855005
 30
0.0
 10
48.10636203372233
 20
106.9884278855005
 30
0.0
 10
47.71975170086286
 20
106.9884278855005
 30
0.0
 10
47.34025613991761
 20
106.9884278855005
 30
0.0
 10
47.0941400676726
 20
106.9884278855005
 30
0.0
 10
46.9710311403357
 20
106.9884278855005
 30
0.0
  0
LINE
  5
2BB
330
1F
100
AcDbEntity
  8
0
  6
Continuous
 62
     7
370
    15
100
AcDbLine
 10
57.4621152167
 20
106.988427838
 30
0.0
 11
53.6109920625
 21
106.988427838
 31
0.0
  0
LINE
  5
2BC
330
1F
100
AcDbEntity
  8
0
  6
Continuous
 62
     7
370
    15
100
AcDbLine
 10
74.5463337783
 20
107.8634278796
 30
0.0
 11
70.6896077875
 21
107.8634278796
 31
0.0
  0
LINE
  5
2BD
330
1F
100
AcDbEntity
  8
0
  6
Continuous
 62
     7
370
    15
100
AcDbLine
 10
70.6896077875
 20
107.9884278855
 30
0.0
 11
74.5463337783
 21
107.9884278855
 31
0.0
  0
LINE
  5
2BE
330
1F
100
AcDbEntity
  8
0
  6
Continuous
 62
     7
370
    15
100
AcDbLine
 10
65.4581975226
 20
107.8634278796
 30
0.0
 11
61.7366250638
 21
107.8634278796
 31
0.0
  0
LINE
  5
2BF
330
1F
100
AcDbEntity
  8
0
  6
Continuous
 62
     7
370
    15
100
AcDbLine
 10
61.7366250638
 20
107.9884278855
 30
0.0
 11
65.4581975226
 21
107.9884278855
 31
0.0
  0
LINE
  5
2C0
330
1F
100
AcDbEntity
  8
0
  6
Continuous
 62
     7
370
    15
100
AcDbLine
 10
70.6896077875
 20
107.1134278585
 30
0.0
 11
74.5463337783
 21
107.1134278585
 31
0.0
  0
LINE
  5
2C1
330
1F
100
AcDbEntity
  8
0
  6
Continuous
 62
     7
370
    15
100
AcDbLine
 10
61.7366250638
 20
107.1134278585
 30
0.0
 11
65.4581975226
 21
107.1134278585
 31
0.0
  0
LINE
  5
2C2
330
1F
100
AcDbEntity
  8
0
  6
Continuous
 62
     7
370
    15
100
AcDbLine
 10
74.5463337783
 20
106.988427838
 30
0.0
 11
70.6896077875
 21
106.988427838
 31
0.0
  0
LINE
  5
2C3
330
1F
100
AcDbEntity
  8
0
  6
Continuous
 62
     7
370
    15
100
AcDbLine
 10
65.4581975226
 20
106.988427838
 30
0.0
 11
61.7366250638
 21
106.988427838
 31
0.0
  0
ENDSEC
  0
SECTION
  2
OBJECTS
  0
DICTIONARY
  5
C
330
0
100
AcDbDictionary
281
     1
  3
ACAD_GROUP
350
D
  3
ACAD_LAYOUT
350
1A
  3
ACAD_MLINESTYLE
350
17
  3
ACAD_PLOTSETTINGS
350
19
  3
ACAD_PLOTSTYLENAME
350
E
  0
DICTIONARY
  5
D
102
{ACAD_REACTORS
330
C
102
}
330
C
100
AcDbDictionary
281
     1
  0
DICTIONARY
  5
1A
102
{ACAD_REACTORS
330
C
102
}
330
C
100
AcDbDictionary
281
     1
  3
Layout1
350
1E
  3
Layout2
350
26
  3
Model
350
22
  0
DICTIONARY
  5
17
102
{ACAD_REACTORS
330
C
102
}
330
C
100
AcDbDictionary
281
     1
  3
Standard
350
18
  0
DICTIONARY
  5
19
102
{ACAD_REACTORS
330
C
102
}
330
C
100
AcDbDictionary
281
     1
  0
ACDBDICTIONARYWDFLT
  5
E
102
{ACAD_REACTORS
330
C
102
}
330
C
100
AcDbDictionary
281
     1
  3
Normal
350
F
100
AcDbDictionaryWithDefault
340
F
  0
LAYOUT
  5
1E
102
{ACAD_REACTORS
330
1A
102
}
330
1A
100
AcDbPlotSettings
  1

  2
none_device
  4

  6

 40
0.0
 41
0.0
 42
0.0
 43
0.0
 44
0.0
 45
0.0
 46
0.0
 47
0.0
 48
0.0
 49
0.0
140
0.0
141
0.0
142
1.0
143
1.0
 70
   688
 72
     0
 73
     0
 74
     5
  7

 75
    16
147
1.0
148
0.0
149
0.0
100
AcDbLayout
  1
Layout1
 70
     1
 71
     1
 10
0.0
 20
0.0
 11
420.0
 21
297.0
 12
0.0
 22
0.0
 32
0.0
 14
1.0000000000E+20
 24
1.0000000000E+20
 34
1.0000000000E+20
 15
-1.0000000000E+20
 25
-1.0000000000E+20
 35
-1.0000000000E+20
146
0.0
 13
0.0
 23
0.0
 33
0.0
 16
1.0
 26
0.0
 36
0.0
 17
0.0
 27
1.0
 37
0.0
 76
     0
330
1B
  0
LAYOUT
  5
26
102
{ACAD_REACTORS
330
1A
102
}
330
1A
100
AcDbPlotSettings
  1

  2
none_device
  4

  6

 40
0.0
 41
0.0
 42
0.0
 43
0.0
 44
0.0
 45
0.0
 46
0.0
 47
0.0
 48
0.0
 49
0.0
140
0.0
141
0.0
142
1.0
143
1.0
 70
   688
 72
     0
 73
     0
 74
     5
  7

 75
    16
147
1.0
148
0.0
149
0.0
100
AcDbLayout
  1
Layout2
 70
     1
 71
     2
 10
0.0
 20
0.0
 11
0.0
 21
0.0
 12
0.0
 22
0.0
 32
0.0
 14
0.0
 24
0.0
 34
0.0
 15
0.0
 25
0.0
 35
0.0
146
0.0
 13
0.0
 23
0.0
 33
0.0
 16
1.0
 26
0.0
 36
0.0
 17
0.0
 27
1.0
 37
0.0
 76
     0
330
23
  0
LAYOUT
  5
22
102
{ACAD_REACTORS
330
1A
102
}
330
1A
100
AcDbPlotSettings
  1

  2
none_device
  4

  6

 40
0.0
 41
0.0
 42
0.0
 43
0.0
 44
0.0
 45
0.0
 46
0.0
 47
0.0
 48
0.0
 49
0.0
140
0.0
141
0.0
142
1.0
143
1.0
 70
  1712
 72
     0
 73
     0
 74
     0
  7

 75
     0
147
1.0
148
0.0
149
0.0
100
AcDbLayout
  1
Model
 70
     1
 71
     0
 10
0.0
 20
0.0
 11
279.4
 21
215.9
 12
0.0
 22
0.0
 32
0.0
 14
0.0
 24
0.0
 34
0.0
 15
279.4
 25
215.9
 35
0.0
146
0.0
 13
0.0
 23
0.0
 33
0.0
 16
1.0
 26
0.0
 36
0.0
 17
0.0
 27
1.0
 37
0.0
 76
     0
330
1F
331
29
  0
MLINESTYLE
  5
18
102
{ACAD_REACTORS
330
17
102
}
330
17
100
AcDbMlineStyle
  2
Standard
 70
     0
  3

 62
   256
 51
90.0
 52
90.0
 71
     2
 49
0.5
 62
   256
  6
BYLAYER
 49
-0.5
 62
   256
  6
BYLAYER
  0
ACDBPLACEHOLDER
  5
F
102
{ACAD_REACTORS
330
E
102
}
330
E
  0
ENDSEC
  0
EOF
