  0
SECTION
  2
HEADER
  9
$ACADVER
  1
AC1015
  9
$ACADMAINTVER
 70
     6
  9
$DWGCODEPAGE
  3
ANSI_1251
  9
$INSBASE
 10
0.0
 20
0.0
 30
0.0
  9
$EXTMIN
 10
0.0
 20
0.0
 30
0.0
  9
$EXTMAX
 10
279.4
 20
215.9
 30
0.0
  9
$LIMMIN
 10
0.0
 20
0.0
  9
$LIMMAX
 10
279.4
 20
215.9
  9
$ORTHOMODE
 70
     0
  9
$REGENMODE
 70
     1
  9
$FILLMODE
 70
     1
  9
$QTEXTMODE
 70
     0
  9
$MIRRTEXT
 70
     1
  9
$LTSCALE
 40
1.0
  9
$ATTMODE
 70
     1
  9
$TEXTSIZE
 40
3.5
  9
$TRACEWID
 40
1.0
  9
$TEXTSTYLE
  7
Standard
  9
$CLAYER
  8
0
  9
$CELTYPE
  6
ByLayer
  9
$CECOLOR
 62
   256
  9
$CELTSCALE
 40
1.0
  9
$DISPSILH
 70
     0
  9
$DIMSCALE
 40
1.0
  9
$DIMASZ
 40
3.5
  9
$DIMEXO
 40
0.01
  9
$DIMDLI
 40
3.75
  9
$DIMRND
 40
0.0
  9
$DIMDLE
 40
0.0
  9
$DIMEXE
 40
1.0
  9
$DIMTP
 40
0.0
  9
$DIMTM
 40
0.0
  9
$DIMTXT
 40
3.5
  9
$DIMCEN
 40
2.5
  9
$DIMTSZ
 40
0.0
  9
$DIMTOL
 70
     0
  9
$DIMLIM
 70
     0
  9
$DIMTIH
 70
     1
  9
$DIMTOH
 70
     1
  9
$DIMSE1
 70
     0
  9
$DIMSE2
 70
     0
  9
$DIMTAD
 70
     1
  9
$DIMZIN
 70
     0
  9
$DIMBLK
  1

  9
$DIMASO
 70
     1
  9
$DIMSHO
 70
     1
  9
$DIMPOST
  1

  9
$DIMAPOST
  1

  9
$DIMALT
 70
     0
  9
$DIMALTD
 70
     3
  9
$DIMALTF
 40
0.0393700787
  9
$DIMLFAC
 40
1.0
  9
$DIMTOFL
 70
     1
  9
$DIMTVP
 40
0.0
  9
$DIMTIX
 70
     0
  9
$DIMSOXD
 70
     0
  9
$DIMSAH
 70
     0
  9
$DIMBLK1
  1

  9
$DIMBLK2
  1

  9
$DIMSTYLE
  2
ISO-25
  9
$DIMCLRD
 70
     0
  9
$DIMCLRE
 70
     0
  9
$DIMCLRT
 70
     0
  9
$DIMTFAC
 40
1.0
  9
$DIMGAP
 40
3.0
  9
$DIMJUST
 70
     0
  9
$DIMSD1
 70
     0
  9
$DIMSD2
 70
     0
  9
$DIMTOLJ
 70
     0
  9
$DIMTZIN
 70
     0
  9
$DIMALTZ
 70
     0
  9
$DIMALTTZ
 70
     0
  9
$DIMUPT
 70
     0
  9
$DIMDEC
 70
     2
  9
$DIMTDEC
 70
     3
  9
$DIMALTU
 70
     2
  9
$DIMALTTD
 70
     3
  9
$DIMTXSTY
  7
Standard
  9
$DIMAUNIT
 70
     0
  9
$DIMADEC
 70
     2
  9
$DIMALTRND
 40
0.0
  9
$DIMAZIN
 70
     0
  9
$DIMDSEP
 70
    44
  9
$DIMATFIT
 70
     3
  9
$DIMFRAC
 70
     0
  9
$DIMLDRBLK
  1

  9
$DIMLUNIT
 70
     2
  9
$DIMLWD
 70
    -2
  9
$DIMLWE
 70
    -2
  9
$DIMTMOVE
 70
     0
  9
$LUNITS
 70
     2
  9
$LUPREC
 70
     2
  9
$SKETCHINC
 40
1.0
  9
$FILLETRAD
 40
10.0
  9
$AUNITS
 70
     0
  9
$AUPREC
 70
     2
  9
$MENU
  1
.
  9
$ELEVATION
 40
0.0
  9
$PELEVATION
 40
0.0
  9
$THICKNESS
 40
0.0
  9
$LIMCHECK
 70
     0
  9
$CHAMFERA
 40
10.0
  9
$CHAMFERB
 40
10.0
  9
$CHAMFERC
 40
20.0
  9
$CHAMFERD
 40
0.0
  9
$SKPOLY
 70
     0
  9
$TDCREATE
 40
2457408.691364653
  9
$TDUCREATE
 40
2457408.608031319
  9
$TDUPDATE
 40
2457408.691365914
  9
$TDUUPDATE
 40
2457408.608032581
  9
$TDINDWG
 40
0.0000000116
  9
$TDUSRTIMER
 40
0.0000000116
  9
$USRTIMER
 70
     1
  9
$ANGBASE
 50
0.0
  9
$ANGDIR
 70
     0
  9
$PDMODE
 70
     0
  9
$PDSIZE
 40
-1.0
  9
$PLINEWID
 40
0.0
  9
$SPLFRAME
 70
     0
  9
$SPLINETYPE
 70
     6
  9
$SPLINESEGS
 70
     8
  9
$HANDSEED
  5
385
  9
$SURFTAB1
 70
     6
  9
$SURFTAB2
 70
     6
  9
$SURFTYPE
 70
     6
  9
$SURFU
 70
     6
  9
$SURFV
 70
     6
  9
$UCSBASE
  2

  9
$UCSNAME
  2

  9
$UCSORG
 10
0.0
 20
0.0
 30
0.0
  9
$UCSXDIR
 10
1.0
 20
0.0
 30
0.0
  9
$UCSYDIR
 10
0.0
 20
1.0
 30
0.0
  9
$UCSORTHOREF
  2

  9
$UCSORTHOVIEW
 70
     0
  9
$UCSORGTOP
 10
0.0
 20
0.0
 30
0.0
  9
$UCSORGBOTTOM
 10
0.0
 20
0.0
 30
0.0
  9
$UCSORGLEFT
 10
0.0
 20
0.0
 30
0.0
  9
$UCSORGRIGHT
 10
0.0
 20
0.0
 30
0.0
  9
$UCSORGFRONT
 10
0.0
 20
0.0
 30
0.0
  9
$UCSORGBACK
 10
0.0
 20
0.0
 30
0.0
  9
$PUCSBASE
  2

  9
$PUCSNAME
  2

  9
$PUCSORG
 10
0.0
 20
0.0
 30
0.0
  9
$PUCSXDIR
 10
1.0
 20
0.0
 30
0.0
  9
$PUCSYDIR
 10
0.0
 20
1.0
 30
0.0
  9
$PUCSORTHOREF
  2

  9
$PUCSORTHOVIEW
 70
     0
  9
$PUCSORGTOP
 10
0.0
 20
0.0
 30
0.0
  9
$PUCSORGBOTTOM
 10
0.0
 20
0.0
 30
0.0
  9
$PUCSORGLEFT
 10
0.0
 20
0.0
 30
0.0
  9
$PUCSORGRIGHT
 10
0.0
 20
0.0
 30
0.0
  9
$PUCSORGFRONT
 10
0.0
 20
0.0
 30
0.0
  9
$PUCSORGBACK
 10
0.0
 20
0.0
 30
0.0
  9
$USERI1
 70
     0
  9
$USERI2
 70
     0
  9
$USERI3
 70
     0
  9
$USERI4
 70
     0
  9
$USERI5
 70
     0
  9
$USERR1
 40
0.0
  9
$USERR2
 40
0.0
  9
$USERR3
 40
0.0
  9
$USERR4
 40
0.0
  9
$USERR5
 40
0.0
  9
$WORLDVIEW
 70
     1
  9
$SHADEDGE
 70
     3
  9
$SHADEDIF
 70
    70
  9
$TILEMODE
 70
     1
  9
$MAXACTVP
 70
    64
  9
$PINSBASE
 10
0.0
 20
0.0
 30
0.0
  9
$PLIMCHECK
 70
     0
  9
$PEXTMIN
 10
1.0000000000E+20
 20
1.0000000000E+20
 30
1.0000000000E+20
  9
$PEXTMAX
 10
-1.0000000000E+20
 20
-1.0000000000E+20
 30
-1.0000000000E+20
  9
$PLIMMIN
 10
0.0
 20
0.0
  9
$PLIMMAX
 10
420.0
 20
297.0
  9
$UNITMODE
 70
     0
  9
$VISRETAIN
 70
     1
  9
$PLINEGEN
 70
     0
  9
$PSLTSCALE
 70
     1
  9
$TREEDEPTH
 70
  3020
  9
$CMLSTYLE
  2
Standard
  9
$CMLJUST
 70
     0
  9
$CMLSCALE
 40
20.0
  9
$PROXYGRAPHICS
 70
     1
  9
$MEASUREMENT
 70
     1
  9
$CELWEIGHT
370
    -1
  9
$ENDCAPS
280
     0
  9
$JOINSTYLE
280
     0
  9
$LWDISPLAY
290
     1
  9
$INSUNITS
 70
     4
  9
$HYPERLINKBASE
  1

  9
$STYLESHEET
  1

  9
$XEDIT
290
     1
  9
$CEPSNTYPE
380
     0
  9
$PSTYLEMODE
290
     1
  9
$FINGERPRINTGUID
  2
{38D8936E-7F48-495D-A061-9937ECD768C6}
  9
$VERSIONGUID
  2
{FAEB1C32-E019-11D5-929B-00C0DF256EC4}
  9
$EXTNAMES
290
     1
  9
$PSVPSCALE
 40
0.0
  9
$OLESTARTUP
290
     0
  0
ENDSEC
  0
SECTION
  2
CLASSES
  0
CLASS
  1
ACDBDICTIONARYWDFLT
  2
AcDbDictionaryWithDefault
  3
ObjectDBX Classes
 90
        0
280
     0
281
     0
  0
CLASS
  1
VISUALSTYLE
  2
AcDbVisualStyle
  3
ObjectDBX Classes
 90
     4095
280
     0
281
     0
  0
CLASS
  1
MATERIAL
  2
AcDbMaterial
  3
ObjectDBX Classes
 90
     1153
280
     0
281
     0
  0
CLASS
  1
ACDBPLACEHOLDER
  2
AcDbPlaceHolder
  3
ObjectDBX Classes
 90
        0
280
     0
281
     0
  0
CLASS
  1
LAYOUT
  2
AcDbLayout
  3
ObjectDBX Classes
 90
        0
280
     0
281
     0
  0
ENDSEC
  0
SECTION
  2
TABLES
  0
TABLE
  2
VPORT
  5
8
330
0
100
AcDbSymbolTable
 70
     1
  0
VPORT
  5
29
330
8
100
AcDbSymbolTableRecord
100
AcDbViewportTableRecord
  2
*Active
 70
     0
 10
0.0
 20
0.0
 11
1.0
 21
1.0
 12
139.7
 22
107.95
 13
0.0
 23
0.0
 14
10.0
 24
10.0
 15
10.0
 25
10.0
 16
0.0
 26
0.0
 36
1.0
 17
0.0
 27
0.0
 37
0.0
 40
215.9
 41
1.2941176471
 42
50.0
 43
0.0
 44
0.0
 50
0.0
 51
0.0
 71
     0
 72
  2000
 73
     1
 74
     3
 75
     0
 76
     0
 77
     0
 78
     0
281
     0
 65
     1
110
0.0
120
0.0
130
0.0
111
1.0
121
0.0
131
0.0
112
0.0
122
1.0
132
0.0
 79
     0
146
0.0
  0
ENDTAB
  0
TABLE
  2
LTYPE
  5
5
330
0
100
AcDbSymbolTable
 70
     6
  0
LTYPE
  5
14
330
5
100
AcDbSymbolTableRecord
100
AcDbLinetypeTableRecord
  2
ByBlock
 70
     0
  3

 72
    65
 73
     0
 40
0.0
  0
LTYPE
  5
15
330
5
100
AcDbSymbolTableRecord
100
AcDbLinetypeTableRecord
  2
ByLayer
 70
     0
  3

 72
    65
 73
     0
 40
0.0
  0
LTYPE
  5
16
330
5
100
AcDbSymbolTableRecord
100
AcDbLinetypeTableRecord
  2
Continuous
 70
     0
  3
Solid line
 72
    65
 73
     0
 40
0.0
  0
LTYPE
  5
3F
330
5
100
AcDbSymbolTableRecord
100
AcDbLinetypeTableRecord
  2
HIDDEN
 70
     0
  3
Hidden __ __ __ __ __ __ __ __ __ __ __ __ __ __
 72
    65
 73
     2
 40
1.905
 49
1.27
 74
     0
 49
-0.635
 74
     0
  0
LTYPE
  5
40
330
5
100
AcDbSymbolTableRecord
100
AcDbLinetypeTableRecord
  2
PHANTOM
 70
     0
  3
Phantom ______  __  __  ______  __  __  ______
 72
    65
 73
     6
 40
12.7
 49
6.35
 74
     0
 49
-1.27
 74
     0
 49
1.27
 74
     0
 49
-1.27
 74
     0
 49
1.27
 74
     0
 49
-1.27
 74
     0
  0
LTYPE
  5
41
330
5
100
AcDbSymbolTableRecord
100
AcDbLinetypeTableRecord
  2
CENTER
 70
     0
  3
Center ____ _ ____ _ ____ _ ____ _ ____ _ ____
 72
    65
 73
     4
 40
10.16
 49
6.35
 74
     0
 49
-1.27
 74
     0
 49
1.27
 74
     0
 49
-1.27
 74
     0
  0
LTYPE
  5
42
330
5
100
AcDbSymbolTableRecord
100
AcDbLinetypeTableRecord
  2
CENTERX2
 70
     0
  3
Center (2x) ________  __  ________  __  _____
 72
    65
 73
     4
 40
20.32
 49
12.7
 74
     0
 49
-2.54
 74
     0
 49
2.54
 74
     0
 49
-2.54
 74
     0
  0
LTYPE
  5
43
330
5
100
AcDbSymbolTableRecord
100
AcDbLinetypeTableRecord
  2
DOT2
 70
     0
  3
Dot (.5x) ........................................
 72
    65
 73
     2
 40
0.635
 49
0.0
 74
     0
 49
-0.635
 74
     0
  0
ENDTAB
  0
TABLE
  2
LAYER
  5
2
330
0
100
AcDbSymbolTable
 70
     1
  0
LAYER
  5
10
330
2
100
AcDbSymbolTableRecord
100
AcDbLayerTableRecord
  2
0
 70
     0
 62
     7
  6
Continuous
370
    -3
390
F
  0
ENDTAB
  0
TABLE
  2
STYLE
  5
3
330
0
100
AcDbSymbolTable
 70
     1
  0
STYLE
  5
11
330
3
100
AcDbSymbolTableRecord
100
AcDbTextStyleTableRecord
  2
Standard
 70
     0
 40
0.0
 41
1.0
 50
0.0
 71
     0
 42
3.5
  3
txt
  4

  0
ENDTAB
  0
TABLE
  2
VIEW
  5
6
330
0
100
AcDbSymbolTable
 70
     0
  0
ENDTAB
  0
TABLE
  2
UCS
  5
7
330
0
100
AcDbSymbolTable
 70
     0
  0
ENDTAB
  0
TABLE
  2
APPID
  5
9
330
0
100
AcDbSymbolTable
 70
     1
  0
APPID
  5
12
330
9
100
AcDbSymbolTableRecord
100
AcDbRegAppTableRecord
  2
ACAD
 70
     0
  0
ENDTAB
  0
TABLE
  2
DIMSTYLE
  5
A
330
0
100
AcDbSymbolTable
 70
     1
100
AcDbDimStyleTable
  0
DIMSTYLE
105
27
330
A
100
AcDbSymbolTableRecord
100
AcDbDimStyleTableRecord
  2
ISO-25
 70
     0
 41
2.5
 42
0.625
 43
3.75
 44
1.25
 73
     0
 74
     0
 77
     1
 78
     8
140
2.5
141
2.5
143
0.0393700787
147
0.625
171
     3
172
     1
178
     0
271
     2
272
     2
274
     3
278
    44
283
     0
284
     8
340
11
  0
ENDTAB
  0
TABLE
  2
BLOCK_RECORD
  5
1
330
0
100
AcDbSymbolTable
 70
     1
  0
BLOCK_RECORD
  5
1F
330
1
100
AcDbSymbolTableRecord
100
AcDbBlockTableRecord
  2
*Model_Space
340
22
  0
BLOCK_RECORD
  5
1B
330
1
100
AcDbSymbolTableRecord
100
AcDbBlockTableRecord
  2
*Paper_Space
340
1E
  0
BLOCK_RECORD
  5
23
330
1
100
AcDbSymbolTableRecord
100
AcDbBlockTableRecord
  2
*Paper_Space0
340
26
  0
ENDTAB
  0
ENDSEC
  0
SECTION
  2
BLOCKS
  0
BLOCK
  5
20
330
1F
100
AcDbEntity
  8
0
100
AcDbBlockBegin
  2
*Model_Space
 70
     0
 10
0.0
 20
0.0
 30
0.0
  3
*Model_Space
  1

  0
ENDBLK
  5
21
330
1F
100
AcDbEntity
  8
0
100
AcDbBlockEnd
  0
BLOCK
  5
1C
330
1B
100
AcDbEntity
 67
     1
  8
0
100
AcDbBlockBegin
  2
*Paper_Space
 70
     0
 10
0.0
 20
0.0
 30
0.0
  3
*Paper_Space
  1

  0
ENDBLK
  5
1D
330
1B
100
AcDbEntity
 67
     1
  8
0
100
AcDbBlockEnd
  0
BLOCK
  5
24
330
23
100
AcDbEntity
  8
0
100
AcDbBlockBegin
  2
*Paper_Space0
 70
     0
 10
0.0
 20
0.0
 30
0.0
  3
*Paper_Space0
  1

  0
ENDBLK
  5
25
330
23
100
AcDbEntity
  8
0
100
AcDbBlockEnd
  0
ENDSEC
  0
SECTION
  2
ENTITIES
  0
LINE
  5
44
330
1F
100
AcDbEntity
  8
0
  6
Continuous
 62
     7
370
    15
100
AcDbLine
 10
85.3639695767
 20
179.167368674
 30
0.0
 11
84.0888939771
 21
176.3035033282
 31
0.0
  0
ARC
  5
45
330
1F
100
AcDbEntity
  8
0
  6
Continuous
 62
     7
370
    15
100
AcDbCircle
 10
96.0981283751
 20
174.3882146417
 30
0.0
 40
11.75000000000001
100
AcDbArc
 50
115.6237757499
 51
156.0
  0
ARC
  5
46
330
1F
100
AcDbEntity
  8
0
  6
Continuous
 62
     7
370
    15
100
AcDbCircle
 10
71.3396187845
 20
138.2025789854
 30
0.0
 40
50.75000000000004
100
AcDbArc
 50
64.8130914957
 51
67.1869085043
  0
ARC
  5
47
330
1F
100
AcDbEntity
  8
0
  6
Continuous
 62
     7
370
    15
100
AcDbCircle
 10
81.6641101443
 20
180.8146536023
 30
0.0
 40
11.75000000000002
100
AcDbArc
 50
336.0
 51
16.3762242501
  0
LINE
  5
48
330
1F
100
AcDbEntity
  8
0
  6
Continuous
 62
     7
370
    15
100
AcDbLine
 10
91.1231938723
 20
173.1716331479
 30
0.0
 11
92.3982694719
 21
176.0354984936
 31
0.0
  0
ARC
  5
49
330
1F
100
AcDbEntity
  8
0
  6
Continuous
 62
     7
370
    15
100
AcDbCircle
 10
93.6719857058
 20
172.0368365906
 30
0.0
 40
2.789999999999992
100
AcDbArc
 50
156.0
 51
236.5731164362
  0
ARC
  5
4A
330
1F
100
AcDbEntity
  8
0
  6
Continuous
 62
     7
370
    15
100
AcDbCircle
 10
71.3396187845
 20
138.2025789854
 30
0.0
 40
37.75000000000002
100
AcDbArc
 50
51.4268835638
 51
56.5731164362
  0
ARC
  5
4B
330
1F
100
AcDbEntity
  8
0
  6
Continuous
 62
     7
370
    15
100
AcDbCircle
 10
96.6168290507
 20
169.8972826622
 30
0.0
 40
2.789999999999988
100
AcDbArc
 50
231.4268835638
 51
312.0
  0
LINE
  5
4C
330
1F
100
AcDbEntity
  8
0
  6
Continuous
 62
     7
370
    15
100
AcDbLine
 10
100.8133817438
 20
169.9215595063
 30
0.0
 11
98.4837025378
 21
167.8239081439
 31
0.0
  0
ARC
  5
4D
330
1F
100
AcDbEntity
  8
0
  6
Continuous
 62
     7
370
    15
100
AcDbCircle
 10
108.6756667334
 20
161.1896089927
 30
0.0
 40
11.74999999999998
100
AcDbArc
 50
91.6237757499
 51
132.0
  0
ARC
  5
4E
330
1F
100
AcDbEntity
  8
0
  6
Continuous
 62
     7
370
    15
100
AcDbCircle
 10
71.3396187845
 20
138.2025789854
 30
0.0
 40
50.75000000000001
100
AcDbArc
 50
40.8130914957
 51
43.1869085043
  0
ARC
  5
4F
330
1F
100
AcDbEntity
  8
0
  6
Continuous
 62
     7
370
    15
100
AcDbCircle
 10
98.1034031529
 20
172.9312972353
 30
0.0
 40
11.75000000000001
100
AcDbArc
 50
312.0
 51
352.3762242501
  0
LINE
  5
50
330
1F
100
AcDbEntity
  8
0
  6
Continuous
 62
     7
370
    15
100
AcDbLine
 10
103.6360081259
 20
162.1016927448
 30
0.0
 11
105.9656891945
 21
164.1993459698
 31
0.0
  0
ARC
  5
51
330
1F
100
AcDbEntity
  8
0
  6
Continuous
 62
     7
370
    15
100
AcDbCircle
 10
105.5028835031
 20
160.0283193798
 30
0.0
 40
2.789999999999984
100
AcDbArc
 50
132.0
 51
212.5731164362
  0
ARC
  5
52
330
1F
100
AcDbEntity
  8
0
  6
Continuous
 62
     7
370
    15
100
AcDbCircle
 10
71.3396187845
 20
138.2025789854
 30
0.0
 40
37.75000000000002
100
AcDbArc
 50
27.4268835638
 51
32.5731164362
  0
ARC
  5
53
330
1F
100
AcDbEntity
  8
0
  6
Continuous
 62
     7
370
    15
100
AcDbCircle
 10
107.3228967818
 20
156.8759639107
 30
0.0
 40
2.790000000000019
100
AcDbArc
 50
207.4268835638
 51
288.0
  0
LINE
  5
54
330
1F
100
AcDbEntity
  8
0
  6
Continuous
 62
     7
370
    15
100
AcDbLine
 10
111.1665148262
 20
155.1912513015
 30
0.0
 11
108.1850532416
 21
154.2225156364
 31
0.0
  0
ARC
  5
55
330
1F
100
AcDbEntity
  8
0
  6
Continuous
 62
     7
370
    15
100
AcDbCircle
 10
114.797463214
 20
144.0163370249
 30
0.0
 40
11.74999999999999
100
AcDbArc
 50
67.6237757499
 51
108.0
  0
ARC
  5
56
330
1F
100
AcDbEntity
  8
0
  6
Continuous
 62
     7
370
    15
100
AcDbCircle
 10
71.3396187845
 20
138.2025789854
 30
0.0
 40
50.75000000000001
100
AcDbArc
 50
16.8130914957
 51
19.1869085043
  0
ARC
  5
57
330
1F
100
AcDbEntity
  8
0
  6
Continuous
 62
     7
370
    15
100
AcDbCircle
 10
109.9149947029
 20
159.0430299823
 30
0.0
 40
11.75000000000002
100
AcDbArc
 50
288.0
 51
328.3762242501
  0
LINE
  5
58
330
1F
100
AcDbEntity
  8
0
  6
Continuous
 62
     7
370
    15
100
AcDbLine
 10
110.5644855622
 20
146.8993809458
 30
0.0
 11
113.5459434215
 21
147.8681156796
 31
0.0
  0
ARC
  5
59
330
1F
100
AcDbEntity
  8
0
  6
Continuous
 62
     7
370
    15
100
AcDbCircle
 10
111.4266424671
 20
144.2459333743
 30
0.0
 40
2.789999999999992
100
AcDbArc
 50
108.0
 51
188.5731164362
  0
ARC
  5
5A
330
1F
100
AcDbEntity
  8
0
  6
Continuous
 62
     7
370
    15
100
AcDbCircle
 10
71.3396187845
 20
138.2025789854
 30
0.0
 40
37.75000000000002
100
AcDbArc
 50
3.4268835638
 51
8.5731164362
  0
ARC
  5
5B
330
1F
100
AcDbEntity
  8
0
  6
Continuous
 62
     7
370
    15
100
AcDbCircle
 10
111.8071288494
 20
140.6258472632
 30
0.0
 40
2.790000000000015
100
AcDbArc
 50
183.4268835638
 51
264.0
  0
LINE
  5
5C
330
1F
100
AcDbEntity
  8
0
  6
Continuous
 62
     7
370
    15
100
AcDbLine
 10
114.6332140986
 20
137.5234457583
 30
0.0
 11
111.515496296
 21
137.8511311696
 31
0.0
  0
ARC
  5
5D
330
1F
100
AcDbEntity
  8
0
  6
Continuous
 62
     7
370
    15
100
AcDbCircle
 10
113.4050035907
 20
125.8378134756
 30
0.0
 40
11.75000000000001
100
AcDbArc
 50
43.6237757499
 51
84.0
  0
ARC
  5
5E
330
1F
100
AcDbEntity
  8
0
  6
Continuous
 62
     7
370
    15
100
AcDbCircle
 10
71.3396187845
 20
138.2025789854
 30
0.0
 40
50.75000000000002
100
AcDbArc
 50
352.8130914957
 51
355.1869085043
  0
ARC
  5
5F
330
1F
100
AcDbEntity
  8
0
  6
Continuous
 62
     7
370
    15
100
AcDbCircle
 10
115.0565533103
 20
141.5512594224
 30
0.0
 40
11.75000000000002
100
AcDbArc
 50
264.0
 51
304.3762242501
  0
LINE
  5
60
330
1F
100
AcDbEntity
  8
0
  6
Continuous
 62
     7
370
    15
100
AcDbLine
 10
110.7106249753
 20
130.1933128771
 30
0.0
 11
113.8283427778
 21
129.8656270292
 31
0.0
  0
ARC
  5
61
330
1F
100
AcDbEntity
  8
0
  6
Continuous
 62
     7
370
    15
100
AcDbCircle
 10
110.4189908572
 20
127.4185964927
 30
0.0
 40
2.79
100
AcDbArc
 50
84.0
 51
164.5731164362
  0
ARC
  5
62
330
1F
100
AcDbEntity
  8
0
  6
Continuous
 62
     7
370
    15
100
AcDbCircle
 10
71.3396187845
 20
138.2025789854
 30
0.0
 40
37.75000000000004
100
AcDbArc
 50
339.4268835638
 51
344.5731164362
  0
ARC
  5
63
330
1F
100
AcDbEntity
  8
0
  6
Continuous
 62
     7
370
    15
100
AcDbCircle
 10
109.294160791
 20
123.9567255158
 30
0.0
 40
2.789999999999982
100
AcDbArc
 50
159.4268835638
 51
240.0
  0
LINE
  5
64
330
1F
100
AcDbEntity
  8
0
  6
Continuous
 62
     7
370
    15
100
AcDbLine
 10
110.6140580002
 20
119.9730683502
 30
0.0
 11
107.8991595629
 21
121.5405140456
 31
0.0
  0
ARC
  5
65
330
1F
100
AcDbEntity
  8
0
  6
Continuous
 62
     7
370
    15
100
AcDbCircle
 10
104.7390567823
 20
109.7972702134
 30
0.0
 40
11.75
100
AcDbArc
 50
19.6237757499
 51
60.0
  0
ARC
  5
66
330
1F
100
AcDbEntity
  8
0
  6
Continuous
 62
     7
370
    15
100
AcDbCircle
 10
71.3396187845
 20
138.2025789854
 30
0.0
 40
50.75000000000003
100
AcDbArc
 50
328.8130914957
 51
331.1869085043
  0
ARC
  5
67
330
1F
100
AcDbEntity
  8
0
  6
Continuous
 62
     7
370
    15
100
AcDbCircle
 10
112.6390567823
 20
123.4804715932
 30
0.0
 40
11.75000000000004
100
AcDbArc
 50
240.0
 51
280.3762242501
  0
LINE
  5
68
330
1F
100
AcDbEntity
  8
0
  6
Continuous
 62
     7
370
    15
100
AcDbLine
 10
104.0491614464
 20
114.8721196142
 30
0.0
 11
106.7640561584
 21
113.3046739188
 31
0.0
  0
ARC
  5
69
330
1F
100
AcDbEntity
  8
0
  6
Continuous
 62
     7
370
    15
100
AcDbCircle
 10
102.654160791
 20
112.4559081535
 30
0.0
 40
2.790000000000005
100
AcDbArc
 50
60.0
 51
140.5731164362
  0
ARC
  5
6A
330
1F
100
AcDbEntity
  8
0
  6
Continuous
 62
     7
370
    15
100
AcDbCircle
 10
71.3396187845
 20
138.2025789854
 30
0.0
 40
37.75000000000003
100
AcDbArc
 50
315.4268835638
 51
320.5731164362
  0
ARC
  5
6B
330
1F
100
AcDbEntity
  8
0
  6
Continuous
 62
     7
370
    15
100
AcDbCircle
 10
100.2185076135
 20
109.7508412528
 30
0.0
 40
2.789999999999984
100
AcDbArc
 50
135.4268835638
 51
216.0
  0
LINE
  5
6C
330
1F
100
AcDbEntity
  8
0
  6
Continuous
 62
     7
370
    15
100
AcDbLine
 10
99.8039938483
 20
105.5747393903
 30
0.0
 11
97.9613497827
 21
108.1109207508
 31
0.0
  0
ARC
  5
6D
330
1F
100
AcDbEntity
  8
0
  6
Continuous
 62
     7
370
    15
100
AcDbCircle
 10
90.2980437198
 20
98.6682628919
 30
0.0
 40
11.75000000000001
100
AcDbArc
 50
355.6237757499
 51
36.0
  0
ARC
  5
6E
330
1F
100
AcDbEntity
  8
0
  6
Continuous
 62
     7
370
    15
100
AcDbCircle
 10
71.3396187845
 20
138.2025789854
 30
0.0
 40
50.75
100
AcDbArc
 50
304.8130914957
 51
307.1869085043
  0
ARC
  5
6F
330
1F
100
AcDbEntity
  8
0
  6
Continuous
 62
     7
370
    15
100
AcDbCircle
 10
103.0805122309
 20
107.9552698782
 30
0.0
 40
11.75000000000001
100
AcDbArc
 50
216.0
 51
256.3762242501
  0
LINE
  5
70
330
1F
100
AcDbEntity
  8
0
  6
Continuous
 62
     7
370
    15
100
AcDbLine
 10
91.7319193456
 20
103.5849724349
 30
0.0
 11
93.5745634112
 21
101.0487947997
 31
0.0
  0
ARC
  5
71
330
1F
100
AcDbEntity
  8
0
  6
Continuous
 62
     7
370
    15
100
AcDbCircle
 10
89.4747619282
 20
101.9450531024
 30
0.0
 40
2.789999999999994
100
AcDbArc
 50
36.0
 51
116.5731164362
  0
ARC
  5
72
330
1F
100
AcDbEntity
  8
0
  6
Continuous
 62
     7
370
    15
100
AcDbCircle
 10
71.3396187845
 20
138.2025789854
 30
0.0
 40
37.75000000000003
100
AcDbArc
 50
291.4268835638
 51
296.5731164362
  0
ARC
  5
73
330
1F
100
AcDbEntity
  8
0
  6
Continuous
 62
     7
370
    15
100
AcDbCircle
 10
86.149432201
 20
100.4645209197
 30
0.0
 40
2.789999999999984
100
AcDbArc
 50
111.4268835638
 51
192.0
  0
LINE
  5
74
330
1F
100
AcDbEntity
  8
0
  6
Continuous
 62
     7
370
    15
100
AcDbLine
 10
84.0721813935
 20
96.8180608389
 30
0.0
 11
83.4203999463
 21
99.8844478664
 31
0.0
  0
ARC
  5
75
330
1F
100
AcDbEntity
  8
0
  6
Continuous
 62
     7
370
    15
100
AcDbCircle
 10
72.578946754
 20
94.3750979811
 30
0.0
 40
11.74999999999999
100
AcDbArc
 50
331.6237757499
 51
12.0
  0
ARC
  5
76
330
1F
100
AcDbEntity
  8
0
  6
Continuous
 62
     7
370
    15
100
AcDbCircle
 10
71.3396187845
 20
138.2025789854
 30
0.0
 40
50.75000000000002
100
AcDbArc
 50
280.8130914957
 51
283.1869085043
  0
ARC
  5
77
330
1F
100
AcDbEntity
  8
0
  6
Continuous
 62
     7
370
    15
100
AcDbCircle
 10
88.0336788456
 20
97.660102696
 30
0.0
 40
11.75000000000002
100
AcDbArc
 50
192.0
 51
232.3762242501
  0
LINE
  5
78
330
1F
100
AcDbEntity
  8
0
  6
Continuous
 62
     7
370
    15
100
AcDbLine
 10
75.8886639002
 20
98.2835267123
 30
0.0
 11
76.5404444161
 21
95.2171396848
 31
0.0
  0
ARC
  5
79
330
1F
100
AcDbEntity
  8
0
  6
Continuous
 62
     7
370
    15
100
AcDbCircle
 10
73.1596320632
 20
97.7034536656
 30
0.0
 40
2.790000000000008
100
AcDbArc
 50
12.0
 51
92.5731164362
  0
ARC
  5
7A
330
1F
100
AcDbEntity
  8
0
  6
Continuous
 62
     7
370
    15
100
AcDbCircle
 10
71.3396187845
 20
138.2025789854
 30
0.0
 40
37.75
100
AcDbArc
 50
267.4268835638
 51
272.5731164362
  0
ARC
  5
7B
330
1F
100
AcDbEntity
  8
0
  6
Continuous
 62
     7
370
    15
100
AcDbCircle
 10
69.5196055058
 20
97.7034536656
 30
0.0
 40
2.789999999999994
100
AcDbArc
 50
87.4268835638
 51
168.0
  0
LINE
  5
7C
330
1F
100
AcDbEntity
  8
0
  6
Continuous
 62
     7
370
    15
100
AcDbLine
 10
66.1387931529
 20
95.2171396848
 30
0.0
 11
66.7905736688
 21
98.2835267123
 31
0.0
  0
ARC
  5
7D
330
1F
100
AcDbEntity
  8
0
  6
Continuous
 62
     7
370
    15
100
AcDbCircle
 10
54.6455587234
 20
97.660102696
 30
0.0
 40
11.75
100
AcDbArc
 50
307.6237757499
 51
348.0
  0
ARC
  5
7E
330
1F
100
AcDbEntity
  8
0
  6
Continuous
 62
     7
370
    15
100
AcDbCircle
 10
71.3396187845
 20
138.2025789854
 30
0.0
 40
50.75000000000002
100
AcDbArc
 50
256.8130914957
 51
259.1869085043
  0
ARC
  5
7F
330
1F
100
AcDbEntity
  8
0
  6
Continuous
 62
     7
370
    15
100
AcDbCircle
 10
70.100290815
 20
94.3750979811
 30
0.0
 40
11.75000000000003
100
AcDbArc
 50
168.0
 51
208.3762242501
  0
LINE
  5
80
330
1F
100
AcDbEntity
  8
0
  6
Continuous
 62
     7
370
    15
100
AcDbLine
 10
59.2588376227
 20
99.8844478664
 30
0.0
 11
58.6070561755
 21
96.8180608389
 31
0.0
  0
ARC
  5
81
330
1F
100
AcDbEntity
  8
0
  6
Continuous
 62
     7
370
    15
100
AcDbCircle
 10
56.5298053681
 20
100.4645209197
 30
0.0
 40
2.789999999999984
100
AcDbArc
 50
348.0
 51
68.5731164362
  0
ARC
  5
82
330
1F
100
AcDbEntity
  8
0
  6
Continuous
 62
     7
370
    15
100
AcDbCircle
 10
71.3396187845
 20
138.2025789854
 30
0.0
 40
37.75000000000002
100
AcDbArc
 50
243.4268835638
 51
248.5731164362
  0
ARC
  5
83
330
1F
100
AcDbEntity
  8
0
  6
Continuous
 62
     7
370
    15
100
AcDbCircle
 10
53.2044756409
 20
101.9450531024
 30
0.0
 40
2.789999999999984
100
AcDbArc
 50
63.4268835638
 51
144.0
  0
LINE
  5
84
330
1F
100
AcDbEntity
  8
0
  6
Continuous
 62
     7
370
    15
100
AcDbLine
 10
49.1046741578
 20
101.0487947997
 30
0.0
 11
50.9473182235
 21
103.5849724349
 31
0.0
  0
ARC
  5
85
330
1F
100
AcDbEntity
  8
0
  6
Continuous
 62
     7
370
    15
100
AcDbCircle
 10
39.5987253382
 20
107.9552698782
 30
0.0
 40
11.74999999999999
100
AcDbArc
 50
283.6237757499
 51
324.0
  0
ARC
  5
86
330
1F
100
AcDbEntity
  8
0
  6
Continuous
 62
     7
370
    15
100
AcDbCircle
 10
71.3396187845
 20
138.2025789854
 30
0.0
 40
50.75000000000001
100
AcDbArc
 50
232.8130914957
 51
235.1869085043
  0
ARC
  5
87
330
1F
100
AcDbEntity
  8
0
  6
Continuous
 62
     7
370
    15
100
AcDbCircle
 10
52.3811938493
 20
98.6682628919
 30
0.0
 40
11.75000000000002
100
AcDbArc
 50
144.0
 51
184.3762242501
  0
LINE
  5
88
330
1F
100
AcDbEntity
  8
0
  6
Continuous
 62
     7
370
    15
100
AcDbLine
 10
44.7178877864
 20
108.1109207508
 30
0.0
 11
42.8752437208
 21
105.5747393903
 31
0.0
  0
ARC
  5
89
330
1F
100
AcDbEntity
  8
0
  6
Continuous
 62
     7
370
    15
100
AcDbCircle
 10
42.4607299556
 20
109.7508412528
 30
0.0
 40
2.789999999999989
100
AcDbArc
 50
324.0
 51
44.5731164362
  0
ARC
  5
8A
330
1F
100
AcDbEntity
  8
0
  6
Continuous
 62
     7
370
    15
100
AcDbCircle
 10
71.3396187845
 20
138.2025789854
 30
0.0
 40
37.75000000000003
100
AcDbArc
 50
219.4268835638
 51
224.5731164362
  0
ARC
  5
8B
330
1F
100
AcDbEntity
  8
0
  6
Continuous
 62
     7
370
    15
100
AcDbCircle
 10
40.025076778
 20
112.4559081535
 30
0.0
 40
2.789999999999978
100
AcDbArc
 50
39.4268835638
 51
120.0
  0
LINE
  5
8C
330
1F
100
AcDbEntity
  8
0
  6
Continuous
 62
     7
370
    15
100
AcDbLine
 10
35.9151814107
 20
113.3046739188
 30
0.0
 11
38.6300761226
 21
114.8721196142
 31
0.0
  0
ARC
  5
8D
330
1F
100
AcDbEntity
  8
0
  6
Continuous
 62
     7
370
    15
100
AcDbCircle
 10
30.0401807868
 20
123.4804715932
 30
0.0
 40
11.74999999999999
100
AcDbArc
 50
259.6237757499
 51
300.0
  0
ARC
  5
8E
330
1F
100
AcDbEntity
  8
0
  6
Continuous
 62
     7
370
    15
100
AcDbCircle
 10
71.3396187845
 20
138.2025789854
 30
0.0
 40
50.75
100
AcDbArc
 50
208.8130914957
 51
211.1869085043
  0
ARC
  5
8F
330
1F
100
AcDbEntity
  8
0
  6
Continuous
 62
     7
370
    15
100
AcDbCircle
 10
37.9401807868
 20
109.7972702134
 30
0.0
 40
11.75000000000001
100
AcDbArc
 50
120.0
 51
160.3762242501
  0
LINE
  5
90
330
1F
100
AcDbEntity
  8
0
  6
Continuous
 62
     7
370
    15
100
AcDbLine
 10
34.7800780061
 20
121.5405140456
 30
0.0
 11
32.0651795689
 21
119.9730683502
 31
0.0
  0
ARC
  5
91
330
1F
100
AcDbEntity
  8
0
  6
Continuous
 62
     7
370
    15
100
AcDbCircle
 10
33.385076778
 20
123.9567255158
 30
0.0
 40
2.789999999999996
100
AcDbArc
 50
300.0
 51
20.5731164362
  0
ARC
  5
92
330
1F
100
AcDbEntity
  8
0
  6
Continuous
 62
     7
370
    15
100
AcDbCircle
 10
71.3396187845
 20
138.2025789854
 30
0.0
 40
37.75000000000002
100
AcDbArc
 50
195.4268835638
 51
200.5731164362
  0
ARC
  5
93
330
1F
100
AcDbEntity
  8
0
  6
Continuous
 62
     7
370
    15
100
AcDbCircle
 10
32.2602467118
 20
127.4185964927
 30
0.0
 40
2.789999999999982
100
AcDbArc
 50
15.4268835638
 51
96.0
  0
LINE
  5
94
330
1F
100
AcDbEntity
  8
0
  6
Continuous
 62
     7
370
    15
100
AcDbLine
 10
28.8508947912
 20
129.8656270292
 30
0.0
 11
31.9686125938
 21
130.1933128771
 31
0.0
  0
ARC
  5
95
330
1F
100
AcDbEntity
  8
0
  6
Continuous
 62
     7
370
    15
100
AcDbCircle
 10
27.6226842588
 20
141.5512594224
 30
0.0
 40
11.75000000000001
100
AcDbArc
 50
235.6237757499
 51
276.0
  0
ARC
  5
96
330
1F
100
AcDbEntity
  8
0
  6
Continuous
 62
     7
370
    15
100
AcDbCircle
 10
71.3396187845
 20
138.2025789854
 30
0.0
 40
50.75000000000002
100
AcDbArc
 50
184.8130914957
 51
187.1869085043
  0
ARC
  5
97
330
1F
100
AcDbEntity
  8
0
  6
Continuous
 62
     7
370
    15
100
AcDbCircle
 10
29.2742339784
 20
125.8378134756
 30
0.0
 40
11.75000000000001
100
AcDbArc
 50
96.0
 51
136.3762242501
  0
LINE
  5
98
330
1F
100
AcDbEntity
  8
0
  6
Continuous
 62
     7
370
    15
100
AcDbLine
 10
31.163741273
 20
137.8511311696
 30
0.0
 11
28.0460234705
 21
137.5234457583
 31
0.0
  0
ARC
  5
99
330
1F
100
AcDbEntity
  8
0
  6
Continuous
 62
     7
370
    15
100
AcDbCircle
 10
30.8721087196
 20
140.6258472632
 30
0.0
 40
2.790000000000011
100
AcDbArc
 50
276.0
 51
356.5731164362
  0
ARC
  5
9A
330
1F
100
AcDbEntity
  8
0
  6
Continuous
 62
     7
370
    15
100
AcDbCircle
 10
71.3396187845
 20
138.2025789854
 30
0.0
 40
37.75000000000001
100
AcDbArc
 50
171.4268835638
 51
176.5731164362
  0
ARC
  5
9B
330
1F
100
AcDbEntity
  8
0
  6
Continuous
 62
     7
370
    15
100
AcDbCircle
 10
31.2525951019
 20
144.2459333743
 30
0.0
 40
2.789999999999992
100
AcDbArc
 50
351.4268835638
 51
72.0
  0
LINE
  5
9C
330
1F
100
AcDbEntity
  8
0
  6
Continuous
 62
     7
370
    15
100
AcDbLine
 10
29.1332941476
 20
147.8681156796
 30
0.0
 11
32.1147520069
 21
146.8993809458
 31
0.0
  0
ARC
  5
9D
330
1F
100
AcDbEntity
  8
0
  6
Continuous
 62
     7
370
    15
100
AcDbCircle
 10
32.7642428662
 20
159.0430299823
 30
0.0
 40
11.75
100
AcDbArc
 50
211.6237757499
 51
252.0
  0
ARC
  5
9E
330
1F
100
AcDbEntity
  8
0
  6
Continuous
 62
     7
370
    15
100
AcDbCircle
 10
71.3396187845
 20
138.2025789854
 30
0.0
 40
50.74999999999999
100
AcDbArc
 50
160.8130914957
 51
163.1869085043
  0
ARC
  5
9F
330
1F
100
AcDbEntity
  8
0
  6
Continuous
 62
     7
370
    15
100
AcDbCircle
 10
27.881774355
 20
144.0163370249
 30
0.0
 40
11.75000000000002
100
AcDbArc
 50
72.0
 51
112.3762242501
  0
LINE
  5
A0
330
1F
100
AcDbEntity
  8
0
  6
Continuous
 62
     7
370
    15
100
AcDbLine
 10
34.4941843275
 20
154.2225156364
 30
0.0
 11
31.5127227429
 21
155.1912513015
 31
0.0
  0
ARC
  5
A1
330
1F
100
AcDbEntity
  8
0
  6
Continuous
 62
     7
370
    15
100
AcDbCircle
 10
35.3563407872
 20
156.8759639107
 30
0.0
 40
2.790000000000004
100
AcDbArc
 50
252.0
 51
332.5731164362
  0
ARC
  5
A2
330
1F
100
AcDbEntity
  8
0
  6
Continuous
 62
     7
370
    15
100
AcDbCircle
 10
71.3396187845
 20
138.2025789854
 30
0.0
 40
37.75000000000001
100
AcDbArc
 50
147.4268835638
 51
152.5731164362
  0
ARC
  5
A3
330
1F
100
AcDbEntity
  8
0
  6
Continuous
 62
     7
370
    15
100
AcDbCircle
 10
37.1763540659
 20
160.0283193798
 30
0.0
 40
2.789999999999989
100
AcDbArc
 50
327.4268835638
 51
48.0
  0
LINE
  5
A4
330
1F
100
AcDbEntity
  8
0
  6
Continuous
 62
     7
370
    15
100
AcDbLine
 10
36.7135483745
 20
164.1993459698
 30
0.0
 11
39.0432294432
 21
162.1016927448
 31
0.0
  0
ARC
  5
A5
330
1F
100
AcDbEntity
  8
0
  6
Continuous
 62
     7
370
    15
100
AcDbCircle
 10
44.5758344161
 20
172.9312972353
 30
0.0
 40
11.74999999999999
100
AcDbArc
 50
187.6237757499
 51
228.0
  0
ARC
  5
A6
330
1F
100
AcDbEntity
  8
0
  6
Continuous
 62
     7
370
    15
100
AcDbCircle
 10
71.3396187845
 20
138.2025789854
 30
0.0
 40
50.75000000000001
100
AcDbArc
 50
136.8130914957
 51
139.1869085042
  0
ARC
  5
A7
330
1F
100
AcDbEntity
  8
0
  6
Continuous
 62
     7
370
    15
100
AcDbCircle
 10
34.0035708357
 20
161.1896089927
 30
0.0
 40
11.75000000000002
100
AcDbArc
 50
48.0
 51
88.3762242501
  0
LINE
  5
A8
330
1F
100
AcDbEntity
  8
0
  6
Continuous
 62
     7
370
    15
100
AcDbLine
 10
44.1955350313
 20
167.8239081439
 30
0.0
 11
41.8658558253
 21
169.9215595063
 31
0.0
  0
ARC
  5
A9
330
1F
100
AcDbEntity
  8
0
  6
Continuous
 62
     7
370
    15
100
AcDbCircle
 10
46.0624085184
 20
169.8972826622
 30
0.0
 40
2.789999999999986
100
AcDbArc
 50
228.0
 51
308.5731164362
  0
ARC
  5
AA
330
1F
100
AcDbEntity
  8
0
  6
Continuous
 62
     7
370
    15
100
AcDbCircle
 10
71.3396187845
 20
138.2025789854
 30
0.0
 40
37.75000000000004
100
AcDbArc
 50
123.4268835638
 51
128.5731164362
  0
ARC
  5
AB
330
1F
100
AcDbEntity
  8
0
  6
Continuous
 62
     7
370
    15
100
AcDbCircle
 10
49.0072518633
 20
172.0368365906
 30
0.0
 40
2.790000000000008
100
AcDbArc
 50
303.4268835638
 51
24.0
  0
LINE
  5
AC
330
1F
100
AcDbEntity
  8
0
  6
Continuous
 62
     7
370
    15
100
AcDbLine
 10
50.2809680972
 20
176.0354984936
 30
0.0
 11
51.5560436967
 21
173.1716331479
 31
0.0
  0
ARC
  5
AD
330
1F
100
AcDbEntity
  8
0
  6
Continuous
 62
     7
370
    15
100
AcDbCircle
 10
61.0151274247
 20
180.8146536023
 30
0.0
 40
11.74999999999951
100
AcDbArc
 50
163.6237757499
 51
204.0
  0
ARC
  5
AE
330
1F
100
AcDbEntity
  8
0
  6
Continuous
 62
     7
370
    15
100
AcDbCircle
 10
71.3396187845
 20
138.2025789854
 30
0.0
 40
50.75000000000001
100
AcDbArc
 50
112.8130914957
 51
115.1869085042
  0
ARC
  5
AF
330
1F
100
AcDbEntity
  8
0
  6
Continuous
 62
     7
370
    15
100
AcDbCircle
 10
46.581109194
 20
174.3882146417
 30
0.0
 40
11.75000000000003
100
AcDbArc
 50
24.0
 51
64.3762242501
  0
LINE
  5
B0
330
1F
100
AcDbEntity
  8
0
  6
Continuous
 62
     7
370
    15
100
AcDbLine
 10
58.5903435919
 20
176.3035033282
 30
0.0
 11
57.3152679924
 21
179.167368674
 31
0.0
  0
ARC
  5
B1
330
1F
100
AcDbEntity
  8
0
  6
Continuous
 62
     7
370
    15
100
AcDbCircle
 10
61.1391355408
 20
177.4382992106
 30
0.0
 40
2.789999999999983
100
AcDbArc
 50
204.0
 51
284.5731164362
  0
ARC
  5
B2
330
1F
100
AcDbEntity
  8
0
  6
Continuous
 62
     7
370
    15
100
AcDbCircle
 10
71.3396187845
 20
138.2025789854
 30
0.0
 40
37.75000000000002
100
AcDbArc
 50
99.4268835638
 51
104.5731164362
  0
ARC
  5
B3
330
1F
100
AcDbEntity
  8
0
  6
Continuous
 62
     7
370
    15
100
AcDbCircle
 10
64.6996187845
 20
178.1951032868
 30
0.0
 40
2.78999999999999
100
AcDbArc
 50
279.4268835638
 51
0.0
  0
LINE
  5
B4
330
1F
100
AcDbEntity
  8
0
  6
Continuous
 62
     7
370
    15
100
AcDbLine
 10
67.4896188054
 20
181.3299965498
 30
0.0
 11
67.4896188054
 21
178.1951014337
 31
0.0
  0
ARC
  5
B5
330
1F
100
AcDbEntity
  8
0
  6
Continuous
 62
     7
370
    15
100
AcDbCircle
 10
79.2396187845
 20
181.3299951496
 30
0.0
 40
11.75
100
AcDbArc
 50
139.6237757499
 51
180.0
  0
ARC
  5
B6
330
1F
100
AcDbEntity
  8
0
  6
Continuous
 62
     7
370
    15
100
AcDbCircle
 10
71.3396187845
 20
138.2025789854
 30
0.0
 40
50.75
100
AcDbArc
 50
88.8130914957
 51
91.1869085043
  0
ARC
  5
B7
330
1F
100
AcDbEntity
  8
0
  6
Continuous
 62
     7
370
    15
100
AcDbCircle
 10
63.4396187845
 20
181.3299951496
 30
0.0
 40
11.75000000000002
100
AcDbArc
 50
0.0
 51
40.3762242501
  0
LINE
  5
B8
330
1F
100
AcDbEntity
  8
0
  6
Continuous
 62
     7
370
    15
100
AcDbLine
 10
75.1896187637
 20
178.1951014337
 30
0.0
 11
75.1896187637
 21
181.3299965498
 31
0.0
  0
ARC
  5
B9
330
1F
100
AcDbEntity
  8
0
  6
Continuous
 62
     7
370
    15
100
AcDbCircle
 10
77.9796187845
 20
178.1951032868
 30
0.0
 40
2.789999999999992
100
AcDbArc
 50
180.0
 51
260.5731164362
  0
ARC
  5
BA
330
1F
100
AcDbEntity
  8
0
  6
Continuous
 62
     7
370
    15
100
AcDbCircle
 10
71.3396187845
 20
138.2025789854
 30
0.0
 40
37.75000000000001
100
AcDbArc
 50
75.4268835638
 51
80.5731164362
  0
ARC
  5
BB
330
1F
100
AcDbEntity
  8
0
  6
Continuous
 62
     7
370
    15
100
AcDbCircle
 10
81.5401020283
 20
177.4382992106
 30
0.0
 40
2.789999999999999
100
AcDbArc
 50
255.4268835638
 51
336.0
  0
CIRCLE
  5
BC
330
1F
100
AcDbEntity
  8
0
  6
Continuous
 62
     7
370
    15
100
AcDbCircle
 10
71.3396187845
 20
138.2025789854
 30
0.0
 40
10.25
  0
ARC
  5
BD
330
1F
100
AcDbEntity
  8
0
  6
Continuous
 62
     7
370
    15
100
AcDbCircle
 10
37.1763540659
 20
160.0283193798
 30
0.0
 40
2.540000000000025
100
AcDbArc
 50
327.4268835638
 51
48.0
  0
LINE
  5
BE
330
1F
100
AcDbEntity
  8
0
  6
Continuous
 62
     7
370
    15
100
AcDbLine
 10
38.8759452823
 20
161.9159069297
 30
0.0
 11
39.0432294432
 21
162.1016927448
 31
0.0
  0
LINE
  5
BF
330
1F
100
AcDbEntity
  8
0
  6
Continuous
 62
     7
370
    15
100
AcDbLine
 10
39.3168259386
 20
158.6608451244
 30
0.0
 11
39.5275022808
 21
158.5262522486
 31
0.0
  0
LINE
  5
C0
330
1F
100
AcDbEntity
  8
0
  6
Continuous
 62
     7
370
    15
100
AcDbLine
 10
113.5459434215
 20
147.8681156796
 30
0.0
 11
113.6231984917
 21
147.6303518203
 31
0.0
  0
LINE
  5
C1
330
1F
100
AcDbEntity
  8
0
  6
Continuous
 62
     7
370
    15
100
AcDbLine
 10
113.6231984917
 20
147.6303518203
 30
0.0
 11
110.6417406324
 21
146.6616170865
 31
0.0
  0
LINE
  5
C2
330
1F
100
AcDbEntity
  8
0
  6
Continuous
 62
     7
370
    15
100
AcDbLine
 10
110.5644855622
 20
146.8993809458
 30
0.0
 11
110.6417406324
 21
146.6616170865
 31
0.0
  0
LINE
  5
C3
330
1F
100
AcDbEntity
  8
0
  6
Continuous
 62
     7
370
    15
100
AcDbLine
 10
38.8759452823
 20
161.9159069297
 30
0.0
 11
36.546267939
 21
164.0135601547
 31
0.0
  0
LINE
  5
C4
330
1F
100
AcDbEntity
  8
0
  6
Continuous
 62
     7
370
    15
100
AcDbLine
 10
36.546267939
 20
164.0135601547
 30
0.0
 11
36.7135483745
 21
164.1993459698
 31
0.0
  0
ARC
  5
C5
330
1F
100
AcDbEntity
  8
0
  6
Continuous
 62
     7
370
    15
100
AcDbCircle
 10
109.9149947029
 20
159.0430299823
 30
0.0
 40
12.00000000000002
100
AcDbArc
 50
288.0
 51
328.3762242501
  0
SPLINE
  5
C6
330
1F
100
AcDbEntity
  8
0
  6
Continuous
 62
     7
370
    15
100
AcDbSpline
210
0.0
220
0.0
230
1.0
 70
     8
 71
     3
 72
     8
 73
     4
 74
     0
 42
0.00000001
 43
0.00000001
 12
1.0
 22
0.0
 32
0.0
 13
1.0
 23
0.0
 33
0.0
 40
0.0001085338104882
 40
0.0001085338104882
 40
0.0001085338104882
 40
0.0001085338104882
 40
0.0003707418624266
 40
0.0003707418624266
 40
0.0003707418624266
 40
0.0003707418624266
 10
120.1123042530496
 20
152.8573303227945
 30
0.0
 10
120.0482958518418
 20
152.8654829134959
 30
0.0
 10
119.9842713418681
 20
152.873719701038
 30
0.0
 10
119.9202304459962
 20
152.882043233022
 30
0.0
  0
SPLINE
  5
C7
330
1F
100
AcDbEntity
  8
0
  6
Continuous
 62
     7
370
    15
100
AcDbSpline
210
0.0
220
0.0
230
1.0
 70
     8
 71
     3
 72
     8
 73
     4
 74
     0
 42
0.00000001
 43
0.00000001
 12
1.0
 22
0.0
 32
0.0
 13
1.0
 23
0.0
 33
0.0
 40
0.0
 40
0.0
 40
0.0
 40
0.0
 40
1.0
 40
1.0
 40
1.0
 40
1.0
 10
120.1651802768308
 20
152.8320474294592
 30
0.0
 10
120.1503778903649
 20
152.8450687422287
 30
0.0
 10
120.1328063962929
 20
152.8547190158533
 30
0.0
 10
120.1123042530496
 20
152.8573303227945
 30
0.0
  0
SPLINE
  5
C8
330
1F
100
AcDbEntity
  8
0
  6
Continuous
 62
     7
370
    15
100
AcDbSpline
210
0.0
220
0.0
230
1.0
 70
     8
 71
     3
 72
     8
 73
     4
 74
     0
 42
0.00000001
 43
0.00000001
 12
1.0
 22
0.0
 32
0.0
 13
1.0
 23
0.0
 33
0.0
 40
0.0
 40
0.0
 40
0.0
 40
0.0
 40
1.0
 40
1.0
 40
1.0
 40
1.0
 10
120.1331078022323
 20
152.7509584085688
 30
0.0
 10
120.1488629735619
 20
152.7765442781283
 30
0.0
 10
120.159523446953
 20
152.8043323129293
 30
0.0
 10
120.1651802768314
 20
152.8320474294603
 30
0.0
  0
ARC
  5
C9
330
1F
100
AcDbEntity
  8
0
  6
Continuous
 62
     7
370
    15
100
AcDbCircle
 10
44.5758344161
 20
172.9312972353
 30
0.0
 40
11.99999999999997
100
AcDbArc
 50
187.6237757499
 51
228.0
  0
SPLINE
  5
CA
330
1F
100
AcDbEntity
  8
0
  6
Continuous
 62
     7
370
    15
100
AcDbSpline
210
0.0
220
0.0
230
1.0
 70
     8
 71
     3
 72
     8
 73
     4
 74
     0
 42
0.00000001
 43
0.00000001
 12
1.0
 22
0.0
 32
0.0
 13
1.0
 23
0.0
 33
0.0
 40
0.0
 40
0.0
 40
0.0
 40
0.0
 40
1.0
 40
1.0
 40
1.0
 40
1.0
 10
32.68558975131926
 20
171.4264084078654
 30
0.0
 10
32.67952555296928
 20
171.3989730614253
 30
0.0
 10
32.6779269825584
 20
171.3690235909857
 30
0.0
 10
32.68190753865468
 20
171.3392848505119
 30
0.0
  0
SPLINE
  5
CB
330
1F
100
AcDbEntity
  8
0
  6
Continuous
 62
     7
370
    15
100
AcDbSpline
210
0.0
220
0.0
230
1.0
 70
     8
 71
     3
 72
     8
 73
     4
 74
     0
 42
0.00000001
 43
0.00000001
 12
1.0
 22
0.0
 32
0.0
 13
1.0
 23
0.0
 33
0.0
 40
0.0
 40
0.0
 40
0.0
 40
0.0
 40
1.0
 40
1.0
 40
1.0
 40
1.0
 10
32.74417788182533
 20
171.4279988638145
 30
0.0
 10
32.72428020443114
 20
171.4339841512318
 30
0.0
 10
32.70459086956824
 20
171.4323401815892
 30
0.0
 10
32.6855897513197
 20
171.4264084078634
 30
0.0
  0
SPLINE
  5
CC
330
1F
100
AcDbEntity
  8
0
  6
Continuous
 62
     7
370
    15
100
AcDbSpline
210
0.0
220
0.0
230
1.0
 70
     8
 71
     3
 72
     8
 73
     4
 74
     0
 42
0.00000001
 43
0.00000001
 12
1.0
 22
0.0
 32
0.0
 13
1.0
 23
0.0
 33
0.0
 40
0.0001085338104882
 40
0.0001085338104882
 40
0.0001085338104882
 40
0.0001085338104882
 40
0.0003707418624266
 40
0.0003707418624266
 40
0.0003707418624266
 40
0.0003707418624266
 10
32.74417788182533
 20
171.4279988638145
 30
0.0
 10
32.805968423374
 20
171.409412063782
 30
0.0
 10
32.86780792695281
 20
171.3908956293653
 30
0.0
 10
32.92969768193766
 20
171.3724517751943
 30
0.0
  0
SPLINE
  5
CD
330
1F
100
AcDbEntity
  8
0
  6
Continuous
 62
     7
370
    15
100
AcDbSpline
210
0.0
220
0.0
230
1.0
 70
     8
 71
     3
 72
     8
 73
     4
 74
     0
 42
0.00000001
 43
0.00000001
 12
1.0
 22
0.0
 32
0.0
 13
1.0
 23
0.0
 33
0.0
 40
0.0001085338104882
 40
0.0001085338104882
 40
0.0001085338104882
 40
0.0001085338104882
 40
0.0003707418624266
 40
0.0003707418624266
 40
0.0003707418624266
 40
0.0003707418624266
 10
119.4113969020133
 20
155.0145013381639
 30
0.0
 10
119.3644049902357
 20
154.9702825594855
 30
0.0
 10
119.317449535854
 20
154.9259861956371
 30
0.0
 10
119.2705318121058
 20
154.8816100226717
 30
0.0
  0
ARC
  5
CE
330
1F
100
AcDbEntity
  8
0
  6
Continuous
 62
     7
370
    15
100
AcDbCircle
 10
71.3396187845
 20
138.2025789854
 30
0.0
 40
50.92677669529664
100
AcDbArc
 50
16.7239708372
 51
19.2760291628
  0
ARC
  5
CF
330
1F
100
AcDbEntity
  8
0
  6
Continuous
 62
     7
370
    15
100
AcDbCircle
 10
71.3396187845
 20
138.2025789854
 30
0.0
 40
50.92677669529662
100
AcDbArc
 50
136.7239708372
 51
139.2760291628
  0
SPLINE
  5
D0
330
1F
100
AcDbEntity
  8
0
  6
Continuous
 62
     7
370
    15
100
AcDbSpline
210
0.0
220
0.0
230
1.0
 70
     8
 71
     3
 72
     8
 73
     4
 74
     0
 42
0.00000001
 43
0.00000001
 12
1.0
 22
0.0
 32
0.0
 13
1.0
 23
0.0
 33
0.0
 40
0.0001085338104882
 40
0.0001085338104882
 40
0.0001085338104882
 40
0.0001085338104882
 40
0.0003707418624266
 40
0.0003707418624266
 40
0.0003707418624266
 40
0.0003707418624266
 10
34.26188910592463
 20
173.1135879431959
 30
0.0
 10
34.28683295587445
 20
173.0540787463436
 30
0.0
 10
34.31171194360429
 20
172.9945135004705
 30
0.0
 10
34.33652400139284
 20
172.9348906917724
 30
0.0
  0
LINE
  5
D1
330
1F
100
AcDbEntity
  8
0
  6
Continuous
 62
     7
370
    15
100
AcDbLine
 10
111.1665148262
 20
155.1912513015
 30
0.0
 11
111.089259756
 21
155.4290160921
 31
0.0
  0
ARC
  5
D2
330
1F
100
AcDbEntity
  8
0
  6
Continuous
 62
     7
370
    15
100
AcDbCircle
 10
114.797463214
 20
144.0163370249
 30
0.0
 40
11.99999999999997
100
AcDbArc
 50
67.6237757499
 51
108.0
  0
SPLINE
  5
D3
330
1F
100
AcDbEntity
  8
0
  6
Continuous
 62
     7
370
    15
100
AcDbSpline
210
0.0
220
0.0
230
1.0
 70
     8
 71
     3
 72
     8
 73
     4
 74
     0
 42
0.00000001
 43
0.00000001
 12
1.0
 22
0.0
 32
0.0
 13
1.0
 23
0.0
 33
0.0
 40
0.0
 40
0.0
 40
0.0
 40
0.0
 40
1.0
 40
1.0
 40
1.0
 40
1.0
 10
119.4393135920108
 20
155.066035375517
 30
0.0
 10
119.418585984207
 20
155.0850047985618
 30
0.0
 10
119.3934482671819
 20
155.1013639363671
 30
0.0
 10
119.3657034844069
 20
155.1127860439034
 30
0.0
  0
SPLINE
  5
D4
330
1F
100
AcDbEntity
  8
0
  6
Continuous
 62
     7
370
    15
100
AcDbSpline
210
0.0
220
0.0
230
1.0
 70
     8
 71
     3
 72
     8
 73
     4
 74
     0
 42
0.00000001
 43
0.00000001
 12
1.0
 22
0.0
 32
0.0
 13
1.0
 23
0.0
 33
0.0
 40
0.0
 40
0.0
 40
0.0
 40
0.0
 40
1.0
 40
1.0
 40
1.0
 40
1.0
 10
119.4113969020133
 20
155.0145013381639
 30
0.0
 10
119.4265291516628
 20
155.0287405885549
 30
0.0
 10
119.4349500996206
 20
155.0466140375512
 30
0.0
 10
119.4393135920089
 20
155.0660353755176
 30
0.0
  0
ARC
  5
D5
330
1F
100
AcDbEntity
  8
0
  6
Continuous
 62
     7
370
    15
100
AcDbCircle
 10
34.0035708357
 20
161.1896089927
 30
0.0
 40
12.00000000000001
100
AcDbArc
 50
48.0
 51
88.3762242501
  0
LINE
  5
D6
330
1F
100
AcDbEntity
  8
0
  6
Continuous
 62
     7
370
    15
100
AcDbLine
 10
42.0331381235
 20
170.1073471841
 30
0.0
 11
41.8658558253
 21
169.9215595063
 31
0.0
  0
SPLINE
  5
D7
330
1F
100
AcDbEntity
  8
0
  6
Continuous
 62
     7
370
    15
100
AcDbSpline
210
0.0
220
0.0
230
1.0
 70
     8
 71
     3
 72
     8
 73
     4
 74
     0
 42
0.00000001
 43
0.00000001
 12
1.0
 22
0.0
 32
0.0
 13
1.0
 23
0.0
 33
0.0
 40
0.0
 40
0.0
 40
0.0
 40
0.0
 40
1.0
 40
1.0
 40
1.0
 40
1.0
 10
34.25734672194351
 20
173.1720213697092
 30
0.0
 10
34.25347112752748
 20
173.1526914706083
 30
0.0
 10
34.25389949245108
 20
173.1326489735472
 30
0.0
 10
34.26188910592462
 20
173.1135879431959
 30
0.0
  0
SPLINE
  5
D8
330
1F
100
AcDbEntity
  8
0
  6
Continuous
 62
     7
370
    15
100
AcDbSpline
210
0.0
220
0.0
230
1.0
 70
     8
 71
     3
 72
     8
 73
     4
 74
     0
 42
0.00000001
 43
0.00000001
 12
1.0
 22
0.0
 32
0.0
 13
1.0
 23
0.0
 33
0.0
 40
0.0
 40
0.0
 40
0.0
 40
0.0
 40
1.0
 40
1.0
 40
1.0
 40
1.0
 10
34.34360811130189
 20
173.1847903023899
 30
0.0
 10
34.31357251262061
 20
173.1856417462225
 30
0.0
 10
34.28417713186619
 20
173.1809799695951
 30
0.0
 10
34.25734672194231
 20
173.1720213697092
 30
0.0
  0
LINE
  5
D9
330
1F
100
AcDbEntity
  8
0
  6
Continuous
 62
     7
370
    15
100
AcDbLine
 10
108.1850532416
 20
154.2225156364
 30
0.0
 11
108.1077981714
 21
154.460280427
 31
0.0
  0
LINE
  5
DA
330
1F
100
AcDbEntity
  8
0
  6
Continuous
 62
     7
370
    15
100
AcDbLine
 10
108.1077981714
 20
154.460280427
 30
0.0
 11
111.089259756
 21
155.4290160921
 31
0.0
  0
LINE
  5
DB
330
1F
100
AcDbEntity
  8
0
  6
Continuous
 62
     7
370
    15
100
AcDbLine
 10
42.0331381235
 20
170.1073471841
 30
0.0
 11
44.3628173295
 21
168.009693959
 31
0.0
  0
LINE
  5
DC
330
1F
100
AcDbEntity
  8
0
  6
Continuous
 62
     7
370
    15
100
AcDbLine
 10
44.3628173295
 20
168.009693959
 30
0.0
 11
44.1955350313
 21
167.8239081439
 31
0.0
  0
LINE
  5
DD
330
1F
100
AcDbEntity
  8
0
  6
Continuous
 62
     7
370
    15
100
AcDbLine
 10
104.8464927796
 20
155.5908445653
 30
0.0
 11
105.0683934215
 21
155.7059988764
 31
0.0
  0
ARC
  5
DE
330
1F
100
AcDbEntity
  8
0
  6
Continuous
 62
     7
370
    15
100
AcDbCircle
 10
107.3228967818
 20
156.8759639107
 30
0.0
 40
2.540000000000027
100
AcDbArc
 50
207.4268835638
 51
288.0
  0
ARC
  5
DF
330
1F
100
AcDbEntity
  8
0
  6
Continuous
 62
     7
370
    15
100
AcDbCircle
 10
46.0624085184
 20
169.8972826622
 30
0.0
 40
2.539999999999985
100
AcDbArc
 50
228.0
 51
308.5731164362
  0
LINE
  5
E0
330
1F
100
AcDbEntity
  8
0
  6
Continuous
 62
     7
370
    15
100
AcDbLine
 10
47.6461317364
 20
167.9114766803
 30
0.0
 11
47.8020090583
 21
167.7160237369
 31
0.0
  0
LINE
  5
E1
330
1F
100
AcDbEntity
  8
0
  6
Continuous
 62
     7
370
    15
100
AcDbLine
 10
103.1517352882
 20
158.5262522486
 30
0.0
 11
103.3624116305
 21
158.6608451244
 31
0.0
  0
ARC
  5
E2
330
1F
100
AcDbEntity
  8
0
  6
Continuous
 62
     7
370
    15
100
AcDbCircle
 10
71.3396187845
 20
138.2025789854
 30
0.0
 40
38.0
100
AcDbArc
 50
27.4268835638
 51
32.5731164362
  0
ARC
  5
E3
330
1F
100
AcDbEntity
  8
0
  6
Continuous
 62
     7
370
    15
100
AcDbCircle
 10
71.3396187845
 20
138.2025789854
 30
0.0
 40
38.00000000000001
100
AcDbArc
 50
123.4268835638
 51
128.5731164362
  0
LINE
  5
E4
330
1F
100
AcDbEntity
  8
0
  6
Continuous
 62
     7
370
    15
100
AcDbLine
 10
50.4064675394
 20
169.9169811246
 30
0.0
 11
50.5441859338
 21
169.7083313402
 31
0.0
  0
LINE
  5
E5
330
1F
100
AcDbEntity
  8
0
  6
Continuous
 62
     7
370
    15
100
AcDbLine
 10
103.6360081259
 20
162.1016927448
 30
0.0
 11
103.8032922867
 21
161.9159069297
 31
0.0
  0
ARC
  5
E6
330
1F
100
AcDbEntity
  8
0
  6
Continuous
 62
     7
370
    15
100
AcDbCircle
 10
105.5028835031
 20
160.0283193798
 30
0.0
 40
2.540000000000007
100
AcDbArc
 50
132.0
 51
212.5731164362
  0
ARC
  5
E7
330
1F
100
AcDbEntity
  8
0
  6
Continuous
 62
     7
370
    15
100
AcDbCircle
 10
49.0072518633
 20
172.0368365906
 30
0.0
 40
2.540000000000015
100
AcDbArc
 50
303.4268835638
 51
24.0
  0
LINE
  5
E8
330
1F
100
AcDbEntity
  8
0
  6
Continuous
 62
     7
370
    15
100
AcDbLine
 10
51.3276573244
 20
173.0699476239
 30
0.0
 11
51.5560436967
 21
173.1716331479
 31
0.0
  0
LINE
  5
E9
330
1F
100
AcDbEntity
  8
0
  6
Continuous
 62
     7
370
    15
100
AcDbLine
 10
105.9656891945
 20
164.1993459698
 30
0.0
 11
106.1329696301
 21
164.0135601547
 31
0.0
  0
LINE
  5
EA
330
1F
100
AcDbEntity
  8
0
  6
Continuous
 62
     7
370
    15
100
AcDbLine
 10
106.1329696301
 20
164.0135601547
 30
0.0
 11
103.8032922867
 21
161.9159069297
 31
0.0
  0
LINE
  5
EB
330
1F
100
AcDbEntity
  8
0
  6
Continuous
 62
     7
370
    15
100
AcDbLine
 10
51.3276573244
 20
173.0699476239
 30
0.0
 11
50.0525817249
 21
175.9338129696
 31
0.0
  0
LINE
  5
EC
330
1F
100
AcDbEntity
  8
0
  6
Continuous
 62
     7
370
    15
100
AcDbLine
 10
50.0525817249
 20
175.9338129696
 30
0.0
 11
50.2809680972
 21
176.0354984936
 31
0.0
  0
ARC
  5
ED
330
1F
100
AcDbEntity
  8
0
  6
Continuous
 62
     7
370
    15
100
AcDbCircle
 10
98.1034031529
 20
172.9312972353
 30
0.0
 40
12.00000000000001
100
AcDbArc
 50
312.0
 51
352.3762242501
  0
SPLINE
  5
EE
330
1F
100
AcDbEntity
  8
0
  6
Continuous
 62
     7
370
    15
100
AcDbSpline
210
0.0
220
0.0
230
1.0
 70
     8
 71
     3
 72
     8
 73
     4
 74
     0
 42
0.00000001
 43
0.00000001
 12
1.0
 22
0.0
 32
0.0
 13
1.0
 23
0.0
 33
0.0
 40
0.0001085338104882
 40
0.0001085338104882
 40
0.0001085338104882
 40
0.0001085338104882
 40
0.0003707418624266
 40
0.0003707418624266
 40
0.0003707418624266
 40
0.0003707418624266
 10
109.9350596872361
 20
171.427998863814
 30
0.0
 10
109.8732691456874
 20
171.4094120637814
 30
0.0
 10
109.8114296421086
 20
171.3908956293648
 30
0.0
 10
109.7495398871237
 20
171.3724517751938
 30
0.0
  0
SPLINE
  5
EF
330
1F
100
AcDbEntity
  8
0
  6
Continuous
 62
     7
370
    15
100
AcDbSpline
210
0.0
220
0.0
230
1.0
 70
     8
 71
     3
 72
     8
 73
     4
 74
     0
 42
0.00000001
 43
0.00000001
 12
1.0
 22
0.0
 32
0.0
 13
1.0
 23
0.0
 33
0.0
 40
0.0
 40
0.0
 40
0.0
 40
0.0
 40
1.0
 40
1.0
 40
1.0
 40
1.0
 10
109.993647817742
 20
171.4264084078635
 30
0.0
 10
109.9748289197795
 20
171.432283296016
 30
0.0
 10
109.9548514412872
 20
171.4339522891381
 30
0.0
 10
109.9350596872361
 20
171.427998863814
 30
0.0
  0
SPLINE
  5
F0
330
1F
100
AcDbEntity
  8
0
  6
Continuous
 62
     7
370
    15
100
AcDbSpline
210
0.0
220
0.0
230
1.0
 70
     8
 71
     3
 72
     8
 73
     4
 74
     0
 42
0.00000001
 43
0.00000001
 12
1.0
 22
0.0
 32
0.0
 13
1.0
 23
0.0
 33
0.0
 40
0.0
 40
0.0
 40
0.0
 40
0.0
 40
1.0
 40
1.0
 40
1.0
 40
1.0
 10
109.9973300304044
 20
171.3392848505111
 30
0.0
 10
110.0013163849122
 20
171.3690669109247
 30
0.0
 10
109.9997527999624
 20
171.3987885490546
 30
0.0
 10
109.9936478177422
 20
171.4264084078647
 30
0.0
  0
ARC
  5
F1
330
1F
100
AcDbEntity
  8
0
  6
Continuous
 62
     7
370
    15
100
AcDbCircle
 10
61.0151274247
 20
180.8146536023
 30
0.0
 40
11.9999999999995
100
AcDbArc
 50
163.6237757499
 51
204.0
  0
SPLINE
  5
F2
330
1F
100
AcDbEntity
  8
0
  6
Continuous
 62
     7
370
    15
100
AcDbSpline
210
0.0
220
0.0
230
1.0
 70
     8
 71
     3
 72
     8
 73
     4
 74
     0
 42
0.00000001
 43
0.00000001
 12
1.0
 22
0.0
 32
0.0
 13
1.0
 23
0.0
 33
0.0
 40
0.0
 40
0.0
 40
0.0
 40
0.0
 40
1.0
 40
1.0
 40
1.0
 40
1.0
 10
49.5407549910807
 20
184.2760674501069
 30
0.0
 10
49.52405610951116
 20
184.2534705456674
 30
0.0
 10
49.51041419570511
 20
184.2267605401512
 30
0.0
 10
49.50195477917614
 20
184.1979738108512
 30
0.0
  0
SPLINE
  5
F3
330
1F
100
AcDbEntity
  8
0
  6
Continuous
 62
     7
370
    15
100
AcDbSpline
210
0.0
220
0.0
230
1.0
 70
     8
 71
     3
 72
     8
 73
     4
 74
     0
 42
0.00000001
 43
0.00000001
 12
1.0
 22
0.0
 32
0.0
 13
1.0
 23
0.0
 33
0.0
 40
0.0
 40
0.0
 40
0.0
 40
0.0
 40
1.0
 40
1.0
 40
1.0
 40
1.0
 10
49.59492480829002
 20
184.2536904643887
 30
0.0
 10
49.57918181120088
 20
184.2672514110297
 30
0.0
 10
49.56052604607908
 20
184.2737579439967
 30
0.0
 10
49.54075499108032
 20
184.2760674501049
 30
0.0
  0
SPLINE
  5
F4
330
1F
100
AcDbEntity
  8
0
  6
Continuous
 62
     7
370
    15
100
AcDbSpline
210
0.0
220
0.0
230
1.0
 70
     8
 71
     3
 72
     8
 73
     4
 74
     0
 42
0.00000001
 43
0.00000001
 12
1.0
 22
0.0
 32
0.0
 13
1.0
 23
0.0
 33
0.0
 40
0.0001085338104882
 40
0.0001085338104882
 40
0.0001085338104882
 40
0.0001085338104882
 40
0.0003707418624266
 40
0.0003707418624266
 40
0.0003707418624266
 40
0.0003707418624266
 10
49.59492480829002
 20
184.2536904643887
 30
0.0
 10
49.6438133441963
 20
184.2115781002034
 30
0.0
 10
49.69277522941724
 20
184.1695101035553
 30
0.0
 10
49.7418125426274
 20
184.1274879731727
 30
0.0
  0
SPLINE
  5
F5
330
1F
100
AcDbEntity
  8
0
  6
Continuous
 62
     7
370
    15
100
AcDbSpline
210
0.0
220
0.0
230
1.0
 70
     8
 71
     3
 72
     8
 73
     4
 74
     0
 42
0.00000001
 43
0.00000001
 12
1.0
 22
0.0
 32
0.0
 13
1.0
 23
0.0
 33
0.0
 40
0.0001085338104882
 40
0.0001085338104882
 40
0.0001085338104882
 40
0.0001085338104882
 40
0.0003707418624266
 40
0.0003707418624266
 40
0.0003707418624266
 40
0.0003707418624266
 10
108.4173484631368
 20
173.1135879431954
 30
0.0
 10
108.3924046131869
 20
173.0540787463431
 30
0.0
 10
108.3675256254571
 20
172.99451350047
 30
0.0
 10
108.3427135676686
 20
172.9348906917718
 30
0.0
  0
ARC
  5
F6
330
1F
100
AcDbEntity
  8
0
  6
Continuous
 62
     7
370
    15
100
AcDbCircle
 10
71.3396187845
 20
138.2025789854
 30
0.0
 40
50.92677669529665
100
AcDbArc
 50
40.7239708372
 51
43.2760291628
  0
ARC
  5
F7
330
1F
100
AcDbEntity
  8
0
  6
Continuous
 62
     7
370
    15
100
AcDbCircle
 10
71.3396187845
 20
138.2025789854
 30
0.0
 40
50.92677669529665
100
AcDbArc
 50
112.7239708372
 51
115.2760291628
  0
SPLINE
  5
F8
330
1F
100
AcDbEntity
  8
0
  6
Continuous
 62
     7
370
    15
100
AcDbSpline
210
0.0
220
0.0
230
1.0
 70
     8
 71
     3
 72
     8
 73
     4
 74
     0
 42
0.00000001
 43
0.00000001
 12
1.0
 22
0.0
 32
0.0
 13
1.0
 23
0.0
 33
0.0
 40
0.0001085338104882
 40
0.0001085338104882
 40
0.0001085338104882
 40
0.0001085338104882
 40
0.0003707418624266
 40
0.0003707418624266
 40
0.0003707418624266
 40
0.0003707418624266
 10
51.66701384683189
 20
185.1762439428609
 30
0.0
 10
51.6655966166898
 20
185.1117340085945
 30
0.0
 10
51.66409733477075
 20
185.0471992528414
 30
0.0
 10
51.66251349639759
 20
184.9826391336906
 30
0.0
  0
LINE
  5
F9
330
1F
100
AcDbEntity
  8
0
  6
Continuous
 62
     7
370
    15
100
AcDbLine
 10
100.8133817438
 20
169.9215595063
 30
0.0
 11
100.6460994456
 21
170.1073471841
 31
0.0
  0
ARC
  5
FA
330
1F
100
AcDbEntity
  8
0
  6
Continuous
 62
     7
370
    15
100
AcDbCircle
 10
108.6756667334
 20
161.1896089927
 30
0.0
 40
11.99999999999998
100
AcDbArc
 50
91.6237757499
 51
132.0
  0
SPLINE
  5
FB
330
1F
100
AcDbEntity
  8
0
  6
Continuous
 62
     7
370
    15
100
AcDbSpline
210
0.0
220
0.0
230
1.0
 70
     8
 71
     3
 72
     8
 73
     4
 74
     0
 42
0.00000001
 43
0.00000001
 12
1.0
 22
0.0
 32
0.0
 13
1.0
 23
0.0
 33
0.0
 40
0.0
 40
0.0
 40
0.0
 40
0.0
 40
1.0
 40
1.0
 40
1.0
 40
1.0
 10
108.4218908471192
 20
173.1720213697087
 30
0.0
 10
108.395239675712
 20
173.1809201223482
 30
0.0
 10
108.3656213677137
 20
173.1856405077438
 30
0.0
 10
108.3356294577601
 20
173.1847903023915
 30
0.0
  0
SPLINE
  5
FC
330
1F
100
AcDbEntity
  8
0
  6
Continuous
 62
     7
370
    15
100
AcDbSpline
210
0.0
220
0.0
230
1.0
 70
     8
 71
     3
 72
     8
 73
     4
 74
     0
 42
0.00000001
 43
0.00000001
 12
1.0
 22
0.0
 32
0.0
 13
1.0
 23
0.0
 33
0.0
 40
0.0
 40
0.0
 40
0.0
 40
0.0
 40
1.0
 40
1.0
 40
1.0
 40
1.0
 10
108.4173484631368
 20
173.1135879431954
 30
0.0
 10
108.425380836164
 20
173.132750986135
 30
0.0
 10
108.4258039682749
 20
173.1525043023818
 30
0.0
 10
108.4218908471173
 20
173.1720213697084
 30
0.0
  0
ARC
  5
FD
330
1F
100
AcDbEntity
  8
0
  6
Continuous
 62
     7
370
    15
100
AcDbCircle
 10
46.581109194
 20
174.3882146417
 30
0.0
 40
12.00000000000002
100
AcDbArc
 50
24.0
 51
64.3762242501
  0
LINE
  5
FE
330
1F
100
AcDbEntity
  8
0
  6
Continuous
 62
     7
370
    15
100
AcDbLine
 10
57.5436543647
 20
179.269054198
 30
0.0
 11
57.3152679924
 21
179.167368674
 31
0.0
  0
SPLINE
  5
FF
330
1F
100
AcDbEntity
  8
0
  6
Continuous
 62
     7
370
    15
100
AcDbSpline
210
0.0
220
0.0
230
1.0
 70
     8
 71
     3
 72
     8
 73
     4
 74
     0
 42
0.00000001
 43
0.00000001
 12
1.0
 22
0.0
 32
0.0
 13
1.0
 23
0.0
 33
0.0
 40
0.0
 40
0.0
 40
0.0
 40
0.0
 40
1.0
 40
1.0
 40
1.0
 40
1.0
 10
51.68663118832248
 20
185.2314730882386
 30
0.0
 10
51.67522847837677
 20
185.215390692981
 30
0.0
 10
51.66746779123346
 20
185.19690672912
 30
0.0
 10
51.66701384683189
 20
185.1762439428609
 30
0.0
  0
SPLINE
  5
100
330
1F
100
AcDbEntity
  8
0
  6
Continuous
 62
     7
370
    15
100
AcDbSpline
210
0.0
220
0.0
230
1.0
 70
     8
 71
     3
 72
     8
 73
     4
 74
     0
 42
0.00000001
 43
0.00000001
 12
1.0
 22
0.0
 32
0.0
 13
1.0
 23
0.0
 33
0.0
 40
0.0
 40
0.0
 40
0.0
 40
0.0
 40
1.0
 40
1.0
 40
1.0
 40
1.0
 10
51.77062848155497
 20
185.2080524207533
 30
0.0
 10
51.74353591021837
 20
185.2210468319794
 30
0.0
 10
51.7147857782783
 20
185.228744265607
 30
0.0
 10
51.6866311883214
 20
185.2314730882391
 30
0.0
  0
LINE
  5
101
330
1F
100
AcDbEntity
  8
0
  6
Continuous
 62
     7
370
    15
100
AcDbLine
 10
98.4837025378
 20
167.8239081439
 30
0.0
 11
98.3164202396
 21
168.009693959
 31
0.0
  0
LINE
  5
102
330
1F
100
AcDbEntity
  8
0
  6
Continuous
 62
     7
370
    15
100
AcDbLine
 10
98.3164202396
 20
168.009693959
 30
0.0
 11
100.6460994456
 21
170.1073471841
 31
0.0
  0
LINE
  5
103
330
1F
100
AcDbEntity
  8
0
  6
Continuous
 62
     7
370
    15
100
AcDbLine
 10
57.5436543647
 20
179.269054198
 30
0.0
 11
58.8187299642
 21
176.4051888522
 31
0.0
  0
LINE
  5
104
330
1F
100
AcDbEntity
  8
0
  6
Continuous
 62
     7
370
    15
100
AcDbLine
 10
58.8187299642
 20
176.4051888522
 30
0.0
 11
58.5903435919
 21
176.3035033282
 31
0.0
  0
LINE
  5
105
330
1F
100
AcDbEntity
  8
0
  6
Continuous
 62
     7
370
    15
100
AcDbLine
 10
94.8772285107
 20
167.7160237369
 30
0.0
 11
95.0331058327
 21
167.9114766803
 31
0.0
  0
ARC
  5
106
330
1F
100
AcDbEntity
  8
0
  6
Continuous
 62
     7
370
    15
100
AcDbCircle
 10
96.6168290507
 20
169.8972826622
 30
0.0
 40
2.540000000000012
100
AcDbArc
 50
231.4268835638
 51
312.0
  0
ARC
  5
107
330
1F
100
AcDbEntity
  8
0
  6
Continuous
 62
     7
370
    15
100
AcDbCircle
 10
61.1391355408
 20
177.4382992106
 30
0.0
 40
2.539999999999997
100
AcDbArc
 50
204.0
 51
284.5731164362
  0
LINE
  5
108
330
1F
100
AcDbEntity
  8
0
  6
Continuous
 62
     7
370
    15
100
AcDbLine
 10
61.7782384131
 20
174.9800194439
 30
0.0
 11
61.8411418024
 21
174.738061839
 31
0.0
  0
LINE
  5
109
330
1F
100
AcDbEntity
  8
0
  6
Continuous
 62
     7
370
    15
100
AcDbLine
 10
92.1350516352
 20
169.7083313402
 30
0.0
 11
92.2727700296
 21
169.9169811246
 31
0.0
  0
ARC
  5
10A
330
1F
100
AcDbEntity
  8
0
  6
Continuous
 62
     7
370
    15
100
AcDbCircle
 10
71.3396187845
 20
138.2025789854
 30
0.0
 40
38.0
100
AcDbArc
 50
51.4268835638
 51
56.5731164362
  0
ARC
  5
10B
330
1F
100
AcDbEntity
  8
0
  6
Continuous
 62
     7
370
    15
100
AcDbCircle
 10
71.3396187845
 20
138.2025789854
 30
0.0
 40
38.00000000000002
100
AcDbArc
 50
99.4268835638
 51
104.5731164362
  0
LINE
  5
10C
330
1F
100
AcDbEntity
  8
0
  6
Continuous
 62
     7
370
    15
100
AcDbLine
 10
65.1156426381
 20
175.6894041237
 30
0.0
 11
65.1565896321
 21
175.4427824554
 31
0.0
  0
CIRCLE
  5
10D
330
1F
100
AcDbEntity
  8
0
  6
Continuous
 62
     7
370
    15
100
AcDbCircle
 10
71.3396187845
 20
138.2025789854
 30
0.0
 40
10.0
  0
SPLINE
  5
10E
330
1F
100
AcDbEntity
  8
0
  6
Continuous
 62
     7
370
    15
100
AcDbSpline
210
0.0
220
0.0
230
1.0
 70
     8
 71
     3
 72
     8
 73
     4
 74
     0
 42
0.00000001
 43
0.00000001
 12
1.0
 22
0.0
 32
0.0
 13
1.0
 23
0.0
 33
0.0
 40
0.0001085338104882
 40
0.0001085338104882
 40
0.0001085338104882
 40
0.0001085338104882
 40
0.0003707418624266
 40
0.0003707418624266
 40
0.0003707418624266
 40
0.0003707418624266
 10
61.86328156975279
 20
88.16523675415611
 30
0.0
 10
61.84848293998176
 20
88.22804233286716
 30
0.0
 10
61.83359889078468
 20
88.29085513113216
 30
0.0
 10
61.81862685954796
 20
88.3536751582685
 30
0.0
  0
ARC
  5
10F
330
1F
100
AcDbEntity
  8
0
  6
Continuous
 62
     7
370
    15
100
AcDbCircle
 10
71.3396187845
 20
138.2025789854
 30
0.0
 40
50.92677669529663
100
AcDbArc
 50
256.7239708372
 51
259.2760291628
  0
SPLINE
  5
110
330
1F
100
AcDbEntity
  8
0
  6
Continuous
 62
     7
370
    15
100
AcDbSpline
210
0.0
220
0.0
230
1.0
 70
     8
 71
     3
 72
     8
 73
     4
 74
     0
 42
0.00000001
 43
0.00000001
 12
1.0
 22
0.0
 32
0.0
 13
1.0
 23
0.0
 33
0.0
 40
0.0001085338104882
 40
0.0001085338104882
 40
0.0001085338104882
 40
0.0001085338104882
 40
0.0003707418624266
 40
0.0003707418624266
 40
0.0003707418624266
 40
0.0003707418624266
 10
59.64466299461723
 20
88.6368186901442
 30
0.0
 10
59.68372754587526
 20
88.6881752962951
 30
0.0
 10
59.72287306811909
 20
88.7395037546261
 30
0.0
 10
59.76210190620245
 20
88.79080303134023
 30
0.0
  0
LINE
  5
111
330
1F
100
AcDbEntity
  8
0
  6
Continuous
 62
     7
370
    15
100
AcDbLine
 10
66.1387931529
 20
95.2171396848
 30
0.0
 11
66.3833300557
 21
95.1651607093
 31
0.0
  0
ARC
  5
112
330
1F
100
AcDbEntity
  8
0
  6
Continuous
 62
     7
370
    15
100
AcDbCircle
 10
54.6455587234
 20
97.660102696
 30
0.0
 40
11.99999999999999
100
AcDbArc
 50
307.6237757499
 51
348.0
  0
SPLINE
  5
113
330
1F
100
AcDbEntity
  8
0
  6
Continuous
 62
     7
370
    15
100
AcDbSpline
210
0.0
220
0.0
230
1.0
 70
     8
 71
     3
 72
     8
 73
     4
 74
     0
 42
0.00000001
 43
0.00000001
 12
1.0
 22
0.0
 32
0.0
 13
1.0
 23
0.0
 33
0.0
 40
0.0
 40
0.0
 40
0.0
 40
0.0
 40
1.0
 40
1.0
 40
1.0
 40
1.0
 10
61.89395301026143
 20
88.11529317275222
 30
0.0
 10
61.92074481641519
 20
88.12375909614761
 30
0.0
 10
61.94748110385114
 20
88.13734942878182
 30
0.0
 10
61.97124533052986
 20
88.15566606171929
 30
0.0
  0
SPLINE
  5
114
330
1F
100
AcDbEntity
  8
0
  6
Continuous
 62
     7
370
    15
100
AcDbSpline
210
0.0
220
0.0
230
1.0
 70
     8
 71
     3
 72
     8
 73
     4
 74
     0
 42
0.00000001
 43
0.00000001
 12
1.0
 22
0.0
 32
0.0
 13
1.0
 23
0.0
 33
0.0
 40
0.0
 40
0.0
 40
0.0
 40
0.0
 40
1.0
 40
1.0
 40
1.0
 40
1.0
 10
61.86328156975279
 20
88.16523675415611
 30
0.0
 10
61.86804699749757
 20
88.1450122163478
 30
0.0
 10
61.87931538440264
 20
88.12878273699425
 30
0.0
 10
61.89395301026288
 20
88.11529317275355
 30
0.0
  0
ARC
  5
115
330
1F
100
AcDbEntity
  8
0
  6
Continuous
 62
     7
370
    15
100
AcDbCircle
 10
70.100290815
 20
94.3750979811
 30
0.0
 40
12.00000000000001
100
AcDbArc
 50
168.0
 51
208.3762242501
  0
LINE
  5
116
330
1F
100
AcDbEntity
  8
0
  6
Continuous
 62
     7
370
    15
100
AcDbLine
 10
58.3625197384
 20
96.8700398144
 30
0.0
 11
58.6070561755
 21
96.8180608389
 31
0.0
  0
SPLINE
  5
117
330
1F
100
AcDbEntity
  8
0
  6
Continuous
 62
     7
370
    15
100
AcDbSpline
210
0.0
220
0.0
230
1.0
 70
     8
 71
     3
 72
     8
 73
     4
 74
     0
 42
0.00000001
 43
0.00000001
 12
1.0
 22
0.0
 32
0.0
 13
1.0
 23
0.0
 33
0.0
 40
0.0
 40
0.0
 40
0.0
 40
0.0
 40
1.0
 40
1.0
 40
1.0
 40
1.0
 10
59.59632935481718
 20
88.6036681569662
 30
0.0
 10
59.6150073356991
 20
88.60997674329755
 30
0.0
 10
59.63215046484748
 20
88.62036896673406
 30
0.0
 10
59.64466299461723
 20
88.6368186901442
 30
0.0
  0
SPLINE
  5
118
330
1F
100
AcDbEntity
  8
0
  6
Continuous
 62
     7
370
    15
100
AcDbSpline
210
0.0
220
0.0
230
1.0
 70
     8
 71
     3
 72
     8
 73
     4
 74
     0
 42
0.00000001
 43
0.00000001
 12
1.0
 22
0.0
 32
0.0
 13
1.0
 23
0.0
 33
0.0
 40
0.0
 40
0.0
 40
0.0
 40
0.0
 40
1.0
 40
1.0
 40
1.0
 40
1.0
 10
59.54214044005729
 20
88.67198824517594
 30
0.0
 10
59.55642086740895
 20
88.64555093178375
 30
0.0
 10
59.57515577477225
 20
88.6224246736102
 30
0.0
 10
59.59632935481773
 20
88.60366815696513
 30
0.0
  0
LINE
  5
119
330
1F
100
AcDbEntity
  8
0
  6
Continuous
 62
     7
370
    15
100
AcDbLine
 10
66.7905736688
 20
98.2835267123
 30
0.0
 11
67.0351105716
 21
98.2315477368
 31
0.0
  0
LINE
  5
11A
330
1F
100
AcDbEntity
  8
0
  6
Continuous
 62
     7
370
    15
100
AcDbLine
 10
67.0351105716
 20
98.2315477368
 30
0.0
 11
66.3833300557
 21
95.1651607093
 31
0.0
  0
LINE
  5
11B
330
1F
100
AcDbEntity
  8
0
  6
Continuous
 62
     7
370
    15
100
AcDbLine
 10
58.3625197384
 20
96.8700398144
 30
0.0
 11
59.0143002543
 21
99.9364268419
 31
0.0
  0
LINE
  5
11C
330
1F
100
AcDbEntity
  8
0
  6
Continuous
 62
     7
370
    15
100
AcDbLine
 10
59.0143002543
 20
99.9364268419
 30
0.0
 11
59.2588376227
 21
99.8844478664
 31
0.0
  0
LINE
  5
11D
330
1F
100
AcDbEntity
  8
0
  6
Continuous
 62
     7
370
    15
100
AcDbLine
 10
69.6448604783
 20
100.4906420049
 30
0.0
 11
69.6336368771
 21
100.2408910927
 31
0.0
  0
ARC
  5
11E
330
1F
100
AcDbEntity
  8
0
  6
Continuous
 62
     7
370
    15
100
AcDbCircle
 10
69.5196055058
 20
97.7034536656
 30
0.0
 40
2.540000000000002
100
AcDbArc
 50
87.4268835638
 51
168.0
  0
ARC
  5
11F
330
1F
100
AcDbEntity
  8
0
  6
Continuous
 62
     7
370
    15
100
AcDbCircle
 10
56.5298053681
 20
100.4645209197
 30
0.0
 40
2.540000000000008
100
AcDbArc
 50
348.0
 51
68.5731164362
  0
LINE
  5
120
330
1F
100
AcDbEntity
  8
0
  6
Continuous
 62
     7
370
    15
100
AcDbLine
 10
57.457701673
 20
102.828965747
 30
0.0
 11
57.5490299586
 21
103.0616883573
 31
0.0
  0
LINE
  5
121
330
1F
100
AcDbEntity
  8
0
  6
Continuous
 62
     7
370
    15
100
AcDbLine
 10
73.0343770908
 20
100.4906420049
 30
0.0
 11
73.045600692
 21
100.2408910927
 31
0.0
  0
ARC
  5
122
330
1F
100
AcDbEntity
  8
0
  6
Continuous
 62
     7
370
    15
100
AcDbCircle
 10
71.3396187845
 20
138.2025789854
 30
0.0
 40
38.0
100
AcDbArc
 50
267.4268835638
 51
272.5731164362
  0
ARC
  5
123
330
1F
100
AcDbEntity
  8
0
  6
Continuous
 62
     7
370
    15
100
AcDbCircle
 10
71.3396187845
 20
138.2025789854
 30
0.0
 40
38.0
100
AcDbArc
 50
243.4268835638
 51
248.5731164362
  0
LINE
  5
124
330
1F
100
AcDbEntity
  8
0
  6
Continuous
 62
     7
370
    15
100
AcDbLine
 10
54.3407186839
 20
104.2167369661
 30
0.0
 11
54.4525537613
 21
104.4403288898
 31
0.0
  0
LINE
  5
125
330
1F
100
AcDbEntity
  8
0
  6
Continuous
 62
     7
370
    15
100
AcDbLine
 10
75.8886639002
 20
98.2835267123
 30
0.0
 11
75.6441269975
 21
98.2315477368
 31
0.0
  0
ARC
  5
126
330
1F
100
AcDbEntity
  8
0
  6
Continuous
 62
     7
370
    15
100
AcDbCircle
 10
73.1596320632
 20
97.7034536656
 30
0.0
 40
2.540000000000008
100
AcDbArc
 50
12.0
 51
92.5731164362
  0
ARC
  5
127
330
1F
100
AcDbEntity
  8
0
  6
Continuous
 62
     7
370
    15
100
AcDbCircle
 10
53.2044756409
 20
101.9450531024
 30
0.0
 40
2.539999999999998
100
AcDbArc
 50
63.4268835638
 51
144.0
  0
LINE
  5
128
330
1F
100
AcDbEntity
  8
0
  6
Continuous
 62
     7
370
    15
100
AcDbLine
 10
51.1495716843
 20
103.4380283591
 30
0.0
 11
50.9473182235
 21
103.5849724349
 31
0.0
  0
LINE
  5
129
330
1F
100
AcDbEntity
  8
0
  6
Continuous
 62
     7
370
    15
100
AcDbLine
 10
76.5404444161
 20
95.2171396848
 30
0.0
 11
76.2959075134
 21
95.1651607093
 31
0.0
  0
LINE
  5
12A
330
1F
100
AcDbEntity
  8
0
  6
Continuous
 62
     7
370
    15
100
AcDbLine
 10
76.2959075134
 20
95.1651607093
 30
0.0
 11
75.6441269975
 21
98.2315477368
 31
0.0
  0
LINE
  5
12B
330
1F
100
AcDbEntity
  8
0
  6
Continuous
 62
     7
370
    15
100
AcDbLine
 10
51.1495716843
 20
103.4380283591
 30
0.0
 11
49.3069294814
 21
100.9018469986
 31
0.0
  0
LINE
  5
12C
330
1F
100
AcDbEntity
  8
0
  6
Continuous
 62
     7
370
    15
100
AcDbLine
 10
49.3069294814
 20
100.9018469986
 30
0.0
 11
49.1046741578
 21
101.0487947997
 31
0.0
  0
ARC
  5
12D
330
1F
100
AcDbEntity
  8
0
  6
Continuous
 62
     7
370
    15
100
AcDbCircle
 10
88.0336788456
 20
97.660102696
 30
0.0
 40
12.0
100
AcDbArc
 50
192.0
 51
232.3762242501
  0
SPLINE
  5
12E
330
1F
100
AcDbEntity
  8
0
  6
Continuous
 62
     7
370
    15
100
AcDbSpline
210
0.0
220
0.0
230
1.0
 70
     8
 71
     3
 72
     8
 73
     4
 74
     0
 42
0.00000001
 43
0.00000001
 12
1.0
 22
0.0
 32
0.0
 13
1.0
 23
0.0
 33
0.0
 40
0.0001085338104882
 40
0.0001085338104882
 40
0.0001085338104882
 40
0.0001085338104882
 40
0.0003707418624266
 40
0.0003707418624266
 40
0.0003707418624266
 40
0.0003707418624266
 10
80.81595599930745
 20
88.16523675415598
 30
0.0
 10
80.83075462907848
 20
88.22804233286703
 30
0.0
 10
80.84563867827558
 20
88.29085513113202
 30
0.0
 10
80.86061070951229
 20
88.35367515826836
 30
0.0
  0
SPLINE
  5
12F
330
1F
100
AcDbEntity
  8
0
  6
Continuous
 62
     7
370
    15
100
AcDbSpline
210
0.0
220
0.0
230
1.0
 70
     8
 71
     3
 72
     8
 73
     4
 74
     0
 42
0.00000001
 43
0.00000001
 12
1.0
 22
0.0
 32
0.0
 13
1.0
 23
0.0
 33
0.0
 40
0.0
 40
0.0
 40
0.0
 40
0.0
 40
1.0
 40
1.0
 40
1.0
 40
1.0
 10
80.78528455879777
 20
88.11529317275289
 30
0.0
 10
80.79978181016341
 20
88.1286533723834
 30
0.0
 10
80.81121593985205
 20
88.14511987970022
 30
0.0
 10
80.81595599930745
 20
88.16523675415598
 30
0.0
  0
SPLINE
  5
130
330
1F
100
AcDbEntity
  8
0
  6
Continuous
 62
     7
370
    15
100
AcDbSpline
210
0.0
220
0.0
230
1.0
 70
     8
 71
     3
 72
     8
 73
     4
 74
     0
 42
0.00000001
 43
0.00000001
 12
1.0
 22
0.0
 32
0.0
 13
1.0
 23
0.0
 33
0.0
 40
0.0
 40
0.0
 40
0.0
 40
0.0
 40
1.0
 40
1.0
 40
1.0
 40
1.0
 10
80.70799223853123
 20
88.15566606172128
 30
0.0
 10
80.73179108217262
 20
88.13732274724228
 30
0.0
 10
80.75831256831012
 20
88.12381603246483
 30
0.0
 10
80.78528455879871
 20
88.11529317275215
 30
0.0
  0
ARC
  5
131
330
1F
100
AcDbEntity
  8
0
  6
Continuous
 62
     7
370
    15
100
AcDbCircle
 10
39.5987253382
 20
107.9552698782
 30
0.0
 40
11.99999999999998
100
AcDbArc
 50
283.6237757499
 51
324.0
  0
SPLINE
  5
132
330
1F
100
AcDbEntity
  8
0
  6
Continuous
 62
     7
370
    15
100
AcDbSpline
210
0.0
220
0.0
230
1.0
 70
     8
 71
     3
 72
     8
 73
     4
 74
     0
 42
0.00000001
 43
0.00000001
 12
1.0
 22
0.0
 32
0.0
 13
1.0
 23
0.0
 33
0.0
 40
0.0
 40
0.0
 40
0.0
 40
0.0
 40
1.0
 40
1.0
 40
1.0
 40
1.0
 10
42.33823922983116
 20
96.28746493424923
 30
0.0
 10
42.36615816390736
 20
96.28430173081493
 30
0.0
 10
42.39611066412263
 20
96.28584248966074
 30
0.0
 10
42.42527041125282
 20
96.29290978469548
 30
0.0
  0
SPLINE
  5
133
330
1F
100
AcDbEntity
  8
0
  6
Continuous
 62
     7
370
    15
100
AcDbSpline
210
0.0
220
0.0
230
1.0
 70
     8
 71
     3
 72
     8
 73
     4
 74
     0
 42
0.00000001
 43
0.00000001
 12
1.0
 22
0.0
 32
0.0
 13
1.0
 23
0.0
 33
0.0
 40
0.0
 40
0.0
 40
0.0
 40
0.0
 40
1.0
 40
1.0
 40
1.0
 40
1.0
 10
42.33053335931857
 20
96.34556586492994
 30
0.0
 10
42.3266607335726
 20
96.3251515561985
 30
0.0
 10
42.33035379329355
 20
96.30574192319253
 30
0.0
 10
42.33823922983303
 20
96.28746493424985
 30
0.0
  0
SPLINE
  5
134
330
1F
100
AcDbEntity
  8
0
  6
Continuous
 62
     7
370
    15
100
AcDbSpline
210
0.0
220
0.0
230
1.0
 70
     8
 71
     3
 72
     8
 73
     4
 74
     0
 42
0.00000001
 43
0.00000001
 12
1.0
 22
0.0
 32
0.0
 13
1.0
 23
0.0
 33
0.0
 40
0.0001085338104882
 40
0.0001085338104882
 40
0.0001085338104882
 40
0.0001085338104882
 40
0.0003707418624266
 40
0.0003707418624266
 40
0.0003707418624266
 40
0.0003707418624266
 10
42.33053335931857
 20
96.34556586492994
 30
0.0
 10
42.34255946856326
 20
96.40896076107123
 30
0.0
 10
42.35451047973645
 20
96.47239699581384
 30
0.0
 10
42.36638405556384
 20
96.53587561997847
 30
0.0
  0
SPLINE
  5
135
330
1F
100
AcDbEntity
  8
0
  6
Continuous
 62
     7
370
    15
100
AcDbSpline
210
0.0
220
0.0
230
1.0
 70
     8
 71
     3
 72
     8
 73
     4
 74
     0
 42
0.00000001
 43
0.00000001
 12
1.0
 22
0.0
 32
0.0
 13
1.0
 23
0.0
 33
0.0
 40
0.0001085338104882
 40
0.0001085338104882
 40
0.0001085338104882
 40
0.0001085338104882
 40
0.0003707418624265
 40
0.0003707418624265
 40
0.0003707418624265
 40
0.0003707418624265
 10
83.03457457444304
 20
88.63681869014403
 30
0.0
 10
82.99551002318499
 20
88.68817529629494
 30
0.0
 10
82.95636450094116
 20
88.73950375462594
 30
0.0
 10
82.91713566285783
 20
88.7908030313401
 30
0.0
  0
ARC
  5
136
330
1F
100
AcDbEntity
  8
0
  6
Continuous
 62
     7
370
    15
100
AcDbCircle
 10
71.3396187845
 20
138.2025789854
 30
0.0
 40
50.92677669529665
100
AcDbArc
 50
280.7239708372
 51
283.2760291628
  0
ARC
  5
137
330
1F
100
AcDbEntity
  8
0
  6
Continuous
 62
     7
370
    15
100
AcDbCircle
 10
71.3396187845
 20
138.2025789854
 30
0.0
 40
50.92677669529664
100
AcDbArc
 50
232.7239708372
 51
235.2760291628
  0
SPLINE
  5
138
330
1F
100
AcDbEntity
  8
0
  6
Continuous
 62
     7
370
    15
100
AcDbSpline
210
0.0
220
0.0
230
1.0
 70
     8
 71
     3
 72
     8
 73
     4
 74
     0
 42
0.00000001
 43
0.00000001
 12
1.0
 22
0.0
 32
0.0
 13
1.0
 23
0.0
 33
0.0
 40
0.0001085338104882
 40
0.0001085338104882
 40
0.0001085338104882
 40
0.0001085338104882
 40
0.0003707418624266
 40
0.0003707418624266
 40
0.0003707418624266
 40
0.0003707418624266
 10
40.49553409134094
 20
97.67877087197441
 30
0.0
 10
40.55210994828314
 20
97.70979848180156
 30
0.0
 10
40.60874832715185
 20
97.74076744344873
 30
0.0
 10
40.66545094959441
 20
97.77167585875752
 30
0.0
  0
LINE
  5
139
330
1F
100
AcDbEntity
  8
0
  6
Continuous
 62
     7
370
    15
100
AcDbLine
 10
84.0721813935
 20
96.8180608389
 30
0.0
 11
84.3167178306
 21
96.8700398144
 31
0.0
  0
ARC
  5
13A
330
1F
100
AcDbEntity
  8
0
  6
Continuous
 62
     7
370
    15
100
AcDbCircle
 10
72.578946754
 20
94.3750979811
 30
0.0
 40
11.99999999999997
100
AcDbArc
 50
331.6237757499
 51
12.0
  0
SPLINE
  5
13B
330
1F
100
AcDbEntity
  8
0
  6
Continuous
 62
     7
370
    15
100
AcDbSpline
210
0.0
220
0.0
230
1.0
 70
     8
 71
     3
 72
     8
 73
     4
 74
     0
 42
0.00000001
 43
0.00000001
 12
1.0
 22
0.0
 32
0.0
 13
1.0
 23
0.0
 33
0.0
 40
0.0
 40
0.0
 40
0.0
 40
0.0
 40
1.0
 40
1.0
 40
1.0
 40
1.0
 10
83.08290821424244
 20
88.60366815696487
 30
0.0
 10
83.10394034579389
 20
88.6222993721244
 30
0.0
 10
83.1228374734613
 20
88.64558938657024
 30
0.0
 10
83.1370971290046
 20
88.67198824517416
 30
0.0
  0
SPLINE
  5
13C
330
1F
100
AcDbEntity
  8
0
  6
Continuous
 62
     7
370
    15
100
AcDbSpline
210
0.0
220
0.0
230
1.0
 70
     8
 71
     3
 72
     8
 73
     4
 74
     0
 42
0.00000001
 43
0.00000001
 12
1.0
 22
0.0
 32
0.0
 13
1.0
 23
0.0
 33
0.0
 40
0.0
 40
0.0
 40
0.0
 40
0.0
 40
1.0
 40
1.0
 40
1.0
 40
1.0
 10
83.03457457444304
 20
88.63681869014403
 30
0.0
 10
83.04715406992891
 20
88.62028092958005
 30
0.0
 10
83.06404937755211
 20
88.61003782829937
 30
0.0
 10
83.08290821424322
 20
88.60366815696669
 30
0.0
  0
ARC
  5
13D
330
1F
100
AcDbEntity
  8
0
  6
Continuous
 62
     7
370
    15
100
AcDbCircle
 10
52.3811938493
 20
98.6682628919
 30
0.0
 40
12.00000000000001
100
AcDbArc
 50
144.0
 51
184.3762242501
  0
LINE
  5
13E
330
1F
100
AcDbEntity
  8
0
  6
Continuous
 62
     7
370
    15
100
AcDbLine
 10
42.6729902599
 20
105.7216871914
 30
0.0
 11
42.8752437208
 21
105.5747393903
 31
0.0
  0
SPLINE
  5
13F
330
1F
100
AcDbEntity
  8
0
  6
Continuous
 62
     7
370
    15
100
AcDbSpline
210
0.0
220
0.0
230
1.0
 70
     8
 71
     3
 72
     8
 73
     4
 74
     0
 42
0.00000001
 43
0.00000001
 12
1.0
 22
0.0
 32
0.0
 13
1.0
 23
0.0
 33
0.0
 40
0.0
 40
0.0
 40
0.0
 40
0.0
 40
1.0
 40
1.0
 40
1.0
 40
1.0
 10
40.43789557766927
 20
97.66814541537113
 30
0.0
 10
40.45752469548887
 20
97.66631157651494
 30
0.0
 10
40.47741262132681
 20
97.66883260622852
 30
0.0
 10
40.49553409134095
 20
97.67877087197441
 30
0.0
  0
SPLINE
  5
140
330
1F
100
AcDbEntity
  8
0
  6
Continuous
 62
     7
370
    15
100
AcDbSpline
210
0.0
220
0.0
230
1.0
 70
     8
 71
     3
 72
     8
 73
     4
 74
     0
 42
0.00000001
 43
0.00000001
 12
1.0
 22
0.0
 32
0.0
 13
1.0
 23
0.0
 33
0.0
 40
0.0
 40
0.0
 40
0.0
 40
0.0
 40
1.0
 40
1.0
 40
1.0
 40
1.0
 10
40.41617982406886
 20
97.75259953890222
 30
0.0
 10
40.41847261950809
 20
97.72263947825782
 30
0.0
 10
40.42618151241277
 20
97.6938924168218
 30
0.0
 10
40.43789557766935
 20
97.66814541536992
 30
0.0
  0
LINE
  5
141
330
1F
100
AcDbEntity
  8
0
  6
Continuous
 62
     7
370
    15
100
AcDbLine
 10
83.4203999463
 20
99.8844478664
 30
0.0
 11
83.6649373147
 21
99.9364268419
 31
0.0
  0
LINE
  5
142
330
1F
100
AcDbEntity
  8
0
  6
Continuous
 62
     7
370
    15
100
AcDbLine
 10
83.6649373147
 20
99.9364268419
 30
0.0
 11
84.3167178306
 21
96.8700398144
 31
0.0
  0
LINE
  5
143
330
1F
100
AcDbEntity
  8
0
  6
Continuous
 62
     7
370
    15
100
AcDbLine
 10
42.6729902599
 20
105.7216871914
 30
0.0
 11
44.5156324628
 21
108.2578666892
 31
0.0
  0
LINE
  5
144
330
1F
100
AcDbEntity
  8
0
  6
Continuous
 62
     7
370
    15
100
AcDbLine
 10
44.5156324628
 20
108.2578666892
 30
0.0
 11
44.7178877864
 21
108.1109207508
 31
0.0
  0
LINE
  5
145
330
1F
100
AcDbEntity
  8
0
  6
Continuous
 62
     7
370
    15
100
AcDbLine
 10
85.1302076105
 20
103.0616883573
 30
0.0
 11
85.2215358961
 21
102.828965747
 31
0.0
  0
ARC
  5
146
330
1F
100
AcDbEntity
  8
0
  6
Continuous
 62
     7
370
    15
100
AcDbCircle
 10
86.149432201
 20
100.4645209197
 30
0.0
 40
2.539999999999999
100
AcDbArc
 50
111.4268835638
 51
192.0
  0
ARC
  5
147
330
1F
100
AcDbEntity
  8
0
  6
Continuous
 62
     7
370
    15
100
AcDbCircle
 10
42.4607299556
 20
109.7508412528
 30
0.0
 40
2.540000000000006
100
AcDbArc
 50
324.0
 51
44.5731164362
  0
LINE
  5
148
330
1F
100
AcDbEntity
  8
0
  6
Continuous
 62
     7
370
    15
100
AcDbLine
 10
44.2701134804
 20
111.533460432
 30
0.0
 11
44.4482009832
 21
111.7089160171
 31
0.0
  0
LINE
  5
149
330
1F
100
AcDbEntity
  8
0
  6
Continuous
 62
     7
370
    15
100
AcDbLine
 10
88.2266838077
 20
104.4403288898
 30
0.0
 11
88.3385188851
 21
104.2167369661
 31
0.0
  0
ARC
  5
14A
330
1F
100
AcDbEntity
  8
0
  6
Continuous
 62
     7
370
    15
100
AcDbCircle
 10
71.3396187845
 20
138.2025789854
 30
0.0
 40
38.00000000000001
100
AcDbArc
 50
291.4268835638
 51
296.5731164362
  0
ARC
  5
14B
330
1F
100
AcDbEntity
  8
0
  6
Continuous
 62
     7
370
    15
100
AcDbCircle
 10
71.3396187845
 20
138.2025789854
 30
0.0
 40
38.00000000000001
100
AcDbArc
 50
219.4268835638
 51
224.5731164362
  0
LINE
  5
14C
330
1F
100
AcDbEntity
  8
0
  6
Continuous
 62
     7
370
    15
100
AcDbLine
 10
41.9870637331
 20
114.0690438834
 30
0.0
 11
42.1801716063
 21
114.2278176185
 31
0.0
  0
LINE
  5
14D
330
1F
100
AcDbEntity
  8
0
  6
Continuous
 62
     7
370
    15
100
AcDbLine
 10
91.7319193456
 20
103.5849724349
 30
0.0
 11
91.5296658847
 21
103.4380283591
 31
0.0
  0
ARC
  5
14E
330
1F
100
AcDbEntity
  8
0
  6
Continuous
 62
     7
370
    15
100
AcDbCircle
 10
89.4747619282
 20
101.9450531024
 30
0.0
 40
2.540000000000027
100
AcDbArc
 50
36.0
 51
116.5731164362
  0
ARC
  5
14F
330
1F
100
AcDbEntity
  8
0
  6
Continuous
 62
     7
370
    15
100
AcDbCircle
 10
40.025076778
 20
112.4559081535
 30
0.0
 40
2.539999999999999
100
AcDbArc
 50
39.4268835638
 51
120.0
  0
LINE
  5
150
330
1F
100
AcDbEntity
  8
0
  6
Continuous
 62
     7
370
    15
100
AcDbLine
 10
38.7550782386
 20
114.6556131926
 30
0.0
 11
38.6300761226
 21
114.8721196142
 31
0.0
  0
LINE
  5
151
330
1F
100
AcDbEntity
  8
0
  6
Continuous
 62
     7
370
    15
100
AcDbLine
 10
93.5745634112
 20
101.0487947997
 30
0.0
 11
93.3723080877
 21
100.9018469986
 31
0.0
  0
LINE
  5
152
330
1F
100
AcDbEntity
  8
0
  6
Continuous
 62
     7
370
    15
100
AcDbLine
 10
93.3723080877
 20
100.9018469986
 30
0.0
 11
91.5296658847
 21
103.4380283591
 31
0.0
  0
LINE
  5
153
330
1F
100
AcDbEntity
  8
0
  6
Continuous
 62
     7
370
    15
100
AcDbLine
 10
38.7550782386
 20
114.6556131926
 30
0.0
 11
36.0401798013
 21
113.0881674972
 31
0.0
  0
LINE
  5
154
330
1F
100
AcDbEntity
  8
0
  6
Continuous
 62
     7
370
    15
100
AcDbLine
 10
36.0401798013
 20
113.0881674972
 30
0.0
 11
35.9151814107
 21
113.3046739188
 31
0.0
  0
ARC
  5
155
330
1F
100
AcDbEntity
  8
0
  6
Continuous
 62
     7
370
    15
100
AcDbCircle
 10
103.0805122309
 20
107.9552698782
 30
0.0
 40
12.0
100
AcDbArc
 50
216.0
 51
256.3762242501
  0
SPLINE
  5
156
330
1F
100
AcDbEntity
  8
0
  6
Continuous
 62
     7
370
    15
100
AcDbSpline
210
0.0
220
0.0
230
1.0
 70
     8
 71
     3
 72
     8
 73
     4
 74
     0
 42
0.00000001
 43
0.00000001
 12
1.0
 22
0.0
 32
0.0
 13
1.0
 23
0.0
 33
0.0
 40
0.0001085338104882
 40
0.0001085338104882
 40
0.0001085338104882
 40
0.0001085338104882
 40
0.0003707418624266
 40
0.0003707418624266
 40
0.0003707418624266
 40
0.0003707418624266
 10
100.3487042097418
 20
96.34556586492954
 30
0.0
 10
100.3366781004971
 20
96.40896076107083
 30
0.0
 10
100.3247270893239
 20
96.47239699581344
 30
0.0
 10
100.3128535134965
 20
96.53587561997806
 30
0.0
  0
SPLINE
  5
157
330
1F
100
AcDbEntity
  8
0
  6
Continuous
 62
     7
370
    15
100
AcDbSpline
210
0.0
220
0.0
230
1.0
 70
     8
 71
     3
 72
     8
 73
     4
 74
     0
 42
0.00000001
 43
0.00000001
 12
1.0
 22
0.0
 32
0.0
 13
1.0
 23
0.0
 33
0.0
 40
0.0
 40
0.0
 40
0.0
 40
0.0
 40
1.0
 40
1.0
 40
1.0
 40
1.0
 10
100.3409983392279
 20
96.28746493424912
 30
0.0
 10
100.3488081546128
 20
96.30556664728907
 30
0.0
 10
100.3525562199427
 20
96.32526022977764
 30
0.0
 10
100.3487042097418
 20
96.34556586492954
 30
0.0
  0
SPLINE
  5
158
330
1F
100
AcDbEntity
  8
0
  6
Continuous
 62
     7
370
    15
100
AcDbSpline
210
0.0
220
0.0
230
1.0
 70
     8
 71
     3
 72
     8
 73
     4
 74
     0
 42
0.00000001
 43
0.00000001
 12
1.0
 22
0.0
 32
0.0
 13
1.0
 23
0.0
 33
0.0
 40
0.0
 40
0.0
 40
0.0
 40
0.0
 40
1.0
 40
1.0
 40
1.0
 40
1.0
 10
100.2539671578075
 20
96.29290978469734
 30
0.0
 10
100.2831693814673
 20
96.28583219484874
 30
0.0
 10
100.3128916404857
 20
96.28428045715708
 30
0.0
 10
100.3409983392291
 20
96.28746493424882
 30
0.0
  0
ARC
  5
159
330
1F
100
AcDbEntity
  8
0
  6
Continuous
 62
     7
370
    15
100
AcDbCircle
 10
30.0401807868
 20
123.4804715932
 30
0.0
 40
11.99999999999998
100
AcDbArc
 50
259.6237757499
 51
300.0
  0
SPLINE
  5
15A
330
1F
100
AcDbEntity
  8
0
  6
Continuous
 62
     7
370
    15
100
AcDbSpline
210
0.0
220
0.0
230
1.0
 70
     8
 71
     3
 72
     8
 73
     4
 74
     0
 42
0.00000001
 43
0.00000001
 12
1.0
 22
0.0
 32
0.0
 13
1.0
 23
0.0
 33
0.0
 40
0.0
 40
0.0
 40
0.0
 40
0.0
 40
1.0
 40
1.0
 40
1.0
 40
1.0
 10
27.79712744367043
 20
111.7071407020433
 30
0.0
 10
27.82134606833172
 20
111.6928953183899
 30
0.0
 10
27.84933572192915
 20
111.6821200922456
 30
0.0
 10
27.878849004324
 20
111.6767160498617
 30
0.0
  0
SPLINE
  5
15B
330
1F
100
AcDbEntity
  8
0
  6
Continuous
 62
     7
370
    15
100
AcDbSpline
210
0.0
220
0.0
230
1.0
 70
     8
 71
     3
 72
     8
 73
     4
 74
     0
 42
0.00000001
 43
0.00000001
 12
1.0
 22
0.0
 32
0.0
 13
1.0
 23
0.0
 33
0.0
 40
0.0
 40
0.0
 40
0.0
 40
0.0
 40
1.0
 40
1.0
 40
1.0
 40
1.0
 10
27.81371955817112
 20
111.7633528032558
 30
0.0
 10
27.8018784911076
 20
111.7462785430391
 30
0.0
 10
27.79735766006832
 20
111.7270448582584
 30
0.0
 10
27.79712744367241
 20
111.7071407020432
 30
0.0
  0
SPLINE
  5
15C
330
1F
100
AcDbEntity
  8
0
  6
Continuous
 62
     7
370
    15
100
AcDbSpline
210
0.0
220
0.0
230
1.0
 70
     8
 71
     3
 72
     8
 73
     4
 74
     0
 42
0.00000001
 43
0.00000001
 12
1.0
 22
0.0
 32
0.0
 13
1.0
 23
0.0
 33
0.0
 40
0.0001085338104882
 40
0.0001085338104882
 40
0.0001085338104882
 40
0.0001085338104882
 40
0.0003707418624266
 40
0.0003707418624266
 40
0.0003707418624266
 40
0.0003707418624266
 10
27.81371955817112
 20
111.7633528032558
 30
0.0
 10
27.85049098288937
 20
111.8163754633599
 30
0.0
 10
27.88721061602945
 20
111.869466433293
 30
0.0
 10
27.92387674979232
 20
111.9226276236827
 30
0.0
  0
SPLINE
  5
15D
330
1F
100
AcDbEntity
  8
0
  6
Continuous
 62
     7
370
    15
100
AcDbSpline
210
0.0
220
0.0
230
1.0
 70
     8
 71
     3
 72
     8
 73
     4
 74
     0
 42
0.00000001
 43
0.00000001
 12
1.0
 22
0.0
 32
0.0
 13
1.0
 23
0.0
 33
0.0
 40
0.0001085338104882
 40
0.0001085338104882
 40
0.0001085338104882
 40
0.0001085338104882
 40
0.0003707418624266
 40
0.0003707418624266
 40
0.0003707418624266
 40
0.0003707418624266
 10
102.1837034777194
 20
97.678770871974
 30
0.0
 10
102.1271276207772
 20
97.70979848180113
 30
0.0
 10
102.0704892419085
 20
97.7407674434483
 30
0.0
 10
102.013786619466
 20
97.77167585875709
 30
0.0
  0
ARC
  5
15E
330
1F
100
AcDbEntity
  8
0
  6
Continuous
 62
     7
370
    15
100
AcDbCircle
 10
71.3396187845
 20
138.2025789854
 30
0.0
 40
50.92677669529662
100
AcDbArc
 50
304.7239708372
 51
307.2760291628
  0
ARC
  5
15F
330
1F
100
AcDbEntity
  8
0
  6
Continuous
 62
     7
370
    15
100
AcDbCircle
 10
71.3396187845
 20
138.2025789854
 30
0.0
 40
50.92677669529663
100
AcDbArc
 50
208.7239708372
 51
211.2760291628
  0
SPLINE
  5
160
330
1F
100
AcDbEntity
  8
0
  6
Continuous
 62
     7
370
    15
100
AcDbSpline
210
0.0
220
0.0
230
1.0
 70
     8
 71
     3
 72
     8
 73
     4
 74
     0
 42
0.00000001
 43
0.00000001
 12
1.0
 22
0.0
 32
0.0
 13
1.0
 23
0.0
 33
0.0
 40
0.0001085338104882
 40
0.0001085338104882
 40
0.0001085338104882
 40
0.0001085338104882
 40
0.0003707418624266
 40
0.0003707418624266
 40
0.0003707418624266
 40
0.0003707418624266
 10
26.67962764122978
 20
113.7276576238514
 30
0.0
 10
26.74393232421533
 20
113.7329912817387
 30
0.0
 10
26.80827026945899
 20
113.7382459318891
 30
0.0
 10
26.87264227771331
 20
113.7434191399914
 30
0.0
  0
LINE
  5
161
330
1F
100
AcDbEntity
  8
0
  6
Continuous
 62
     7
370
    15
100
AcDbLine
 10
99.8039938483
 20
105.5747393903
 30
0.0
 11
100.0062473092
 21
105.7216871914
 31
0.0
  0
ARC
  5
162
330
1F
100
AcDbEntity
  8
0
  6
Continuous
 62
     7
370
    15
100
AcDbCircle
 10
90.2980437198
 20
98.6682628919
 30
0.0
 40
11.99999999999999
100
AcDbArc
 50
355.6237757499
 51
36.0
  0
SPLINE
  5
163
330
1F
100
AcDbEntity
  8
0
  6
Continuous
 62
     7
370
    15
100
AcDbSpline
210
0.0
220
0.0
230
1.0
 70
     8
 71
     3
 72
     8
 73
     4
 74
     0
 42
0.00000001
 43
0.00000001
 12
1.0
 22
0.0
 32
0.0
 13
1.0
 23
0.0
 33
0.0
 40
0.0
 40
0.0
 40
0.0
 40
0.0
 40
1.0
 40
1.0
 40
1.0
 40
1.0
 10
102.241341991391
 20
97.66814541536938
 30
0.0
 10
102.2529778017239
 20
97.69372041593269
 30
0.0
 10
102.2607682845741
 20
97.72268305710935
 30
0.0
 10
102.2630577449937
 20
97.75259953890102
 30
0.0
  0
SPLINE
  5
164
330
1F
100
AcDbEntity
  8
0
  6
Continuous
 62
     7
370
    15
100
AcDbSpline
210
0.0
220
0.0
230
1.0
 70
     8
 71
     3
 72
     8
 73
     4
 74
     0
 42
0.00000001
 43
0.00000001
 12
1.0
 22
0.0
 32
0.0
 13
1.0
 23
0.0
 33
0.0
 40
0.0
 40
0.0
 40
0.0
 40
0.0
 40
1.0
 40
1.0
 40
1.0
 40
1.0
 10
102.1837034777194
 20
97.678770871974
 30
0.0
 10
102.2019219318958
 20
97.6687794176967
 30
0.0
 10
102.22152280806
 20
97.66629381975595
 30
0.0
 10
102.241341991391
 20
97.66814541537136
 30
0.0
  0
ARC
  5
165
330
1F
100
AcDbEntity
  8
0
  6
Continuous
 62
     7
370
    15
100
AcDbCircle
 10
37.9401807868
 20
109.7972702134
 30
0.0
 40
12.0
100
AcDbArc
 50
120.0
 51
160.3762242501
  0
LINE
  5
166
330
1F
100
AcDbEntity
  8
0
  6
Continuous
 62
     7
370
    15
100
AcDbLine
 10
31.9401811782
 20
120.1895747718
 30
0.0
 11
32.0651795689
 21
119.9730683502
 31
0.0
  0
SPLINE
  5
167
330
1F
100
AcDbEntity
  8
0
  6
Continuous
 62
     7
370
    15
100
AcDbSpline
210
0.0
220
0.0
230
1.0
 70
     8
 71
     3
 72
     8
 73
     4
 74
     0
 42
0.00000001
 43
0.00000001
 12
1.0
 22
0.0
 32
0.0
 13
1.0
 23
0.0
 33
0.0
 40
0.0
 40
0.0
 40
0.0
 40
0.0
 40
1.0
 40
1.0
 40
1.0
 40
1.0
 10
26.62265047632979
 20
113.7413944817988
 30
0.0
 10
26.6398366782911
 20
113.7317353051532
 30
0.0
 10
26.65903059776508
 20
113.7259492322036
 30
0.0
 10
26.67962764122978
 20
113.7276576238514
 30
0.0
  0
SPLINE
  5
168
330
1F
100
AcDbEntity
  8
0
  6
Continuous
 62
     7
370
    15
100
AcDbSpline
210
0.0
220
0.0
230
1.0
 70
     8
 71
     3
 72
     8
 73
     4
 74
     0
 42
0.00000001
 43
0.00000001
 12
1.0
 22
0.0
 32
0.0
 13
1.0
 23
0.0
 33
0.0
 40
0.0
 40
0.0
 40
0.0
 40
0.0
 40
1.0
 40
1.0
 40
1.0
 40
1.0
 10
26.63716273496781
 20
113.8273797554511
 30
0.0
 10
26.62707145333377
 20
113.7990773142185
 30
0.0
 10
26.62242139416351
 20
113.7696800776012
 30
0.0
 10
26.62265047632938
 20
113.7413944817977
 30
0.0
  0
LINE
  5
169
330
1F
100
AcDbEntity
  8
0
  6
Continuous
 62
     7
370
    15
100
AcDbLine
 10
97.9613497827
 20
108.1109207508
 30
0.0
 11
98.1636051062
 21
108.2578666892
 31
0.0
  0
LINE
  5
16A
330
1F
100
AcDbEntity
  8
0
  6
Continuous
 62
     7
370
    15
100
AcDbLine
 10
98.1636051062
 20
108.2578666892
 30
0.0
 11
100.0062473092
 21
105.7216871914
 31
0.0
  0
LINE
  5
16B
330
1F
100
AcDbEntity
  8
0
  6
Continuous
 62
     7
370
    15
100
AcDbLine
 10
31.9401811782
 20
120.1895747718
 30
0.0
 11
34.6550758902
 21
121.7570204672
 31
0.0
  0
LINE
  5
16C
330
1F
100
AcDbEntity
  8
0
  6
Continuous
 62
     7
370
    15
100
AcDbLine
 10
34.6550758902
 20
121.7570204672
 30
0.0
 11
34.7800780061
 21
121.5405140456
 31
0.0
  0
LINE
  5
16D
330
1F
100
AcDbEntity
  8
0
  6
Continuous
 62
     7
370
    15
100
AcDbLine
 10
98.2310365859
 20
111.7089160171
 30
0.0
 11
98.4091240886
 21
111.533460432
 31
0.0
  0
ARC
  5
16E
330
1F
100
AcDbEntity
  8
0
  6
Continuous
 62
     7
370
    15
100
AcDbCircle
 10
100.2185076135
 20
109.7508412528
 30
0.0
 40
2.539999999999992
100
AcDbArc
 50
135.4268835638
 51
216.0
  0
ARC
  5
16F
330
1F
100
AcDbEntity
  8
0
  6
Continuous
 62
     7
370
    15
100
AcDbCircle
 10
33.385076778
 20
123.9567255158
 30
0.0
 40
2.540000000000012
100
AcDbArc
 50
300.0
 51
20.5731164362
  0
LINE
  5
170
330
1F
100
AcDbEntity
  8
0
  6
Continuous
 62
     7
370
    15
100
AcDbLine
 10
35.7630852583
 20
124.8492880177
 30
0.0
 11
35.9971415225
 21
124.9371378136
 31
0.0
  0
LINE
  5
171
330
1F
100
AcDbEntity
  8
0
  6
Continuous
 62
     7
370
    15
100
AcDbLine
 10
100.4990659628
 20
114.2278176185
 30
0.0
 11
100.692173836
 21
114.0690438834
 31
0.0
  0
ARC
  5
172
330
1F
100
AcDbEntity
  8
0
  6
Continuous
 62
     7
370
    15
100
AcDbCircle
 10
71.3396187845
 20
138.2025789854
 30
0.0
 40
38.00000000000002
100
AcDbArc
 50
315.4268835638
 51
320.5731164362
  0
ARC
  5
173
330
1F
100
AcDbEntity
  8
0
  6
Continuous
 62
     7
370
    15
100
AcDbCircle
 10
71.3396187845
 20
138.2025789854
 30
0.0
 40
38.00000000000001
100
AcDbArc
 50
195.4268835638
 51
200.5731164362
  0
LINE
  5
174
330
1F
100
AcDbEntity
  8
0
  6
Continuous
 62
     7
370
    15
100
AcDbLine
 10
34.7087312463
 20
128.0942580116
 30
0.0
 11
34.949724001
 21
128.1607600313
 31
0.0
  0
LINE
  5
175
330
1F
100
AcDbEntity
  8
0
  6
Continuous
 62
     7
370
    15
100
AcDbLine
 10
104.0491614464
 20
114.8721196142
 30
0.0
 11
103.9241593305
 21
114.6556131926
 31
0.0
  0
ARC
  5
176
330
1F
100
AcDbEntity
  8
0
  6
Continuous
 62
     7
370
    15
100
AcDbCircle
 10
102.654160791
 20
112.4559081535
 30
0.0
 40
2.540000000000017
100
AcDbArc
 50
60.0
 51
140.5731164362
  0
ARC
  5
177
330
1F
100
AcDbEntity
  8
0
  6
Continuous
 62
     7
370
    15
100
AcDbCircle
 10
32.2602467118
 20
127.4185964927
 30
0.0
 40
2.539999999999999
100
AcDbArc
 50
15.4268835638
 51
96.0
  0
LINE
  5
178
330
1F
100
AcDbEntity
  8
0
  6
Continuous
 62
     7
370
    15
100
AcDbLine
 10
31.9947455052
 20
129.944682346
 30
0.0
 11
31.9686125938
 21
130.1933128771
 31
0.0
  0
LINE
  5
179
330
1F
100
AcDbEntity
  8
0
  6
Continuous
 62
     7
370
    15
100
AcDbLine
 10
106.7640561584
 20
113.3046739188
 30
0.0
 11
106.6390577677
 21
113.0881674972
 31
0.0
  0
LINE
  5
17A
330
1F
100
AcDbEntity
  8
0
  6
Continuous
 62
     7
370
    15
100
AcDbLine
 10
106.6390577677
 20
113.0881674972
 30
0.0
 11
103.9241593305
 21
114.6556131926
 31
0.0
  0
LINE
  5
17B
330
1F
100
AcDbEntity
  8
0
  6
Continuous
 62
     7
370
    15
100
AcDbLine
 10
31.9947455052
 20
129.944682346
 30
0.0
 11
28.8770239774
 21
129.6169964981
 31
0.0
  0
LINE
  5
17C
330
1F
100
AcDbEntity
  8
0
  6
Continuous
 62
     7
370
    15
100
AcDbLine
 10
28.8770239774
 20
129.6169964981
 30
0.0
 11
28.8508947912
 21
129.8656270292
 31
0.0
  0
ARC
  5
17D
330
1F
100
AcDbEntity
  8
0
  6
Continuous
 62
     7
370
    15
100
AcDbCircle
 10
112.6390567823
 20
123.4804715932
 30
0.0
 40
12.00000000000002
100
AcDbArc
 50
240.0
 51
280.3762242501
  0
SPLINE
  5
17E
330
1F
100
AcDbEntity
  8
0
  6
Continuous
 62
     7
370
    15
100
AcDbSpline
210
0.0
220
0.0
230
1.0
 70
     8
 71
     3
 72
     8
 73
     4
 74
     0
 42
0.00000001
 43
0.00000001
 12
1.0
 22
0.0
 32
0.0
 13
1.0
 23
0.0
 33
0.0
 40
0.0001085338104882
 40
0.0001085338104882
 40
0.0001085338104882
 40
0.0001085338104882
 40
0.0003707418624266
 40
0.0003707418624266
 40
0.0003707418624266
 40
0.0003707418624266
 10
114.8655180108895
 20
111.7633528032552
 30
0.0
 10
114.8287465861712
 20
111.8163754633593
 30
0.0
 10
114.7920269530311
 20
111.8694664332924
 30
0.0
 10
114.7553608192682
 20
111.9226276236821
 30
0.0
  0
SPLINE
  5
17F
330
1F
100
AcDbEntity
  8
0
  6
Continuous
 62
     7
370
    15
100
AcDbSpline
210
0.0
220
0.0
230
1.0
 70
     8
 71
     3
 72
     8
 73
     4
 74
     0
 42
0.00000001
 43
0.00000001
 12
1.0
 22
0.0
 32
0.0
 13
1.0
 23
0.0
 33
0.0
 40
0.0
 40
0.0
 40
0.0
 40
0.0
 40
1.0
 40
1.0
 40
1.0
 40
1.0
 10
114.8821101253888
 20
111.7071407020425
 30
0.0
 10
114.8818821167629
 20
111.7268539778583
 30
0.0
 10
114.8772960431885
 20
111.7463694361958
 30
0.0
 10
114.8655180108895
 20
111.7633528032552
 30
0.0
  0
SPLINE
  5
180
330
1F
100
AcDbEntity
  8
0
  6
Continuous
 62
     7
370
    15
100
AcDbSpline
210
0.0
220
0.0
230
1.0
 70
     8
 71
     3
 72
     8
 73
     4
 74
     0
 42
0.00000001
 43
0.00000001
 12
1.0
 22
0.0
 32
0.0
 13
1.0
 23
0.0
 33
0.0
 40
0.0
 40
0.0
 40
0.0
 40
0.0
 40
1.0
 40
1.0
 40
1.0
 40
1.0
 10
114.8003885647356
 20
111.6767160498631
 30
0.0
 10
114.8299448386491
 20
111.6821279642276
 30
0.0
 10
114.8577286219459
 20
111.6927995131657
 30
0.0
 10
114.88211012539
 20
111.7071407020427
 30
0.0
  0
ARC
  5
181
330
1F
100
AcDbEntity
  8
0
  6
Continuous
 62
     7
370
    15
100
AcDbCircle
 10
27.6226842588
 20
141.5512594224
 30
0.0
 40
11.99999999999999
100
AcDbArc
 50
235.6237757499
 51
276.0
  0
SPLINE
  5
182
330
1F
100
AcDbEntity
  8
0
  6
Continuous
 62
     7
370
    15
100
AcDbSpline
210
0.0
220
0.0
230
1.0
 70
     8
 71
     3
 72
     8
 73
     4
 74
     0
 42
0.00000001
 43
0.00000001
 12
1.0
 22
0.0
 32
0.0
 13
1.0
 23
0.0
 33
0.0
 40
0.0
 40
0.0
 40
0.0
 40
0.0
 40
1.0
 40
1.0
 40
1.0
 40
1.0
 10
20.78490798145988
 20
131.7081184525263
 30
0.0
 10
20.80123867648305
 20
131.6852540449027
 30
0.0
 10
20.82242581807763
 20
131.6640259682584
 30
0.0
 10
20.84718952109131
 20
131.6470849964783
 30
0.0
  0
SPLINE
  5
183
330
1F
100
AcDbEntity
  8
0
  6
Continuous
 62
     7
370
    15
100
AcDbSpline
210
0.0
220
0.0
230
1.0
 70
     8
 71
     3
 72
     8
 73
     4
 74
     0
 42
0.00000001
 43
0.00000001
 12
1.0
 22
0.0
 32
0.0
 13
1.0
 23
0.0
 33
0.0
 40
0.0
 40
0.0
 40
0.0
 40
0.0
 40
1.0
 40
1.0
 40
1.0
 40
1.0
 10
20.82292915364205
 20
131.7527221412999
 30
0.0
 10
20.80516707332899
 20
131.7419402243042
 30
0.0
 10
20.79321404428659
 20
131.7262081665799
 30
0.0
 10
20.7849079814616
 20
131.7081184525253
 30
0.0
  0
SPLINE
  5
184
330
1F
100
AcDbEntity
  8
0
  6
Continuous
 62
     7
370
    15
100
AcDbSpline
210
0.0
220
0.0
230
1.0
 70
     8
 71
     3
 72
     8
 73
     4
 74
     0
 42
0.00000001
 43
0.00000001
 12
1.0
 22
0.0
 32
0.0
 13
1.0
 23
0.0
 33
0.0
 40
0.0001085338104882
 40
0.0001085338104882
 40
0.0001085338104882
 40
0.0001085338104882
 40
0.0003707418624266
 40
0.0003707418624266
 40
0.0003707418624266
 40
0.0003707418624266
 10
20.82292915364205
 20
131.7527221412999
 30
0.0
 10
20.87808778044216
 20
131.7862044657392
 30
0.0
 10
20.93322687739182
 20
131.8197702598451
 30
0.0
 10
20.98834566146122
 20
131.8534219636871
 30
0.0
  0
SPLINE
  5
185
330
1F
100
AcDbEntity
  8
0
  6
Continuous
 62
     7
370
    15
100
AcDbSpline
210
0.0
220
0.0
230
1.0
 70
     8
 71
     3
 72
     8
 73
     4
 74
     0
 42
0.00000001
 43
0.00000001
 12
1.0
 22
0.0
 32
0.0
 13
1.0
 23
0.0
 33
0.0
 40
0.0001085338104882
 40
0.0001085338104882
 40
0.0001085338104882
 40
0.0001085338104882
 40
0.0003707418624266
 40
0.0003707418624266
 40
0.0003707418624266
 40
0.0003707418624266
 10
115.9996099278308
 20
113.7276576238508
 30
0.0
 10
115.9353052448453
 20
113.7329912817381
 30
0.0
 10
115.8709672996016
 20
113.7382459318884
 30
0.0
 10
115.8065952913473
 20
113.7434191399908
 30
0.0
  0
ARC
  5
186
330
1F
100
AcDbEntity
  8
0
  6
Continuous
 62
     7
370
    15
100
AcDbCircle
 10
71.3396187845
 20
138.2025789854
 30
0.0
 40
50.92677669529665
100
AcDbArc
 50
328.7239708372
 51
331.2760291628
  0
ARC
  5
187
330
1F
100
AcDbEntity
  8
0
  6
Continuous
 62
     7
370
    15
100
AcDbCircle
 10
71.3396187845
 20
138.2025789854
 30
0.0
 40
50.92677669529665
100
AcDbArc
 50
184.7239708372
 51
187.2760291628
  0
SPLINE
  5
188
330
1F
100
AcDbEntity
  8
0
  6
Continuous
 62
     7
370
    15
100
AcDbSpline
210
0.0
220
0.0
230
1.0
 70
     8
 71
     3
 72
     8
 73
     4
 74
     0
 42
0.00000001
 43
0.00000001
 12
1.0
 22
0.0
 32
0.0
 13
1.0
 23
0.0
 33
0.0
 40
0.0001085338104882
 40
0.0001085338104882
 40
0.0001085338104882
 40
0.0001085338104882
 40
0.0003707418624266
 40
0.0003707418624266
 40
0.0003707418624266
 40
0.0003707418624266
 10
20.58583938307778
 20
134.0084806268166
 30
0.0
 10
20.64675402822876
 20
133.9871980948606
 30
0.0
 10
20.70766692462288
 20
133.9658298567662
 30
0.0
 10
20.76857781366044
 20
133.9443733629841
 30
0.0
  0
LINE
  5
189
330
1F
100
AcDbEntity
  8
0
  6
Continuous
 62
     7
370
    15
100
AcDbLine
 10
110.6140580002
 20
119.9730683502
 30
0.0
 11
110.7390563909
 21
120.1895747718
 31
0.0
  0
ARC
  5
18A
330
1F
100
AcDbEntity
  8
0
  6
Continuous
 62
     7
370
    15
100
AcDbCircle
 10
104.7390567823
 20
109.7972702134
 30
0.0
 40
11.99999999999998
100
AcDbArc
 50
19.6237757499
 51
60.0
  0
SPLINE
  5
18B
330
1F
100
AcDbEntity
  8
0
  6
Continuous
 62
     7
370
    15
100
AcDbSpline
210
0.0
220
0.0
230
1.0
 70
     8
 71
     3
 72
     8
 73
     4
 74
     0
 42
0.00000001
 43
0.00000001
 12
1.0
 22
0.0
 32
0.0
 13
1.0
 23
0.0
 33
0.0
 40
0.0
 40
0.0
 40
0.0
 40
0.0
 40
1.0
 40
1.0
 40
1.0
 40
1.0
 10
116.0565870927312
 20
113.7413944817969
 30
0.0
 10
116.0568146445311
 20
113.769491117825
 30
0.0
 10
116.0521514373049
 20
113.7991184819557
 30
0.0
 10
116.0420748340951
 20
113.8273797554506
 30
0.0
  0
SPLINE
  5
18C
330
1F
100
AcDbEntity
  8
0
  6
Continuous
 62
     7
370
    15
100
AcDbSpline
210
0.0
220
0.0
230
1.0
 70
     8
 71
     3
 72
     8
 73
     4
 74
     0
 42
0.00000001
 43
0.00000001
 12
1.0
 22
0.0
 32
0.0
 13
1.0
 23
0.0
 33
0.0
 40
0.0
 40
0.0
 40
0.0
 40
0.0
 40
1.0
 40
1.0
 40
1.0
 40
1.0
 10
115.9996099278308
 20
113.7276576238508
 30
0.0
 10
116.0203172044611
 20
113.7259400890742
 30
0.0
 10
116.0392344796092
 20
113.7316417769383
 30
0.0
 10
116.0565870927304
 20
113.7413944817987
 30
0.0
  0
ARC
  5
18D
330
1F
100
AcDbEntity
  8
0
  6
Continuous
 62
     7
370
    15
100
AcDbCircle
 10
29.2742339784
 20
125.8378134756
 30
0.0
 40
12.00000000000001
100
AcDbArc
 50
96.0
 51
136.3762242501
  0
LINE
  5
18E
330
1F
100
AcDbEntity
  8
0
  6
Continuous
 62
     7
370
    15
100
AcDbLine
 10
28.0198905591
 20
137.7720762312
 30
0.0
 11
28.0460234705
 21
137.5234457583
 31
0.0
  0
SPLINE
  5
18F
330
1F
100
AcDbEntity
  8
0
  6
Continuous
 62
     7
370
    15
100
AcDbSpline
210
0.0
220
0.0
230
1.0
 70
     8
 71
     3
 72
     8
 73
     4
 74
     0
 42
0.00000001
 43
0.00000001
 12
1.0
 22
0.0
 32
0.0
 13
1.0
 23
0.0
 33
0.0
 40
0.0
 40
0.0
 40
0.0
 40
0.0
 40
1.0
 40
1.0
 40
1.0
 40
1.0
 10
20.53937543638198
 20
134.0442045717801
 30
0.0
 10
20.55114707203415
 20
134.028390216738
 30
0.0
 10
20.56632818209583
 20
134.015297505703
 30
0.0
 10
20.58583938307779
 20
134.0084806268166
 30
0.0
  0
SPLINE
  5
190
330
1F
100
AcDbEntity
  8
0
  6
Continuous
 62
     7
370
    15
100
AcDbSpline
210
0.0
220
0.0
230
1.0
 70
     8
 71
     3
 72
     8
 73
     4
 74
     0
 42
0.00000001
 43
0.00000001
 12
1.0
 22
0.0
 32
0.0
 13
1.0
 23
0.0
 33
0.0
 40
0.0
 40
0.0
 40
0.0
 40
0.0
 40
1.0
 40
1.0
 40
1.0
 40
1.0
 10
20.58760640590016
 20
134.1168533605875
 30
0.0
 10
20.56687592146379
 20
134.0951022879754
 30
0.0
 10
20.5506709476936
 20
134.0701379254535
 30
0.0
 10
20.53937543638113
 20
134.0442045717793
 30
0.0
  0
LINE
  5
191
330
1F
100
AcDbEntity
  8
0
  6
Continuous
 62
     7
370
    15
100
AcDbLine
 10
107.8991595629
 20
121.5405140456
 30
0.0
 11
108.0241616789
 21
121.7570204672
 31
0.0
  0
LINE
  5
192
330
1F
100
AcDbEntity
  8
0
  6
Continuous
 62
     7
370
    15
100
AcDbLine
 10
108.0241616789
 20
121.7570204672
 30
0.0
 11
110.7390563909
 21
120.1895747718
 31
0.0
  0
LINE
  5
193
330
1F
100
AcDbEntity
  8
0
  6
Continuous
 62
     7
370
    15
100
AcDbLine
 10
28.0198905591
 20
137.7720762312
 30
0.0
 11
31.1376120869
 21
138.0997616498
 31
0.0
  0
LINE
  5
194
330
1F
100
AcDbEntity
  8
0
  6
Continuous
 62
     7
370
    15
100
AcDbLine
 10
31.1376120869
 20
138.0997616498
 30
0.0
 11
31.163741273
 21
137.8511311696
 31
0.0
  0
LINE
  5
195
330
1F
100
AcDbEntity
  8
0
  6
Continuous
 62
     7
370
    15
100
AcDbLine
 10
106.6820960466
 20
124.9371378136
 30
0.0
 11
106.9161523107
 21
124.8492880177
 31
0.0
  0
ARC
  5
196
330
1F
100
AcDbEntity
  8
0
  6
Continuous
 62
     7
370
    15
100
AcDbCircle
 10
109.294160791
 20
123.9567255158
 30
0.0
 40
2.54
100
AcDbArc
 50
159.4268835638
 51
240.0
  0
ARC
  5
197
330
1F
100
AcDbEntity
  8
0
  6
Continuous
 62
     7
370
    15
100
AcDbCircle
 10
30.8721087196
 20
140.6258472632
 30
0.0
 40
2.540000000000023
100
AcDbArc
 50
276.0
 51
356.5731164362
  0
LINE
  5
198
330
1F
100
AcDbEntity
  8
0
  6
Continuous
 62
     7
370
    15
100
AcDbLine
 10
33.4075655762
 20
140.4740193312
 30
0.0
 11
33.657119048
 21
140.4590757948
 31
0.0
  0
LINE
  5
199
330
1F
100
AcDbEntity
  8
0
  6
Continuous
 62
     7
370
    15
100
AcDbLine
 10
107.729513568
 20
128.1607600313
 30
0.0
 11
107.9705063227
 21
128.0942580116
 31
0.0
  0
ARC
  5
19A
330
1F
100
AcDbEntity
  8
0
  6
Continuous
 62
     7
370
    15
100
AcDbCircle
 10
71.3396187845
 20
138.2025789854
 30
0.0
 40
38.00000000000002
100
AcDbArc
 50
339.4268835638
 51
344.5731164362
  0
ARC
  5
19B
330
1F
100
AcDbEntity
  8
0
  6
Continuous
 62
     7
370
    15
100
AcDbCircle
 10
71.3396187845
 20
138.2025789854
 30
0.0
 40
37.99999999999999
100
AcDbArc
 50
171.4268835638
 51
176.5731164362
  0
LINE
  5
19C
330
1F
100
AcDbEntity
  8
0
  6
Continuous
 62
     7
370
    15
100
AcDbLine
 10
33.7642136935
 20
143.8672922005
 30
0.0
 11
34.0114202324
 21
143.8300243963
 31
0.0
  0
LINE
  5
19D
330
1F
100
AcDbEntity
  8
0
  6
Continuous
 62
     7
370
    15
100
AcDbLine
 10
110.7106249753
 20
130.1933128771
 30
0.0
 11
110.6844920639
 21
129.944682346
 31
0.0
  0
ARC
  5
19E
330
1F
100
AcDbEntity
  8
0
  6
Continuous
 62
     7
370
    15
100
AcDbCircle
 10
110.4189908572
 20
127.4185964927
 30
0.0
 40
2.540000000000001
100
AcDbArc
 50
84.0
 51
164.5731164362
  0
ARC
  5
19F
330
1F
100
AcDbEntity
  8
0
  6
Continuous
 62
     7
370
    15
100
AcDbCircle
 10
31.2525951019
 20
144.2459333743
 30
0.0
 40
2.540000000000009
100
AcDbArc
 50
351.4268835638
 51
72.0
  0
LINE
  5
1A0
330
1F
100
AcDbEntity
  8
0
  6
Continuous
 62
     7
370
    15
100
AcDbLine
 10
32.0374969367
 20
146.6616170865
 30
0.0
 11
32.1147520069
 21
146.8993809458
 31
0.0
  0
LINE
  5
1A1
330
1F
100
AcDbEntity
  8
0
  6
Continuous
 62
     7
370
    15
100
AcDbLine
 10
113.8283427778
 20
129.8656270292
 30
0.0
 11
113.8022135917
 21
129.6169964981
 31
0.0
  0
LINE
  5
1A2
330
1F
100
AcDbEntity
  8
0
  6
Continuous
 62
     7
370
    15
100
AcDbLine
 10
113.8022135917
 20
129.6169964981
 30
0.0
 11
110.6844920639
 21
129.944682346
 31
0.0
  0
LINE
  5
1A3
330
1F
100
AcDbEntity
  8
0
  6
Continuous
 62
     7
370
    15
100
AcDbLine
 10
32.0374969367
 20
146.6616170865
 30
0.0
 11
29.0560390774
 21
147.6303518203
 31
0.0
  0
LINE
  5
1A4
330
1F
100
AcDbEntity
  8
0
  6
Continuous
 62
     7
370
    15
100
AcDbLine
 10
29.0560390774
 20
147.6303518203
 30
0.0
 11
29.1332941476
 21
147.8681156796
 31
0.0
  0
ARC
  5
1A5
330
1F
100
AcDbEntity
  8
0
  6
Continuous
 62
     7
370
    15
100
AcDbCircle
 10
115.0565533103
 20
141.5512594224
 30
0.0
 40
11.99999999999999
100
AcDbArc
 50
264.0
 51
304.3762242501
  0
SPLINE
  5
1A6
330
1F
100
AcDbEntity
  8
0
  6
Continuous
 62
     7
370
    15
100
AcDbSpline
210
0.0
220
0.0
230
1.0
 70
     8
 71
     3
 72
     8
 73
     4
 74
     0
 42
0.00000001
 43
0.00000001
 12
1.0
 22
0.0
 32
0.0
 13
1.0
 23
0.0
 33
0.0
 40
0.0001085338104882
 40
0.0001085338104882
 40
0.0001085338104882
 40
0.0001085338104882
 40
0.0003707418624266
 40
0.0003707418624266
 40
0.0003707418624266
 40
0.0003707418624266
 10
121.8563084154188
 20
131.7527221412992
 30
0.0
 10
121.8011497886186
 20
131.7862044657385
 30
0.0
 10
121.746010691669
 20
131.8197702598444
 30
0.0
 10
121.6908919075996
 20
131.8534219636864
 30
0.0
  0
SPLINE
  5
1A7
330
1F
100
AcDbEntity
  8
0
  6
Continuous
 62
     7
370
    15
100
AcDbSpline
210
0.0
220
0.0
230
1.0
 70
     8
 71
     3
 72
     8
 73
     4
 74
     0
 42
0.00000001
 43
0.00000001
 12
1.0
 22
0.0
 32
0.0
 13
1.0
 23
0.0
 33
0.0
 40
0.0
 40
0.0
 40
0.0
 40
0.0
 40
1.0
 40
1.0
 40
1.0
 40
1.0
 10
121.8943295875999
 20
131.7081184525249
 30
0.0
 10
121.886103179726
 20
131.7260346866386
 30
0.0
 10
121.8739759410313
 20
131.741997620786
 30
0.0
 10
121.8563084154188
 20
131.7527221412992
 30
0.0
  0
SPLINE
  5
1A8
330
1F
100
AcDbEntity
  8
0
  6
Continuous
 62
     7
370
    15
100
AcDbSpline
210
0.0
220
0.0
230
1.0
 70
     8
 71
     3
 72
     8
 73
     4
 74
     0
 42
0.00000001
 43
0.00000001
 12
1.0
 22
0.0
 32
0.0
 13
1.0
 23
0.0
 33
0.0
 40
0.0
 40
0.0
 40
0.0
 40
0.0
 40
1.0
 40
1.0
 40
1.0
 40
1.0
 10
121.8320480479678
 20
131.647084996479
 30
0.0
 10
121.8568478238651
 20
131.6640506458973
 30
0.0
 10
121.8778890629005
 20
131.6851002737058
 30
0.0
 10
121.8943295876009
 20
131.7081184525255
 30
0.0
  0
ARC
  5
1A9
330
1F
100
AcDbEntity
  8
0
  6
Continuous
 62
     7
370
    15
100
AcDbCircle
 10
32.7642428662
 20
159.0430299823
 30
0.0
 40
11.99999999999998
100
AcDbArc
 50
211.6237757499
 51
252.0
  0
SPLINE
  5
1AA
330
1F
100
AcDbEntity
  8
0
  6
Continuous
 62
     7
370
    15
100
AcDbSpline
210
0.0
220
0.0
230
1.0
 70
     8
 71
     3
 72
     8
 73
     4
 74
     0
 42
0.00000001
 43
0.00000001
 12
1.0
 22
0.0
 32
0.0
 13
1.0
 23
0.0
 33
0.0
 40
0.0
 40
0.0
 40
0.0
 40
0.0
 40
1.0
 40
1.0
 40
1.0
 40
1.0
 10
22.51405729222963
 20
152.8320474294611
 30
0.0
 10
22.51967633208545
 20
152.804517461662
 30
0.0
 10
22.53039751241633
 20
152.7765070618205
 30
0.0
 10
22.54612976682661
 20
152.7509584085688
 30
0.0
  0
SPLINE
  5
1AB
330
1F
100
AcDbEntity
  8
0
  6
Continuous
 62
     7
370
    15
100
AcDbSpline
210
0.0
220
0.0
230
1.0
 70
     8
 71
     3
 72
     8
 73
     4
 74
     0
 42
0.00000001
 43
0.00000001
 12
1.0
 22
0.0
 32
0.0
 13
1.0
 23
0.0
 33
0.0
 40
0.0
 40
0.0
 40
0.0
 40
0.0
 40
1.0
 40
1.0
 40
1.0
 40
1.0
 10
22.5669333160115
 20
152.8573303227951
 30
0.0
 10
22.54632144749845
 20
152.8547050404195
 30
0.0
 10
22.52900300776422
 20
152.8451948254534
 30
0.0
 10
22.51405729223081
 20
152.8320474294595
 30
0.0
  0
SPLINE
  5
1AC
330
1F
100
AcDbEntity
  8
0
  6
Continuous
 62
     7
370
    15
100
AcDbSpline
210
0.0
220
0.0
230
1.0
 70
     8
 71
     3
 72
     8
 73
     4
 74
     0
 42
0.00000001
 43
0.00000001
 12
1.0
 22
0.0
 32
0.0
 13
1.0
 23
0.0
 33
0.0
 40
0.0001085338104882
 40
0.0001085338104882
 40
0.0001085338104882
 40
0.0001085338104882
 40
0.0003707418624266
 40
0.0003707418624266
 40
0.0003707418624266
 40
0.0003707418624266
 10
22.5669333160115
 20
152.8573303227951
 30
0.0
 10
22.63094171721935
 20
152.8654829134965
 30
0.0
 10
22.694966227193
 20
152.8737197010386
 30
0.0
 10
22.7590071230649
 20
152.8820432330226
 30
0.0
  0
SPLINE
  5
1AD
330
1F
100
AcDbEntity
  8
0
  6
Continuous
 62
     7
370
    15
100
AcDbSpline
210
0.0
220
0.0
230
1.0
 70
     8
 71
     3
 72
     8
 73
     4
 74
     0
 42
0.00000001
 43
0.00000001
 12
1.0
 22
0.0
 32
0.0
 13
1.0
 23
0.0
 33
0.0
 40
0.0001085338104882
 40
0.0001085338104882
 40
0.0001085338104882
 40
0.0001085338104882
 40
0.0003707418624265
 40
0.0003707418624265
 40
0.0003707418624265
 40
0.0003707418624265
 10
122.0933981859831
 20
134.008480626816
 30
0.0
 10
122.0324835408321
 20
133.9871980948599
 30
0.0
 10
121.971570644438
 20
133.9658298567655
 30
0.0
 10
121.9106597554004
 20
133.9443733629834
 30
0.0
  0
ARC
  5
1AE
330
1F
100
AcDbEntity
  8
0
  6
Continuous
 62
     7
370
    15
100
AcDbCircle
 10
71.3396187845
 20
138.2025789854
 30
0.0
 40
50.92677669529664
100
AcDbArc
 50
352.7239708372
 51
355.2760291628
  0
ARC
  5
1AF
330
1F
100
AcDbEntity
  8
0
  6
Continuous
 62
     7
370
    15
100
AcDbCircle
 10
71.3396187845
 20
138.2025789854
 30
0.0
 40
50.92677669529662
100
AcDbArc
 50
160.7239708372
 51
163.2760291628
  0
SPLINE
  5
1B0
330
1F
100
AcDbEntity
  8
0
  6
Continuous
 62
     7
370
    15
100
AcDbSpline
210
0.0
220
0.0
230
1.0
 70
     8
 71
     3
 72
     8
 73
     4
 74
     0
 42
0.00000001
 43
0.00000001
 12
1.0
 22
0.0
 32
0.0
 13
1.0
 23
0.0
 33
0.0
 40
0.0001085338104882
 40
0.0001085338104882
 40
0.0001085338104882
 40
0.0001085338104882
 40
0.0003707418624266
 40
0.0003707418624266
 40
0.0003707418624266
 40
0.0003707418624266
 10
23.2678406670478
 20
155.0145013381646
 30
0.0
 10
23.31483257882543
 20
154.9702825594861
 30
0.0
 10
23.36178803320716
 20
154.9259861956378
 30
0.0
 10
23.40870575695531
 20
154.8816100226723
 30
0.0
  0
LINE
  5
1B1
330
1F
100
AcDbEntity
  8
0
  6
Continuous
 62
     7
370
    15
100
AcDbLine
 10
114.6332140986
 20
137.5234457583
 30
0.0
 11
114.65934701
 21
137.7720762312
 31
0.0
  0
ARC
  5
1B2
330
1F
100
AcDbEntity
  8
0
  6
Continuous
 62
     7
370
    15
100
AcDbCircle
 10
113.4050035907
 20
125.8378134756
 30
0.0
 40
11.99999999999998
100
AcDbArc
 50
43.6237757499
 51
84.0
  0
SPLINE
  5
1B3
330
1F
100
AcDbEntity
  8
0
  6
Continuous
 62
     7
370
    15
100
AcDbSpline
210
0.0
220
0.0
230
1.0
 70
     8
 71
     3
 72
     8
 73
     4
 74
     0
 42
0.00000001
 43
0.00000001
 12
1.0
 22
0.0
 32
0.0
 13
1.0
 23
0.0
 33
0.0
 40
0.0
 40
0.0
 40
0.0
 40
0.0
 40
1.0
 40
1.0
 40
1.0
 40
1.0
 10
122.1398621326798
 20
134.0442045717785
 30
0.0
 10
122.1286420801731
 20
134.0699646796522
 30
0.0
 10
122.1123314937639
 20
134.0951339263226
 30
0.0
 10
122.0916311631627
 20
134.1168533605879
 30
0.0
  0
SPLINE
  5
1B4
330
1F
100
AcDbEntity
  8
0
  6
Continuous
 62
     7
370
    15
100
AcDbSpline
210
0.0
220
0.0
230
1.0
 70
     8
 71
     3
 72
     8
 73
     4
 74
     0
 42
0.00000001
 43
0.00000001
 12
1.0
 22
0.0
 32
0.0
 13
1.0
 23
0.0
 33
0.0
 40
0.0
 40
0.0
 40
0.0
 40
0.0
 40
1.0
 40
1.0
 40
1.0
 40
1.0
 10
122.0933981859831
 20
134.008480626816
 30
0.0
 10
122.1130138088182
 20
134.0153339889063
 30
0.0
 10
122.127976514219
 20
134.0282370889453
 30
0.0
 10
122.1398621326783
 20
134.0442045717798
 30
0.0
  0
ARC
  5
1B5
330
1F
100
AcDbEntity
  8
0
  6
Continuous
 62
     7
370
    15
100
AcDbCircle
 10
27.881774355
 20
144.0163370249
 30
0.0
 40
12.00000000000001
100
AcDbArc
 50
72.0
 51
112.3762242501
  0
LINE
  5
1B6
330
1F
100
AcDbEntity
  8
0
  6
Continuous
 62
     7
370
    15
100
AcDbLine
 10
31.5899778131
 20
155.4290160921
 30
0.0
 11
31.5127227429
 21
155.1912513015
 31
0.0
  0
SPLINE
  5
1B7
330
1F
100
AcDbEntity
  8
0
  6
Continuous
 62
     7
370
    15
100
AcDbSpline
210
0.0
220
0.0
230
1.0
 70
     8
 71
     3
 72
     8
 73
     4
 74
     0
 42
0.00000001
 43
0.00000001
 12
1.0
 22
0.0
 32
0.0
 13
1.0
 23
0.0
 33
0.0
 40
0.0
 40
0.0
 40
0.0
 40
0.0
 40
1.0
 40
1.0
 40
1.0
 40
1.0
 10
23.23992397705156
 20
155.0660353755182
 30
0.0
 10
23.24424562364839
 20
155.0468002877352
 30
0.0
 10
23.25278897245205
 20
155.0286647872962
 30
0.0
 10
23.26784066704777
 20
155.0145013381646
 30
0.0
  0
SPLINE
  5
1B8
330
1F
100
AcDbEntity
  8
0
  6
Continuous
 62
     7
370
    15
100
AcDbSpline
210
0.0
220
0.0
230
1.0
 70
     8
 71
     3
 72
     8
 73
     4
 74
     0
 42
0.00000001
 43
0.00000001
 12
1.0
 22
0.0
 32
0.0
 13
1.0
 23
0.0
 33
0.0
 40
0.0
 40
0.0
 40
0.0
 40
0.0
 40
1.0
 40
1.0
 40
1.0
 40
1.0
 10
23.31353408465565
 20
155.1127860439022
 30
0.0
 10
23.28574888650653
 20
155.1013472979676
 30
0.0
 10
23.26079098531883
 20
155.0851323746151
 30
0.0
 10
23.23992397705044
 20
155.0660353755177
 30
0.0
  0
LINE
  5
1B9
330
1F
100
AcDbEntity
  8
0
  6
Continuous
 62
     7
370
    15
100
AcDbLine
 10
111.515496296
 20
137.8511311696
 30
0.0
 11
111.5416254822
 21
138.0997616498
 31
0.0
  0
LINE
  5
1BA
330
1F
100
AcDbEntity
  8
0
  6
Continuous
 62
     7
370
    15
100
AcDbLine
 10
111.5416254822
 20
138.0997616498
 30
0.0
 11
114.65934701
 21
137.7720762312
 31
0.0
  0
LINE
  5
1BB
330
1F
100
AcDbEntity
  8
0
  6
Continuous
 62
     7
370
    15
100
AcDbLine
 10
31.5899778131
 20
155.4290160921
 30
0.0
 11
34.5714393977
 21
154.460280427
 31
0.0
  0
LINE
  5
1BC
330
1F
100
AcDbEntity
  8
0
  6
Continuous
 62
     7
370
    15
100
AcDbLine
 10
34.5714393977
 20
154.460280427
 30
0.0
 11
34.4941843275
 21
154.2225156364
 31
0.0
  0
LINE
  5
1BD
330
1F
100
AcDbEntity
  8
0
  6
Continuous
 62
     7
370
    15
100
AcDbLine
 10
109.0221185211
 20
140.4590757948
 30
0.0
 11
109.2716719929
 21
140.4740193312
 31
0.0
  0
ARC
  5
1BE
330
1F
100
AcDbEntity
  8
0
  6
Continuous
 62
     7
370
    15
100
AcDbCircle
 10
111.8071288494
 20
140.6258472632
 30
0.0
 40
2.540000000000012
100
AcDbArc
 50
183.4268835638
 51
264.0
  0
ARC
  5
1BF
330
1F
100
AcDbEntity
  8
0
  6
Continuous
 62
     7
370
    15
100
AcDbCircle
 10
35.3563407872
 20
156.8759639107
 30
0.0
 40
2.540000000000009
100
AcDbArc
 50
252.0
 51
332.5731164362
  0
LINE
  5
1C0
330
1F
100
AcDbEntity
  8
0
  6
Continuous
 62
     7
370
    15
100
AcDbLine
 10
37.6108441475
 20
155.7059988764
 30
0.0
 11
37.8327447895
 21
155.5908445653
 31
0.0
  0
LINE
  5
1C1
330
1F
100
AcDbEntity
  8
0
  6
Continuous
 62
     7
370
    15
100
AcDbLine
 10
108.6678173367
 20
143.8300243963
 30
0.0
 11
108.9150238756
 21
143.8672922005
 31
0.0
  0
ARC
  5
1C2
330
1F
100
AcDbEntity
  8
0
  6
Continuous
 62
     7
370
    15
100
AcDbCircle
 10
71.3396187845
 20
138.2025789854
 30
0.0
 40
38.00000000000001
100
AcDbArc
 50
3.4268835638
 51
8.5731164362
  0
ARC
  5
1C3
330
1F
100
AcDbEntity
  8
0
  6
Continuous
 62
     7
370
    15
100
AcDbCircle
 10
71.3396187845
 20
138.2025789854
 30
0.0
 40
37.99999999999999
100
AcDbArc
 50
147.4268835638
 51
152.5731164362
  0
ARC
  5
1C4
330
1F
100
AcDbEntity
  8
0
  6
Continuous
 62
     7
370
    15
100
AcDbCircle
 10
111.4266424671
 20
144.2459333743
 30
0.0
 40
2.539999999999997
100
AcDbArc
 50
108.0
 51
188.5731164362
  0
LINE
  5
1C5
330
1F
100
AcDbEntity
  8
0
  6
Continuous
 62
     7
370
    15
100
AcDbLine
 10
85.3639695767
 20
179.167368674
 30
0.0
 11
85.1355832044
 21
179.269054198
 31
0.0
  0
ARC
  5
1C6
330
1F
100
AcDbEntity
  8
0
  6
Continuous
 62
     7
370
    15
100
AcDbCircle
 10
96.0981283751
 20
174.3882146417
 30
0.0
 40
12.0
100
AcDbArc
 50
115.6237757499
 51
156.0
  0
SPLINE
  5
1C7
330
1F
100
AcDbEntity
  8
0
  6
Continuous
 62
     7
370
    15
100
AcDbSpline
210
0.0
220
0.0
230
1.0
 70
     8
 71
     3
 72
     8
 73
     4
 74
     0
 42
0.00000001
 43
0.00000001
 12
1.0
 22
0.0
 32
0.0
 13
1.0
 23
0.0
 33
0.0
 40
0.0
 40
0.0
 40
0.0
 40
0.0
 40
1.0
 40
1.0
 40
1.0
 40
1.0
 10
90.99260638074026
 20
185.2314730882388
 30
0.0
 10
90.96463987538415
 20
185.2287624952991
 30
0.0
 10
90.9356622509394
 20
185.2210279307668
 30
0.0
 10
90.90860908750619
 20
185.2080524207553
 30
0.0
  0
SPLINE
  5
1C8
330
1F
100
AcDbEntity
  8
0
  6
Continuous
 62
     7
370
    15
100
AcDbSpline
210
0.0
220
0.0
230
1.0
 70
     8
 71
     3
 72
     8
 73
     4
 74
     0
 42
0.00000001
 43
0.00000001
 12
1.0
 22
0.0
 32
0.0
 13
1.0
 23
0.0
 33
0.0
 40
0.0
 40
0.0
 40
0.0
 40
0.0
 40
1.0
 40
1.0
 40
1.0
 40
1.0
 10
91.01222372222963
 20
185.1762439428606
 30
0.0
 10
91.01176734836638
 20
185.1970173141336
 30
0.0
 10
91.00411950124452
 20
185.2152349697987
 30
0.0
 10
90.99260638073855
 20
185.2314730882378
 30
0.0
  0
SPLINE
  5
1C9
330
1F
100
AcDbEntity
  8
0
  6
Continuous
 62
     7
370
    15
100
AcDbSpline
210
0.0
220
0.0
230
1.0
 70
     8
 71
     3
 72
     8
 73
     4
 74
     0
 42
0.00000001
 43
0.00000001
 12
1.0
 22
0.0
 32
0.0
 13
1.0
 23
0.0
 33
0.0
 40
0.0001085338104882
 40
0.0001085338104882
 40
0.0001085338104882
 40
0.0001085338104882
 40
0.0003707418624266
 40
0.0003707418624266
 40
0.0003707418624266
 40
0.0003707418624266
 10
91.01222372222963
 20
185.1762439428606
 30
0.0
 10
91.01364095237173
 20
185.1117340085942
 30
0.0
 10
91.01514023429077
 20
185.0471992528411
 30
0.0
 10
91.01672407266393
 20
184.9826391336903
 30
0.0
  0
ARC
  5
1CA
330
1F
100
AcDbEntity
  8
0
  6
Continuous
 62
     7
370
    15
100
AcDbCircle
 10
63.4396187845
 20
181.3299951496
 30
0.0
 40
11.99999999999999
100
AcDbArc
 50
0.0
 51
40.3762242501
  0
LINE
  5
1CB
330
1F
100
AcDbEntity
  8
0
  6
Continuous
 62
     7
370
    15
100
AcDbLine
 10
75.4396188046
 20
181.3299965498
 30
0.0
 11
75.1896187637
 21
181.3299965498
 31
0.0
  0
SPLINE
  5
1CC
330
1F
100
AcDbEntity
  8
0
  6
Continuous
 62
     7
370
    15
100
AcDbSpline
210
0.0
220
0.0
230
1.0
 70
     8
 71
     3
 72
     8
 73
     4
 74
     0
 42
0.00000001
 43
0.00000001
 12
1.0
 22
0.0
 32
0.0
 13
1.0
 23
0.0
 33
0.0
 40
0.0001085338104882
 40
0.0001085338104882
 40
0.0001085338104882
 40
0.0001085338104882
 40
0.0003707418624266
 40
0.0003707418624266
 40
0.0003707418624266
 40
0.0003707418624266
 10
72.4737107014718
 20
189.1167265290278
 30
0.0
 10
72.44617744320452
 20
189.0583702110364
 30
0.0
 10
72.41855913110092
 20
189.0000245909529
 30
0.0
 10
72.39085325660949
 20
188.9416901924608
 30
0.0
  0
SPLINE
  5
1CD
330
1F
100
AcDbEntity
  8
0
  6
Continuous
 62
     7
370
    15
100
AcDbSpline
210
0.0
220
0.0
230
1.0
 70
     8
 71
     3
 72
     8
 73
     4
 74
     0
 42
0.00000001
 43
0.00000001
 12
1.0
 22
0.0
 32
0.0
 13
1.0
 23
0.0
 33
0.0
 40
0.0
 40
0.0
 40
0.0
 40
0.0
 40
1.0
 40
1.0
 40
1.0
 40
1.0
 10
72.51409575187242
 20
189.1592017722932
 30
0.0
 10
72.49713755853702
 20
189.1491476731229
 30
0.0
 10
72.48252971263751
 20
189.135418287735
 30
0.0
 10
72.4737107014718
 20
189.1167265290278
 30
0.0
  0
SPLINE
  5
1CE
330
1F
100
AcDbEntity
  8
0
  6
Continuous
 62
     7
370
    15
100
AcDbSpline
210
0.0
220
0.0
230
1.0
 70
     8
 71
     3
 72
     8
 73
     4
 74
     0
 42
0.00000001
 43
0.00000001
 12
1.0
 22
0.0
 32
0.0
 13
1.0
 23
0.0
 33
0.0
 40
0.0
 40
0.0
 40
0.0
 40
0.0
 40
1.0
 40
1.0
 40
1.0
 40
1.0
 10
72.58130505388769
 20
189.1036411508202
 30
0.0
 10
72.56184006160815
 20
189.1265316776883
 30
0.0
 10
72.53870633748161
 20
189.1452573653675
 30
0.0
 10
72.51409575187165
 20
189.1592017722941
 30
0.0
  0
LINE
  5
1CF
330
1F
100
AcDbEntity
  8
0
  6
Continuous
 62
     7
370
    15
100
AcDbLine
 10
84.0888939771
 20
176.3035033282
 30
0.0
 11
83.8605076048
 21
176.4051888522
 31
0.0
  0
LINE
  5
1D0
330
1F
100
AcDbEntity
  8
0
  6
Continuous
 62
     7
370
    15
100
AcDbLine
 10
83.8605076048
 20
176.4051888522
 30
0.0
 11
85.1355832044
 21
179.269054198
 31
0.0
  0
LINE
  5
1D1
330
1F
100
AcDbEntity
  8
0
  6
Continuous
 62
     7
370
    15
100
AcDbLine
 10
75.4396188046
 20
181.3299965498
 30
0.0
 11
75.4396188046
 21
178.1951014337
 31
0.0
  0
LINE
  5
1D2
330
1F
100
AcDbEntity
  8
0
  6
Continuous
 62
     7
370
    15
100
AcDbLine
 10
75.4396188046
 20
178.1951014337
 30
0.0
 11
75.1896187637
 21
178.1951014337
 31
0.0
  0
LINE
  5
1D3
330
1F
100
AcDbEntity
  8
0
  6
Continuous
 62
     7
370
    15
100
AcDbLine
 10
80.8380957666
 20
174.738061839
 30
0.0
 11
80.900999156
 21
174.9800194439
 31
0.0
  0
ARC
  5
1D4
330
1F
100
AcDbEntity
  8
0
  6
Continuous
 62
     7
370
    15
100
AcDbCircle
 10
81.5401020283
 20
177.4382992106
 30
0.0
 40
2.540000000000002
100
AcDbArc
 50
255.4268835638
 51
336.0
  0
LINE
  5
1D5
330
1F
100
AcDbEntity
  8
0
  6
Continuous
 62
     7
370
    15
100
AcDbLine
 10
91.1231938723
 20
173.1716331479
 30
0.0
 11
91.3515802446
 21
173.0699476239
 31
0.0
  0
ARC
  5
1D6
330
1F
100
AcDbEntity
  8
0
  6
Continuous
 62
     7
370
    15
100
AcDbCircle
 10
93.6719857058
 20
172.0368365906
 30
0.0
 40
2.540000000000023
100
AcDbArc
 50
156.0
 51
236.5731164362
  0
ARC
  5
1D7
330
1F
100
AcDbEntity
  8
0
  6
Continuous
 62
     7
370
    15
100
AcDbCircle
 10
64.6996187845
 20
178.1951032868
 30
0.0
 40
2.539999999999997
100
AcDbArc
 50
279.4268835638
 51
0.0
  0
LINE
  5
1D8
330
1F
100
AcDbEntity
  8
0
  6
Continuous
 62
     7
370
    15
100
AcDbLine
 10
67.2396187644
 20
178.1951014337
 30
0.0
 11
67.4896188054
 21
178.1951014337
 31
0.0
  0
LINE
  5
1D9
330
1F
100
AcDbEntity
  8
0
  6
Continuous
 62
     7
370
    15
100
AcDbLine
 10
92.3982694719
 20
176.0354984936
 30
0.0
 11
92.6266558442
 21
175.9338129696
 31
0.0
  0
LINE
  5
1DA
330
1F
100
AcDbEntity
  8
0
  6
Continuous
 62
     7
370
    15
100
AcDbLine
 10
92.6266558442
 20
175.9338129696
 30
0.0
 11
91.3515802446
 21
173.0699476239
 31
0.0
  0
LINE
  5
1DB
330
1F
100
AcDbEntity
  8
0
  6
Continuous
 62
     7
370
    15
100
AcDbLine
 10
67.2396187644
 20
178.1951014337
 30
0.0
 11
67.2396187644
 21
181.3299965498
 31
0.0
  0
LINE
  5
1DC
330
1F
100
AcDbEntity
  8
0
  6
Continuous
 62
     7
370
    15
100
AcDbLine
 10
67.2396187644
 20
181.3299965498
 30
0.0
 11
67.4896188054
 21
181.3299965498
 31
0.0
  0
ARC
  5
1DD
330
1F
100
AcDbEntity
  8
0
  6
Continuous
 62
     7
370
    15
100
AcDbCircle
 10
81.6641101443
 20
180.8146536023
 30
0.0
 40
12.0
100
AcDbArc
 50
336.0
 51
16.3762242501
  0
SPLINE
  5
1DE
330
1F
100
AcDbEntity
  8
0
  6
Continuous
 62
     7
370
    15
100
AcDbSpline
210
0.0
220
0.0
230
1.0
 70
     8
 71
     3
 72
     8
 73
     4
 74
     0
 42
0.00000001
 43
0.00000001
 12
1.0
 22
0.0
 32
0.0
 13
1.0
 23
0.0
 33
0.0
 40
0.0001085338104882
 40
0.0001085338104882
 40
0.0001085338104882
 40
0.0001085338104882
 40
0.0003707418624266
 40
0.0003707418624266
 40
0.0003707418624266
 40
0.0003707418624266
 10
93.08431276077157
 20
184.2536904643883
 30
0.0
 10
93.03542422486528
 20
184.2115781002031
 30
0.0
 10
92.98646233964435
 20
184.1695101035549
 30
0.0
 10
92.93742502643418
 20
184.1274879731723
 30
0.0
  0
SPLINE
  5
1DF
330
1F
100
AcDbEntity
  8
0
  6
Continuous
 62
     7
370
    15
100
AcDbSpline
210
0.0
220
0.0
230
1.0
 70
     8
 71
     3
 72
     8
 73
     4
 74
     0
 42
0.00000001
 43
0.00000001
 12
1.0
 22
0.0
 32
0.0
 13
1.0
 23
0.0
 33
0.0
 40
0.0
 40
0.0
 40
0.0
 40
0.0
 40
1.0
 40
1.0
 40
1.0
 40
1.0
 10
93.13848257798129
 20
184.2760674501052
 30
0.0
 10
93.11890112694425
 20
184.2737800921074
 30
0.0
 10
93.09997195155265
 20
184.2671792206539
 30
0.0
 10
93.08431276077155
 20
184.2536904643883
 30
0.0
  0
SPLINE
  5
1E0
330
1F
100
AcDbEntity
  8
0
  6
Continuous
 62
     7
370
    15
100
AcDbSpline
210
0.0
220
0.0
230
1.0
 70
     8
 71
     3
 72
     8
 73
     4
 74
     0
 42
0.00000001
 43
0.00000001
 12
1.0
 22
0.0
 32
0.0
 13
1.0
 23
0.0
 33
0.0
 40
0.0
 40
0.0
 40
0.0
 40
0.0
 40
1.0
 40
1.0
 40
1.0
 40
1.0
 10
93.17728278988352
 20
184.1979738108496
 30
0.0
 10
93.16881105066008
 20
184.2268024733103
 30
0.0
 10
93.15529376541187
 20
184.253318573524
 30
0.0
 10
93.13848257798097
 20
184.2760674501064
 30
0.0
  0
ARC
  5
1E1
330
1F
100
AcDbEntity
  8
0
  6
Continuous
 62
     7
370
    15
100
AcDbCircle
 10
79.2396187845
 20
181.3299951496
 30
0.0
 40
11.99999999999999
100
AcDbArc
 50
139.6237757499
 51
180.0
  0
SPLINE
  5
1E2
330
1F
100
AcDbEntity
  8
0
  6
Continuous
 62
     7
370
    15
100
AcDbSpline
210
0.0
220
0.0
230
1.0
 70
     8
 71
     3
 72
     8
 73
     4
 74
     0
 42
0.00000001
 43
0.00000001
 12
1.0
 22
0.0
 32
0.0
 13
1.0
 23
0.0
 33
0.0
 40
0.0
 40
0.0
 40
0.0
 40
0.0
 40
1.0
 40
1.0
 40
1.0
 40
1.0
 10
70.16514181718938
 20
189.1592017722942
 30
0.0
 10
70.14069564072823
 20
189.1453505199194
 30
0.0
 10
70.11736919435695
 20
189.1264983819331
 30
0.0
 10
70.09793251517199
 20
189.1036411508221
 30
0.0
  0
SPLINE
  5
1E3
330
1F
100
AcDbEntity
  8
0
  6
Continuous
 62
     7
370
    15
100
AcDbSpline
210
0.0
220
0.0
230
1.0
 70
     8
 71
     3
 72
     8
 73
     4
 74
     0
 42
0.00000001
 43
0.00000001
 12
1.0
 22
0.0
 32
0.0
 13
1.0
 23
0.0
 33
0.0
 40
0.0
 40
0.0
 40
0.0
 40
0.0
 40
1.0
 40
1.0
 40
1.0
 40
1.0
 10
70.20552686758913
 20
189.1167265290278
 30
0.0
 10
70.19666065802238
 20
189.1355183240211
 30
0.0
 10
70.18226421391356
 20
189.1490503209377
 30
0.0
 10
70.16514181718824
 20
189.1592017722925
 30
0.0
  0
SPLINE
  5
1E4
330
1F
100
AcDbEntity
  8
0
  6
Continuous
 62
     7
370
    15
100
AcDbSpline
210
0.0
220
0.0
230
1.0
 70
     8
 71
     3
 72
     8
 73
     4
 74
     0
 42
0.00000001
 43
0.00000001
 12
1.0
 22
0.0
 32
0.0
 13
1.0
 23
0.0
 33
0.0
 40
0.0001085338104882
 40
0.0001085338104882
 40
0.0001085338104882
 40
0.0001085338104882
 40
0.0003707418624266
 40
0.0003707418624266
 40
0.0003707418624266
 40
0.0003707418624266
 10
70.20552686758913
 20
189.1167265290278
 30
0.0
 10
70.23306012585643
 20
189.0583702110364
 30
0.0
 10
70.26067843796001
 20
189.0000245909529
 30
0.0
 10
70.28838431245146
 20
188.9416901924608
 30
0.0
  0
ARC
  5
1E5
330
1F
100
AcDbEntity
  8
0
  6
Continuous
 62
     7
370
    15
100
AcDbCircle
 10
71.3396187845
 20
138.2025789854
 30
0.0
 40
50.92677669529666
100
AcDbArc
 50
64.7239708372
 51
67.2760291628
  0
ARC
  5
1E6
330
1F
100
AcDbEntity
  8
0
  6
Continuous
 62
     7
370
    15
100
AcDbCircle
 10
71.3396187845
 20
138.2025789854
 30
0.0
 40
50.92677669529664
100
AcDbArc
 50
88.7239708372
 51
91.2760291628
  0
LINE
  5
1E7
330
1F
100
AcDbEntity
  8
0
  6
Continuous
 62
     7
370
    15
100
AcDbLine
 10
77.563594931
 20
175.6894041237
 30
0.0
 11
77.522647937
 21
175.4427824554
 31
0.0
  0
ARC
  5
1E8
330
1F
100
AcDbEntity
  8
0
  6
Continuous
 62
     7
370
    15
100
AcDbCircle
 10
71.3396187845
 20
138.2025789854
 30
0.0
 40
38.00000000000001
100
AcDbArc
 50
75.4268835638
 51
80.5731164362
  0
ARC
  5
1E9
330
1F
100
AcDbEntity
  8
0
  6
Continuous
 62
     7
370
    15
100
AcDbCircle
 10
77.9796187845
 20
178.1951032868
 30
0.0
 40
2.540000000000006
100
AcDbArc
 50
180.0
 51
260.5731164362
  0
SPLINE
  5
1EA
330
1F
100
AcDbEntity
  8
0
  6
Continuous
 62
     7
370
    15
100
AcDbSpline
210
0.0
220
0.0
230
1.0
 70
     8
 71
     3
 72
     8
 73
     4
 74
     0
 42
0.00000001
 43
0.00000001
 12
1.0
 22
0.0
 32
0.0
 13
1.0
 23
0.0
 33
0.0
 40
0.0
 40
0.0
 40
0.0
 40
0.0
 40
1.0
 40
1.0
 40
1.0
 40
1.0
 10
116.025644436701
 20
113.622930667846
 30
0.0
 10
116.0450584034223
 20
113.6582254370676
 30
0.0
 10
116.0562406332529
 20
113.6986158886324
 30
0.0
 10
116.0565870927313
 20
113.7413944817982
 30
0.0
  0
ARC
  5
1EB
330
1F
100
AcDbEntity
  8
0
  6
Continuous
 62
     7
370
    15
100
AcDbCircle
 10
71.3396187845
 20
138.2025789854
 30
0.0
 40
51.00000000000001
100
AcDbArc
 50
328.8130914957
 51
331.1869085043
  0
SPLINE
  5
1EC
330
1F
100
AcDbEntity
  8
0
  6
Continuous
 62
     7
370
    15
100
AcDbSpline
210
0.0
220
0.0
230
1.0
 70
     8
 71
     3
 72
     8
 73
     4
 74
     0
 42
0.00000001
 43
0.00000001
 12
1.0
 22
0.0
 32
0.0
 13
1.0
 23
0.0
 33
0.0
 40
0.0
 40
0.0
 40
0.0
 40
0.0
 40
1.0
 40
1.0
 40
1.0
 40
1.0
 10
114.9692314696857
 20
111.7931697352009
 30
0.0
 10
114.9483722862856
 20
111.758709362231
 30
0.0
 10
114.9189842440696
 20
111.7288300413346
 30
0.0
 10
114.882110125389
 20
111.707140702042
 30
0.0
  0
SPLINE
  5
1ED
330
1F
100
AcDbEntity
  8
0
  6
Continuous
 62
     7
370
    15
100
AcDbSpline
210
0.0
220
0.0
230
1.0
 70
     8
 71
     3
 72
     8
 73
     4
 74
     0
 42
0.00000001
 43
0.00000001
 12
1.0
 22
0.0
 32
0.0
 13
1.0
 23
0.0
 33
0.0
 40
0.0
 40
0.0
 40
0.0
 40
0.0
 40
1.0
 40
1.0
 40
1.0
 40
1.0
 10
122.1597781838283
 20
133.9233969806071
 30
0.0
 10
122.1631580489901
 20
133.9635367283619
 30
0.0
 10
122.1569452475763
 20
134.0049834645435
 30
0.0
 10
122.1398621326794
 20
134.0442045717797
 30
0.0
  0
ARC
  5
1EE
330
1F
100
AcDbEntity
  8
0
  6
Continuous
 62
     7
370
    15
100
AcDbCircle
 10
71.3396187845
 20
138.2025789854
 30
0.0
 40
51.0
100
AcDbArc
 50
352.8130914957
 51
355.1869085043
  0
SPLINE
  5
1EF
330
1F
100
AcDbEntity
  8
0
  6
Continuous
 62
     7
370
    15
100
AcDbSpline
210
0.0
220
0.0
230
1.0
 70
     8
 71
     3
 72
     8
 73
     4
 74
     0
 42
0.00000001
 43
0.00000001
 12
1.0
 22
0.0
 32
0.0
 13
1.0
 23
0.0
 33
0.0
 40
0.0
 40
0.0
 40
0.0
 40
0.0
 40
1.0
 40
1.0
 40
1.0
 40
1.0
 10
121.938927735792
 20
131.8221453281116
 30
0.0
 10
121.9338882199671
 20
131.7821800166788
 30
0.0
 10
121.919193922171
 20
131.742930705163
 30
0.0
 10
121.8943295876002
 20
131.7081184525244
 30
0.0
  0
SPLINE
  5
1F0
330
1F
100
AcDbEntity
  8
0
  6
Continuous
 62
     7
370
    15
100
AcDbSpline
210
0.0
220
0.0
230
1.0
 70
     8
 71
     3
 72
     8
 73
     4
 74
     0
 42
0.00000001
 43
0.00000001
 12
1.0
 22
0.0
 32
0.0
 13
1.0
 23
0.0
 33
0.0
 40
0.0
 40
0.0
 40
0.0
 40
0.0
 40
1.0
 40
1.0
 40
1.0
 40
1.0
 10
108.5249948227579
 20
173.1059858233304
 30
0.0
 10
108.4974267481331
 20
173.135356286401
 30
0.0
 10
108.4624686450396
 20
173.1584725548809
 30
0.0
 10
108.421890847118
 20
173.1720213697092
 30
0.0
  0
ARC
  5
1F1
330
1F
100
AcDbEntity
  8
0
  6
Continuous
 62
     7
370
    15
100
AcDbCircle
 10
71.3396187845
 20
138.2025789854
 30
0.0
 40
51.00000000000001
100
AcDbArc
 50
40.8130914957
 51
43.1869085043
  0
SPLINE
  5
1F2
330
1F
100
AcDbEntity
  8
0
  6
Continuous
 62
     7
370
    15
100
AcDbSpline
210
0.0
220
0.0
230
1.0
 70
     8
 71
     3
 72
     8
 73
     4
 74
     0
 42
0.00000001
 43
0.00000001
 12
1.0
 22
0.0
 32
0.0
 13
1.0
 23
0.0
 33
0.0
 40
0.0
 40
0.0
 40
0.0
 40
0.0
 40
1.0
 40
1.0
 40
1.0
 40
1.0
 10
109.9387513211266
 20
171.535850163321
 30
0.0
 10
109.9650792412472
 20
171.5053630601285
 30
0.0
 10
109.984414759599
 20
171.4681801531555
 30
0.0
 10
109.9936478177425
 20
171.4264084078635
 30
0.0
  0
SPLINE
  5
1F3
330
1F
100
AcDbEntity
  8
0
  6
Continuous
 62
     7
370
    15
100
AcDbSpline
210
0.0
220
0.0
230
1.0
 70
     8
 71
     3
 72
     8
 73
     4
 74
     0
 42
0.00000001
 43
0.00000001
 12
1.0
 22
0.0
 32
0.0
 13
1.0
 23
0.0
 33
0.0
 40
0.0
 40
0.0
 40
0.0
 40
0.0
 40
1.0
 40
1.0
 40
1.0
 40
1.0
 10
91.11365562580747
 20
185.2130827797411
 30
0.0
 10
91.0765248929009
 20
185.22870108674
 30
0.0
 10
91.03518684317224
 20
185.235600107306
 30
0.0
 10
90.99260638073893
 20
185.2314730882388
 30
0.0
  0
ARC
  5
1F4
330
1F
100
AcDbEntity
  8
0
  6
Continuous
 62
     7
370
    15
100
AcDbCircle
 10
71.3396187845
 20
138.2025789854
 30
0.0
 40
51.00000000000004
100
AcDbArc
 50
64.8130914957
 51
67.1869085043
  0
SPLINE
  5
1F5
330
1F
100
AcDbEntity
  8
0
  6
Continuous
 62
     7
370
    15
100
AcDbSpline
210
0.0
220
0.0
230
1.0
 70
     8
 71
     3
 72
     8
 73
     4
 74
     0
 42
0.00000001
 43
0.00000001
 12
1.0
 22
0.0
 32
0.0
 13
1.0
 23
0.0
 33
0.0
 40
0.0
 40
0.0
 40
0.0
 40
0.0
 40
1.0
 40
1.0
 40
1.0
 40
1.0
 10
93.04381816063074
 20
184.3537190519299
 30
0.0
 10
93.08027013447534
 20
184.3365762271409
 30
0.0
 10
93.11305766019919
 20
184.3104724152001
 30
0.0
 10
93.13848257798179
 20
184.2760674501054
 30
0.0
  0
SPLINE
  5
1F6
330
1F
100
AcDbEntity
  8
0
  6
Continuous
 62
     7
370
    15
100
AcDbSpline
210
0.0
220
0.0
230
1.0
 70
     8
 71
     3
 72
     8
 73
     4
 74
     0
 42
0.00000001
 43
0.00000001
 12
1.0
 22
0.0
 32
0.0
 13
1.0
 23
0.0
 33
0.0
 40
0.0
 40
0.0
 40
0.0
 40
0.0
 40
1.0
 40
1.0
 40
1.0
 40
1.0
 10
49.63541940843084
 20
184.3537190519303
 30
0.0
 10
49.59896743458783
 20
184.3365762271419
 30
0.0
 10
49.56617990886243
 20
184.3104724152005
 30
0.0
 10
49.54075499107983
 20
184.2760674501059
 30
0.0
  0
ARC
  5
1F7
330
1F
100
AcDbEntity
  8
0
  6
Continuous
 62
     7
370
    15
100
AcDbCircle
 10
71.3396187845
 20
138.2025789854
 30
0.0
 40
51.00000000000001
100
AcDbArc
 50
112.8130914957
 51
115.1869085042
  0
SPLINE
  5
1F8
330
1F
100
AcDbEntity
  8
0
  6
Continuous
 62
     7
370
    15
100
AcDbSpline
210
0.0
220
0.0
230
1.0
 70
     8
 71
     3
 72
     8
 73
     4
 74
     0
 42
0.00000001
 43
0.00000001
 12
1.0
 22
0.0
 32
0.0
 13
1.0
 23
0.0
 33
0.0
 40
0.0
 40
0.0
 40
0.0
 40
0.0
 40
1.0
 40
1.0
 40
1.0
 40
1.0
 10
51.56558194325409
 20
185.2130827797413
 30
0.0
 10
51.60271267614758
 20
185.2287010867349
 30
0.0
 10
51.64405072588929
 20
185.2356001073063
 30
0.0
 10
51.68663118832264
 20
185.2314730882391
 30
0.0
  0
SPLINE
  5
1F9
330
1F
100
AcDbEntity
  8
0
  6
Continuous
 62
     7
370
    15
100
AcDbSpline
210
0.0
220
0.0
230
1.0
 70
     8
 71
     3
 72
     8
 73
     4
 74
     0
 42
0.00000001
 43
0.00000001
 12
1.0
 22
0.0
 32
0.0
 13
1.0
 23
0.0
 33
0.0
 40
0.0
 40
0.0
 40
0.0
 40
0.0
 40
1.0
 40
1.0
 40
1.0
 40
1.0
 10
119.5066446841629
 20
154.9637727371411
 30
0.0
 10
119.4934060383713
 20
155.0018169363886
 30
0.0
 10
119.4708724555214
 20
155.0371534399651
 30
0.0
 10
119.4393135920099
 20
155.066035375518
 30
0.0
  0
ARC
  5
1FA
330
1F
100
AcDbEntity
  8
0
  6
Continuous
 62
     7
370
    15
100
AcDbCircle
 10
71.3396187845
 20
138.2025789854
 30
0.0
 40
50.99999999999999
100
AcDbArc
 50
16.8130914957
 51
19.1869085043
  0
SPLINE
  5
1FB
330
1F
100
AcDbEntity
  8
0
  6
Continuous
 62
     7
370
    15
100
AcDbSpline
210
0.0
220
0.0
230
1.0
 70
     8
 71
     3
 72
     8
 73
     4
 74
     0
 42
0.00000001
 43
0.00000001
 12
1.0
 22
0.0
 32
0.0
 13
1.0
 23
0.0
 33
0.0
 40
0.0
 40
0.0
 40
0.0
 40
0.0
 40
1.0
 40
1.0
 40
1.0
 40
1.0
 10
120.1595438039345
 20
152.9543558647838
 30
0.0
 10
120.1711953337582
 20
152.9157959803028
 30
0.0
 10
120.1737355579597
 20
152.8739632407029
 30
0.0
 10
120.1651802768313
 20
152.832047429459
 30
0.0
  0
SPLINE
  5
1FC
330
1F
100
AcDbEntity
  8
0
  6
Continuous
 62
     7
370
    15
100
AcDbSpline
210
0.0
220
0.0
230
1.0
 70
     8
 71
     3
 72
     8
 73
     4
 74
     0
 42
0.00000001
 43
0.00000001
 12
1.0
 22
0.0
 32
0.0
 13
1.0
 23
0.0
 33
0.0
 40
0.0
 40
0.0
 40
0.0
 40
0.0
 40
1.0
 40
1.0
 40
1.0
 40
1.0
 10
102.1648908945149
 20
97.57250884828115
 30
0.0
 10
102.1969821115821
 20
97.59685585273131
 30
0.0
 10
102.2236258635291
 20
97.62920614366479
 30
0.0
 10
102.2413419913916
 20
97.66814541537053
 30
0.0
  0
ARC
  5
1FD
330
1F
100
AcDbEntity
  8
0
  6
Continuous
 62
     7
370
    15
100
AcDbCircle
 10
71.3396187845
 20
138.2025789854
 30
0.0
 40
50.99999999999997
100
AcDbArc
 50
304.8130914957
 51
307.1869085043
  0
SPLINE
  5
1FE
330
1F
100
AcDbEntity
  8
0
  6
Continuous
 62
     7
370
    15
100
AcDbSpline
210
0.0
220
0.0
230
1.0
 70
     8
 71
     3
 72
     8
 73
     4
 74
     0
 42
0.00000001
 43
0.00000001
 12
1.0
 22
0.0
 32
0.0
 13
1.0
 23
0.0
 33
0.0
 40
0.0
 40
0.0
 40
0.0
 40
0.0
 40
1.0
 40
1.0
 40
1.0
 40
1.0
 10
100.4555788077279
 20
96.33062092359681
 30
0.0
 10
100.4225066990462
 20
96.30762400062417
 30
0.0
 10
100.3835063719075
 20
96.2922810763901
 30
0.0
 10
100.3409983392279
 20
96.28746493424858
 30
0.0
  0
SPLINE
  5
1FF
330
1F
100
AcDbEntity
  8
0
  6
Continuous
 62
     7
370
    15
100
AcDbSpline
210
0.0
220
0.0
230
1.0
 70
     8
 71
     3
 72
     8
 73
     4
 74
     0
 42
0.00000001
 43
0.00000001
 12
1.0
 22
0.0
 32
0.0
 13
1.0
 23
0.0
 33
0.0
 40
0.0
 40
0.0
 40
0.0
 40
0.0
 40
1.0
 40
1.0
 40
1.0
 40
1.0
 10
70.2832058175151
 20
189.1916365530869
 30
0.0
 10
70.24293266738222
 20
189.1908021568447
 30
0.0
 10
70.20236239534717
 20
189.1802910261668
 30
0.0
 10
70.16514181718817
 20
189.1592017722936
 30
0.0
  0
ARC
  5
200
330
1F
100
AcDbEntity
  8
0
  6
Continuous
 62
     7
370
    15
100
AcDbCircle
 10
71.3396187845
 20
138.2025789854
 30
0.0
 40
50.99999999999999
100
AcDbArc
 50
88.8130914957
 51
91.1869085043
  0
SPLINE
  5
201
330
1F
100
AcDbEntity
  8
0
  6
Continuous
 62
     7
370
    15
100
AcDbSpline
210
0.0
220
0.0
230
1.0
 70
     8
 71
     3
 72
     8
 73
     4
 74
     0
 42
0.00000001
 43
0.00000001
 12
1.0
 22
0.0
 32
0.0
 13
1.0
 23
0.0
 33
0.0
 40
0.0
 40
0.0
 40
0.0
 40
0.0
 40
1.0
 40
1.0
 40
1.0
 40
1.0
 10
72.39603175154579
 20
189.1916365530869
 30
0.0
 10
72.4363049016787
 20
189.1908021568447
 30
0.0
 10
72.4768751737138
 20
189.1802910261668
 30
0.0
 10
72.51409575187277
 20
189.1592017722936
 30
0.0
  0
SPLINE
  5
202
330
1F
100
AcDbEntity
  8
0
  6
Continuous
 62
     7
370
    15
100
AcDbSpline
210
0.0
220
0.0
230
1.0
 70
     8
 71
     3
 72
     8
 73
     4
 74
     0
 42
0.00000001
 43
0.00000001
 12
1.0
 22
0.0
 32
0.0
 13
1.0
 23
0.0
 33
0.0
 40
0.0
 40
0.0
 40
0.0
 40
0.0
 40
1.0
 40
1.0
 40
1.0
 40
1.0
 10
82.97416776570672
 20
88.54739526801971
 30
0.0
 10
83.01338737015544
 20
88.55658468944202
 30
0.0
 10
83.05088569745024
 20
88.57530116055007
 30
0.0
 10
83.08290821424349
 20
88.60366815696565
 30
0.0
  0
ARC
  5
203
330
1F
100
AcDbEntity
  8
0
  6
Continuous
 62
     7
370
    15
100
AcDbCircle
 10
71.3396187845
 20
138.2025789854
 30
0.0
 40
51.0
100
AcDbArc
 50
280.8130914957
 51
283.1869085043
  0
SPLINE
  5
204
330
1F
100
AcDbEntity
  8
0
  6
Continuous
 62
     7
370
    15
100
AcDbSpline
210
0.0
220
0.0
230
1.0
 70
     8
 71
     3
 72
     8
 73
     4
 74
     0
 42
0.00000001
 43
0.00000001
 12
1.0
 22
0.0
 32
0.0
 13
1.0
 23
0.0
 33
0.0
 40
0.0
 40
0.0
 40
0.0
 40
0.0
 40
1.0
 40
1.0
 40
1.0
 40
1.0
 10
80.9075121475664
 20
88.10811405567179
 30
0.0
 10
80.86794558167098
 20
88.10055695961816
 30
0.0
 10
80.82607648045251
 20
88.10240336301331
 30
0.0
 10
80.7852845587975
 20
88.1152931727524
 30
0.0
  0
SPLINE
  5
205
330
1F
100
AcDbEntity
  8
0
  6
Continuous
 62
     7
370
    15
100
AcDbSpline
210
0.0
220
0.0
230
1.0
 70
     8
 71
     3
 72
     8
 73
     4
 74
     0
 42
0.00000001
 43
0.00000001
 12
1.0
 22
0.0
 32
0.0
 13
1.0
 23
0.0
 33
0.0
 40
0.0
 40
0.0
 40
0.0
 40
0.0
 40
1.0
 40
1.0
 40
1.0
 40
1.0
 10
42.22365876133247
 20
96.33062092359721
 30
0.0
 10
42.2567308700098
 20
96.30762400062761
 30
0.0
 10
42.29573119715287
 20
96.29228107639051
 30
0.0
 10
42.33823922983246
 20
96.28746493424897
 30
0.0
  0
ARC
  5
206
330
1F
100
AcDbEntity
  8
0
  6
Continuous
 62
     7
370
    15
100
AcDbCircle
 10
71.3396187845
 20
138.2025789854
 30
0.0
 40
51.0
100
AcDbArc
 50
232.8130914957
 51
235.1869085043
  0
SPLINE
  5
207
330
1F
100
AcDbEntity
  8
0
  6
Continuous
 62
     7
370
    15
100
AcDbSpline
210
0.0
220
0.0
230
1.0
 70
     8
 71
     3
 72
     8
 73
     4
 74
     0
 42
0.00000001
 43
0.00000001
 12
1.0
 22
0.0
 32
0.0
 13
1.0
 23
0.0
 33
0.0
 40
0.0
 40
0.0
 40
0.0
 40
0.0
 40
1.0
 40
1.0
 40
1.0
 40
1.0
 10
40.5143466745455
 20
97.57250884828156
 30
0.0
 10
40.48225545749006
 20
97.59685585272277
 30
0.0
 10
40.4556117055313
 20
97.62920614366521
 30
0.0
 10
40.43789557766874
 20
97.668145415371
 30
0.0
  0
SPLINE
  5
208
330
1F
100
AcDbEntity
  8
0
  6
Continuous
 62
     7
370
    15
100
AcDbSpline
210
0.0
220
0.0
230
1.0
 70
     8
 71
     3
 72
     8
 73
     4
 74
     0
 42
0.00000001
 43
0.00000001
 12
1.0
 22
0.0
 32
0.0
 13
1.0
 23
0.0
 33
0.0
 40
0.0
 40
0.0
 40
0.0
 40
0.0
 40
1.0
 40
1.0
 40
1.0
 40
1.0
 10
27.71000609937491
 20
111.7931697352015
 30
0.0
 10
27.73086528278305
 20
111.7587093622183
 30
0.0
 10
27.76025332499098
 20
111.7288300413352
 30
0.0
 10
27.79712744367151
 20
111.7071407020426
 30
0.0
  0
ARC
  5
209
330
1F
100
AcDbEntity
  8
0
  6
Continuous
 62
     7
370
    15
100
AcDbCircle
 10
71.3396187845
 20
138.2025789854
 30
0.0
 40
51.0
100
AcDbArc
 50
208.8130914957
 51
211.1869085043
  0
SPLINE
  5
20A
330
1F
100
AcDbEntity
  8
0
  6
Continuous
 62
     7
370
    15
100
AcDbSpline
210
0.0
220
0.0
230
1.0
 70
     8
 71
     3
 72
     8
 73
     4
 74
     0
 42
0.00000001
 43
0.00000001
 12
1.0
 22
0.0
 32
0.0
 13
1.0
 23
0.0
 33
0.0
 40
0.0
 40
0.0
 40
0.0
 40
0.0
 40
1.0
 40
1.0
 40
1.0
 40
1.0
 10
26.65359313235956
 20
113.6229306678467
 30
0.0
 10
26.63417916563945
 20
113.6582254370662
 30
0.0
 10
26.62299693580768
 20
113.698615888633
 30
0.0
 10
26.62265047632926
 20
113.7413944817989
 30
0.0
  0
SPLINE
  5
20B
330
1F
100
AcDbEntity
  8
0
  6
Continuous
 62
     7
370
    15
100
AcDbSpline
210
0.0
220
0.0
230
1.0
 70
     8
 71
     3
 72
     8
 73
     4
 74
     0
 42
0.00000001
 43
0.00000001
 12
1.0
 22
0.0
 32
0.0
 13
1.0
 23
0.0
 33
0.0
 40
0.0
 40
0.0
 40
0.0
 40
0.0
 40
1.0
 40
1.0
 40
1.0
 40
1.0
 10
22.51969376512664
 20
152.9543558647844
 30
0.0
 10
22.50804223530702
 20
152.9157959803173
 30
0.0
 10
22.50550201110146
 20
152.8739632407036
 30
0.0
 10
22.51405729222979
 20
152.8320474294597
 30
0.0
  0
ARC
  5
20C
330
1F
100
AcDbEntity
  8
0
  6
Continuous
 62
     7
370
    15
100
AcDbCircle
 10
71.3396187845
 20
138.2025789854
 30
0.0
 40
50.99999999999999
100
AcDbArc
 50
160.8130914957
 51
163.1869085043
  0
SPLINE
  5
20D
330
1F
100
AcDbEntity
  8
0
  6
Continuous
 62
     7
370
    15
100
AcDbSpline
210
0.0
220
0.0
230
1.0
 70
     8
 71
     3
 72
     8
 73
     4
 74
     0
 42
0.00000001
 43
0.00000001
 12
1.0
 22
0.0
 32
0.0
 13
1.0
 23
0.0
 33
0.0
 40
0.0
 40
0.0
 40
0.0
 40
0.0
 40
1.0
 40
1.0
 40
1.0
 40
1.0
 10
23.17259288489829
 20
154.9637727371418
 30
0.0
 10
23.18583153068092
 20
155.0018169363636
 30
0.0
 10
23.20836511353976
 20
155.0371534399657
 30
0.0
 10
23.23992397705128
 20
155.0660353755186
 30
0.0
  0
SPLINE
  5
20E
330
1F
100
AcDbEntity
  8
0
  6
Continuous
 62
     7
370
    15
100
AcDbSpline
210
0.0
220
0.0
230
1.0
 70
     8
 71
     3
 72
     8
 73
     4
 74
     0
 42
0.00000001
 43
0.00000001
 12
1.0
 22
0.0
 32
0.0
 13
1.0
 23
0.0
 33
0.0
 40
0.0
 40
0.0
 40
0.0
 40
0.0
 40
1.0
 40
1.0
 40
1.0
 40
1.0
 10
32.74048624793475
 20
171.5358501633216
 30
0.0
 10
32.71415832781206
 20
171.5053630601266
 30
0.0
 10
32.69482280946236
 20
171.4681801531561
 30
0.0
 10
32.68558975131887
 20
171.4264084078641
 30
0.0
  0
ARC
  5
20F
330
1F
100
AcDbEntity
  8
0
  6
Continuous
 62
     7
370
    15
100
AcDbCircle
 10
71.3396187845
 20
138.2025789854
 30
0.0
 40
51.0
100
AcDbArc
 50
136.8130914957
 51
139.1869085042
  0
SPLINE
  5
210
330
1F
100
AcDbEntity
  8
0
  6
Continuous
 62
     7
370
    15
100
AcDbSpline
210
0.0
220
0.0
230
1.0
 70
     8
 71
     3
 72
     8
 73
     4
 74
     0
 42
0.00000001
 43
0.00000001
 12
1.0
 22
0.0
 32
0.0
 13
1.0
 23
0.0
 33
0.0
 40
0.0
 40
0.0
 40
0.0
 40
0.0
 40
1.0
 40
1.0
 40
1.0
 40
1.0
 10
34.15424274630346
 20
173.1059858233309
 30
0.0
 10
34.18181082091672
 20
173.1353562863892
 30
0.0
 10
34.21676892402183
 20
173.1584725548814
 30
0.0
 10
34.25734672194345
 20
173.1720213697097
 30
0.0
  0
SPLINE
  5
211
330
1F
100
AcDbEntity
  8
0
  6
Continuous
 62
     7
370
    15
100
AcDbSpline
210
0.0
220
0.0
230
1.0
 70
     8
 71
     3
 72
     8
 73
     4
 74
     0
 42
0.00000001
 43
0.00000001
 12
1.0
 22
0.0
 32
0.0
 13
1.0
 23
0.0
 33
0.0
 40
0.0
 40
0.0
 40
0.0
 40
0.0
 40
1.0
 40
1.0
 40
1.0
 40
1.0
 10
61.77172542149386
 20
88.10811405567193
 30
0.0
 10
61.81129198740465
 20
88.10055695961536
 30
0.0
 10
61.85316108860772
 20
88.10240336301342
 30
0.0
 10
61.89395301026271
 20
88.1152931727525
 30
0.0
  0
ARC
  5
212
330
1F
100
AcDbEntity
  8
0
  6
Continuous
 62
     7
370
    15
100
AcDbCircle
 10
71.3396187845
 20
138.2025789854
 30
0.0
 40
50.99999999999999
100
AcDbArc
 50
256.8130914957
 51
259.1869085043
  0
SPLINE
  5
213
330
1F
100
AcDbEntity
  8
0
  6
Continuous
 62
     7
370
    15
100
AcDbSpline
210
0.0
220
0.0
230
1.0
 70
     8
 71
     3
 72
     8
 73
     4
 74
     0
 42
0.00000001
 43
0.00000001
 12
1.0
 22
0.0
 32
0.0
 13
1.0
 23
0.0
 33
0.0
 40
0.0
 40
0.0
 40
0.0
 40
0.0
 40
1.0
 40
1.0
 40
1.0
 40
1.0
 10
59.70506980335357
 20
88.54739526801987
 30
0.0
 10
59.66585019891277
 20
88.55658468944033
 30
0.0
 10
59.62835187161001
 20
88.57530116055027
 30
0.0
 10
59.59632935481674
 20
88.60366815696587
 30
0.0
  0
SPLINE
  5
214
330
1F
100
AcDbEntity
  8
0
  6
Continuous
 62
     7
370
    15
100
AcDbSpline
210
0.0
220
0.0
230
1.0
 70
     8
 71
     3
 72
     8
 73
     4
 74
     0
 42
0.00000001
 43
0.00000001
 12
1.0
 22
0.0
 32
0.0
 13
1.0
 23
0.0
 33
0.0
 40
0.0
 40
0.0
 40
0.0
 40
0.0
 40
1.0
 40
1.0
 40
1.0
 40
1.0
 10
20.74030983326878
 20
131.8221453281123
 30
0.0
 10
20.74534934909399
 20
131.782180016677
 30
0.0
 10
20.76004364688979
 20
131.7429307051637
 30
0.0
 10
20.78490798146056
 20
131.7081184525251
 30
0.0
  0
ARC
  5
215
330
1F
100
AcDbEntity
  8
0
  6
Continuous
 62
     7
370
    15
100
AcDbCircle
 10
71.3396187845
 20
138.2025789854
 30
0.0
 40
51.00000000000001
100
AcDbArc
 50
184.8130914957
 51
187.1869085043
  0
SPLINE
  5
216
330
1F
100
AcDbEntity
  8
0
  6
Continuous
 62
     7
370
    15
100
AcDbSpline
210
0.0
220
0.0
230
1.0
 70
     8
 71
     3
 72
     8
 73
     4
 74
     0
 42
0.00000001
 43
0.00000001
 12
1.0
 22
0.0
 32
0.0
 13
1.0
 23
0.0
 33
0.0
 40
0.0
 40
0.0
 40
0.0
 40
0.0
 40
1.0
 40
1.0
 40
1.0
 40
1.0
 10
20.51945938523252
 20
133.9233969806078
 30
0.0
 10
20.51607952007135
 20
133.9635367283557
 30
0.0
 10
20.52229232148452
 20
134.0049834645443
 30
0.0
 10
20.53937543638153
 20
134.0442045717805
 30
0.0
  0
LINE
  5
217
330
1F
100
AcDbEntity
  8
0
  6
Continuous
 62
     7
370
    15
100
AcDbLine
 10
156.2410665517
 20
129.5512590942
 30
0.0
 11
156.4910670583
 21
129.8012596008
 31
0.0
  0
LINE
  5
218
330
1F
100
AcDbEntity
  8
0
  6
Continuous
 62
     7
370
    15
100
AcDbLine
 10
140.4910662983
 20
129.8012596008
 30
0.0
 11
140.7410663102
 21
129.5512590942
 31
0.0
  0
LINE
  5
219
330
1F
100
AcDbEntity
  8
0
  6
Continuous
 62
     7
370
    15
100
AcDbLine
 10
140.7410663102
 20
129.5512590942
 30
0.0
 11
156.2410665517
 21
129.5512590942
 31
0.0
  0
LINE
  5
21A
330
1F
100
AcDbEntity
  8
0
  6
Continuous
 62
     7
370
    15
100
AcDbLine
 10
140.7410663102
 20
156.01633791
 30
0.0
 11
140.4910662983
 21
155.7663374033
 31
0.0
  0
LINE
  5
21B
330
1F
100
AcDbEntity
  8
0
  6
Continuous
 62
     7
370
    15
100
AcDbLine
 10
156.4910670583
 20
155.7663374033
 30
0.0
 11
156.2410665517
 21
156.01633791
 31
0.0
  0
LINE
  5
21C
330
1F
100
AcDbEntity
  8
0
  6
Continuous
 62
     7
370
    15
100
AcDbLine
 10
156.2410665517
 20
156.01633791
 30
0.0
 11
140.7410663102
 21
156.01633791
 31
0.0
  0
LINE
  5
21D
330
1F
100
AcDbEntity
  8
0
  6
Continuous
 62
     7
370
    15
100
AcDbLine
 10
156.2410665517
 20
111.4804719028
 30
0.0
 11
156.4910670583
 21
111.7304724094
 31
0.0
  0
LINE
  5
21E
330
1F
100
AcDbEntity
  8
0
  6
Continuous
 62
     7
370
    15
100
AcDbLine
 10
140.4910662983
 20
111.7304724094
 30
0.0
 11
140.7410663102
 21
111.4804719028
 31
0.0
  0
LINE
  5
21F
330
1F
100
AcDbEntity
  8
0
  6
Continuous
 62
     7
370
    15
100
AcDbLine
 10
140.7410663102
 20
111.4804719028
 30
0.0
 11
156.2410665517
 21
111.4804719028
 31
0.0
  0
LINE
  5
220
330
1F
100
AcDbEntity
  8
0
  6
Continuous
 62
     7
370
    15
100
AcDbLine
 10
156.2419513081
 20
173.1848914561
 30
0.0
 11
140.7404640064
 21
173.1848914561
 31
0.0
  0
LINE
  5
221
330
1F
100
AcDbEntity
  8
0
  6
Continuous
 62
     7
370
    15
100
AcDbLine
 10
140.7336030549
 20
96.2858770427
 30
0.0
 11
156.2488039796
 21
96.2858770427
 31
0.0
  0
LINE
  5
222
330
1F
100
AcDbEntity
  8
0
  6
Continuous
 62
     7
370
    15
100
AcDbLine
 10
156.2342027043
 20
185.2326404688
 30
0.0
 11
140.7479307688
 21
185.2326404688
 31
0.0
  0
LINE
  5
223
330
1F
100
AcDbEntity
  8
0
  6
Continuous
 62
     7
370
    15
100
AcDbLine
 10
140.7989427695
 20
88.1036755082
 30
0.0
 11
156.1833916073
 21
88.1036755082
 31
0.0
  0
ARC
  5
224
330
1F
100
AcDbEntity
  8
0
  6
Continuous
 62
     7
370
    15
100
AcDbCircle
 10
140.8446196889
 20
188.9525789854
 30
0.0
 40
0.250000000000002
100
AcDbArc
 50
90.0
 51
135.0
  0
ARC
  5
225
330
1F
100
AcDbEntity
  8
0
  6
Continuous
 62
     7
370
    15
100
AcDbCircle
 10
156.1375129077
 20
188.9525789854
 30
0.0
 40
0.25
100
AcDbArc
 50
45.0
 51
90.0
  0
LINE
  5
226
330
1F
100
AcDbEntity
  8
0
  6
Continuous
 62
     7
370
    15
100
AcDbLine
 10
140.6678429936
 20
189.1293574509
 30
0.0
 11
140.4910662983
 21
188.9525775251
 31
0.0
  0
LINE
  5
227
330
1F
100
AcDbEntity
  8
0
  6
Continuous
 62
     7
370
    15
100
AcDbLine
 10
156.4910670583
 20
188.9525775251
 30
0.0
 11
156.3142889951
 21
189.1293574509
 31
0.0
  0
LINE
  5
228
330
1F
100
AcDbEntity
  8
0
  6
Continuous
 62
     7
370
    15
100
AcDbLine
 10
156.1375127946
 20
189.2025780317
 30
0.0
 11
140.8446196889
 21
189.2025780317
 31
0.0
  0
SPLINE
  5
229
330
1F
100
AcDbEntity
  8
0
  6
Continuous
 62
     7
370
    15
100
AcDbSpline
210
0.0
220
0.0
230
1.0
 70
     8
 71
     3
 72
     8
 73
     4
 74
     0
 42
0.00000001
 43
0.00000001
 12
1.0
 22
0.0
 32
0.0
 13
1.0
 23
0.0
 33
0.0
 40
0.0
 40
0.0
 40
0.0
 40
0.0
 40
1.0
 40
1.0
 40
1.0
 40
1.0
 10
140.72616573773
 20
134.0442045717792
 30
0.0
 10
140.7356268147102
 20
134.0699646796529
 30
0.0
 10
140.7410662983446
 20
134.0951339263233
 30
0.0
 10
140.7410662983447
 20
134.1168533605886
 30
0.0
  0
LINE
  5
22A
330
1F
100
AcDbEntity
  8
0
  6
Continuous
 62
     7
370
    15
100
AcDbLine
 10
140.7410663102
 20
134.1168533464
 30
0.0
 11
156.2410665517
 21
134.1168533464
 31
0.0
  0
SPLINE
  5
22B
330
1F
100
AcDbEntity
  8
0
  6
Continuous
 62
     7
370
    15
100
AcDbSpline
210
0.0
220
0.0
230
1.0
 70
     8
 71
     3
 72
     8
 73
     4
 74
     0
 42
0.00000001
 43
0.00000001
 12
1.0
 22
0.0
 32
0.0
 13
1.0
 23
0.0
 33
0.0
 40
0.0
 40
0.0
 40
0.0
 40
0.0
 40
1.0
 40
1.0
 40
1.0
 40
1.0
 10
156.2410662983426
 20
134.1168533605875
 30
0.0
 10
156.2410662983426
 20
134.0951022879754
 30
0.0
 10
156.2464421528992
 20
134.0701379254535
 30
0.0
 10
156.2559668589552
 20
134.0442045717793
 30
0.0
  0
SPLINE
  5
22C
330
1F
100
AcDbEntity
  8
0
  6
Continuous
 62
     7
370
    15
100
AcDbSpline
210
0.0
220
0.0
230
1.0
 70
     8
 71
     3
 72
     8
 73
     4
 74
     0
 42
0.00000001
 43
0.00000001
 12
1.0
 22
0.0
 32
0.0
 13
1.0
 23
0.0
 33
0.0
 40
0.0
 40
0.0
 40
0.0
 40
0.0
 40
1.0
 40
1.0
 40
1.0
 40
1.0
 10
156.1375129077493
 20
133.9233969806078
 30
0.0
 10
156.1776958534351
 20
133.9635367283558
 30
0.0
 10
156.2183752432259
 20
134.0049834645443
 30
0.0
 10
156.2559668589537
 20
134.0442045717805
 30
0.0
  0
LINE
  5
22D
330
1F
100
AcDbEntity
  8
0
  6
Continuous
 62
     7
370
    15
100
AcDbLine
 10
156.1375127946
 20
133.9233971585
 30
0.0
 11
140.8446196889
 21
133.9233971585
 31
0.0
  0
SPLINE
  5
22E
330
1F
100
AcDbEntity
  8
0
  6
Continuous
 62
     7
370
    15
100
AcDbSpline
210
0.0
220
0.0
230
1.0
 70
     8
 71
     3
 72
     8
 73
     4
 74
     0
 42
0.00000001
 43
0.00000001
 12
1.0
 22
0.0
 32
0.0
 13
1.0
 23
0.0
 33
0.0
 40
0.0
 40
0.0
 40
0.0
 40
0.0
 40
1.0
 40
1.0
 40
1.0
 40
1.0
 10
140.8446196889359
 20
133.9233969806078
 30
0.0
 10
140.8044367432604
 20
133.963536728366
 30
0.0
 10
140.7637573534593
 20
134.0049834645442
 30
0.0
 10
140.7261657377315
 20
134.0442045717804
 30
0.0
  0
SPLINE
  5
22F
330
1F
100
AcDbEntity
  8
0
  6
Continuous
 62
     7
370
    15
100
AcDbSpline
210
0.0
220
0.0
230
1.0
 70
     8
 71
     3
 72
     8
 73
     4
 74
     0
 42
0.00000001
 43
0.00000001
 12
1.0
 22
0.0
 32
0.0
 13
1.0
 23
0.0
 33
0.0
 40
0.0
 40
0.0
 40
0.0
 40
0.0
 40
1.0
 40
1.0
 40
1.0
 40
1.0
 10
140.6678429936392
 20
134.0084806268166
 30
0.0
 10
140.6868275707564
 20
134.015333988907
 30
0.0
 10
140.7065701886002
 20
134.0282370889461
 30
0.0
 10
140.7261657377298
 20
134.0442045717805
 30
0.0
  0
LINE
  5
230
330
1F
100
AcDbEntity
  8
0
  6
Continuous
 62
     7
370
    15
100
AcDbLine
 10
140.8446196889
 20
133.9233971585
 30
0.0
 11
140.8446196889
 21
131.822145303
 31
0.0
  0
SPLINE
  5
231
330
1F
100
AcDbEntity
  8
0
  6
Continuous
 62
     7
370
    15
100
AcDbSpline
210
0.0
220
0.0
230
1.0
 70
     8
 71
     3
 72
     8
 73
     4
 74
     0
 42
0.00000001
 43
0.00000001
 12
1.0
 22
0.0
 32
0.0
 13
1.0
 23
0.0
 33
0.0
 40
0.0
 40
0.0
 40
0.0
 40
0.0
 40
1.0
 40
1.0
 40
1.0
 40
1.0
 10
140.8446196889359
 20
131.8221453281123
 30
0.0
 10
140.8044667744835
 20
131.7822098852401
 30
0.0
 10
140.763862016546
 20
131.74302762991
 30
0.0
 10
140.7261657377319
 20
131.7081184525256
 30
0.0
  0
SPLINE
  5
232
330
1F
100
AcDbEntity
  8
0
  6
Continuous
 62
     7
370
    15
100
AcDbSpline
210
0.0
220
0.0
230
1.0
 70
     8
 71
     3
 72
     8
 73
     4
 74
     0
 42
0.00000001
 43
0.00000001
 12
1.0
 22
0.0
 32
0.0
 13
1.0
 23
0.0
 33
0.0
 40
0.0
 40
0.0
 40
0.0
 40
0.0
 40
1.0
 40
1.0
 40
1.0
 40
1.0
 10
140.7261657377348
 20
131.708118452521
 30
0.0
 10
140.7067581094682
 20
131.7260346866367
 30
0.0
 10
140.6867265082151
 20
131.7419976207858
 30
0.0
 10
140.6678429936392
 20
131.7527221413
 30
0.0
  0
LINE
  5
233
330
1F
100
AcDbEntity
  8
0
  6
Continuous
 62
     7
370
    15
100
AcDbLine
 10
140.6678429936
 20
131.75272219
 30
0.0
 11
140.6678429936
 21
134.0084804606
 31
0.0
  0
SPLINE
  5
234
330
1F
100
AcDbEntity
  8
0
  6
Continuous
 62
     7
370
    15
100
AcDbSpline
210
0.0
220
0.0
230
1.0
 70
     8
 71
     3
 72
     8
 73
     4
 74
     0
 42
0.00000001
 43
0.00000001
 12
1.0
 22
0.0
 32
0.0
 13
1.0
 23
0.0
 33
0.0
 40
0.0
 40
0.0
 40
0.0
 40
0.0
 40
1.0
 40
1.0
 40
1.0
 40
1.0
 10
156.1375129077493
 20
131.8221453281123
 30
0.0
 10
156.1776958534339
 20
131.782180016677
 30
0.0
 10
156.2183752432258
 20
131.7429307051637
 30
0.0
 10
156.2559668589536
 20
131.7081184525252
 30
0.0
  0
LINE
  5
235
330
1F
100
AcDbEntity
  8
0
  6
Continuous
 62
     7
370
    15
100
AcDbLine
 10
156.1375127946
 20
131.822145303
 30
0.0
 11
156.1375127946
 21
133.9233971585
 31
0.0
  0
SPLINE
  5
236
330
1F
100
AcDbEntity
  8
0
  6
Continuous
 62
     7
370
    15
100
AcDbSpline
210
0.0
220
0.0
230
1.0
 70
     8
 71
     3
 72
     8
 73
     4
 74
     0
 42
0.00000001
 43
0.00000001
 12
1.0
 22
0.0
 32
0.0
 13
1.0
 23
0.0
 33
0.0
 40
0.0
 40
0.0
 40
0.0
 40
0.0
 40
1.0
 40
1.0
 40
1.0
 40
1.0
 10
156.2559668589553
 20
134.0442045717802
 30
0.0
 10
156.2753744872203
 20
134.028390216738
 30
0.0
 10
156.2954060884717
 20
134.015297505703
 30
0.0
 10
156.3142896030459
 20
134.0084806268167
 30
0.0
  0
LINE
  5
237
330
1F
100
AcDbEntity
  8
0
  6
Continuous
 62
     7
370
    15
100
AcDbLine
 10
156.3142889951
 20
134.0084804606
 30
0.0
 11
156.3142889951
 21
131.75272219
 31
0.0
  0
SPLINE
  5
238
330
1F
100
AcDbEntity
  8
0
  6
Continuous
 62
     7
370
    15
100
AcDbSpline
210
0.0
220
0.0
230
1.0
 70
     8
 71
     3
 72
     8
 73
     4
 74
     0
 42
0.00000001
 43
0.00000001
 12
1.0
 22
0.0
 32
0.0
 13
1.0
 23
0.0
 33
0.0
 40
0.0
 40
0.0
 40
0.0
 40
0.0
 40
1.0
 40
1.0
 40
1.0
 40
1.0
 10
156.3142896030459
 20
131.7527221413
 30
0.0
 10
156.2953050259288
 20
131.7419402243042
 30
0.0
 10
156.2755624080849
 20
131.7262081665799
 30
0.0
 10
156.2559668589554
 20
131.7081184525254
 30
0.0
  0
LINE
  5
239
330
1F
100
AcDbEntity
  8
0
  6
Continuous
 62
     7
370
    15
100
AcDbLine
 10
140.8446196889
 20
131.822145303
 30
0.0
 11
156.1375127946
 21
131.822145303
 31
0.0
  0
LINE
  5
23A
330
1F
100
AcDbEntity
  8
0
  6
Continuous
 62
     7
370
    15
100
AcDbLine
 10
140.4910662983
 20
133.9443733369
 30
0.0
 11
140.4910662983
 21
137.5234457583
 31
0.0
  0
LINE
  5
23B
330
1F
100
AcDbEntity
  8
0
  6
Continuous
 62
     7
370
    15
100
AcDbLine
 10
140.4910662983
 20
137.5234457583
 30
0.0
 11
140.7410663102
 21
137.7720762312
 31
0.0
  0
LINE
  5
23C
330
1F
100
AcDbEntity
  8
0
  6
Continuous
 62
     7
370
    15
100
AcDbLine
 10
140.7410663102
 20
137.7720762312
 30
0.0
 11
140.7410663102
 21
134.1168533464
 31
0.0
  0
SPLINE
  5
23D
330
1F
100
AcDbEntity
  8
0
  6
Continuous
 62
     7
370
    15
100
AcDbSpline
210
0.0
220
0.0
230
1.0
 70
     8
 71
     3
 72
     8
 73
     4
 74
     0
 42
0.00000001
 43
0.00000001
 12
1.0
 22
0.0
 32
0.0
 13
1.0
 23
0.0
 33
0.0
 40
0.0001085338104882
 40
0.0001085338104882
 40
0.0001085338104882
 40
0.0001085338104882
 40
0.0003707418624266
 40
0.0003707418624266
 40
0.0003707418624266
 40
0.0003707418624266
 10
140.6678429936392
 20
134.0084806268166
 30
0.0
 10
140.6088880071901
 20
133.9871980948606
 30
0.0
 10
140.5499620796752
 20
133.9658298567662
 30
0.0
 10
140.4910662983426
 20
133.9443733629842
 30
0.0
  0
LINE
  5
23E
330
1F
100
AcDbEntity
  8
0
  6
Continuous
 62
     7
370
    15
100
AcDbLine
 10
156.2410665517
 20
134.1168533464
 30
0.0
 11
156.2410665517
 21
137.7720762312
 31
0.0
  0
LINE
  5
23F
330
1F
100
AcDbEntity
  8
0
  6
Continuous
 62
     7
370
    15
100
AcDbLine
 10
156.2410665517
 20
137.7720762312
 30
0.0
 11
156.4910670583
 21
137.5234457583
 31
0.0
  0
LINE
  5
240
330
1F
100
AcDbEntity
  8
0
  6
Continuous
 62
     7
370
    15
100
AcDbLine
 10
156.4910670583
 20
137.5234457583
 30
0.0
 11
156.4910670583
 21
133.9443733369
 31
0.0
  0
SPLINE
  5
241
330
1F
100
AcDbEntity
  8
0
  6
Continuous
 62
     7
370
    15
100
AcDbSpline
210
0.0
220
0.0
230
1.0
 70
     8
 71
     3
 72
     8
 73
     4
 74
     0
 42
0.00000001
 43
0.00000001
 12
1.0
 22
0.0
 32
0.0
 13
1.0
 23
0.0
 33
0.0
 40
0.0001085338104882
 40
0.0001085338104882
 40
0.0001085338104882
 40
0.0001085338104882
 40
0.0003707418624266
 40
0.0003707418624266
 40
0.0003707418624266
 40
0.0003707418624266
 10
156.3142896030459
 20
134.0084806268166
 30
0.0
 10
156.373244589495
 20
133.9871980948606
 30
0.0
 10
156.43217051701
 20
133.9658298567662
 30
0.0
 10
156.4910662983426
 20
133.9443733629842
 30
0.0
  0
LINE
  5
242
330
1F
100
AcDbEntity
  8
0
  6
Continuous
 62
     7
370
    15
100
AcDbLine
 10
140.4910662983
 20
131.853421909
 30
0.0
 11
140.4910662983
 21
133.9443733369
 31
0.0
  0
SPLINE
  5
243
330
1F
100
AcDbEntity
  8
0
  6
Continuous
 62
     7
370
    15
100
AcDbSpline
210
0.0
220
0.0
230
1.0
 70
     8
 71
     3
 72
     8
 73
     4
 74
     0
 42
0.00000001
 43
0.00000001
 12
1.0
 22
0.0
 32
0.0
 13
1.0
 23
0.0
 33
0.0
 40
0.0001085338104882
 40
0.0001085338104882
 40
0.0001085338104882
 40
0.0001085338104882
 40
0.0003707418624266
 40
0.0003707418624266
 40
0.0003707418624266
 40
0.0003707418624266
 10
140.6678429936392
 20
131.7527221413
 30
0.0
 10
140.6088880071901
 20
131.7862044657392
 30
0.0
 10
140.5499620796752
 20
131.8197702598451
 30
0.0
 10
140.4910662983426
 20
131.8534219636872
 30
0.0
  0
LINE
  5
244
330
1F
100
AcDbEntity
  8
0
  6
Continuous
 62
     7
370
    15
100
AcDbLine
 10
156.4910670583
 20
133.9443733369
 30
0.0
 11
156.4910670583
 21
131.853421909
 31
0.0
  0
SPLINE
  5
245
330
1F
100
AcDbEntity
  8
0
  6
Continuous
 62
     7
370
    15
100
AcDbSpline
210
0.0
220
0.0
230
1.0
 70
     8
 71
     3
 72
     8
 73
     4
 74
     0
 42
0.00000001
 43
0.00000001
 12
1.0
 22
0.0
 32
0.0
 13
1.0
 23
0.0
 33
0.0
 40
0.0001085338104882
 40
0.0001085338104882
 40
0.0001085338104882
 40
0.0001085338104882
 40
0.0003707418624266
 40
0.0003707418624266
 40
0.0003707418624266
 40
0.0003707418624266
 10
156.3142896030459
 20
131.7527221413
 30
0.0
 10
156.373244589495
 20
131.7862044657392
 30
0.0
 10
156.43217051701
 20
131.8197702598451
 30
0.0
 10
156.4910662983426
 20
131.8534219636872
 30
0.0
  0
LINE
  5
246
330
1F
100
AcDbEntity
  8
0
  6
Continuous
 62
     7
370
    15
100
AcDbLine
 10
156.2410665517
 20
137.7720762312
 30
0.0
 11
140.7410663102
 21
137.7720762312
 31
0.0
  0
SPLINE
  5
247
330
1F
100
AcDbEntity
  8
0
  6
Continuous
 62
     7
370
    15
100
AcDbSpline
210
0.0
220
0.0
230
1.0
 70
     8
 71
     3
 72
     8
 73
     4
 74
     0
 42
0.00000001
 43
0.00000001
 12
1.0
 22
0.0
 32
0.0
 13
1.0
 23
0.0
 33
0.0
 40
0.0
 40
0.0
 40
0.0
 40
0.0
 40
1.0
 40
1.0
 40
1.0
 40
1.0
 10
140.7410662983426
 20
131.6470849964796
 30
0.0
 10
140.7410662983426
 20
131.664050645897
 30
0.0
 10
140.7356904437865
 20
131.6851002737041
 30
0.0
 10
140.7261657377316
 20
131.7081184525224
 30
0.0
  0
SPLINE
  5
248
330
1F
100
AcDbEntity
  8
0
  6
Continuous
 62
     7
370
    15
100
AcDbSpline
210
0.0
220
0.0
230
1.0
 70
     8
 71
     3
 72
     8
 73
     4
 74
     0
 42
0.00000001
 43
0.00000001
 12
1.0
 22
0.0
 32
0.0
 13
1.0
 23
0.0
 33
0.0
 40
0.0
 40
0.0
 40
0.0
 40
0.0
 40
1.0
 40
1.0
 40
1.0
 40
1.0
 10
156.2559668589552
 20
131.7081184525263
 30
0.0
 10
156.246505781975
 20
131.6852540449027
 30
0.0
 10
156.2410662983405
 20
131.6640259682584
 30
0.0
 10
156.2410662983405
 20
131.6470849964783
 30
0.0
  0
LINE
  5
249
330
1F
100
AcDbEntity
  8
0
  6
Continuous
 62
     7
370
    15
100
AcDbLine
 10
156.2410665517
 20
131.6470850643
 30
0.0
 11
140.7410663102
 21
131.6470850643
 31
0.0
  0
LINE
  5
24A
330
1F
100
AcDbEntity
  8
0
  6
Continuous
 62
     7
370
    15
100
AcDbLine
 10
156.2410665517
 20
129.5512590942
 30
0.0
 11
156.2410665517
 21
131.6470850643
 31
0.0
  0
LINE
  5
24B
330
1F
100
AcDbEntity
  8
0
  6
Continuous
 62
     7
370
    15
100
AcDbLine
 10
156.4910670583
 20
131.853421909
 30
0.0
 11
156.4910670583
 21
129.8012596008
 31
0.0
  0
LINE
  5
24C
330
1F
100
AcDbEntity
  8
0
  6
Continuous
 62
     7
370
    15
100
AcDbLine
 10
140.7410663102
 20
131.6470850643
 30
0.0
 11
140.7410663102
 21
129.5512590942
 31
0.0
  0
LINE
  5
24D
330
1F
100
AcDbEntity
  8
0
  6
Continuous
 62
     7
370
    15
100
AcDbLine
 10
140.4910662983
 20
129.8012596008
 30
0.0
 11
140.4910662983
 21
131.853421909
 31
0.0
  0
LINE
  5
24E
330
1F
100
AcDbEntity
  8
0
  6
Continuous
 62
     7
370
    15
100
AcDbLine
 10
140.4910662983
 20
147.8681156796
 30
0.0
 11
140.7410663102
 21
147.6303518203
 31
0.0
  0
SPLINE
  5
24F
330
1F
100
AcDbEntity
  8
0
  6
Continuous
 62
     7
370
    15
100
AcDbSpline
210
0.0
220
0.0
230
1.0
 70
     8
 71
     3
 72
     8
 73
     4
 74
     0
 42
0.00000001
 43
0.00000001
 12
1.0
 22
0.0
 32
0.0
 13
1.0
 23
0.0
 33
0.0
 40
0.0001085338104882
 40
0.0001085338104882
 40
0.0001085338104882
 40
0.0001085338104882
 40
0.0003707418624266
 40
0.0003707418624266
 40
0.0003707418624266
 40
0.0003707418624266
 10
140.6678429936392
 20
152.8573303227951
 30
0.0
 10
140.6088880071901
 20
152.8654829134966
 30
0.0
 10
140.5499620796752
 20
152.8737197010386
 30
0.0
 10
140.4910662983426
 20
152.8820432330227
 30
0.0
  0
SPLINE
  5
250
330
1F
100
AcDbEntity
  8
0
  6
Continuous
 62
     7
370
    15
100
AcDbSpline
210
0.0
220
0.0
230
1.0
 70
     8
 71
     3
 72
     8
 73
     4
 74
     0
 42
0.00000001
 43
0.00000001
 12
1.0
 22
0.0
 32
0.0
 13
1.0
 23
0.0
 33
0.0
 40
0.0
 40
0.0
 40
0.0
 40
0.0
 40
1.0
 40
1.0
 40
1.0
 40
1.0
 10
140.7261657377348
 20
152.8320474294566
 30
0.0
 10
140.7067581094682
 20
152.8450687422278
 30
0.0
 10
140.6867265082151
 20
152.8547190158538
 30
0.0
 10
140.6678429936392
 20
152.8573303227951
 30
0.0
  0
SPLINE
  5
251
330
1F
100
AcDbEntity
  8
0
  6
Continuous
 62
     7
370
    15
100
AcDbSpline
210
0.0
220
0.0
230
1.0
 70
     8
 71
     3
 72
     8
 73
     4
 74
     0
 42
0.00000001
 43
0.00000001
 12
1.0
 22
0.0
 32
0.0
 13
1.0
 23
0.0
 33
0.0
 40
0.0
 40
0.0
 40
0.0
 40
0.0
 40
1.0
 40
1.0
 40
1.0
 40
1.0
 10
140.7410662983426
 20
152.7509584085694
 30
0.0
 10
140.7410662983426
 20
152.7765442781275
 30
0.0
 10
140.7356904437865
 20
152.8043323129268
 30
0.0
 10
140.7261657377316
 20
152.8320474294564
 30
0.0
  0
LINE
  5
252
330
1F
100
AcDbEntity
  8
0
  6
Continuous
 62
     7
370
    15
100
AcDbLine
 10
140.7410663102
 20
152.7509579819
 30
0.0
 11
140.7410663102
 21
147.6303518203
 31
0.0
  0
LINE
  5
253
330
1F
100
AcDbEntity
  8
0
  6
Continuous
 62
     7
370
    15
100
AcDbLine
 10
140.4910662983
 20
147.8681156796
 30
0.0
 11
140.4910662983
 21
152.882043497
 31
0.0
  0
SPLINE
  5
254
330
1F
100
AcDbEntity
  8
0
  6
Continuous
 62
     7
370
    15
100
AcDbSpline
210
0.0
220
0.0
230
1.0
 70
     8
 71
     3
 72
     8
 73
     4
 74
     0
 42
0.00000001
 43
0.00000001
 12
1.0
 22
0.0
 32
0.0
 13
1.0
 23
0.0
 33
0.0
 40
0.0
 40
0.0
 40
0.0
 40
0.0
 40
1.0
 40
1.0
 40
1.0
 40
1.0
 10
140.8446196889359
 20
152.9543558647845
 30
0.0
 10
140.8044667744825
 20
152.915824798511
 30
0.0
 10
140.763862016546
 20
152.8740799432741
 30
0.0
 10
140.7261657377319
 20
152.8320474294602
 30
0.0
  0
LINE
  5
255
330
1F
100
AcDbEntity
  8
0
  6
Continuous
 62
     7
370
    15
100
AcDbLine
 10
140.8446196889
 20
152.9543560383
 30
0.0
 11
156.1375127946
 21
152.9543560383
 31
0.0
  0
SPLINE
  5
256
330
1F
100
AcDbEntity
  8
0
  6
Continuous
 62
     7
370
    15
100
AcDbSpline
210
0.0
220
0.0
230
1.0
 70
     8
 71
     3
 72
     8
 73
     4
 74
     0
 42
0.00000001
 43
0.00000001
 12
1.0
 22
0.0
 32
0.0
 13
1.0
 23
0.0
 33
0.0
 40
0.0
 40
0.0
 40
0.0
 40
0.0
 40
1.0
 40
1.0
 40
1.0
 40
1.0
 10
156.1375129077493
 20
152.9543558647845
 30
0.0
 10
156.1776958534415
 20
152.9157959803173
 30
0.0
 10
156.2183752432259
 20
152.8739632407037
 30
0.0
 10
156.2559668589537
 20
152.8320474294598
 30
0.0
  0
SPLINE
  5
257
330
1F
100
AcDbEntity
  8
0
  6
Continuous
 62
     7
370
    15
100
AcDbSpline
210
0.0
220
0.0
230
1.0
 70
     8
 71
     3
 72
     8
 73
     4
 74
     0
 42
0.00000001
 43
0.00000001
 12
1.0
 22
0.0
 32
0.0
 13
1.0
 23
0.0
 33
0.0
 40
0.0
 40
0.0
 40
0.0
 40
0.0
 40
1.0
 40
1.0
 40
1.0
 40
1.0
 10
156.2559668589552
 20
152.8320474294611
 30
0.0
 10
156.246505781975
 20
152.804517461662
 30
0.0
 10
156.2410662983405
 20
152.7765070618205
 30
0.0
 10
156.2410662983405
 20
152.7509584085689
 30
0.0
  0
LINE
  5
258
330
1F
100
AcDbEntity
  8
0
  6
Continuous
 62
     7
370
    15
100
AcDbLine
 10
156.2410665517
 20
152.7509579819
 30
0.0
 11
140.7410663102
 21
152.7509579819
 31
0.0
  0
SPLINE
  5
259
330
1F
100
AcDbEntity
  8
0
  6
Continuous
 62
     7
370
    15
100
AcDbSpline
210
0.0
220
0.0
230
1.0
 70
     8
 71
     3
 72
     8
 73
     4
 74
     0
 42
0.00000001
 43
0.00000001
 12
1.0
 22
0.0
 32
0.0
 13
1.0
 23
0.0
 33
0.0
 40
0.0
 40
0.0
 40
0.0
 40
0.0
 40
1.0
 40
1.0
 40
1.0
 40
1.0
 10
140.6678429936392
 20
155.0145013381646
 30
0.0
 10
140.6868275707564
 20
155.0287405885556
 30
0.0
 10
140.7065701886002
 20
155.0466140375518
 30
0.0
 10
140.7261657377298
 20
155.0660353755183
 30
0.0
  0
SPLINE
  5
25A
330
1F
100
AcDbEntity
  8
0
  6
Continuous
 62
     7
370
    15
100
AcDbSpline
210
0.0
220
0.0
230
1.0
 70
     8
 71
     3
 72
     8
 73
     4
 74
     0
 42
0.00000001
 43
0.00000001
 12
1.0
 22
0.0
 32
0.0
 13
1.0
 23
0.0
 33
0.0
 40
0.0
 40
0.0
 40
0.0
 40
0.0
 40
1.0
 40
1.0
 40
1.0
 40
1.0
 10
140.8446196889359
 20
154.9637727371418
 30
0.0
 10
140.8044367432586
 20
155.0018169363856
 30
0.0
 10
140.7637573534593
 20
155.0371534399658
 30
0.0
 10
140.7261657377315
 20
155.0660353755186
 30
0.0
  0
LINE
  5
25B
330
1F
100
AcDbEntity
  8
0
  6
Continuous
 62
     7
370
    15
100
AcDbLine
 10
140.8446196889
 20
154.9637720373
 30
0.0
 11
140.8446196889
 21
152.9543560383
 31
0.0
  0
LINE
  5
25C
330
1F
100
AcDbEntity
  8
0
  6
Continuous
 62
     7
370
    15
100
AcDbLine
 10
140.6678429936
 20
152.8573299211
 30
0.0
 11
140.6678429936
 21
155.014501178
 31
0.0
  0
LINE
  5
25D
330
1F
100
AcDbEntity
  8
0
  6
Continuous
 62
     7
370
    15
100
AcDbLine
 10
156.1375127946
 20
152.9543560383
 30
0.0
 11
156.1375127946
 21
154.9637720373
 31
0.0
  0
SPLINE
  5
25E
330
1F
100
AcDbEntity
  8
0
  6
Continuous
 62
     7
370
    15
100
AcDbSpline
210
0.0
220
0.0
230
1.0
 70
     8
 71
     3
 72
     8
 73
     4
 74
     0
 42
0.00000001
 43
0.00000001
 12
1.0
 22
0.0
 32
0.0
 13
1.0
 23
0.0
 33
0.0
 40
0.0
 40
0.0
 40
0.0
 40
0.0
 40
1.0
 40
1.0
 40
1.0
 40
1.0
 10
156.1375129077493
 20
154.9637727371418
 30
0.0
 10
156.1776958534499
 20
155.0018169363637
 30
0.0
 10
156.2183752432259
 20
155.0371534399658
 30
0.0
 10
156.2559668589537
 20
155.0660353755187
 30
0.0
  0
SPLINE
  5
25F
330
1F
100
AcDbEntity
  8
0
  6
Continuous
 62
     7
370
    15
100
AcDbSpline
210
0.0
220
0.0
230
1.0
 70
     8
 71
     3
 72
     8
 73
     4
 74
     0
 42
0.00000001
 43
0.00000001
 12
1.0
 22
0.0
 32
0.0
 13
1.0
 23
0.0
 33
0.0
 40
0.0
 40
0.0
 40
0.0
 40
0.0
 40
1.0
 40
1.0
 40
1.0
 40
1.0
 10
156.2559668589553
 20
155.0660353755182
 30
0.0
 10
156.2753744872203
 20
155.0468002877352
 30
0.0
 10
156.2954060884717
 20
155.0286647872963
 30
0.0
 10
156.3142896030459
 20
155.0145013381646
 30
0.0
  0
LINE
  5
260
330
1F
100
AcDbEntity
  8
0
  6
Continuous
 62
     7
370
    15
100
AcDbLine
 10
156.3142889951
 20
155.014501178
 30
0.0
 11
156.3142889951
 21
152.8573299211
 31
0.0
  0
SPLINE
  5
261
330
1F
100
AcDbEntity
  8
0
  6
Continuous
 62
     7
370
    15
100
AcDbSpline
210
0.0
220
0.0
230
1.0
 70
     8
 71
     3
 72
     8
 73
     4
 74
     0
 42
0.00000001
 43
0.00000001
 12
1.0
 22
0.0
 32
0.0
 13
1.0
 23
0.0
 33
0.0
 40
0.0
 40
0.0
 40
0.0
 40
0.0
 40
1.0
 40
1.0
 40
1.0
 40
1.0
 10
156.3142896030459
 20
152.8573303227951
 30
0.0
 10
156.2953050259287
 20
152.8547050404196
 30
0.0
 10
156.2755624080849
 20
152.8451948254535
 30
0.0
 10
156.2559668589554
 20
152.8320474294595
 30
0.0
  0
LINE
  5
262
330
1F
100
AcDbEntity
  8
0
  6
Continuous
 62
     7
370
    15
100
AcDbLine
 10
156.2410665517
 20
147.6303518203
 30
0.0
 11
156.4910670583
 21
147.8681156796
 31
0.0
  0
LINE
  5
263
330
1F
100
AcDbEntity
  8
0
  6
Continuous
 62
     7
370
    15
100
AcDbLine
 10
156.2410665517
 20
147.6303518203
 30
0.0
 11
156.2410665517
 21
152.7509579819
 31
0.0
  0
SPLINE
  5
264
330
1F
100
AcDbEntity
  8
0
  6
Continuous
 62
     7
370
    15
100
AcDbSpline
210
0.0
220
0.0
230
1.0
 70
     8
 71
     3
 72
     8
 73
     4
 74
     0
 42
0.00000001
 43
0.00000001
 12
1.0
 22
0.0
 32
0.0
 13
1.0
 23
0.0
 33
0.0
 40
0.0001085338104882
 40
0.0001085338104882
 40
0.0001085338104882
 40
0.0001085338104882
 40
0.0003707418624266
 40
0.0003707418624266
 40
0.0003707418624266
 40
0.0003707418624266
 10
156.3142896030459
 20
152.8573303227951
 30
0.0
 10
156.373244589495
 20
152.8654829134966
 30
0.0
 10
156.43217051701
 20
152.8737197010386
 30
0.0
 10
156.4910662983426
 20
152.8820432330227
 30
0.0
  0
LINE
  5
265
330
1F
100
AcDbEntity
  8
0
  6
Continuous
 62
     7
370
    15
100
AcDbLine
 10
156.4910670583
 20
152.882043497
 30
0.0
 11
156.4910670583
 21
147.8681156796
 31
0.0
  0
LINE
  5
266
330
1F
100
AcDbEntity
  8
0
  6
Continuous
 62
     7
370
    15
100
AcDbLine
 10
156.1375127946
 20
154.9637720373
 30
0.0
 11
140.8446196889
 21
154.9637720373
 31
0.0
  0
LINE
  5
267
330
1F
100
AcDbEntity
  8
0
  6
Continuous
 62
     7
370
    15
100
AcDbLine
 10
156.2410665517
 20
147.6303518203
 30
0.0
 11
140.7410663102
 21
147.6303518203
 31
0.0
  0
SPLINE
  5
268
330
1F
100
AcDbEntity
  8
0
  6
Continuous
 62
     7
370
    15
100
AcDbSpline
210
0.0
220
0.0
230
1.0
 70
     8
 71
     3
 72
     8
 73
     4
 74
     0
 42
0.00000001
 43
0.00000001
 12
1.0
 22
0.0
 32
0.0
 13
1.0
 23
0.0
 33
0.0
 40
0.0001085338104882
 40
0.0001085338104882
 40
0.0001085338104882
 40
0.0001085338104882
 40
0.0003707418624266
 40
0.0003707418624266
 40
0.0003707418624266
 40
0.0003707418624266
 10
140.6678429936392
 20
155.0145013381646
 30
0.0
 10
140.6088880071901
 20
154.9702825594862
 30
0.0
 10
140.5499620796752
 20
154.9259861956378
 30
0.0
 10
140.4910662983426
 20
154.8816100226724
 30
0.0
  0
LINE
  5
269
330
1F
100
AcDbEntity
  8
0
  6
Continuous
 62
     7
370
    15
100
AcDbLine
 10
140.4910662983
 20
152.882043497
 30
0.0
 11
140.4910662983
 21
154.8816107598
 31
0.0
  0
SPLINE
  5
26A
330
1F
100
AcDbEntity
  8
0
  6
Continuous
 62
     7
370
    15
100
AcDbSpline
210
0.0
220
0.0
230
1.0
 70
     8
 71
     3
 72
     8
 73
     4
 74
     0
 42
0.00000001
 43
0.00000001
 12
1.0
 22
0.0
 32
0.0
 13
1.0
 23
0.0
 33
0.0
 40
0.0001085338104882
 40
0.0001085338104882
 40
0.0001085338104882
 40
0.0001085338104882
 40
0.0003707418624266
 40
0.0003707418624266
 40
0.0003707418624266
 40
0.0003707418624266
 10
156.3142896030459
 20
155.0145013381646
 30
0.0
 10
156.373244589495
 20
154.9702825594862
 30
0.0
 10
156.43217051701
 20
154.9259861956378
 30
0.0
 10
156.4910662983426
 20
154.8816100226724
 30
0.0
  0
LINE
  5
26B
330
1F
100
AcDbEntity
  8
0
  6
Continuous
 62
     7
370
    15
100
AcDbLine
 10
156.4910670583
 20
154.8816107598
 30
0.0
 11
156.4910670583
 21
152.882043497
 31
0.0
  0
SPLINE
  5
26C
330
1F
100
AcDbEntity
  8
0
  6
Continuous
 62
     7
370
    15
100
AcDbSpline
210
0.0
220
0.0
230
1.0
 70
     8
 71
     3
 72
     8
 73
     4
 74
     0
 42
0.00000001
 43
0.00000001
 12
1.0
 22
0.0
 32
0.0
 13
1.0
 23
0.0
 33
0.0
 40
0.0
 40
0.0
 40
0.0
 40
0.0
 40
1.0
 40
1.0
 40
1.0
 40
1.0
 10
140.72616573773
 20
155.0660353755177
 30
0.0
 10
140.7356268147101
 20
155.0850047985624
 30
0.0
 10
140.7410662983446
 20
155.1013639363677
 30
0.0
 10
140.7410662983447
 20
155.112786043904
 30
0.0
  0
LINE
  5
26D
330
1F
100
AcDbEntity
  8
0
  6
Continuous
 62
     7
370
    15
100
AcDbLine
 10
140.7410663102
 20
155.1127855119
 30
0.0
 11
156.2410665517
 21
155.1127855119
 31
0.0
  0
SPLINE
  5
26E
330
1F
100
AcDbEntity
  8
0
  6
Continuous
 62
     7
370
    15
100
AcDbSpline
210
0.0
220
0.0
230
1.0
 70
     8
 71
     3
 72
     8
 73
     4
 74
     0
 42
0.00000001
 43
0.00000001
 12
1.0
 22
0.0
 32
0.0
 13
1.0
 23
0.0
 33
0.0
 40
0.0
 40
0.0
 40
0.0
 40
0.0
 40
1.0
 40
1.0
 40
1.0
 40
1.0
 10
156.2410662983426
 20
155.1127860439023
 30
0.0
 10
156.2410662983426
 20
155.1013472979676
 30
0.0
 10
156.2464421528992
 20
155.0851323746151
 30
0.0
 10
156.2559668589552
 20
155.0660353755177
 30
0.0
  0
LINE
  5
26F
330
1F
100
AcDbEntity
  8
0
  6
Continuous
 62
     7
370
    15
100
AcDbLine
 10
140.7410663102
 20
156.01633791
 30
0.0
 11
140.7410663102
 21
155.1127855119
 31
0.0
  0
LINE
  5
270
330
1F
100
AcDbEntity
  8
0
  6
Continuous
 62
     7
370
    15
100
AcDbLine
 10
140.4910662983
 20
154.8816107598
 30
0.0
 11
140.4910662983
 21
155.7663374033
 31
0.0
  0
LINE
  5
271
330
1F
100
AcDbEntity
  8
0
  6
Continuous
 62
     7
370
    15
100
AcDbLine
 10
156.2410665517
 20
155.1127855119
 30
0.0
 11
156.2410665517
 21
156.01633791
 31
0.0
  0
LINE
  5
272
330
1F
100
AcDbEntity
  8
0
  6
Continuous
 62
     7
370
    15
100
AcDbLine
 10
156.4910670583
 20
155.7663374033
 30
0.0
 11
156.4910670583
 21
154.8816107598
 31
0.0
  0
SPLINE
  5
273
330
1F
100
AcDbEntity
  8
0
  6
Continuous
 62
     7
370
    15
100
AcDbSpline
210
0.0
220
0.0
230
1.0
 70
     8
 71
     3
 72
     8
 73
     4
 74
     0
 42
0.00000001
 43
0.00000001
 12
1.0
 22
0.0
 32
0.0
 13
1.0
 23
0.0
 33
0.0
 40
0.0
 40
0.0
 40
0.0
 40
0.0
 40
1.0
 40
1.0
 40
1.0
 40
1.0
 10
140.72616573773
 20
113.7413944817975
 30
0.0
 10
140.7356268147101
 20
113.7694911178256
 30
0.0
 10
140.7410662983446
 20
113.7991184819563
 30
0.0
 10
140.7410662983447
 20
113.8273797554512
 30
0.0
  0
LINE
  5
274
330
1F
100
AcDbEntity
  8
0
  6
Continuous
 62
     7
370
    15
100
AcDbLine
 10
140.7410663102
 20
113.8273805764
 30
0.0
 11
156.2410665517
 21
113.8273805764
 31
0.0
  0
SPLINE
  5
275
330
1F
100
AcDbEntity
  8
0
  6
Continuous
 62
     7
370
    15
100
AcDbSpline
210
0.0
220
0.0
230
1.0
 70
     8
 71
     3
 72
     8
 73
     4
 74
     0
 42
0.00000001
 43
0.00000001
 12
1.0
 22
0.0
 32
0.0
 13
1.0
 23
0.0
 33
0.0
 40
0.0
 40
0.0
 40
0.0
 40
0.0
 40
1.0
 40
1.0
 40
1.0
 40
1.0
 10
156.2410662983426
 20
113.8273797554511
 30
0.0
 10
156.2410662983426
 20
113.7990773142185
 30
0.0
 10
156.2464421528992
 20
113.7696800776012
 30
0.0
 10
156.2559668589552
 20
113.7413944817977
 30
0.0
  0
SPLINE
  5
276
330
1F
100
AcDbEntity
  8
0
  6
Continuous
 62
     7
370
    15
100
AcDbSpline
210
0.0
220
0.0
230
1.0
 70
     8
 71
     3
 72
     8
 73
     4
 74
     0
 42
0.00000001
 43
0.00000001
 12
1.0
 22
0.0
 32
0.0
 13
1.0
 23
0.0
 33
0.0
 40
0.0
 40
0.0
 40
0.0
 40
0.0
 40
1.0
 40
1.0
 40
1.0
 40
1.0
 10
156.1375129077493
 20
113.6229306678467
 30
0.0
 10
156.1776958534314
 20
113.6582254370663
 30
0.0
 10
156.2183752432259
 20
113.6986158886331
 30
0.0
 10
156.2559668589537
 20
113.7413944817989
 30
0.0
  0
LINE
  5
277
330
1F
100
AcDbEntity
  8
0
  6
Continuous
 62
     7
370
    15
100
AcDbLine
 10
156.1375127946
 20
113.6229310569
 30
0.0
 11
140.8446196889
 21
113.6229310569
 31
0.0
  0
SPLINE
  5
278
330
1F
100
AcDbEntity
  8
0
  6
Continuous
 62
     7
370
    15
100
AcDbSpline
210
0.0
220
0.0
230
1.0
 70
     8
 71
     3
 72
     8
 73
     4
 74
     0
 42
0.00000001
 43
0.00000001
 12
1.0
 22
0.0
 32
0.0
 13
1.0
 23
0.0
 33
0.0
 40
0.0
 40
0.0
 40
0.0
 40
0.0
 40
1.0
 40
1.0
 40
1.0
 40
1.0
 10
140.8446196889359
 20
113.6229306678467
 30
0.0
 10
140.8044367432537
 20
113.6582254370662
 30
0.0
 10
140.7637573534593
 20
113.698615888633
 30
0.0
 10
140.7261657377315
 20
113.7413944817989
 30
0.0
  0
SPLINE
  5
279
330
1F
100
AcDbEntity
  8
0
  6
Continuous
 62
     7
370
    15
100
AcDbSpline
210
0.0
220
0.0
230
1.0
 70
     8
 71
     3
 72
     8
 73
     4
 74
     0
 42
0.00000001
 43
0.00000001
 12
1.0
 22
0.0
 32
0.0
 13
1.0
 23
0.0
 33
0.0
 40
0.0
 40
0.0
 40
0.0
 40
0.0
 40
1.0
 40
1.0
 40
1.0
 40
1.0
 10
140.6678429936392
 20
113.7276576238514
 30
0.0
 10
140.6868275707564
 20
113.7259400890749
 30
0.0
 10
140.7065701886002
 20
113.731641776939
 30
0.0
 10
140.7261657377298
 20
113.7413944817993
 30
0.0
  0
LINE
  5
27A
330
1F
100
AcDbEntity
  8
0
  6
Continuous
 62
     7
370
    15
100
AcDbLine
 10
140.8446196889
 20
113.6229310569
 30
0.0
 11
140.8446196889
 21
111.7931690451
 31
0.0
  0
SPLINE
  5
27B
330
1F
100
AcDbEntity
  8
0
  6
Continuous
 62
     7
370
    15
100
AcDbSpline
210
0.0
220
0.0
230
1.0
 70
     8
 71
     3
 72
     8
 73
     4
 74
     0
 42
0.00000001
 43
0.00000001
 12
1.0
 22
0.0
 32
0.0
 13
1.0
 23
0.0
 33
0.0
 40
0.0
 40
0.0
 40
0.0
 40
0.0
 40
1.0
 40
1.0
 40
1.0
 40
1.0
 10
140.8446196889359
 20
111.7931697352015
 30
0.0
 10
140.804466774477
 20
111.7587351166117
 30
0.0
 10
140.763862016546
 20
111.7288904290882
 30
0.0
 10
140.7261657377319
 20
111.7071407020429
 30
0.0
  0
SPLINE
  5
27C
330
1F
100
AcDbEntity
  8
0
  6
Continuous
 62
     7
370
    15
100
AcDbSpline
210
0.0
220
0.0
230
1.0
 70
     8
 71
     3
 72
     8
 73
     4
 74
     0
 42
0.00000001
 43
0.00000001
 12
1.0
 22
0.0
 32
0.0
 13
1.0
 23
0.0
 33
0.0
 40
0.0
 40
0.0
 40
0.0
 40
0.0
 40
1.0
 40
1.0
 40
1.0
 40
1.0
 10
140.7261657377348
 20
111.7071407020381
 30
0.0
 10
140.7067581094682
 20
111.7268539778557
 30
0.0
 10
140.6867265082151
 20
111.746369436195
 30
0.0
 10
140.6678429936392
 20
111.7633528032558
 30
0.0
  0
LINE
  5
27D
330
1F
100
AcDbEntity
  8
0
  6
Continuous
 62
     7
370
    15
100
AcDbLine
 10
140.6678429936
 20
111.7633536842
 30
0.0
 11
140.6678429936
 21
113.7276582804
 31
0.0
  0
LINE
  5
27E
330
1F
100
AcDbEntity
  8
0
  6
Continuous
 62
     7
370
    15
100
AcDbLine
 10
140.4910662983
 20
119.9730683502
 30
0.0
 11
140.7410663102
 21
120.1895747718
 31
0.0
  0
LINE
  5
27F
330
1F
100
AcDbEntity
  8
0
  6
Continuous
 62
     7
370
    15
100
AcDbLine
 10
140.7410663102
 20
120.1895747718
 30
0.0
 11
140.7410663102
 21
113.8273805764
 31
0.0
  0
SPLINE
  5
280
330
1F
100
AcDbEntity
  8
0
  6
Continuous
 62
     7
370
    15
100
AcDbSpline
210
0.0
220
0.0
230
1.0
 70
     8
 71
     3
 72
     8
 73
     4
 74
     0
 42
0.00000001
 43
0.00000001
 12
1.0
 22
0.0
 32
0.0
 13
1.0
 23
0.0
 33
0.0
 40
0.0001085338104882
 40
0.0001085338104882
 40
0.0001085338104882
 40
0.0001085338104882
 40
0.0003707418624266
 40
0.0003707418624266
 40
0.0003707418624266
 40
0.0003707418624266
 10
140.6678429936392
 20
113.7276576238514
 30
0.0
 10
140.6088880071901
 20
113.7329912817387
 30
0.0
 10
140.5499620796752
 20
113.7382459318891
 30
0.0
 10
140.4910662983426
 20
113.7434191399915
 30
0.0
  0
LINE
  5
281
330
1F
100
AcDbEntity
  8
0
  6
Continuous
 62
     7
370
    15
100
AcDbLine
 10
140.4910662983
 20
113.7434199837
 30
0.0
 11
140.4910662983
 21
119.9730683502
 31
0.0
  0
LINE
  5
282
330
1F
100
AcDbEntity
  8
0
  6
Continuous
 62
     7
370
    15
100
AcDbLine
 10
156.2410665517
 20
113.8273805764
 30
0.0
 11
156.2410665517
 21
120.1895747718
 31
0.0
  0
LINE
  5
283
330
1F
100
AcDbEntity
  8
0
  6
Continuous
 62
     7
370
    15
100
AcDbLine
 10
156.2410665517
 20
120.1895747718
 30
0.0
 11
156.4910670583
 21
119.9730683502
 31
0.0
  0
SPLINE
  5
284
330
1F
100
AcDbEntity
  8
0
  6
Continuous
 62
     7
370
    15
100
AcDbSpline
210
0.0
220
0.0
230
1.0
 70
     8
 71
     3
 72
     8
 73
     4
 74
     0
 42
0.00000001
 43
0.00000001
 12
1.0
 22
0.0
 32
0.0
 13
1.0
 23
0.0
 33
0.0
 40
0.0001085338104882
 40
0.0001085338104882
 40
0.0001085338104882
 40
0.0001085338104882
 40
0.0003707418624266
 40
0.0003707418624266
 40
0.0003707418624266
 40
0.0003707418624266
 10
156.3142896030459
 20
113.7276576238514
 30
0.0
 10
156.373244589495
 20
113.7329912817387
 30
0.0
 10
156.43217051701
 20
113.7382459318891
 30
0.0
 10
156.4910662983426
 20
113.7434191399915
 30
0.0
  0
SPLINE
  5
285
330
1F
100
AcDbEntity
  8
0
  6
Continuous
 62
     7
370
    15
100
AcDbSpline
210
0.0
220
0.0
230
1.0
 70
     8
 71
     3
 72
     8
 73
     4
 74
     0
 42
0.00000001
 43
0.00000001
 12
1.0
 22
0.0
 32
0.0
 13
1.0
 23
0.0
 33
0.0
 40
0.0
 40
0.0
 40
0.0
 40
0.0
 40
1.0
 40
1.0
 40
1.0
 40
1.0
 10
156.2559668589553
 20
113.7413944817988
 30
0.0
 10
156.2753744872203
 20
113.7317353051532
 30
0.0
 10
156.2954060884717
 20
113.7259492322036
 30
0.0
 10
156.3142896030459
 20
113.7276576238514
 30
0.0
  0
LINE
  5
286
330
1F
100
AcDbEntity
  8
0
  6
Continuous
 62
     7
370
    15
100
AcDbLine
 10
156.4910670583
 20
119.9730683502
 30
0.0
 11
156.4910670583
 21
113.7434199837
 31
0.0
  0
SPLINE
  5
287
330
1F
100
AcDbEntity
  8
0
  6
Continuous
 62
     7
370
    15
100
AcDbSpline
210
0.0
220
0.0
230
1.0
 70
     8
 71
     3
 72
     8
 73
     4
 74
     0
 42
0.00000001
 43
0.00000001
 12
1.0
 22
0.0
 32
0.0
 13
1.0
 23
0.0
 33
0.0
 40
0.0
 40
0.0
 40
0.0
 40
0.0
 40
1.0
 40
1.0
 40
1.0
 40
1.0
 10
156.1375129077493
 20
111.7931697352015
 30
0.0
 10
156.1776958534249
 20
111.7587093622184
 30
0.0
 10
156.2183752432258
 20
111.7288300413352
 30
0.0
 10
156.2559668589536
 20
111.7071407020426
 30
0.0
  0
LINE
  5
288
330
1F
100
AcDbEntity
  8
0
  6
Continuous
 62
     7
370
    15
100
AcDbLine
 10
156.1375127946
 20
111.7931690451
 30
0.0
 11
156.1375127946
 21
113.6229310569
 31
0.0
  0
LINE
  5
289
330
1F
100
AcDbEntity
  8
0
  6
Continuous
 62
     7
370
    15
100
AcDbLine
 10
156.3142889951
 20
113.7276582804
 30
0.0
 11
156.3142889951
 21
111.7633536842
 31
0.0
  0
SPLINE
  5
28A
330
1F
100
AcDbEntity
  8
0
  6
Continuous
 62
     7
370
    15
100
AcDbSpline
210
0.0
220
0.0
230
1.0
 70
     8
 71
     3
 72
     8
 73
     4
 74
     0
 42
0.00000001
 43
0.00000001
 12
1.0
 22
0.0
 32
0.0
 13
1.0
 23
0.0
 33
0.0
 40
0.0
 40
0.0
 40
0.0
 40
0.0
 40
1.0
 40
1.0
 40
1.0
 40
1.0
 10
156.3142896030459
 20
111.7633528032558
 30
0.0
 10
156.2953050259288
 20
111.7462785430391
 30
0.0
 10
156.2755624080849
 20
111.7270448582584
 30
0.0
 10
156.2559668589554
 20
111.7071407020432
 30
0.0
  0
LINE
  5
28B
330
1F
100
AcDbEntity
  8
0
  6
Continuous
 62
     7
370
    15
100
AcDbLine
 10
156.2410665517
 20
120.1895747718
 30
0.0
 11
140.7410663102
 21
120.1895747718
 31
0.0
  0
LINE
  5
28C
330
1F
100
AcDbEntity
  8
0
  6
Continuous
 62
     7
370
    15
100
AcDbLine
 10
140.8446196889
 20
111.7931690451
 30
0.0
 11
156.1375127946
 21
111.7931690451
 31
0.0
  0
SPLINE
  5
28D
330
1F
100
AcDbEntity
  8
0
  6
Continuous
 62
     7
370
    15
100
AcDbSpline
210
0.0
220
0.0
230
1.0
 70
     8
 71
     3
 72
     8
 73
     4
 74
     0
 42
0.00000001
 43
0.00000001
 12
1.0
 22
0.0
 32
0.0
 13
1.0
 23
0.0
 33
0.0
 40
0.0001085338104882
 40
0.0001085338104882
 40
0.0001085338104882
 40
0.0001085338104882
 40
0.0003707418624266
 40
0.0003707418624266
 40
0.0003707418624266
 40
0.0003707418624266
 10
140.6678429936392
 20
111.7633528032558
 30
0.0
 10
140.6088880071901
 20
111.81637546336
 30
0.0
 10
140.5499620796752
 20
111.8694664332931
 30
0.0
 10
140.4910662983426
 20
111.9226276236828
 30
0.0
  0
LINE
  5
28E
330
1F
100
AcDbEntity
  8
0
  6
Continuous
 62
     7
370
    15
100
AcDbLine
 10
140.4910662983
 20
111.9226284709
 30
0.0
 11
140.4910662983
 21
113.7434199837
 31
0.0
  0
SPLINE
  5
28F
330
1F
100
AcDbEntity
  8
0
  6
Continuous
 62
     7
370
    15
100
AcDbSpline
210
0.0
220
0.0
230
1.0
 70
     8
 71
     3
 72
     8
 73
     4
 74
     0
 42
0.00000001
 43
0.00000001
 12
1.0
 22
0.0
 32
0.0
 13
1.0
 23
0.0
 33
0.0
 40
0.0001085338104882
 40
0.0001085338104882
 40
0.0001085338104882
 40
0.0001085338104882
 40
0.0003707418624266
 40
0.0003707418624266
 40
0.0003707418624266
 40
0.0003707418624266
 10
156.3142896030459
 20
111.7633528032558
 30
0.0
 10
156.373244589495
 20
111.81637546336
 30
0.0
 10
156.43217051701
 20
111.8694664332931
 30
0.0
 10
156.4910662983426
 20
111.9226276236827
 30
0.0
  0
LINE
  5
290
330
1F
100
AcDbEntity
  8
0
  6
Continuous
 62
     7
370
    15
100
AcDbLine
 10
156.4910670583
 20
113.7434199837
 30
0.0
 11
156.4910670583
 21
111.9226284709
 31
0.0
  0
SPLINE
  5
291
330
1F
100
AcDbEntity
  8
0
  6
Continuous
 62
     7
370
    15
100
AcDbSpline
210
0.0
220
0.0
230
1.0
 70
     8
 71
     3
 72
     8
 73
     4
 74
     0
 42
0.00000001
 43
0.00000001
 12
1.0
 22
0.0
 32
0.0
 13
1.0
 23
0.0
 33
0.0
 40
0.0
 40
0.0
 40
0.0
 40
0.0
 40
1.0
 40
1.0
 40
1.0
 40
1.0
 10
140.7410662983426
 20
111.6767160498637
 30
0.0
 10
140.7410662983426
 20
111.6821279642279
 30
0.0
 10
140.7356904437865
 20
111.6927995131651
 30
0.0
 10
140.7261657377316
 20
111.7071407020409
 30
0.0
  0
SPLINE
  5
292
330
1F
100
AcDbEntity
  8
0
  6
Continuous
 62
     7
370
    15
100
AcDbSpline
210
0.0
220
0.0
230
1.0
 70
     8
 71
     3
 72
     8
 73
     4
 74
     0
 42
0.00000001
 43
0.00000001
 12
1.0
 22
0.0
 32
0.0
 13
1.0
 23
0.0
 33
0.0
 40
0.0
 40
0.0
 40
0.0
 40
0.0
 40
1.0
 40
1.0
 40
1.0
 40
1.0
 10
156.2559668589552
 20
111.7071407020434
 30
0.0
 10
156.246505781975
 20
111.69289531839
 30
0.0
 10
156.2410662983405
 20
111.6821200922456
 30
0.0
 10
156.2410662983405
 20
111.6767160498617
 30
0.0
  0
LINE
  5
293
330
1F
100
AcDbEntity
  8
0
  6
Continuous
 62
     7
370
    15
100
AcDbLine
 10
156.2410665517
 20
111.6767164704
 30
0.0
 11
140.7410663102
 21
111.6767164704
 31
0.0
  0
LINE
  5
294
330
1F
100
AcDbEntity
  8
0
  6
Continuous
 62
     7
370
    15
100
AcDbLine
 10
156.2410665517
 20
111.4804719028
 30
0.0
 11
156.2410665517
 21
111.6767164704
 31
0.0
  0
LINE
  5
295
330
1F
100
AcDbEntity
  8
0
  6
Continuous
 62
     7
370
    15
100
AcDbLine
 10
156.4910670583
 20
111.9226284709
 30
0.0
 11
156.4910670583
 21
111.7304724094
 31
0.0
  0
LINE
  5
296
330
1F
100
AcDbEntity
  8
0
  6
Continuous
 62
     7
370
    15
100
AcDbLine
 10
140.7410663102
 20
111.6767164704
 30
0.0
 11
140.7410663102
 21
111.4804719028
 31
0.0
  0
LINE
  5
297
330
1F
100
AcDbEntity
  8
0
  6
Continuous
 62
     7
370
    15
100
AcDbLine
 10
140.4910662983
 20
111.7304724094
 30
0.0
 11
140.4910662983
 21
111.9226284709
 31
0.0
  0
LINE
  5
298
330
1F
100
AcDbEntity
  8
0
  6
Continuous
 62
     7
370
    15
100
AcDbLine
 10
156.2410665517
 20
137.7720762312
 30
0.0
 11
156.2410665517
 21
138.0997616498
 31
0.0
  0
LINE
  5
299
330
1F
100
AcDbEntity
  8
0
  6
Continuous
 62
     7
370
    15
100
AcDbLine
 10
140.7410663102
 20
138.0997616498
 30
0.0
 11
140.7410663102
 21
137.7720762312
 31
0.0
  0
LINE
  5
29A
330
1F
100
AcDbEntity
  8
0
  6
Continuous
 62
     7
370
    15
100
AcDbLine
 10
156.2410665517
 20
138.0997616498
 30
0.0
 11
140.7410663102
 21
138.0997616498
 31
0.0
  0
LINE
  5
29B
330
1F
100
AcDbEntity
  8
0
  6
Continuous
 62
     7
370
    15
100
AcDbLine
 10
140.4910662983
 20
137.8511311696
 30
0.0
 11
140.7410663102
 21
138.0997616498
 31
0.0
  0
LINE
  5
29C
330
1F
100
AcDbEntity
  8
0
  6
Continuous
 62
     7
370
    15
100
AcDbLine
 10
140.4910662983
 20
137.5234457583
 30
0.0
 11
140.4910662983
 21
137.8511311696
 31
0.0
  0
LINE
  5
29D
330
1F
100
AcDbEntity
  8
0
  6
Continuous
 62
     7
370
    15
100
AcDbLine
 10
156.2410665517
 20
138.0997616498
 30
0.0
 11
156.4910670583
 21
137.8511311696
 31
0.0
  0
LINE
  5
29E
330
1F
100
AcDbEntity
  8
0
  6
Continuous
 62
     7
370
    15
100
AcDbLine
 10
156.4910670583
 20
137.8511311696
 30
0.0
 11
156.4910670583
 21
137.5234457583
 31
0.0
  0
LINE
  5
29F
330
1F
100
AcDbEntity
  8
0
  6
Continuous
 62
     7
370
    15
100
AcDbLine
 10
156.2410665517
 20
146.6616170865
 30
0.0
 11
156.2410665517
 21
147.6303518203
 31
0.0
  0
LINE
  5
2A0
330
1F
100
AcDbEntity
  8
0
  6
Continuous
 62
     7
370
    15
100
AcDbLine
 10
156.2410665517
 20
146.6616170865
 30
0.0
 11
140.7410663102
 21
146.6616170865
 31
0.0
  0
LINE
  5
2A1
330
1F
100
AcDbEntity
  8
0
  6
Continuous
 62
     7
370
    15
100
AcDbLine
 10
140.7410663102
 20
147.6303518203
 30
0.0
 11
140.7410663102
 21
146.6616170865
 31
0.0
  0
LINE
  5
2A2
330
1F
100
AcDbEntity
  8
0
  6
Continuous
 62
     7
370
    15
100
AcDbLine
 10
140.4910662983
 20
146.8993809458
 30
0.0
 11
140.7410663102
 21
146.6616170865
 31
0.0
  0
LINE
  5
2A3
330
1F
100
AcDbEntity
  8
0
  6
Continuous
 62
     7
370
    15
100
AcDbLine
 10
140.4910662983
 20
146.8993809458
 30
0.0
 11
140.4910662983
 21
147.8681156796
 31
0.0
  0
LINE
  5
2A4
330
1F
100
AcDbEntity
  8
0
  6
Continuous
 62
     7
370
    15
100
AcDbLine
 10
156.2410665517
 20
146.6616170865
 30
0.0
 11
156.4910670583
 21
146.8993809458
 31
0.0
  0
LINE
  5
2A5
330
1F
100
AcDbEntity
  8
0
  6
Continuous
 62
     7
370
    15
100
AcDbLine
 10
156.4910670583
 20
147.8681156796
 30
0.0
 11
156.4910670583
 21
146.8993809458
 31
0.0
  0
LINE
  5
2A6
330
1F
100
AcDbEntity
  8
0
  6
Continuous
 62
     7
370
    15
100
AcDbLine
 10
140.4910662983
 20
140.4590757948
 30
0.0
 11
140.7410663102
 21
140.4740193312
 31
0.0
  0
LINE
  5
2A7
330
1F
100
AcDbEntity
  8
0
  6
Continuous
 62
     7
370
    15
100
AcDbLine
 10
140.7410663102
 20
140.4740193312
 30
0.0
 11
140.7410663102
 21
138.0997616498
 31
0.0
  0
LINE
  5
2A8
330
1F
100
AcDbEntity
  8
0
  6
Continuous
 62
     7
370
    15
100
AcDbLine
 10
140.4910662983
 20
137.8511311696
 30
0.0
 11
140.4910662983
 21
140.4590757948
 31
0.0
  0
LINE
  5
2A9
330
1F
100
AcDbEntity
  8
0
  6
Continuous
 62
     7
370
    15
100
AcDbLine
 10
156.2410665517
 20
138.0997616498
 30
0.0
 11
156.2410665517
 21
140.4740193312
 31
0.0
  0
LINE
  5
2AA
330
1F
100
AcDbEntity
  8
0
  6
Continuous
 62
     7
370
    15
100
AcDbLine
 10
156.2410665517
 20
140.4740193312
 30
0.0
 11
140.7410663102
 21
140.4740193312
 31
0.0
  0
LINE
  5
2AB
330
1F
100
AcDbEntity
  8
0
  6
Continuous
 62
     7
370
    15
100
AcDbLine
 10
156.2410665517
 20
140.4740193312
 30
0.0
 11
156.4910670583
 21
140.4590757948
 31
0.0
  0
LINE
  5
2AC
330
1F
100
AcDbEntity
  8
0
  6
Continuous
 62
     7
370
    15
100
AcDbLine
 10
156.4910670583
 20
140.4590757948
 30
0.0
 11
156.4910670583
 21
137.8511311696
 31
0.0
  0
LINE
  5
2AD
330
1F
100
AcDbEntity
  8
0
  6
Continuous
 62
     7
370
    15
100
AcDbLine
 10
156.2410665517
 20
120.1895747718
 30
0.0
 11
156.2410665517
 21
121.7570204672
 31
0.0
  0
LINE
  5
2AE
330
1F
100
AcDbEntity
  8
0
  6
Continuous
 62
     7
370
    15
100
AcDbLine
 10
140.7410663102
 20
121.7570204672
 30
0.0
 11
140.7410663102
 21
120.1895747718
 31
0.0
  0
LINE
  5
2AF
330
1F
100
AcDbEntity
  8
0
  6
Continuous
 62
     7
370
    15
100
AcDbLine
 10
156.2410665517
 20
121.7570204672
 30
0.0
 11
140.7410663102
 21
121.7570204672
 31
0.0
  0
LINE
  5
2B0
330
1F
100
AcDbEntity
  8
0
  6
Continuous
 62
     7
370
    15
100
AcDbLine
 10
140.4910662983
 20
121.5405140456
 30
0.0
 11
140.7410663102
 21
121.7570204672
 31
0.0
  0
LINE
  5
2B1
330
1F
100
AcDbEntity
  8
0
  6
Continuous
 62
     7
370
    15
100
AcDbLine
 10
140.4910662983
 20
119.9730683502
 30
0.0
 11
140.4910662983
 21
121.5405140456
 31
0.0
  0
LINE
  5
2B2
330
1F
100
AcDbEntity
  8
0
  6
Continuous
 62
     7
370
    15
100
AcDbLine
 10
156.2410665517
 20
121.7570204672
 30
0.0
 11
156.4910670583
 21
121.5405140456
 31
0.0
  0
LINE
  5
2B3
330
1F
100
AcDbEntity
  8
0
  6
Continuous
 62
     7
370
    15
100
AcDbLine
 10
156.4910670583
 20
121.5405140456
 30
0.0
 11
156.4910670583
 21
119.9730683502
 31
0.0
  0
LINE
  5
2B4
330
1F
100
AcDbEntity
  8
0
  6
Continuous
 62
     7
370
    15
100
AcDbLine
 10
140.7410663102
 20
129.5512590942
 30
0.0
 11
140.7410663102
 21
128.0942580116
 31
0.0
  0
LINE
  5
2B5
330
1F
100
AcDbEntity
  8
0
  6
Continuous
 62
     7
370
    15
100
AcDbLine
 10
140.4910662983
 20
128.1607600313
 30
0.0
 11
140.7410663102
 21
128.0942580116
 31
0.0
  0
LINE
  5
2B6
330
1F
100
AcDbEntity
  8
0
  6
Continuous
 62
     7
370
    15
100
AcDbLine
 10
140.4910662983
 20
128.1607600313
 30
0.0
 11
140.4910662983
 21
129.8012596008
 31
0.0
  0
LINE
  5
2B7
330
1F
100
AcDbEntity
  8
0
  6
Continuous
 62
     7
370
    15
100
AcDbLine
 10
156.2410665517
 20
128.0942580116
 30
0.0
 11
156.2410665517
 21
129.5512590942
 31
0.0
  0
LINE
  5
2B8
330
1F
100
AcDbEntity
  8
0
  6
Continuous
 62
     7
370
    15
100
AcDbLine
 10
156.2410665517
 20
128.0942580116
 30
0.0
 11
156.4910670583
 21
128.1607600313
 31
0.0
  0
LINE
  5
2B9
330
1F
100
AcDbEntity
  8
0
  6
Continuous
 62
     7
370
    15
100
AcDbLine
 10
156.4910670583
 20
129.8012596008
 30
0.0
 11
156.4910670583
 21
128.1607600313
 31
0.0
  0
LINE
  5
2BA
330
1F
100
AcDbEntity
  8
0
  6
Continuous
 62
     7
370
    15
100
AcDbLine
 10
156.2410665517
 20
128.0942580116
 30
0.0
 11
140.7410663102
 21
128.0942580116
 31
0.0
  0
LINE
  5
2BB
330
1F
100
AcDbEntity
  8
0
  6
Continuous
 62
     7
370
    15
100
AcDbLine
 10
156.2410665517
 20
143.8672922005
 30
0.0
 11
156.2410665517
 21
146.6616170865
 31
0.0
  0
LINE
  5
2BC
330
1F
100
AcDbEntity
  8
0
  6
Continuous
 62
     7
370
    15
100
AcDbLine
 10
156.2410665517
 20
143.8672922005
 30
0.0
 11
140.7410663102
 21
143.8672922005
 31
0.0
  0
LINE
  5
2BD
330
1F
100
AcDbEntity
  8
0
  6
Continuous
 62
     7
370
    15
100
AcDbLine
 10
140.7410663102
 20
146.6616170865
 30
0.0
 11
140.7410663102
 21
143.8672922005
 31
0.0
  0
LINE
  5
2BE
330
1F
100
AcDbEntity
  8
0
  6
Continuous
 62
     7
370
    15
100
AcDbLine
 10
140.4910662983
 20
143.8300243963
 30
0.0
 11
140.7410663102
 21
143.8672922005
 31
0.0
  0
LINE
  5
2BF
330
1F
100
AcDbEntity
  8
0
  6
Continuous
 62
     7
370
    15
100
AcDbLine
 10
140.4910662983
 20
143.8300243963
 30
0.0
 11
140.4910662983
 21
146.8993809458
 31
0.0
  0
LINE
  5
2C0
330
1F
100
AcDbEntity
  8
0
  6
Continuous
 62
     7
370
    15
100
AcDbLine
 10
156.2410665517
 20
143.8672922005
 30
0.0
 11
156.4910670583
 21
143.8300243963
 31
0.0
  0
LINE
  5
2C1
330
1F
100
AcDbEntity
  8
0
  6
Continuous
 62
     7
370
    15
100
AcDbLine
 10
156.4910670583
 20
146.8993809458
 30
0.0
 11
156.4910670583
 21
143.8300243963
 31
0.0
  0
SPLINE
  5
2C2
330
1F
100
AcDbEntity
  8
0
  6
Continuous
 62
     7
370
    15
100
AcDbSpline
210
0.0
220
0.0
230
1.0
 70
     8
 71
     3
 72
     8
 73
     4
 74
     0
 42
0.00000001
 43
0.00000001
 12
1.0
 22
0.0
 32
0.0
 13
1.0
 23
0.0
 33
0.0
 40
0.0
 40
0.0
 40
0.0
 40
0.0
 40
1.0
 40
1.0
 40
1.0
 40
1.0
 10
140.7410662983426
 20
171.3392848505115
 30
0.0
 10
140.7410662983426
 20
171.3690669109235
 30
0.0
 10
140.7356904437865
 20
171.3987885490519
 30
0.0
 10
140.7261657377316
 20
171.4264084078607
 30
0.0
  0
SPLINE
  5
2C3
330
1F
100
AcDbEntity
  8
0
  6
Continuous
 62
     7
370
    15
100
AcDbSpline
210
0.0
220
0.0
230
1.0
 70
     8
 71
     3
 72
     8
 73
     4
 74
     0
 42
0.00000001
 43
0.00000001
 12
1.0
 22
0.0
 32
0.0
 13
1.0
 23
0.0
 33
0.0
 40
0.0
 40
0.0
 40
0.0
 40
0.0
 40
1.0
 40
1.0
 40
1.0
 40
1.0
 10
140.8446196889359
 20
171.5358501633216
 30
0.0
 10
140.8044667744874
 20
171.5053858450447
 30
0.0
 10
140.763862016546
 20
171.4682964546161
 30
0.0
 10
140.7261657377319
 20
171.4264084078646
 30
0.0
  0
LINE
  5
2C4
330
1F
100
AcDbEntity
  8
0
  6
Continuous
 62
     7
370
    15
100
AcDbLine
 10
140.8446196889
 20
171.5358507272
 30
0.0
 11
156.1375127946
 21
171.5358507272
 31
0.0
  0
SPLINE
  5
2C5
330
1F
100
AcDbEntity
  8
0
  6
Continuous
 62
     7
370
    15
100
AcDbSpline
210
0.0
220
0.0
230
1.0
 70
     8
 71
     3
 72
     8
 73
     4
 74
     0
 42
0.00000001
 43
0.00000001
 12
1.0
 22
0.0
 32
0.0
 13
1.0
 23
0.0
 33
0.0
 40
0.0
 40
0.0
 40
0.0
 40
0.0
 40
1.0
 40
1.0
 40
1.0
 40
1.0
 10
156.1375129077493
 20
171.5358501633216
 30
0.0
 10
156.1776958534172
 20
171.5053630601266
 30
0.0
 10
156.2183752432258
 20
171.4681801531561
 30
0.0
 10
156.2559668589537
 20
171.4264084078642
 30
0.0
  0
SPLINE
  5
2C6
330
1F
100
AcDbEntity
  8
0
  6
Continuous
 62
     7
370
    15
100
AcDbSpline
210
0.0
220
0.0
230
1.0
 70
     8
 71
     3
 72
     8
 73
     4
 74
     0
 42
0.00000001
 43
0.00000001
 12
1.0
 22
0.0
 32
0.0
 13
1.0
 23
0.0
 33
0.0
 40
0.0
 40
0.0
 40
0.0
 40
0.0
 40
1.0
 40
1.0
 40
1.0
 40
1.0
 10
156.2559668589552
 20
171.4264084078654
 30
0.0
 10
156.246505781975
 20
171.3989730614253
 30
0.0
 10
156.2410662983405
 20
171.3690235909858
 30
0.0
 10
156.2410662983405
 20
171.3392848505119
 30
0.0
  0
LINE
  5
2C7
330
1F
100
AcDbEntity
  8
0
  6
Continuous
 62
     7
370
    15
100
AcDbLine
 10
156.2410665517
 20
171.3392857846
 30
0.0
 11
140.7410663102
 21
171.3392857846
 31
0.0
  0
LINE
  5
2C8
330
1F
100
AcDbEntity
  8
0
  6
Continuous
 62
     7
370
    15
100
AcDbLine
 10
140.4910662983
 20
164.1993459698
 30
0.0
 11
140.7410663102
 21
164.0135601547
 31
0.0
  0
SPLINE
  5
2C9
330
1F
100
AcDbEntity
  8
0
  6
Continuous
 62
     7
370
    15
100
AcDbSpline
210
0.0
220
0.0
230
1.0
 70
     8
 71
     3
 72
     8
 73
     4
 74
     0
 42
0.00000001
 43
0.00000001
 12
1.0
 22
0.0
 32
0.0
 13
1.0
 23
0.0
 33
0.0
 40
0.0001085338104882
 40
0.0001085338104882
 40
0.0001085338104882
 40
0.0001085338104882
 40
0.0003707418624266
 40
0.0003707418624266
 40
0.0003707418624266
 40
0.0003707418624266
 10
140.6678429936392
 20
171.4279988638146
 30
0.0
 10
140.6088880071901
 20
171.409412063782
 30
0.0
 10
140.5499620796752
 20
171.3908956293653
 30
0.0
 10
140.4910662983426
 20
171.3724517751944
 30
0.0
  0
SPLINE
  5
2CA
330
1F
100
AcDbEntity
  8
0
  6
Continuous
 62
     7
370
    15
100
AcDbSpline
210
0.0
220
0.0
230
1.0
 70
     8
 71
     3
 72
     8
 73
     4
 74
     0
 42
0.00000001
 43
0.00000001
 12
1.0
 22
0.0
 32
0.0
 13
1.0
 23
0.0
 33
0.0
 40
0.0
 40
0.0
 40
0.0
 40
0.0
 40
1.0
 40
1.0
 40
1.0
 40
1.0
 10
140.7261657377348
 20
171.4264084078626
 30
0.0
 10
140.7067581094682
 20
171.4322832960163
 30
0.0
 10
140.6867265082151
 20
171.4339522891391
 30
0.0
 10
140.6678429936393
 20
171.4279988638146
 30
0.0
  0
LINE
  5
2CB
330
1F
100
AcDbEntity
  8
0
  6
Continuous
 62
     7
370
    15
100
AcDbLine
 10
140.7410663102
 20
171.3392857846
 30
0.0
 11
140.7410663102
 21
164.0135601547
 31
0.0
  0
LINE
  5
2CC
330
1F
100
AcDbEntity
  8
0
  6
Continuous
 62
     7
370
    15
100
AcDbLine
 10
140.4910662983
 20
164.1993459698
 30
0.0
 11
140.4910662983
 21
171.3724520442
 31
0.0
  0
SPLINE
  5
2CD
330
1F
100
AcDbEntity
  8
0
  6
Continuous
 62
     7
370
    15
100
AcDbSpline
210
0.0
220
0.0
230
1.0
 70
     8
 71
     3
 72
     8
 73
     4
 74
     0
 42
0.00000001
 43
0.00000001
 12
1.0
 22
0.0
 32
0.0
 13
1.0
 23
0.0
 33
0.0
 40
0.0
 40
0.0
 40
0.0
 40
0.0
 40
1.0
 40
1.0
 40
1.0
 40
1.0
 10
140.6678429936392
 20
173.113587943196
 30
0.0
 10
140.6868275707564
 20
173.1327509861355
 30
0.0
 10
140.7065701886002
 20
173.1525043023823
 30
0.0
 10
140.7261657377298
 20
173.1720213697089
 30
0.0
  0
SPLINE
  5
2CE
330
1F
100
AcDbEntity
  8
0
  6
Continuous
 62
     7
370
    15
100
AcDbSpline
210
0.0
220
0.0
230
1.0
 70
     8
 71
     3
 72
     8
 73
     4
 74
     0
 42
0.00000001
 43
0.00000001
 12
1.0
 22
0.0
 32
0.0
 13
1.0
 23
0.0
 33
0.0
 40
0.0
 40
0.0
 40
0.0
 40
0.0
 40
1.0
 40
1.0
 40
1.0
 40
1.0
 10
140.8446196889359
 20
173.1059858233309
 30
0.0
 10
140.8044367432568
 20
173.1353562863908
 30
0.0
 10
140.7637573534593
 20
173.1584725548814
 30
0.0
 10
140.7261657377315
 20
173.1720213697097
 30
0.0
  0
LINE
  5
2CF
330
1F
100
AcDbEntity
  8
0
  6
Continuous
 62
     7
370
    15
100
AcDbLine
 10
140.8446196889
 20
173.1059860822
 30
0.0
 11
140.8446196889
 21
171.5358507272
 31
0.0
  0
LINE
  5
2D0
330
1F
100
AcDbEntity
  8
0
  6
Continuous
 62
     7
370
    15
100
AcDbLine
 10
140.6678429936
 20
171.4279998478
 30
0.0
 11
140.6678429936
 21
173.1135893997
 31
0.0
  0
LINE
  5
2D1
330
1F
100
AcDbEntity
  8
0
  6
Continuous
 62
     7
370
    15
100
AcDbLine
 10
156.1375127946
 20
171.5358507272
 30
0.0
 11
156.1375127946
 21
173.1059860822
 31
0.0
  0
SPLINE
  5
2D2
330
1F
100
AcDbEntity
  8
0
  6
Continuous
 62
     7
370
    15
100
AcDbSpline
210
0.0
220
0.0
230
1.0
 70
     8
 71
     3
 72
     8
 73
     4
 74
     0
 42
0.00000001
 43
0.00000001
 12
1.0
 22
0.0
 32
0.0
 13
1.0
 23
0.0
 33
0.0
 40
0.0
 40
0.0
 40
0.0
 40
0.0
 40
1.0
 40
1.0
 40
1.0
 40
1.0
 10
156.1375129077493
 20
173.1059858233309
 30
0.0
 10
156.1776958534305
 20
173.1353562863892
 30
0.0
 10
156.2183752432259
 20
173.1584725548814
 30
0.0
 10
156.2559668589537
 20
173.1720213697097
 30
0.0
  0
SPLINE
  5
2D3
330
1F
100
AcDbEntity
  8
0
  6
Continuous
 62
     7
370
    15
100
AcDbSpline
210
0.0
220
0.0
230
1.0
 70
     8
 71
     3
 72
     8
 73
     4
 74
     0
 42
0.00000001
 43
0.00000001
 12
1.0
 22
0.0
 32
0.0
 13
1.0
 23
0.0
 33
0.0
 40
0.0
 40
0.0
 40
0.0
 40
0.0
 40
1.0
 40
1.0
 40
1.0
 40
1.0
 10
156.2559668589553
 20
173.1720213697092
 30
0.0
 10
156.2753744872203
 20
173.1526914706083
 30
0.0
 10
156.2954060884717
 20
173.1326489735472
 30
0.0
 10
156.3142896030459
 20
173.113587943196
 30
0.0
  0
LINE
  5
2D4
330
1F
100
AcDbEntity
  8
0
  6
Continuous
 62
     7
370
    15
100
AcDbLine
 10
156.3142889951
 20
173.1135893997
 30
0.0
 11
156.3142889951
 21
171.4279998478
 31
0.0
  0
SPLINE
  5
2D5
330
1F
100
AcDbEntity
  8
0
  6
Continuous
 62
     7
370
    15
100
AcDbSpline
210
0.0
220
0.0
230
1.0
 70
     8
 71
     3
 72
     8
 73
     4
 74
     0
 42
0.00000001
 43
0.00000001
 12
1.0
 22
0.0
 32
0.0
 13
1.0
 23
0.0
 33
0.0
 40
0.0
 40
0.0
 40
0.0
 40
0.0
 40
1.0
 40
1.0
 40
1.0
 40
1.0
 10
156.3142896030459
 20
171.4279988638146
 30
0.0
 10
156.2953050259287
 20
171.4339841512319
 30
0.0
 10
156.2755624080849
 20
171.4323401815892
 30
0.0
 10
156.2559668589554
 20
171.4264084078635
 30
0.0
  0
LINE
  5
2D6
330
1F
100
AcDbEntity
  8
0
  6
Continuous
 62
     7
370
    15
100
AcDbLine
 10
156.2410665517
 20
164.0135601547
 30
0.0
 11
156.4910670583
 21
164.1993459698
 31
0.0
  0
LINE
  5
2D7
330
1F
100
AcDbEntity
  8
0
  6
Continuous
 62
     7
370
    15
100
AcDbLine
 10
156.2410665517
 20
164.0135601547
 30
0.0
 11
156.2410665517
 21
171.3392857846
 31
0.0
  0
SPLINE
  5
2D8
330
1F
100
AcDbEntity
  8
0
  6
Continuous
 62
     7
370
    15
100
AcDbSpline
210
0.0
220
0.0
230
1.0
 70
     8
 71
     3
 72
     8
 73
     4
 74
     0
 42
0.00000001
 43
0.00000001
 12
1.0
 22
0.0
 32
0.0
 13
1.0
 23
0.0
 33
0.0
 40
0.0001085338104882
 40
0.0001085338104882
 40
0.0001085338104882
 40
0.0001085338104882
 40
0.0003707418624266
 40
0.0003707418624266
 40
0.0003707418624266
 40
0.0003707418624266
 10
156.3142896030459
 20
171.4279988638146
 30
0.0
 10
156.373244589495
 20
171.409412063782
 30
0.0
 10
156.43217051701
 20
171.3908956293653
 30
0.0
 10
156.4910662983426
 20
171.3724517751944
 30
0.0
  0
LINE
  5
2D9
330
1F
100
AcDbEntity
  8
0
  6
Continuous
 62
     7
370
    15
100
AcDbLine
 10
156.4910670583
 20
171.3724520442
 30
0.0
 11
156.4910670583
 21
164.1993459698
 31
0.0
  0
LINE
  5
2DA
330
1F
100
AcDbEntity
  8
0
  6
Continuous
 62
     7
370
    15
100
AcDbLine
 10
156.2410665517
 20
164.0135601547
 30
0.0
 11
140.7410663102
 21
164.0135601547
 31
0.0
  0
LINE
  5
2DB
330
1F
100
AcDbEntity
  8
0
  6
Continuous
 62
     7
370
    15
100
AcDbLine
 10
156.1375127946
 20
173.1059860822
 30
0.0
 11
140.8446196889
 21
173.1059860822
 31
0.0
  0
SPLINE
  5
2DC
330
1F
100
AcDbEntity
  8
0
  6
Continuous
 62
     7
370
    15
100
AcDbSpline
210
0.0
220
0.0
230
1.0
 70
     8
 71
     3
 72
     8
 73
     4
 74
     0
 42
0.00000001
 43
0.00000001
 12
1.0
 22
0.0
 32
0.0
 13
1.0
 23
0.0
 33
0.0
 40
0.0001085338104882
 40
0.0001085338104882
 40
0.0001085338104882
 40
0.0001085338104882
 40
0.0003707418624266
 40
0.0003707418624266
 40
0.0003707418624266
 40
0.0003707418624266
 10
140.6678429936392
 20
173.113587943196
 30
0.0
 10
140.6088880071901
 20
173.0540787463436
 30
0.0
 10
140.5499620796752
 20
172.9945135004705
 30
0.0
 10
140.4910662983426
 20
172.9348906917724
 30
0.0
  0
LINE
  5
2DD
330
1F
100
AcDbEntity
  8
0
  6
Continuous
 62
     7
370
    15
100
AcDbLine
 10
140.4910662983
 20
171.3724520442
 30
0.0
 11
140.4910662983
 21
172.9348909494
 31
0.0
  0
SPLINE
  5
2DE
330
1F
100
AcDbEntity
  8
0
  6
Continuous
 62
     7
370
    15
100
AcDbSpline
210
0.0
220
0.0
230
1.0
 70
     8
 71
     3
 72
     8
 73
     4
 74
     0
 42
0.00000001
 43
0.00000001
 12
1.0
 22
0.0
 32
0.0
 13
1.0
 23
0.0
 33
0.0
 40
0.0001085338104882
 40
0.0001085338104882
 40
0.0001085338104882
 40
0.0001085338104882
 40
0.0003707418624266
 40
0.0003707418624266
 40
0.0003707418624266
 40
0.0003707418624266
 10
156.3142896030459
 20
173.113587943196
 30
0.0
 10
156.373244589495
 20
173.0540787463436
 30
0.0
 10
156.43217051701
 20
172.9945135004706
 30
0.0
 10
156.4910662983426
 20
172.9348906917724
 30
0.0
  0
LINE
  5
2DF
330
1F
100
AcDbEntity
  8
0
  6
Continuous
 62
     7
370
    15
100
AcDbLine
 10
156.4910670583
 20
172.9348909494
 30
0.0
 11
156.4910670583
 21
171.3724520442
 31
0.0
  0
LINE
  5
2E0
330
1F
100
AcDbEntity
  8
0
  6
Continuous
 62
     7
370
    15
100
AcDbLine
 10
156.2410665517
 20
140.4740193312
 30
0.0
 11
156.2410665517
 21
143.8672922005
 31
0.0
  0
LINE
  5
2E1
330
1F
100
AcDbEntity
  8
0
  6
Continuous
 62
     7
370
    15
100
AcDbLine
 10
140.7410663102
 20
143.8672922005
 30
0.0
 11
140.7410663102
 21
140.4740193312
 31
0.0
  0
LINE
  5
2E2
330
1F
100
AcDbEntity
  8
0
  6
Continuous
 62
     7
370
    15
100
AcDbLine
 10
140.4910662983
 20
140.4590757948
 30
0.0
 11
140.4910662983
 21
143.8300243963
 31
0.0
  0
LINE
  5
2E3
330
1F
100
AcDbEntity
  8
0
  6
Continuous
 62
     7
370
    15
100
AcDbLine
 10
156.4910670583
 20
143.8300243963
 30
0.0
 11
156.4910670583
 21
140.4590757948
 31
0.0
  0
SPLINE
  5
2E4
330
1F
100
AcDbEntity
  8
0
  6
Continuous
 62
     7
370
    15
100
AcDbSpline
210
0.0
220
0.0
230
1.0
 70
     8
 71
     3
 72
     8
 73
     4
 74
     0
 42
0.00000001
 43
0.00000001
 12
1.0
 22
0.0
 32
0.0
 13
1.0
 23
0.0
 33
0.0
 40
0.0
 40
0.0
 40
0.0
 40
0.0
 40
1.0
 40
1.0
 40
1.0
 40
1.0
 10
140.72616573773
 20
173.1720213697092
 30
0.0
 10
140.7356268147101
 20
173.1809201223487
 30
0.0
 10
140.7410662983446
 20
173.1856405077443
 30
0.0
 10
140.7410662983447
 20
173.1847903023921
 30
0.0
  0
SPLINE
  5
2E5
330
1F
100
AcDbEntity
  8
0
  6
Continuous
 62
     7
370
    15
100
AcDbSpline
210
0.0
220
0.0
230
1.0
 70
     8
 71
     3
 72
     8
 73
     4
 74
     0
 42
0.00000001
 43
0.00000001
 12
1.0
 22
0.0
 32
0.0
 13
1.0
 23
0.0
 33
0.0
 40
0.0
 40
0.0
 40
0.0
 40
0.0
 40
1.0
 40
1.0
 40
1.0
 40
1.0
 10
156.2410662983426
 20
173.1847903023899
 30
0.0
 10
156.2410662983426
 20
173.1856417462225
 30
0.0
 10
156.2464421528992
 20
173.1809799695951
 30
0.0
 10
156.2559668589552
 20
173.1720213697092
 30
0.0
  0
LINE
  5
2E6
330
1F
100
AcDbEntity
  8
0
  6
Continuous
 62
     7
370
    15
100
AcDbLine
 10
140.4910662983
 20
124.9371378136
 30
0.0
 11
140.7410663102
 21
124.8492880177
 31
0.0
  0
LINE
  5
2E7
330
1F
100
AcDbEntity
  8
0
  6
Continuous
 62
     7
370
    15
100
AcDbLine
 10
140.7410663102
 20
124.8492880177
 30
0.0
 11
140.7410663102
 21
121.7570204672
 31
0.0
  0
LINE
  5
2E8
330
1F
100
AcDbEntity
  8
0
  6
Continuous
 62
     7
370
    15
100
AcDbLine
 10
140.4910662983
 20
121.5405140456
 30
0.0
 11
140.4910662983
 21
124.9371378136
 31
0.0
  0
LINE
  5
2E9
330
1F
100
AcDbEntity
  8
0
  6
Continuous
 62
     7
370
    15
100
AcDbLine
 10
156.2410665517
 20
121.7570204672
 30
0.0
 11
156.2410665517
 21
124.8492880177
 31
0.0
  0
LINE
  5
2EA
330
1F
100
AcDbEntity
  8
0
  6
Continuous
 62
     7
370
    15
100
AcDbLine
 10
156.2410665517
 20
124.8492880177
 30
0.0
 11
140.7410663102
 21
124.8492880177
 31
0.0
  0
LINE
  5
2EB
330
1F
100
AcDbEntity
  8
0
  6
Continuous
 62
     7
370
    15
100
AcDbLine
 10
156.2410665517
 20
124.8492880177
 30
0.0
 11
156.4910670583
 21
124.9371378136
 31
0.0
  0
LINE
  5
2EC
330
1F
100
AcDbEntity
  8
0
  6
Continuous
 62
     7
370
    15
100
AcDbLine
 10
156.4910670583
 20
124.9371378136
 30
0.0
 11
156.4910670583
 21
121.5405140456
 31
0.0
  0
LINE
  5
2ED
330
1F
100
AcDbEntity
  8
0
  6
Continuous
 62
     7
370
    15
100
AcDbLine
 10
156.2410665517
 20
124.8492880177
 30
0.0
 11
156.2410665517
 21
128.0942580116
 31
0.0
  0
LINE
  5
2EE
330
1F
100
AcDbEntity
  8
0
  6
Continuous
 62
     7
370
    15
100
AcDbLine
 10
140.7410663102
 20
128.0942580116
 30
0.0
 11
140.7410663102
 21
124.8492880177
 31
0.0
  0
LINE
  5
2EF
330
1F
100
AcDbEntity
  8
0
  6
Continuous
 62
     7
370
    15
100
AcDbLine
 10
140.4910662983
 20
124.9371378136
 30
0.0
 11
140.4910662983
 21
128.1607600313
 31
0.0
  0
LINE
  5
2F0
330
1F
100
AcDbEntity
  8
0
  6
Continuous
 62
     7
370
    15
100
AcDbLine
 10
156.4910670583
 20
128.1607600313
 30
0.0
 11
156.4910670583
 21
124.9371378136
 31
0.0
  0
LINE
  5
2F1
330
1F
100
AcDbEntity
  8
0
  6
Continuous
 62
     7
370
    15
100
AcDbLine
 10
156.2410665517
 20
161.9159069297
 30
0.0
 11
156.2410665517
 21
164.0135601547
 31
0.0
  0
LINE
  5
2F2
330
1F
100
AcDbEntity
  8
0
  6
Continuous
 62
     7
370
    15
100
AcDbLine
 10
156.2410665517
 20
161.9159069297
 30
0.0
 11
140.7410663102
 21
161.9159069297
 31
0.0
  0
LINE
  5
2F3
330
1F
100
AcDbEntity
  8
0
  6
Continuous
 62
     7
370
    15
100
AcDbLine
 10
140.7410663102
 20
164.0135601547
 30
0.0
 11
140.7410663102
 21
161.9159069297
 31
0.0
  0
LINE
  5
2F4
330
1F
100
AcDbEntity
  8
0
  6
Continuous
 62
     7
370
    15
100
AcDbLine
 10
140.4910662983
 20
162.1016927448
 30
0.0
 11
140.7410663102
 21
161.9159069297
 31
0.0
  0
LINE
  5
2F5
330
1F
100
AcDbEntity
  8
0
  6
Continuous
 62
     7
370
    15
100
AcDbLine
 10
140.4910662983
 20
162.1016927448
 30
0.0
 11
140.4910662983
 21
164.1993459698
 31
0.0
  0
LINE
  5
2F6
330
1F
100
AcDbEntity
  8
0
  6
Continuous
 62
     7
370
    15
100
AcDbLine
 10
156.2410665517
 20
161.9159069297
 30
0.0
 11
156.4910670583
 21
162.1016927448
 31
0.0
  0
LINE
  5
2F7
330
1F
100
AcDbEntity
  8
0
  6
Continuous
 62
     7
370
    15
100
AcDbLine
 10
156.4910670583
 20
164.1993459698
 30
0.0
 11
156.4910670583
 21
162.1016927448
 31
0.0
  0
LINE
  5
2F8
330
1F
100
AcDbEntity
  8
0
  6
Continuous
 62
     7
370
    15
100
AcDbLine
 10
156.2410665517
 20
156.01633791
 30
0.0
 11
156.2410665517
 21
158.6608451244
 31
0.0
  0
LINE
  5
2F9
330
1F
100
AcDbEntity
  8
0
  6
Continuous
 62
     7
370
    15
100
AcDbLine
 10
140.7410663102
 20
158.6608451244
 30
0.0
 11
140.7410663102
 21
156.01633791
 31
0.0
  0
LINE
  5
2FA
330
1F
100
AcDbEntity
  8
0
  6
Continuous
 62
     7
370
    15
100
AcDbLine
 10
156.2410665517
 20
158.6608451244
 30
0.0
 11
140.7410663102
 21
158.6608451244
 31
0.0
  0
LINE
  5
2FB
330
1F
100
AcDbEntity
  8
0
  6
Continuous
 62
     7
370
    15
100
AcDbLine
 10
140.4910662983
 20
158.5262522486
 30
0.0
 11
140.7410663102
 21
158.6608451244
 31
0.0
  0
LINE
  5
2FC
330
1F
100
AcDbEntity
  8
0
  6
Continuous
 62
     7
370
    15
100
AcDbLine
 10
140.4910662983
 20
155.7663374033
 30
0.0
 11
140.4910662983
 21
158.5262522486
 31
0.0
  0
LINE
  5
2FD
330
1F
100
AcDbEntity
  8
0
  6
Continuous
 62
     7
370
    15
100
AcDbLine
 10
156.2410665517
 20
158.6608451244
 30
0.0
 11
156.4910670583
 21
158.5262522486
 31
0.0
  0
LINE
  5
2FE
330
1F
100
AcDbEntity
  8
0
  6
Continuous
 62
     7
370
    15
100
AcDbLine
 10
156.4910670583
 20
158.5262522486
 30
0.0
 11
156.4910670583
 21
155.7663374033
 31
0.0
  0
LINE
  5
2FF
330
1F
100
AcDbEntity
  8
0
  6
Continuous
 62
     7
370
    15
100
AcDbLine
 10
140.7410663102
 20
161.9159069297
 30
0.0
 11
140.7410663102
 21
158.6608451244
 31
0.0
  0
LINE
  5
300
330
1F
100
AcDbEntity
  8
0
  6
Continuous
 62
     7
370
    15
100
AcDbLine
 10
140.4910662983
 20
158.5262522486
 30
0.0
 11
140.4910662983
 21
162.1016927448
 31
0.0
  0
LINE
  5
301
330
1F
100
AcDbEntity
  8
0
  6
Continuous
 62
     7
370
    15
100
AcDbLine
 10
156.2410665517
 20
158.6608451244
 30
0.0
 11
156.2410665517
 21
161.9159069297
 31
0.0
  0
LINE
  5
302
330
1F
100
AcDbEntity
  8
0
  6
Continuous
 62
     7
370
    15
100
AcDbLine
 10
156.4910670583
 20
162.1016927448
 30
0.0
 11
156.4910670583
 21
158.5262522486
 31
0.0
  0
LINE
  5
303
330
1F
100
AcDbEntity
  8
0
  6
Continuous
 62
     7
370
    15
100
AcDbLine
 10
140.4910662983
 20
105.5747393903
 30
0.0
 11
140.7410663102
 21
105.7216871914
 31
0.0
  0
LINE
  5
304
330
1F
100
AcDbEntity
  8
0
  6
Continuous
 62
     7
370
    15
100
AcDbLine
 10
140.7410663102
 20
105.7216871914
 30
0.0
 11
140.7410663102
 21
97.752598339
 31
0.0
  0
SPLINE
  5
305
330
1F
100
AcDbEntity
  8
0
  6
Continuous
 62
     7
370
    15
100
AcDbSpline
210
0.0
220
0.0
230
1.0
 70
     8
 71
     3
 72
     8
 73
     4
 74
     0
 42
0.00000001
 43
0.00000001
 12
1.0
 22
0.0
 32
0.0
 13
1.0
 23
0.0
 33
0.0
 40
0.0
 40
0.0
 40
0.0
 40
0.0
 40
1.0
 40
1.0
 40
1.0
 40
1.0
 10
140.72616573773
 20
97.66814541536984
 30
0.0
 10
140.7356268147101
 20
97.69372041593313
 30
0.0
 10
140.7410662983446
 20
97.72268305710976
 30
0.0
 10
140.7410662983447
 20
97.75259953890142
 30
0.0
  0
SPLINE
  5
306
330
1F
100
AcDbEntity
  8
0
  6
Continuous
 62
     7
370
    15
100
AcDbSpline
210
0.0
220
0.0
230
1.0
 70
     8
 71
     3
 72
     8
 73
     4
 74
     0
 42
0.00000001
 43
0.00000001
 12
1.0
 22
0.0
 32
0.0
 13
1.0
 23
0.0
 33
0.0
 40
0.0
 40
0.0
 40
0.0
 40
0.0
 40
1.0
 40
1.0
 40
1.0
 40
1.0
 10
140.6678429936392
 20
97.67877087197444
 30
0.0
 10
140.6868275707564
 20
97.66877941769714
 30
0.0
 10
140.7065701886002
 20
97.66629381975639
 30
0.0
 10
140.7261657377298
 20
97.66814541537181
 30
0.0
  0
SPLINE
  5
307
330
1F
100
AcDbEntity
  8
0
  6
Continuous
 62
     7
370
    15
100
AcDbSpline
210
0.0
220
0.0
230
1.0
 70
     8
 71
     3
 72
     8
 73
     4
 74
     0
 42
0.00000001
 43
0.00000001
 12
1.0
 22
0.0
 32
0.0
 13
1.0
 23
0.0
 33
0.0
 40
0.0001085338104882
 40
0.0001085338104882
 40
0.0001085338104882
 40
0.0001085338104882
 40
0.0003707418624266
 40
0.0003707418624266
 40
0.0003707418624266
 40
0.0003707418624266
 10
140.6678429936392
 20
97.67877087197444
 30
0.0
 10
140.6088880071901
 20
97.70979848180158
 30
0.0
 10
140.5499620796752
 20
97.74076744344879
 30
0.0
 10
140.4910662983426
 20
97.77167585875755
 30
0.0
  0
LINE
  5
308
330
1F
100
AcDbEntity
  8
0
  6
Continuous
 62
     7
370
    15
100
AcDbLine
 10
140.4910662983
 20
97.7716755506
 30
0.0
 11
140.4910662983
 21
105.5747393903
 31
0.0
  0
LINE
  5
309
330
1F
100
AcDbEntity
  8
0
  6
Continuous
 62
     7
370
    15
100
AcDbLine
 10
156.2410665517
 20
105.7216871914
 30
0.0
 11
140.7410663102
 21
105.7216871914
 31
0.0
  0
LINE
  5
30A
330
1F
100
AcDbEntity
  8
0
  6
Continuous
 62
     7
370
    15
100
AcDbLine
 10
156.2410665517
 20
97.752598339
 30
0.0
 11
156.2410665517
 21
105.7216871914
 31
0.0
  0
LINE
  5
30B
330
1F
100
AcDbEntity
  8
0
  6
Continuous
 62
     7
370
    15
100
AcDbLine
 10
140.7410663102
 20
97.752598339
 30
0.0
 11
156.2410665517
 21
97.752598339
 31
0.0
  0
LINE
  5
30C
330
1F
100
AcDbEntity
  8
0
  6
Continuous
 62
     7
370
    15
100
AcDbLine
 10
156.2410665517
 20
105.7216871914
 30
0.0
 11
156.4910670583
 21
105.5747393903
 31
0.0
  0
SPLINE
  5
30D
330
1F
100
AcDbEntity
  8
0
  6
Continuous
 62
     7
370
    15
100
AcDbSpline
210
0.0
220
0.0
230
1.0
 70
     8
 71
     3
 72
     8
 73
     4
 74
     0
 42
0.00000001
 43
0.00000001
 12
1.0
 22
0.0
 32
0.0
 13
1.0
 23
0.0
 33
0.0
 40
0.0001085338104882
 40
0.0001085338104882
 40
0.0001085338104882
 40
0.0001085338104882
 40
0.0003707418624266
 40
0.0003707418624266
 40
0.0003707418624266
 40
0.0003707418624266
 10
156.3142896030459
 20
97.67877087197444
 30
0.0
 10
156.373244589495
 20
97.70979848180158
 30
0.0
 10
156.43217051701
 20
97.74076744344876
 30
0.0
 10
156.4910662983426
 20
97.77167585875753
 30
0.0
  0
SPLINE
  5
30E
330
1F
100
AcDbEntity
  8
0
  6
Continuous
 62
     7
370
    15
100
AcDbSpline
210
0.0
220
0.0
230
1.0
 70
     8
 71
     3
 72
     8
 73
     4
 74
     0
 42
0.00000001
 43
0.00000001
 12
1.0
 22
0.0
 32
0.0
 13
1.0
 23
0.0
 33
0.0
 40
0.0
 40
0.0
 40
0.0
 40
0.0
 40
1.0
 40
1.0
 40
1.0
 40
1.0
 10
156.2559668589553
 20
97.66814541537116
 30
0.0
 10
156.2753744872203
 20
97.66631157651497
 30
0.0
 10
156.2954060884717
 20
97.66883260622855
 30
0.0
 10
156.3142896030459
 20
97.67877087197444
 30
0.0
  0
SPLINE
  5
30F
330
1F
100
AcDbEntity
  8
0
  6
Continuous
 62
     7
370
    15
100
AcDbSpline
210
0.0
220
0.0
230
1.0
 70
     8
 71
     3
 72
     8
 73
     4
 74
     0
 42
0.00000001
 43
0.00000001
 12
1.0
 22
0.0
 32
0.0
 13
1.0
 23
0.0
 33
0.0
 40
0.0
 40
0.0
 40
0.0
 40
0.0
 40
1.0
 40
1.0
 40
1.0
 40
1.0
 10
156.2410662983426
 20
97.75259953890225
 30
0.0
 10
156.2410662983426
 20
97.72263947825785
 30
0.0
 10
156.2464421528992
 20
97.69389241682183
 30
0.0
 10
156.2559668589552
 20
97.66814541536995
 30
0.0
  0
LINE
  5
310
330
1F
100
AcDbEntity
  8
0
  6
Continuous
 62
     7
370
    15
100
AcDbLine
 10
156.4910670583
 20
105.5747393903
 30
0.0
 11
156.4910670583
 21
97.7716755506
 31
0.0
  0
SPLINE
  5
311
330
1F
100
AcDbEntity
  8
0
  6
Continuous
 62
     7
370
    15
100
AcDbSpline
210
0.0
220
0.0
230
1.0
 70
     8
 71
     3
 72
     8
 73
     4
 74
     0
 42
0.00000001
 43
0.00000001
 12
1.0
 22
0.0
 32
0.0
 13
1.0
 23
0.0
 33
0.0
 40
0.0
 40
0.0
 40
0.0
 40
0.0
 40
1.0
 40
1.0
 40
1.0
 40
1.0
 10
156.1375129077493
 20
97.57250884828159
 30
0.0
 10
156.1776958534403
 20
97.5968558527228
 30
0.0
 10
156.2183752432259
 20
97.62920614366524
 30
0.0
 10
156.2559668589537
 20
97.66814541537103
 30
0.0
  0
LINE
  5
312
330
1F
100
AcDbEntity
  8
0
  6
Continuous
 62
     7
370
    15
100
AcDbLine
 10
156.1375127946
 20
97.5725103554
 30
0.0
 11
140.8446196889
 21
97.5725103554
 31
0.0
  0
SPLINE
  5
313
330
1F
100
AcDbEntity
  8
0
  6
Continuous
 62
     7
370
    15
100
AcDbSpline
210
0.0
220
0.0
230
1.0
 70
     8
 71
     3
 72
     8
 73
     4
 74
     0
 42
0.00000001
 43
0.00000001
 12
1.0
 22
0.0
 32
0.0
 13
1.0
 23
0.0
 33
0.0
 40
0.0
 40
0.0
 40
0.0
 40
0.0
 40
1.0
 40
1.0
 40
1.0
 40
1.0
 10
140.8446196889359
 20
97.57250884828159
 30
0.0
 10
140.8044367432502
 20
97.59685585272601
 30
0.0
 10
140.7637573534593
 20
97.62920614366523
 30
0.0
 10
140.7261657377315
 20
97.66814541537099
 30
0.0
  0
LINE
  5
314
330
1F
100
AcDbEntity
  8
0
  6
Continuous
 62
     7
370
    15
100
AcDbLine
 10
140.8446196889
 20
97.5725103554
 30
0.0
 11
140.8446196889
 21
96.3306215045
 31
0.0
  0
SPLINE
  5
315
330
1F
100
AcDbEntity
  8
0
  6
Continuous
 62
     7
370
    15
100
AcDbSpline
210
0.0
220
0.0
230
1.0
 70
     8
 71
     3
 72
     8
 73
     4
 74
     0
 42
0.00000001
 43
0.00000001
 12
1.0
 22
0.0
 32
0.0
 13
1.0
 23
0.0
 33
0.0
 40
0.0
 40
0.0
 40
0.0
 40
0.0
 40
1.0
 40
1.0
 40
1.0
 40
1.0
 10
140.8446196889359
 20
96.33062092359724
 30
0.0
 10
140.8044667744881
 20
96.30764118765991
 30
0.0
 10
140.763862016546
 20
96.29229448555901
 30
0.0
 10
140.7261657377319
 20
96.28746493424914
 30
0.0
  0
SPLINE
  5
316
330
1F
100
AcDbEntity
  8
0
  6
Continuous
 62
     7
370
    15
100
AcDbSpline
210
0.0
220
0.0
230
1.0
 70
     8
 71
     3
 72
     8
 73
     4
 74
     0
 42
0.00000001
 43
0.00000001
 12
1.0
 22
0.0
 32
0.0
 13
1.0
 23
0.0
 33
0.0
 40
0.0
 40
0.0
 40
0.0
 40
0.0
 40
1.0
 40
1.0
 40
1.0
 40
1.0
 10
140.7261657377348
 20
96.28746493424492
 30
0.0
 10
140.7067581094682
 20
96.30556664728621
 30
0.0
 10
140.6867265082151
 20
96.32526022977633
 30
0.0
 10
140.6678429936393
 20
96.34556586492995
 30
0.0
  0
LINE
  5
317
330
1F
100
AcDbEntity
  8
0
  6
Continuous
 62
     7
370
    15
100
AcDbLine
 10
140.6678429936
 20
96.3455673691
 30
0.0
 11
140.6678429936
 21
97.6787705359
 31
0.0
  0
SPLINE
  5
318
330
1F
100
AcDbEntity
  8
0
  6
Continuous
 62
     7
370
    15
100
AcDbSpline
210
0.0
220
0.0
230
1.0
 70
     8
 71
     3
 72
     8
 73
     4
 74
     0
 42
0.00000001
 43
0.00000001
 12
1.0
 22
0.0
 32
0.0
 13
1.0
 23
0.0
 33
0.0
 40
0.0
 40
0.0
 40
0.0
 40
0.0
 40
1.0
 40
1.0
 40
1.0
 40
1.0
 10
156.1375129077493
 20
96.33062092359724
 30
0.0
 10
156.1776958534269
 20
96.30762400062764
 30
0.0
 10
156.2183752432258
 20
96.29228107639054
 30
0.0
 10
156.2559668589537
 20
96.287464934249
 30
0.0
  0
LINE
  5
319
330
1F
100
AcDbEntity
  8
0
  6
Continuous
 62
     7
370
    15
100
AcDbLine
 10
156.1375127946
 20
96.3306215045
 30
0.0
 11
156.1375127946
 21
97.5725103554
 31
0.0
  0
LINE
  5
31A
330
1F
100
AcDbEntity
  8
0
  6
Continuous
 62
     7
370
    15
100
AcDbLine
 10
156.3142889951
 20
97.6787705359
 30
0.0
 11
156.3142889951
 21
96.3455673691
 31
0.0
  0
SPLINE
  5
31B
330
1F
100
AcDbEntity
  8
0
  6
Continuous
 62
     7
370
    15
100
AcDbSpline
210
0.0
220
0.0
230
1.0
 70
     8
 71
     3
 72
     8
 73
     4
 74
     0
 42
0.00000001
 43
0.00000001
 12
1.0
 22
0.0
 32
0.0
 13
1.0
 23
0.0
 33
0.0
 40
0.0
 40
0.0
 40
0.0
 40
0.0
 40
1.0
 40
1.0
 40
1.0
 40
1.0
 10
156.3142896030459
 20
96.34556586492997
 30
0.0
 10
156.2953050259287
 20
96.32515155619853
 30
0.0
 10
156.2755624080849
 20
96.30574192319256
 30
0.0
 10
156.2559668589554
 20
96.28746493424988
 30
0.0
  0
SPLINE
  5
31C
330
1F
100
AcDbEntity
  8
0
  6
Continuous
 62
     7
370
    15
100
AcDbSpline
210
0.0
220
0.0
230
1.0
 70
     8
 71
     3
 72
     8
 73
     4
 74
     0
 42
0.00000001
 43
0.00000001
 12
1.0
 22
0.0
 32
0.0
 13
1.0
 23
0.0
 33
0.0
 40
0.0001085338104882
 40
0.0001085338104882
 40
0.0001085338104882
 40
0.0001085338104882
 40
0.0003707418624266
 40
0.0003707418624266
 40
0.0003707418624266
 40
0.0003707418624266
 10
140.6678429936393
 20
96.34556586492995
 30
0.0
 10
140.6088880071901
 20
96.40896076107127
 30
0.0
 10
140.5499620796752
 20
96.47239699581387
 30
0.0
 10
140.4910662983426
 20
96.53587561997853
 30
0.0
  0
LINE
  5
31D
330
1F
100
AcDbEntity
  8
0
  6
Continuous
 62
     7
370
    15
100
AcDbLine
 10
140.4910662983
 20
96.535873824
 30
0.0
 11
140.4910662983
 21
97.7716755506
 31
0.0
  0
SPLINE
  5
31E
330
1F
100
AcDbEntity
  8
0
  6
Continuous
 62
     7
370
    15
100
AcDbSpline
210
0.0
220
0.0
230
1.0
 70
     8
 71
     3
 72
     8
 73
     4
 74
     0
 42
0.00000001
 43
0.00000001
 12
1.0
 22
0.0
 32
0.0
 13
1.0
 23
0.0
 33
0.0
 40
0.0001085338104882
 40
0.0001085338104882
 40
0.0001085338104882
 40
0.0001085338104882
 40
0.0003707418624266
 40
0.0003707418624266
 40
0.0003707418624266
 40
0.0003707418624266
 10
156.3142896030459
 20
96.34556586492997
 30
0.0
 10
156.373244589495
 20
96.40896076107126
 30
0.0
 10
156.43217051701
 20
96.47239699581387
 30
0.0
 10
156.4910662983426
 20
96.5358756199785
 30
0.0
  0
LINE
  5
31F
330
1F
100
AcDbEntity
  8
0
  6
Continuous
 62
     7
370
    15
100
AcDbLine
 10
156.4910670583
 20
97.7716755506
 30
0.0
 11
156.4910670583
 21
96.535873824
 31
0.0
  0
LINE
  5
320
330
1F
100
AcDbEntity
  8
0
  6
Continuous
 62
     7
370
    15
100
AcDbLine
 10
140.8446196889
 20
96.3306215045
 30
0.0
 11
156.1375127946
 21
96.3306215045
 31
0.0
  0
SPLINE
  5
321
330
1F
100
AcDbEntity
  8
0
  6
Continuous
 62
     7
370
    15
100
AcDbSpline
210
0.0
220
0.0
230
1.0
 70
     8
 71
     3
 72
     9
 73
     5
 74
     0
 42
0.00000001
 43
0.00000001
 12
1.0
 22
0.0
 32
0.0
 13
1.0
 23
0.0
 33
0.0
 40
0.0
 40
0.0
 40
0.0
 40
0.0
 40
0.1706639931550003
 40
1.0
 40
1.0
 40
1.0
 40
1.0
 10
140.7336030549018
 20
96.28646191327269
 30
0.0
 10
140.7334179886003
 20
96.28625883519757
 30
0.0
 10
140.7323335987523
 20
96.28506890596086
 30
0.0
 10
140.7289619559106
 20
96.28637818451502
 30
0.0
 10
140.7261657310997
 20
96.28746401636297
 30
0.0
  0
LINE
  5
322
330
1F
100
AcDbEntity
  8
0
  6
Continuous
 62
     7
370
    15
100
AcDbLine
 10
156.2559677129
 20
96.2874640164
 30
0.0
 11
156.2488039796
 21
96.2867711124
 31
0.0
  0
LINE
  5
323
330
1F
100
AcDbEntity
  8
0
  6
Continuous
 62
     7
370
    15
100
AcDbLine
 10
140.4910662983
 20
108.1109207508
 30
0.0
 11
140.7410663102
 21
108.2578666892
 31
0.0
  0
LINE
  5
324
330
1F
100
AcDbEntity
  8
0
  6
Continuous
 62
     7
370
    15
100
AcDbLine
 10
140.7410663102
 20
108.2578666892
 30
0.0
 11
140.7410663102
 21
105.7216871914
 31
0.0
  0
LINE
  5
325
330
1F
100
AcDbEntity
  8
0
  6
Continuous
 62
     7
370
    15
100
AcDbLine
 10
140.4910662983
 20
105.5747393903
 30
0.0
 11
140.4910662983
 21
108.1109207508
 31
0.0
  0
LINE
  5
326
330
1F
100
AcDbEntity
  8
0
  6
Continuous
 62
     7
370
    15
100
AcDbLine
 10
156.2410665517
 20
105.7216871914
 30
0.0
 11
156.2410665517
 21
108.2578666892
 31
0.0
  0
LINE
  5
327
330
1F
100
AcDbEntity
  8
0
  6
Continuous
 62
     7
370
    15
100
AcDbLine
 10
156.2410665517
 20
108.2578666892
 30
0.0
 11
140.7410663102
 21
108.2578666892
 31
0.0
  0
LINE
  5
328
330
1F
100
AcDbEntity
  8
0
  6
Continuous
 62
     7
370
    15
100
AcDbLine
 10
156.2410665517
 20
108.2578666892
 30
0.0
 11
156.4910670583
 21
108.1109207508
 31
0.0
  0
LINE
  5
329
330
1F
100
AcDbEntity
  8
0
  6
Continuous
 62
     7
370
    15
100
AcDbLine
 10
156.4910670583
 20
108.1109207508
 30
0.0
 11
156.4910670583
 21
105.5747393903
 31
0.0
  0
LINE
  5
32A
330
1F
100
AcDbEntity
  8
0
  6
Continuous
 62
     7
370
    15
100
AcDbLine
 10
156.2410665517
 20
108.2578666892
 30
0.0
 11
156.2410665517
 21
111.4804719028
 31
0.0
  0
LINE
  5
32B
330
1F
100
AcDbEntity
  8
0
  6
Continuous
 62
     7
370
    15
100
AcDbLine
 10
140.7410663102
 20
111.4804719028
 30
0.0
 11
140.7410663102
 21
108.2578666892
 31
0.0
  0
LINE
  5
32C
330
1F
100
AcDbEntity
  8
0
  6
Continuous
 62
     7
370
    15
100
AcDbLine
 10
140.4910662983
 20
108.1109207508
 30
0.0
 11
140.4910662983
 21
111.7089160171
 31
0.0
  0
LINE
  5
32D
330
1F
100
AcDbEntity
  8
0
  6
Continuous
 62
     7
370
    15
100
AcDbLine
 10
156.4910670583
 20
111.7089160171
 30
0.0
 11
156.4910670583
 21
108.1109207508
 31
0.0
  0
LINE
  5
32E
330
1F
100
AcDbEntity
  8
0
  6
Continuous
 62
     7
370
    15
100
AcDbLine
 10
156.2410665517
 20
175.9338129696
 30
0.0
 11
140.7410663102
 21
175.9338129696
 31
0.0
  0
LINE
  5
32F
330
1F
100
AcDbEntity
  8
0
  6
Continuous
 62
     7
370
    15
100
AcDbLine
 10
140.7410663102
 20
184.197974616
 30
0.0
 11
140.7410663102
 21
175.9338129696
 31
0.0
  0
LINE
  5
330
330
1F
100
AcDbEntity
  8
0
  6
Continuous
 62
     7
370
    15
100
AcDbLine
 10
156.2410665517
 20
184.197974616
 30
0.0
 11
140.7410663102
 21
184.197974616
 31
0.0
  0
LINE
  5
331
330
1F
100
AcDbEntity
  8
0
  6
Continuous
 62
     7
370
    15
100
AcDbLine
 10
156.2410665517
 20
175.9338129696
 30
0.0
 11
156.2410665517
 21
184.197974616
 31
0.0
  0
LINE
  5
332
330
1F
100
AcDbEntity
  8
0
  6
Continuous
 62
     7
370
    15
100
AcDbLine
 10
140.4910662983
 20
176.0354984936
 30
0.0
 11
140.7410663102
 21
175.9338129696
 31
0.0
  0
SPLINE
  5
333
330
1F
100
AcDbEntity
  8
0
  6
Continuous
 62
     7
370
    15
100
AcDbSpline
210
0.0
220
0.0
230
1.0
 70
     8
 71
     3
 72
     8
 73
     4
 74
     0
 42
0.00000001
 43
0.00000001
 12
1.0
 22
0.0
 32
0.0
 13
1.0
 23
0.0
 33
0.0
 40
0.0001085338104882
 40
0.0001085338104882
 40
0.0001085338104882
 40
0.0001085338104882
 40
0.0003707418624266
 40
0.0003707418624266
 40
0.0003707418624266
 40
0.0003707418624266
 10
140.6678429936392
 20
184.2536904643887
 30
0.0
 10
140.6088880071901
 20
184.2115781002035
 30
0.0
 10
140.5499620796752
 20
184.1695101035553
 30
0.0
 10
140.4910662983426
 20
184.1274879731727
 30
0.0
  0
SPLINE
  5
334
330
1F
100
AcDbEntity
  8
0
  6
Continuous
 62
     7
370
    15
100
AcDbSpline
210
0.0
220
0.0
230
1.0
 70
     8
 71
     3
 72
     8
 73
     4
 74
     0
 42
0.00000001
 43
0.00000001
 12
1.0
 22
0.0
 32
0.0
 13
1.0
 23
0.0
 33
0.0
 40
0.0
 40
0.0
 40
0.0
 40
0.0
 40
1.0
 40
1.0
 40
1.0
 40
1.0
 10
140.7261657377348
 20
184.2760674501062
 30
0.0
 10
140.7067581094682
 20
184.2737800921089
 30
0.0
 10
140.6867265082151
 20
184.2671792206554
 30
0.0
 10
140.6678429936392
 20
184.2536904643887
 30
0.0
  0
SPLINE
  5
335
330
1F
100
AcDbEntity
  8
0
  6
Continuous
 62
     7
370
    15
100
AcDbSpline
210
0.0
220
0.0
230
1.0
 70
     8
 71
     3
 72
     8
 73
     4
 74
     0
 42
0.00000001
 43
0.00000001
 12
1.0
 22
0.0
 32
0.0
 13
1.0
 23
0.0
 33
0.0
 40
0.0
 40
0.0
 40
0.0
 40
0.0
 40
1.0
 40
1.0
 40
1.0
 40
1.0
 10
140.7410662983426
 20
184.1979738108499
 30
0.0
 10
140.7410662983426
 20
184.2268024733091
 30
0.0
 10
140.7356904437865
 20
184.2533185735214
 30
0.0
 10
140.7261657377316
 20
184.276067450103
 30
0.0
  0
LINE
  5
336
330
1F
100
AcDbEntity
  8
0
  6
Continuous
 62
     7
370
    15
100
AcDbLine
 10
140.4910662983
 20
176.0354984936
 30
0.0
 11
140.4910662983
 21
184.1274883982
 31
0.0
  0
LINE
  5
337
330
1F
100
AcDbEntity
  8
0
  6
Continuous
 62
     7
370
    15
100
AcDbLine
 10
156.2410665517
 20
175.9338129696
 30
0.0
 11
156.4910670583
 21
176.0354984936
 31
0.0
  0
SPLINE
  5
338
330
1F
100
AcDbEntity
  8
0
  6
Continuous
 62
     7
370
    15
100
AcDbSpline
210
0.0
220
0.0
230
1.0
 70
     8
 71
     3
 72
     8
 73
     4
 74
     0
 42
0.00000001
 43
0.00000001
 12
1.0
 22
0.0
 32
0.0
 13
1.0
 23
0.0
 33
0.0
 40
0.0
 40
0.0
 40
0.0
 40
0.0
 40
1.0
 40
1.0
 40
1.0
 40
1.0
 10
156.2559668589552
 20
184.2760674501069
 30
0.0
 10
156.246505781975
 20
184.2534705456675
 30
0.0
 10
156.2410662983405
 20
184.2267605401513
 30
0.0
 10
156.2410662983405
 20
184.1979738108513
 30
0.0
  0
SPLINE
  5
339
330
1F
100
AcDbEntity
  8
0
  6
Continuous
 62
     7
370
    15
100
AcDbSpline
210
0.0
220
0.0
230
1.0
 70
     8
 71
     3
 72
     8
 73
     4
 74
     0
 42
0.00000001
 43
0.00000001
 12
1.0
 22
0.0
 32
0.0
 13
1.0
 23
0.0
 33
0.0
 40
0.0
 40
0.0
 40
0.0
 40
0.0
 40
1.0
 40
1.0
 40
1.0
 40
1.0
 10
156.3142896030459
 20
184.2536904643887
 30
0.0
 10
156.2953050259287
 20
184.2672514110298
 30
0.0
 10
156.2755624080849
 20
184.2737579439967
 30
0.0
 10
156.2559668589554
 20
184.2760674501049
 30
0.0
  0
SPLINE
  5
33A
330
1F
100
AcDbEntity
  8
0
  6
Continuous
 62
     7
370
    15
100
AcDbSpline
210
0.0
220
0.0
230
1.0
 70
     8
 71
     3
 72
     8
 73
     4
 74
     0
 42
0.00000001
 43
0.00000001
 12
1.0
 22
0.0
 32
0.0
 13
1.0
 23
0.0
 33
0.0
 40
0.0001085338104882
 40
0.0001085338104882
 40
0.0001085338104882
 40
0.0001085338104882
 40
0.0003707418624266
 40
0.0003707418624266
 40
0.0003707418624266
 40
0.0003707418624266
 10
156.3142896030459
 20
184.2536904643887
 30
0.0
 10
156.373244589495
 20
184.2115781002035
 30
0.0
 10
156.43217051701
 20
184.1695101035553
 30
0.0
 10
156.4910662983426
 20
184.1274879731727
 30
0.0
  0
LINE
  5
33B
330
1F
100
AcDbEntity
  8
0
  6
Continuous
 62
     7
370
    15
100
AcDbLine
 10
156.4910670583
 20
184.1274883982
 30
0.0
 11
156.4910670583
 21
176.0354984936
 31
0.0
  0
SPLINE
  5
33C
330
1F
100
AcDbEntity
  8
0
  6
Continuous
 62
     7
370
    15
100
AcDbSpline
210
0.0
220
0.0
230
1.0
 70
     8
 71
     3
 72
     8
 73
     4
 74
     0
 42
0.00000001
 43
0.00000001
 12
1.0
 22
0.0
 32
0.0
 13
1.0
 23
0.0
 33
0.0
 40
0.0
 40
0.0
 40
0.0
 40
0.0
 40
1.0
 40
1.0
 40
1.0
 40
1.0
 10
140.8446196889359
 20
184.3537190519303
 30
0.0
 10
140.8044667744874
 20
184.3365890390444
 30
0.0
 10
140.763862016546
 20
184.3105682059711
 30
0.0
 10
140.726165737732
 20
184.2760674501062
 30
0.0
  0
LINE
  5
33D
330
1F
100
AcDbEntity
  8
0
  6
Continuous
 62
     7
370
    15
100
AcDbLine
 10
140.8446196889
 20
184.3537178275
 30
0.0
 11
156.1375127946
 21
184.3537178275
 31
0.0
  0
SPLINE
  5
33E
330
1F
100
AcDbEntity
  8
0
  6
Continuous
 62
     7
370
    15
100
AcDbSpline
210
0.0
220
0.0
230
1.0
 70
     8
 71
     3
 72
     8
 73
     4
 74
     0
 42
0.00000001
 43
0.00000001
 12
1.0
 22
0.0
 32
0.0
 13
1.0
 23
0.0
 33
0.0
 40
0.0
 40
0.0
 40
0.0
 40
0.0
 40
1.0
 40
1.0
 40
1.0
 40
1.0
 10
156.1375129077493
 20
184.3537190519303
 30
0.0
 10
156.1776958534226
 20
184.336576227142
 30
0.0
 10
156.2183752432258
 20
184.3104724152005
 30
0.0
 10
156.2559668589536
 20
184.2760674501059
 30
0.0
  0
SPLINE
  5
33F
330
1F
100
AcDbEntity
  8
0
  6
Continuous
 62
     7
370
    15
100
AcDbSpline
210
0.0
220
0.0
230
1.0
 70
     8
 71
     3
 72
     8
 73
     4
 74
     0
 42
0.00000001
 43
0.00000001
 12
1.0
 22
0.0
 32
0.0
 13
1.0
 23
0.0
 33
0.0
 40
0.0
 40
0.0
 40
0.0
 40
0.0
 40
1.0
 40
1.0
 40
1.0
 40
1.0
 10
140.6678429936392
 20
185.1762439428609
 30
0.0
 10
140.6868275707564
 20
185.1970173141339
 30
0.0
 10
140.7065701886002
 20
185.215234969799
 30
0.0
 10
140.7261657377298
 20
185.2314730882381
 30
0.0
  0
SPLINE
  5
340
330
1F
100
AcDbEntity
  8
0
  6
Continuous
 62
     7
370
    15
100
AcDbSpline
210
0.0
220
0.0
230
1.0
 70
     8
 71
     3
 72
     8
 73
     4
 74
     0
 42
0.00000001
 43
0.00000001
 12
1.0
 22
0.0
 32
0.0
 13
1.0
 23
0.0
 33
0.0
 40
0.0
 40
0.0
 40
0.0
 40
0.0
 40
1.0
 40
1.0
 40
1.0
 40
1.0
 10
140.8446196889359
 20
185.2130827797414
 30
0.0
 10
140.8044367432461
 20
185.2287010867296
 30
0.0
 10
140.7637573534593
 20
185.2356001073063
 30
0.0
 10
140.7261657377315
 20
185.2314730882391
 30
0.0
  0
LINE
  5
341
330
1F
100
AcDbEntity
  8
0
  6
Continuous
 62
     7
370
    15
100
AcDbLine
 10
140.8446196889
 20
185.2130826947
 30
0.0
 11
140.8446196889
 21
184.3537178275
 31
0.0
  0
LINE
  5
342
330
1F
100
AcDbEntity
  8
0
  6
Continuous
 62
     7
370
    15
100
AcDbLine
 10
140.6678429936
 20
184.2536900577
 30
0.0
 11
140.6678429936
 21
185.1762432989
 31
0.0
  0
LINE
  5
343
330
1F
100
AcDbEntity
  8
0
  6
Continuous
 62
     7
370
    15
100
AcDbLine
 10
156.1375127946
 20
184.3537178275
 30
0.0
 11
156.1375127946
 21
185.2130826947
 31
0.0
  0
SPLINE
  5
344
330
1F
100
AcDbEntity
  8
0
  6
Continuous
 62
     7
370
    15
100
AcDbSpline
210
0.0
220
0.0
230
1.0
 70
     8
 71
     3
 72
     8
 73
     4
 74
     0
 42
0.00000001
 43
0.00000001
 12
1.0
 22
0.0
 32
0.0
 13
1.0
 23
0.0
 33
0.0
 40
0.0
 40
0.0
 40
0.0
 40
0.0
 40
1.0
 40
1.0
 40
1.0
 40
1.0
 10
156.1375129077493
 20
185.2130827797414
 30
0.0
 10
156.1776958534254
 20
185.2287010867349
 30
0.0
 10
156.2183752432259
 20
185.2356001073063
 30
0.0
 10
156.2559668589537
 20
185.2314730882391
 30
0.0
  0
SPLINE
  5
345
330
1F
100
AcDbEntity
  8
0
  6
Continuous
 62
     7
370
    15
100
AcDbSpline
210
0.0
220
0.0
230
1.0
 70
     8
 71
     3
 72
     8
 73
     4
 74
     0
 42
0.00000001
 43
0.00000001
 12
1.0
 22
0.0
 32
0.0
 13
1.0
 23
0.0
 33
0.0
 40
0.0
 40
0.0
 40
0.0
 40
0.0
 40
1.0
 40
1.0
 40
1.0
 40
1.0
 10
156.2559668589552
 20
185.2314730882386
 30
0.0
 10
156.2753744872203
 20
185.215390692981
 30
0.0
 10
156.2954060884717
 20
185.19690672912
 30
0.0
 10
156.3142896030459
 20
185.1762439428609
 30
0.0
  0
LINE
  5
346
330
1F
100
AcDbEntity
  8
0
  6
Continuous
 62
     7
370
    15
100
AcDbLine
 10
156.3142889951
 20
185.1762432989
 30
0.0
 11
156.3142889951
 21
184.2536900577
 31
0.0
  0
SPLINE
  5
347
330
1F
100
AcDbEntity
  8
0
  6
Continuous
 62
     7
370
    15
100
AcDbSpline
210
0.0
220
0.0
230
1.0
 70
     8
 71
     3
 72
     8
 73
     4
 74
     0
 42
0.00000001
 43
0.00000001
 12
1.0
 22
0.0
 32
0.0
 13
1.0
 23
0.0
 33
0.0
 40
0.0001085338104882
 40
0.0001085338104882
 40
0.0001085338104882
 40
0.0001085338104882
 40
0.0003707418624266
 40
0.0003707418624266
 40
0.0003707418624266
 40
0.0003707418624266
 10
140.6678429936392
 20
185.1762439428609
 30
0.0
 10
140.6088880071901
 20
185.1117340085945
 30
0.0
 10
140.5499620796752
 20
185.0471992528414
 30
0.0
 10
140.4910662983426
 20
184.9826391336906
 30
0.0
  0
LINE
  5
348
330
1F
100
AcDbEntity
  8
0
  6
Continuous
 62
     7
370
    15
100
AcDbLine
 10
140.4910662983
 20
184.1274883982
 30
0.0
 11
140.4910662983
 21
184.9826399621
 31
0.0
  0
SPLINE
  5
349
330
1F
100
AcDbEntity
  8
0
  6
Continuous
 62
     7
370
    15
100
AcDbSpline
210
0.0
220
0.0
230
1.0
 70
     8
 71
     3
 72
     8
 73
     4
 74
     0
 42
0.00000001
 43
0.00000001
 12
1.0
 22
0.0
 32
0.0
 13
1.0
 23
0.0
 33
0.0
 40
0.0001085338104882
 40
0.0001085338104882
 40
0.0001085338104882
 40
0.0001085338104882
 40
0.0003707418624266
 40
0.0003707418624266
 40
0.0003707418624266
 40
0.0003707418624266
 10
156.3142896030459
 20
185.1762439428609
 30
0.0
 10
156.373244589495
 20
185.1117340085945
 30
0.0
 10
156.43217051701
 20
185.0471992528414
 30
0.0
 10
156.4910662983426
 20
184.9826391336906
 30
0.0
  0
LINE
  5
34A
330
1F
100
AcDbEntity
  8
0
  6
Continuous
 62
     7
370
    15
100
AcDbLine
 10
156.4910670583
 20
184.9826399621
 30
0.0
 11
156.4910670583
 21
184.1274883982
 31
0.0
  0
LINE
  5
34B
330
1F
100
AcDbEntity
  8
0
  6
Continuous
 62
     7
370
    15
100
AcDbLine
 10
156.1375127946
 20
185.2130826947
 30
0.0
 11
140.8446196889
 21
185.2130826947
 31
0.0
  0
LINE
  5
34C
330
1F
100
AcDbEntity
  8
0
  6
Continuous
 62
     7
370
    15
100
AcDbLine
 10
140.7410663102
 20
175.9338129696
 30
0.0
 11
140.7410663102
 21
173.1848914561
 31
0.0
  0
LINE
  5
34D
330
1F
100
AcDbEntity
  8
0
  6
Continuous
 62
     7
370
    15
100
AcDbLine
 10
140.4910662983
 20
173.1716331479
 30
0.0
 11
140.4910662983
 21
176.0354984936
 31
0.0
  0
LINE
  5
34E
330
1F
100
AcDbEntity
  8
0
  6
Continuous
 62
     7
370
    15
100
AcDbLine
 10
156.2410665517
 20
173.1848914561
 30
0.0
 11
156.2410665517
 21
175.9338129696
 31
0.0
  0
LINE
  5
34F
330
1F
100
AcDbEntity
  8
0
  6
Continuous
 62
     7
370
    15
100
AcDbLine
 10
156.4910670583
 20
176.0354984936
 30
0.0
 11
156.4910670583
 21
173.1716331479
 31
0.0
  0
LINE
  5
350
330
1F
100
AcDbEntity
  8
0
  6
Continuous
 62
     7
370
    15
100
AcDbLine
 10
140.4910662983
 20
172.9394060013
 30
0.0
 11
140.4910662983
 21
173.1716331479
 31
0.0
  0
LINE
  5
351
330
1F
100
AcDbEntity
  8
0
  6
Continuous
 62
     7
370
    15
100
AcDbLine
 10
156.4910670583
 20
173.1716331479
 30
0.0
 11
156.4910670583
 21
172.9445431766
 31
0.0
  0
LINE
  5
352
330
1F
100
AcDbEntity
  8
0
  6
Continuous
 62
     7
370
    15
100
AcDbLine
 10
140.7410663102
 20
96.2902170059
 30
0.0
 11
140.7410663102
 21
88.6719871697
 31
0.0
  0
SPLINE
  5
353
330
1F
100
AcDbEntity
  8
0
  6
Continuous
 62
     7
370
    15
100
AcDbSpline
210
0.0
220
0.0
230
1.0
 70
     8
 71
     3
 72
     8
 73
     4
 74
     0
 42
0.00000001
 43
0.00000001
 12
1.0
 22
0.0
 32
0.0
 13
1.0
 23
0.0
 33
0.0
 40
0.0
 40
0.0
 40
0.0
 40
0.0
 40
1.0
 40
1.0
 40
1.0
 40
1.0
 10
140.72616573773
 20
88.60366815696507
 30
0.0
 10
140.7356268147101
 20
88.6222993721246
 30
0.0
 10
140.7410662983446
 20
88.6455893865704
 30
0.0
 10
140.7410662983447
 20
88.67198824517433
 30
0.0
  0
SPLINE
  5
354
330
1F
100
AcDbEntity
  8
0
  6
Continuous
 62
     7
370
    15
100
AcDbSpline
210
0.0
220
0.0
230
1.0
 70
     8
 71
     3
 72
     8
 73
     4
 74
     0
 42
0.00000001
 43
0.00000001
 12
1.0
 22
0.0
 32
0.0
 13
1.0
 23
0.0
 33
0.0
 40
0.0
 40
0.0
 40
0.0
 40
0.0
 40
1.0
 40
1.0
 40
1.0
 40
1.0
 10
140.6678429936392
 20
88.63681869014422
 30
0.0
 10
140.6868275707564
 20
88.62028092958025
 30
0.0
 10
140.7065701886002
 20
88.61003782829957
 30
0.0
 10
140.7261657377298
 20
88.60366815696688
 30
0.0
  0
SPLINE
  5
355
330
1F
100
AcDbEntity
  8
0
  6
Continuous
 62
     7
370
    15
100
AcDbSpline
210
0.0
220
0.0
230
1.0
 70
     8
 71
     3
 72
     8
 73
     4
 74
     0
 42
0.00000001
 43
0.00000001
 12
1.0
 22
0.0
 32
0.0
 13
1.0
 23
0.0
 33
0.0
 40
0.0001085338104882
 40
0.0001085338104882
 40
0.0001085338104882
 40
0.0001085338104882
 40
0.0003707418624266
 40
0.0003707418624266
 40
0.0003707418624266
 40
0.0003707418624266
 10
140.6678429936392
 20
88.63681869014422
 30
0.0
 10
140.6088880071901
 20
88.68817529629513
 30
0.0
 10
140.5499620796752
 20
88.73950375462614
 30
0.0
 10
140.4910662983426
 20
88.79080303134029
 30
0.0
  0
LINE
  5
356
330
1F
100
AcDbEntity
  8
0
  6
Continuous
 62
     7
370
    15
100
AcDbLine
 10
140.4910662983
 20
88.7908015784
 30
0.0
 11
140.4910662983
 21
96.5362798807
 31
0.0
  0
LINE
  5
357
330
1F
100
AcDbEntity
  8
0
  6
Continuous
 62
     7
370
    15
100
AcDbLine
 10
156.2410665517
 20
88.6719871697
 30
0.0
 11
156.2410665517
 21
96.2666694459
 31
0.0
  0
LINE
  5
358
330
1F
100
AcDbEntity
  8
0
  6
Continuous
 62
     7
370
    15
100
AcDbLine
 10
140.7410663102
 20
88.6719871697
 30
0.0
 11
156.2410665517
 21
88.6719871697
 31
0.0
  0
SPLINE
  5
359
330
1F
100
AcDbEntity
  8
0
  6
Continuous
 62
     7
370
    15
100
AcDbSpline
210
0.0
220
0.0
230
1.0
 70
     8
 71
     3
 72
     8
 73
     4
 74
     0
 42
0.00000001
 43
0.00000001
 12
1.0
 22
0.0
 32
0.0
 13
1.0
 23
0.0
 33
0.0
 40
0.0001085338104882
 40
0.0001085338104882
 40
0.0001085338104882
 40
0.0001085338104882
 40
0.0003707418624266
 40
0.0003707418624266
 40
0.0003707418624266
 40
0.0003707418624266
 10
156.3142896030459
 20
88.63681869014422
 30
0.0
 10
156.373244589495
 20
88.68817529629513
 30
0.0
 10
156.43217051701
 20
88.73950375462613
 30
0.0
 10
156.4910662983426
 20
88.79080303134026
 30
0.0
  0
SPLINE
  5
35A
330
1F
100
AcDbEntity
  8
0
  6
Continuous
 62
     7
370
    15
100
AcDbSpline
210
0.0
220
0.0
230
1.0
 70
     8
 71
     3
 72
     8
 73
     4
 74
     0
 42
0.00000001
 43
0.00000001
 12
1.0
 22
0.0
 32
0.0
 13
1.0
 23
0.0
 33
0.0
 40
0.0
 40
0.0
 40
0.0
 40
0.0
 40
1.0
 40
1.0
 40
1.0
 40
1.0
 10
156.2559668589553
 20
88.60366815696621
 30
0.0
 10
156.2753744872203
 20
88.60997674329758
 30
0.0
 10
156.2954060884717
 20
88.62036896673409
 30
0.0
 10
156.3142896030459
 20
88.63681869014422
 30
0.0
  0
SPLINE
  5
35B
330
1F
100
AcDbEntity
  8
0
  6
Continuous
 62
     7
370
    15
100
AcDbSpline
210
0.0
220
0.0
230
1.0
 70
     8
 71
     3
 72
     8
 73
     4
 74
     0
 42
0.00000001
 43
0.00000001
 12
1.0
 22
0.0
 32
0.0
 13
1.0
 23
0.0
 33
0.0
 40
0.0
 40
0.0
 40
0.0
 40
0.0
 40
1.0
 40
1.0
 40
1.0
 40
1.0
 10
156.2410662983426
 20
88.67198824517597
 30
0.0
 10
156.2410662983426
 20
88.64555093178377
 30
0.0
 10
156.2464421528992
 20
88.62242467361023
 30
0.0
 10
156.2559668589552
 20
88.60366815696516
 30
0.0
  0
LINE
  5
35C
330
1F
100
AcDbEntity
  8
0
  6
Continuous
 62
     7
370
    15
100
AcDbLine
 10
156.4910670583
 20
96.5394389269
 30
0.0
 11
156.4910670583
 21
88.7908015784
 31
0.0
  0
SPLINE
  5
35D
330
1F
100
AcDbEntity
  8
0
  6
Continuous
 62
     7
370
    15
100
AcDbSpline
210
0.0
220
0.0
230
1.0
 70
     8
 71
     3
 72
     8
 73
     4
 74
     0
 42
0.00000001
 43
0.00000001
 12
1.0
 22
0.0
 32
0.0
 13
1.0
 23
0.0
 33
0.0
 40
0.0
 40
0.0
 40
0.0
 40
0.0
 40
1.0
 40
1.0
 40
1.0
 40
1.0
 10
156.1375129077493
 20
88.5473952680199
 30
0.0
 10
156.1776958534257
 20
88.55658468944036
 30
0.0
 10
156.2183752432259
 20
88.5753011605503
 30
0.0
 10
156.2559668589537
 20
88.6036681569659
 30
0.0
  0
LINE
  5
35E
330
1F
100
AcDbEntity
  8
0
  6
Continuous
 62
     7
370
    15
100
AcDbLine
 10
156.1375127946
 20
88.5473948356
 30
0.0
 11
140.8446196889
 21
88.5473948356
 31
0.0
  0
SPLINE
  5
35F
330
1F
100
AcDbEntity
  8
0
  6
Continuous
 62
     7
370
    15
100
AcDbSpline
210
0.0
220
0.0
230
1.0
 70
     8
 71
     3
 72
     8
 73
     4
 74
     0
 42
0.00000001
 43
0.00000001
 12
1.0
 22
0.0
 32
0.0
 13
1.0
 23
0.0
 33
0.0
 40
0.0
 40
0.0
 40
0.0
 40
0.0
 40
1.0
 40
1.0
 40
1.0
 40
1.0
 10
140.8446196889359
 20
88.5473952680199
 30
0.0
 10
140.8044367432547
 20
88.55658468943925
 30
0.0
 10
140.7637573534593
 20
88.57530116055027
 30
0.0
 10
140.7261657377315
 20
88.60366815696585
 30
0.0
  0
SPLINE
  5
360
330
1F
100
AcDbEntity
  8
0
  6
Continuous
 62
     7
370
    15
100
AcDbSpline
210
0.0
220
0.0
230
1.0
 70
     8
 71
     3
 72
     8
 73
     4
 74
     0
 42
0.00000001
 43
0.00000001
 12
1.0
 22
0.0
 32
0.0
 13
1.0
 23
0.0
 33
0.0
 40
0.0
 40
0.0
 40
0.0
 40
0.0
 40
1.0
 40
1.0
 40
1.0
 40
1.0
 10
156.1375129077493
 20
88.10811405567195
 30
0.0
 10
156.1776958534226
 20
88.10055695961539
 30
0.0
 10
156.2183752432258
 20
88.10240336301345
 30
0.0
 10
156.2559668589537
 20
88.11529317275253
 30
0.0
  0
LINE
  5
361
330
1F
100
AcDbEntity
  8
0
  6
Continuous
 62
     7
370
    15
100
AcDbLine
 10
156.1375127946
 20
88.1081123289
 30
0.0
 11
156.1375127946
 21
88.5473948356
 31
0.0
  0
LINE
  5
362
330
1F
100
AcDbEntity
  8
0
  6
Continuous
 62
     7
370
    15
100
AcDbLine
 10
156.3142889951
 20
88.6368204293
 30
0.0
 11
156.3142889951
 21
88.1652359304
 31
0.0
  0
SPLINE
  5
363
330
1F
100
AcDbEntity
  8
0
  6
Continuous
 62
     7
370
    15
100
AcDbSpline
210
0.0
220
0.0
230
1.0
 70
     8
 71
     3
 72
     8
 73
     4
 74
     0
 42
0.00000001
 43
0.00000001
 12
1.0
 22
0.0
 32
0.0
 13
1.0
 23
0.0
 33
0.0
 40
0.0
 40
0.0
 40
0.0
 40
0.0
 40
1.0
 40
1.0
 40
1.0
 40
1.0
 10
156.3142896030459
 20
88.16523675415614
 30
0.0
 10
156.2953050259287
 20
88.14501221634782
 30
0.0
 10
156.2755624080849
 20
88.12878273699428
 30
0.0
 10
156.2559668589554
 20
88.11529317275358
 30
0.0
  0
LINE
  5
364
330
1F
100
AcDbEntity
  8
0
  6
Continuous
 62
     7
370
    15
100
AcDbLine
 10
140.8446196889
 20
88.5473948356
 30
0.0
 11
140.8446196889
 21
88.1081123289
 31
0.0
  0
SPLINE
  5
365
330
1F
100
AcDbEntity
  8
0
  6
Continuous
 62
     7
370
    15
100
AcDbSpline
210
0.0
220
0.0
230
1.0
 70
     8
 71
     3
 72
     8
 73
     4
 74
     0
 42
0.00000001
 43
0.00000001
 12
1.0
 22
0.0
 32
0.0
 13
1.0
 23
0.0
 33
0.0
 40
0.0
 40
0.0
 40
0.0
 40
0.0
 40
1.0
 40
1.0
 40
1.0
 40
1.0
 10
140.8446196889359
 20
88.10811405567195
 30
0.0
 10
140.8044667744889
 20
88.10056260750441
 30
0.0
 10
140.763862016546
 20
88.10236747503042
 30
0.0
 10
140.7261657377319
 20
88.11529317275249
 30
0.0
  0
SPLINE
  5
366
330
1F
100
AcDbEntity
  8
0
  6
Continuous
 62
     7
370
    15
100
AcDbSpline
210
0.0
220
0.0
230
1.0
 70
     8
 71
     3
 72
     8
 73
     4
 74
     0
 42
0.00000001
 43
0.00000001
 12
1.0
 22
0.0
 32
0.0
 13
1.0
 23
0.0
 33
0.0
 40
0.0
 40
0.0
 40
0.0
 40
0.0
 40
1.0
 40
1.0
 40
1.0
 40
1.0
 10
140.7261657377348
 20
88.11529317274963
 30
0.0
 10
140.7067581094682
 20
88.1286533723808
 30
0.0
 10
140.6867265082151
 20
88.14511987969867
 30
0.0
 10
140.6678429936392
 20
88.16523675415614
 30
0.0
  0
LINE
  5
367
330
1F
100
AcDbEntity
  8
0
  6
Continuous
 62
     7
370
    15
100
AcDbLine
 10
140.6678429936
 20
88.1652359304
 30
0.0
 11
140.6678429936
 21
88.6368204293
 31
0.0
  0
SPLINE
  5
368
330
1F
100
AcDbEntity
  8
0
  6
Continuous
 62
     7
370
    15
100
AcDbSpline
210
0.0
220
0.0
230
1.0
 70
     8
 71
     3
 72
     8
 73
     4
 74
     0
 42
0.00000001
 43
0.00000001
 12
1.0
 22
0.0
 32
0.0
 13
1.0
 23
0.0
 33
0.0
 40
0.0001085338104882
 40
0.0001085338104882
 40
0.0001085338104882
 40
0.0001085338104882
 40
0.0003707418624266
 40
0.0003707418624266
 40
0.0003707418624266
 40
0.0003707418624266
 10
140.6678429936392
 20
88.16523675415615
 30
0.0
 10
140.6088880071901
 20
88.22804233286722
 30
0.0
 10
140.5499620796752
 20
88.2908551311322
 30
0.0
 10
140.4910662983426
 20
88.35367515826856
 30
0.0
  0
LINE
  5
369
330
1F
100
AcDbEntity
  8
0
  6
Continuous
 62
     7
370
    15
100
AcDbLine
 10
140.4910662983
 20
88.3536760148
 30
0.0
 11
140.4910662983
 21
88.7908015784
 31
0.0
  0
SPLINE
  5
36A
330
1F
100
AcDbEntity
  8
0
  6
Continuous
 62
     7
370
    15
100
AcDbSpline
210
0.0
220
0.0
230
1.0
 70
     8
 71
     3
 72
     8
 73
     4
 74
     0
 42
0.00000001
 43
0.00000001
 12
1.0
 22
0.0
 32
0.0
 13
1.0
 23
0.0
 33
0.0
 40
0.0001085338104882
 40
0.0001085338104882
 40
0.0001085338104882
 40
0.0001085338104882
 40
0.0003707418624266
 40
0.0003707418624266
 40
0.0003707418624266
 40
0.0003707418624266
 10
156.3142896030459
 20
88.16523675415614
 30
0.0
 10
156.373244589495
 20
88.22804233286719
 30
0.0
 10
156.43217051701
 20
88.29085513113219
 30
0.0
 10
156.4910662983426
 20
88.35367515826853
 30
0.0
  0
LINE
  5
36B
330
1F
100
AcDbEntity
  8
0
  6
Continuous
 62
     7
370
    15
100
AcDbLine
 10
156.4910670583
 20
88.7908015784
 30
0.0
 11
156.4910670583
 21
88.3536760148
 31
0.0
  0
LINE
  5
36C
330
1F
100
AcDbEntity
  8
0
  6
Continuous
 62
     7
370
    15
100
AcDbLine
 10
140.8446196889
 20
88.1081123289
 30
0.0
 11
156.1375127946
 21
88.1081123289
 31
0.0
  0
SPLINE
  5
36D
330
1F
100
AcDbEntity
  8
0
  6
Continuous
 62
     7
370
    15
100
AcDbSpline
210
0.0
220
0.0
230
1.0
 70
     8
 71
     3
 72
     8
 73
     4
 74
     0
 42
0.00000001
 43
0.00000001
 12
1.0
 22
0.0
 32
0.0
 13
1.0
 23
0.0
 33
0.0
 40
0.0001085338104882
 40
0.0001085338104882
 40
0.0001085338104882
 40
0.0001085338104882
 40
0.0003707418624266
 40
0.0003707418624266
 40
0.0003707418624266
 40
0.0003707418624266
 10
140.6678429936392
 20
189.1167265290279
 30
0.0
 10
140.6088880071901
 20
189.0583702110364
 30
0.0
 10
140.5499620796752
 20
189.0000245909529
 30
0.0
 10
140.4910662983426
 20
188.9416901924608
 30
0.0
  0
SPLINE
  5
36E
330
1F
100
AcDbEntity
  8
0
  6
Continuous
 62
     7
370
    15
100
AcDbSpline
210
0.0
220
0.0
230
1.0
 70
     8
 71
     3
 72
     8
 73
     4
 74
     0
 42
0.00000001
 43
0.00000001
 12
1.0
 22
0.0
 32
0.0
 13
1.0
 23
0.0
 33
0.0
 40
0.0
 40
0.0
 40
0.0
 40
0.0
 40
1.0
 40
1.0
 40
1.0
 40
1.0
 10
140.7261657377348
 20
189.1592017722957
 30
0.0
 10
140.7067581094682
 20
189.1491476731252
 30
0.0
 10
140.6867265082151
 20
189.1354182877367
 30
0.0
 10
140.6678429936392
 20
189.1167265290279
 30
0.0
  0
SPLINE
  5
36F
330
1F
100
AcDbEntity
  8
0
  6
Continuous
 62
     7
370
    15
100
AcDbSpline
210
0.0
220
0.0
230
1.0
 70
     8
 71
     3
 72
     8
 73
     4
 74
     0
 42
0.00000001
 43
0.00000001
 12
1.0
 22
0.0
 32
0.0
 13
1.0
 23
0.0
 33
0.0
 40
0.0
 40
0.0
 40
0.0
 40
0.0
 40
1.0
 40
1.0
 40
1.0
 40
1.0
 10
140.7410662983426
 20
189.1036411508201
 30
0.0
 10
140.7410662983426
 20
189.126531677687
 30
0.0
 10
140.7356904437865
 20
189.1452573653654
 30
0.0
 10
140.7261657377316
 20
189.1592017722918
 30
0.0
  0
LINE
  5
370
330
1F
100
AcDbEntity
  8
0
  6
Continuous
 62
     7
370
    15
100
AcDbLine
 10
140.7410663102
 20
189.103641772
 30
0.0
 11
140.7410663102
 21
185.2344956633
 31
0.0
  0
LINE
  5
371
330
1F
100
AcDbEntity
  8
0
  6
Continuous
 62
     7
370
    15
100
AcDbLine
 10
140.4910662983
 20
185.0054648158
 30
0.0
 11
140.4910662983
 21
188.9416885015
 31
0.0
  0
LINE
  5
372
330
1F
100
AcDbEntity
  8
0
  6
Continuous
 62
     7
370
    15
100
AcDbLine
 10
156.2410665517
 20
189.103641772
 30
0.0
 11
140.7410663102
 21
189.103641772
 31
0.0
  0
LINE
  5
373
330
1F
100
AcDbEntity
  8
0
  6
Continuous
 62
     7
370
    15
100
AcDbLine
 10
156.2410665517
 20
185.2556031582
 30
0.0
 11
156.2410665517
 21
189.103641772
 31
0.0
  0
SPLINE
  5
374
330
1F
100
AcDbEntity
  8
0
  6
Continuous
 62
     7
370
    15
100
AcDbSpline
210
0.0
220
0.0
230
1.0
 70
     8
 71
     3
 72
     8
 73
     4
 74
     0
 42
0.00000001
 43
0.00000001
 12
1.0
 22
0.0
 32
0.0
 13
1.0
 23
0.0
 33
0.0
 40
0.0
 40
0.0
 40
0.0
 40
0.0
 40
1.0
 40
1.0
 40
1.0
 40
1.0
 10
156.2559668589552
 20
189.1592017722942
 30
0.0
 10
156.246505781975
 20
189.1453505199194
 30
0.0
 10
156.2410662983405
 20
189.1264983819331
 30
0.0
 10
156.2410662983405
 20
189.1036411508221
 30
0.0
  0
SPLINE
  5
375
330
1F
100
AcDbEntity
  8
0
  6
Continuous
 62
     7
370
    15
100
AcDbSpline
210
0.0
220
0.0
230
1.0
 70
     8
 71
     3
 72
     8
 73
     4
 74
     0
 42
0.00000001
 43
0.00000001
 12
1.0
 22
0.0
 32
0.0
 13
1.0
 23
0.0
 33
0.0
 40
0.0
 40
0.0
 40
0.0
 40
0.0
 40
1.0
 40
1.0
 40
1.0
 40
1.0
 10
156.3142896030459
 20
189.1167265290279
 30
0.0
 10
156.2953050259288
 20
189.1355183240211
 30
0.0
 10
156.2755624080849
 20
189.1490503209377
 30
0.0
 10
156.2559668589554
 20
189.1592017722926
 30
0.0
  0
SPLINE
  5
376
330
1F
100
AcDbEntity
  8
0
  6
Continuous
 62
     7
370
    15
100
AcDbSpline
210
0.0
220
0.0
230
1.0
 70
     8
 71
     3
 72
     8
 73
     4
 74
     0
 42
0.00000001
 43
0.00000001
 12
1.0
 22
0.0
 32
0.0
 13
1.0
 23
0.0
 33
0.0
 40
0.0001085338104882
 40
0.0001085338104882
 40
0.0001085338104882
 40
0.0001085338104882
 40
0.0003707418624266
 40
0.0003707418624266
 40
0.0003707418624266
 40
0.0003707418624266
 10
156.3142896030459
 20
189.1167265290279
 30
0.0
 10
156.373244589495
 20
189.0583702110364
 30
0.0
 10
156.43217051701
 20
189.0000245909529
 30
0.0
 10
156.4910662983426
 20
188.9416901924609
 30
0.0
  0
LINE
  5
377
330
1F
100
AcDbEntity
  8
0
  6
Continuous
 62
     7
370
    15
100
AcDbLine
 10
156.4910670583
 20
188.9416885015
 30
0.0
 11
156.4910670583
 21
185.0016352174
 31
0.0
  0
SPLINE
  5
378
330
1F
100
AcDbEntity
  8
0
  6
Continuous
 62
     7
370
    15
100
AcDbSpline
210
0.0
220
0.0
230
1.0
 70
     8
 71
     3
 72
     8
 73
     4
 74
     0
 42
0.00000001
 43
0.00000001
 12
1.0
 22
0.0
 32
0.0
 13
1.0
 23
0.0
 33
0.0
 40
0.0
 40
0.0
 40
0.0
 40
0.0
 40
1.0
 40
1.0
 40
1.0
 40
1.0
 10
140.8446196889359
 20
189.1916365530869
 30
0.0
 10
140.8044667744841
 20
189.1908027804412
 30
0.0
 10
140.763862016546
 20
189.1803497431534
 30
0.0
 10
140.7261657377319
 20
189.1592017722938
 30
0.0
  0
LINE
  5
379
330
1F
100
AcDbEntity
  8
0
  6
Continuous
 62
     7
370
    15
100
AcDbLine
 10
140.8446196889
 20
189.1916368541
 30
0.0
 11
156.1375127946
 21
189.1916368541
 31
0.0
  0
SPLINE
  5
37A
330
1F
100
AcDbEntity
  8
0
  6
Continuous
 62
     7
370
    15
100
AcDbSpline
210
0.0
220
0.0
230
1.0
 70
     8
 71
     3
 72
     8
 73
     4
 74
     0
 42
0.00000001
 43
0.00000001
 12
1.0
 22
0.0
 32
0.0
 13
1.0
 23
0.0
 33
0.0
 40
0.0
 40
0.0
 40
0.0
 40
0.0
 40
1.0
 40
1.0
 40
1.0
 40
1.0
 10
156.1375129077493
 20
189.1916365530869
 30
0.0
 10
156.1776958534234
 20
189.1908021568448
 30
0.0
 10
156.2183752432258
 20
189.1802910261668
 30
0.0
 10
156.2559668589537
 20
189.1592017722936
 30
0.0
  0
LINE
  5
37B
330
1F
100
AcDbEntity
  8
0
  6
Continuous
 62
     7
370
    15
100
AcDbLine
 10
140.4910662983
 20
188.9416885015
 30
0.0
 11
140.4910662983
 21
188.9525775251
 31
0.0
  0
LINE
  5
37C
330
1F
100
AcDbEntity
  8
0
  6
Continuous
 62
     7
370
    15
100
AcDbLine
 10
156.4910670583
 20
188.9525775251
 30
0.0
 11
156.4910670583
 21
188.9416885015
 31
0.0
  0
LINE
  5
37D
330
1F
100
AcDbEntity
  8
0
  6
Continuous
 62
     8
370
    15
100
AcDbLine
 10
140.4910662983
 20
111.7089160171
 30
0.0
 11
140.5633567353
 21
111.6581812885
 31
0.0
  0
LINE
  5
37E
330
1F
100
AcDbEntity
  8
0
  6
Continuous
 62
     8
370
    15
100
AcDbLine
 10
156.4187759374
 20
111.6581812885
 30
0.0
 11
156.4910670583
 21
111.7089160171
 31
0.0
  0
LINE
  5
37F
330
1F
100
AcDbEntity
  8
0
  6
Continuous
 62
     8
370
    15
100
AcDbLine
 10
140.4910662983
 20
173.1716331479
 30
0.0
 11
140.6580675554
 21
173.1037062046
 31
0.0
  0
LINE
  5
380
330
1F
100
AcDbEntity
  8
0
  6
Continuous
 62
     8
370
    15
100
AcDbLine
 10
156.3240641569
 20
173.1037062046
 30
0.0
 11
156.4910670583
 21
173.1716331479
 31
0.0
  0
LINE
  5
381
330
1F
100
AcDbEntity
  8
0
  6
Continuous
 62
     8
370
    15
100
AcDbLine
 10
140.8446196889
 20
189.2025780317
 30
0.0
 11
140.8446196889
 21
189.1916368541
 31
0.0
  0
LINE
  5
382
330
1F
100
AcDbEntity
  8
0
  6
Continuous
 62
     8
370
    15
100
AcDbLine
 10
140.6678429936
 20
189.1167249915
 30
0.0
 11
140.6678429936
 21
189.1293574509
 31
0.0
  0
LINE
  5
383
330
1F
100
AcDbEntity
  8
0
  6
Continuous
 62
     8
370
    15
100
AcDbLine
 10
156.1375127946
 20
189.1916368541
 30
0.0
 11
156.1375127946
 21
189.2025780317
 31
0.0
  0
LINE
  5
384
330
1F
100
AcDbEntity
  8
0
  6
Continuous
 62
     8
370
    15
100
AcDbLine
 10
156.3142889951
 20
189.1293574509
 30
0.0
 11
156.3142889951
 21
189.1167249915
 31
0.0
  0
ENDSEC
  0
SECTION
  2
OBJECTS
  0
DICTIONARY
  5
C
330
0
100
AcDbDictionary
281
     1
  3
ACAD_GROUP
350
D
  3
ACAD_LAYOUT
350
1A
  3
ACAD_MLINESTYLE
350
17
  3
ACAD_PLOTSETTINGS
350
19
  3
ACAD_PLOTSTYLENAME
350
E
  0
DICTIONARY
  5
D
102
{ACAD_REACTORS
330
C
102
}
330
C
100
AcDbDictionary
281
     1
  0
DICTIONARY
  5
1A
102
{ACAD_REACTORS
330
C
102
}
330
C
100
AcDbDictionary
281
     1
  3
Layout1
350
1E
  3
Layout2
350
26
  3
Model
350
22
  0
DICTIONARY
  5
17
102
{ACAD_REACTORS
330
C
102
}
330
C
100
AcDbDictionary
281
     1
  3
Standard
350
18
  0
DICTIONARY
  5
19
102
{ACAD_REACTORS
330
C
102
}
330
C
100
AcDbDictionary
281
     1
  0
ACDBDICTIONARYWDFLT
  5
E
102
{ACAD_REACTORS
330
C
102
}
330
C
100
AcDbDictionary
281
     1
  3
Normal
350
F
100
AcDbDictionaryWithDefault
340
F
  0
LAYOUT
  5
1E
102
{ACAD_REACTORS
330
1A
102
}
330
1A
100
AcDbPlotSettings
  1

  2
none_device
  4

  6

 40
0.0
 41
0.0
 42
0.0
 43
0.0
 44
0.0
 45
0.0
 46
0.0
 47
0.0
 48
0.0
 49
0.0
140
0.0
141
0.0
142
1.0
143
1.0
 70
   688
 72
     0
 73
     0
 74
     5
  7

 75
    16
147
1.0
148
0.0
149
0.0
100
AcDbLayout
  1
Layout1
 70
     1
 71
     1
 10
0.0
 20
0.0
 11
420.0
 21
297.0
 12
0.0
 22
0.0
 32
0.0
 14
1.0000000000E+20
 24
1.0000000000E+20
 34
1.0000000000E+20
 15
-1.0000000000E+20
 25
-1.0000000000E+20
 35
-1.0000000000E+20
146
0.0
 13
0.0
 23
0.0
 33
0.0
 16
1.0
 26
0.0
 36
0.0
 17
0.0
 27
1.0
 37
0.0
 76
     0
330
1B
  0
LAYOUT
  5
26
102
{ACAD_REACTORS
330
1A
102
}
330
1A
100
AcDbPlotSettings
  1

  2
none_device
  4

  6

 40
0.0
 41
0.0
 42
0.0
 43
0.0
 44
0.0
 45
0.0
 46
0.0
 47
0.0
 48
0.0
 49
0.0
140
0.0
141
0.0
142
1.0
143
1.0
 70
   688
 72
     0
 73
     0
 74
     5
  7

 75
    16
147
1.0
148
0.0
149
0.0
100
AcDbLayout
  1
Layout2
 70
     1
 71
     2
 10
0.0
 20
0.0
 11
0.0
 21
0.0
 12
0.0
 22
0.0
 32
0.0
 14
0.0
 24
0.0
 34
0.0
 15
0.0
 25
0.0
 35
0.0
146
0.0
 13
0.0
 23
0.0
 33
0.0
 16
1.0
 26
0.0
 36
0.0
 17
0.0
 27
1.0
 37
0.0
 76
     0
330
23
  0
LAYOUT
  5
22
102
{ACAD_REACTORS
330
1A
102
}
330
1A
100
AcDbPlotSettings
  1

  2
none_device
  4

  6

 40
0.0
 41
0.0
 42
0.0
 43
0.0
 44
0.0
 45
0.0
 46
0.0
 47
0.0
 48
0.0
 49
0.0
140
0.0
141
0.0
142
1.0
143
1.0
 70
  1712
 72
     0
 73
     0
 74
     0
  7

 75
     0
147
1.0
148
0.0
149
0.0
100
AcDbLayout
  1
Model
 70
     1
 71
     0
 10
0.0
 20
0.0
 11
279.4
 21
215.9
 12
0.0
 22
0.0
 32
0.0
 14
0.0
 24
0.0
 34
0.0
 15
279.4
 25
215.9
 35
0.0
146
0.0
 13
0.0
 23
0.0
 33
0.0
 16
1.0
 26
0.0
 36
0.0
 17
0.0
 27
1.0
 37
0.0
 76
     0
330
1F
331
29
  0
MLINESTYLE
  5
18
102
{ACAD_REACTORS
330
17
102
}
330
17
100
AcDbMlineStyle
  2
Standard
 70
     0
  3

 62
   256
 51
90.0
 52
90.0
 71
     2
 49
0.5
 62
   256
  6
BYLAYER
 49
-0.5
 62
   256
  6
BYLAYER
  0
ACDBPLACEHOLDER
  5
F
102
{ACAD_REACTORS
330
E
102
}
330
E
  0
ENDSEC
  0
EOF
