  0
SECTION
  2
HEADER
  9
$ACADVER
  1
AC1015
  9
$ACADMAINTVER
 70
     6
  9
$DWGCODEPAGE
  3
ANSI_1251
  9
$INSBASE
 10
0.0
 20
0.0
 30
0.0
  9
$EXTMIN
 10
0.0
 20
0.0
 30
0.0
  9
$EXTMAX
 10
279.4
 20
215.9
 30
0.0
  9
$LIMMIN
 10
0.0
 20
0.0
  9
$LIMMAX
 10
279.4
 20
215.9
  9
$ORTHOMODE
 70
     0
  9
$REGENMODE
 70
     1
  9
$FILLMODE
 70
     1
  9
$QTEXTMODE
 70
     0
  9
$MIRRTEXT
 70
     1
  9
$LTSCALE
 40
1.0
  9
$ATTMODE
 70
     1
  9
$TEXTSIZE
 40
3.5
  9
$TRACEWID
 40
1.0
  9
$TEXTSTYLE
  7
Standard
  9
$CLAYER
  8
0
  9
$CELTYPE
  6
ByLayer
  9
$CECOLOR
 62
   256
  9
$CELTSCALE
 40
1.0
  9
$DISPSILH
 70
     0
  9
$DIMSCALE
 40
1.0
  9
$DIMASZ
 40
3.5
  9
$DIMEXO
 40
0.01
  9
$DIMDLI
 40
3.75
  9
$DIMRND
 40
0.0
  9
$DIMDLE
 40
0.0
  9
$DIMEXE
 40
1.0
  9
$DIMTP
 40
0.0
  9
$DIMTM
 40
0.0
  9
$DIMTXT
 40
3.5
  9
$DIMCEN
 40
2.5
  9
$DIMTSZ
 40
0.0
  9
$DIMTOL
 70
     0
  9
$DIMLIM
 70
     0
  9
$DIMTIH
 70
     1
  9
$DIMTOH
 70
     1
  9
$DIMSE1
 70
     0
  9
$DIMSE2
 70
     0
  9
$DIMTAD
 70
     1
  9
$DIMZIN
 70
     0
  9
$DIMBLK
  1

  9
$DIMASO
 70
     1
  9
$DIMSHO
 70
     1
  9
$DIMPOST
  1

  9
$DIMAPOST
  1

  9
$DIMALT
 70
     0
  9
$DIMALTD
 70
     3
  9
$DIMALTF
 40
0.0393700787
  9
$DIMLFAC
 40
1.0
  9
$DIMTOFL
 70
     1
  9
$DIMTVP
 40
0.0
  9
$DIMTIX
 70
     0
  9
$DIMSOXD
 70
     0
  9
$DIMSAH
 70
     0
  9
$DIMBLK1
  1

  9
$DIMBLK2
  1

  9
$DIMSTYLE
  2
ISO-25
  9
$DIMCLRD
 70
     0
  9
$DIMCLRE
 70
     0
  9
$DIMCLRT
 70
     0
  9
$DIMTFAC
 40
1.0
  9
$DIMGAP
 40
3.0
  9
$DIMJUST
 70
     0
  9
$DIMSD1
 70
     0
  9
$DIMSD2
 70
     0
  9
$DIMTOLJ
 70
     0
  9
$DIMTZIN
 70
     0
  9
$DIMALTZ
 70
     0
  9
$DIMALTTZ
 70
     0
  9
$DIMUPT
 70
     0
  9
$DIMDEC
 70
     2
  9
$DIMTDEC
 70
     3
  9
$DIMALTU
 70
     2
  9
$DIMALTTD
 70
     3
  9
$DIMTXSTY
  7
Standard
  9
$DIMAUNIT
 70
     0
  9
$DIMADEC
 70
     2
  9
$DIMALTRND
 40
0.0
  9
$DIMAZIN
 70
     0
  9
$DIMDSEP
 70
    44
  9
$DIMATFIT
 70
     3
  9
$DIMFRAC
 70
     0
  9
$DIMLDRBLK
  1

  9
$DIMLUNIT
 70
     2
  9
$DIMLWD
 70
    -2
  9
$DIMLWE
 70
    -2
  9
$DIMTMOVE
 70
     0
  9
$LUNITS
 70
     2
  9
$LUPREC
 70
     2
  9
$SKETCHINC
 40
1.0
  9
$FILLETRAD
 40
10.0
  9
$AUNITS
 70
     0
  9
$AUPREC
 70
     2
  9
$MENU
  1
.
  9
$ELEVATION
 40
0.0
  9
$PELEVATION
 40
0.0
  9
$THICKNESS
 40
0.0
  9
$LIMCHECK
 70
     0
  9
$CHAMFERA
 40
10.0
  9
$CHAMFERB
 40
10.0
  9
$CHAMFERC
 40
20.0
  9
$CHAMFERD
 40
0.0
  9
$SKPOLY
 70
     0
  9
$TDCREATE
 40
2457408.682019849
  9
$TDUCREATE
 40
2457408.598686516
  9
$TDUPDATE
 40
2457408.682020208
  9
$TDUUPDATE
 40
2457408.598686875
  9
$TDINDWG
 40
0.0000000116
  9
$TDUSRTIMER
 40
0.0000000116
  9
$USRTIMER
 70
     1
  9
$ANGBASE
 50
0.0
  9
$ANGDIR
 70
     0
  9
$PDMODE
 70
     0
  9
$PDSIZE
 40
-1.0
  9
$PLINEWID
 40
0.0
  9
$SPLFRAME
 70
     0
  9
$SPLINETYPE
 70
     6
  9
$SPLINESEGS
 70
     8
  9
$HANDSEED
  5
1D8
  9
$SURFTAB1
 70
     6
  9
$SURFTAB2
 70
     6
  9
$SURFTYPE
 70
     6
  9
$SURFU
 70
     6
  9
$SURFV
 70
     6
  9
$UCSBASE
  2

  9
$UCSNAME
  2

  9
$UCSORG
 10
0.0
 20
0.0
 30
0.0
  9
$UCSXDIR
 10
1.0
 20
0.0
 30
0.0
  9
$UCSYDIR
 10
0.0
 20
1.0
 30
0.0
  9
$UCSORTHOREF
  2

  9
$UCSORTHOVIEW
 70
     0
  9
$UCSORGTOP
 10
0.0
 20
0.0
 30
0.0
  9
$UCSORGBOTTOM
 10
0.0
 20
0.0
 30
0.0
  9
$UCSORGLEFT
 10
0.0
 20
0.0
 30
0.0
  9
$UCSORGRIGHT
 10
0.0
 20
0.0
 30
0.0
  9
$UCSORGFRONT
 10
0.0
 20
0.0
 30
0.0
  9
$UCSORGBACK
 10
0.0
 20
0.0
 30
0.0
  9
$PUCSBASE
  2

  9
$PUCSNAME
  2

  9
$PUCSORG
 10
0.0
 20
0.0
 30
0.0
  9
$PUCSXDIR
 10
1.0
 20
0.0
 30
0.0
  9
$PUCSYDIR
 10
0.0
 20
1.0
 30
0.0
  9
$PUCSORTHOREF
  2

  9
$PUCSORTHOVIEW
 70
     0
  9
$PUCSORGTOP
 10
0.0
 20
0.0
 30
0.0
  9
$PUCSORGBOTTOM
 10
0.0
 20
0.0
 30
0.0
  9
$PUCSORGLEFT
 10
0.0
 20
0.0
 30
0.0
  9
$PUCSORGRIGHT
 10
0.0
 20
0.0
 30
0.0
  9
$PUCSORGFRONT
 10
0.0
 20
0.0
 30
0.0
  9
$PUCSORGBACK
 10
0.0
 20
0.0
 30
0.0
  9
$USERI1
 70
     0
  9
$USERI2
 70
     0
  9
$USERI3
 70
     0
  9
$USERI4
 70
     0
  9
$USERI5
 70
     0
  9
$USERR1
 40
0.0
  9
$USERR2
 40
0.0
  9
$USERR3
 40
0.0
  9
$USERR4
 40
0.0
  9
$USERR5
 40
0.0
  9
$WORLDVIEW
 70
     1
  9
$SHADEDGE
 70
     3
  9
$SHADEDIF
 70
    70
  9
$TILEMODE
 70
     1
  9
$MAXACTVP
 70
    64
  9
$PINSBASE
 10
0.0
 20
0.0
 30
0.0
  9
$PLIMCHECK
 70
     0
  9
$PEXTMIN
 10
1.0000000000E+20
 20
1.0000000000E+20
 30
1.0000000000E+20
  9
$PEXTMAX
 10
-1.0000000000E+20
 20
-1.0000000000E+20
 30
-1.0000000000E+20
  9
$PLIMMIN
 10
0.0
 20
0.0
  9
$PLIMMAX
 10
420.0
 20
297.0
  9
$UNITMODE
 70
     0
  9
$VISRETAIN
 70
     1
  9
$PLINEGEN
 70
     0
  9
$PSLTSCALE
 70
     1
  9
$TREEDEPTH
 70
  3020
  9
$CMLSTYLE
  2
Standard
  9
$CMLJUST
 70
     0
  9
$CMLSCALE
 40
20.0
  9
$PROXYGRAPHICS
 70
     1
  9
$MEASUREMENT
 70
     1
  9
$CELWEIGHT
370
    -1
  9
$ENDCAPS
280
     0
  9
$JOINSTYLE
280
     0
  9
$LWDISPLAY
290
     1
  9
$INSUNITS
 70
     4
  9
$HYPERLINKBASE
  1

  9
$STYLESHEET
  1

  9
$XEDIT
290
     1
  9
$CEPSNTYPE
380
     0
  9
$PSTYLEMODE
290
     1
  9
$FINGERPRINTGUID
  2
{14890DE1-8BDB-43B0-B41B-23905B7B1AE6}
  9
$VERSIONGUID
  2
{FAEB1C32-E019-11D5-929B-00C0DF256EC4}
  9
$EXTNAMES
290
     1
  9
$PSVPSCALE
 40
0.0
  9
$OLESTARTUP
290
     0
  0
ENDSEC
  0
SECTION
  2
CLASSES
  0
CLASS
  1
ACDBDICTIONARYWDFLT
  2
AcDbDictionaryWithDefault
  3
ObjectDBX Classes
 90
        0
280
     0
281
     0
  0
CLASS
  1
VISUALSTYLE
  2
AcDbVisualStyle
  3
ObjectDBX Classes
 90
     4095
280
     0
281
     0
  0
CLASS
  1
MATERIAL
  2
AcDbMaterial
  3
ObjectDBX Classes
 90
     1153
280
     0
281
     0
  0
CLASS
  1
ACDBPLACEHOLDER
  2
AcDbPlaceHolder
  3
ObjectDBX Classes
 90
        0
280
     0
281
     0
  0
CLASS
  1
LAYOUT
  2
AcDbLayout
  3
ObjectDBX Classes
 90
        0
280
     0
281
     0
  0
ENDSEC
  0
SECTION
  2
TABLES
  0
TABLE
  2
VPORT
  5
8
330
0
100
AcDbSymbolTable
 70
     1
  0
VPORT
  5
29
330
8
100
AcDbSymbolTableRecord
100
AcDbViewportTableRecord
  2
*Active
 70
     0
 10
0.0
 20
0.0
 11
1.0
 21
1.0
 12
139.7
 22
107.95
 13
0.0
 23
0.0
 14
10.0
 24
10.0
 15
10.0
 25
10.0
 16
0.0
 26
0.0
 36
1.0
 17
0.0
 27
0.0
 37
0.0
 40
215.9
 41
1.2941176471
 42
50.0
 43
0.0
 44
0.0
 50
0.0
 51
0.0
 71
     0
 72
  2000
 73
     1
 74
     3
 75
     0
 76
     0
 77
     0
 78
     0
281
     0
 65
     1
110
0.0
120
0.0
130
0.0
111
1.0
121
0.0
131
0.0
112
0.0
122
1.0
132
0.0
 79
     0
146
0.0
  0
ENDTAB
  0
TABLE
  2
LTYPE
  5
5
330
0
100
AcDbSymbolTable
 70
     6
  0
LTYPE
  5
14
330
5
100
AcDbSymbolTableRecord
100
AcDbLinetypeTableRecord
  2
ByBlock
 70
     0
  3

 72
    65
 73
     0
 40
0.0
  0
LTYPE
  5
15
330
5
100
AcDbSymbolTableRecord
100
AcDbLinetypeTableRecord
  2
ByLayer
 70
     0
  3

 72
    65
 73
     0
 40
0.0
  0
LTYPE
  5
16
330
5
100
AcDbSymbolTableRecord
100
AcDbLinetypeTableRecord
  2
Continuous
 70
     0
  3
Solid line
 72
    65
 73
     0
 40
0.0
  0
LTYPE
  5
3F
330
5
100
AcDbSymbolTableRecord
100
AcDbLinetypeTableRecord
  2
HIDDEN
 70
     0
  3
Hidden __ __ __ __ __ __ __ __ __ __ __ __ __ __
 72
    65
 73
     2
 40
1.905
 49
1.27
 74
     0
 49
-0.635
 74
     0
  0
LTYPE
  5
40
330
5
100
AcDbSymbolTableRecord
100
AcDbLinetypeTableRecord
  2
PHANTOM
 70
     0
  3
Phantom ______  __  __  ______  __  __  ______
 72
    65
 73
     6
 40
12.7
 49
6.35
 74
     0
 49
-1.27
 74
     0
 49
1.27
 74
     0
 49
-1.27
 74
     0
 49
1.27
 74
     0
 49
-1.27
 74
     0
  0
LTYPE
  5
41
330
5
100
AcDbSymbolTableRecord
100
AcDbLinetypeTableRecord
  2
CENTER
 70
     0
  3
Center ____ _ ____ _ ____ _ ____ _ ____ _ ____
 72
    65
 73
     4
 40
10.16
 49
6.35
 74
     0
 49
-1.27
 74
     0
 49
1.27
 74
     0
 49
-1.27
 74
     0
  0
LTYPE
  5
42
330
5
100
AcDbSymbolTableRecord
100
AcDbLinetypeTableRecord
  2
CENTERX2
 70
     0
  3
Center (2x) ________  __  ________  __  _____
 72
    65
 73
     4
 40
20.32
 49
12.7
 74
     0
 49
-2.54
 74
     0
 49
2.54
 74
     0
 49
-2.54
 74
     0
  0
LTYPE
  5
43
330
5
100
AcDbSymbolTableRecord
100
AcDbLinetypeTableRecord
  2
DOT2
 70
     0
  3
Dot (.5x) ........................................
 72
    65
 73
     2
 40
0.635
 49
0.0
 74
     0
 49
-0.635
 74
     0
  0
ENDTAB
  0
TABLE
  2
LAYER
  5
2
330
0
100
AcDbSymbolTable
 70
     1
  0
LAYER
  5
10
330
2
100
AcDbSymbolTableRecord
100
AcDbLayerTableRecord
  2
0
 70
     0
 62
     7
  6
Continuous
370
    -3
390
F
  0
ENDTAB
  0
TABLE
  2
STYLE
  5
3
330
0
100
AcDbSymbolTable
 70
     1
  0
STYLE
  5
11
330
3
100
AcDbSymbolTableRecord
100
AcDbTextStyleTableRecord
  2
Standard
 70
     0
 40
0.0
 41
1.0
 50
0.0
 71
     0
 42
3.5
  3
txt
  4

  0
ENDTAB
  0
TABLE
  2
VIEW
  5
6
330
0
100
AcDbSymbolTable
 70
     0
  0
ENDTAB
  0
TABLE
  2
UCS
  5
7
330
0
100
AcDbSymbolTable
 70
     0
  0
ENDTAB
  0
TABLE
  2
APPID
  5
9
330
0
100
AcDbSymbolTable
 70
     1
  0
APPID
  5
12
330
9
100
AcDbSymbolTableRecord
100
AcDbRegAppTableRecord
  2
ACAD
 70
     0
  0
ENDTAB
  0
TABLE
  2
DIMSTYLE
  5
A
330
0
100
AcDbSymbolTable
 70
     1
100
AcDbDimStyleTable
  0
DIMSTYLE
105
27
330
A
100
AcDbSymbolTableRecord
100
AcDbDimStyleTableRecord
  2
ISO-25
 70
     0
 41
2.5
 42
0.625
 43
3.75
 44
1.25
 73
     0
 74
     0
 77
     1
 78
     8
140
2.5
141
2.5
143
0.0393700787
147
0.625
171
     3
172
     1
178
     0
271
     2
272
     2
274
     3
278
    44
283
     0
284
     8
340
11
  0
ENDTAB
  0
TABLE
  2
BLOCK_RECORD
  5
1
330
0
100
AcDbSymbolTable
 70
     1
  0
BLOCK_RECORD
  5
1F
330
1
100
AcDbSymbolTableRecord
100
AcDbBlockTableRecord
  2
*Model_Space
340
22
  0
BLOCK_RECORD
  5
1B
330
1
100
AcDbSymbolTableRecord
100
AcDbBlockTableRecord
  2
*Paper_Space
340
1E
  0
BLOCK_RECORD
  5
23
330
1
100
AcDbSymbolTableRecord
100
AcDbBlockTableRecord
  2
*Paper_Space0
340
26
  0
ENDTAB
  0
ENDSEC
  0
SECTION
  2
BLOCKS
  0
BLOCK
  5
20
330
1F
100
AcDbEntity
  8
0
100
AcDbBlockBegin
  2
*Model_Space
 70
     0
 10
0.0
 20
0.0
 30
0.0
  3
*Model_Space
  1

  0
ENDBLK
  5
21
330
1F
100
AcDbEntity
  8
0
100
AcDbBlockEnd
  0
BLOCK
  5
1C
330
1B
100
AcDbEntity
 67
     1
  8
0
100
AcDbBlockBegin
  2
*Paper_Space
 70
     0
 10
0.0
 20
0.0
 30
0.0
  3
*Paper_Space
  1

  0
ENDBLK
  5
1D
330
1B
100
AcDbEntity
 67
     1
  8
0
100
AcDbBlockEnd
  0
BLOCK
  5
24
330
23
100
AcDbEntity
  8
0
100
AcDbBlockBegin
  2
*Paper_Space0
 70
     0
 10
0.0
 20
0.0
 30
0.0
  3
*Paper_Space0
  1

  0
ENDBLK
  5
25
330
23
100
AcDbEntity
  8
0
100
AcDbBlockEnd
  0
ENDSEC
  0
SECTION
  2
ENTITIES
  0
CIRCLE
  5
44
330
1F
100
AcDbEntity
  8
0
  6
Continuous
 62
     7
370
    15
100
AcDbCircle
 10
70.552359116
 20
138.4855644748
 30
0.0
 40
10.24999999999997
  0
CIRCLE
  5
45
330
1F
100
AcDbEntity
  8
0
  6
Continuous
 62
     7
370
    15
100
AcDbCircle
 10
70.552359116
 20
138.4855644748
 30
0.0
 40
10.0
  0
CIRCLE
  5
46
330
1F
100
AcDbEntity
  8
0
  6
Continuous
 62
     7
370
    15
100
AcDbCircle
 10
70.552359116
 20
138.4855644748
 30
0.0
 40
27.20000000000002
  0
CIRCLE
  5
47
330
1F
100
AcDbEntity
  8
0
  6
Continuous
 62
     7
370
    15
100
AcDbCircle
 10
70.552359116
 20
138.4855644748
 30
0.0
 40
29.70000000000002
  0
CIRCLE
  5
48
330
1F
100
AcDbEntity
  8
0
  6
Continuous
 62
     7
370
    15
100
AcDbCircle
 10
70.552359116
 20
138.4855644748
 30
0.0
 40
32.20000000000002
  0
LINE
  5
49
330
1F
100
AcDbEntity
  8
0
  6
Continuous
 62
     7
370
    15
100
AcDbLine
 10
39.9046323865
 20
113.5067759052
 30
0.0
 11
32.0972080945
 21
120.3899444982
 31
0.0
  0
LINE
  5
4A
330
1F
100
AcDbEntity
  8
0
  6
Continuous
 62
     7
370
    15
100
AcDbLine
 10
32.0972080945
 20
120.3899444982
 30
0.0
 11
32.5480203747
 21
120.3257838234
 31
0.0
  0
LINE
  5
4B
330
1F
100
AcDbEntity
  8
0
  6
Continuous
 62
     7
370
    15
100
AcDbLine
 10
32.5480203747
 20
120.3257838234
 30
0.0
 11
40.06996077
 21
113.6943032935
 31
0.0
  0
LINE
  5
4C
330
1F
100
AcDbEntity
  8
0
  6
Continuous
 62
     7
370
    15
100
AcDbLine
 10
39.9046323865
 20
113.5067759052
 30
0.0
 11
40.06996077
 21
113.6943032935
 31
0.0
  0
ARC
  5
4D
330
1F
100
AcDbEntity
  8
0
  6
Continuous
 62
     7
370
    15
100
AcDbCircle
 10
101.0467019759
 20
112.9339910591
 30
0.0
 40
0.4999999999999943
100
AcDbArc
 50
50.4
 51
149.4
  0
LINE
  5
4E
330
1F
100
AcDbEntity
  8
0
  6
Continuous
 62
     7
370
    15
100
AcDbLine
 10
101.365414229
 20
113.3192485169
 30
0.0
 11
101.2060574859
 21
113.1266193435
 31
0.0
  0
ARC
  5
4F
330
1F
100
AcDbEntity
  8
0
  6
Continuous
 62
     7
370
    15
100
AcDbCircle
 10
101.0467019759
 20
112.9339910591
 30
0.0
 40
0.2500000000000076
100
AcDbArc
 50
50.4
 51
149.4
  0
LINE
  5
50
330
1F
100
AcDbEntity
  8
0
  6
Continuous
 62
     7
370
    15
100
AcDbLine
 10
100.6163309931
 20
113.1885113165
 30
0.0
 11
100.8315167993
 21
113.0612516746
 31
0.0
  0
LINE
  5
51
330
1F
100
AcDbEntity
  8
0
  6
Continuous
 62
     7
370
    15
100
AcDbLine
 10
34.6555139541
 20
121.9133106962
 30
0.0
 11
28.8051504313
 21
130.5218586668
 31
0.0
  0
LINE
  5
52
330
1F
100
AcDbEntity
  8
0
  6
Continuous
 62
     7
370
    15
100
AcDbLine
 10
28.8051504313
 20
130.5218586668
 30
0.0
 11
29.2258437395
 21
130.3476016939
 31
0.0
  0
LINE
  5
53
330
1F
100
AcDbEntity
  8
0
  6
Continuous
 62
     7
370
    15
100
AcDbLine
 10
29.2258437395
 20
130.3476016939
 30
0.0
 11
34.8622861921
 21
122.0538305089
 31
0.0
  0
LINE
  5
54
330
1F
100
AcDbEntity
  8
0
  6
Continuous
 62
     7
370
    15
100
AcDbLine
 10
34.6555139541
 20
121.9133106962
 30
0.0
 11
34.8622861921
 21
122.0538305089
 31
0.0
  0
LINE
  5
55
330
1F
100
AcDbEntity
  8
0
  6
Continuous
 62
     7
370
    15
100
AcDbLine
 10
101.365414229
 20
113.3192485169
 30
0.0
 11
103.1652789235
 21
111.830268611
 31
0.0
  0
LINE
  5
56
330
1F
100
AcDbEntity
  8
0
  6
Continuous
 62
     7
370
    15
100
AcDbLine
 10
103.1652789235
 20
111.830268611
 30
0.0
 11
103.2991733074
 21
111.3950448081
 31
0.0
  0
LINE
  5
57
330
1F
100
AcDbEntity
  8
0
  6
Continuous
 62
     7
370
    15
100
AcDbLine
 10
103.2991733074
 20
111.3950448081
 30
0.0
 11
101.2060574859
 21
113.1266193435
 31
0.0
  0
LINE
  5
58
330
1F
100
AcDbEntity
  8
0
  6
Continuous
 62
     7
370
    15
100
AcDbLine
 10
94.1387571066
 20
106.4469987497
 30
0.0
 11
95.511781764
 21
104.5571925089
 31
0.0
  0
LINE
  5
59
330
1F
100
AcDbEntity
  8
0
  6
Continuous
 62
     7
370
    15
100
AcDbLine
 10
95.511781764
 20
104.5571925089
 30
0.0
 11
95.5332319855
 21
104.102342014
 31
0.0
  0
LINE
  5
5A
330
1F
100
AcDbEntity
  8
0
  6
Continuous
 62
     7
370
    15
100
AcDbLine
 10
95.5332319855
 20
104.102342014
 30
0.0
 11
93.9365017831
 21
106.3000509486
 31
0.0
  0
LINE
  5
5B
330
1F
100
AcDbEntity
  8
0
  6
Continuous
 62
     7
370
    15
100
AcDbLine
 10
94.1387571066
 20
106.4469987497
 30
0.0
 11
93.9365017831
 21
106.3000509486
 31
0.0
  0
LINE
  5
5C
330
1F
100
AcDbEntity
  8
0
  6
Continuous
 62
     7
370
    15
100
AcDbLine
 10
32.0972080945
 20
120.3899444982
 30
0.0
 11
34.5551881611
 21
121.5465819433
 31
0.0
  0
LINE
  5
5D
330
1F
100
AcDbEntity
  8
0
  6
Continuous
 62
     7
370
    15
100
AcDbLine
 10
34.5551881611
 20
121.5465819433
 30
0.0
 11
34.6616346061
 21
121.3203748658
 31
0.0
  0
LINE
  5
5E
330
1F
100
AcDbEntity
  8
0
  6
Continuous
 62
     7
370
    15
100
AcDbLine
 10
34.6616346061
 20
121.3203748658
 30
0.0
 11
32.5480203747
 21
120.3257838234
 31
0.0
  0
LINE
  5
5F
330
1F
100
AcDbEntity
  8
0
  6
Continuous
 62
     7
370
    15
100
AcDbLine
 10
95.511781764
 20
104.5571925089
 30
0.0
 11
100.6163309931
 21
113.1885113165
 31
0.0
  0
LINE
  5
60
330
1F
100
AcDbEntity
  8
0
  6
Continuous
 62
     7
370
    15
100
AcDbLine
 10
100.8315167993
 20
113.0612516746
 30
0.0
 11
95.5332319855
 21
104.102342014
 31
0.0
  0
ARC
  5
61
330
1F
100
AcDbEntity
  8
0
  6
Continuous
 62
     7
370
    15
100
AcDbCircle
 10
34.4487445568
 20
121.7727889352
 30
0.0
 40
0.2500000000000066
100
AcDbArc
 50
295.2
 51
34.2
  0
ARC
  5
62
330
1F
100
AcDbEntity
  8
0
  6
Continuous
 62
     7
370
    15
100
AcDbCircle
 10
34.4487445568
 20
121.7727889352
 30
0.0
 40
0.5000000000000101
100
AcDbArc
 50
295.2
 51
34.2
  0
LINE
  5
63
330
1F
100
AcDbEntity
  8
0
  6
Continuous
 62
     7
370
    15
100
AcDbLine
 10
31.6619265496
 20
131.3611400284
 30
0.0
 11
28.1362224042
 21
141.1541615117
 31
0.0
  0
LINE
  5
64
330
1F
100
AcDbEntity
  8
0
  6
Continuous
 62
     7
370
    15
100
AcDbLine
 10
28.1362224042
 20
141.1541615117
 30
0.0
 11
28.5003620803
 21
140.8807575673
 31
0.0
  0
LINE
  5
65
330
1F
100
AcDbEntity
  8
0
  6
Continuous
 62
     7
370
    15
100
AcDbLine
 10
28.5003620803
 20
140.8807575673
 30
0.0
 11
31.8971488296
 21
131.4458242588
 31
0.0
  0
LINE
  5
66
330
1F
100
AcDbEntity
  8
0
  6
Continuous
 62
     7
370
    15
100
AcDbLine
 10
31.6619265496
 20
131.3611400284
 30
0.0
 11
31.8971488296
 21
131.4458242588
 31
0.0
  0
LINE
  5
67
330
1F
100
AcDbEntity
  8
0
  6
Continuous
 62
     7
370
    15
100
AcDbLine
 10
90.6244635254
 20
175.5155237362
 30
0.0
 11
80.6412005469
 21
176.4592217252
 31
0.0
  0
LINE
  5
68
330
1F
100
AcDbEntity
  8
0
  6
Continuous
 62
     7
370
    15
100
AcDbLine
 10
89.4991203814
 20
173.4685325965
 30
0.0
 11
90.6244635254
 21
175.5155237362
 31
0.0
  0
ARC
  5
69
330
1F
100
AcDbEntity
  8
0
  6
Continuous
 62
     7
370
    15
100
AcDbCircle
 10
89.9372738658
 20
173.2276561018
 30
0.0
 40
0.4999999999999952
100
AcDbArc
 50
151.2
 51
250.2
  0
LINE
  5
6A
330
1F
100
AcDbEntity
  8
0
  6
Continuous
 62
     7
370
    15
100
AcDbLine
 10
99.2028385072
 20
169.360431467
 30
0.0
 11
89.7679056644
 21
172.7572144911
 31
0.0
  0
LINE
  5
6B
330
1F
100
AcDbEntity
  8
0
  6
Continuous
 62
     7
370
    15
100
AcDbLine
 10
97.6037837237
 20
167.6576105848
 30
0.0
 11
99.2028385072
 21
169.360431467
 31
0.0
  0
ARC
  5
6C
330
1F
100
AcDbEntity
  8
0
  6
Continuous
 62
     7
370
    15
100
AcDbCircle
 10
97.9682679691
 20
167.3153371453
 30
0.0
 40
0.500000000000012
100
AcDbArc
 50
136.8
 51
235.8
  0
LINE
  5
6D
330
1F
100
AcDbEntity
  8
0
  6
Continuous
 62
     7
370
    15
100
AcDbLine
 10
105.9809986174
 20
161.2653551593
 30
0.0
 11
97.6872265011
 21
166.901797612
 31
0.0
  0
LINE
  5
6E
330
1F
100
AcDbEntity
  8
0
  6
Continuous
 62
     7
370
    15
100
AcDbLine
 10
104.0087069988
 20
160.0137023225
 30
0.0
 11
105.9809986174
 21
161.2653551593
 31
0.0
  0
ARC
  5
6F
330
1F
100
AcDbEntity
  8
0
  6
Continuous
 62
     7
370
    15
100
AcDbCircle
 10
104.2766196906
 20
159.5915375434
 30
0.0
 40
0.4999999999999989
100
AcDbArc
 50
122.4
 51
221.4
  0
LINE
  5
70
330
1F
100
AcDbEntity
  8
0
  6
Continuous
 62
     7
370
    15
100
AcDbLine
 10
110.533046317
 20
151.7389422253
 30
0.0
 11
103.9015639245
 21
159.2608807579
 31
0.0
  0
LINE
  5
71
330
1F
100
AcDbEntity
  8
0
  6
Continuous
 62
     7
370
    15
100
AcDbLine
 10
108.3114433705
 20
151.0171001747
 30
0.0
 11
110.533046317
 21
151.7389422253
 31
0.0
  0
ARC
  5
72
330
1F
100
AcDbEntity
  8
0
  6
Continuous
 62
     7
370
    15
100
AcDbCircle
 10
108.465952091
 20
150.5415720312
 30
0.0
 40
0.5000000000000151
100
AcDbArc
 50
108.0
 51
207.0
  0
LINE
  5
73
330
1F
100
AcDbEntity
  8
0
  6
Continuous
 62
     7
370
    15
100
AcDbLine
 10
112.5729594051
 20
141.379770913
 30
0.0
 11
108.0204497694
 21
150.3145765483
 31
0.0
  0
LINE
  5
74
330
1F
100
AcDbEntity
  8
0
  6
Continuous
 62
     7
370
    15
100
AcDbLine
 10
110.2416392087
 20
141.2330966879
 30
0.0
 11
112.5729594051
 21
141.379770913
 31
0.0
  0
ARC
  5
75
330
1F
100
AcDbEntity
  8
0
  6
Continuous
 62
     7
370
    15
100
AcDbCircle
 10
110.2730340084
 20
140.7340832254
 30
0.0
 40
0.5000000000000071
100
AcDbArc
 50
93.6
 51
192.6
  0
LINE
  5
76
330
1F
100
AcDbEntity
  8
0
  6
Continuous
 62
     7
370
    15
100
AcDbLine
 10
111.9725655436
 20
130.8387458295
 30
0.0
 11
109.7850750803
 21
140.6250114988
 31
0.0
  0
LINE
  5
77
330
1F
100
AcDbEntity
  8
0
  6
Continuous
 62
     7
370
    15
100
AcDbLine
 10
109.6780102372
 20
131.2764553323
 30
0.0
 11
111.9725655436
 21
130.8387458295
 31
0.0
  0
ARC
  5
78
330
1F
100
AcDbEntity
  8
0
  6
Continuous
 62
     7
370
    15
100
AcDbCircle
 10
109.5843198398
 20
130.7853117171
 30
0.0
 40
0.500000000000007
100
AcDbArc
 50
79.2
 51
178.2
  0
LINE
  5
79
330
1F
100
AcDbEntity
  8
0
  6
Continuous
 62
     7
370
    15
100
AcDbLine
 10
108.769587022
 20
120.7781979784
 30
0.0
 11
109.0845677673
 21
130.8010170206
 31
0.0
  0
LINE
  5
7A
330
1F
100
AcDbEntity
  8
0
  6
Continuous
 62
     7
370
    15
100
AcDbLine
 10
106.6559727907
 20
121.7727890208
 30
0.0
 11
108.769587022
 21
120.7781979784
 31
0.0
  0
ARC
  5
7B
330
1F
100
AcDbEntity
  8
0
  6
Continuous
 62
     7
370
    15
100
AcDbCircle
 10
106.4430840295
 20
121.320375409
 30
0.0
 40
0.500000000000001
100
AcDbArc
 50
64.8
 51
163.8
  0
LINE
  5
7C
330
1F
100
AcDbEntity
  8
0
  6
Continuous
 62
     7
370
    15
100
AcDbLine
 10
103.1652789235
 20
111.830268611
 30
0.0
 11
105.96293841
 21
121.4598702237
 31
0.0
  0
ARC
  5
7D
330
1F
100
AcDbEntity
  8
0
  6
Continuous
 62
     7
370
    15
100
AcDbCircle
 10
93.7342482102
 20
106.153106039
 30
0.0
 40
0.5000000000000124
100
AcDbArc
 50
36.0
 51
135.0
  0
LINE
  5
7E
330
1F
100
AcDbEntity
  8
0
  6
Continuous
 62
     7
370
    15
100
AcDbLine
 10
86.2899932682
 20
99.4159566209
 30
0.0
 11
93.3806940585
 21
106.5066592738
 31
0.0
  0
LINE
  5
7F
330
1F
100
AcDbEntity
  8
0
  6
Continuous
 62
     7
370
    15
100
AcDbLine
 10
85.4300789207
 20
101.5878492936
 30
0.0
 11
86.2899932682
 21
99.4159566209
 31
0.0
  0
ARC
  5
80
330
1F
100
AcDbEntity
  8
0
  6
Continuous
 62
     7
370
    15
100
AcDbCircle
 10
84.9651910956
 20
101.4037882929
 30
0.0
 40
0.5000000000000102
100
AcDbArc
 50
21.6
 51
120.6
  0
LINE
  5
81
330
1F
100
AcDbEntity
  8
0
  6
Continuous
 62
     7
370
    15
100
AcDbLine
 10
76.0793497458
 20
96.7296088085
 30
0.0
 11
84.710670416
 21
101.8341580376
 31
0.0
  0
LINE
  5
82
330
1F
100
AcDbEntity
  8
0
  6
Continuous
 62
     7
370
    15
100
AcDbLine
 10
75.7865801125
 20
99.047123079
 30
0.0
 11
76.0793497458
 21
96.7296088085
 31
0.0
  0
ARC
  5
83
330
1F
100
AcDbEntity
  8
0
  6
Continuous
 62
     7
370
    15
100
AcDbCircle
 10
75.2905227411
 20
98.9844549215
 30
0.0
 40
0.5000000000000114
100
AcDbArc
 50
7.2
 51
106.2
  0
LINE
  5
84
330
1F
100
AcDbEntity
  8
0
  6
Continuous
 62
     7
370
    15
100
AcDbLine
 10
65.5214258141
 20
96.6669457003
 30
0.0
 11
75.1510269612
 21
99.4646014616
 31
0.0
  0
LINE
  5
85
330
1F
100
AcDbEntity
  8
0
  6
Continuous
 62
     7
370
    15
100
AcDbLine
 10
65.8141954474
 20
98.9844562456
 30
0.0
 11
65.5214258141
 21
96.6669457003
 31
0.0
  0
ARC
  5
86
330
1F
100
AcDbEntity
  8
0
  6
Continuous
 62
     7
370
    15
100
AcDbCircle
 10
65.3181381403
 20
99.0471215383
 30
0.0
 40
0.500000000000007
100
AcDbArc
 50
352.8
 51
91.8
  0
LINE
  5
87
330
1F
100
AcDbEntity
  8
0
  6
Continuous
 62
     7
370
    15
100
AcDbLine
 10
55.2796141847
 20
99.2318937525
 30
0.0
 11
65.3024327613
 21
99.5468744978
 31
0.0
  0
LINE
  5
88
330
1F
100
AcDbEntity
  8
0
  6
Continuous
 62
     7
370
    15
100
AcDbLine
 10
56.1395276009
 20
101.4037901506
 30
0.0
 11
55.2796141847
 21
99.2318937525
 31
0.0
  0
ARC
  5
89
330
1F
100
AcDbEntity
  8
0
  6
Continuous
 62
     7
370
    15
100
AcDbCircle
 10
55.6746388935
 20
101.5878505692
 30
0.0
 40
0.5000000000000148
100
AcDbArc
 50
338.4
 51
77.4
  0
LINE
  5
8A
330
1F
100
AcDbEntity
  8
0
  6
Continuous
 62
     7
370
    15
100
AcDbLine
 10
45.9974452525
 20
104.2632969066
 30
0.0
 11
55.7837102234
 21
102.0758101687
 31
0.0
  0
LINE
  5
8B
330
1F
100
AcDbEntity
  8
0
  6
Continuous
 62
     7
370
    15
100
AcDbLine
 10
47.3704699099
 20
106.1531068727
 30
0.0
 11
45.9974452525
 21
104.2632969066
 31
0.0
  0
ARC
  5
8C
330
1F
100
AcDbEntity
  8
0
  6
Continuous
 62
     7
370
    15
100
AcDbCircle
 10
46.9659615247
 20
106.4469986651
 30
0.0
 40
0.50000000000002
100
AcDbArc
 50
324.0
 51
63.0
  0
LINE
  5
8D
330
1F
100
AcDbEntity
  8
0
  6
Continuous
 62
     7
370
    15
100
AcDbLine
 10
38.2581490695
 20
111.4450121269
 30
0.0
 11
47.1929561018
 21
106.8925024912
 31
0.0
  0
LINE
  5
8E
330
1F
100
AcDbEntity
  8
0
  6
Continuous
 62
     7
370
    15
100
AcDbLine
 10
40.0580156266
 20
112.9339901701
 30
0.0
 11
38.2581490695
 21
111.4450121269
 31
0.0
  0
ARC
  5
8F
330
1F
100
AcDbEntity
  8
0
  6
Continuous
 62
     7
370
    15
100
AcDbCircle
 10
39.7393042612
 20
113.3192476805
 30
0.0
 40
0.4999999999999988
100
AcDbArc
 50
309.6
 51
48.6
  0
LINE
  5
90
330
1F
100
AcDbEntity
  8
0
  6
Continuous
 62
     7
370
    15
100
AcDbLine
 10
31.5203990459
 20
130.7853116624
 30
0.0
 11
29.2258437395
 21
130.3476016939
 31
0.0
  0
ARC
  5
91
330
1F
100
AcDbEntity
  8
0
  6
Continuous
 62
     7
370
    15
100
AcDbCircle
 10
31.4267077349
 20
131.2764553424
 30
0.0
 40
0.5000000000000011
100
AcDbArc
 50
280.8
 51
19.8
  0
LINE
  5
92
330
1F
100
AcDbEntity
  8
0
  6
Continuous
 62
     7
370
    15
100
AcDbLine
 10
30.831686002
 20
140.7340831093
 30
0.0
 11
28.5003620803
 21
140.8807575673
 31
0.0
  0
ARC
  5
93
330
1F
100
AcDbEntity
  8
0
  6
Continuous
 62
     7
370
    15
100
AcDbCircle
 10
30.8630794834
 20
141.2330965896
 30
0.0
 40
0.5000000000000104
100
AcDbArc
 50
266.4
 51
5.4
  0
LINE
  5
94
330
1F
100
AcDbEntity
  8
0
  6
Continuous
 62
     7
370
    15
100
AcDbLine
 10
30.4171654999
 20
151.2634145066
 30
0.0
 11
31.3608597636
 21
141.2801508296
 31
0.0
  0
LINE
  5
95
330
1F
100
AcDbEntity
  8
0
  6
Continuous
 62
     7
370
    15
100
AcDbLine
 10
32.6387647211
 20
150.5415724561
 30
0.0
 11
30.4171654999
 21
151.2634145066
 31
0.0
  0
ARC
  5
96
330
1F
100
AcDbEntity
  8
0
  6
Continuous
 62
     7
370
    15
100
AcDbCircle
 10
32.7932746382
 20
151.0171002894
 30
0.0
 40
0.4999999999999931
100
AcDbArc
 50
252.0
 51
351.0
  0
LINE
  5
97
330
1F
100
AcDbEntity
  8
0
  6
Continuous
 62
     7
370
    15
100
AcDbLine
 10
34.8558079123
 20
160.8431922242
 30
0.0
 11
33.2871179699
 21
150.9388830483
 31
0.0
  0
LINE
  5
98
330
1F
100
AcDbEntity
  8
0
  6
Continuous
 62
     7
370
    15
100
AcDbLine
 10
36.8280995309
 20
159.5915375248
 30
0.0
 11
34.8558079123
 21
160.8431922242
 31
0.0
  0
ARC
  5
99
330
1F
100
AcDbEntity
  8
0
  6
Continuous
 62
     7
370
    15
100
AcDbCircle
 10
37.0960119389
 20
160.0137015061
 30
0.0
 40
0.5000000000000073
100
AcDbArc
 50
237.6
 51
336.6
  0
LINE
  5
9A
330
1F
100
AcDbEntity
  8
0
  6
Continuous
 62
     7
370
    15
100
AcDbLine
 10
41.5373954594
 20
169.0181573823
 30
0.0
 11
37.5548887669
 21
159.8151275858
 31
0.0
  0
LINE
  5
9B
330
1F
100
AcDbEntity
  8
0
  6
Continuous
 62
     7
370
    15
100
AcDbLine
 10
43.1364502429
 20
167.3153365001
 30
0.0
 11
41.5373954594
 21
169.0181573823
 31
0.0
  0
ARC
  5
9C
330
1F
100
AcDbEntity
  8
0
  6
Continuous
 62
     7
370
    15
100
AcDbCircle
 10
43.5009345766
 20
167.6576106982
 30
0.0
 40
0.5000000000000002
100
AcDbArc
 50
223.2
 51
322.2
  0
LINE
  5
9D
330
1F
100
AcDbEntity
  8
0
  6
Continuous
 62
     7
370
    15
100
AcDbLine
 10
50.0421009629
 20
175.2746464655
 30
0.0
 11
43.8960127204
 21
167.351157029
 31
0.0
  0
LINE
  5
9E
330
1F
100
AcDbEntity
  8
0
  6
Continuous
 62
     7
370
    15
100
AcDbLine
 10
51.1674441069
 20
173.2276553258
 30
0.0
 11
50.0421009629
 21
175.2746464655
 31
0.0
  0
ARC
  5
9F
330
1F
100
AcDbEntity
  8
0
  6
Continuous
 62
     7
370
    15
100
AcDbCircle
 10
51.6055977063
 20
173.4685329388
 30
0.0
 40
0.5000000000000037
100
AcDbArc
 50
208.8
 51
307.8
  0
LINE
  5
A0
330
1F
100
AcDbEntity
  8
0
  6
Continuous
 62
     7
370
    15
100
AcDbLine
 10
59.8355417743
 20
179.2195463523
 30
0.0
 11
51.9120514064
 21
173.0734543845
 31
0.0
  0
LINE
  5
A1
330
1F
100
AcDbEntity
  8
0
  6
Continuous
 62
     7
370
    15
100
AcDbLine
 10
60.4164635434
 20
176.9570024654
 30
0.0
 11
59.8355417743
 21
179.2195463523
 31
0.0
  0
ARC
  5
A2
330
1F
100
AcDbEntity
  8
0
  6
Continuous
 62
     7
370
    15
100
AcDbCircle
 10
60.9007555367
 20
177.0813466125
 30
0.0
 40
0.5000000000000278
100
AcDbArc
 50
194.4
 51
293.4
  0
LINE
  5
A3
330
1F
100
AcDbEntity
  8
0
  6
Continuous
 62
     7
370
    15
100
AcDbLine
 10
70.3023591041
 20
180.6049743637
 30
0.0
 11
61.0993297442
 21
176.6224676713
 31
0.0
  0
LINE
  5
A4
330
1F
100
AcDbEntity
  8
0
  6
Continuous
 62
     7
370
    15
100
AcDbLine
 10
70.3023591041
 20
178.2690459832
 30
0.0
 11
70.3023591041
 21
180.6049743637
 31
0.0
  0
ARC
  5
A5
330
1F
100
AcDbEntity
  8
0
  6
Continuous
 62
     7
370
    15
100
AcDbCircle
 10
70.802359116
 20
178.269045349
 30
0.0
 40
0.5
100
AcDbArc
 50
180.0
 51
279.0
  0
LINE
  5
A6
330
1F
100
AcDbEntity
  8
0
  6
Continuous
 62
     7
370
    15
100
AcDbLine
 10
80.7848849937
 20
179.3438890919
 30
0.0
 11
70.8805763416
 21
177.7752028748
 31
0.0
  0
LINE
  5
A7
330
1F
100
AcDbEntity
  8
0
  6
Continuous
 62
     7
370
    15
100
AcDbLine
 10
80.2039622932
 20
177.081345205
 30
0.0
 11
80.7848849937
 21
179.3438890919
 31
0.0
  0
ARC
  5
A8
330
1F
100
AcDbEntity
  8
0
  6
Continuous
 62
     7
370
    15
100
AcDbCircle
 10
80.688254276
 20
176.9570016689
 30
0.0
 40
0.5000000000000078
100
AcDbArc
 50
165.6
 51
264.6
  0
LINE
  5
A9
330
1F
100
AcDbEntity
  8
0
  6
Continuous
 62
     7
370
    15
100
AcDbLine
 10
28.1362224042
 20
141.1541615117
 30
0.0
 11
30.84738065
 21
140.983590015
 31
0.0
  0
LINE
  5
AA
330
1F
100
AcDbEntity
  8
0
  6
Continuous
 62
     7
370
    15
100
AcDbLine
 10
30.84738065
 20
140.983590015
 30
0.0
 11
30.831686002
 21
140.7340831093
 31
0.0
  0
LINE
  5
AB
330
1F
100
AcDbEntity
  8
0
  6
Continuous
 62
     7
370
    15
100
AcDbLine
 10
109.0845677673
 20
130.8010170206
 30
0.0
 11
109.3344416141
 21
130.7931645743
 31
0.0
  0
LINE
  5
AC
330
1F
100
AcDbEntity
  8
0
  6
Continuous
 62
     7
370
    15
100
AcDbLine
 10
109.3344416141
 20
130.7931645743
 30
0.0
 11
109.0075101375
 21
120.3899444982
 31
0.0
  0
LINE
  5
AD
330
1F
100
AcDbEntity
  8
0
  6
Continuous
 62
     7
370
    15
100
AcDbLine
 10
108.769587022
 20
120.7781979784
 30
0.0
 11
109.0075101375
 21
120.3899444982
 31
0.0
  0
ARC
  5
AE
330
1F
100
AcDbEntity
  8
0
  6
Continuous
 62
     7
370
    15
100
AcDbCircle
 10
30.8630794834
 20
141.2330965896
 30
0.0
 40
0.2499999999999981
100
AcDbArc
 50
266.4
 51
5.4
  0
LINE
  5
AF
330
1F
100
AcDbEntity
  8
0
  6
Continuous
 62
     7
370
    15
100
AcDbLine
 10
31.1119693934
 20
141.2566237587
 30
0.0
 11
31.3608597636
 21
141.2801508296
 31
0.0
  0
LINE
  5
B0
330
1F
100
AcDbEntity
  8
0
  6
Continuous
 62
     7
370
    15
100
AcDbLine
 10
109.6780102372
 20
131.2764553323
 30
0.0
 11
109.6311647117
 21
131.0308837302
 31
0.0
  0
ARC
  5
B1
330
1F
100
AcDbEntity
  8
0
  6
Continuous
 62
     7
370
    15
100
AcDbCircle
 10
109.5843198398
 20
130.7853117171
 30
0.0
 40
0.2500000000000105
100
AcDbArc
 50
79.2
 51
178.2
  0
LINE
  5
B2
330
1F
100
AcDbEntity
  8
0
  6
Continuous
 62
     7
370
    15
100
AcDbLine
 10
31.1119693934
 20
141.2566237587
 30
0.0
 11
30.1324564635
 21
151.618786712
 31
0.0
  0
LINE
  5
B3
330
1F
100
AcDbEntity
  8
0
  6
Continuous
 62
     7
370
    15
100
AcDbLine
 10
30.1324564635
 20
151.618786712
 30
0.0
 11
30.4171654999
 21
151.2634145066
 31
0.0
  0
LINE
  5
B4
330
1F
100
AcDbEntity
  8
0
  6
Continuous
 62
     7
370
    15
100
AcDbLine
 10
111.9725655436
 20
130.8387458295
 30
0.0
 11
112.2995678007
 21
130.5218586668
 31
0.0
  0
LINE
  5
B5
330
1F
100
AcDbEntity
  8
0
  6
Continuous
 62
     7
370
    15
100
AcDbLine
 10
112.2995678007
 20
130.5218586668
 30
0.0
 11
109.6311647117
 21
131.0308837302
 31
0.0
  0
LINE
  5
B6
330
1F
100
AcDbEntity
  8
0
  6
Continuous
 62
     7
370
    15
100
AcDbLine
 10
30.1324564635
 20
151.618786712
 30
0.0
 11
32.7160197913
 21
150.7793363154
 31
0.0
  0
LINE
  5
B7
330
1F
100
AcDbEntity
  8
0
  6
Continuous
 62
     7
370
    15
100
AcDbLine
 10
32.7160197913
 20
150.7793363154
 30
0.0
 11
32.6387647211
 21
150.5415724561
 31
0.0
  0
LINE
  5
B8
330
1F
100
AcDbEntity
  8
0
  6
Continuous
 62
     7
370
    15
100
AcDbLine
 10
109.7850750803
 20
140.6250114988
 30
0.0
 11
110.0290555179
 21
140.6795474205
 31
0.0
  0
LINE
  5
B9
330
1F
100
AcDbEntity
  8
0
  6
Continuous
 62
     7
370
    15
100
AcDbLine
 10
110.0290555179
 20
140.6795474205
 30
0.0
 11
112.2995678007
 21
130.5218586668
 31
0.0
  0
LINE
  5
BA
330
1F
100
AcDbEntity
  8
0
  6
Continuous
 62
     7
370
    15
100
AcDbLine
 10
28.8051504313
 20
130.5218586668
 30
0.0
 11
31.4735535204
 21
131.0308837302
 31
0.0
  0
LINE
  5
BB
330
1F
100
AcDbEntity
  8
0
  6
Continuous
 62
     7
370
    15
100
AcDbLine
 10
31.4735535204
 20
131.0308837302
 30
0.0
 11
31.5203990459
 21
130.7853116624
 31
0.0
  0
LINE
  5
BC
330
1F
100
AcDbEntity
  8
0
  6
Continuous
 62
     7
370
    15
100
AcDbLine
 10
105.96293841
 20
121.4598702237
 30
0.0
 11
106.203011018
 21
121.3901234761
 31
0.0
  0
LINE
  5
BD
330
1F
100
AcDbEntity
  8
0
  6
Continuous
 62
     7
370
    15
100
AcDbLine
 10
106.203011018
 20
121.3901234761
 30
0.0
 11
103.2991733074
 21
111.3950448081
 31
0.0
  0
ARC
  5
BE
330
1F
100
AcDbEntity
  8
0
  6
Continuous
 62
     7
370
    15
100
AcDbCircle
 10
31.4267077349
 20
131.2764553424
 30
0.0
 40
0.2499999999999895
100
AcDbArc
 50
280.8
 51
19.8
  0
LINE
  5
BF
330
1F
100
AcDbEntity
  8
0
  6
Continuous
 62
     7
370
    15
100
AcDbLine
 10
106.6559727907
 20
121.7727890208
 30
0.0
 11
106.549530071
 21
121.5465819433
 31
0.0
  0
ARC
  5
C0
330
1F
100
AcDbEntity
  8
0
  6
Continuous
 62
     7
370
    15
100
AcDbCircle
 10
106.4430840295
 20
121.320375409
 30
0.0
 40
0.2499999999999881
100
AcDbArc
 50
64.8
 51
163.8
  0
LINE
  5
C1
330
1F
100
AcDbEntity
  8
0
  6
Continuous
 62
     7
370
    15
100
AcDbLine
 10
34.668422085
 20
161.258202602
 30
0.0
 11
36.9620535194
 21
159.8026199236
 31
0.0
  0
LINE
  5
C2
330
1F
100
AcDbEntity
  8
0
  6
Continuous
 62
     7
370
    15
100
AcDbLine
 10
36.9620535194
 20
159.8026199236
 30
0.0
 11
36.8280995309
 21
159.5915375248
 31
0.0
  0
LINE
  5
C3
330
1F
100
AcDbEntity
  8
0
  6
Continuous
 62
     7
370
    15
100
AcDbLine
 10
34.668422085
 20
161.258202602
 30
0.0
 11
34.8558079123
 21
160.8431922242
 31
0.0
  0
LINE
  5
C4
330
1F
100
AcDbEntity
  8
0
  6
Continuous
 62
     7
370
    15
100
AcDbLine
 10
109.0075101375
 20
120.3899444982
 30
0.0
 11
106.549530071
 21
121.5465819433
 31
0.0
  0
ARC
  5
C5
330
1F
100
AcDbEntity
  8
0
  6
Continuous
 62
     7
370
    15
100
AcDbCircle
 10
37.0960119389
 20
160.0137015061
 30
0.0
 40
0.249999999999998
100
AcDbArc
 50
237.6
 51
336.6
  0
LINE
  5
C6
330
1F
100
AcDbEntity
  8
0
  6
Continuous
 62
     7
370
    15
100
AcDbLine
 10
37.3254518628
 20
159.9144140229
 30
0.0
 11
37.5548887669
 21
159.8151275858
 31
0.0
  0
LINE
  5
C7
330
1F
100
AcDbEntity
  8
0
  6
Continuous
 62
     7
370
    15
100
AcDbLine
 10
108.3114433705
 20
151.0171001747
 30
0.0
 11
108.3886984407
 21
150.7793363154
 31
0.0
  0
ARC
  5
C8
330
1F
100
AcDbEntity
  8
0
  6
Continuous
 62
     7
370
    15
100
AcDbCircle
 10
108.465952091
 20
150.5415720312
 30
0.0
 40
0.2499999999999876
100
AcDbArc
 50
108.0
 51
207.0
  0
LINE
  5
C9
330
1F
100
AcDbEntity
  8
0
  6
Continuous
 62
     7
370
    15
100
AcDbLine
 10
108.0204497694
 20
150.3145765483
 30
0.0
 11
108.2431997775
 21
150.4280740365
 31
0.0
  0
LINE
  5
CA
330
1F
100
AcDbEntity
  8
0
  6
Continuous
 62
     7
370
    15
100
AcDbLine
 10
37.3254518628
 20
159.9144140229
 30
0.0
 11
41.4591066211
 21
169.466730763
 31
0.0
  0
LINE
  5
CB
330
1F
100
AcDbEntity
  8
0
  6
Continuous
 62
     7
370
    15
100
AcDbLine
 10
41.4591066211
 20
169.466730763
 30
0.0
 11
41.5373954594
 21
169.0181573823
 31
0.0
  0
LINE
  5
CC
330
1F
100
AcDbEntity
  8
0
  6
Continuous
 62
     7
370
    15
100
AcDbLine
 10
110.533046317
 20
151.7389422253
 30
0.0
 11
110.9722617685
 21
151.618786712
 31
0.0
  0
LINE
  5
CD
330
1F
100
AcDbEntity
  8
0
  6
Continuous
 62
     7
370
    15
100
AcDbLine
 10
110.9722617685
 20
151.618786712
 30
0.0
 11
108.3886984407
 21
150.7793363154
 31
0.0
  0
LINE
  5
CE
330
1F
100
AcDbEntity
  8
0
  6
Continuous
 62
     7
370
    15
100
AcDbLine
 10
41.4591066211
 20
169.466730763
 30
0.0
 11
43.318693307
 21
167.4864744738
 31
0.0
  0
LINE
  5
CF
330
1F
100
AcDbEntity
  8
0
  6
Continuous
 62
     7
370
    15
100
AcDbLine
 10
43.318693307
 20
167.4864744738
 30
0.0
 11
43.1364502429
 21
167.3153365001
 31
0.0
  0
LINE
  5
D0
330
1F
100
AcDbEntity
  8
0
  6
Continuous
 62
     7
370
    15
100
AcDbLine
 10
103.9015639245
 20
159.2608807579
 30
0.0
 11
104.0890913128
 21
159.4262091413
 31
0.0
  0
LINE
  5
D1
330
1F
100
AcDbEntity
  8
0
  6
Continuous
 62
     7
370
    15
100
AcDbLine
 10
104.0890913128
 20
159.4262091413
 30
0.0
 11
110.9722617685
 21
151.618786712
 31
0.0
  0
ARC
  5
D2
330
1F
100
AcDbEntity
  8
0
  6
Continuous
 62
     7
370
    15
100
AcDbCircle
 10
43.5009345766
 20
167.6576106982
 30
0.0
 40
0.2500000000000001
100
AcDbArc
 50
223.2
 51
322.2
  0
LINE
  5
D3
330
1F
100
AcDbEntity
  8
0
  6
Continuous
 62
     7
370
    15
100
AcDbLine
 10
43.6984736144
 20
167.5043838069
 30
0.0
 11
43.8960127204
 21
167.351157029
 31
0.0
  0
LINE
  5
D4
330
1F
100
AcDbEntity
  8
0
  6
Continuous
 62
     7
370
    15
100
AcDbLine
 10
104.0087069988
 20
160.0137023225
 30
0.0
 11
104.1426647126
 21
159.8026199236
 31
0.0
  0
ARC
  5
D5
330
1F
100
AcDbEntity
  8
0
  6
Continuous
 62
     7
370
    15
100
AcDbCircle
 10
104.2766196906
 20
159.5915375434
 30
0.0
 40
0.2500000000000115
100
AcDbArc
 50
122.4
 51
221.4
  0
LINE
  5
D6
330
1F
100
AcDbEntity
  8
0
  6
Continuous
 62
     7
370
    15
100
AcDbLine
 10
43.6984736144
 20
167.5043838069
 30
0.0
 11
50.0778283595
 21
175.7285991654
 31
0.0
  0
LINE
  5
D7
330
1F
100
AcDbEntity
  8
0
  6
Continuous
 62
     7
370
    15
100
AcDbLine
 10
50.0778283595
 20
175.7285991654
 30
0.0
 11
50.0421009629
 21
175.2746464655
 31
0.0
  0
LINE
  5
D8
330
1F
100
AcDbEntity
  8
0
  6
Continuous
 62
     7
370
    15
100
AcDbLine
 10
105.9809986174
 20
161.2653551593
 30
0.0
 11
106.4362961471
 21
161.258202602
 31
0.0
  0
LINE
  5
D9
330
1F
100
AcDbEntity
  8
0
  6
Continuous
 62
     7
370
    15
100
AcDbLine
 10
106.4362961471
 20
161.258202602
 30
0.0
 11
104.1426647126
 21
159.8026199236
 31
0.0
  0
LINE
  5
DA
330
1F
100
AcDbEntity
  8
0
  6
Continuous
 62
     7
370
    15
100
AcDbLine
 10
50.0778283595
 20
175.7285991654
 30
0.0
 11
51.3865209788
 21
173.3480939612
 31
0.0
  0
LINE
  5
DB
330
1F
100
AcDbEntity
  8
0
  6
Continuous
 62
     7
370
    15
100
AcDbLine
 10
51.3865209788
 20
173.3480939612
 30
0.0
 11
51.1674441069
 21
173.2276553258
 31
0.0
  0
ARC
  5
DC
330
1F
100
AcDbEntity
  8
0
  6
Continuous
 62
     7
370
    15
100
AcDbCircle
 10
65.3181381403
 20
99.0471215383
 30
0.0
 40
0.2499999999999964
100
AcDbArc
 50
352.8
 51
91.8
  0
LINE
  5
DD
330
1F
100
AcDbEntity
  8
0
  6
Continuous
 62
     7
370
    15
100
AcDbLine
 10
65.3102856732
 20
99.2969969258
 30
0.0
 11
65.3024327613
 21
99.5468744978
 31
0.0
  0
LINE
  5
DE
330
1F
100
AcDbEntity
  8
0
  6
Continuous
 62
     7
370
    15
100
AcDbLine
 10
65.8141954474
 20
98.9844562456
 30
0.0
 11
65.5661670163
 21
99.0157896623
 31
0.0
  0
LINE
  5
DF
330
1F
100
AcDbEntity
  8
0
  6
Continuous
 62
     7
370
    15
100
AcDbLine
 10
65.3102856732
 20
99.2969969258
 30
0.0
 11
54.9070655971
 21
98.9700654492
 31
0.0
  0
LINE
  5
E0
330
1F
100
AcDbEntity
  8
0
  6
Continuous
 62
     7
370
    15
100
AcDbLine
 10
54.9070655971
 20
98.9700654492
 30
0.0
 11
55.2796141847
 21
99.2318937525
 31
0.0
  0
LINE
  5
E1
330
1F
100
AcDbEntity
  8
0
  6
Continuous
 62
     7
370
    15
100
AcDbLine
 10
65.5214258141
 20
96.6669457003
 30
0.0
 11
65.2256969034
 21
96.320691143
 31
0.0
  0
LINE
  5
E2
330
1F
100
AcDbEntity
  8
0
  6
Continuous
 62
     7
370
    15
100
AcDbLine
 10
65.2256969034
 20
96.320691143
 30
0.0
 11
65.5661670163
 21
99.0157896623
 31
0.0
  0
LINE
  5
E3
330
1F
100
AcDbEntity
  8
0
  6
Continuous
 62
     7
370
    15
100
AcDbLine
 10
54.9070655971
 20
98.9700654492
 30
0.0
 11
55.9070834562
 21
101.4958197221
 31
0.0
  0
LINE
  5
E4
330
1F
100
AcDbEntity
  8
0
  6
Continuous
 62
     7
370
    15
100
AcDbLine
 10
55.9070834562
 20
101.4958197221
 30
0.0
 11
56.1395276009
 21
101.4037901506
 31
0.0
  0
LINE
  5
E5
330
1F
100
AcDbEntity
  8
0
  6
Continuous
 62
     7
370
    15
100
AcDbLine
 10
75.1510269612
 20
99.4646014616
 30
0.0
 11
75.2207751057
 21
99.2245288536
 31
0.0
  0
LINE
  5
E6
330
1F
100
AcDbEntity
  8
0
  6
Continuous
 62
     7
370
    15
100
AcDbLine
 10
75.2207751057
 20
99.2245288536
 30
0.0
 11
65.2256969034
 21
96.320691143
 31
0.0
  0
ARC
  5
E7
330
1F
100
AcDbEntity
  8
0
  6
Continuous
 62
     7
370
    15
100
AcDbCircle
 10
55.6746388935
 20
101.5878505692
 30
0.0
 40
0.2500000000000074
100
AcDbArc
 50
338.4
 51
77.4
  0
LINE
  5
E8
330
1F
100
AcDbEntity
  8
0
  6
Continuous
 62
     7
370
    15
100
AcDbLine
 10
55.7291747674
 20
101.8318297312
 30
0.0
 11
55.7837102234
 21
102.0758101687
 31
0.0
  0
LINE
  5
E9
330
1F
100
AcDbEntity
  8
0
  6
Continuous
 62
     7
370
    15
100
AcDbLine
 10
75.7865801125
 20
99.047123079
 30
0.0
 11
75.5385512158
 21
99.0157896623
 31
0.0
  0
ARC
  5
EA
330
1F
100
AcDbEntity
  8
0
  6
Continuous
 62
     7
370
    15
100
AcDbCircle
 10
75.2905227411
 20
98.9844549215
 30
0.0
 40
0.2500000000000057
100
AcDbArc
 50
7.2
 51
106.2
  0
LINE
  5
EB
330
1F
100
AcDbEntity
  8
0
  6
Continuous
 62
     7
370
    15
100
AcDbLine
 10
55.7291747674
 20
101.8318297312
 30
0.0
 11
45.5714862465
 21
104.102342014
 31
0.0
  0
LINE
  5
EC
330
1F
100
AcDbEntity
  8
0
  6
Continuous
 62
     7
370
    15
100
AcDbLine
 10
45.5714862465
 20
104.102342014
 30
0.0
 11
45.9974452525
 21
104.2632969066
 31
0.0
  0
LINE
  5
ED
330
1F
100
AcDbEntity
  8
0
  6
Continuous
 62
     7
370
    15
100
AcDbLine
 10
76.0793497458
 20
96.7296088085
 30
0.0
 11
75.8790213286
 21
96.320691143
 31
0.0
  0
LINE
  5
EE
330
1F
100
AcDbEntity
  8
0
  6
Continuous
 62
     7
370
    15
100
AcDbLine
 10
75.8790213286
 20
96.320691143
 30
0.0
 11
75.5385512158
 21
99.0157896623
 31
0.0
  0
LINE
  5
EF
330
1F
100
AcDbEntity
  8
0
  6
Continuous
 62
     7
370
    15
100
AcDbLine
 10
45.5714862465
 20
104.102342014
 30
0.0
 11
47.168216449
 21
106.3000509486
 31
0.0
  0
LINE
  5
F0
330
1F
100
AcDbEntity
  8
0
  6
Continuous
 62
     7
370
    15
100
AcDbLine
 10
47.168216449
 20
106.3000509486
 30
0.0
 11
47.3704699099
 21
106.1531068727
 31
0.0
  0
LINE
  5
F1
330
1F
100
AcDbEntity
  8
0
  6
Continuous
 62
     7
370
    15
100
AcDbLine
 10
84.710670416
 20
101.8341580376
 30
0.0
 11
84.8379309892
 21
101.6189740941
 31
0.0
  0
LINE
  5
F2
330
1F
100
AcDbEntity
  8
0
  6
Continuous
 62
     7
370
    15
100
AcDbLine
 10
84.8379309892
 20
101.6189740941
 30
0.0
 11
75.8790213286
 21
96.320691143
 31
0.0
  0
ARC
  5
F3
330
1F
100
AcDbEntity
  8
0
  6
Continuous
 62
     7
370
    15
100
AcDbCircle
 10
46.9659615247
 20
106.4469986651
 30
0.0
 40
0.25000000000001
100
AcDbArc
 50
324.0
 51
63.0
  0
LINE
  5
F4
330
1F
100
AcDbEntity
  8
0
  6
Continuous
 62
     7
370
    15
100
AcDbLine
 10
47.079459545
 20
106.6697487578
 30
0.0
 11
47.1929561018
 21
106.8925024912
 31
0.0
  0
ARC
  5
F5
330
1F
100
AcDbEntity
  8
0
  6
Continuous
 62
     7
370
    15
100
AcDbCircle
 10
32.7932746382
 20
151.0171002894
 30
0.0
 40
0.2499999999999965
100
AcDbArc
 50
252.0
 51
351.0
  0
LINE
  5
F6
330
1F
100
AcDbEntity
  8
0
  6
Continuous
 62
     7
370
    15
100
AcDbLine
 10
33.0401982784
 20
150.9779920772
 30
0.0
 11
33.2871179699
 21
150.9388830483
 31
0.0
  0
LINE
  5
F7
330
1F
100
AcDbEntity
  8
0
  6
Continuous
 62
     7
370
    15
100
AcDbLine
 10
110.2416392087
 20
141.2330966879
 30
0.0
 11
110.2573375821
 21
140.983590015
 31
0.0
  0
ARC
  5
F8
330
1F
100
AcDbEntity
  8
0
  6
Continuous
 62
     7
370
    15
100
AcDbCircle
 10
110.2730340084
 20
140.7340832254
 30
0.0
 40
0.2500000000000136
100
AcDbArc
 50
93.6
 51
192.6
  0
LINE
  5
F9
330
1F
100
AcDbEntity
  8
0
  6
Continuous
 62
     7
370
    15
100
AcDbLine
 10
33.0401982784
 20
150.9779920772
 30
0.0
 11
34.668422085
 21
161.258202602
 31
0.0
  0
LINE
  5
FA
330
1F
100
AcDbEntity
  8
0
  6
Continuous
 62
     7
370
    15
100
AcDbLine
 10
112.5729594051
 20
141.379770913
 30
0.0
 11
112.9684958279
 21
141.1541615117
 31
0.0
  0
LINE
  5
FB
330
1F
100
AcDbEntity
  8
0
  6
Continuous
 62
     7
370
    15
100
AcDbLine
 10
112.9684958279
 20
141.1541615117
 30
0.0
 11
110.2573375821
 21
140.983590015
 31
0.0
  0
LINE
  5
FC
330
1F
100
AcDbEntity
  8
0
  6
Continuous
 62
     7
370
    15
100
AcDbLine
 10
93.3806940585
 20
106.5066592738
 30
0.0
 11
93.5574721217
 21
106.3298830733
 31
0.0
  0
LINE
  5
FD
330
1F
100
AcDbEntity
  8
0
  6
Continuous
 62
     7
370
    15
100
AcDbLine
 10
93.5574721217
 20
106.3298830733
 30
0.0
 11
86.1976526349
 21
98.9700654492
 31
0.0
  0
LINE
  5
FE
330
1F
100
AcDbEntity
  8
0
  6
Continuous
 62
     7
370
    15
100
AcDbLine
 10
86.2899932682
 20
99.4159566209
 30
0.0
 11
86.1976526349
 21
98.9700654492
 31
0.0
  0
LINE
  5
FF
330
1F
100
AcDbEntity
  8
0
  6
Continuous
 62
     7
370
    15
100
AcDbLine
 10
108.2431997775
 20
150.4280740365
 30
0.0
 11
112.9684958279
 21
141.1541615117
 31
0.0
  0
ARC
  5
100
330
1F
100
AcDbEntity
  8
0
  6
Continuous
 62
     7
370
    15
100
AcDbCircle
 10
93.7342482102
 20
106.153106039
 30
0.0
 40
0.2500000000000062
100
AcDbArc
 50
36.0
 51
135.0
  0
LINE
  5
101
330
1F
100
AcDbEntity
  8
0
  6
Continuous
 62
     7
370
    15
100
AcDbLine
 10
99.2028385072
 20
169.360431467
 30
0.0
 11
99.645611611
 21
169.466730763
 31
0.0
  0
LINE
  5
102
330
1F
100
AcDbEntity
  8
0
  6
Continuous
 62
     7
370
    15
100
AcDbLine
 10
99.645611611
 20
169.466730763
 30
0.0
 11
97.7860249251
 21
167.4864744738
 31
0.0
  0
LINE
  5
103
330
1F
100
AcDbEntity
  8
0
  6
Continuous
 62
     7
370
    15
100
AcDbLine
 10
97.6037837237
 20
167.6576105848
 30
0.0
 11
97.7860249251
 21
167.4864744738
 31
0.0
  0
LINE
  5
104
330
1F
100
AcDbEntity
  8
0
  6
Continuous
 62
     7
370
    15
100
AcDbLine
 10
59.9830390557
 20
179.6503500983
 30
0.0
 11
60.6586102068
 21
177.0191738352
 31
0.0
  0
LINE
  5
105
330
1F
100
AcDbEntity
  8
0
  6
Continuous
 62
     7
370
    15
100
AcDbLine
 10
60.6586102068
 20
177.0191738352
 30
0.0
 11
60.4164635434
 21
176.9570024654
 31
0.0
  0
LINE
  5
106
330
1F
100
AcDbEntity
  8
0
  6
Continuous
 62
     7
370
    15
100
AcDbLine
 10
59.9830390557
 20
179.6503500983
 30
0.0
 11
59.8355417743
 21
179.2195463523
 31
0.0
  0
LINE
  5
107
330
1F
100
AcDbEntity
  8
0
  6
Continuous
 62
     7
370
    15
100
AcDbLine
 10
89.7679056644
 20
172.7572144911
 30
0.0
 11
89.8525889635
 21
172.9924367711
 31
0.0
  0
LINE
  5
108
330
1F
100
AcDbEntity
  8
0
  6
Continuous
 62
     7
370
    15
100
AcDbLine
 10
89.8525889635
 20
172.9924367711
 30
0.0
 11
99.645611611
 21
169.466730763
 31
0.0
  0
ARC
  5
109
330
1F
100
AcDbEntity
  8
0
  6
Continuous
 62
     7
370
    15
100
AcDbCircle
 10
60.9007555367
 20
177.0813466125
 30
0.0
 40
0.2500000000000046
100
AcDbArc
 50
194.4
 51
293.4
  0
LINE
  5
10A
330
1F
100
AcDbEntity
  8
0
  6
Continuous
 62
     7
370
    15
100
AcDbLine
 10
61.0000423759
 20
176.8519083008
 30
0.0
 11
61.0993297442
 21
176.6224676713
 31
0.0
  0
LINE
  5
10B
330
1F
100
AcDbEntity
  8
0
  6
Continuous
 62
     7
370
    15
100
AcDbLine
 10
89.4991203814
 20
173.4685325965
 30
0.0
 11
89.7181972533
 21
173.3480939612
 31
0.0
  0
ARC
  5
10C
330
1F
100
AcDbEntity
  8
0
  6
Continuous
 62
     7
370
    15
100
AcDbCircle
 10
89.9372738658
 20
173.2276561018
 30
0.0
 40
0.2500000000000093
100
AcDbArc
 50
151.2
 51
250.2
  0
LINE
  5
10D
330
1F
100
AcDbEntity
  8
0
  6
Continuous
 62
     7
370
    15
100
AcDbLine
 10
61.0000423759
 20
176.8519083008
 30
0.0
 11
70.552359116
 21
180.9855649218
 31
0.0
  0
LINE
  5
10E
330
1F
100
AcDbEntity
  8
0
  6
Continuous
 62
     7
370
    15
100
AcDbLine
 10
70.552359116
 20
180.9855649218
 30
0.0
 11
70.3023591041
 21
180.6049743637
 31
0.0
  0
LINE
  5
10F
330
1F
100
AcDbEntity
  8
0
  6
Continuous
 62
     7
370
    15
100
AcDbLine
 10
90.6244635254
 20
175.5155237362
 30
0.0
 11
91.0268898725
 21
175.7285991654
 31
0.0
  0
LINE
  5
110
330
1F
100
AcDbEntity
  8
0
  6
Continuous
 62
     7
370
    15
100
AcDbLine
 10
91.0268898725
 20
175.7285991654
 30
0.0
 11
89.7181972533
 21
173.3480939612
 31
0.0
  0
LINE
  5
111
330
1F
100
AcDbEntity
  8
0
  6
Continuous
 62
     7
370
    15
100
AcDbLine
 10
70.552359116
 20
180.9855649218
 30
0.0
 11
70.552359116
 21
178.2690459832
 31
0.0
  0
LINE
  5
112
330
1F
100
AcDbEntity
  8
0
  6
Continuous
 62
     7
370
    15
100
AcDbLine
 10
70.552359116
 20
178.2690459832
 30
0.0
 11
70.3023591041
 21
178.2690459832
 31
0.0
  0
LINE
  5
113
330
1F
100
AcDbEntity
  8
0
  6
Continuous
 62
     7
370
    15
100
AcDbLine
 10
80.6412005469
 20
176.4592217252
 30
0.0
 11
80.6647276177
 21
176.7081120953
 31
0.0
  0
LINE
  5
114
330
1F
100
AcDbEntity
  8
0
  6
Continuous
 62
     7
370
    15
100
AcDbLine
 10
80.6647276177
 20
176.7081120953
 30
0.0
 11
91.0268898725
 21
175.7285991654
 31
0.0
  0
ARC
  5
115
330
1F
100
AcDbEntity
  8
0
  6
Continuous
 62
     7
370
    15
100
AcDbCircle
 10
70.802359116
 20
178.269045349
 30
0.0
 40
0.25
100
AcDbArc
 50
180.0
 51
279.0
  0
LINE
  5
116
330
1F
100
AcDbEntity
  8
0
  6
Continuous
 62
     7
370
    15
100
AcDbLine
 10
70.8414677202
 20
178.0221225664
 30
0.0
 11
70.8805763416
 21
177.7752028748
 31
0.0
  0
LINE
  5
117
330
1F
100
AcDbEntity
  8
0
  6
Continuous
 62
     7
370
    15
100
AcDbLine
 10
97.6872265011
 20
166.901797612
 30
0.0
 11
97.8277463138
 21
167.1085661247
 31
0.0
  0
LINE
  5
118
330
1F
100
AcDbEntity
  8
0
  6
Continuous
 62
     7
370
    15
100
AcDbLine
 10
97.8277463138
 20
167.1085661247
 30
0.0
 11
106.4362961471
 21
161.258202602
 31
0.0
  0
ARC
  5
119
330
1F
100
AcDbEntity
  8
0
  6
Continuous
 62
     7
370
    15
100
AcDbCircle
 10
51.6055977063
 20
173.4685329388
 30
0.0
 40
0.2499999999999889
100
AcDbArc
 50
208.8
 51
307.8
  0
LINE
  5
11A
330
1F
100
AcDbEntity
  8
0
  6
Continuous
 62
     7
370
    15
100
AcDbLine
 10
51.7588246285
 20
173.2709953532
 30
0.0
 11
51.9120514064
 21
173.0734543845
 31
0.0
  0
ARC
  5
11B
330
1F
100
AcDbEntity
  8
0
  6
Continuous
 62
     7
370
    15
100
AcDbCircle
 10
97.9682679691
 20
167.3153371453
 30
0.0
 40
0.2500000000000218
100
AcDbArc
 50
136.8
 51
235.8
  0
LINE
  5
11C
330
1F
100
AcDbEntity
  8
0
  6
Continuous
 62
     7
370
    15
100
AcDbLine
 10
51.7588246285
 20
173.2709953532
 30
0.0
 11
59.9830390557
 21
179.6503500983
 31
0.0
  0
LINE
  5
11D
330
1F
100
AcDbEntity
  8
0
  6
Continuous
 62
     7
370
    15
100
AcDbLine
 10
80.2039622932
 20
177.081345205
 30
0.0
 11
80.4461080253
 21
177.0191738352
 31
0.0
  0
ARC
  5
11E
330
1F
100
AcDbEntity
  8
0
  6
Continuous
 62
     7
370
    15
100
AcDbCircle
 10
80.688254276
 20
176.9570016689
 30
0.0
 40
0.2500000000000039
100
AcDbArc
 50
165.6
 51
264.6
  0
LINE
  5
11F
330
1F
100
AcDbEntity
  8
0
  6
Continuous
 62
     7
370
    15
100
AcDbLine
 10
70.8414677202
 20
178.0221225664
 30
0.0
 11
81.1216791763
 21
179.6503500983
 31
0.0
  0
LINE
  5
120
330
1F
100
AcDbEntity
  8
0
  6
Continuous
 62
     7
370
    15
100
AcDbLine
 10
81.1216791763
 20
179.6503500983
 30
0.0
 11
80.7848849937
 21
179.3438890919
 31
0.0
  0
LINE
  5
121
330
1F
100
AcDbEntity
  8
0
  6
Continuous
 62
     7
370
    15
100
AcDbLine
 10
85.4300789207
 20
101.5878492936
 30
0.0
 11
85.1976347759
 21
101.4958197221
 31
0.0
  0
ARC
  5
122
330
1F
100
AcDbEntity
  8
0
  6
Continuous
 62
     7
370
    15
100
AcDbCircle
 10
84.9651910956
 20
101.4037882929
 30
0.0
 40
0.2500000000000148
100
AcDbArc
 50
21.6
 51
120.6
  0
ARC
  5
123
330
1F
100
AcDbEntity
  8
0
  6
Continuous
 62
     7
370
    15
100
AcDbCircle
 10
39.7393042612
 20
113.3192476805
 30
0.0
 40
0.2499999999999971
100
AcDbArc
 50
309.6
 51
48.6
  0
LINE
  5
124
330
1F
100
AcDbEntity
  8
0
  6
Continuous
 62
     7
370
    15
100
AcDbLine
 10
39.8986607462
 20
113.1266193435
 30
0.0
 11
40.0580156266
 21
112.9339901701
 31
0.0
  0
LINE
  5
125
330
1F
100
AcDbEntity
  8
0
  6
Continuous
 62
     7
370
    15
100
AcDbLine
 10
47.079459545
 20
106.6697487578
 30
0.0
 11
37.8055449247
 21
111.3950448081
 31
0.0
  0
LINE
  5
126
330
1F
100
AcDbEntity
  8
0
  6
Continuous
 62
     7
370
    15
100
AcDbLine
 10
37.8055449247
 20
111.3950448081
 30
0.0
 11
38.2581490695
 21
111.4450121269
 31
0.0
  0
LINE
  5
127
330
1F
100
AcDbEntity
  8
0
  6
Continuous
 62
     7
370
    15
100
AcDbLine
 10
81.1216791763
 20
179.6503500983
 30
0.0
 11
80.4461080253
 21
177.0191738352
 31
0.0
  0
LINE
  5
128
330
1F
100
AcDbEntity
  8
0
  6
Continuous
 62
     7
370
    15
100
AcDbLine
 10
37.8055449247
 20
111.3950448081
 30
0.0
 11
39.8986607462
 21
113.1266193435
 31
0.0
  0
LINE
  5
129
330
1F
100
AcDbEntity
  8
0
  6
Continuous
 62
     7
370
    15
100
AcDbLine
 10
86.1976526349
 20
98.9700654492
 30
0.0
 11
85.1976347759
 21
101.4958197221
 31
0.0
  0
ELLIPSE
  5
12A
330
1F
100
AcDbEntity
  8
0
  6
Continuous
 62
     7
370
    15
100
AcDbEllipse
 10
150.4554088398
 20
106.2855644748
 30
0.0
 11
0.0
 21
2.5
 31
3.061616997868379E-16
210
0.0
220
-1.224646799147351E-16
230
1.0
 40
0.6
 41
0.0
 42
1.570796326794897
  0
ELLIPSE
  5
12B
330
1F
100
AcDbEntity
  8
0
  6
Continuous
 62
     7
370
    15
100
AcDbEllipse
 10
150.4554088398
 20
170.6855644748
 30
0.0
 11
0.0
 21
-2.5
 31
0.0
210
0.0
220
0.0
230
1.0
 40
0.6
 41
4.712388980384699
 42
6.283185307179586
  0
ELLIPSE
  5
12C
330
1F
100
AcDbEntity
  8
0
  6
Continuous
 62
     7
370
    15
100
AcDbEllipse
 10
150.4554088398
 20
111.2855644748
 30
0.0
 11
0.0
 21
2.499999999999986
 31
3.061616997868379E-16
210
0.0
220
-1.224646799147358E-16
230
1.0
 40
0.6
 41
3.141592653589793
 42
4.712388980384699
  0
ELLIPSE
  5
12D
330
1F
100
AcDbEntity
  8
0
  6
Continuous
 62
     7
370
    15
100
AcDbEllipse
 10
150.4554088398
 20
165.6855644748
 30
0.0
 11
0.0
 21
-2.5
 31
0.0
210
0.0
220
0.0
230
1.0
 40
0.6
 41
1.570796326794897
 42
3.141592653589793
  0
LINE
  5
12E
330
1F
100
AcDbEntity
  8
0
  6
Continuous
 62
     7
370
    15
100
AcDbLine
 10
132.9554088398
 20
131.4458242588
 30
0.0
 11
132.9554088398
 21
140.8807575673
 31
0.0
  0
LINE
  5
12F
330
1F
100
AcDbEntity
  8
0
  6
Continuous
 62
     7
370
    15
100
AcDbLine
 10
132.9554088398
 20
140.8807575673
 30
0.0
 11
133.2054088517
 21
141.1541615117
 31
0.0
  0
LINE
  5
130
330
1F
100
AcDbEntity
  8
0
  6
Continuous
 62
     7
370
    15
100
AcDbLine
 10
133.2054088517
 20
141.1541615117
 30
0.0
 11
133.2054088517
 21
131.3611400284
 31
0.0
  0
LINE
  5
131
330
1F
100
AcDbEntity
  8
0
  6
Continuous
 62
     7
370
    15
100
AcDbLine
 10
132.9554088398
 20
131.4458242588
 30
0.0
 11
133.2054088517
 21
131.3611400284
 31
0.0
  0
LINE
  5
132
330
1F
100
AcDbEntity
  8
0
  6
Continuous
 62
     7
370
    15
100
AcDbLine
 10
148.7054090931
 20
131.3611400284
 30
0.0
 11
148.7054090931
 21
141.1541615117
 31
0.0
  0
LINE
  5
133
330
1F
100
AcDbEntity
  8
0
  6
Continuous
 62
     7
370
    15
100
AcDbLine
 10
133.2054088517
 20
131.3611400284
 30
0.0
 11
148.7054090931
 21
131.3611400284
 31
0.0
  0
LINE
  5
134
330
1F
100
AcDbEntity
  8
0
  6
Continuous
 62
     7
370
    15
100
AcDbLine
 10
148.7054090931
 20
141.1541615117
 30
0.0
 11
133.2054088517
 21
141.1541615117
 31
0.0
  0
LINE
  5
135
330
1F
100
AcDbEntity
  8
0
  6
Continuous
 62
     7
370
    15
100
AcDbLine
 10
148.7054090931
 20
141.1541615117
 30
0.0
 11
148.9554095997
 21
140.8807575673
 31
0.0
  0
LINE
  5
136
330
1F
100
AcDbEntity
  8
0
  6
Continuous
 62
     7
370
    15
100
AcDbLine
 10
148.9554095997
 20
140.8807575673
 30
0.0
 11
148.9554095997
 21
131.4458242588
 31
0.0
  0
LINE
  5
137
330
1F
100
AcDbEntity
  8
0
  6
Continuous
 62
     7
370
    15
100
AcDbLine
 10
148.7054090931
 20
131.3611400284
 30
0.0
 11
148.9554095997
 21
131.4458242588
 31
0.0
  0
LINE
  5
138
330
1F
100
AcDbEntity
  8
0
  6
Continuous
 62
     7
370
    15
100
AcDbLine
 10
148.7054090931
 20
130.5218586668
 30
0.0
 11
148.7054090931
 21
131.0308837302
 31
0.0
  0
LINE
  5
139
330
1F
100
AcDbEntity
  8
0
  6
Continuous
 62
     7
370
    15
100
AcDbLine
 10
148.7054090931
 20
130.5218586668
 30
0.0
 11
133.2054088517
 21
130.5218586668
 31
0.0
  0
LINE
  5
13A
330
1F
100
AcDbEntity
  8
0
  6
Continuous
 62
     7
370
    15
100
AcDbLine
 10
133.2054088517
 20
131.0308837302
 30
0.0
 11
133.2054088517
 21
130.5218586668
 31
0.0
  0
LINE
  5
13B
330
1F
100
AcDbEntity
  8
0
  6
Continuous
 62
     7
370
    15
100
AcDbLine
 10
148.7054090931
 20
131.0308837302
 30
0.0
 11
133.2054088517
 21
131.0308837302
 31
0.0
  0
LINE
  5
13C
330
1F
100
AcDbEntity
  8
0
  6
Continuous
 62
     7
370
    15
100
AcDbLine
 10
148.7054090931
 20
121.9133106962
 30
0.0
 11
148.7054090931
 21
130.5218586668
 31
0.0
  0
LINE
  5
13D
330
1F
100
AcDbEntity
  8
0
  6
Continuous
 62
     7
370
    15
100
AcDbLine
 10
133.2054088517
 20
121.9133106962
 30
0.0
 11
148.7054090931
 21
121.9133106962
 31
0.0
  0
LINE
  5
13E
330
1F
100
AcDbEntity
  8
0
  6
Continuous
 62
     7
370
    15
100
AcDbLine
 10
133.2054088517
 20
130.5218586668
 30
0.0
 11
133.2054088517
 21
121.9133106962
 31
0.0
  0
LINE
  5
13F
330
1F
100
AcDbEntity
  8
0
  6
Continuous
 62
     7
370
    15
100
AcDbLine
 10
132.9554088398
 20
130.3476016939
 30
0.0
 11
133.2054088517
 21
130.5218586668
 31
0.0
  0
LINE
  5
140
330
1F
100
AcDbEntity
  8
0
  6
Continuous
 62
     7
370
    15
100
AcDbLine
 10
132.9554088398
 20
122.0538305089
 30
0.0
 11
133.2054088517
 21
121.9133106962
 31
0.0
  0
LINE
  5
141
330
1F
100
AcDbEntity
  8
0
  6
Continuous
 62
     7
370
    15
100
AcDbLine
 10
132.9554088398
 20
122.0538305089
 30
0.0
 11
132.9554088398
 21
130.3476016939
 31
0.0
  0
LINE
  5
142
330
1F
100
AcDbEntity
  8
0
  6
Continuous
 62
     7
370
    15
100
AcDbLine
 10
132.9554088398
 20
130.7853116624
 30
0.0
 11
133.2054088517
 21
131.0308837302
 31
0.0
  0
LINE
  5
143
330
1F
100
AcDbEntity
  8
0
  6
Continuous
 62
     7
370
    15
100
AcDbLine
 10
132.9554088398
 20
130.3476016939
 30
0.0
 11
132.9554088398
 21
130.7853116624
 31
0.0
  0
LINE
  5
144
330
1F
100
AcDbEntity
  8
0
  6
Continuous
 62
     7
370
    15
100
AcDbLine
 10
148.7054090931
 20
130.5218586668
 30
0.0
 11
148.9554095997
 21
130.3476016939
 31
0.0
  0
LINE
  5
145
330
1F
100
AcDbEntity
  8
0
  6
Continuous
 62
     7
370
    15
100
AcDbLine
 10
148.7054090931
 20
121.9133106962
 30
0.0
 11
148.9554095997
 21
122.0538305089
 31
0.0
  0
LINE
  5
146
330
1F
100
AcDbEntity
  8
0
  6
Continuous
 62
     7
370
    15
100
AcDbLine
 10
148.9554095997
 20
130.3476016939
 30
0.0
 11
148.9554095997
 21
122.0538305089
 31
0.0
  0
LINE
  5
147
330
1F
100
AcDbEntity
  8
0
  6
Continuous
 62
     7
370
    15
100
AcDbLine
 10
148.7054090931
 20
131.0308837302
 30
0.0
 11
148.9554095997
 21
130.7853116624
 31
0.0
  0
LINE
  5
148
330
1F
100
AcDbEntity
  8
0
  6
Continuous
 62
     7
370
    15
100
AcDbLine
 10
148.9554095997
 20
130.7853116624
 30
0.0
 11
148.9554095997
 21
130.3476016939
 31
0.0
  0
LINE
  5
149
330
1F
100
AcDbEntity
  8
0
  6
Continuous
 62
     7
370
    15
100
AcDbLine
 10
132.9554088398
 20
151.2634145066
 30
0.0
 11
133.2054088517
 21
151.618786712
 31
0.0
  0
LINE
  5
14A
330
1F
100
AcDbEntity
  8
0
  6
Continuous
 62
     7
370
    15
100
AcDbLine
 10
133.2054088517
 20
151.618786712
 30
0.0
 11
133.2054088517
 21
141.2566237587
 31
0.0
  0
LINE
  5
14B
330
1F
100
AcDbEntity
  8
0
  6
Continuous
 62
     7
370
    15
100
AcDbLine
 10
132.9554088398
 20
141.2801508296
 30
0.0
 11
133.2054088517
 21
141.2566237587
 31
0.0
  0
LINE
  5
14C
330
1F
100
AcDbEntity
  8
0
  6
Continuous
 62
     7
370
    15
100
AcDbLine
 10
132.9554088398
 20
141.2801508296
 30
0.0
 11
132.9554088398
 21
151.2634145066
 31
0.0
  0
LINE
  5
14D
330
1F
100
AcDbEntity
  8
0
  6
Continuous
 62
     7
370
    15
100
AcDbLine
 10
148.7054090931
 20
141.2566237587
 30
0.0
 11
148.7054090931
 21
151.618786712
 31
0.0
  0
LINE
  5
14E
330
1F
100
AcDbEntity
  8
0
  6
Continuous
 62
     7
370
    15
100
AcDbLine
 10
133.2054088517
 20
141.2566237587
 30
0.0
 11
148.7054090931
 21
141.2566237587
 31
0.0
  0
LINE
  5
14F
330
1F
100
AcDbEntity
  8
0
  6
Continuous
 62
     7
370
    15
100
AcDbLine
 10
148.7054090931
 20
151.618786712
 30
0.0
 11
133.2054088517
 21
151.618786712
 31
0.0
  0
LINE
  5
150
330
1F
100
AcDbEntity
  8
0
  6
Continuous
 62
     7
370
    15
100
AcDbLine
 10
148.7054090931
 20
141.2566237587
 30
0.0
 11
148.9554095997
 21
141.2801508296
 31
0.0
  0
LINE
  5
151
330
1F
100
AcDbEntity
  8
0
  6
Continuous
 62
     7
370
    15
100
AcDbLine
 10
148.7054090931
 20
151.618786712
 30
0.0
 11
148.9554095997
 21
151.2634145066
 31
0.0
  0
LINE
  5
152
330
1F
100
AcDbEntity
  8
0
  6
Continuous
 62
     7
370
    15
100
AcDbLine
 10
148.9554095997
 20
151.2634145066
 30
0.0
 11
148.9554095997
 21
141.2801508296
 31
0.0
  0
LINE
  5
153
330
1F
100
AcDbEntity
  8
0
  6
Continuous
 62
     7
370
    15
100
AcDbLine
 10
133.2054088517
 20
141.2566237587
 30
0.0
 11
133.2054088517
 21
141.1541615117
 31
0.0
  0
LINE
  5
154
330
1F
100
AcDbEntity
  8
0
  6
Continuous
 62
     7
370
    15
100
AcDbLine
 10
132.9554088398
 20
140.8807575673
 30
0.0
 11
132.9554088398
 21
141.2801508296
 31
0.0
  0
LINE
  5
155
330
1F
100
AcDbEntity
  8
0
  6
Continuous
 62
     7
370
    15
100
AcDbLine
 10
148.7054090931
 20
141.1541615117
 30
0.0
 11
148.7054090931
 21
141.2566237587
 31
0.0
  0
LINE
  5
156
330
1F
100
AcDbEntity
  8
0
  6
Continuous
 62
     7
370
    15
100
AcDbLine
 10
148.9554095997
 20
141.2801508296
 30
0.0
 11
148.9554095997
 21
140.8807575673
 31
0.0
  0
LINE
  5
157
330
1F
100
AcDbEntity
  8
0
  6
Continuous
 62
     7
370
    15
100
AcDbLine
 10
133.2054088517
 20
131.3611400284
 30
0.0
 11
133.2054088517
 21
131.0308837302
 31
0.0
  0
LINE
  5
158
330
1F
100
AcDbEntity
  8
0
  6
Continuous
 62
     7
370
    15
100
AcDbLine
 10
132.9554088398
 20
130.7853116624
 30
0.0
 11
132.9554088398
 21
131.4458242588
 31
0.0
  0
LINE
  5
159
330
1F
100
AcDbEntity
  8
0
  6
Continuous
 62
     7
370
    15
100
AcDbLine
 10
148.7054090931
 20
131.0308837302
 30
0.0
 11
148.7054090931
 21
131.3611400284
 31
0.0
  0
LINE
  5
15A
330
1F
100
AcDbEntity
  8
0
  6
Continuous
 62
     7
370
    15
100
AcDbLine
 10
148.9554095997
 20
131.4458242588
 30
0.0
 11
148.9554095997
 21
130.7853116624
 31
0.0
  0
LINE
  5
15B
330
1F
100
AcDbEntity
  8
0
  6
Continuous
 62
     7
370
    15
100
AcDbLine
 10
132.9554088398
 20
120.3257838234
 30
0.0
 11
133.2054088517
 21
120.3899444982
 31
0.0
  0
LINE
  5
15C
330
1F
100
AcDbEntity
  8
0
  6
Continuous
 62
     7
370
    15
100
AcDbLine
 10
133.2054088517
 20
120.3899444982
 30
0.0
 11
133.2054088517
 21
113.5067759052
 31
0.0
  0
LINE
  5
15D
330
1F
100
AcDbEntity
  8
0
  6
Continuous
 62
     7
370
    15
100
AcDbLine
 10
132.9554088398
 20
113.6943032935
 30
0.0
 11
133.2054088517
 21
113.5067759052
 31
0.0
  0
LINE
  5
15E
330
1F
100
AcDbEntity
  8
0
  6
Continuous
 62
     7
370
    15
100
AcDbLine
 10
132.9554088398
 20
113.6943032935
 30
0.0
 11
132.9554088398
 21
120.3257838234
 31
0.0
  0
LINE
  5
15F
330
1F
100
AcDbEntity
  8
0
  6
Continuous
 62
     7
370
    15
100
AcDbLine
 10
148.7054090931
 20
120.3899444982
 30
0.0
 11
148.7054090931
 21
121.5465819433
 31
0.0
  0
LINE
  5
160
330
1F
100
AcDbEntity
  8
0
  6
Continuous
 62
     7
370
    15
100
AcDbLine
 10
148.7054090931
 20
120.3899444982
 30
0.0
 11
133.2054088517
 21
120.3899444982
 31
0.0
  0
LINE
  5
161
330
1F
100
AcDbEntity
  8
0
  6
Continuous
 62
     7
370
    15
100
AcDbLine
 10
133.2054088517
 20
121.5465819433
 30
0.0
 11
133.2054088517
 21
120.3899444982
 31
0.0
  0
LINE
  5
162
330
1F
100
AcDbEntity
  8
0
  6
Continuous
 62
     7
370
    15
100
AcDbLine
 10
148.7054090931
 20
121.5465819433
 30
0.0
 11
133.2054088517
 21
121.5465819433
 31
0.0
  0
LINE
  5
163
330
1F
100
AcDbEntity
  8
0
  6
Continuous
 62
     7
370
    15
100
AcDbLine
 10
148.7054090931
 20
113.5067759052
 30
0.0
 11
148.7054090931
 21
120.3899444982
 31
0.0
  0
LINE
  5
164
330
1F
100
AcDbEntity
  8
0
  6
Continuous
 62
     7
370
    15
100
AcDbLine
 10
133.2054088517
 20
113.5067759052
 30
0.0
 11
148.7054090931
 21
113.5067759052
 31
0.0
  0
LINE
  5
165
330
1F
100
AcDbEntity
  8
0
  6
Continuous
 62
     7
370
    15
100
AcDbLine
 10
132.9554088398
 20
121.3203748658
 30
0.0
 11
133.2054088517
 21
121.5465819433
 31
0.0
  0
LINE
  5
166
330
1F
100
AcDbEntity
  8
0
  6
Continuous
 62
     7
370
    15
100
AcDbLine
 10
132.9554088398
 20
120.3257838234
 30
0.0
 11
132.9554088398
 21
121.3203748658
 31
0.0
  0
LINE
  5
167
330
1F
100
AcDbEntity
  8
0
  6
Continuous
 62
     7
370
    15
100
AcDbLine
 10
148.7054090931
 20
121.5465819433
 30
0.0
 11
148.9554095997
 21
121.3203748658
 31
0.0
  0
LINE
  5
168
330
1F
100
AcDbEntity
  8
0
  6
Continuous
 62
     7
370
    15
100
AcDbLine
 10
148.7054090931
 20
120.3899444982
 30
0.0
 11
148.9554095997
 21
120.3257838234
 31
0.0
  0
LINE
  5
169
330
1F
100
AcDbEntity
  8
0
  6
Continuous
 62
     7
370
    15
100
AcDbLine
 10
148.9554095997
 20
121.3203748658
 30
0.0
 11
148.9554095997
 21
120.3257838234
 31
0.0
  0
LINE
  5
16A
330
1F
100
AcDbEntity
  8
0
  6
Continuous
 62
     7
370
    15
100
AcDbLine
 10
148.7054090931
 20
113.5067759052
 30
0.0
 11
148.9554095997
 21
113.6943032935
 31
0.0
  0
LINE
  5
16B
330
1F
100
AcDbEntity
  8
0
  6
Continuous
 62
     7
370
    15
100
AcDbLine
 10
148.9554095997
 20
120.3257838234
 30
0.0
 11
148.9554095997
 21
113.6943032935
 31
0.0
  0
LINE
  5
16C
330
1F
100
AcDbEntity
  8
0
  6
Continuous
 62
     7
370
    15
100
AcDbLine
 10
148.7054090931
 20
151.618786712
 30
0.0
 11
148.7054090931
 21
161.258202602
 31
0.0
  0
LINE
  5
16D
330
1F
100
AcDbEntity
  8
0
  6
Continuous
 62
     7
370
    15
100
AcDbLine
 10
133.2054088517
 20
161.258202602
 30
0.0
 11
133.2054088517
 21
151.618786712
 31
0.0
  0
LINE
  5
16E
330
1F
100
AcDbEntity
  8
0
  6
Continuous
 62
     7
370
    15
100
AcDbLine
 10
148.7054090931
 20
161.258202602
 30
0.0
 11
133.2054088517
 21
161.258202602
 31
0.0
  0
LINE
  5
16F
330
1F
100
AcDbEntity
  8
0
  6
Continuous
 62
     7
370
    15
100
AcDbLine
 10
132.9554088398
 20
160.8431922242
 30
0.0
 11
133.2054088517
 21
161.258202602
 31
0.0
  0
LINE
  5
170
330
1F
100
AcDbEntity
  8
0
  6
Continuous
 62
     7
370
    15
100
AcDbLine
 10
132.9554088398
 20
151.2634145066
 30
0.0
 11
132.9554088398
 21
160.8431922242
 31
0.0
  0
LINE
  5
171
330
1F
100
AcDbEntity
  8
0
  6
Continuous
 62
     7
370
    15
100
AcDbLine
 10
148.7054090931
 20
161.258202602
 30
0.0
 11
148.9554095997
 21
160.8431922242
 31
0.0
  0
LINE
  5
172
330
1F
100
AcDbEntity
  8
0
  6
Continuous
 62
     7
370
    15
100
AcDbLine
 10
148.9554095997
 20
160.8431922242
 30
0.0
 11
148.9554095997
 21
151.2634145066
 31
0.0
  0
LINE
  5
173
330
1F
100
AcDbEntity
  8
0
  6
Continuous
 62
     7
370
    15
100
AcDbLine
 10
148.7054090931
 20
121.5465819433
 30
0.0
 11
148.7054090931
 21
121.9133106962
 31
0.0
  0
LINE
  5
174
330
1F
100
AcDbEntity
  8
0
  6
Continuous
 62
     7
370
    15
100
AcDbLine
 10
133.2054088517
 20
121.9133106962
 30
0.0
 11
133.2054088517
 21
121.5465819433
 31
0.0
  0
LINE
  5
175
330
1F
100
AcDbEntity
  8
0
  6
Continuous
 62
     7
370
    15
100
AcDbLine
 10
132.9554088398
 20
121.3203748658
 30
0.0
 11
132.9554088398
 21
122.0538305089
 31
0.0
  0
LINE
  5
176
330
1F
100
AcDbEntity
  8
0
  6
Continuous
 62
     7
370
    15
100
AcDbLine
 10
148.9554095997
 20
122.0538305089
 30
0.0
 11
148.9554095997
 21
121.3203748658
 31
0.0
  0
LINE
  5
177
330
1F
100
AcDbEntity
  8
0
  6
Continuous
 62
     7
370
    15
100
AcDbLine
 10
148.7054090931
 20
161.258202602
 30
0.0
 11
148.7054090931
 21
169.466730763
 31
0.0
  0
LINE
  5
178
330
1F
100
AcDbEntity
  8
0
  6
Continuous
 62
     7
370
    15
100
AcDbLine
 10
133.2054088517
 20
169.466730763
 30
0.0
 11
133.2054088517
 21
161.258202602
 31
0.0
  0
LINE
  5
179
330
1F
100
AcDbEntity
  8
0
  6
Continuous
 62
     7
370
    15
100
AcDbLine
 10
148.7054090931
 20
169.466730763
 30
0.0
 11
133.2054088517
 21
169.466730763
 31
0.0
  0
LINE
  5
17A
330
1F
100
AcDbEntity
  8
0
  6
Continuous
 62
     7
370
    15
100
AcDbLine
 10
132.9554088398
 20
169.0181573823
 30
0.0
 11
133.2054088517
 21
169.466730763
 31
0.0
  0
LINE
  5
17B
330
1F
100
AcDbEntity
  8
0
  6
Continuous
 62
     7
370
    15
100
AcDbLine
 10
132.9554088398
 20
160.8431922242
 30
0.0
 11
132.9554088398
 21
169.0181573823
 31
0.0
  0
LINE
  5
17C
330
1F
100
AcDbEntity
  8
0
  6
Continuous
 62
     7
370
    15
100
AcDbLine
 10
148.7054090931
 20
169.466730763
 30
0.0
 11
148.9554095997
 21
169.0181573823
 31
0.0
  0
LINE
  5
17D
330
1F
100
AcDbEntity
  8
0
  6
Continuous
 62
     7
370
    15
100
AcDbLine
 10
148.9554095997
 20
169.0181573823
 30
0.0
 11
148.9554095997
 21
160.8431922242
 31
0.0
  0
LINE
  5
17E
330
1F
100
AcDbEntity
  8
0
  6
Continuous
 62
     7
370
    15
100
AcDbLine
 10
132.9554088398
 20
111.4450121269
 30
0.0
 11
133.2054088517
 21
111.3950448081
 31
0.0
  0
LINE
  5
17F
330
1F
100
AcDbEntity
  8
0
  6
Continuous
 62
     7
370
    15
100
AcDbLine
 10
133.2054088517
 20
111.3950448081
 30
0.0
 11
133.2054088517
 21
106.6697487578
 31
0.0
  0
LINE
  5
180
330
1F
100
AcDbEntity
  8
0
  6
Continuous
 62
     7
370
    15
100
AcDbLine
 10
132.9554088398
 20
106.8925024912
 30
0.0
 11
133.2054088517
 21
106.6697487578
 31
0.0
  0
LINE
  5
181
330
1F
100
AcDbEntity
  8
0
  6
Continuous
 62
     7
370
    15
100
AcDbLine
 10
132.9554088398
 20
106.8925024912
 30
0.0
 11
132.9554088398
 21
111.4450121269
 31
0.0
  0
LINE
  5
182
330
1F
100
AcDbEntity
  8
0
  6
Continuous
 62
     7
370
    15
100
AcDbLine
 10
148.7054090931
 20
111.3950448081
 30
0.0
 11
148.7054090931
 21
113.1266193435
 31
0.0
  0
LINE
  5
183
330
1F
100
AcDbEntity
  8
0
  6
Continuous
 62
     7
370
    15
100
AcDbLine
 10
148.7054090931
 20
111.3950448081
 30
0.0
 11
133.2054088517
 21
111.3950448081
 31
0.0
  0
LINE
  5
184
330
1F
100
AcDbEntity
  8
0
  6
Continuous
 62
     7
370
    15
100
AcDbLine
 10
133.2054088517
 20
113.1266193435
 30
0.0
 11
133.2054088517
 21
111.3950448081
 31
0.0
  0
LINE
  5
185
330
1F
100
AcDbEntity
  8
0
  6
Continuous
 62
     7
370
    15
100
AcDbLine
 10
148.7054090931
 20
113.1266193435
 30
0.0
 11
133.2054088517
 21
113.1266193435
 31
0.0
  0
LINE
  5
186
330
1F
100
AcDbEntity
  8
0
  6
Continuous
 62
     7
370
    15
100
AcDbLine
 10
148.7054090931
 20
106.6697487578
 30
0.0
 11
148.7054090931
 21
111.3950448081
 31
0.0
  0
LINE
  5
187
330
1F
100
AcDbEntity
  8
0
  6
Continuous
 62
     7
370
    15
100
AcDbLine
 10
133.2054088517
 20
106.6697487578
 30
0.0
 11
148.7054090931
 21
106.6697487578
 31
0.0
  0
LINE
  5
188
330
1F
100
AcDbEntity
  8
0
  6
Continuous
 62
     7
370
    15
100
AcDbLine
 10
132.9554088398
 20
112.9339901701
 30
0.0
 11
133.2054088517
 21
113.1266193435
 31
0.0
  0
LINE
  5
189
330
1F
100
AcDbEntity
  8
0
  6
Continuous
 62
     7
370
    15
100
AcDbLine
 10
132.9554088398
 20
111.4450121269
 30
0.0
 11
132.9554088398
 21
112.9339901701
 31
0.0
  0
LINE
  5
18A
330
1F
100
AcDbEntity
  8
0
  6
Continuous
 62
     7
370
    15
100
AcDbLine
 10
148.7054090931
 20
113.1266193435
 30
0.0
 11
148.9554095997
 21
112.9339901701
 31
0.0
  0
LINE
  5
18B
330
1F
100
AcDbEntity
  8
0
  6
Continuous
 62
     7
370
    15
100
AcDbLine
 10
148.7054090931
 20
111.3950448081
 30
0.0
 11
148.9554095997
 21
111.4450121269
 31
0.0
  0
LINE
  5
18C
330
1F
100
AcDbEntity
  8
0
  6
Continuous
 62
     7
370
    15
100
AcDbLine
 10
148.9554095997
 20
112.9339901701
 30
0.0
 11
148.9554095997
 21
111.4450121269
 31
0.0
  0
LINE
  5
18D
330
1F
100
AcDbEntity
  8
0
  6
Continuous
 62
     7
370
    15
100
AcDbLine
 10
148.7054090931
 20
106.6697487578
 30
0.0
 11
148.9554095997
 21
106.8925024912
 31
0.0
  0
LINE
  5
18E
330
1F
100
AcDbEntity
  8
0
  6
Continuous
 62
     7
370
    15
100
AcDbLine
 10
148.9554095997
 20
111.4450121269
 30
0.0
 11
148.9554095997
 21
106.8925024912
 31
0.0
  0
LINE
  5
18F
330
1F
100
AcDbEntity
  8
0
  6
Continuous
 62
     7
370
    15
100
AcDbLine
 10
133.2054088517
 20
113.5067759052
 30
0.0
 11
133.2054088517
 21
113.1266193435
 31
0.0
  0
LINE
  5
190
330
1F
100
AcDbEntity
  8
0
  6
Continuous
 62
     7
370
    15
100
AcDbLine
 10
132.9554088398
 20
112.9339901701
 30
0.0
 11
132.9554088398
 21
113.6943032935
 31
0.0
  0
LINE
  5
191
330
1F
100
AcDbEntity
  8
0
  6
Continuous
 62
     7
370
    15
100
AcDbLine
 10
148.7054090931
 20
113.1266193435
 30
0.0
 11
148.7054090931
 21
113.5067759052
 31
0.0
  0
LINE
  5
192
330
1F
100
AcDbEntity
  8
0
  6
Continuous
 62
     7
370
    15
100
AcDbLine
 10
148.9554095997
 20
113.6943032935
 30
0.0
 11
148.9554095997
 21
112.9339901701
 31
0.0
  0
LINE
  5
193
330
1F
100
AcDbEntity
  8
0
  6
Continuous
 62
     7
370
    15
100
AcDbLine
 10
151.9554082288
 20
111.2855641141
 30
0.0
 11
151.9554082288
 21
165.6855648354
 31
0.0
  0
LINE
  5
194
330
1F
100
AcDbEntity
  8
0
  6
Continuous
 62
     7
370
    15
100
AcDbLine
 10
132.9554088398
 20
175.2746464655
 30
0.0
 11
133.2054088517
 21
175.7285991654
 31
0.0
  0
LINE
  5
195
330
1F
100
AcDbEntity
  8
0
  6
Continuous
 62
     7
370
    15
100
AcDbLine
 10
133.2054088517
 20
175.7285991654
 30
0.0
 11
133.2054088517
 21
169.466730763
 31
0.0
  0
LINE
  5
196
330
1F
100
AcDbEntity
  8
0
  6
Continuous
 62
     7
370
    15
100
AcDbLine
 10
132.9554088398
 20
169.0181573823
 30
0.0
 11
132.9554088398
 21
175.2746464655
 31
0.0
  0
LINE
  5
197
330
1F
100
AcDbEntity
  8
0
  6
Continuous
 62
     7
370
    15
100
AcDbLine
 10
148.7054090931
 20
169.466730763
 30
0.0
 11
148.7054090931
 21
175.7285991654
 31
0.0
  0
LINE
  5
198
330
1F
100
AcDbEntity
  8
0
  6
Continuous
 62
     7
370
    15
100
AcDbLine
 10
148.7054090931
 20
175.7285991654
 30
0.0
 11
133.2054088517
 21
175.7285991654
 31
0.0
  0
LINE
  5
199
330
1F
100
AcDbEntity
  8
0
  6
Continuous
 62
     7
370
    15
100
AcDbLine
 10
148.7054090931
 20
175.7285991654
 30
0.0
 11
148.9554095997
 21
175.2746464655
 31
0.0
  0
LINE
  5
19A
330
1F
100
AcDbEntity
  8
0
  6
Continuous
 62
     7
370
    15
100
AcDbLine
 10
148.9554095997
 20
175.2746464655
 30
0.0
 11
148.9554095997
 21
169.0181573823
 31
0.0
  0
LINE
  5
19B
330
1F
100
AcDbEntity
  8
0
  6
Continuous
 62
     7
370
    15
100
AcDbLine
 10
132.9554088398
 20
104.2632969066
 30
0.0
 11
133.2054088517
 21
104.102342014
 31
0.0
  0
LINE
  5
19C
330
1F
100
AcDbEntity
  8
0
  6
Continuous
 62
     7
370
    15
100
AcDbLine
 10
133.2054088517
 20
104.102342014
 30
0.0
 11
133.2054088517
 21
101.8318297312
 31
0.0
  0
LINE
  5
19D
330
1F
100
AcDbEntity
  8
0
  6
Continuous
 62
     7
370
    15
100
AcDbLine
 10
132.9554088398
 20
102.0758101687
 30
0.0
 11
133.2054088517
 21
101.8318297312
 31
0.0
  0
LINE
  5
19E
330
1F
100
AcDbEntity
  8
0
  6
Continuous
 62
     7
370
    15
100
AcDbLine
 10
132.9554088398
 20
102.0758101687
 30
0.0
 11
132.9554088398
 21
104.2632969066
 31
0.0
  0
LINE
  5
19F
330
1F
100
AcDbEntity
  8
0
  6
Continuous
 62
     7
370
    15
100
AcDbLine
 10
132.9554088398
 20
106.1531068727
 30
0.0
 11
133.2054088517
 21
106.3000509486
 31
0.0
  0
LINE
  5
1A0
330
1F
100
AcDbEntity
  8
0
  6
Continuous
 62
     7
370
    15
100
AcDbLine
 10
133.2054088517
 20
106.3000509486
 30
0.0
 11
133.2054088517
 21
104.102342014
 31
0.0
  0
LINE
  5
1A1
330
1F
100
AcDbEntity
  8
0
  6
Continuous
 62
     7
370
    15
100
AcDbLine
 10
132.9554088398
 20
104.2632969066
 30
0.0
 11
132.9554088398
 21
106.1531068727
 31
0.0
  0
LINE
  5
1A2
330
1F
100
AcDbEntity
  8
0
  6
Continuous
 62
     7
370
    15
100
AcDbLine
 10
148.7054090931
 20
104.102342014
 30
0.0
 11
148.7054090931
 21
106.3000509486
 31
0.0
  0
LINE
  5
1A3
330
1F
100
AcDbEntity
  8
0
  6
Continuous
 62
     7
370
    15
100
AcDbLine
 10
148.7054090931
 20
104.102342014
 30
0.0
 11
133.2054088517
 21
104.102342014
 31
0.0
  0
LINE
  5
1A4
330
1F
100
AcDbEntity
  8
0
  6
Continuous
 62
     7
370
    15
100
AcDbLine
 10
148.7054090931
 20
106.3000509486
 30
0.0
 11
133.2054088517
 21
106.3000509486
 31
0.0
  0
LINE
  5
1A5
330
1F
100
AcDbEntity
  8
0
  6
Continuous
 62
     7
370
    15
100
AcDbLine
 10
148.7054090931
 20
101.8318297312
 30
0.0
 11
148.7054090931
 21
104.102342014
 31
0.0
  0
LINE
  5
1A6
330
1F
100
AcDbEntity
  8
0
  6
Continuous
 62
     7
370
    15
100
AcDbLine
 10
133.2054088517
 20
101.8318297312
 30
0.0
 11
148.7054090931
 21
101.8318297312
 31
0.0
  0
LINE
  5
1A7
330
1F
100
AcDbEntity
  8
0
  6
Continuous
 62
     7
370
    15
100
AcDbLine
 10
148.7054090931
 20
106.3000509486
 30
0.0
 11
148.9554095997
 21
106.1531068727
 31
0.0
  0
LINE
  5
1A8
330
1F
100
AcDbEntity
  8
0
  6
Continuous
 62
     7
370
    15
100
AcDbLine
 10
148.7054090931
 20
104.102342014
 30
0.0
 11
148.9554095997
 21
104.2632969066
 31
0.0
  0
LINE
  5
1A9
330
1F
100
AcDbEntity
  8
0
  6
Continuous
 62
     7
370
    15
100
AcDbLine
 10
148.9554095997
 20
106.1531068727
 30
0.0
 11
148.9554095997
 21
104.2632969066
 31
0.0
  0
LINE
  5
1AA
330
1F
100
AcDbEntity
  8
0
  6
Continuous
 62
     7
370
    15
100
AcDbLine
 10
148.7054090931
 20
101.8318297312
 30
0.0
 11
148.9554095997
 21
102.0758101687
 31
0.0
  0
LINE
  5
1AB
330
1F
100
AcDbEntity
  8
0
  6
Continuous
 62
     7
370
    15
100
AcDbLine
 10
148.9554095997
 20
104.2632969066
 30
0.0
 11
148.9554095997
 21
102.0758101687
 31
0.0
  0
LINE
  5
1AC
330
1F
100
AcDbEntity
  8
0
  6
Continuous
 62
     7
370
    15
100
AcDbLine
 10
133.2054088517
 20
106.6697487578
 30
0.0
 11
133.2054088517
 21
106.3000509486
 31
0.0
  0
LINE
  5
1AD
330
1F
100
AcDbEntity
  8
0
  6
Continuous
 62
     7
370
    15
100
AcDbLine
 10
132.9554088398
 20
106.1531068727
 30
0.0
 11
132.9554088398
 21
106.8925024912
 31
0.0
  0
LINE
  5
1AE
330
1F
100
AcDbEntity
  8
0
  6
Continuous
 62
     7
370
    15
100
AcDbLine
 10
148.7054090931
 20
106.3000509486
 30
0.0
 11
148.7054090931
 21
106.6697487578
 31
0.0
  0
LINE
  5
1AF
330
1F
100
AcDbEntity
  8
0
  6
Continuous
 62
     7
370
    15
100
AcDbLine
 10
148.9554095997
 20
106.8925024912
 30
0.0
 11
148.9554095997
 21
106.1531068727
 31
0.0
  0
LINE
  5
1B0
330
1F
100
AcDbEntity
  8
0
  6
Continuous
 62
     7
370
    15
100
AcDbLine
 10
132.9554088398
 20
179.2195463523
 30
0.0
 11
133.2054088517
 21
179.6503500983
 31
0.0
  0
LINE
  5
1B1
330
1F
100
AcDbEntity
  8
0
  6
Continuous
 62
     7
370
    15
100
AcDbLine
 10
133.2054088517
 20
179.6503500983
 30
0.0
 11
133.2054088517
 21
175.7285991654
 31
0.0
  0
LINE
  5
1B2
330
1F
100
AcDbEntity
  8
0
  6
Continuous
 62
     7
370
    15
100
AcDbLine
 10
132.9554088398
 20
175.2746464655
 30
0.0
 11
132.9554088398
 21
179.2195463523
 31
0.0
  0
LINE
  5
1B3
330
1F
100
AcDbEntity
  8
0
  6
Continuous
 62
     7
370
    15
100
AcDbLine
 10
148.7054090931
 20
175.7285991654
 30
0.0
 11
148.7054090931
 21
179.6503500983
 31
0.0
  0
LINE
  5
1B4
330
1F
100
AcDbEntity
  8
0
  6
Continuous
 62
     7
370
    15
100
AcDbLine
 10
148.7054090931
 20
179.6503500983
 30
0.0
 11
133.2054088517
 21
179.6503500983
 31
0.0
  0
LINE
  5
1B5
330
1F
100
AcDbEntity
  8
0
  6
Continuous
 62
     7
370
    15
100
AcDbLine
 10
148.7054090931
 20
179.6503500983
 30
0.0
 11
148.9554095997
 21
179.2195463523
 31
0.0
  0
LINE
  5
1B6
330
1F
100
AcDbEntity
  8
0
  6
Continuous
 62
     7
370
    15
100
AcDbLine
 10
148.9554095997
 20
179.2195463523
 30
0.0
 11
148.9554095997
 21
175.2746464655
 31
0.0
  0
LINE
  5
1B7
330
1F
100
AcDbEntity
  8
0
  6
Continuous
 62
     7
370
    15
100
AcDbLine
 10
148.7054090931
 20
98.9700654492
 30
0.0
 11
148.7054090931
 21
101.4958197221
 31
0.0
  0
LINE
  5
1B8
330
1F
100
AcDbEntity
  8
0
  6
Continuous
 62
     7
370
    15
100
AcDbLine
 10
148.7054090931
 20
98.9700654492
 30
0.0
 11
133.2054088517
 21
98.9700654492
 31
0.0
  0
LINE
  5
1B9
330
1F
100
AcDbEntity
  8
0
  6
Continuous
 62
     7
370
    15
100
AcDbLine
 10
133.2054088517
 20
101.4958197221
 30
0.0
 11
133.2054088517
 21
98.9700654492
 31
0.0
  0
LINE
  5
1BA
330
1F
100
AcDbEntity
  8
0
  6
Continuous
 62
     7
370
    15
100
AcDbLine
 10
148.7054090931
 20
101.4958197221
 30
0.0
 11
133.2054088517
 21
101.4958197221
 31
0.0
  0
LINE
  5
1BB
330
1F
100
AcDbEntity
  8
0
  6
Continuous
 62
     7
370
    15
100
AcDbLine
 10
132.9554088398
 20
101.4037901506
 30
0.0
 11
133.2054088517
 21
101.4958197221
 31
0.0
  0
LINE
  5
1BC
330
1F
100
AcDbEntity
  8
0
  6
Continuous
 62
     7
370
    15
100
AcDbLine
 10
132.9554088398
 20
99.2318937525
 30
0.0
 11
133.2054088517
 21
98.9700654492
 31
0.0
  0
LINE
  5
1BD
330
1F
100
AcDbEntity
  8
0
  6
Continuous
 62
     7
370
    15
100
AcDbLine
 10
132.9554088398
 20
99.2318937525
 30
0.0
 11
132.9554088398
 21
101.4037901506
 31
0.0
  0
LINE
  5
1BE
330
1F
100
AcDbEntity
  8
0
  6
Continuous
 62
     7
370
    15
100
AcDbLine
 10
148.7054090931
 20
101.4958197221
 30
0.0
 11
148.9554095997
 21
101.4037901506
 31
0.0
  0
LINE
  5
1BF
330
1F
100
AcDbEntity
  8
0
  6
Continuous
 62
     7
370
    15
100
AcDbLine
 10
148.7054090931
 20
98.9700654492
 30
0.0
 11
148.9554095997
 21
99.2318937525
 31
0.0
  0
LINE
  5
1C0
330
1F
100
AcDbEntity
  8
0
  6
Continuous
 62
     7
370
    15
100
AcDbLine
 10
148.9554095997
 20
101.4037901506
 30
0.0
 11
148.9554095997
 21
99.2318937525
 31
0.0
  0
LINE
  5
1C1
330
1F
100
AcDbEntity
  8
0
  6
Continuous
 62
     7
370
    15
100
AcDbLine
 10
133.2054088517
 20
101.8318297312
 30
0.0
 11
133.2054088517
 21
101.4958197221
 31
0.0
  0
LINE
  5
1C2
330
1F
100
AcDbEntity
  8
0
  6
Continuous
 62
     7
370
    15
100
AcDbLine
 10
132.9554088398
 20
101.4037901506
 30
0.0
 11
132.9554088398
 21
102.0758101687
 31
0.0
  0
LINE
  5
1C3
330
1F
100
AcDbEntity
  8
0
  6
Continuous
 62
     7
370
    15
100
AcDbLine
 10
148.7054090931
 20
101.4958197221
 30
0.0
 11
148.7054090931
 21
101.8318297312
 31
0.0
  0
LINE
  5
1C4
330
1F
100
AcDbEntity
  8
0
  6
Continuous
 62
     7
370
    15
100
AcDbLine
 10
148.9554095997
 20
102.0758101687
 30
0.0
 11
148.9554095997
 21
101.4037901506
 31
0.0
  0
LINE
  5
1C5
330
1F
100
AcDbEntity
  8
0
  6
Continuous
 62
     7
370
    15
100
AcDbLine
 10
132.9554088398
 20
180.6049743637
 30
0.0
 11
133.2054088517
 21
180.9855649218
 31
0.0
  0
LINE
  5
1C6
330
1F
100
AcDbEntity
  8
0
  6
Continuous
 62
     7
370
    15
100
AcDbLine
 10
133.2054088517
 20
180.9855649218
 30
0.0
 11
133.2054088517
 21
179.6503500983
 31
0.0
  0
LINE
  5
1C7
330
1F
100
AcDbEntity
  8
0
  6
Continuous
 62
     7
370
    15
100
AcDbLine
 10
132.9554088398
 20
179.2195463523
 30
0.0
 11
132.9554088398
 21
180.6049743637
 31
0.0
  0
LINE
  5
1C8
330
1F
100
AcDbEntity
  8
0
  6
Continuous
 62
     7
370
    15
100
AcDbLine
 10
148.7054090931
 20
179.6503500983
 30
0.0
 11
148.7054090931
 21
180.9855649218
 31
0.0
  0
LINE
  5
1C9
330
1F
100
AcDbEntity
  8
0
  6
Continuous
 62
     7
370
    15
100
AcDbLine
 10
148.7054090931
 20
180.9855649218
 30
0.0
 11
133.2054088517
 21
180.9855649218
 31
0.0
  0
LINE
  5
1CA
330
1F
100
AcDbEntity
  8
0
  6
Continuous
 62
     7
370
    15
100
AcDbLine
 10
148.7054090931
 20
180.9855649218
 30
0.0
 11
148.9554095997
 21
180.6049743637
 31
0.0
  0
LINE
  5
1CB
330
1F
100
AcDbEntity
  8
0
  6
Continuous
 62
     7
370
    15
100
AcDbLine
 10
148.9554095997
 20
180.6049743637
 30
0.0
 11
148.9554095997
 21
179.2195463523
 31
0.0
  0
LINE
  5
1CC
330
1F
100
AcDbEntity
  8
0
  6
Continuous
 62
     7
370
    15
100
AcDbLine
 10
133.2054088517
 20
98.9700654492
 30
0.0
 11
133.2054088517
 21
96.320691143
 31
0.0
  0
LINE
  5
1CD
330
1F
100
AcDbEntity
  8
0
  6
Continuous
 62
     7
370
    15
100
AcDbLine
 10
133.2054088517
 20
96.320691143
 30
0.0
 11
132.9554088398
 21
96.6669457003
 31
0.0
  0
LINE
  5
1CE
330
1F
100
AcDbEntity
  8
0
  6
Continuous
 62
     7
370
    15
100
AcDbLine
 10
132.9554088398
 20
96.6669457003
 30
0.0
 11
132.9554088398
 21
98.9844562456
 31
0.0
  0
LINE
  5
1CF
330
1F
100
AcDbEntity
  8
0
  6
Continuous
 62
     7
370
    15
100
AcDbLine
 10
148.7054090931
 20
96.320691143
 30
0.0
 11
148.7054090931
 21
98.9700654492
 31
0.0
  0
LINE
  5
1D0
330
1F
100
AcDbEntity
  8
0
  6
Continuous
 62
     7
370
    15
100
AcDbLine
 10
148.7054090931
 20
96.320691143
 30
0.0
 11
133.2054088517
 21
96.320691143
 31
0.0
  0
LINE
  5
1D1
330
1F
100
AcDbEntity
  8
0
  6
Continuous
 62
     7
370
    15
100
AcDbLine
 10
148.9554095997
 20
96.6669457003
 30
0.0
 11
148.7054090931
 21
96.320691143
 31
0.0
  0
LINE
  5
1D2
330
1F
100
AcDbEntity
  8
0
  6
Continuous
 62
     7
370
    15
100
AcDbLine
 10
148.9554095997
 20
98.9844562456
 30
0.0
 11
148.9554095997
 21
96.6669457003
 31
0.0
  0
LINE
  5
1D3
330
1F
100
AcDbEntity
  8
0
  6
Continuous
 62
     7
370
    15
100
AcDbLine
 10
132.9554088398
 20
98.9844562456
 30
0.0
 11
132.9554088398
 21
99.2318937525
 31
0.0
  0
LINE
  5
1D4
330
1F
100
AcDbEntity
  8
0
  6
Continuous
 62
     7
370
    15
100
AcDbLine
 10
148.9554095997
 20
99.2318937525
 30
0.0
 11
148.9554095997
 21
98.9844562456
 31
0.0
  0
LINE
  5
1D5
330
1F
100
AcDbEntity
  8
0
  6
Continuous
 62
     8
370
    15
100
AcDbLine
 10
150.4554089143
 20
108.7855646357
 30
0.0
 11
150.4554089143
 21
168.1855643138
 31
0.0
  0
LINE
  5
1D6
330
1F
100
AcDbEntity
  8
0
  6
Continuous
 62
     8
370
    15
100
AcDbLine
 10
132.9554088398
 20
98.9844562456
 30
0.0
 11
133.1664167329
 21
99.0109020814
 31
0.0
  0
LINE
  5
1D7
330
1F
100
AcDbEntity
  8
0
  6
Continuous
 62
     8
370
    15
100
AcDbLine
 10
148.9554095997
 20
98.9844562456
 30
0.0
 11
148.7444017067
 21
99.0109020814
 31
0.0
  0
ENDSEC
  0
SECTION
  2
OBJECTS
  0
DICTIONARY
  5
C
330
0
100
AcDbDictionary
281
     1
  3
ACAD_GROUP
350
D
  3
ACAD_LAYOUT
350
1A
  3
ACAD_MLINESTYLE
350
17
  3
ACAD_PLOTSETTINGS
350
19
  3
ACAD_PLOTSTYLENAME
350
E
  0
DICTIONARY
  5
D
102
{ACAD_REACTORS
330
C
102
}
330
C
100
AcDbDictionary
281
     1
  0
DICTIONARY
  5
1A
102
{ACAD_REACTORS
330
C
102
}
330
C
100
AcDbDictionary
281
     1
  3
Layout1
350
1E
  3
Layout2
350
26
  3
Model
350
22
  0
DICTIONARY
  5
17
102
{ACAD_REACTORS
330
C
102
}
330
C
100
AcDbDictionary
281
     1
  3
Standard
350
18
  0
DICTIONARY
  5
19
102
{ACAD_REACTORS
330
C
102
}
330
C
100
AcDbDictionary
281
     1
  0
ACDBDICTIONARYWDFLT
  5
E
102
{ACAD_REACTORS
330
C
102
}
330
C
100
AcDbDictionary
281
     1
  3
Normal
350
F
100
AcDbDictionaryWithDefault
340
F
  0
LAYOUT
  5
1E
102
{ACAD_REACTORS
330
1A
102
}
330
1A
100
AcDbPlotSettings
  1

  2
none_device
  4

  6

 40
0.0
 41
0.0
 42
0.0
 43
0.0
 44
0.0
 45
0.0
 46
0.0
 47
0.0
 48
0.0
 49
0.0
140
0.0
141
0.0
142
1.0
143
1.0
 70
   688
 72
     0
 73
     0
 74
     5
  7

 75
    16
147
1.0
148
0.0
149
0.0
100
AcDbLayout
  1
Layout1
 70
     1
 71
     1
 10
0.0
 20
0.0
 11
420.0
 21
297.0
 12
0.0
 22
0.0
 32
0.0
 14
1.0000000000E+20
 24
1.0000000000E+20
 34
1.0000000000E+20
 15
-1.0000000000E+20
 25
-1.0000000000E+20
 35
-1.0000000000E+20
146
0.0
 13
0.0
 23
0.0
 33
0.0
 16
1.0
 26
0.0
 36
0.0
 17
0.0
 27
1.0
 37
0.0
 76
     0
330
1B
  0
LAYOUT
  5
26
102
{ACAD_REACTORS
330
1A
102
}
330
1A
100
AcDbPlotSettings
  1

  2
none_device
  4

  6

 40
0.0
 41
0.0
 42
0.0
 43
0.0
 44
0.0
 45
0.0
 46
0.0
 47
0.0
 48
0.0
 49
0.0
140
0.0
141
0.0
142
1.0
143
1.0
 70
   688
 72
     0
 73
     0
 74
     5
  7

 75
    16
147
1.0
148
0.0
149
0.0
100
AcDbLayout
  1
Layout2
 70
     1
 71
     2
 10
0.0
 20
0.0
 11
0.0
 21
0.0
 12
0.0
 22
0.0
 32
0.0
 14
0.0
 24
0.0
 34
0.0
 15
0.0
 25
0.0
 35
0.0
146
0.0
 13
0.0
 23
0.0
 33
0.0
 16
1.0
 26
0.0
 36
0.0
 17
0.0
 27
1.0
 37
0.0
 76
     0
330
23
  0
LAYOUT
  5
22
102
{ACAD_REACTORS
330
1A
102
}
330
1A
100
AcDbPlotSettings
  1

  2
none_device
  4

  6

 40
0.0
 41
0.0
 42
0.0
 43
0.0
 44
0.0
 45
0.0
 46
0.0
 47
0.0
 48
0.0
 49
0.0
140
0.0
141
0.0
142
1.0
143
1.0
 70
  1712
 72
     0
 73
     0
 74
     0
  7

 75
     0
147
1.0
148
0.0
149
0.0
100
AcDbLayout
  1
Model
 70
     1
 71
     0
 10
0.0
 20
0.0
 11
279.4
 21
215.9
 12
0.0
 22
0.0
 32
0.0
 14
0.0
 24
0.0
 34
0.0
 15
279.4
 25
215.9
 35
0.0
146
0.0
 13
0.0
 23
0.0
 33
0.0
 16
1.0
 26
0.0
 36
0.0
 17
0.0
 27
1.0
 37
0.0
 76
     0
330
1F
331
29
  0
MLINESTYLE
  5
18
102
{ACAD_REACTORS
330
17
102
}
330
17
100
AcDbMlineStyle
  2
Standard
 70
     0
  3

 62
   256
 51
90.0
 52
90.0
 71
     2
 49
0.5
 62
   256
  6
BYLAYER
 49
-0.5
 62
   256
  6
BYLAYER
  0
ACDBPLACEHOLDER
  5
F
102
{ACAD_REACTORS
330
E
102
}
330
E
  0
ENDSEC
  0
EOF
