  0
SECTION
  2
HEADER
  9
$ACADVER
  1
AC1015
  9
$ACADMAINTVER
 70
     6
  9
$DWGCODEPAGE
  3
ANSI_1251
  9
$INSBASE
 10
0.0
 20
0.0
 30
0.0
  9
$EXTMIN
 10
0.0
 20
0.0
 30
0.0
  9
$EXTMAX
 10
279.4
 20
215.9
 30
0.0
  9
$LIMMIN
 10
0.0
 20
0.0
  9
$LIMMAX
 10
279.4
 20
215.9
  9
$ORTHOMODE
 70
     0
  9
$REGENMODE
 70
     1
  9
$FILLMODE
 70
     1
  9
$QTEXTMODE
 70
     0
  9
$MIRRTEXT
 70
     1
  9
$LTSCALE
 40
1.0
  9
$ATTMODE
 70
     1
  9
$TEXTSIZE
 40
3.5
  9
$TRACEWID
 40
1.0
  9
$TEXTSTYLE
  7
Standard
  9
$CLAYER
  8
0
  9
$CELTYPE
  6
ByLayer
  9
$CECOLOR
 62
   256
  9
$CELTSCALE
 40
1.0
  9
$DISPSILH
 70
     0
  9
$DIMSCALE
 40
1.0
  9
$DIMASZ
 40
3.5
  9
$DIMEXO
 40
0.01
  9
$DIMDLI
 40
3.75
  9
$DIMRND
 40
0.0
  9
$DIMDLE
 40
0.0
  9
$DIMEXE
 40
1.0
  9
$DIMTP
 40
0.0
  9
$DIMTM
 40
0.0
  9
$DIMTXT
 40
3.5
  9
$DIMCEN
 40
2.5
  9
$DIMTSZ
 40
0.0
  9
$DIMTOL
 70
     0
  9
$DIMLIM
 70
     0
  9
$DIMTIH
 70
     1
  9
$DIMTOH
 70
     1
  9
$DIMSE1
 70
     0
  9
$DIMSE2
 70
     0
  9
$DIMTAD
 70
     1
  9
$DIMZIN
 70
     0
  9
$DIMBLK
  1

  9
$DIMASO
 70
     1
  9
$DIMSHO
 70
     1
  9
$DIMPOST
  1

  9
$DIMAPOST
  1

  9
$DIMALT
 70
     0
  9
$DIMALTD
 70
     3
  9
$DIMALTF
 40
0.0393700787
  9
$DIMLFAC
 40
1.0
  9
$DIMTOFL
 70
     1
  9
$DIMTVP
 40
0.0
  9
$DIMTIX
 70
     0
  9
$DIMSOXD
 70
     0
  9
$DIMSAH
 70
     0
  9
$DIMBLK1
  1

  9
$DIMBLK2
  1

  9
$DIMSTYLE
  2
ISO-25
  9
$DIMCLRD
 70
     0
  9
$DIMCLRE
 70
     0
  9
$DIMCLRT
 70
     0
  9
$DIMTFAC
 40
1.0
  9
$DIMGAP
 40
3.0
  9
$DIMJUST
 70
     0
  9
$DIMSD1
 70
     0
  9
$DIMSD2
 70
     0
  9
$DIMTOLJ
 70
     0
  9
$DIMTZIN
 70
     0
  9
$DIMALTZ
 70
     0
  9
$DIMALTTZ
 70
     0
  9
$DIMUPT
 70
     0
  9
$DIMDEC
 70
     2
  9
$DIMTDEC
 70
     3
  9
$DIMALTU
 70
     2
  9
$DIMALTTD
 70
     3
  9
$DIMTXSTY
  7
Standard
  9
$DIMAUNIT
 70
     0
  9
$DIMADEC
 70
     2
  9
$DIMALTRND
 40
0.0
  9
$DIMAZIN
 70
     0
  9
$DIMDSEP
 70
    44
  9
$DIMATFIT
 70
     3
  9
$DIMFRAC
 70
     0
  9
$DIMLDRBLK
  1

  9
$DIMLUNIT
 70
     2
  9
$DIMLWD
 70
    -2
  9
$DIMLWE
 70
    -2
  9
$DIMTMOVE
 70
     0
  9
$LUNITS
 70
     2
  9
$LUPREC
 70
     2
  9
$SKETCHINC
 40
1.0
  9
$FILLETRAD
 40
10.0
  9
$AUNITS
 70
     0
  9
$AUPREC
 70
     2
  9
$MENU
  1
.
  9
$ELEVATION
 40
0.0
  9
$PELEVATION
 40
0.0
  9
$THICKNESS
 40
0.0
  9
$LIMCHECK
 70
     0
  9
$CHAMFERA
 40
10.0
  9
$CHAMFERB
 40
10.0
  9
$CHAMFERC
 40
20.0
  9
$CHAMFERD
 40
0.0
  9
$SKPOLY
 70
     0
  9
$TDCREATE
 40
2457408.662811956
  9
$TDUCREATE
 40
2457408.579478623
  9
$TDUPDATE
 40
2457408.662816111
  9
$TDUUPDATE
 40
2457408.579482778
  9
$TDINDWG
 40
0.0000000116
  9
$TDUSRTIMER
 40
0.0000000116
  9
$USRTIMER
 70
     1
  9
$ANGBASE
 50
0.0
  9
$ANGDIR
 70
     0
  9
$PDMODE
 70
     0
  9
$PDSIZE
 40
-1.0
  9
$PLINEWID
 40
0.0
  9
$SPLFRAME
 70
     0
  9
$SPLINETYPE
 70
     6
  9
$SPLINESEGS
 70
     8
  9
$HANDSEED
  5
28E
  9
$SURFTAB1
 70
     6
  9
$SURFTAB2
 70
     6
  9
$SURFTYPE
 70
     6
  9
$SURFU
 70
     6
  9
$SURFV
 70
     6
  9
$UCSBASE
  2

  9
$UCSNAME
  2

  9
$UCSORG
 10
0.0
 20
0.0
 30
0.0
  9
$UCSXDIR
 10
1.0
 20
0.0
 30
0.0
  9
$UCSYDIR
 10
0.0
 20
1.0
 30
0.0
  9
$UCSORTHOREF
  2

  9
$UCSORTHOVIEW
 70
     0
  9
$UCSORGTOP
 10
0.0
 20
0.0
 30
0.0
  9
$UCSORGBOTTOM
 10
0.0
 20
0.0
 30
0.0
  9
$UCSORGLEFT
 10
0.0
 20
0.0
 30
0.0
  9
$UCSORGRIGHT
 10
0.0
 20
0.0
 30
0.0
  9
$UCSORGFRONT
 10
0.0
 20
0.0
 30
0.0
  9
$UCSORGBACK
 10
0.0
 20
0.0
 30
0.0
  9
$PUCSBASE
  2

  9
$PUCSNAME
  2

  9
$PUCSORG
 10
0.0
 20
0.0
 30
0.0
  9
$PUCSXDIR
 10
1.0
 20
0.0
 30
0.0
  9
$PUCSYDIR
 10
0.0
 20
1.0
 30
0.0
  9
$PUCSORTHOREF
  2

  9
$PUCSORTHOVIEW
 70
     0
  9
$PUCSORGTOP
 10
0.0
 20
0.0
 30
0.0
  9
$PUCSORGBOTTOM
 10
0.0
 20
0.0
 30
0.0
  9
$PUCSORGLEFT
 10
0.0
 20
0.0
 30
0.0
  9
$PUCSORGRIGHT
 10
0.0
 20
0.0
 30
0.0
  9
$PUCSORGFRONT
 10
0.0
 20
0.0
 30
0.0
  9
$PUCSORGBACK
 10
0.0
 20
0.0
 30
0.0
  9
$USERI1
 70
     0
  9
$USERI2
 70
     0
  9
$USERI3
 70
     0
  9
$USERI4
 70
     0
  9
$USERI5
 70
     0
  9
$USERR1
 40
0.0
  9
$USERR2
 40
0.0
  9
$USERR3
 40
0.0
  9
$USERR4
 40
0.0
  9
$USERR5
 40
0.0
  9
$WORLDVIEW
 70
     1
  9
$SHADEDGE
 70
     3
  9
$SHADEDIF
 70
    70
  9
$TILEMODE
 70
     1
  9
$MAXACTVP
 70
    64
  9
$PINSBASE
 10
0.0
 20
0.0
 30
0.0
  9
$PLIMCHECK
 70
     0
  9
$PEXTMIN
 10
1.0000000000E+20
 20
1.0000000000E+20
 30
1.0000000000E+20
  9
$PEXTMAX
 10
-1.0000000000E+20
 20
-1.0000000000E+20
 30
-1.0000000000E+20
  9
$PLIMMIN
 10
0.0
 20
0.0
  9
$PLIMMAX
 10
420.0
 20
297.0
  9
$UNITMODE
 70
     0
  9
$VISRETAIN
 70
     1
  9
$PLINEGEN
 70
     0
  9
$PSLTSCALE
 70
     1
  9
$TREEDEPTH
 70
  3020
  9
$CMLSTYLE
  2
Standard
  9
$CMLJUST
 70
     0
  9
$CMLSCALE
 40
20.0
  9
$PROXYGRAPHICS
 70
     1
  9
$MEASUREMENT
 70
     1
  9
$CELWEIGHT
370
    -1
  9
$ENDCAPS
280
     0
  9
$JOINSTYLE
280
     0
  9
$LWDISPLAY
290
     1
  9
$INSUNITS
 70
     4
  9
$HYPERLINKBASE
  1

  9
$STYLESHEET
  1

  9
$XEDIT
290
     1
  9
$CEPSNTYPE
380
     0
  9
$PSTYLEMODE
290
     1
  9
$FINGERPRINTGUID
  2
{5A362DEF-7735-4401-B82B-6356BB5DEE7A}
  9
$VERSIONGUID
  2
{FAEB1C32-E019-11D5-929B-00C0DF256EC4}
  9
$EXTNAMES
290
     1
  9
$PSVPSCALE
 40
0.0
  9
$OLESTARTUP
290
     0
  0
ENDSEC
  0
SECTION
  2
CLASSES
  0
CLASS
  1
ACDBDICTIONARYWDFLT
  2
AcDbDictionaryWithDefault
  3
ObjectDBX Classes
 90
        0
280
     0
281
     0
  0
CLASS
  1
VISUALSTYLE
  2
AcDbVisualStyle
  3
ObjectDBX Classes
 90
     4095
280
     0
281
     0
  0
CLASS
  1
MATERIAL
  2
AcDbMaterial
  3
ObjectDBX Classes
 90
     1153
280
     0
281
     0
  0
CLASS
  1
ACDBPLACEHOLDER
  2
AcDbPlaceHolder
  3
ObjectDBX Classes
 90
        0
280
     0
281
     0
  0
CLASS
  1
LAYOUT
  2
AcDbLayout
  3
ObjectDBX Classes
 90
        0
280
     0
281
     0
  0
ENDSEC
  0
SECTION
  2
TABLES
  0
TABLE
  2
VPORT
  5
8
330
0
100
AcDbSymbolTable
 70
     1
  0
VPORT
  5
29
330
8
100
AcDbSymbolTableRecord
100
AcDbViewportTableRecord
  2
*Active
 70
     0
 10
0.0
 20
0.0
 11
1.0
 21
1.0
 12
139.7
 22
107.95
 13
0.0
 23
0.0
 14
10.0
 24
10.0
 15
10.0
 25
10.0
 16
0.0
 26
0.0
 36
1.0
 17
0.0
 27
0.0
 37
0.0
 40
215.9
 41
1.2941176471
 42
50.0
 43
0.0
 44
0.0
 50
0.0
 51
0.0
 71
     0
 72
  2000
 73
     1
 74
     3
 75
     0
 76
     0
 77
     0
 78
     0
281
     0
 65
     1
110
0.0
120
0.0
130
0.0
111
1.0
121
0.0
131
0.0
112
0.0
122
1.0
132
0.0
 79
     0
146
0.0
  0
ENDTAB
  0
TABLE
  2
LTYPE
  5
5
330
0
100
AcDbSymbolTable
 70
     6
  0
LTYPE
  5
14
330
5
100
AcDbSymbolTableRecord
100
AcDbLinetypeTableRecord
  2
ByBlock
 70
     0
  3

 72
    65
 73
     0
 40
0.0
  0
LTYPE
  5
15
330
5
100
AcDbSymbolTableRecord
100
AcDbLinetypeTableRecord
  2
ByLayer
 70
     0
  3

 72
    65
 73
     0
 40
0.0
  0
LTYPE
  5
16
330
5
100
AcDbSymbolTableRecord
100
AcDbLinetypeTableRecord
  2
Continuous
 70
     0
  3
Solid line
 72
    65
 73
     0
 40
0.0
  0
LTYPE
  5
3F
330
5
100
AcDbSymbolTableRecord
100
AcDbLinetypeTableRecord
  2
HIDDEN
 70
     0
  3
Hidden __ __ __ __ __ __ __ __ __ __ __ __ __ __
 72
    65
 73
     2
 40
1.905
 49
1.27
 74
     0
 49
-0.635
 74
     0
  0
LTYPE
  5
40
330
5
100
AcDbSymbolTableRecord
100
AcDbLinetypeTableRecord
  2
PHANTOM
 70
     0
  3
Phantom ______  __  __  ______  __  __  ______
 72
    65
 73
     6
 40
12.7
 49
6.35
 74
     0
 49
-1.27
 74
     0
 49
1.27
 74
     0
 49
-1.27
 74
     0
 49
1.27
 74
     0
 49
-1.27
 74
     0
  0
LTYPE
  5
41
330
5
100
AcDbSymbolTableRecord
100
AcDbLinetypeTableRecord
  2
CENTER
 70
     0
  3
Center ____ _ ____ _ ____ _ ____ _ ____ _ ____
 72
    65
 73
     4
 40
10.16
 49
6.35
 74
     0
 49
-1.27
 74
     0
 49
1.27
 74
     0
 49
-1.27
 74
     0
  0
LTYPE
  5
42
330
5
100
AcDbSymbolTableRecord
100
AcDbLinetypeTableRecord
  2
CENTERX2
 70
     0
  3
Center (2x) ________  __  ________  __  _____
 72
    65
 73
     4
 40
20.32
 49
12.7
 74
     0
 49
-2.54
 74
     0
 49
2.54
 74
     0
 49
-2.54
 74
     0
  0
LTYPE
  5
43
330
5
100
AcDbSymbolTableRecord
100
AcDbLinetypeTableRecord
  2
DOT2
 70
     0
  3
Dot (.5x) ........................................
 72
    65
 73
     2
 40
0.635
 49
0.0
 74
     0
 49
-0.635
 74
     0
  0
ENDTAB
  0
TABLE
  2
LAYER
  5
2
330
0
100
AcDbSymbolTable
 70
     1
  0
LAYER
  5
10
330
2
100
AcDbSymbolTableRecord
100
AcDbLayerTableRecord
  2
0
 70
     0
 62
     7
  6
Continuous
370
    -3
390
F
  0
ENDTAB
  0
TABLE
  2
STYLE
  5
3
330
0
100
AcDbSymbolTable
 70
     1
  0
STYLE
  5
11
330
3
100
AcDbSymbolTableRecord
100
AcDbTextStyleTableRecord
  2
Standard
 70
     0
 40
0.0
 41
1.0
 50
0.0
 71
     0
 42
3.5
  3
txt
  4

  0
ENDTAB
  0
TABLE
  2
VIEW
  5
6
330
0
100
AcDbSymbolTable
 70
     0
  0
ENDTAB
  0
TABLE
  2
UCS
  5
7
330
0
100
AcDbSymbolTable
 70
     0
  0
ENDTAB
  0
TABLE
  2
APPID
  5
9
330
0
100
AcDbSymbolTable
 70
     1
  0
APPID
  5
12
330
9
100
AcDbSymbolTableRecord
100
AcDbRegAppTableRecord
  2
ACAD
 70
     0
  0
ENDTAB
  0
TABLE
  2
DIMSTYLE
  5
A
330
0
100
AcDbSymbolTable
 70
     1
100
AcDbDimStyleTable
  0
DIMSTYLE
105
27
330
A
100
AcDbSymbolTableRecord
100
AcDbDimStyleTableRecord
  2
ISO-25
 70
     0
 41
2.5
 42
0.625
 43
3.75
 44
1.25
 73
     0
 74
     0
 77
     1
 78
     8
140
2.5
141
2.5
143
0.0393700787
147
0.625
171
     3
172
     1
178
     0
271
     2
272
     2
274
     3
278
    44
283
     0
284
     8
340
11
  0
ENDTAB
  0
TABLE
  2
BLOCK_RECORD
  5
1
330
0
100
AcDbSymbolTable
 70
     1
  0
BLOCK_RECORD
  5
1F
330
1
100
AcDbSymbolTableRecord
100
AcDbBlockTableRecord
  2
*Model_Space
340
22
  0
BLOCK_RECORD
  5
1B
330
1
100
AcDbSymbolTableRecord
100
AcDbBlockTableRecord
  2
*Paper_Space
340
1E
  0
BLOCK_RECORD
  5
23
330
1
100
AcDbSymbolTableRecord
100
AcDbBlockTableRecord
  2
*Paper_Space0
340
26
  0
ENDTAB
  0
ENDSEC
  0
SECTION
  2
BLOCKS
  0
BLOCK
  5
20
330
1F
100
AcDbEntity
  8
0
100
AcDbBlockBegin
  2
*Model_Space
 70
     0
 10
0.0
 20
0.0
 30
0.0
  3
*Model_Space
  1

  0
ENDBLK
  5
21
330
1F
100
AcDbEntity
  8
0
100
AcDbBlockEnd
  0
BLOCK
  5
1C
330
1B
100
AcDbEntity
 67
     1
  8
0
100
AcDbBlockBegin
  2
*Paper_Space
 70
     0
 10
0.0
 20
0.0
 30
0.0
  3
*Paper_Space
  1

  0
ENDBLK
  5
1D
330
1B
100
AcDbEntity
 67
     1
  8
0
100
AcDbBlockEnd
  0
BLOCK
  5
24
330
23
100
AcDbEntity
  8
0
100
AcDbBlockBegin
  2
*Paper_Space0
 70
     0
 10
0.0
 20
0.0
 30
0.0
  3
*Paper_Space0
  1

  0
ENDBLK
  5
25
330
23
100
AcDbEntity
  8
0
100
AcDbBlockEnd
  0
ENDSEC
  0
SECTION
  2
ENTITIES
  0
SPLINE
  5
44
330
1F
100
AcDbEntity
  8
0
  6
Continuous
 62
     7
370
    15
100
AcDbSpline
210
0.0
220
0.0
230
1.0
 70
     8
 71
     3
 72
    17
 73
    13
 74
     0
 42
0.00000001
 43
0.00000001
 12
1.0
 22
0.0
 32
0.0
 13
1.0
 23
0.0
 33
0.0
 40
0.0
 40
0.0
 40
0.0
 40
0.0
 40
0.1135678832426267
 40
0.1950577062995121
 40
0.2808957926780994
 40
0.3717009111164227
 40
0.4730691711877056
 40
0.5851374339373194
 40
0.7011720065191882
 40
0.8195925691624768
 40
0.9389802593914394
 40
1.0
 40
1.0
 40
1.0
 40
1.0
 10
84.24707911464898
 20
97.55890450739385
 30
0.0
 10
84.15449752254864
 20
97.5525133434289
 30
0.0
 10
83.99548467063143
 20
97.541536245433
 30
0.0
 10
83.7636558601412
 20
97.57173078244458
 30
0.0
 10
83.57980199965351
 20
97.68657420185505
 30
0.0
 10
83.4301364470784
 20
97.86076688468998
 30
0.0
 10
83.32197734200605
 20
98.08800783450138
 30
0.0
 10
83.27166990598874
 20
98.35579424870139
 30
0.0
 10
83.29734416349163
 20
98.64212713392034
 30
0.0
 10
83.40174126481534
 20
98.91380080518103
 30
0.0
 10
83.54131611777169
 20
99.1218109642153
 30
0.0
 10
83.66169557104128
 20
99.20807481633015
 30
0.0
 10
83.70241187069146
 20
99.2372520949793
 30
0.0
  0
SPLINE
  5
45
330
1F
100
AcDbEntity
  8
0
  6
Continuous
 62
     7
370
    15
100
AcDbSpline
210
0.0
220
0.0
230
1.0
 70
     8
 71
     3
 72
    18
 73
    14
 74
     0
 42
0.00000001
 43
0.00000001
 12
1.0
 22
0.0
 32
0.0
 13
1.0
 23
0.0
 33
0.0
 40
0.0
 40
0.0
 40
0.0
 40
0.0
 40
0.0618850130732953
 40
0.1723577913900611
 40
0.2651430229788655
 40
0.3485342252730415
 40
0.4371592239930387
 40
0.530302993164217
 40
0.6291929188953358
 40
0.7269744785342669
 40
0.8276432803067018
 40
0.9433308580904762
 40
0.9999999999999999
 40
0.9999999999999999
 40
0.9999999999999999
 40
0.9999999999999999
 10
84.42386649105268
 20
95.9742554213951
 30
0.0
 10
84.37393000064073
 20
95.96911917785972
 30
0.0
 10
84.2348503952611
 20
95.95481407315337
 30
0.0
 10
84.02117461752998
 20
96.00003202105583
 30
0.0
 10
83.80729588755494
 20
96.09528112748328
 30
0.0
 10
83.65007081931705
 20
96.24824203961441
 30
0.0
 10
83.56065791886122
 20
96.44753755402718
 30
0.0
 10
83.5305439723992
 20
96.67575776381682
 30
0.0
 10
83.57902442265971
 20
96.91032859958665
 30
0.0
 10
83.70752958384884
 20
97.11828691329643
 30
0.0
 10
83.89889746460541
 20
97.28988668235033
 30
0.0
 10
84.09475744754543
 20
97.39351983642635
 30
0.0
 10
84.21723917676135
 20
97.45984864726815
 30
0.0
 10
84.25750992748456
 20
97.48165688776473
 30
0.0
  0
LINE
  5
46
330
1F
100
AcDbEntity
  8
0
  6
Continuous
 62
     7
370
    15
100
AcDbLine
 10
82.5478102967
 20
96.4360722091
 30
0.0
 11
82.8071501062
 21
97.3140486267
 31
0.0
  0
ARC
  5
47
330
1F
100
AcDbEntity
  8
0
  6
Continuous
 62
     7
370
    15
100
AcDbCircle
 10
82.3435931569
 20
93.6371060794
 30
0.0
 40
3.706047967939579
100
AcDbArc
 50
82.0318180325
 51
82.8145546532
  0
LINE
  5
48
330
1F
100
AcDbEntity
  8
0
  6
Continuous
 62
     7
370
    15
100
AcDbLine
 10
82.8573372171
 20
97.3073729064
 30
0.0
 11
82.5929906175
 21
96.4124687698
 31
0.0
  0
ARC
  5
49
330
1F
100
AcDbEntity
  8
0
  6
Continuous
 62
     7
370
    15
100
AcDbCircle
 10
89.1866516804
 20
109.0887109622
 30
0.0
 40
14.28857873737613
100
AcDbArc
 50
242.3139971128
 51
242.5183992698
  0
LINE
  5
4A
330
1F
100
AcDbEntity
  8
0
  6
Continuous
 62
     7
370
    15
100
AcDbLine
 10
82.2108056352
 20
96.0175283935
 30
0.0
 11
82.5478102967
 21
96.4360722091
 31
0.0
  0
LINE
  5
4B
330
1F
100
AcDbEntity
  8
0
  6
Continuous
 62
     7
370
    15
100
AcDbLine
 10
82.5929906175
 20
96.4124687698
 30
0.0
 11
82.2436477945
 21
95.9786661651
 31
0.0
  0
ARC
  5
4C
330
1F
100
AcDbEntity
  8
0
  6
Continuous
 62
     7
370
    15
100
AcDbCircle
 10
77.8198451055
 20
92.2734542321
 30
0.0
 40
5.770496139799241
100
AcDbArc
 50
39.9482838838
 51
40.4534879801
  0
LINE
  5
4D
330
1F
100
AcDbEntity
  8
0
  6
Continuous
 62
     7
370
    15
100
AcDbLine
 10
82.2519328401
 20
96.5021141555
 30
0.0
 11
82.4103619859
 21
97.3587521102
 31
0.0
  0
ARC
  5
4E
330
1F
100
AcDbEntity
  8
0
  6
Continuous
 62
     7
370
    15
100
AcDbCircle
 10
81.9232845556
 20
90.4012919464
 30
0.0
 40
6.974488967268775
100
AcDbArc
 50
85.581967785
 51
85.9953745408
  0
LINE
  5
4F
330
1F
100
AcDbEntity
  8
0
  6
Continuous
 62
     7
370
    15
100
AcDbLine
 10
82.4605490968
 20
97.3550566223
 30
0.0
 11
82.2998549745
 21
96.4864977386
 31
0.0
  0
ARC
  5
50
330
1F
100
AcDbEntity
  8
0
  6
Continuous
 62
     7
370
    15
100
AcDbCircle
 10
95.7025736243
 20
137.6967887427
 30
0.0
 40
43.3349853103439
100
AcDbArc
 50
251.9174111996
 51
251.984051255
  0
LINE
  5
51
330
1F
100
AcDbEntity
  8
0
  6
Continuous
 62
     7
370
    15
100
AcDbLine
 10
82.7834870622
 20
98.2696302917
 30
0.0
 11
82.5028683946
 21
99.0576036956
 31
0.0
  0
ARC
  5
52
330
1F
100
AcDbEntity
  8
0
  6
Continuous
 62
     7
370
    15
100
AcDbCircle
 10
94.6019592471
 20
78.617238786
 30
0.0
 40
23.752821245013
100
AcDbArc
 50
120.4994776859
 51
120.6222008488
  0
LINE
  5
53
330
1F
100
AcDbEntity
  8
0
  6
Continuous
 62
     7
370
    15
100
AcDbLine
 10
82.5466778085
 20
99.0834721115
 30
0.0
 11
82.8332569406
 21
98.2789286163
 31
0.0
  0
ARC
  5
54
330
1F
100
AcDbEntity
  8
0
  6
Continuous
 62
     7
370
    15
100
AcDbCircle
 10
83.4819228326
 20
94.6690554536
 30
0.0
 40
3.667690239098754
100
AcDbArc
 50
100.1868881931
 51
100.9778400707
  0
LINE
  5
55
330
1F
100
AcDbEntity
  8
0
  6
Continuous
 62
     7
370
    15
100
AcDbLine
 10
82.1943547532
 20
96.2652452972
 30
0.0
 11
82.0591118142
 21
96.1002596405
 31
0.0
  0
ARC
  5
56
330
1F
100
AcDbEntity
  8
0
  6
Continuous
 62
     7
370
    15
100
AcDbCircle
 10
84.5019243504
 20
98.1841028549
 30
0.0
 40
3.210877703912794
100
AcDbArc
 50
219.5576621788
 51
220.4658635031
  0
LINE
  5
57
330
1F
100
AcDbEntity
  8
0
  6
Continuous
 62
     7
370
    15
100
AcDbLine
 10
82.0263888643
 20
96.1392410781
 30
0.0
 11
82.1518566415
 21
96.2923058059
 31
0.0
  0
ARC
  5
58
330
1F
100
AcDbEntity
  8
0
  6
Continuous
 62
     7
370
    15
100
AcDbCircle
 10
77.044652878
 20
88.2246194718
 30
0.0
 40
9.548355516384905
100
AcDbArc
 50
57.3620498527
 51
57.6643728727
  0
LINE
  5
59
330
1F
100
AcDbEntity
  8
0
  6
Continuous
 62
     7
370
    15
100
AcDbLine
 10
81.5321471498
 20
96.0618742492
 30
0.0
 11
81.392672281
 21
96.2009914901
 31
0.0
  0
ARC
  5
5A
330
1F
100
AcDbEntity
  8
0
  6
Continuous
 62
     7
370
    15
100
AcDbCircle
 10
85.0227296972
 20
91.5358073679
 30
0.0
 40
5.911113240281233
100
AcDbArc
 50
127.3989572943
 51
127.8870791053
  0
LINE
  5
5B
330
1F
100
AcDbEntity
  8
0
  6
Continuous
 62
     7
370
    15
100
AcDbLine
 10
81.4325477884
 20
96.2317474868
 30
0.0
 11
81.5603401468
 21
96.1044319656
 31
0.0
  0
ARC
  5
5C
330
1F
100
AcDbEntity
  8
0
  6
Continuous
 62
     7
370
    15
100
AcDbCircle
 10
66.0893076679
 20
106.3228319852
 30
0.0
 40
18.54099633038773
100
AcDbArc
 50
326.3980445615
 51
326.5557974303
  0
LINE
  5
5D
330
1F
100
AcDbEntity
  8
0
  6
Continuous
 62
     7
370
    15
100
AcDbLine
 10
81.5183188722
 20
99.3016251113
 30
0.0
 11
81.3427235887
 21
99.1259106185
 31
0.0
  0
ARC
  5
5E
330
1F
100
AcDbEntity
  8
0
  6
Continuous
 62
     7
370
    15
100
AcDbCircle
 10
84.2460616751
 20
104.0062090597
 30
0.0
 40
5.678616461661902
100
AcDbArc
 50
238.7305201919
 51
239.2511652107
  0
LINE
  5
5F
330
1F
100
AcDbEntity
  8
0
  6
Continuous
 62
     7
370
    15
100
AcDbLine
 10
81.2984969423
 20
99.1524942901
 30
0.0
 11
81.4904835031
 21
99.3445404556
 31
0.0
  0
LINE
  5
60
330
1F
100
AcDbEntity
  8
0
  6
Continuous
 62
     7
370
    15
100
AcDbLine
 10
81.4904835031
 20
99.3445404556
 30
0.0
 11
81.5183188722
 21
99.3016251113
 31
0.0
  0
LINE
  5
61
330
1F
100
AcDbEntity
  8
0
  6
Continuous
 62
     7
370
    15
100
AcDbLine
 10
81.392672281
 20
96.2009914901
 30
0.0
 11
81.2799598977
 21
96.3939913299
 31
0.0
  0
ARC
  5
62
330
1F
100
AcDbEntity
  8
0
  6
Continuous
 62
     7
370
    15
100
AcDbCircle
 10
80.8371006093
 20
97.5826760332
 30
0.0
 40
1.268501349289866
100
AcDbArc
 50
290.4335045298
 51
292.7178726851
  0
LINE
  5
63
330
1F
100
AcDbEntity
  8
0
  6
Continuous
 62
     7
370
    15
100
AcDbLine
 10
81.3269879625
 20
96.4125879791
 30
0.0
 11
81.4325477884
 21
96.2317474868
 31
0.0
  0
LINE
  5
64
330
1F
100
AcDbEntity
  8
0
  6
Continuous
 62
     7
370
    15
100
AcDbLine
 10
82.8071501062
 20
97.3140486267
 30
0.0
 11
82.7834870622
 21
98.2696302917
 31
0.0
  0
LINE
  5
65
330
1F
100
AcDbEntity
  8
0
  6
Continuous
 62
     7
370
    15
100
AcDbLine
 10
82.8332569406
 20
98.2789286163
 30
0.0
 11
82.8573372171
 21
97.3073729064
 31
0.0
  0
LINE
  5
66
330
1F
100
AcDbEntity
  8
0
  6
Continuous
 62
     7
370
    15
100
AcDbLine
 10
81.2799598977
 20
96.3939913299
 30
0.0
 11
81.0466673181
 21
97.4126347091
 31
0.0
  0
ARC
  5
67
330
1F
100
AcDbEntity
  8
0
  6
Continuous
 62
     7
370
    15
100
AcDbCircle
 10
81.5140453549
 20
93.3765826938
 30
0.0
 40
4.063023270869615
100
AcDbArc
 50
95.8952035105
 51
96.6054756451
  0
LINE
  5
68
330
1F
100
AcDbEntity
  8
0
  6
Continuous
 62
     7
370
    15
100
AcDbLine
 10
81.0967352197
 20
97.4181183364
 30
0.0
 11
81.3269879625
 21
96.4125879791
 31
0.0
  0
LINE
  5
69
330
1F
100
AcDbEntity
  8
0
  6
Continuous
 62
     7
370
    15
100
AcDbLine
 10
80.6859400079
 20
98.4976776626
 30
0.0
 11
80.7963874147
 21
98.8407619979
 31
0.0
  0
ARC
  5
6A
330
1F
100
AcDbEntity
  8
0
  6
Continuous
 62
     7
370
    15
100
AcDbCircle
 10
79.5818655379
 20
96.1114990297
 30
0.0
 40
2.987296392846293
100
AcDbArc
 50
65.0450291151
 51
66.0109385158
  0
LINE
  5
6B
330
1F
100
AcDbEntity
  8
0
  6
Continuous
 62
     7
370
    15
100
AcDbLine
 10
80.8422233865
 20
98.8199003723
 30
0.0
 11
80.7357098863
 21
98.4890945938
 31
0.0
  0
ARC
  5
6C
330
1F
100
AcDbEntity
  8
0
  6
Continuous
 62
     7
370
    15
100
AcDbCircle
 10
80.074135771
 20
94.8014731973
 30
0.0
 40
3.746495946021785
100
AcDbArc
 50
79.8291050158
 51
80.6014853096
  0
LINE
  5
6D
330
1F
100
AcDbEntity
  8
0
  6
Continuous
 62
     7
370
    15
100
AcDbLine
 10
82.5028683946
 20
99.0576036956
 30
0.0
 11
82.2824504182
 21
99.3062742736
 31
0.0
  0
ARC
  5
6E
330
1F
100
AcDbEntity
  8
0
  6
Continuous
 62
     7
370
    15
100
AcDbCircle
 10
94.1075923819
 20
90.4347821756
 30
0.0
 40
14.7830089801509
100
AcDbArc
 50
142.9241349016
 51
143.1219302587
  0
LINE
  5
6F
330
1F
100
AcDbEntity
  8
0
  6
Continuous
 62
     7
370
    15
100
AcDbLine
 10
82.3131468103
 20
99.3470438507
 30
0.0
 11
82.5466778085
 21
99.0834721115
 31
0.0
  0
LINE
  5
70
330
1F
100
AcDbEntity
  8
0
  6
Continuous
 62
     7
370
    15
100
AcDbLine
 10
81.9952752397
 20
95.8972462203
 30
0.0
 11
82.2108056352
 21
96.0175283935
 31
0.0
  0
LINE
  5
71
330
1F
100
AcDbEntity
  8
0
  6
Continuous
 62
     7
370
    15
100
AcDbLine
 10
82.2436477945
 20
95.9786661651
 30
0.0
 11
82.0116069123
 21
95.8490856674
 31
0.0
  0
LWPOLYLINE
  5
72
330
1F
100
AcDbEntity
  8
0
  6
Continuous
 62
     7
370
    15
100
AcDbPolyline
 90
        9
 70
   128
 43
0.0
 10
81.9952752397
 20
95.8972462203
 10
81.9984938905
 20
95.8878286865
 10
82.0015337274
 20
95.8787687805
 10
82.0043351457
 20
95.8704241302
 10
82.0068385408
 20
95.8631523635
 10
82.0088650987
 20
95.8571918991
 10
82.0103552148
 20
95.8526619461
 10
82.0113088891
 20
95.8499201324
 10
82.0116069123
 20
95.8490856674
  0
LINE
  5
73
330
1F
100
AcDbEntity
  8
0
  6
Continuous
 62
     7
370
    15
100
AcDbLine
 10
81.6380646035
 20
99.3475206878
 30
0.0
 11
81.5183188722
 21
99.3016251113
 31
0.0
  0
LINE
  5
74
330
1F
100
AcDbEntity
  8
0
  6
Continuous
 62
     7
370
    15
100
AcDbLine
 10
81.4904835031
 20
99.3445404556
 30
0.0
 11
81.6269781396
 21
99.3967541244
 31
0.0
  0
ARC
  5
75
330
1F
100
AcDbEntity
  8
0
  6
Continuous
 62
     7
370
    15
100
AcDbCircle
 10
107.9998338322
 20
105.3095709626
 30
0.0
 40
27.02755853464884
100
AcDbArc
 50
192.6367947987
 51
192.7437782962
  0
LINE
  5
76
330
1F
100
AcDbEntity
  8
0
  6
Continuous
 62
     7
370
    15
100
AcDbLine
 10
82.0105936334
 20
99.4354971435
 30
0.0
 11
81.5814997956
 21
99.4405039337
 31
0.0
  0
ARC
  5
77
330
1F
100
AcDbEntity
  8
0
  6
Continuous
 62
     7
370
    15
100
AcDbCircle
 10
85.362063468
 20
100.2858352184
 30
0.0
 40
3.873918773270613
100
AcDbArc
 50
191.8462733667
 51
192.6039719847
  0
LINE
  5
78
330
1F
100
AcDbEntity
  8
0
  6
Continuous
 62
     7
370
    15
100
AcDbLine
 10
81.5706517503
 20
99.4905718353
 30
0.0
 11
82.0221569345
 21
99.4854458358
 31
0.0
  0
ARC
  5
79
330
1F
100
AcDbEntity
  8
0
  6
Continuous
 62
     7
370
    15
100
AcDbCircle
 10
80.7895502462
 20
99.7444858779
 30
0.0
 40
1.259532052484734
100
AcDbArc
 50
345.7992389408
 51
348.1316449097
  0
LINE
  5
7A
330
1F
100
AcDbEntity
  8
0
  6
Continuous
 62
     7
370
    15
100
AcDbLine
 10
82.4103619859
 20
97.3587521102
 30
0.0
 11
82.3787715242
 21
98.3156450775
 31
0.0
  0
LWPOLYLINE
  5
7B
330
1F
100
AcDbEntity
  8
0
  6
Continuous
 62
     7
370
    15
100
AcDbPolyline
 90
        9
 70
   128
 43
0.0
 10
82.3787715242
 20
98.3156450775
 10
82.3797251985
 20
98.315883496
 10
82.3825266168
 20
98.3162411239
 10
82.3871757791
 20
98.3169563796
 10
82.3933150575
 20
98.317910054
 10
82.4008848474
 20
98.3191021469
 10
82.4094679162
 20
98.320413449
 10
82.4188258455
 20
98.3218439605
 10
82.4285414026
 20
98.3233936813
  0
LINE
  5
7C
330
1F
100
AcDbEntity
  8
0
  6
Continuous
 62
     7
370
    15
100
AcDbLine
 10
82.4285414026
 20
98.3233936813
 30
0.0
 11
82.4605490968
 21
97.3550566223
 31
0.0
  0
LINE
  5
7D
330
1F
100
AcDbEntity
  8
0
  6
Continuous
 62
     7
370
    15
100
AcDbLine
 10
82.3787715242
 20
98.3156450775
 30
0.0
 11
82.165029268
 21
99.0807302978
 31
0.0
  0
ARC
  5
7E
330
1F
100
AcDbEntity
  8
0
  6
Continuous
 62
     7
370
    15
100
AcDbCircle
 10
81.8571675524
 20
99.7206230398
 30
0.0
 40
0.7100996811836968
100
AcDbArc
 50
295.6928847732
 51
299.824196429
  0
LINE
  5
7F
330
1F
100
AcDbEntity
  8
0
  6
Continuous
 62
     7
370
    15
100
AcDbLine
 10
82.210328798
 20
99.1045721557
 30
0.0
 11
82.4285414026
 21
98.3233936813
 31
0.0
  0
LINE
  5
80
330
1F
100
AcDbEntity
  8
0
  6
Continuous
 62
     7
370
    15
100
AcDbLine
 10
81.7033912942
 20
95.9921368148
 30
0.0
 11
81.5321471498
 21
96.0618742492
 31
0.0
  0
LINE
  5
81
330
1F
100
AcDbEntity
  8
0
  6
Continuous
 62
     7
370
    15
100
AcDbLine
 10
81.8898942277
 20
96.0052498367
 30
0.0
 11
81.7033912942
 21
95.9921368148
 31
0.0
  0
LINE
  5
82
330
1F
100
AcDbEntity
  8
0
  6
Continuous
 62
     7
370
    15
100
AcDbLine
 10
82.0591118142
 20
96.1002596405
 30
0.0
 11
81.8898942277
 21
96.0052498367
 31
0.0
  0
LINE
  5
83
330
1F
100
AcDbEntity
  8
0
  6
Continuous
 62
     7
370
    15
100
AcDbLine
 10
82.2998549745
 20
96.4864977386
 30
0.0
 11
82.1943547532
 21
96.2652452972
 31
0.0
  0
LINE
  5
84
330
1F
100
AcDbEntity
  8
0
  6
Continuous
 62
     7
370
    15
100
AcDbLine
 10
82.0359852121
 20
99.3136652496
 30
0.0
 11
82.210328798
 21
99.1045721557
 31
0.0
  0
LINE
  5
85
330
1F
100
AcDbEntity
  8
0
  6
Continuous
 62
     7
370
    15
100
AcDbLine
 10
81.7752744958
 20
99.4080790069
 30
0.0
 11
82.0359852121
 21
99.3136652496
 31
0.0
  0
LINE
  5
86
330
1F
100
AcDbEntity
  8
0
  6
Continuous
 62
     7
370
    15
100
AcDbLine
 10
81.6269781396
 20
99.3967541244
 30
0.0
 11
81.7752744958
 21
99.4080790069
 31
0.0
  0
LINE
  5
87
330
1F
100
AcDbEntity
  8
0
  6
Continuous
 62
     7
370
    15
100
AcDbLine
 10
81.0545947358
 20
98.3483084228
 30
0.0
 11
81.2984969423
 21
99.1524942901
 31
0.0
  0
LINE
  5
88
330
1F
100
AcDbEntity
  8
0
  6
Continuous
 62
     7
370
    15
100
AcDbLine
 10
81.0466673181
 20
97.4126347091
 30
0.0
 11
81.0545947358
 21
98.3483084228
 31
0.0
  0
LINE
  5
89
330
1F
100
AcDbEntity
  8
0
  6
Continuous
 62
     7
370
    15
100
AcDbLine
 10
81.7439224527
 20
95.8607681777
 30
0.0
 11
81.9952752397
 21
95.8972462203
 31
0.0
  0
LINE
  5
8A
330
1F
100
AcDbEntity
  8
0
  6
Continuous
 62
     7
370
    15
100
AcDbLine
 10
81.4836289689
 20
95.9089287307
 30
0.0
 11
81.7439224527
 21
95.8607681777
 31
0.0
  0
LINE
  5
8B
330
1F
100
AcDbEntity
  8
0
  6
Continuous
 62
     7
370
    15
100
AcDbLine
 10
81.2471773431
 20
96.0371979263
 30
0.0
 11
81.4836289689
 21
95.9089287307
 31
0.0
  0
LINE
  5
8C
330
1F
100
AcDbEntity
  8
0
  6
Continuous
 62
     7
370
    15
100
AcDbLine
 10
81.0556080148
 20
96.2424763229
 30
0.0
 11
81.2471773431
 21
96.0371979263
 31
0.0
  0
LINE
  5
8D
330
1F
100
AcDbEntity
  8
0
  6
Continuous
 62
     7
370
    15
100
AcDbLine
 10
80.8347728059
 20
96.6998823669
 30
0.0
 11
81.0556080148
 21
96.2424763229
 31
0.0
  0
LINE
  5
8E
330
1F
100
AcDbEntity
  8
0
  6
Continuous
 62
     7
370
    15
100
AcDbLine
 10
80.7019736573
 20
97.2753056076
 30
0.0
 11
80.8347728059
 21
96.6998823669
 31
0.0
  0
LINE
  5
8F
330
1F
100
AcDbEntity
  8
0
  6
Continuous
 62
     7
370
    15
100
AcDbLine
 10
80.7357098863
 20
98.4890945938
 30
0.0
 11
80.7019736573
 21
97.2753056076
 31
0.0
  0
LINE
  5
90
330
1F
100
AcDbEntity
  8
0
  6
Continuous
 62
     7
370
    15
100
AcDbLine
 10
80.9994604394
 20
99.0816839721
 30
0.0
 11
80.8422233865
 21
98.8199003723
 31
0.0
  0
LINE
  5
91
330
1F
100
AcDbEntity
  8
0
  6
Continuous
 62
     7
370
    15
100
AcDbLine
 10
81.1945464418
 20
99.2601402786
 30
0.0
 11
80.9994604394
 21
99.0816839721
 31
0.0
  0
LINE
  5
92
330
1F
100
AcDbEntity
  8
0
  6
Continuous
 62
     7
370
    15
100
AcDbLine
 10
81.5814997956
 20
99.4405039337
 30
0.0
 11
81.1945464418
 21
99.2601402786
 31
0.0
  0
LINE
  5
93
330
1F
100
AcDbEntity
  8
0
  6
Continuous
 62
     7
370
    15
100
AcDbLine
 10
82.2824504182
 20
99.3062742736
 30
0.0
 11
82.0105936334
 21
99.4354971435
 31
0.0
  0
LINE
  5
94
330
1F
100
AcDbEntity
  8
0
  6
Continuous
 62
     7
370
    15
100
AcDbLine
 10
82.165029268
 20
99.0807302978
 30
0.0
 11
82.0062424943
 21
99.2712267425
 31
0.0
  0
ARC
  5
95
330
1F
100
AcDbEntity
  8
0
  6
Continuous
 62
     7
370
    15
100
AcDbCircle
 10
76.4799281647
 20
103.1759455165
 30
0.0
 40
6.76660762669658
100
AcDbArc
 50
324.7561822566
 51
325.1949936583
  0
LINE
  5
96
330
1F
100
AcDbEntity
  8
0
  6
Continuous
 62
     7
370
    15
100
AcDbLine
 10
80.7963874147
 20
98.8407619979
 30
0.0
 11
80.9603597924
 21
99.113751271
 31
0.0
  0
ARC
  5
97
330
1F
100
AcDbEntity
  8
0
  6
Continuous
 62
     7
370
    15
100
AcDbCircle
 10
74.3895934896
 20
91.0619412147
 30
0.0
 40
10.39262310434336
100
AcDbArc
 50
50.5046744025
 51
50.783464841
  0
LINE
  5
98
330
1F
100
AcDbEntity
  8
0
  6
Continuous
 62
     7
370
    15
100
AcDbLine
 10
81.1664726541
 20
99.3022211578
 30
0.0
 11
81.5706517503
 21
99.4905718353
 31
0.0
  0
ARC
  5
99
330
1F
100
AcDbEntity
  8
0
  6
Continuous
 62
     7
370
    15
100
AcDbCircle
 10
87.8043157863
 20
103.700178931
 30
0.0
 40
7.962599702529846
100
AcDbArc
 50
213.5267929046
 51
213.8907903679
  0
LINE
  5
9A
330
1F
100
AcDbEntity
  8
0
  6
Continuous
 62
     7
370
    15
100
AcDbLine
 10
80.6517865464
 20
97.2702988174
 30
0.0
 11
80.6859400079
 21
98.4976776626
 31
0.0
  0
ARC
  5
9B
330
1F
100
AcDbEntity
  8
0
  6
Continuous
 62
     7
370
    15
100
AcDbCircle
 10
81.6749440577
 20
87.2683992272
 30
0.0
 40
10.05409601632969
100
AcDbArc
 50
95.5534062147
 51
95.8408300234
  0
LINE
  5
9C
330
1F
100
AcDbEntity
  8
0
  6
Continuous
 62
     7
370
    15
100
AcDbLine
 10
80.9603597924
 20
99.113751271
 30
0.0
 11
81.1664726541
 21
99.3022211578
 31
0.0
  0
LINE
  5
9D
330
1F
100
AcDbEntity
  8
0
  6
Continuous
 62
     7
370
    15
100
AcDbLine
 10
81.5603401468
 20
96.1044319656
 30
0.0
 11
81.7114379213
 21
96.0428007629
 31
0.0
  0
ARC
  5
9E
330
1F
100
AcDbEntity
  8
0
  6
Continuous
 62
     7
370
    15
100
AcDbCircle
 10
66.8984278188
 20
98.3694843377
 30
0.0
 40
14.99462319478037
100
AcDbArc
 50
350.8774503875
 51
351.0734683601
  0
ARC
  5
9F
330
1F
100
AcDbEntity
  8
0
  6
Continuous
 62
     7
370
    15
100
AcDbCircle
 10
93.8332389191
 20
99.6121180531
 30
0.0
 40
12.47609637459144
100
AcDbArc
 50
196.5687498494
 51
196.8042199554
  0
LINE
  5
A0
330
1F
100
AcDbEntity
  8
0
  6
Continuous
 62
     7
370
    15
100
AcDbLine
 10
81.8751718805
 20
96.054364064
 30
0.0
 11
82.0263888643
 21
96.1392410781
 31
0.0
  0
LINE
  5
A1
330
1F
100
AcDbEntity
  8
0
  6
Continuous
 62
     7
370
    15
100
AcDbLine
 10
82.0221569345
 20
99.4854458358
 30
0.0
 11
82.3131468103
 21
99.3470438507
 31
0.0
  0
LINE
  5
A2
330
1F
100
AcDbEntity
  8
0
  6
Continuous
 62
     7
370
    15
100
AcDbLine
 10
82.1518566415
 20
96.2923058059
 30
0.0
 11
82.2519328401
 21
96.5021141555
 31
0.0
  0
LINE
  5
A3
330
1F
100
AcDbEntity
  8
0
  6
Continuous
 62
     7
370
    15
100
AcDbLine
 10
81.7114379213
 20
96.0428007629
 30
0.0
 11
81.8751718805
 21
96.054364064
 31
0.0
  0
LINE
  5
A4
330
1F
100
AcDbEntity
  8
0
  6
Continuous
 62
     7
370
    15
100
AcDbLine
 10
81.768360357
 20
99.3574150588
 30
0.0
 11
81.6380646035
 21
99.3475206878
 31
0.0
  0
ARC
  5
A5
330
1F
100
AcDbEntity
  8
0
  6
Continuous
 62
     7
370
    15
100
AcDbCircle
 10
74.2616349993
 20
100.4076660465
 30
0.0
 40
7.579838569046646
100
AcDbArc
 50
352.0355591318
 51
352.4220769583
  0
LINE
  5
A6
330
1F
100
AcDbEntity
  8
0
  6
Continuous
 62
     7
370
    15
100
AcDbLine
 10
81.0138847635
 20
96.2139853027
 30
0.0
 11
80.7873275087
 21
96.6831930664
 31
0.0
  0
ARC
  5
A7
330
1F
100
AcDbEntity
  8
0
  6
Continuous
 62
     7
370
    15
100
AcDbCircle
 10
92.6445164987
 20
63.0506834032
 30
0.0
 40
35.66144468455734
100
AcDbArc
 50
109.3393676051
 51
109.4201745553
  0
LWPOLYLINE
  5
A8
330
1F
100
AcDbEntity
  8
0
  6
Continuous
 62
     7
370
    15
100
AcDbPolyline
 90
        9
 70
   128
 43
0.0
 10
81.0138847635
 20
96.2139853027
 10
81.0147192285
 20
96.2144621398
 10
81.0170438096
 20
96.2161310699
 10
81.0209181115
 20
96.2187536743
 10
81.0261037156
 20
96.222329953
 10
81.032421808
 20
96.2266214874
 10
81.03963397
 20
96.2315090682
 10
81.0475017831
 20
96.2368734863
 10
81.0556080148
 20
96.2424763229
  0
LINE
  5
A9
330
1F
100
AcDbEntity
  8
0
  6
Continuous
 62
     7
370
    15
100
AcDbLine
 10
80.7873275087
 20
96.6831930664
 30
0.0
 11
80.6517865464
 21
97.2702988174
 31
0.0
  0
LINE
  5
AA
330
1F
100
AcDbEntity
  8
0
  6
Continuous
 62
     7
370
    15
100
AcDbLine
 10
81.1045434282
 20
98.3407982376
 30
0.0
 11
81.0967352197
 21
97.4181183364
 31
0.0
  0
ARC
  5
AB
330
1F
100
AcDbEntity
  8
0
  6
Continuous
 62
     7
370
    15
100
AcDbCircle
 10
81.1667290863
 20
98.9242365332
 30
0.0
 40
0.5867429598010284
100
AcDbArc
 50
258.9822410313
 51
263.9161093379
  0
LINE
  5
AC
330
1F
100
AcDbEntity
  8
0
  6
Continuous
 62
     7
370
    15
100
AcDbLine
 10
81.4667012498
 20
95.8612450149
 30
0.0
 11
81.2161829278
 21
95.997143605
 31
0.0
  0
ARC
  5
AD
330
1F
100
AcDbEntity
  8
0
  6
Continuous
 62
     7
370
    15
100
AcDbCircle
 10
73.7649442715
 20
101.7950020889
 30
0.0
 40
9.441192748402477
100
AcDbArc
 50
322.1132769422
 51
322.4206318694
  0
ARC
  5
AE
330
1F
100
AcDbEntity
  8
0
  6
Continuous
 62
     7
370
    15
100
AcDbCircle
 10
88.6986574592
 20
93.3207470886
 30
0.0
 40
7.665201910477244
100
AcDbArc
 50
160.2660279177
 51
160.6442474291
  0
LINE
  5
AF
330
1F
100
AcDbEntity
  8
0
  6
Continuous
 62
     7
370
    15
100
AcDbLine
 10
81.3427235887
 20
99.1259106185
 30
0.0
 11
81.1045434282
 21
98.3407982376
 31
0.0
  0
LINE
  5
B0
330
1F
100
AcDbEntity
  8
0
  6
Continuous
 62
     7
370
    15
100
AcDbLine
 10
81.7429687783
 20
95.8101042297
 30
0.0
 11
81.4667012498
 21
95.8612450149
 31
0.0
  0
ARC
  5
B1
330
1F
100
AcDbEntity
  8
0
  6
Continuous
 62
     7
370
    15
100
AcDbCircle
 10
53.2622178956
 20
96.3715534314
 30
0.0
 40
28.48628434966675
100
AcDbArc
 50
358.870658161
 51
358.9725789651
  0
LINE
  5
B2
330
1F
100
AcDbEntity
  8
0
  6
Continuous
 62
     7
370
    15
100
AcDbLine
 10
81.2161829278
 20
95.997143605
 30
0.0
 11
81.0138847635
 21
96.2139853027
 31
0.0
  0
LINE
  5
B3
330
1F
100
AcDbEntity
  8
0
  6
Continuous
 62
     7
370
    15
100
AcDbLine
 10
82.0062424943
 20
99.2712267425
 30
0.0
 11
81.768360357
 21
99.3574150588
 31
0.0
  0
LINE
  5
B4
330
1F
100
AcDbEntity
  8
0
  6
Continuous
 62
     7
370
    15
100
AcDbLine
 10
82.0116069123
 20
95.8490856674
 30
0.0
 11
81.7429687783
 21
95.8101042297
 31
0.0
  0
SPLINE
  5
B5
330
1F
100
AcDbEntity
  8
0
  6
Continuous
 62
     7
370
    15
100
AcDbSpline
210
0.0
220
0.0
230
1.0
 70
     8
 71
     3
 72
    24
 73
    20
 74
     0
 42
0.00000001
 43
0.00000001
 12
1.0
 22
0.0
 32
0.0
 13
1.0
 23
0.0
 33
0.0
 40
0.0
 40
0.0
 40
0.0
 40
0.0
 40
0.0000121367041393
 40
0.0343246170219718
 40
0.0817216042994187
 40
0.1283336985033975
 40
0.1953122365836952
 40
0.2629903034488112
 40
0.3384406556494414
 40
0.4090304855909654
 40
0.4962888002539093
 40
0.575329175180965
 40
0.6552108458956548
 40
0.7462583166038379
 40
0.8053136694785438
 40
0.8656288886770258
 40
0.9184357274387837
 40
0.9767403492793342
 40
1.0
 40
1.0
 40
1.0
 40
1.0
 10
83.9888121888371
 20
97.45018563532332
 30
0.0
 10
83.98879232064091
 20
97.45018563516678
 30
0.0
 10
83.93260175898284
 20
97.45018519264276
 30
0.0
 10
83.79774857906861
 20
97.45912595351797
 30
0.0
 10
83.60047441294769
 20
97.54536889091153
 30
0.0
 10
83.40135659296551
 20
97.7227292519291
 30
0.0
 10
83.24790218913611
 20
97.9833939540144
 30
0.0
 10
83.16757099916258
 20
98.32278977180414
 30
0.0
 10
83.19782836899967
 20
98.67787867466798
 30
0.0
 10
83.34464153089114
 20
99.03597719678608
 30
0.0
 10
83.60704232741409
 20
99.33431856056146
 30
0.0
 10
83.9695718560741
 20
99.52765860598761
 30
0.0
 10
84.3784572613274
 20
99.59544091602152
 30
0.0
 10
84.75842182860046
 20
99.55990383401108
 30
0.0
 10
85.0843334668788
 20
99.43422000508856
 30
0.0
 10
85.29795352002287
 20
99.23822255008979
 30
0.0
 10
85.42611536127761
 20
98.9843372035581
 30
0.0
 10
85.4742408691844
 20
98.76765287375994
 30
0.0
 10
85.48503053800901
 20
98.6345719938117
 30
0.0
 10
85.48810742351728
 20
98.59662137293319
 30
0.0
  0
SPLINE
  5
B6
330
1F
100
AcDbEntity
  8
0
  6
Continuous
 62
     7
370
    15
100
AcDbSpline
210
0.0
220
0.0
230
1.0
 70
     8
 71
     3
 72
    13
 73
     9
 74
     0
 42
0.00000001
 43
0.00000001
 12
1.0
 22
0.0
 32
0.0
 13
1.0
 23
0.0
 33
0.0
 40
0.0
 40
0.0
 40
0.0
 40
0.0
 40
0.1336629550229511
 40
0.2667568774136256
 40
0.4579225387041952
 40
0.7322525416015048
 40
0.9857515727951058
 40
1.0
 40
1.0
 40
1.0
 40
1.0
 10
85.48810742351728
 20
98.59662137293319
 30
0.0
 10
85.48773641629411
 20
98.5969582621024
 30
0.0
 10
85.48699598130713
 20
98.59763060622988
 30
0.0
 10
85.48110893772817
 20
98.60328551927594
 30
0.0
 10
85.47007593464015
 20
98.6134373452911
 30
0.0
 10
85.453985662827
 20
98.62865426322814
 30
0.0
 10
85.44078706625443
 20
98.64039444282795
 30
0.0
 10
85.43444320952028
 20
98.6463712151115
 30
0.0
 10
85.43410561535077
 20
98.64668927454451
 30
0.0
  0
SPLINE
  5
B7
330
1F
100
AcDbEntity
  8
0
  6
Continuous
 62
     7
370
    15
100
AcDbSpline
210
0.0
220
0.0
230
1.0
 70
     8
 71
     3
 72
    23
 73
    19
 74
     0
 42
0.00000001
 43
0.00000001
 12
1.0
 22
0.0
 32
0.0
 13
1.0
 23
0.0
 33
0.0
 40
0.0
 40
0.0
 40
0.0
 40
0.0
 40
0.0687782820016232
 40
0.1194395558113243
 40
0.176777800563955
 40
0.2336428475532227
 40
0.3231057897917921
 40
0.4011968593072683
 40
0.4780491805669847
 40
0.5628306959138916
 40
0.6314754327791694
 40
0.7047518283405656
 40
0.7703596568274722
 40
0.8349648875164053
 40
0.8793423900549155
 40
0.9239026522255337
 40
0.9827739971305793
 40
1.0
 40
1.0
 40
1.0
 40
1.0
 10
85.43410561535077
 20
98.64668927454451
 30
0.0
 10
85.41797170726426
 20
98.75710680441435
 30
0.0
 10
85.3899537521877
 20
98.94885658846903
 30
0.0
 10
85.25724469299776
 20
99.20671963583544
 30
0.0
 10
85.05662503181807
 20
99.3916523277258
 30
0.0
 10
84.74542352636158
 20
99.51076189991997
 30
0.0
 10
84.38042004395682
 20
99.54462034034978
 30
0.0
 10
83.9866339734002
 20
99.4797651494072
 30
0.0
 10
83.63888432234775
 20
99.29446626985889
 30
0.0
 10
83.38779015425565
 20
99.00876978884482
 30
0.0
 10
83.24722005087301
 20
98.66612705048978
 30
0.0
 10
83.21826035928801
 20
98.32654932017631
 30
0.0
 10
83.29485749846485
 20
98.00286063076918
 30
0.0
 10
83.44031589143417
 20
97.75549130586974
 30
0.0
 10
83.6269049220277
 20
97.58875933465156
 30
0.0
 10
83.85129539131827
 20
97.49023784608995
 30
0.0
 10
84.0496942838029
 20
97.50271934336347
 30
0.0
 10
84.17210317740995
 20
97.50644378963975
 30
0.0
 10
84.19981263134198
 20
97.50728688501815
 30
0.0
  0
SPLINE
  5
B8
330
1F
100
AcDbEntity
  8
0
  6
Continuous
 62
     7
370
    15
100
AcDbSpline
210
0.0
220
0.0
230
1.0
 70
     8
 71
     3
 72
    13
 73
     9
 74
     0
 42
0.00000001
 43
0.00000001
 12
1.0
 22
0.0
 32
0.0
 13
1.0
 23
0.0
 33
0.0
 40
0.0
 40
0.0
 40
0.0
 40
0.0
 40
0.0089886791501883
 40
0.7481696422058342
 40
0.9062215421771276
 40
0.953394359994593
 40
0.9790611785046797
 40
1.0
 40
1.0
 40
1.0
 40
1.0
 10
84.19981263134198
 20
97.50728688501815
 30
0.0
 10
84.19913709711366
 20
97.50712810257406
 30
0.0
 10
84.14290923611176
 20
97.49391190002638
 30
0.0
 10
84.07517878622248
 20
97.4737933499345
 30
0.0
 10
84.00743205716873
 20
97.45508040081602
 30
0.0
 10
83.99370182880858
 20
97.45149347899378
 30
0.0
 10
83.98948305469364
 20
97.4503409385789
 30
0.0
 10
83.9890201576344
 20
97.45023377942091
 30
0.0
 10
83.9888121888371
 20
97.45018563532332
 30
0.0
  0
SPLINE
  5
B9
330
1F
100
AcDbEntity
  8
0
  6
Continuous
 62
     7
370
    15
100
AcDbSpline
210
0.0
220
0.0
230
1.0
 70
     8
 71
     3
 72
    22
 73
    18
 74
     0
 42
0.00000001
 43
0.00000001
 12
1.0
 22
0.0
 32
0.0
 13
1.0
 23
0.0
 33
0.0
 40
0.0
 40
0.0
 40
0.0
 40
0.0
 40
0.0262612869710613
 40
0.0788117495521701
 40
0.1539899803286461
 40
0.2194308828142996
 40
0.2870800664779045
 40
0.3533608707665623
 40
0.4091791546999308
 40
0.465327346908344
 40
0.5313632782377402
 40
0.6332303247647327
 40
0.734121920020763
 40
0.8136411154507661
 40
0.8766468683886897
 40
0.9396401238427348
 40
1.0
 40
1.0
 40
1.0
 40
1.0
 10
84.1998126313421
 20
97.50728688501836
 30
0.0
 10
84.17051726253518
 20
97.49141817014467
 30
0.0
 10
84.08260004537767
 20
97.44379517346074
 30
0.0
 10
83.9092290033546
 20
97.35357529445693
 30
0.0
 10
83.71346073043969
 20
97.20122368122003
 30
0.0
 10
83.556501228758
 20
96.98375737782355
 30
0.0
 10
83.48308282692437
 20
96.73594824261461
 30
0.0
 10
83.49800176710639
 20
96.49131198812717
 30
0.0
 10
83.57627947406363
 20
96.2761313436113
 30
0.0
 10
83.71948837507179
 20
96.09505823505965
 30
0.0
 10
83.97270550058441
 20
95.95332524950922
 30
0.0
 10
84.3151231826664
 20
95.89239469313287
 30
0.0
 10
84.67588826678904
 20
95.94186175503111
 30
0.0
 10
84.95857360762157
 20
96.08034193827092
 30
0.0
 10
85.1437810974762
 20
96.26975341695693
 30
0.0
 10
85.2467270692144
 20
96.48951672030587
 30
0.0
 10
85.25688006744555
 20
96.64669407338428
 30
0.0
 10
85.2618481919499
 20
96.72360501551131
 30
0.0
  0
SPLINE
  5
BA
330
1F
100
AcDbEntity
  8
0
  6
Continuous
 62
     7
370
    15
100
AcDbSpline
210
0.0
220
0.0
230
1.0
 70
     8
 71
     3
 72
    13
 73
     9
 74
     0
 42
0.00000001
 43
0.00000001
 12
1.0
 22
0.0
 32
0.0
 13
1.0
 23
0.0
 33
0.0
 40
0.0
 40
0.0
 40
0.0
 40
0.0
 40
0.0204041202621367
 40
0.1937476088888403
 40
0.4087501463012269
 40
0.6094685032728135
 40
0.8047332332655049
 40
1.0
 40
1.0
 40
1.0
 40
1.0
 10
85.2618481919499
 20
96.72360501551131
 30
0.0
 10
85.26236510384031
 20
96.72380291397714
 30
0.0
 10
85.26727344791415
 20
96.72568206162285
 30
0.0
 10
85.27743554543618
 20
96.7300937265702
 30
0.0
 10
85.2911111374832
 20
96.73585300062187
 30
0.0
 10
85.30250709185702
 20
96.74057218749427
 30
0.0
 10
85.31012318732343
 20
96.74397211278402
 30
0.0
 10
85.31111977426684
 20
96.74438127053148
 30
0.0
 10
85.31161807033735
 20
96.74458585047225
 30
0.0
  0
SPLINE
  5
BB
330
1F
100
AcDbEntity
  8
0
  6
Continuous
 62
     7
370
    15
100
AcDbSpline
210
0.0
220
0.0
230
1.0
 70
     8
 71
     3
 72
    22
 73
    18
 74
     0
 42
0.00000001
 43
0.00000001
 12
1.0
 22
0.0
 32
0.0
 13
1.0
 23
0.0
 33
0.0
 40
0.0
 40
0.0
 40
0.0
 40
0.0
 40
0.0000311698862634
 40
0.0689693421008603
 40
0.1360536069582101
 40
0.2029565349488053
 40
0.2864021103778894
 40
0.3911406937359115
 40
0.4972105904508616
 40
0.5672783334360336
 40
0.6277573774892257
 40
0.6870071336044361
 40
0.7572466603141919
 40
0.8291183960228168
 40
0.8981280244200187
 40
0.9373651082214454
 40
0.9999999999999999
 40
0.9999999999999999
 40
0.9999999999999999
 40
0.9999999999999999
 10
85.31161807033735
 20
96.74458585047225
 30
0.0
 10
85.31161807085516
 20
96.74454611410782
 30
0.0
 10
85.3116192165154
 20
96.65662179874829
 30
0.0
 10
85.29661942125041
 20
96.48127792720545
 30
0.0
 10
85.18633863775656
 20
96.24109628396144
 30
0.0
 10
84.98887747815628
 20
96.03959820552926
 30
0.0
 10
84.69166623170551
 20
95.89336164330992
 30
0.0
 10
84.31366615622157
 20
95.8414533321425
 30
0.0
 10
83.954190354348
 20
95.9058267833352
 30
0.0
 10
83.68578180621508
 20
96.05667924434286
 30
0.0
 10
83.53229925611846
 20
96.25065824809926
 30
0.0
 10
83.44824437599016
 20
96.48100621333717
 30
0.0
 10
83.43247931516603
 20
96.7418592395068
 30
0.0
 10
83.51040096255555
 20
97.00564843122356
 30
0.0
 10
83.64706075077763
 20
97.19442253478799
 30
0.0
 10
83.80811810388563
 20
97.34237513253436
 30
0.0
 10
83.92001412199842
 20
97.40913750594599
 30
0.0
 10
83.9888121888371
 20
97.45018563532332
 30
0.0
  0
SPLINE
  5
BC
330
1F
100
AcDbEntity
  8
0
  6
Continuous
 62
     7
370
    15
100
AcDbSpline
210
0.0
220
0.0
230
1.0
 70
     8
 71
     3
 72
    24
 73
    20
 74
     0
 42
0.00000001
 43
0.00000001
 12
1.0
 22
0.0
 32
0.0
 13
1.0
 23
0.0
 33
0.0
 40
0.0
 40
0.0
 40
0.0
 40
0.0
 40
0.0503131608896343
 40
0.1081943544950797
 40
0.1667089607286099
 40
0.2547455538869356
 40
0.3251137290279183
 40
0.3815349962335426
 40
0.4382090423190531
 40
0.4641629724037162
 40
0.5249172133326886
 40
0.5965383636068838
 40
0.666522941753298
 40
0.7348599018121341
 40
0.8056136133351264
 40
0.8584042200702481
 40
0.9109292149650214
 40
0.9582031513363095
 40
1.0
 40
1.0
 40
1.0
 40
1.0
 10
85.31161807033735
 20
98.59662137293319
 30
0.0
 10
85.29135458819634
 20
98.66311173806113
 30
0.0
 10
85.2477796203089
 20
98.80609385264044
 30
0.0
 10
85.12920474986748
 20
99.01002432754908
 30
0.0
 10
84.89694075897012
 20
99.17934774651476
 30
0.0
 10
84.61252873891942
 20
99.28912410588592
 30
0.0
 10
84.31029945574883
 20
99.29884388667459
 30
0.0
 10
84.06326102066517
 20
99.22316505601908
 30
0.0
 10
83.90878343980343
 20
99.1023807916424
 30
0.0
 10
83.7801054663255
 20
98.95155189058252
 30
0.0
 10
83.67268422833804
 20
98.75715555093694
 30
0.0
 10
83.61933088859982
 20
98.47704963968401
 30
0.0
 10
83.6648852015822
 20
98.18440508614395
 30
0.0
 10
83.80618822153937
 20
97.92688720095416
 30
0.0
 10
84.00308807466713
 20
97.74107602974496
 30
0.0
 10
84.23044260391696
 20
97.64244877423528
 30
0.0
 10
84.44616197418573
 20
97.63288301932488
 30
0.0
 10
84.63608042256351
 20
97.69555900175736
 30
0.0
 10
84.73574132969661
 20
97.76855365777875
 30
0.0
 10
84.7825076386662
 20
97.80280671381453
 30
0.0
  0
SPLINE
  5
BD
330
1F
100
AcDbEntity
  8
0
  6
Continuous
 62
     7
370
    15
100
AcDbSpline
210
0.0
220
0.0
230
1.0
 70
     8
 71
     3
 72
    13
 73
     9
 74
     0
 42
0.00000001
 43
0.00000001
 12
1.0
 22
0.0
 32
0.0
 13
1.0
 23
0.0
 33
0.0
 40
0.0
 40
0.0
 40
0.0
 40
0.0
 40
0.0643748043359697
 40
0.1440776073439181
 40
0.2714929772693052
 40
0.519960079154298
 40
0.9883574382884069
 40
1.0
 40
1.0
 40
1.0
 40
1.0
 10
84.7825076386662
 20
97.80280671381453
 30
0.0
 10
84.78237233883677
 20
97.80252870319755
 30
0.0
 10
84.78206952353648
 20
97.8019064860906
 30
0.0
 10
84.77914152230956
 20
97.7962290835887
 30
0.0
 10
84.77231661468385
 20
97.78281947069506
 30
0.0
 10
84.75681765523466
 20
97.75278756057232
 30
0.0
 10
84.74257180866293
 20
97.72482242388064
 30
0.0
 10
84.7327378478949
 20
97.70680341924958
 30
0.0
 10
84.73249934169965
 20
97.70636639856795
 30
0.0
  0
SPLINE
  5
BE
330
1F
100
AcDbEntity
  8
0
  6
Continuous
 62
     7
370
    15
100
AcDbSpline
210
0.0
220
0.0
230
1.0
 70
     8
 71
     3
 72
    24
 73
    20
 74
     0
 42
0.00000001
 43
0.00000001
 12
1.0
 22
0.0
 32
0.0
 13
1.0
 23
0.0
 33
0.0
 40
0.0
 40
0.0
 40
0.0
 40
0.0
 40
0.0195000923425035
 40
0.0694971584572902
 40
0.1249477543877506
 40
0.1801263847833807
 40
0.2531178055853364
 40
0.32335945904484
 40
0.3954753650411336
 40
0.469147282264738
 40
0.5315766010991917
 40
0.5582960240460667
 40
0.6171129407781353
 40
0.6759045509067184
 40
0.7481752605227033
 40
0.8378399372816321
 40
0.8982478233034339
 40
0.9586294308058604
 40
1.0
 40
1.0
 40
1.0
 40
1.0
 10
84.73249934169965
 20
97.70636639856795
 30
0.0
 10
84.70913592650928
 20
97.69143646512507
 30
0.0
 10
84.62587011734877
 20
97.63822707862462
 30
0.0
 10
84.45291859464896
 20
97.58264584408354
 30
0.0
 10
84.21965236579985
 20
97.59236638419372
 30
0.0
 10
83.97574231033397
 20
97.69811550257307
 30
0.0
 10
83.76610311171426
 20
97.8952924033451
 30
0.0
 10
83.61661969671472
 20
98.16813813365115
 30
0.0
 10
83.56828499873679
 20
98.47773360966822
 30
0.0
 10
83.62482814947755
 20
98.77405194226857
 30
0.0
 10
83.73825913183927
 20
98.97967270695601
 30
0.0
 10
83.87487013024794
 20
99.13967587965894
 30
0.0
 10
84.03988108430113
 20
99.26830147637172
 30
0.0
 10
84.30265025985791
 20
99.34929646331042
 30
0.0
 10
84.62188896572783
 20
99.33902284683732
 30
0.0
 10
84.92201643255213
 20
99.2238929255373
 30
0.0
 10
85.16696094486018
 20
99.04380560317189
 30
0.0
 10
85.28672783652111
 20
98.84037512783944
 30
0.0
 10
85.33056908745858
 20
98.70267544184314
 30
0.0
 10
85.34839413616376
 20
98.64668927454451
 30
0.0
  0
SPLINE
  5
BF
330
1F
100
AcDbEntity
  8
0
  6
Continuous
 62
     7
370
    15
100
AcDbSpline
210
0.0
220
0.0
230
1.0
 70
     8
 71
     3
 72
    13
 73
     9
 74
     0
 42
0.00000001
 43
0.00000001
 12
1.0
 22
0.0
 32
0.0
 13
1.0
 23
0.0
 33
0.0
 40
0.0
 40
0.0
 40
0.0
 40
0.0
 40
0.164164770995094
 40
0.3272894114352791
 40
0.502788220479994
 40
0.7101611767922359
 40
0.9830596161831842
 40
1.0
 40
1.0
 40
1.0
 40
1.0
 10
85.31161807033735
 20
98.59662137293319
 30
0.0
 10
85.31191118780454
 20
98.59708119716254
 30
0.0
 10
85.31249556557727
 20
98.59799793222373
 30
0.0
 10
85.3171226238337
 20
98.60408523586622
 30
0.0
 10
85.3240355738125
 20
98.61371501547417
 30
0.0
 10
85.334495509629
 20
98.62753922611839
 30
0.0
 10
85.34299408377963
 20
98.6394968819217
 30
0.0
 10
85.34809594463741
 20
98.64629210977965
 30
0.0
 10
85.34839413616376
 20
98.64668927454451
 30
0.0
  0
LINE
  5
C0
330
1F
100
AcDbEntity
  8
0
  6
Continuous
 62
     7
370
    15
100
AcDbLine
 10
84.7825076387
 20
97.8028067138
 30
0.0
 11
84.7825076387
 21
97.5384005096
 31
0.0
  0
SPLINE
  5
C1
330
1F
100
AcDbEntity
  8
0
  6
Continuous
 62
     7
370
    15
100
AcDbSpline
210
0.0
220
0.0
230
1.0
 70
     8
 71
     3
 72
    13
 73
     9
 74
     0
 42
0.00000001
 43
0.00000001
 12
1.0
 22
0.0
 32
0.0
 13
1.0
 23
0.0
 33
0.0
 40
0.0
 40
0.0
 40
0.0
 40
0.0
 40
0.1306889190831637
 40
0.2609290228498902
 40
0.4531420510583173
 40
0.7342829561695702
 40
0.9853888917423218
 40
1.0
 40
1.0
 40
1.0
 40
1.0
 10
84.7825076386662
 20
97.5384005095909
 30
0.0
 10
84.78218125610334
 20
97.53875973585919
 30
0.0
 10
84.78152961184924
 20
97.53947695473192
 30
0.0
 10
84.7760353661193
 20
97.54564085914924
 30
0.0
 10
84.7659677106459
 20
97.55704528764059
 30
0.0
 10
84.75090140273508
 20
97.57371090836602
 30
0.0
 10
84.73859447952844
 20
97.58672946776053
 30
0.0
 10
84.73281702908861
 20
97.59323659991209
 30
0.0
 10
84.73249934169976
 20
97.59359441065313
 30
0.0
  0
LINE
  5
C2
330
1F
100
AcDbEntity
  8
0
  6
Continuous
 62
     7
370
    15
100
AcDbLine
 10
84.7324993417
 20
97.5935944107
 30
0.0
 11
84.7324993417
 21
97.7063663986
 31
0.0
  0
SPLINE
  5
C3
330
1F
100
AcDbEntity
  8
0
  6
Continuous
 62
     7
370
    15
100
AcDbSpline
210
0.0
220
0.0
230
1.0
 70
     8
 71
     3
 72
    22
 73
    18
 74
     0
 42
0.00000001
 43
0.00000001
 12
1.0
 22
0.0
 32
0.0
 13
1.0
 23
0.0
 33
0.0
 40
0.0
 40
0.0
 40
0.0
 40
0.0
 40
0.0149720757216069
 40
0.101360626241629
 40
0.1804780625512199
 40
0.2482119620496736
 40
0.3184826892884032
 40
0.3893634982950881
 40
0.4534023888485333
 40
0.5177117887894709
 40
0.5809819728915744
 40
0.6544330396791098
 40
0.719065731377049
 40
0.7955585408339002
 40
0.87141153852488
 40
0.9737496734569436
 40
1.0
 40
1.0
 40
1.0
 40
1.0
 10
85.25111935589032
 20
96.73421464228133
 30
0.0
 10
85.24558799121849
 20
96.71792565582254
 30
0.0
 10
85.20814077297476
 20
96.6076495725991
 30
0.0
 10
85.08991678757558
 20
96.43003161253655
 30
0.0
 10
84.87683814271193
 20
96.26196457875075
 30
0.0
 10
84.64201196106377
 20
96.16825586220517
 30
0.0
 10
84.39740383023717
 20
96.15332107911628
 30
0.0
 10
84.16795463805634
 20
96.22571710071831
 30
0.0
 10
83.97796941422261
 20
96.358728341632
 30
0.0
 10
83.8433491749708
 20
96.53907722938764
 30
0.0
 10
83.78185196620643
 20
96.76652464602824
 30
0.0
 10
83.7968927965653
 20
97.00137996893015
 30
0.0
 10
83.88389731393328
 20
97.23566574118853
 30
0.0
 10
84.05264400441345
 20
97.42901485127969
 30
0.0
 10
84.31819620829714
 20
97.56253482021665
 30
0.0
 10
84.55482113621946
 20
97.60180192697105
 30
0.0
 10
84.70237697395741
 20
97.59498585775866
 30
0.0
 10
84.73249934169965
 20
97.59359441065291
 30
0.0
  0
SPLINE
  5
C4
330
1F
100
AcDbEntity
  8
0
  6
Continuous
 62
     7
370
    15
100
AcDbSpline
210
0.0
220
0.0
230
1.0
 70
     8
 71
     3
 72
    23
 73
    19
 74
     0
 42
0.00000001
 43
0.00000001
 12
1.0
 22
0.0
 32
0.0
 13
1.0
 23
0.0
 33
0.0
 40
0.0
 40
0.0
 40
0.0
 40
0.0
 40
0.0000177249245644
 40
0.0417056019960673
 40
0.1417302912893797
 40
0.2147562598784857
 40
0.2872424640361886
 40
0.3491088217611787
 40
0.4194491302575908
 40
0.4792749598558359
 40
0.5400155764209693
 40
0.6011198598526201
 40
0.6687253245972682
 40
0.7355771798187292
 40
0.800740137965005
 40
0.8772188331257117
 40
0.960255027319294
 40
0.9999999999999999
 40
0.9999999999999999
 40
0.9999999999999999
 40
0.9999999999999999
 10
84.7825076386662
 20
97.5384005095909
 30
0.0
 10
84.78248777043892
 20
97.53840050921053
 30
0.0
 10
84.73573911542707
 20
97.53839961369354
 30
0.0
 10
84.5775713564437
 20
97.55987673402483
 30
0.0
 10
84.3348186463658
 20
97.51309604112429
 30
0.0
 10
84.08484942692427
 20
97.38954177460884
 30
0.0
 10
83.92734846989033
 20
97.20896117669659
 30
0.0
 10
83.84660766075966
 20
96.99085598963015
 30
0.0
 10
83.83242613256145
 20
96.77231906228195
 30
0.0
 10
83.8892007460543
 20
96.5614889510848
 30
0.0
 10
84.01390817523067
 20
96.39474802724529
 30
0.0
 10
84.19025392524001
 20
96.2714748735975
 30
0.0
 10
84.40358818526848
 20
96.2039008784174
 30
0.0
 10
84.63164821576338
 20
96.21807672549937
 30
0.0
 10
84.85172231122237
 20
96.30605959821543
 30
0.0
 10
85.05142802517004
 20
96.46402130129722
 30
0.0
 10
85.18126770026387
 20
96.65478471585337
 30
0.0
 10
85.2130091093711
 20
96.78917772301826
 30
0.0
 10
85.22328398678022
 20
96.83268151545028
 30
0.0
  0
SPLINE
  5
C5
330
1F
100
AcDbEntity
  8
0
  6
Continuous
 62
     7
370
    15
100
AcDbSpline
210
0.0
220
0.0
230
1.0
 70
     8
 71
     3
 72
    13
 73
     9
 74
     0
 42
0.00000001
 43
0.00000001
 12
1.0
 22
0.0
 32
0.0
 13
1.0
 23
0.0
 33
0.0
 40
0.0
 40
0.0
 40
0.0
 40
0.0
 40
0.0130064143521297
 40
0.4414406875122632
 40
0.7089153372482123
 40
0.8463847273494407
 40
0.9317201310352848
 40
1.0
 40
1.0
 40
1.0
 40
1.0
 10
85.25111935589044
 20
96.73421464228154
 30
0.0
 10
85.25100038622355
 20
96.73473125378756
 30
0.0
 10
85.24696252843341
 20
96.7522651668446
 30
0.0
 10
85.23914823563447
 20
96.78021267017684
 30
0.0
 10
85.23026499101124
 20
96.81077333783512
 30
0.0
 10
85.22555625700143
 20
96.82537377543026
 30
0.0
 10
85.22363572811417
 20
96.83170133316493
 30
0.0
 10
85.22339222192241
 20
96.83237990128463
 30
0.0
 10
85.22328398678022
 20
96.83268151545028
 30
0.0
  0
LINE
  5
C6
330
1F
100
AcDbEntity
  8
0
  6
Continuous
 62
     7
370
    15
100
AcDbLine
 10
85.2618481919
 20
96.7236050155
 30
0.0
 11
85.2511193559
 21
96.7342146423
 31
0.0
  0
LINE
  5
C7
330
1F
100
AcDbEntity
  8
0
  6
Continuous
 62
     7
370
    15
100
AcDbLine
 10
85.2232839868
 20
96.8326815155
 30
0.0
 11
85.3116180703
 21
96.7445858505
 31
0.0
  0
LINE
  5
C8
330
1F
100
AcDbEntity
  8
0
  6
Continuous
 62
     7
370
    15
100
AcDbLine
 10
85.4881074235
 20
98.5966213729
 30
0.0
 11
85.3116180703
 21
98.5966213729
 31
0.0
  0
LINE
  5
C9
330
1F
100
AcDbEntity
  8
0
  6
Continuous
 62
     7
370
    15
100
AcDbLine
 10
85.3483941362
 20
98.6466892745
 30
0.0
 11
85.4341056154
 21
98.6466892745
 31
0.0
  0
LINE
  5
CA
330
1F
100
AcDbEntity
  8
0
  6
Continuous
 62
     7
370
    15
100
AcDbLine
 10
84.3963291452
 20
153.0426033523
 30
0.0
 11
84.1404464051
 21
153.0356892135
 31
0.0
  0
LINE
  5
CB
330
1F
100
AcDbEntity
  8
0
  6
Continuous
 62
     7
370
    15
100
AcDbLine
 10
84.1404464051
 20
153.0356892135
 30
0.0
 11
84.130909662
 21
153.0853994873
 31
0.0
  0
LINE
  5
CC
330
1F
100
AcDbEntity
  8
0
  6
Continuous
 62
     7
370
    15
100
AcDbLine
 10
84.130909662
 20
153.0853994873
 30
0.0
 11
84.4045545861
 21
153.0929096725
 31
0.0
  0
LINE
  5
CD
330
1F
100
AcDbEntity
  8
0
  6
Continuous
 62
     7
370
    15
100
AcDbLine
 10
84.3963291452
 20
153.0426033523
 30
0.0
 11
84.4045545861
 21
153.0929096725
 31
0.0
  0
LINE
  5
CE
330
1F
100
AcDbEntity
  8
0
  6
Continuous
 62
     7
370
    15
100
AcDbLine
 10
83.6357738778
 20
152.8373249557
 30
0.0
 11
83.8615562722
 21
152.9860981491
 31
0.0
  0
ARC
  5
CF
330
1F
100
AcDbEntity
  8
0
  6
Continuous
 62
     7
370
    15
100
AcDbCircle
 10
87.2908967862
 20
154.6907526634
 30
0.0
 40
3.829650555083338
100
AcDbArc
 50
206.4310242586
 51
207.184375603
  0
LINE
  5
D0
330
1F
100
AcDbEntity
  8
0
  6
Continuous
 62
     7
370
    15
100
AcDbLine
 10
83.8842656419
 20
152.9411562469
 30
0.0
 11
83.6705829904
 21
152.8003700759
 31
0.0
  0
ARC
  5
D1
330
1F
100
AcDbEntity
  8
0
  6
Continuous
 62
     7
370
    15
100
AcDbCircle
 10
87.766290769
 20
156.6931339732
 30
0.0
 40
5.650525016937447
100
AcDbArc
 50
223.0299578571
 51
223.5447369895
  0
LINE
  5
D2
330
1F
100
AcDbEntity
  8
0
  6
Continuous
 62
     7
370
    15
100
AcDbLine
 10
84.1404464051
 20
153.0356892135
 30
0.0
 11
83.8842656419
 21
152.9411562469
 31
0.0
  0
LINE
  5
D3
330
1F
100
AcDbEntity
  8
0
  6
Continuous
 62
     7
370
    15
100
AcDbLine
 10
83.8615562722
 20
152.9860981491
 30
0.0
 11
84.130909662
 21
153.0853994873
 31
0.0
  0
LINE
  5
D4
330
1F
100
AcDbEntity
  8
0
  6
Continuous
 62
     7
370
    15
100
AcDbLine
 10
83.551850538
 20
150.470543721
 30
0.0
 11
83.4976699159
 21
151.2718685653
 31
0.0
  0
ARC
  5
D5
330
1F
100
AcDbEntity
  8
0
  6
Continuous
 62
     7
370
    15
100
AcDbCircle
 10
83.5768873768
 20
145.5791984567
 30
0.0
 40
5.693221264902897
100
AcDbArc
 50
90.2927584931
 51
90.7972591321
  0
LINE
  5
D6
330
1F
100
AcDbEntity
  8
0
  6
Continuous
 62
     7
370
    15
100
AcDbLine
 10
83.5477974221
 20
151.2723454025
 30
0.0
 11
83.6013223932
 21
150.4798420455
 31
0.0
  0
ARC
  5
D7
330
1F
100
AcDbEntity
  8
0
  6
Continuous
 62
     7
370
    15
100
AcDbCircle
 10
83.5081237179
 20
150.8394498097
 30
0.0
 40
0.3714885423584355
100
AcDbArc
 50
276.7597882607
 51
284.5295331522
  0
LINE
  5
D8
330
1F
100
AcDbEntity
  8
0
  6
Continuous
 62
     7
370
    15
100
AcDbLine
 10
83.4976699159
 20
151.2718685653
 30
0.0
 11
83.5294391916
 21
151.9011744049
 31
0.0
  0
ARC
  5
D9
330
1F
100
AcDbEntity
  8
0
  6
Continuous
 62
     7
370
    15
100
AcDbCircle
 10
82.1361198693
 20
140.0561885898
 30
0.0
 40
11.92665199007724
100
AcDbArc
 50
83.0503538037
 51
83.2911575899
  0
LINE
  5
DA
330
1F
100
AcDbEntity
  8
0
  6
Continuous
 62
     7
370
    15
100
AcDbLine
 10
83.5792090699
 20
151.8952139404
 30
0.0
 11
83.5477974221
 21
151.2723454025
 31
0.0
  0
LINE
  5
DB
330
1F
100
AcDbEntity
  8
0
  6
Continuous
 62
     7
370
    15
100
AcDbLine
 10
83.6547281549
 20
152.2963531997
 30
0.0
 11
83.5792090699
 21
151.8952139404
 31
0.0
  0
LINE
  5
DC
330
1F
100
AcDbEntity
  8
0
  6
Continuous
 62
     7
370
    15
100
AcDbLine
 10
83.5294391916
 20
151.9011744049
 30
0.0
 11
83.6066272065
 21
152.3110159423
 31
0.0
  0
ARC
  5
DD
330
1F
100
AcDbEntity
  8
0
  6
Continuous
 62
     7
370
    15
100
AcDbCircle
 10
90.1831283748
 20
173.7989191651
 30
0.0
 40
22.47176789947916
100
AcDbArc
 50
252.9829568059
 51
253.1111703487
  0
LINE
  5
DE
330
1F
100
AcDbEntity
  8
0
  6
Continuous
 62
     7
370
    15
100
AcDbLine
 10
84.9637057588
 20
150.5742558029
 30
0.0
 11
84.8360922143
 21
150.0467546966
 31
0.0
  0
ARC
  5
DF
330
1F
100
AcDbEntity
  8
0
  6
Continuous
 62
     7
370
    15
100
AcDbCircle
 10
86.0934288035
 20
153.2218869127
 30
0.0
 40
3.415019749363077
100
AcDbArc
 50
247.5487624206
 51
248.3966802411
  0
LINE
  5
E0
330
1F
100
AcDbEntity
  8
0
  6
Continuous
 62
     7
370
    15
100
AcDbLine
 10
84.7892429635
 20
150.0657089736
 30
0.0
 11
84.9139358804
 21
150.5814083602
 31
0.0
  0
ARC
  5
E1
330
1F
100
AcDbEntity
  8
0
  6
Continuous
 62
     7
370
    15
100
AcDbCircle
 10
83.6826886937
 20
141.8372460391
 30
0.0
 40
8.830421526305656
100
AcDbArc
 50
81.6587471584
 51
81.9849948791
  0
LINE
  5
E2
330
1F
100
AcDbEntity
  8
0
  6
Continuous
 62
     7
370
    15
100
AcDbLine
 10
83.7510492608
 20
149.8421915557
 30
0.0
 11
83.551850538
 21
150.470543721
 31
0.0
  0
LINE
  5
E3
330
1F
100
AcDbEntity
  8
0
  6
Continuous
 62
     7
370
    15
100
AcDbLine
 10
83.9327242181
 20
149.6408470657
 30
0.0
 11
83.7510492608
 21
149.8421915557
 31
0.0
  0
LINE
  5
E4
330
1F
100
AcDbEntity
  8
0
  6
Continuous
 62
     7
370
    15
100
AcDbLine
 10
84.1771032617
 20
149.5337971237
 30
0.0
 11
83.9327242181
 21
149.6408470657
 31
0.0
  0
LINE
  5
E5
330
1F
100
AcDbEntity
  8
0
  6
Continuous
 62
     7
370
    15
100
AcDbLine
 10
84.4132568643
 20
149.538446286
 30
0.0
 11
84.1771032617
 21
149.5337971237
 31
0.0
  0
LINE
  5
E6
330
1F
100
AcDbEntity
  8
0
  6
Continuous
 62
     7
370
    15
100
AcDbLine
 10
84.6108462617
 20
149.6609934356
 30
0.0
 11
84.4132568643
 21
149.538446286
 31
0.0
  0
LINE
  5
E7
330
1F
100
AcDbEntity
  8
0
  6
Continuous
 62
     7
370
    15
100
AcDbLine
 10
84.8360922143
 20
150.0467546966
 30
0.0
 11
84.6108462617
 21
149.6609934356
 31
0.0
  0
LINE
  5
E8
330
1F
100
AcDbEntity
  8
0
  6
Continuous
 62
     7
370
    15
100
AcDbLine
 10
85.0023295686
 20
151.4549740341
 30
0.0
 11
84.9637057588
 21
150.5742558029
 31
0.0
  0
LINE
  5
E9
330
1F
100
AcDbEntity
  8
0
  6
Continuous
 62
     7
370
    15
100
AcDbLine
 10
84.8238136575
 20
152.3561962631
 30
0.0
 11
85.0023295686
 21
151.4549740341
 31
0.0
  0
LINE
  5
EA
330
1F
100
AcDbEntity
  8
0
  6
Continuous
 62
     7
370
    15
100
AcDbLine
 10
84.6956040666
 20
152.6178606536
 30
0.0
 11
84.8238136575
 21
152.3561962631
 31
0.0
  0
LINE
  5
EB
330
1F
100
AcDbEntity
  8
0
  6
Continuous
 62
     7
370
    15
100
AcDbLine
 10
84.5251347825
 20
152.8293379333
 30
0.0
 11
84.6956040666
 21
152.6178606536
 31
0.0
  0
LINE
  5
EC
330
1F
100
AcDbEntity
  8
0
  6
Continuous
 62
     7
370
    15
100
AcDbLine
 10
84.3437578485
 20
152.9286392715
 30
0.0
 11
84.5251347825
 21
152.8293379333
 31
0.0
  0
LINE
  5
ED
330
1F
100
AcDbEntity
  8
0
  6
Continuous
 62
     7
370
    15
100
AcDbLine
 10
84.1371681497
 20
152.932573178
 30
0.0
 11
84.3437578485
 21
152.9286392715
 31
0.0
  0
LINE
  5
EE
330
1F
100
AcDbEntity
  8
0
  6
Continuous
 62
     7
370
    15
100
AcDbLine
 10
83.9378502176
 20
152.8498419311
 30
0.0
 11
84.1371681497
 21
152.932573178
 31
0.0
  0
LINE
  5
EF
330
1F
100
AcDbEntity
  8
0
  6
Continuous
 62
     7
370
    15
100
AcDbLine
 10
83.7704207704
 20
152.6902206924
 30
0.0
 11
83.9378502176
 21
152.8498419311
 31
0.0
  0
LINE
  5
F0
330
1F
100
AcDbEntity
  8
0
  6
Continuous
 62
     7
370
    15
100
AcDbLine
 10
83.6066272065
 20
152.3110159423
 30
0.0
 11
83.7704207704
 21
152.6902206924
 31
0.0
  0
LINE
  5
F1
330
1F
100
AcDbEntity
  8
0
  6
Continuous
 62
     7
370
    15
100
AcDbLine
 10
84.6334960267
 20
152.9553421524
 30
0.0
 11
84.3963291452
 21
153.0426033523
 31
0.0
  0
LINE
  5
F2
330
1F
100
AcDbEntity
  8
0
  6
Continuous
 62
     7
370
    15
100
AcDbLine
 10
84.9482681558
 20
152.6765116241
 30
0.0
 11
84.6334960267
 21
152.9553421524
 31
0.0
  0
LINE
  5
F3
330
1F
100
AcDbEntity
  8
0
  6
Continuous
 62
     7
370
    15
100
AcDbLine
 10
85.1766731546
 20
152.2789486434
 30
0.0
 11
84.9482681558
 21
152.6765116241
 31
0.0
  0
LINE
  5
F4
330
1F
100
AcDbEntity
  8
0
  6
Continuous
 62
     7
370
    15
100
AcDbLine
 10
85.3415992067
 20
151.2955912139
 30
0.0
 11
85.1766731546
 21
152.2789486434
 31
0.0
  0
LINE
  5
F5
330
1F
100
AcDbEntity
  8
0
  6
Continuous
 62
     7
370
    15
100
AcDbLine
 10
85.2484967515
 20
150.626588681
 30
0.0
 11
85.3415992067
 21
151.2955912139
 31
0.0
  0
LINE
  5
F6
330
1F
100
AcDbEntity
  8
0
  6
Continuous
 62
     7
370
    15
100
AcDbLine
 10
85.0121047303
 20
150.0410326507
 30
0.0
 11
85.2484967515
 21
150.626588681
 31
0.0
  0
LINE
  5
F7
330
1F
100
AcDbEntity
  8
0
  6
Continuous
 62
     7
370
    15
100
AcDbLine
 10
84.6508409784
 20
149.6215351608
 30
0.0
 11
85.0121047303
 21
150.0410326507
 31
0.0
  0
LINE
  5
F8
330
1F
100
AcDbEntity
  8
0
  6
Continuous
 62
     7
370
    15
100
AcDbLine
 10
84.4348933503
 20
149.5014914062
 30
0.0
 11
84.6508409784
 21
149.6215351608
 31
0.0
  0
LINE
  5
F9
330
1F
100
AcDbEntity
  8
0
  6
Continuous
 62
     7
370
    15
100
AcDbLine
 10
84.1929580972
 20
149.449516156
 30
0.0
 11
84.4348933503
 21
149.5014914062
 31
0.0
  0
LINE
  5
FA
330
1F
100
AcDbEntity
  8
0
  6
Continuous
 62
     7
370
    15
100
AcDbLine
 10
83.9337971017
 20
149.4756229904
 30
0.0
 11
84.1929580972
 21
149.449516156
 31
0.0
  0
LINE
  5
FB
330
1F
100
AcDbEntity
  8
0
  6
Continuous
 62
     7
370
    15
100
AcDbLine
 10
83.6982991502
 20
149.589110234
 30
0.0
 11
83.9337971017
 21
149.4756229904
 31
0.0
  0
LINE
  5
FC
330
1F
100
AcDbEntity
  8
0
  6
Continuous
 62
     7
370
    15
100
AcDbLine
 10
83.4652449891
 20
149.872351506
 30
0.0
 11
83.6982991502
 21
149.589110234
 31
0.0
  0
LINE
  5
FD
330
1F
100
AcDbEntity
  8
0
  6
Continuous
 62
     7
370
    15
100
AcDbLine
 10
83.3030607507
 20
150.2333172347
 30
0.0
 11
83.4652449891
 21
149.872351506
 31
0.0
  0
LINE
  5
FE
330
1F
100
AcDbEntity
  8
0
  6
Continuous
 62
     7
370
    15
100
AcDbLine
 10
83.1538703248
 20
151.3035782363
 30
0.0
 11
83.3030607507
 21
150.2333172347
 31
0.0
  0
LINE
  5
FF
330
1F
100
AcDbEntity
  8
0
  6
Continuous
 62
     7
370
    15
100
AcDbLine
 10
83.227005224
 20
151.9215591934
 30
0.0
 11
83.1538703248
 21
151.3035782363
 31
0.0
  0
LINE
  5
100
330
1F
100
AcDbEntity
  8
0
  6
Continuous
 62
     7
370
    15
100
AcDbLine
 10
83.4003951356
 20
152.4398811843
 30
0.0
 11
83.227005224
 21
151.9215591934
 31
0.0
  0
LINE
  5
101
330
1F
100
AcDbEntity
  8
0
  6
Continuous
 62
     7
370
    15
100
AcDbLine
 10
83.6705829904
 20
152.8003700759
 30
0.0
 11
83.4003951356
 21
152.4398811843
 31
0.0
  0
ARC
  5
102
330
1F
100
AcDbEntity
  8
0
  6
Continuous
 62
     7
370
    15
100
AcDbCircle
 10
74.0002516145
 20
145.5483806402
 30
0.0
 40
11.15835260612028
100
AcDbArc
 50
20.4899488594
 51
20.7489371673
  0
LINE
  5
103
330
1F
100
AcDbEntity
  8
0
  6
Continuous
 62
     7
370
    15
100
AcDbLine
 10
84.4526555345
 20
149.4542845275
 30
0.0
 11
84.1957595155
 21
149.3989714172
 31
0.0
  0
ARC
  5
104
330
1F
100
AcDbEntity
  8
0
  6
Continuous
 62
     7
370
    15
100
AcDbCircle
 10
116.0231731325
 20
151.188340807
 30
0.0
 40
31.87767401109849
100
AcDbArc
 50
183.1268524935
 51
183.2178392192
  0
ARC
  5
105
330
1F
100
AcDbEntity
  8
0
  6
Continuous
 62
     7
370
    15
100
AcDbCircle
 10
82.5187329264
 20
147.8508046654
 30
0.0
 40
2.771528681529168
100
AcDbArc
 50
38.6606339502
 51
39.7098661472
  0
LINE
  5
106
330
1F
100
AcDbEntity
  8
0
  6
Continuous
 62
     7
370
    15
100
AcDbLine
 10
84.6829082772
 20
149.5821960952
 30
0.0
 11
84.4526555345
 21
149.4542845275
 31
0.0
  0
ARC
  5
107
330
1F
100
AcDbEntity
  8
0
  6
Continuous
 62
     7
370
    15
100
AcDbCircle
 10
90.9199846657
 20
159.7094829232
 30
0.0
 40
11.33057703751055
100
AcDbArc
 50
238.573098588
 51
238.8295400591
  0
LINE
  5
108
330
1F
100
AcDbEntity
  8
0
  6
Continuous
 62
     7
370
    15
100
AcDbLine
 10
85.0554373071
 20
150.0146873977
 30
0.0
 11
84.6829082772
 21
149.5821960952
 31
0.0
  0
LINE
  5
109
330
1F
100
AcDbEntity
  8
0
  6
Continuous
 62
     7
370
    15
100
AcDbLine
 10
83.9200284288
 20
149.4268663909
 30
0.0
 11
83.6667086885
 21
149.5488174941
 31
0.0
  0
ARC
  5
10A
330
1F
100
AcDbEntity
  8
0
  6
Continuous
 62
     7
370
    15
100
AcDbCircle
 10
79.1783903839
 20
153.1002954821
 30
0.0
 40
5.723460238498659
100
AcDbArc
 50
321.6464384801
 51
322.1589896238
  0
ARC
  5
10B
330
1F
100
AcDbEntity
  8
0
  6
Continuous
 62
     7
370
    15
100
AcDbCircle
 10
60.5457951943
 20
156.0539808262
 30
0.0
 40
24.29554331640477
100
AcDbArc
 50
344.1707885177
 51
344.2902672531
  0
LINE
  5
10C
330
1F
100
AcDbEntity
  8
0
  6
Continuous
 62
     7
370
    15
100
AcDbLine
 10
84.9139358804
 20
150.5814083602
 30
0.0
 11
84.9520828531
 21
151.4511593368
 31
0.0
  0
ARC
  5
10D
330
1F
100
AcDbEntity
  8
0
  6
Continuous
 62
     7
370
    15
100
AcDbCircle
 10
85.0288407727
 20
150.7729426913
 30
0.0
 40
0.6825464060376222
100
AcDbArc
 50
92.2260205145
 51
96.457037775
  0
LINE
  5
10E
330
1F
100
AcDbEntity
  8
0
  6
Continuous
 62
     7
370
    15
100
AcDbLine
 10
83.2545425698
 20
150.2193697479
 30
0.0
 11
83.1034447953
 21
151.3029821899
 31
0.0
  0
ARC
  5
10F
330
1F
100
AcDbEntity
  8
0
  6
Continuous
 62
     7
370
    15
100
AcDbCircle
 10
83.1445339826
 20
149.960134868
 30
0.0
 40
1.343475809662644
100
AcDbArc
 50
89.6018258704
 51
91.7526212047
  0
ARC
  5
110
330
1F
100
AcDbEntity
  8
0
  6
Continuous
 62
     7
370
    15
100
AcDbCircle
 10
77.7751274115
 20
169.3716034848
 30
0.0
 40
19.92064375439001
100
AcDbArc
 50
285.9657181031
 51
286.1109177768
  0
LINE
  5
111
330
1F
100
AcDbEntity
  8
0
  6
Continuous
 62
     7
370
    15
100
AcDbLine
 10
83.1034447953
 20
151.3029821899
 30
0.0
 11
83.1779506013
 21
151.932526448
 31
0.0
  0
ARC
  5
112
330
1F
100
AcDbEntity
  8
0
  6
Continuous
 62
     7
370
    15
100
AcDbCircle
 10
84.0813072293
 20
155.8578935142
 30
0.0
 40
4.027972169907724
100
AcDbArc
 50
257.0399964334
 51
257.7550035877
  0
LINE
  5
113
330
1F
100
AcDbEntity
  8
0
  6
Continuous
 62
     7
370
    15
100
AcDbLine
 10
83.1779506013
 20
151.932526448
 30
0.0
 11
83.3555724427
 21
152.4634846237
 31
0.0
  0
ARC
  5
114
330
1F
100
AcDbEntity
  8
0
  6
Continuous
 62
     7
370
    15
100
AcDbCircle
 10
83.7960037802
 20
153.2454986445
 30
0.0
 40
0.8975108310356296
100
AcDbArc
 50
240.6117305981
 51
243.8460694893
  0
LINE
  5
115
330
1F
100
AcDbEntity
  8
0
  6
Continuous
 62
     7
370
    15
100
AcDbLine
 10
84.4045545861
 20
153.0929096725
 30
0.0
 11
84.6596028611
 21
152.9989727523
 31
0.0
  0
LWPOLYLINE
  5
116
330
1F
100
AcDbEntity
  8
0
  6
Continuous
 62
     7
370
    15
100
AcDbPolyline
 90
        9
 70
   128
 43
0.0
 10
84.6334960267
 20
152.9553421524
 10
84.6386220262
 20
152.9638060119
 10
84.643509607
 20
152.9720314529
 10
84.6479799554
 20
152.9795416381
 10
84.6519734666
 20
152.9862173583
 10
84.6551921174
 20
152.9915817764
 10
84.6576359079
 20
152.9956348922
 10
84.659126024
 20
152.9981382873
 10
84.6596028611
 20
152.9989727523
  0
LINE
  5
117
330
1F
100
AcDbEntity
  8
0
  6
Continuous
 62
     7
370
    15
100
AcDbLine
 10
83.3555724427
 20
152.4634846237
 30
0.0
 11
83.6357738778
 21
152.8373249557
 31
0.0
  0
LINE
  5
118
330
1F
100
AcDbEntity
  8
0
  6
Continuous
 62
     7
370
    15
100
AcDbLine
 10
84.3305256173
 20
152.8789289978
 30
0.0
 11
84.1467048928
 21
152.8823860671
 31
0.0
  0
ARC
  5
119
330
1F
100
AcDbEntity
  8
0
  6
Continuous
 62
     7
370
    15
100
AcDbCircle
 10
77.3560733121
 20
151.6180044285
 30
0.0
 40
6.907339443953403
100
AcDbArc
 50
10.5474065672
 51
10.9711546513
  0
ARC
  5
11A
330
1F
100
AcDbEntity
  8
0
  6
Continuous
 62
     7
370
    15
100
AcDbCircle
 10
73.4503381594
 20
155.8017102657
 30
0.0
 40
11.26592781175884
100
AcDbArc
 50
344.9634324692
 51
345.2250504837
  0
ARC
  5
11B
330
1F
100
AcDbEntity
  8
0
  6
Continuous
 62
     7
370
    15
100
AcDbCircle
 10
104.2215037971
 20
114.3093359294
 30
0.0
 40
41.00760097692795
100
AcDbArc
 50
119.8747351556
 51
119.946215993
  0
LINE
  5
11C
330
1F
100
AcDbEntity
  8
0
  6
Continuous
 62
     7
370
    15
100
AcDbLine
 10
83.7953951165
 20
149.8677023437
 30
0.0
 11
83.9626457498
 21
149.6823318984
 31
0.0
  0
ARC
  5
11D
330
1F
100
AcDbEntity
  8
0
  6
Continuous
 62
     7
370
    15
100
AcDbCircle
 10
61.9642560607
 20
165.5174534468
 30
0.0
 40
27.10498521234191
100
AcDbArc
 50
324.1443700022
 51
324.2524925855
  0
LINE
  5
11E
330
1F
100
AcDbEntity
  8
0
  6
Continuous
 62
     7
370
    15
100
AcDbLine
 10
84.1467048928
 20
152.8823860671
 30
0.0
 11
83.965625982
 21
152.8072842147
 31
0.0
  0
ARC
  5
11F
330
1F
100
AcDbEntity
  8
0
  6
Continuous
 62
     7
370
    15
100
AcDbCircle
 10
55.5595245168
 20
134.2980707344
 30
0.0
 40
33.9042413882364
100
AcDbArc
 50
33.0879792732
 51
33.1738611672
  0
LINE
  5
120
330
1F
100
AcDbEntity
  8
0
  6
Continuous
 62
     7
370
    15
100
AcDbLine
 10
84.9520828531
 20
151.4511593368
 30
0.0
 11
84.7760107324
 21
152.340103009
 31
0.0
  0
ARC
  5
121
330
1F
100
AcDbEntity
  8
0
  6
Continuous
 62
     7
370
    15
100
AcDbCircle
 10
82.9521737271
 20
157.8366172331
 30
0.0
 40
5.791204541177973
100
AcDbArc
 50
288.3567230971
 51
288.8557491904
  0
ARC
  5
122
330
1F
100
AcDbEntity
  8
0
  6
Continuous
 62
     7
370
    15
100
AcDbCircle
 10
117.5155539849
 20
183.5318134508
 30
0.0
 40
47.22237011047405
100
AcDbArc
 50
225.7664558906
 51
225.8289008997
  0
LINE
  5
123
330
1F
100
AcDbEntity
  8
0
  6
Continuous
 62
     7
370
    15
100
AcDbLine
 10
84.5739509866
 20
149.6968754318
 30
0.0
 11
84.7892429635
 21
150.0657089736
 31
0.0
  0
LINE
  5
124
330
1F
100
AcDbEntity
  8
0
  6
Continuous
 62
     7
370
    15
100
AcDbLine
 10
84.7760107324
 20
152.340103009
 30
0.0
 11
84.6531655595
 21
152.5908001449
 31
0.0
  0
ARC
  5
125
330
1F
100
AcDbEntity
  8
0
  6
Continuous
 62
     7
370
    15
100
AcDbCircle
 10
81.7390766382
 20
157.2077211934
 30
0.0
 40
5.459658799704715
100
AcDbArc
 50
302.2591299647
 51
302.7873341152
  0
ARC
  5
126
330
1F
100
AcDbEntity
  8
0
  6
Continuous
 62
     7
370
    15
100
AcDbCircle
 10
86.4148408683
 20
150.1582767932
 30
0.0
 40
2.095358771833041
100
AcDbArc
 50
195.788503313
 51
197.206184394
  0
LINE
  5
127
330
1F
100
AcDbEntity
  8
0
  6
Continuous
 62
     7
370
    15
100
AcDbLine
 10
84.398534517
 20
149.5881565597
 30
0.0
 11
84.5739509866
 21
149.6968754318
 31
0.0
  0
LINE
  5
128
330
1F
100
AcDbEntity
  8
0
  6
Continuous
 62
     7
370
    15
100
AcDbLine
 10
84.6531655595
 20
152.5908001449
 30
0.0
 11
84.4924118325
 21
152.7902372863
 31
0.0
  0
ARC
  5
129
330
1F
100
AcDbEntity
  8
0
  6
Continuous
 62
     7
370
    15
100
AcDbCircle
 10
74.5467598005
 20
161.1468995235
 30
0.0
 40
12.99037328518298
100
AcDbArc
 50
319.9619239953
 51
320.1868081686
  0
LINE
  5
12A
330
1F
100
AcDbEntity
  8
0
  6
Continuous
 62
     7
370
    15
100
AcDbLine
 10
84.4924118325
 20
152.7902372863
 30
0.0
 11
84.3305256173
 21
152.8789289978
 31
0.0
  0
LINE
  5
12B
330
1F
100
AcDbEntity
  8
0
  6
Continuous
 62
     7
370
    15
100
AcDbLine
 10
83.9626457498
 20
149.6823318984
 30
0.0
 11
84.187116842
 21
149.5839842346
 31
0.0
  0
ARC
  5
12C
330
1F
100
AcDbEntity
  8
0
  6
Continuous
 62
     7
370
    15
100
AcDbCircle
 10
80.9633262452
 20
150.201118327
 30
0.0
 40
3.282328487537862
100
AcDbArc
 50
348.2695745635
 51
349.1629093012
  0
LINE
  5
12D
330
1F
100
AcDbEntity
  8
0
  6
Continuous
 62
     7
370
    15
100
AcDbLine
 10
83.6667086885
 20
149.5488174941
 30
0.0
 11
83.4223892495
 21
149.8457678344
 31
0.0
  0
ARC
  5
12E
330
1F
100
AcDbEntity
  8
0
  6
Continuous
 62
     7
370
    15
100
AcDbCircle
 10
85.5873649564
 20
146.4034298612
 30
0.0
 40
4.066547741423126
100
AcDbArc
 50
121.4562961803
 51
122.1668530605
  0
LINE
  5
12F
330
1F
100
AcDbEntity
  8
0
  6
Continuous
 62
     7
370
    15
100
AcDbLine
 10
83.965625982
 20
152.8072842147
 30
0.0
 11
83.8123228357
 21
152.6610144165
 31
0.0
  0
ARC
  5
130
330
1F
100
AcDbEntity
  8
0
  6
Continuous
 62
     7
370
    15
100
AcDbCircle
 10
82.639297593
 20
151.0227437388
 30
0.0
 40
2.014924076302859
100
AcDbArc
 50
54.3967945927
 51
55.8492242364
  0
LINE
  5
131
330
1F
100
AcDbEntity
  8
0
  6
Continuous
 62
     7
370
    15
100
AcDbLine
 10
83.8123228357
 20
152.6610144165
 30
0.0
 11
83.6547281549
 21
152.2963531997
 31
0.0
  0
ARC
  5
132
330
1F
100
AcDbEntity
  8
0
  6
Continuous
 62
     7
370
    15
100
AcDbCircle
 10
84.0121811005
 20
145.9013870663
 30
0.0
 40
4.884261119955879
100
AcDbArc
 50
74.747082988
 51
75.3376460094
  0
LINE
  5
133
330
1F
100
AcDbEntity
  8
0
  6
Continuous
 62
     7
370
    15
100
AcDbLine
 10
85.2971341417
 20
150.6135948684
 30
0.0
 11
85.0554373071
 21
150.0146873977
 31
0.0
  0
LINE
  5
134
330
1F
100
AcDbEntity
  8
0
  6
Continuous
 62
     7
370
    15
100
AcDbLine
 10
83.6013223932
 20
150.4798420455
 30
0.0
 11
83.7953951165
 21
149.8677023437
 31
0.0
  0
LINE
  5
135
330
1F
100
AcDbEntity
  8
0
  6
Continuous
 62
     7
370
    15
100
AcDbLine
 10
84.187116842
 20
149.5839842346
 30
0.0
 11
84.398534517
 21
149.5881565597
 31
0.0
  0
LINE
  5
136
330
1F
100
AcDbEntity
  8
0
  6
Continuous
 62
     7
370
    15
100
AcDbLine
 10
83.4223892495
 20
149.8457678344
 30
0.0
 11
83.2545425698
 21
150.2193697479
 31
0.0
  0
ARC
  5
137
330
1F
100
AcDbEntity
  8
0
  6
Continuous
 62
     7
370
    15
100
AcDbCircle
 10
82.1536160546
 20
160.7724649316
 30
0.0
 40
9.015469658659974
100
AcDbArc
 50
289.5919294356
 51
289.914724977
  0
LINE
  5
138
330
1F
100
AcDbEntity
  8
0
  6
Continuous
 62
     7
370
    15
100
AcDbLine
 10
85.2244760797
 20
152.2961147811
 30
0.0
 11
85.3921439454
 21
151.2963064697
 31
0.0
  0
ARC
  5
139
330
1F
100
AcDbEntity
  8
0
  6
Continuous
 62
     7
370
    15
100
AcDbCircle
 10
85.1781017005
 20
164.6356867158
 30
0.0
 40
13.34109738492257
100
AcDbArc
 50
270.7021874813
 51
270.9192829573
  0
LINE
  5
13A
330
1F
100
AcDbEntity
  8
0
  6
Continuous
 62
     7
370
    15
100
AcDbLine
 10
85.3921439454
 20
151.2963064697
 30
0.0
 11
85.2971341417
 21
150.6135948684
 31
0.0
  0
LINE
  5
13B
330
1F
100
AcDbEntity
  8
0
  6
Continuous
 62
     7
370
    15
100
AcDbLine
 10
84.1957595155
 20
149.3989714172
 30
0.0
 11
83.9200284288
 21
149.4268663909
 31
0.0
  0
LINE
  5
13C
330
1F
100
AcDbEntity
  8
0
  6
Continuous
 62
     7
370
    15
100
AcDbLine
 10
84.6596028611
 20
152.9989727523
 30
0.0
 11
84.9875476167
 21
152.708578923
 31
0.0
  0
ARC
  5
13D
330
1F
100
AcDbEntity
  8
0
  6
Continuous
 62
     7
370
    15
100
AcDbCircle
 10
92.1586093298
 20
143.8846042859
 30
0.0
 40
11.37042894921889
100
AcDbArc
 50
129.1000471066
 51
129.3555601266
  0
LINE
  5
13E
330
1F
100
AcDbEntity
  8
0
  6
Continuous
 62
     7
370
    15
100
AcDbLine
 10
84.9875476167
 20
152.708578923
 30
0.0
 11
85.2244760797
 21
152.2961147811
 31
0.0
  0
SPLINE
  5
13F
330
1F
100
AcDbEntity
  8
0
  6
Continuous
 62
     7
370
    15
100
AcDbSpline
210
0.0
220
0.0
230
1.0
 70
     8
 71
     3
 72
    12
 73
     8
 74
     0
 42
0.00000001
 43
0.00000001
 12
1.0
 22
0.0
 32
0.0
 13
1.0
 23
0.0
 33
0.0
 40
0.0
 40
0.0
 40
0.0
 40
0.0
 40
0.2119449146346372
 40
0.4869775726050211
 40
0.8328856972703738
 40
0.9020467860753967
 40
1.0
 40
1.0
 40
1.0
 40
1.0
 10
82.57749340984552
 20
153.0138739135218
 30
0.0
 10
82.42511038647535
 20
152.9448783555125
 30
0.0
 10
82.0749858507915
 20
152.7863499500641
 30
0.0
 10
81.582554462829
 20
152.332589918392
 30
0.0
 10
81.3296179975603
 20
151.8391908362546
 30
0.0
 10
81.21145106987257
 20
151.4534660357324
 30
0.0
 10
81.18309400564857
 20
151.325072232989
 30
0.0
 10
81.16647265407758
 20
151.2498148467491
 30
0.0
  0
SPLINE
  5
140
330
1F
100
AcDbEntity
  8
0
  6
Continuous
 62
     7
370
    15
100
AcDbSpline
210
0.0
220
0.0
230
1.0
 70
     8
 71
     3
 72
    13
 73
     9
 74
     0
 42
0.00000001
 43
0.00000001
 12
1.0
 22
0.0
 32
0.0
 13
1.0
 23
0.0
 33
0.0
 40
0.0
 40
0.0
 40
0.0
 40
0.0
 40
0.0270568338063167
 40
0.060603777084845
 40
0.1211496420597535
 40
0.3141584841689122
 40
0.9901083215949632
 40
0.9999999999999999
 40
0.9999999999999999
 40
0.9999999999999999
 40
0.9999999999999999
 10
81.16647265407758
 20
151.2498148467491
 30
0.0
 10
81.16639579544734
 20
151.249603216127
 30
0.0
 10
81.16622364214484
 20
151.249129191149
 30
0.0
 10
81.164007476605
 20
151.2449844495333
 30
0.0
 10
81.15742896764219
 20
151.2316480146604
 30
0.0
 10
81.13155445917982
 20
151.1791046673254
 30
0.0
 10
81.10499368671229
 20
151.12735289336
 30
0.0
 10
81.08709893902574
 20
151.0860213484474
 30
0.0
 10
81.08684084865766
 20
151.0854252364586
 30
0.0
  0
SPLINE
  5
141
330
1F
100
AcDbEntity
  8
0
  6
Continuous
 62
     7
370
    15
100
AcDbSpline
210
0.0
220
0.0
230
1.0
 70
     8
 71
     3
 72
    11
 73
     7
 74
     0
 42
0.00000001
 43
0.00000001
 12
1.0
 22
0.0
 32
0.0
 13
1.0
 23
0.0
 33
0.0
 40
0.0
 40
0.0
 40
0.0
 40
0.0
 40
0.2330216650417122
 40
0.5698015183726339
 40
0.8382995532944324
 40
1.0
 40
1.0
 40
1.0
 40
1.0
 10
81.08684084865766
 20
151.0854252364586
 30
0.0
 10
81.12377214380726
 20
151.274476817484
 30
0.0
 10
81.21407923198262
 20
151.7367594893543
 30
0.0
 10
81.54366459635695
 20
152.3637723008723
 30
0.0
 10
82.01802718058602
 20
152.8018081343507
 30
0.0
 10
82.33705757199314
 20
152.9591455901135
 30
0.0
 10
82.45697281810956
 20
153.0182846572349
 30
0.0
  0
SPLINE
  5
142
330
1F
100
AcDbEntity
  8
0
  6
Continuous
 62
     7
370
    15
100
AcDbSpline
210
0.0
220
0.0
230
1.0
 70
     8
 71
     3
 72
    13
 73
     9
 74
     0
 42
0.00000001
 43
0.00000001
 12
1.0
 22
0.0
 32
0.0
 13
1.0
 23
0.0
 33
0.0
 40
0.0
 40
0.0
 40
0.0
 40
0.0
 40
0.0115999337424147
 40
0.5359104315631211
 40
0.7675414080291533
 40
0.8789600323507818
 40
0.9460645760666222
 40
1.0
 40
1.0
 40
1.0
 40
1.0
 10
82.45697281810956
 20
153.0182846572349
 30
0.0
 10
82.45750920539405
 20
153.0182446046874
 30
0.0
 10
82.48228999703386
 20
153.0163941994717
 30
0.0
 10
82.51828150699112
 20
153.0166430433319
 30
0.0
 10
82.55584814902248
 20
153.0149268025262
 30
0.0
 10
82.57061062955736
 20
153.0141662124018
 30
0.0
 10
82.57652950684377
 20
153.0138297311929
 30
0.0
 10
82.57719629082457
 20
153.0138602945061
 30
0.0
 10
82.5774934098454
 20
153.0138739135216
 30
0.0
  0
SPLINE
  5
143
330
1F
100
AcDbEntity
  8
0
  6
Continuous
 62
     7
370
    15
100
AcDbSpline
210
0.0
220
0.0
230
1.0
 70
     8
 71
     3
 72
    30
 73
    26
 74
     0
 42
0.00000001
 43
0.00000001
 12
1.0
 22
0.0
 32
0.0
 13
1.0
 23
0.0
 33
0.0
 40
0.0
 40
0.0
 40
0.0
 40
0.0
 40
0.0000142276356579
 40
0.023040942797078
 40
0.0592993145448157
 40
0.0938680524894402
 40
0.1244673779245655
 40
0.1587053564563264
 40
0.1935214181701437
 40
0.2333303351136566
 40
0.2762919544774949
 40
0.3249650587190164
 40
0.3791080827316939
 40
0.431910199739189
 40
0.4671704013908579
 40
0.5027844578627219
 40
0.5384367984844736
 40
0.559069312291192
 40
0.5992793116053785
 40
0.646694990302758
 40
0.7349798083187055
 40
0.8219295786945279
 40
0.9090823484229297
 40
0.9398028160289134
 40
1.0
 40
1.0
 40
1.0
 40
1.0
 10
81.16647265407758
 20
151.2498148467491
 30
0.0
 10
81.16649251826377
 20
151.2498545860423
 30
0.0
 10
81.19866157218999
 20
151.3142103796358
 30
0.0
 10
81.36303161344458
 20
151.4218589843559
 30
0.0
 10
81.60855637259642
 20
151.5763280595547
 30
0.0
 10
81.9292300266242
 20
151.6336183632724
 30
0.0
 10
82.24109362899543
 20
151.5983992260869
 30
0.0
 10
82.52756168414108
 20
151.4578356361177
 30
0.0
 10
82.76160852492883
 20
151.2019606232142
 30
0.0
 10
82.90315358405428
 20
150.8530809877013
 30
0.0
 10
82.89851766783826
 20
150.4332791000029
 30
0.0
 10
82.73062441557963
 20
149.99753207018
 30
0.0
 10
82.380793888113
 20
149.6440821242142
 30
0.0
 10
81.98122565638718
 20
149.4332889541123
 30
0.0
 10
81.59079610780425
 20
149.3758104768876
 30
0.0
 10
81.26221301721834
 20
149.4637798124047
 30
0.0
 10
81.01591673727191
 20
149.6212993907406
 30
0.0
 10
80.81849420158323
 20
149.8519030866203
 30
0.0
 10
80.68010713665993
 20
150.1678087516091
 30
0.0
 10
80.60771298569466
 20
150.7162577732341
 30
0.0
 10
80.68690093976002
 20
151.4179338817422
 30
0.0
 10
81.02421359763542
 20
152.1811422226428
 30
0.0
 10
81.48266250578604
 20
152.6472568165841
 30
0.0
 10
81.9520701198688
 20
152.9490910819386
 30
0.0
 10
82.22227705515515
 20
153.0411415550913
 30
0.0
 10
82.4011828705998
 20
153.1020887877891
 30
0.0
  0
SPLINE
  5
144
330
1F
100
AcDbEntity
  8
0
  6
Continuous
 62
     7
370
    15
100
AcDbSpline
210
0.0
220
0.0
230
1.0
 70
     8
 71
     3
 72
    13
 73
     9
 74
     0
 42
0.00000001
 43
0.00000001
 12
1.0
 22
0.0
 32
0.0
 13
1.0
 23
0.0
 33
0.0
 40
0.0
 40
0.0
 40
0.0
 40
0.0
 40
0.1974627817212071
 40
0.3948902338062626
 40
0.5974905051851586
 40
0.8118278128889695
 40
0.9778750948700377
 40
1.0
 40
1.0
 40
1.0
 40
1.0
 10
82.4011828705998
 20
153.1020887877891
 30
0.0
 10
82.40111600971497
 20
153.1015427387387
 30
0.0
 10
82.40098229990775
 20
153.1004507383351
 30
0.0
 10
82.40019036354404
 20
153.0921200461232
 30
0.0
 10
82.39882603747292
 20
153.0798100289873
 30
0.0
 10
82.39756803793338
 20
153.0652450632126
 30
0.0
 10
82.39618201476503
 20
153.0544690954054
 30
0.0
 10
82.39585670216718
 20
153.0493984335266
 30
0.0
 10
82.39581845257013
 20
153.0488022353602
 30
0.0
  0
SPLINE
  5
145
330
1F
100
AcDbEntity
  8
0
  6
Continuous
 62
     7
370
    15
100
AcDbSpline
210
0.0
220
0.0
230
1.0
 70
     8
 71
     3
 72
    28
 73
    24
 74
     0
 42
0.00000001
 43
0.00000001
 12
1.0
 22
0.0
 32
0.0
 13
1.0
 23
0.0
 33
0.0
 40
0.0
 40
0.0
 40
0.0
 40
0.0
 40
0.0884433549203394
 40
0.1754801693142165
 40
0.2722090652608847
 40
0.3508008809552685
 40
0.3978997203966657
 40
0.4371693881350063
 40
0.4570986623680082
 40
0.491621079198935
 40
0.5261049553115358
 40
0.5601095201072509
 40
0.6122012843920391
 40
0.6654028483371853
 40
0.7129892060010072
 40
0.7548330502484888
 40
0.7933685224643696
 40
0.827020318816016
 40
0.8599402008375453
 40
0.889550649367038
 40
0.9230972725240403
 40
0.9584320126872431
 40
1.0
 40
1.0
 40
1.0
 40
1.0
 10
82.39581845257001
 20
153.0488022353599
 30
0.0
 10
82.14121855259002
 20
152.9491481611992
 30
0.0
 10
81.63606772926232
 20
152.7514248407486
 30
0.0
 10
81.04662563327133
 20
152.1265014769392
 30
0.0
 10
80.72758956483413
 20
151.3733438157429
 30
0.0
 10
80.66237385023176
 20
150.6874057417264
 30
0.0
 10
80.72831189281379
 20
150.1832980293187
 30
0.0
 10
80.86123870509374
 20
149.8793248144374
 30
0.0
 10
81.04882227869356
 20
149.6595438903431
 30
0.0
 10
81.28269827128662
 20
149.510707311401
 30
0.0
 10
81.59388783098039
 20
149.4266465362685
 30
0.0
 10
81.96679247103741
 20
149.4823393393758
 30
0.0
 10
82.35017621529848
 20
149.6848315726466
 30
0.0
 10
82.68713935534008
 20
150.0248561345496
 30
0.0
 10
82.84827371173728
 20
150.4425541915033
 30
0.0
 10
82.85283521278005
 20
150.8430405248939
 30
0.0
 10
82.7185348250484
 20
151.17458967756
 30
0.0
 10
82.49705152930773
 20
151.4167985459429
 30
0.0
 10
82.2264555690155
 20
151.5495301840483
 30
0.0
 10
81.92993448042893
 20
151.5833158405479
 30
0.0
 10
81.629522588441
 20
151.5257656660042
 30
0.0
 10
81.32640920933451
 20
151.3608079330122
 30
0.0
 10
81.17089853831457
 20
151.1820491528155
 30
0.0
 10
81.08684084865766
 20
151.0854252364586
 30
0.0
  0
LINE
  5
146
330
1F
100
AcDbEntity
  8
0
  6
Continuous
 62
     7
370
    15
100
AcDbLine
 10
82.4569728181
 20
153.0182846572
 30
0.0
 11
82.3958184526
 21
153.0488022354
 31
0.0
  0
LINE
  5
147
330
1F
100
AcDbEntity
  8
0
  6
Continuous
 62
     7
370
    15
100
AcDbLine
 10
82.4011828706
 20
153.1020887878
 30
0.0
 11
82.5774934098
 21
153.0138739135
 31
0.0
  0
LINE
  5
148
330
1F
100
AcDbEntity
  8
0
  6
Continuous
 62
     7
370
    15
100
AcDbLine
 10
82.3340680406
 20
149.9509104278
 30
0.0
 11
82.1270611093
 21
149.6832855728
 31
0.0
  0
ARC
  5
149
330
1F
100
AcDbEntity
  8
0
  6
Continuous
 62
     7
370
    15
100
AcDbCircle
 10
84.611481417
 20
152.1012364847
 30
0.0
 40
3.466818552738047
100
AcDbArc
 50
223.3878351091
 51
224.2231958114
  0
LINE
  5
14A
330
1F
100
AcDbEntity
  8
0
  6
Continuous
 62
     7
370
    15
100
AcDbLine
 10
82.0920731828
 20
149.7197636154
 30
0.0
 11
82.2899606034
 21
149.9755867507
 31
0.0
  0
ARC
  5
14B
330
1F
100
AcDbEntity
  8
0
  6
Continuous
 62
     7
370
    15
100
AcDbCircle
 10
79.0733257731
 20
144.1742883811
 30
0.0
 40
6.633385440712508
100
AcDbArc
 50
60.5564821606
 51
60.9930299475
  0
LINE
  5
14C
330
1F
100
AcDbEntity
  8
0
  6
Continuous
 62
     7
370
    15
100
AcDbLine
 10
81.327405195
 20
151.1796005752
 30
0.0
 11
81.1616446779
 21
150.9403475311
 31
0.0
  0
ARC
  5
14D
330
1F
100
AcDbEntity
  8
0
  6
Continuous
 62
     7
370
    15
100
AcDbCircle
 10
81.5462799456
 20
151.830067416
 30
0.0
 40
0.9693016882618719
100
AcDbArc
 50
243.6221434415
 51
246.6206637696
  0
LINE
  5
14E
330
1F
100
AcDbEntity
  8
0
  6
Continuous
 62
     7
370
    15
100
AcDbLine
 10
81.1156298921
 20
150.9616859939
 30
0.0
 11
81.2926556871
 21
151.2171515014
 31
0.0
  0
ARC
  5
14F
330
1F
100
AcDbEntity
  8
0
  6
Continuous
 62
     7
370
    15
100
AcDbCircle
 10
76.8235916686
 20
147.046639841
 30
0.0
 40
6.112749030608631
100
AcDbArc
 50
42.5412978494
 51
43.020853492
  0
LINE
  5
150
330
1F
100
AcDbEntity
  8
0
  6
Continuous
 62
     7
370
    15
100
AcDbLine
 10
82.1270611093
 20
149.6832855728
 30
0.0
 11
81.9939639375
 21
149.5883949783
 31
0.0
  0
ARC
  5
151
330
1F
100
AcDbEntity
  8
0
  6
Continuous
 62
     7
370
    15
100
AcDbCircle
 10
70.9431348842
 20
143.7212050495
 30
0.0
 40
12.51178406249192
100
AcDbArc
 50
27.9650652659
 51
28.1958528883
  0
LINE
  5
152
330
1F
100
AcDbEntity
  8
0
  6
Continuous
 62
     7
370
    15
100
AcDbLine
 10
81.9702412889
 20
149.6328600433
 30
0.0
 11
82.0920731828
 21
149.7197636154
 31
0.0
  0
LINE
  5
153
330
1F
100
AcDbEntity
  8
0
  6
Continuous
 62
     7
370
    15
100
AcDbLine
 10
82.1520950601
 20
151.1464603927
 30
0.0
 11
81.8793442056
 21
151.2756832626
 31
0.0
  0
LWPOLYLINE
  5
154
330
1F
100
AcDbEntity
  8
0
  6
Continuous
 62
     7
370
    15
100
AcDbPolyline
 90
        9
 70
   128
 43
0.0
 10
81.8793442056
 20
151.2756832626
 10
81.8796422288
 20
151.2765177276
 10
81.8804170892
 20
151.2793787506
 10
81.881787996
 20
151.2837894943
 10
81.8835165307
 20
151.289869168
 10
81.8857219026
 20
151.2971409347
 10
81.8882252977
 20
151.3056047943
 10
81.8909075067
 20
151.3146647003
 10
81.893708925
 20
151.3242014434
  0
LINE
  5
155
330
1F
100
AcDbEntity
  8
0
  6
Continuous
 62
     7
370
    15
100
AcDbLine
 10
81.893708925
 20
151.3242014434
 30
0.0
 11
82.1826126382
 21
151.187349179
 31
0.0
  0
ARC
  5
156
330
1F
100
AcDbEntity
  8
0
  6
Continuous
 62
     7
370
    15
100
AcDbCircle
 10
75.7480823952
 20
155.9579645299
 30
0.0
 40
8.010115496931759
100
AcDbArc
 50
323.0814931179
 51
323.4464483907
  0
LINE
  5
157
330
1F
100
AcDbEntity
  8
0
  6
Continuous
 62
     7
370
    15
100
AcDbLine
 10
81.8793442056
 20
151.2756832626
 30
0.0
 11
81.6779997155
 21
151.3025053527
 31
0.0
  0
ARC
  5
158
330
1F
100
AcDbEntity
  8
0
  6
Continuous
 62
     7
370
    15
100
AcDbCircle
 10
87.1932678767
 20
151.3798108031
 30
0.0
 40
5.515809915362595
100
AcDbArc
 50
180.2779794568
 51
180.8030409174
  0
LINE
  5
159
330
1F
100
AcDbEntity
  8
0
  6
Continuous
 62
     7
370
    15
100
AcDbLine
 10
81.6775228784
 20
151.3530500915
 30
0.0
 11
81.893708925
 21
151.3242014434
 31
0.0
  0
LINE
  5
15A
330
1F
100
AcDbEntity
  8
0
  6
Continuous
 62
     7
370
    15
100
AcDbLine
 10
81.6889669702
 20
149.5236643341
 30
0.0
 11
81.5292861268
 21
149.5593079116
 31
0.0
  0
ARC
  5
15B
330
1F
100
AcDbEntity
  8
0
  6
Continuous
 62
     7
370
    15
100
AcDbCircle
 10
90.4291291991
 20
145.8728823148
 30
0.0
 40
9.633116857552263
100
AcDbArc
 50
157.1981165462
 51
157.5000555369
  0
LINE
  5
15C
330
1F
100
AcDbEntity
  8
0
  6
Continuous
 62
     7
370
    15
100
AcDbLine
 10
81.5488364503
 20
149.6061571624
 30
0.0
 11
81.693020086
 21
149.5739706542
 31
0.0
  0
ARC
  5
15D
330
1F
100
AcDbEntity
  8
0
  6
Continuous
 62
     7
370
    15
100
AcDbCircle
 10
78.2241675905
 20
149.8281352237
 30
0.0
 40
3.478151414810241
100
AcDbArc
 50
354.9780064515
 51
355.8093978473
  0
LINE
  5
15E
330
1F
100
AcDbEntity
  8
0
  6
Continuous
 62
     7
370
    15
100
AcDbLine
 10
81.4867284105
 20
151.2729414489
 30
0.0
 11
81.327405195
 21
151.1796005752
 31
0.0
  0
LINE
  5
15F
330
1F
100
AcDbEntity
  8
0
  6
Continuous
 62
     7
370
    15
100
AcDbLine
 10
81.2926556871
 20
151.2171515014
 30
0.0
 11
81.469681482
 21
151.3208635833
 31
0.0
  0
ARC
  5
160
330
1F
100
AcDbEntity
  8
0
  6
Continuous
 62
     7
370
    15
100
AcDbCircle
 10
69.870306817
 20
147.1677248234
 30
0.0
 40
12.32047296902186
100
AcDbArc
 50
19.4632907801
 51
19.6998307735
  0
LINE
  5
161
330
1F
100
AcDbEntity
  8
0
  6
Continuous
 62
     7
370
    15
100
AcDbLine
 10
81.8468596742
 20
149.5328434493
 30
0.0
 11
81.6889669702
 21
149.5236643341
 31
0.0
  0
LINE
  5
162
330
1F
100
AcDbEntity
  8
0
  6
Continuous
 62
     7
370
    15
100
AcDbLine
 10
81.693020086
 20
149.5739706542
 30
0.0
 11
81.8363096521
 21
149.5823153045
 31
0.0
  0
LWPOLYLINE
  5
163
330
1F
100
AcDbEntity
  8
0
  6
Continuous
 62
     7
370
    15
100
AcDbPolyline
 90
        9
 70
   128
 43
0.0
 10
81.8468596742
 20
149.5328434493
 10
81.8447735116
 20
149.5424994018
 10
81.8428065583
 20
149.5517977264
 10
81.841018419
 20
149.5603807952
 10
81.8394090936
 20
149.5677717712
 10
81.8380977914
 20
149.5739706542
 10
81.8371441171
 20
149.5785006072
 10
81.836488466
 20
149.5813616302
 10
81.8363096521
 20
149.5823153045
  0
LINE
  5
164
330
1F
100
AcDbEntity
  8
0
  6
Continuous
 62
     7
370
    15
100
AcDbLine
 10
81.6779997155
 20
151.3025053527
 30
0.0
 11
81.4867284105
 21
151.2729414489
 31
0.0
  0
LINE
  5
165
330
1F
100
AcDbEntity
  8
0
  6
Continuous
 62
     7
370
    15
100
AcDbLine
 10
81.469681482
 20
151.3208635833
 30
0.0
 11
81.6775228784
 21
151.3530500915
 31
0.0
  0
LINE
  5
166
330
1F
100
AcDbEntity
  8
0
  6
Continuous
 62
     7
370
    15
100
AcDbLine
 10
81.5292861268
 20
149.5593079116
 30
0.0
 11
81.2682177827
 21
149.7272738006
 31
0.0
  0
ARC
  5
167
330
1F
100
AcDbEntity
  8
0
  6
Continuous
 62
     7
370
    15
100
AcDbCircle
 10
81.8671262148
 20
149.1655304837
 30
0.0
 40
0.8211253644207028
100
AcDbArc
 50
133.2602781797
 51
136.8340358394
  0
LINE
  5
168
330
1F
100
AcDbEntity
  8
0
  6
Continuous
 62
     7
370
    15
100
AcDbLine
 10
81.3043978021
 20
149.7635134246
 30
0.0
 11
81.5488364503
 21
149.6061571624
 31
0.0
  0
LINE
  5
169
330
1F
100
AcDbEntity
  8
0
  6
Continuous
 62
     7
370
    15
100
AcDbLine
 10
81.9939639375
 20
149.5883949783
 30
0.0
 11
81.8468596742
 21
149.5328434493
 31
0.0
  0
LINE
  5
16A
330
1F
100
AcDbEntity
  8
0
  6
Continuous
 62
     7
370
    15
100
AcDbLine
 10
81.8363096521
 20
149.5823153045
 30
0.0
 11
81.9702412889
 21
149.6328600433
 31
0.0
  0
LINE
  5
16B
330
1F
100
AcDbEntity
  8
0
  6
Continuous
 62
     7
370
    15
100
AcDbLine
 10
82.4604298875
 20
150.2862461593
 30
0.0
 11
82.3340680406
 21
149.9509104278
 31
0.0
  0
LINE
  5
16C
330
1F
100
AcDbEntity
  8
0
  6
Continuous
 62
     7
370
    15
100
AcDbLine
 10
82.4873711869
 20
150.6370790985
 30
0.0
 11
82.4604298875
 21
150.2862461593
 31
0.0
  0
LINE
  5
16D
330
1F
100
AcDbEntity
  8
0
  6
Continuous
 62
     7
370
    15
100
AcDbLine
 10
82.3935534761
 20
150.9516724136
 30
0.0
 11
82.4873711869
 21
150.6370790985
 31
0.0
  0
LINE
  5
16E
330
1F
100
AcDbEntity
  8
0
  6
Continuous
 62
     7
370
    15
100
AcDbLine
 10
82.1826126382
 20
151.187349179
 30
0.0
 11
82.3935534761
 21
150.9516724136
 31
0.0
  0
LINE
  5
16F
330
1F
100
AcDbEntity
  8
0
  6
Continuous
 62
     7
370
    15
100
AcDbLine
 10
81.0283090875
 20
150.6397017028
 30
0.0
 11
81.1156298921
 21
150.9616859939
 31
0.0
  0
LINE
  5
170
330
1F
100
AcDbEntity
  8
0
  6
Continuous
 62
     7
370
    15
100
AcDbLine
 10
81.0222890184
 20
150.3041275527
 30
0.0
 11
81.0283090875
 21
150.6397017028
 31
0.0
  0
LINE
  5
171
330
1F
100
AcDbEntity
  8
0
  6
Continuous
 62
     7
370
    15
100
AcDbLine
 10
81.0998942659
 20
149.9890574005
 30
0.0
 11
81.0222890184
 21
150.3041275527
 31
0.0
  0
LINE
  5
172
330
1F
100
AcDbEntity
  8
0
  6
Continuous
 62
     7
370
    15
100
AcDbLine
 10
81.2682177827
 20
149.7272738006
 30
0.0
 11
81.0998942659
 21
149.9890574005
 31
0.0
  0
ARC
  5
173
330
1F
100
AcDbEntity
  8
0
  6
Continuous
 62
     7
370
    15
100
AcDbCircle
 10
82.2677286455
 20
152.4657958438
 30
0.0
 40
1.841859869963159
100
AcDbArc
 50
275.2676389216
 51
276.8488434962
  0
LINE
  5
174
330
1F
100
AcDbEntity
  8
0
  6
Continuous
 62
     7
370
    15
100
AcDbLine
 10
82.4368264482
 20
150.6317146804
 30
0.0
 11
82.3488499925
 21
150.9266384628
 31
0.0
  0
ARC
  5
175
330
1F
100
AcDbEntity
  8
0
  6
Continuous
 62
     7
370
    15
100
AcDbCircle
 10
86.6204861783
 20
143.3511475024
 30
0.0
 40
8.696834998702293
100
AcDbArc
 50
119.0800525587
 51
119.4176001144
  0
ARC
  5
176
330
1F
100
AcDbEntity
  8
0
  6
Continuous
 62
     7
370
    15
100
AcDbCircle
 10
78.6380584558
 20
133.2226074961
 30
0.0
 40
17.48651731447436
100
AcDbArc
 50
77.3737910435
 51
77.5392524662
  0
LINE
  5
177
330
1F
100
AcDbEntity
  8
0
  6
Continuous
 62
     7
370
    15
100
AcDbLine
 10
82.4111368463
 20
150.2972134139
 30
0.0
 11
82.4368264482
 21
150.6317146804
 31
0.0
  0
LINE
  5
178
330
1F
100
AcDbEntity
  8
0
  6
Continuous
 62
     7
370
    15
100
AcDbLine
 10
82.2899606034
 20
149.9755867507
 30
0.0
 11
82.4111368463
 21
150.2972134139
 31
0.0
  0
LINE
  5
179
330
1F
100
AcDbEntity
  8
0
  6
Continuous
 62
     7
370
    15
100
AcDbLine
 10
81.1616446779
 20
150.9403475311
 30
0.0
 11
81.0781981752
 21
150.6325491455
 31
0.0
  0
ARC
  5
17A
330
1F
100
AcDbEntity
  8
0
  6
Continuous
 62
     7
370
    15
100
AcDbCircle
 10
81.4678828401
 20
153.5281641557
 30
0.0
 40
2.921718745119252
100
AcDbArc
 50
261.3469712331
 51
262.3353270443
  0
LINE
  5
17B
330
1F
100
AcDbEntity
  8
0
  6
Continuous
 62
     7
370
    15
100
AcDbLine
 10
81.0781981752
 20
150.6325491455
 30
0.0
 11
81.07235692
 21
150.3098495986
 31
0.0
  0
ARC
  5
17C
330
1F
100
AcDbEntity
  8
0
  6
Continuous
 62
     7
370
    15
100
AcDbCircle
 10
82.1550438343
 20
140.6144310057
 30
0.0
 40
9.75568309484896
100
AcDbArc
 50
96.3718184639
 51
96.6677850394
  0
ARC
  5
17D
330
1F
100
AcDbEntity
  8
0
  6
Continuous
 62
     7
370
    15
100
AcDbCircle
 10
83.2885200901
 20
144.9659206403
 30
0.0
 40
5.479232237235551
100
AcDbArc
 50
113.0132691026
 51
113.5431896648
  0
LINE
  5
17E
330
1F
100
AcDbEntity
  8
0
  6
Continuous
 62
     7
370
    15
100
AcDbLine
 10
81.1464454934
 20
150.0090845611
 30
0.0
 11
81.3043978021
 21
149.7635134246
 31
0.0
  0
LINE
  5
17F
330
1F
100
AcDbEntity
  8
0
  6
Continuous
 62
     7
370
    15
100
AcDbLine
 10
82.3488499925
 20
150.9266384628
 30
0.0
 11
82.1520950601
 21
151.1464603927
 31
0.0
  0
LINE
  5
180
330
1F
100
AcDbEntity
  8
0
  6
Continuous
 62
     7
370
    15
100
AcDbLine
 10
81.07235692
 20
150.3098495986
 30
0.0
 11
81.1464454934
 21
150.0090845611
 31
0.0
  0
SPLINE
  5
181
330
1F
100
AcDbEntity
  8
0
  6
Continuous
 62
     7
370
    15
100
AcDbSpline
210
0.0
220
0.0
230
1.0
 70
     8
 71
     3
 72
    25
 73
    21
 74
     0
 42
0.00000001
 43
0.00000001
 12
1.0
 22
0.0
 32
0.0
 13
1.0
 23
0.0
 33
0.0
 40
0.0
 40
0.0
 40
0.0
 40
0.0
 40
0.033265762502308
 40
0.0759583804094254
 40
0.1183295923913803
 40
0.1761789212957434
 40
0.2585143538781135
 40
0.3287291581525978
 40
0.3897032729879942
 40
0.4519457518740639
 40
0.5062467417258388
 40
0.5148406165934284
 40
0.5849290517774396
 40
0.6532031080526777
 40
0.7137130144233087
 40
0.781018543520871
 40
0.8419346953144116
 40
0.8941418183375208
 40
0.9466009518040702
 40
1.0
 40
1.0
 40
1.0
 40
1.0
 10
108.6572077080937
 20
124.1144426848839
 30
0.0
 10
108.5967875825931
 20
124.0972115471914
 30
0.0
 10
108.4588254698403
 20
124.0578663101288
 30
0.0
 10
108.2608709187639
 20
123.9429674575189
 30
0.0
 10
108.0963105505895
 20
123.722347383832
 30
0.0
 10
107.9804226947086
 20
123.3927803070673
 30
0.0
 10
107.9712483979622
 20
122.9876558023388
 30
0.0
 10
108.0797480887706
 20
122.5942419261172
 30
0.0
 10
108.2741829536224
 20
122.2790762865981
 30
0.0
 10
108.5369504414366
 20
122.0598569841353
 30
0.0
 10
108.761979071913
 20
121.9759490249578
 30
0.0
 10
109.0079234777293
 20
121.9256934880095
 30
0.0
 10
109.2894635233721
 20
121.9189337334269
 30
0.0
 10
109.6598442005261
 20
122.0112590724386
 30
0.0
 10
109.9701316152597
 20
122.2305187186289
 30
0.0
 10
110.1573298286203
 20
122.5446265998499
 30
0.0
 10
110.2333449717673
 20
122.8816682904634
 30
0.0
 10
110.2126171515016
 20
123.196868580385
 30
0.0
 10
110.1020305676331
 20
123.483427727268
 30
0.0
 10
109.9568221406206
 20
123.6237063031575
 30
0.0
 10
109.8835732743474
 20
123.6944683577965
 30
0.0
  0
SPLINE
  5
182
330
1F
100
AcDbEntity
  8
0
  6
Continuous
 62
     7
370
    15
100
AcDbSpline
210
0.0
220
0.0
230
1.0
 70
     8
 71
     3
 72
    14
 73
    10
 74
     0
 42
0.00000001
 43
0.00000001
 12
1.0
 22
0.0
 32
0.0
 13
1.0
 23
0.0
 33
0.0
 40
0.0
 40
0.0
 40
0.0
 40
0.0
 40
0.0110272363681962
 40
0.0777873202076754
 40
0.5863537851124823
 40
0.7970165652372806
 40
0.894657249264807
 40
0.9531986987010701
 40
0.9999999999999999
 40
0.9999999999999999
 40
0.9999999999999999
 40
0.9999999999999999
 10
109.8835732743474
 20
123.6944683577965
 30
0.0
 10
109.884090196752
 20
123.694270514971
 30
0.0
 10
109.8877366234058
 20
123.692874910243
 30
0.0
 10
109.9148305451694
 20
123.6814105026859
 30
0.0
 10
109.9517099158397
 20
123.6669457334729
 30
0.0
 10
109.9872417937569
 20
123.6521472233895
 30
0.0
 10
110.0005025277041
 20
123.6470785511769
 30
0.0
 10
110.0057668582196
 20
123.6446966309447
 30
0.0
 10
110.0063418194435
 20
123.6444915630276
 30
0.0
 10
110.0065972611639
 20
123.6444004561854
 30
0.0
  0
SPLINE
  5
183
330
1F
100
AcDbEntity
  8
0
  6
Continuous
 62
     7
370
    15
100
AcDbSpline
210
0.0
220
0.0
230
1.0
 70
     8
 71
     3
 72
    13
 73
     9
 74
     0
 42
0.00000001
 43
0.00000001
 12
1.0
 22
0.0
 32
0.0
 13
1.0
 23
0.0
 33
0.0
 40
0.0
 40
0.0
 40
0.0
 40
0.0
 40
0.0159944149858036
 40
0.2206388118227798
 40
0.4821067849986537
 40
0.6881076970377555
 40
0.843768473535974
 40
1.0
 40
1.0
 40
1.0
 40
1.0
 10
108.6572077080937
 20
124.1144426848839
 30
0.0
 10
108.657406503829
 20
124.1148797307358
 30
0.0
 10
108.6601488395038
 20
124.120908665058
 30
0.0
 10
108.6659992909888
 20
124.1341506401489
 30
0.0
 10
108.6737411451476
 20
124.1515149634204
 30
0.0
 10
108.6796225025034
 20
124.1645632420618
 30
0.0
 10
108.6829244377433
 20
124.1721013628194
 30
0.0
 10
108.683382910072
 20
124.1730007611267
 30
0.0
 10
108.6836125657292
 20
124.1734512832115
 30
0.0
  0
SPLINE
  5
184
330
1F
100
AcDbEntity
  8
0
  6
Continuous
 62
     7
370
    15
100
AcDbSpline
210
0.0
220
0.0
230
1.0
 70
     8
 71
     3
 72
    26
 73
    22
 74
     0
 42
0.00000001
 43
0.00000001
 12
1.0
 22
0.0
 32
0.0
 13
1.0
 23
0.0
 33
0.0
 40
0.0
 40
0.0
 40
0.0
 40
0.0
 40
0.0000102002723619
 40
0.0327635416652431
 40
0.0865741356706754
 40
0.1396123397503231
 40
0.2012707545644291
 40
0.2697353937370117
 40
0.3316191347512666
 40
0.4005731026665825
 40
0.4709888239487885
 40
0.4796667322628779
 40
0.5348095829577023
 40
0.5980684879759306
 40
0.6596599455008851
 40
0.7301560999936877
 40
0.8128609877041927
 40
0.8715742099641012
 40
0.915336084119543
 40
0.9597878599282196
 40
1.0
 40
1.0
 40
1.0
 40
1.0
 10
110.0065972611638
 20
123.6444004561851
 30
0.0
 10
110.0066171305208
 20
123.6444004587691
 30
0.0
 10
110.0704380253186
 20
123.6444087583379
 30
0.0
 10
110.1456622976698
 20
123.4330999783053
 30
0.0
 10
110.2668569665504
 20
123.2204347002954
 30
0.0
 10
110.2824327957521
 20
122.8743071083939
 30
0.0
 10
110.204824603943
 20
122.5261019203129
 30
0.0
 10
110.0074878570504
 20
122.1951015744981
 30
0.0
 10
109.6822535729003
 20
121.965669480935
 30
0.0
 10
109.2956455501365
 20
121.8683667095048
 30
0.0
 10
109.0031445834142
 20
121.8762086597975
 30
0.0
 10
108.7468101804115
 20
121.9275391406293
 30
0.0
 10
108.5112518911406
 20
122.0162212686264
 30
0.0
 10
108.2362358855024
 20
122.2451534676651
 30
0.0
 10
108.0334758341217
 20
122.5734924943146
 30
0.0
 10
107.920826045817
 20
122.9817509839763
 30
0.0
 10
107.93039681461
 20
123.4027356631865
 30
0.0
 10
108.0521038791977
 20
123.7475251776875
 30
0.0
 10
108.2270543388188
 20
123.9812097206687
 30
0.0
 10
108.448575274389
 20
124.1099030659762
 30
0.0
 10
108.6079266993762
 20
124.1529877140083
 30
0.0
 10
108.6836125657292
 20
124.1734512832115
 30
0.0
  0
SPLINE
  5
185
330
1F
100
AcDbEntity
  8
0
  6
Continuous
 62
     7
370
    15
100
AcDbSpline
210
0.0
220
0.0
230
1.0
 70
     8
 71
     3
 72
    26
 73
    22
 74
     0
 42
0.00000001
 43
0.00000001
 12
1.0
 22
0.0
 32
0.0
 13
1.0
 23
0.0
 33
0.0
 40
0.0
 40
0.0
 40
0.0
 40
0.0
 40
0.0000132947378196
 40
0.0052411027920752
 40
0.0639155044042668
 40
0.1227005070281939
 40
0.1774361551937596
 40
0.2427100482754097
 40
0.3193120260126388
 40
0.3784427933434483
 40
0.4145761713804362
 40
0.4696664913734918
 40
0.5378564510175653
 40
0.6077052271562269
 40
0.6892327827991404
 40
0.7449809206611883
 40
0.7917514700833527
 40
0.8388546511302479
 40
0.9051539504121308
 40
0.9722112373686946
 40
1.0
 40
1.0
 40
1.0
 40
1.0
 10
108.771767835352
 20
123.9972599532555
 30
0.0
 10
108.77174796662
 20
123.9972599583627
 30
0.0
 10
108.7639152385525
 20
123.9972619718441
 30
0.0
 10
108.6713342705262
 20
123.9682470673399
 30
0.0
 10
108.4962956205156
 20
123.907402386854
 30
0.0
 10
108.3108580771595
 20
123.7164747444685
 30
0.0
 10
108.1911120639868
 20
123.4748614529992
 30
0.0
 10
108.1380031921918
 20
123.1816965237673
 30
0.0
 10
108.1724613650107
 20
122.8777879554143
 30
0.0
 10
108.2821220639273
 20
122.6404013934125
 30
0.0
 10
108.4334134944485
 20
122.4711192668994
 30
0.0
 10
108.6467130479023
 20
122.3529209155889
 30
0.0
 10
108.9365173768398
 20
122.3053367477162
 30
0.0
 10
109.2658850228426
 20
122.346387326256
 30
0.0
 10
109.5536105274804
 20
122.4792185217107
 30
0.0
 10
109.7530986862461
 20
122.6754453247005
 30
0.0
 10
109.8525379423568
 20
122.8807979785695
 30
0.0
 10
109.8763916196446
 20
123.1230765964836
 30
0.0
 10
109.8182994480418
 20
123.3902733080875
 30
0.0
 10
109.6994076996579
 20
123.6068349483423
 30
0.0
 10
109.5959069740678
 20
123.7041137890155
 30
0.0
 10
109.5655824944706
 20
123.7326153304527
 30
0.0
  0
SPLINE
  5
186
330
1F
100
AcDbEntity
  8
0
  6
Continuous
 62
     7
370
    15
100
AcDbSpline
210
0.0
220
0.0
230
1.0
 70
     8
 71
     3
 72
    13
 73
     9
 74
     0
 42
0.00000001
 43
0.00000001
 12
1.0
 22
0.0
 32
0.0
 13
1.0
 23
0.0
 33
0.0
 40
0.0
 40
0.0
 40
0.0
 40
0.0
 40
0.1345561184931306
 40
0.2684337517284611
 40
0.4643500893377293
 40
0.7444523376082745
 40
0.985811644991036
 40
1.0
 40
1.0
 40
1.0
 40
1.0
 10
109.5655824944708
 20
123.7326153304529
 30
0.0
 10
109.566082936898
 20
123.7326481071927
 30
0.0
 10
109.5670812983238
 20
123.7327134953996
 30
0.0
 10
109.575296751321
 20
123.7329703502427
 30
0.0
 10
109.5903927716541
 20
123.7337220949252
 30
0.0
 10
109.612238816803
 20
123.7341674926424
 30
0.0
 10
109.6294935034999
 20
123.7344057319529
 30
0.0
 10
109.6377239842807
 20
123.7344035887877
 30
0.0
 10
109.6381809518071
 20
123.734403469796
 30
0.0
  0
SPLINE
  5
187
330
1F
100
AcDbEntity
  8
0
  6
Continuous
 62
     7
370
    15
100
AcDbSpline
210
0.0
220
0.0
230
1.0
 70
     8
 71
     3
 72
    24
 73
    20
 74
     0
 42
0.00000001
 43
0.00000001
 12
1.0
 22
0.0
 32
0.0
 13
1.0
 23
0.0
 33
0.0
 40
0.0
 40
0.0
 40
0.0
 40
0.0
 40
0.0169950105780237
 40
0.085554909496841
 40
0.1532816864079303
 40
0.2020796635783872
 40
0.2509778275825864
 40
0.3084108804097511
 40
0.3912881583238164
 40
0.4619779866249833
 40
0.5315121086361021
 40
0.5886524211654559
 40
0.6262693186741899
 40
0.686983863298332
 40
0.7647418784622498
 40
0.8309719711664286
 40
0.8870075307152968
 40
0.9478159424788901
 40
1.0
 40
1.0
 40
1.0
 40
1.0
 10
109.6381809518071
 20
123.734403469796
 30
0.0
 10
109.6564251497278
 20
123.7155150039073
 30
0.0
 10
109.7482686172434
 20
123.6204282146269
 30
0.0
 10
109.8661051518385
 20
123.4086294748231
 30
0.0
 10
109.9272480839125
 20
123.1250247266524
 30
0.0
 10
109.9013282806829
 20
122.8666117548462
 30
0.0
 10
109.795026172226
 20
122.6464725809919
 30
0.0
 10
109.5833470885882
 20
122.4377811420245
 30
0.0
 10
109.2806200728472
 20
122.2975359113005
 30
0.0
 10
108.9347356444681
 20
122.2546566682958
 30
0.0
 10
108.6287241920381
 20
122.3051133234005
 30
0.0
 10
108.4017705191067
 20
122.431356251571
 30
0.0
 10
108.2399828703013
 20
122.6120907323966
 30
0.0
 10
108.1235596635451
 20
122.8633004645338
 30
0.0
 10
108.0872531542983
 20
123.1831089886983
 30
0.0
 10
108.1430724093801
 20
123.4913561243222
 30
0.0
 10
108.2702102626823
 20
123.7467420871016
 30
0.0
 10
108.4578311366541
 20
123.9408059937299
 30
0.0
 10
108.6226382083291
 20
124.0028286751995
 30
0.0
 10
108.6987521455023
 20
124.0314730193567
 30
0.0
  0
SPLINE
  5
188
330
1F
100
AcDbEntity
  8
0
  6
Continuous
 62
     7
370
    15
100
AcDbSpline
210
0.0
220
0.0
230
1.0
 70
     8
 71
     3
 72
    13
 73
     9
 74
     0
 42
0.00000001
 43
0.00000001
 12
1.0
 22
0.0
 32
0.0
 13
1.0
 23
0.0
 33
0.0
 40
0.0
 40
0.0
 40
0.0
 40
0.0
 40
0.1184517046186738
 40
0.2361419100003309
 40
0.4197129662120007
 40
0.7100269349096904
 40
0.9860785347734086
 40
1.0
 40
1.0
 40
1.0
 40
1.0
 10
108.771767835352
 20
123.9972599532555
 30
0.0
 10
108.7713301007923
 20
123.997490395187
 30
0.0
 10
108.7704574457695
 20
123.9979497975911
 30
0.0
 10
108.763025287346
 20
124.0014616039848
 30
0.0
 10
108.7487944596023
 20
124.0085252072766
 30
0.0
 10
108.7265733160408
 20
124.0189780904512
 30
0.0
 10
108.7082931920119
 20
124.0271348824046
 30
0.0
 10
108.699189222626
 20
124.0312742884925
 30
0.0
 10
108.6987521455021
 20
124.0314730193565
 30
0.0
  0
ARC
  5
189
330
1F
100
AcDbEntity
  8
0
  6
Continuous
 62
     7
370
    15
100
AcDbCircle
 10
114.968746172
 20
108.1370547955
 30
0.0
 40
14.70771675917336
100
AcDbArc
 50
103.9719353955
 51
104.1667894284
  0
SPLINE
  5
18A
330
1F
100
AcDbEntity
  8
0
  6
Continuous
 62
     7
370
    15
100
AcDbSpline
210
0.0
220
0.0
230
1.0
 70
     8
 71
     3
 72
    10
 73
     6
 74
     0
 42
0.00000001
 43
0.00000001
 12
1.0
 22
0.0
 32
0.0
 13
1.0
 23
0.0
 33
0.0
 40
0.0
 40
0.0
 40
0.0
 40
0.0
 40
0.4891547706824345
 40
0.7445974315489634
 40
1.0
 40
1.0
 40
1.0
 40
1.0
 10
111.3690998360844
 20
122.397471287484
 30
0.0
 10
111.3456351676949
 20
122.5443300604962
 30
0.0
 10
111.3099169597529
 20
122.7678802980469
 30
0.0
 10
111.3335472497662
 20
123.0707727746465
 30
0.0
 10
111.3566932694797
 20
123.2235186604315
 30
0.0
 10
111.3682653710576
 20
123.2998856093834
 30
0.0
  0
ARC
  5
18B
330
1F
100
AcDbEntity
  8
0
  6
Continuous
 62
     7
370
    15
100
AcDbCircle
 10
111.7097556133
 20
125.1966564046
 30
0.0
 40
1.92726620761139
100
AcDbArc
 50
259.7939342989
 51
261.2814212851
  0
SPLINE
  5
18C
330
1F
100
AcDbEntity
  8
0
  6
Continuous
 62
     7
370
    15
100
AcDbSpline
210
0.0
220
0.0
230
1.0
 70
     8
 71
     3
 72
    11
 73
     7
 74
     0
 42
0.00000001
 43
0.00000001
 12
1.0
 22
0.0
 32
0.0
 13
1.0
 23
0.0
 33
0.0
 40
0.0
 40
0.0
 40
0.0
 40
0.0
 40
0.0001502374336043
 40
0.2579275629678696
 40
0.5142879582334334
 40
1.0
 40
1.0
 40
1.0
 40
1.0
 10
111.4176180169316
 20
123.2916601684044
 30
0.0
 10
111.4175981442897
 20
123.291620433372
 30
0.0
 10
111.3834808010131
 20
123.2234033465246
 30
0.0
 10
111.3935037810944
 20
123.0627444452954
 30
0.0
 10
111.3549390727154
 20
122.7716090827772
 30
0.0
 10
111.3928222009746
 20
122.5528294569389
 30
0.0
 10
111.4176180169316
 20
122.4096306350181
 30
0.0
  0
LINE
  5
18D
330
1F
100
AcDbEntity
  8
0
  6
Continuous
 62
     7
370
    15
100
AcDbLine
 10
108.6836125657
 20
124.1734512832
 30
0.0
 11
108.7717678354
 21
123.9972599533
 31
0.0
  0
LINE
  5
18E
330
1F
100
AcDbEntity
  8
0
  6
Continuous
 62
     7
370
    15
100
AcDbLine
 10
108.6987521455
 20
124.0314730194
 30
0.0
 11
108.6572077081
 21
124.1144426849
 31
0.0
  0
LINE
  5
18F
330
1F
100
AcDbEntity
  8
0
  6
Continuous
 62
     7
370
    15
100
AcDbLine
 10
109.5655824945
 20
123.7326153305
 30
0.0
 11
109.6537973687
 21
123.8207109954
 31
0.0
  0
ARC
  5
190
330
1F
100
AcDbEntity
  8
0
  6
Continuous
 62
     7
370
    15
100
AcDbCircle
 10
148.9841693962
 20
140.0385944562
 30
0.0
 40
42.54289491515942
100
AcDbArc
 50
202.4088081307
 51
202.4817653237
  0
LINE
  5
191
330
1F
100
AcDbEntity
  8
0
  6
Continuous
 62
     7
370
    15
100
AcDbLine
 10
109.6744801805
 20
123.7706430938
 30
0.0
 11
109.6381809518
 21
123.7344034698
 31
0.0
  0
ARC
  5
192
330
1F
100
AcDbEntity
  8
0
  6
Continuous
 62
     7
370
    15
100
AcDbCircle
 10
110.4120144297
 20
123.1444530387
 30
0.0
 40
0.54999999996474
100
AcDbArc
 50
81.8595111976
 51
90.0000000003
  0
SPLINE
  5
193
330
1F
100
AcDbEntity
  8
0
  6
Continuous
 62
     7
370
    15
100
AcDbSpline
210
0.0
220
0.0
230
1.0
 70
     8
 71
     3
 72
    11
 73
     7
 74
     0
 42
0.00000001
 43
0.00000001
 12
1.0
 22
0.0
 32
0.0
 13
1.0
 23
0.0
 33
0.0
 40
0.0
 40
0.0
 40
0.0
 40
0.0
 40
0.2488496461305619
 40
0.4994890661000636
 40
0.7496611059316775
 40
1.0
 40
1.0
 40
1.0
 40
1.0
 10
110.4898717210027
 20
123.6888655211878
 30
0.0
 10
110.48895832709
 20
123.6824181253681
 30
0.0
 10
110.4871249699621
 20
123.6694769628356
 30
0.0
 10
110.4847239075684
 20
123.6531205329229
 30
0.0
 10
110.4831715268995
 20
123.6416831058872
 30
0.0
 10
110.4829494489238
 20
123.640156982232
 30
0.0
 10
110.4828383729191
 20
123.639393666024
 30
0.0
  0
ARC
  5
194
330
1F
100
AcDbEntity
  8
0
  6
Continuous
 62
     7
370
    15
100
AcDbCircle
 10
110.4120144297
 20
123.1444530387
 30
0.0
 40
0.499999999964735
100
AcDbArc
 50
81.8595685704
 51
90.0000000003
  0
LINE
  5
195
330
1F
100
AcDbEntity
  8
0
  6
Continuous
 62
     7
370
    15
100
AcDbLine
 10
110.4120280549
 20
123.6944683578
 30
0.0
 11
110.4120280549
 21
123.6444004562
 31
0.0
  0
LINE
  5
196
330
1F
100
AcDbEntity
  8
0
  6
Continuous
 62
     7
370
    15
100
AcDbLine
 10
110.489871721
 20
123.6888655212
 30
0.0
 11
111.1148860261
 21
123.599458554
 31
0.0
  0
LINE
  5
197
330
1F
100
AcDbEntity
  8
0
  6
Continuous
 62
     7
370
    15
100
AcDbLine
 10
109.8835732743
 20
123.6944683578
 30
0.0
 11
110.4120280549
 21
123.6944683578
 31
0.0
  0
LINE
  5
198
330
1F
100
AcDbEntity
  8
0
  6
Continuous
 62
     7
370
    15
100
AcDbLine
 10
111.4468838975
 20
123.7706430938
 30
0.0
 11
109.6744801805
 21
123.7706430938
 31
0.0
  0
LINE
  5
199
330
1F
100
AcDbEntity
  8
0
  6
Continuous
 62
     7
370
    15
100
AcDbLine
 10
111.3682653711
 20
123.2998856094
 30
0.0
 11
111.4468838975
 21
123.7706430938
 31
0.0
  0
LINE
  5
19A
330
1F
100
AcDbEntity
  8
0
  6
Continuous
 62
     7
370
    15
100
AcDbLine
 10
111.4418175027
 20
122.1069582488
 30
0.0
 11
111.3690998361
 21
122.3974712875
 31
0.0
  0
LINE
  5
19B
330
1F
100
AcDbEntity
  8
0
  6
Continuous
 62
     7
370
    15
100
AcDbLine
 10
111.1148860261
 20
122.1069582488
 30
0.0
 11
111.4418175027
 21
122.1069582488
 31
0.0
  0
LINE
  5
19C
330
1F
100
AcDbEntity
  8
0
  6
Continuous
 62
     7
370
    15
100
AcDbLine
 10
111.1148860261
 20
123.599458554
 30
0.0
 11
111.1148860261
 21
122.1069582488
 31
0.0
  0
ARC
  5
19D
330
1F
100
AcDbEntity
  8
0
  6
Continuous
 62
     7
370
    15
100
AcDbCircle
 10
109.3096059159
 20
125.635193324
 30
0.0
 40
2.720891826194319
100
AcDbArc
 50
310.1738486299
 51
311.5664622811
  0
LINE
  5
19E
330
1F
100
AcDbEntity
  8
0
  6
Continuous
 62
     7
370
    15
100
AcDbLine
 10
111.0648777292
 20
123.5561855819
 30
0.0
 11
110.4828383729
 21
123.639393666
 31
0.0
  0
LINE
  5
19F
330
1F
100
AcDbEntity
  8
0
  6
Continuous
 62
     7
370
    15
100
AcDbLine
 10
109.6537973687
 20
123.8207109954
 30
0.0
 11
111.5058924958
 21
123.8207109954
 31
0.0
  0
ARC
  5
1A0
330
1F
100
AcDbEntity
  8
0
  6
Continuous
 62
     7
370
    15
100
AcDbCircle
 10
122.3404490931
 20
110.9916052739
 30
0.0
 40
16.79206867168222
100
AcDbArc
 50
130.1820742817
 51
130.4461260393
  0
LINE
  5
1A1
330
1F
100
AcDbEntity
  8
0
  6
Continuous
 62
     7
370
    15
100
AcDbLine
 10
110.4120280549
 20
123.6444004562
 30
0.0
 11
110.0065972612
 21
123.6444004562
 31
0.0
  0
ARC
  5
1A2
330
1F
100
AcDbEntity
  8
0
  6
Continuous
 62
     7
370
    15
100
AcDbCircle
 10
106.5095846185
 20
126.6677469103
 30
0.0
 40
6.481480870137324
100
AcDbArc
 50
314.653428777
 51
315.2782399496
  0
LINE
  5
1A3
330
1F
100
AcDbEntity
  8
0
  6
Continuous
 62
     7
370
    15
100
AcDbLine
 10
111.0648777292
 20
122.0570095565
 30
0.0
 11
111.0648777292
 21
123.5561855819
 31
0.0
  0
ARC
  5
1A4
330
1F
100
AcDbEntity
  8
0
  6
Continuous
 62
     7
370
    15
100
AcDbCircle
 10
118.0024587153
 20
130.4569827031
 30
0.0
 40
10.61908289384919
100
AcDbArc
 50
231.8431649519
 51
232.2815183008
  0
LINE
  5
1A5
330
1F
100
AcDbEntity
  8
0
  6
Continuous
 62
     7
370
    15
100
AcDbLine
 10
111.5058924958
 20
122.0570095565
 30
0.0
 11
111.0648777292
 21
122.0570095565
 31
0.0
  0
LINE
  5
1A6
330
1F
100
AcDbEntity
  8
0
  6
Continuous
 62
     7
370
    15
100
AcDbLine
 10
111.5058924958
 20
123.8207109954
 30
0.0
 11
111.4176180169
 21
123.2916601684
 31
0.0
  0
LINE
  5
1A7
330
1F
100
AcDbEntity
  8
0
  6
Continuous
 62
     7
370
    15
100
AcDbLine
 10
111.4176180169
 20
122.409630635
 30
0.0
 11
111.5058924958
 21
122.0570095565
 31
0.0
  0
LINE
  5
1A8
330
1F
100
AcDbEntity
  8
0
  6
Continuous
 62
     7
370
    15
100
AcDbLine
 10
108.3545949266
 20
125.7609613922
 30
0.0
 11
111.1530926034
 21
125.7609613922
 31
0.0
  0
SPLINE
  5
1A9
330
1F
100
AcDbEntity
  8
0
  6
Continuous
 62
     7
370
    15
100
AcDbSpline
210
0.0
220
0.0
230
1.0
 70
     8
 71
     3
 72
    13
 73
     9
 74
     0
 42
0.00000001
 43
0.00000001
 12
1.0
 22
0.0
 32
0.0
 13
1.0
 23
0.0
 33
0.0
 40
0.0
 40
0.0
 40
0.0
 40
0.0
 40
0.0479029653864372
 40
0.1078562113709523
 40
0.2075566410350586
 40
0.4207551693844271
 40
0.9888390320753726
 40
1.0
 40
1.0
 40
1.0
 40
1.0
 10
111.1530926034185
 20
125.7609613921595
 30
0.0
 10
111.153344380807
 20
125.7608691494751
 30
0.0
 10
111.1539112717081
 20
125.7606614599016
 30
0.0
 10
111.1592630793549
 20
125.7583095877246
 30
0.0
 10
111.1725008351133
 20
125.7530321440696
 30
0.0
 10
111.2103745853551
 20
125.7373862591082
 30
0.0
 10
111.2468222228514
 20
125.7215143164245
 30
0.0
 10
111.2736330424507
 20
125.7112112212719
 30
0.0
 10
111.2741496369573
 20
125.7110126998377
 30
0.0
  0
LINE
  5
1AA
330
1F
100
AcDbEntity
  8
0
  6
Continuous
 62
     7
370
    15
100
AcDbLine
 10
111.274149637
 20
125.7110126998
 30
0.0
 11
108.3545949266
 21
125.7110126998
 31
0.0
  0
SPLINE
  5
1AB
330
1F
100
AcDbEntity
  8
0
  6
Continuous
 62
     7
370
    15
100
AcDbSpline
210
0.0
220
0.0
230
1.0
 70
     8
 71
     3
 72
     8
 73
     4
 74
     0
 42
0.00000001
 43
0.00000001
 12
1.0
 22
0.0
 32
0.0
 13
1.0
 23
0.0
 33
0.0
 40
0.0
 40
0.0
 40
0.0
 40
0.0
 40
1.0
 40
1.0
 40
1.0
 40
1.0
 10
108.3545940881849
 20
125.7609640860377
 30
0.0
 10
108.3545941345934
 20
125.7609640860377
 30
0.0
 10
108.3545941344187
 20
125.7371764215715
 30
0.0
 10
108.354594129591
 20
125.7110126997222
 30
0.0
  0
SPLINE
  5
1AC
330
1F
100
AcDbEntity
  8
0
  6
Continuous
 62
     7
370
    15
100
AcDbSpline
210
0.0
220
0.0
230
1.0
 70
     8
 71
     3
 72
    14
 73
    10
 74
     0
 42
0.00000001
 43
0.00000001
 12
1.0
 22
0.0
 32
0.0
 13
1.0
 23
0.0
 33
0.0
 40
0.0
 40
0.0
 40
0.0
 40
0.0
 40
0.1249999999999109
 40
0.1249999999999109
 40
0.2499999999998218
 40
0.2499999999998218
 40
0.4999999999996435
 40
0.4999999999996435
 40
1.0
 40
1.0
 40
1.0
 40
1.0
 10
111.1530883340467
 20
125.760958605767
 30
0.0
 10
111.1268565593807
 20
125.7870892582999
 30
0.0
 10
111.0992754692401
 20
125.8120390701753
 30
0.0
 10
111.0491611713694
 20
125.8659390009539
 30
0.0
 10
111.0271636490391
 20
125.8951891124013
 30
0.0
 10
110.9704656099743
 20
125.9899268260973
 30
0.0
 10
110.9435991173023
 20
126.0595277301097
 30
0.0
 10
110.8717098129252
 20
126.2683178183987
 30
0.0
 10
110.8352707922119
 20
126.4116461595066
 30
0.0
 10
110.8004038164103
 20
126.5550123571252
 30
0.0
  0
SPLINE
  5
1AD
330
1F
100
AcDbEntity
  8
0
  6
Continuous
 62
     7
370
    15
100
AcDbSpline
210
0.0
220
0.0
230
1.0
 70
     8
 71
     3
 72
    13
 73
     9
 74
     0
 42
0.00000001
 43
0.00000001
 12
1.0
 22
0.0
 32
0.0
 13
1.0
 23
0.0
 33
0.0
 40
0.0
 40
0.0
 40
0.0
 40
0.0
 40
0.1187245520020183
 40
0.2365837877922808
 40
0.4173831101855297
 40
0.6996711861441444
 40
0.9864765200671641
 40
1.0
 40
1.0
 40
1.0
 40
1.0
 10
110.8004119202824
 20
126.555014469857
 30
0.0
 10
110.8008145442807
 20
126.5547312578307
 30
0.0
 10
110.8016168577779
 20
126.554166897951
 30
0.0
 10
110.8079324854808
 20
126.5491019303304
 30
0.0
 10
110.8202997133394
 20
126.539358383084
 30
0.0
 10
110.8398001864683
 20
126.5243169342602
 30
0.0
 10
110.8554828171618
 20
126.5115144627759
 30
0.0
 10
110.8638707933879
 20
126.5053436428469
 30
0.0
 10
110.864248494837
 20
126.5050657775354
 30
0.0
  0
SPLINE
  5
1AE
330
1F
100
AcDbEntity
  8
0
  6
Continuous
 62
     7
370
    15
100
AcDbSpline
210
0.0
220
0.0
230
1.0
 70
     8
 71
     3
 72
    11
 73
     7
 74
     0
 42
0.00000001
 43
0.00000001
 12
1.0
 22
0.0
 32
0.0
 13
1.0
 23
0.0
 33
0.0
 40
0.0
 40
0.0
 40
0.0
 40
0.0
 40
0.2224249348871306
 40
0.5990607425738965
 40
0.7920278374314492
 40
1.0
 40
1.0
 40
1.0
 40
1.0
 10
110.8642484948369
 20
126.5050657775352
 30
0.0
 10
110.8815657735663
 20
126.4398296552864
 30
0.0
 10
110.9282066857481
 20
126.2641281321781
 30
0.0
 10
110.9906675820297
 20
126.0257946613652
 30
0.0
 10
111.1389040683079
 20
125.8376083344576
 30
0.0
 10
111.227956853465
 20
125.7542511201383
 30
0.0
 10
111.2741496369572
 20
125.7110126998375
 30
0.0
  0
LINE
  5
1AF
330
1F
100
AcDbEntity
  8
0
  6
Continuous
 62
     7
370
    15
100
AcDbLine
 10
111.0239293382
 20
126.5050657775
 30
0.0
 11
110.8642484948
 21
126.5050657775
 31
0.0
  0
LINE
  5
1B0
330
1F
100
AcDbEntity
  8
0
  6
Continuous
 62
     7
370
    15
100
AcDbLine
 10
110.8004119203
 20
126.5550144699
 30
0.0
 11
111.0648777292
 21
126.5550144699
 31
0.0
  0
ARC
  5
1B1
330
1F
100
AcDbEntity
  8
0
  6
Continuous
 62
     7
370
    15
100
AcDbCircle
 10
101.5332741953
 20
134.3273502137
 30
0.0
 40
12.29880761866087
100
AcDbArc
 50
320.5043421522
 51
320.8052362504
  0
ARC
  5
1B2
330
1F
100
AcDbEntity
  8
0
  6
Continuous
 62
     7
370
    15
100
AcDbCircle
 10
110.8758968432
 20
125.6284001636
 30
0.0
 40
0.450000000004193
100
AcDbArc
 50
18.4616849383
 51
33.6946575407
  0
SPLINE
  5
1B3
330
1F
100
AcDbEntity
  8
0
  6
Continuous
 62
     7
370
    15
100
AcDbSpline
210
0.0
220
0.0
230
1.0
 70
    24
 71
     3
 72
     8
 73
     4
 74
     0
 42
0.00000001
 43
0.00000001
 12
1.0
 22
0.0
 32
0.0
 13
1.0
 23
0.0
 33
0.0
 40
0.0
 40
0.0
 40
0.0
 40
0.0
 40
1.0
 40
1.0
 40
1.0
 40
1.0
 10
111.2502937040641
 20
125.8780413967728
 30
0.0
 10
111.2720761300671
 20
125.8925643135577
 30
0.0
 10
111.2918950733151
 20
125.9057781247059
 30
0.0
 10
111.2918950733151
 20
125.9057781247059
 30
0.0
  0
ARC
  5
1B4
330
1F
100
AcDbEntity
  8
0
  6
Continuous
 62
     7
370
    15
100
AcDbCircle
 10
110.8758968432
 20
125.6284001636
 30
0.0
 40
0.5000000000041995
100
AcDbArc
 50
18.4616849383
 51
33.6944351624
  0
SPLINE
  5
1B5
330
1F
100
AcDbEntity
  8
0
  6
Continuous
 62
     7
370
    15
100
AcDbSpline
210
0.0
220
0.0
230
1.0
 70
    24
 71
     3
 72
     8
 73
     4
 74
     0
 42
0.00000001
 43
0.00000001
 12
1.0
 22
0.0
 32
0.0
 13
1.0
 23
0.0
 33
0.0
 40
0.0
 40
0.0
 40
0.0
 40
0.0
 40
1.0
 40
1.0
 40
1.0
 40
1.0
 10
111.3027378777745
 20
125.7709018520525
 30
0.0
 10
111.3275704825609
 20
125.7791922642283
 30
0.0
 10
111.3501646593936
 20
125.7867353729893
 30
0.0
 10
111.3501646593936
 20
125.7867353729893
 30
0.0
  0
LINE
  5
1B6
330
1F
100
AcDbEntity
  8
0
  6
Continuous
 62
     7
370
    15
100
AcDbLine
 10
111.4558841989
 20
125.312138417
 30
0.0
 11
111.3027598664
 21
125.7708557632
 31
0.0
  0
LINE
  5
1B7
330
1F
100
AcDbEntity
  8
0
  6
Continuous
 62
     7
370
    15
100
AcDbLine
 10
111.350145559
 20
125.7867105987
 30
0.0
 11
111.5058924958
 21
125.3202446487
 31
0.0
  0
LINE
  5
1B8
330
1F
100
AcDbEntity
  8
0
  6
Continuous
 62
     7
370
    15
100
AcDbLine
 10
111.4558841989
 20
125.312138417
 30
0.0
 11
111.5058924958
 21
125.3202446487
 31
0.0
  0
ARC
  5
1B9
330
1F
100
AcDbEntity
  8
0
  6
Continuous
 62
     7
370
    15
100
AcDbCircle
 10
111.6239877469
 20
126.3090156681
 30
0.0
 40
0.5500000000611762
100
AcDbArc
 50
191.3074536794
 51
213.6950623631
  0
LINE
  5
1BA
330
1F
100
AcDbEntity
  8
0
  6
Continuous
 62
     7
370
    15
100
AcDbLine
 10
111.250307779
 20
125.8780249145
 30
0.0
 11
111.1663844392
 21
126.0039099243
 31
0.0
  0
LINE
  5
1BB
330
1F
100
AcDbEntity
  8
0
  6
Continuous
 62
     7
370
    15
100
AcDbLine
 10
111.4558841989
 20
125.2929457214
 30
0.0
 11
111.4558841989
 21
125.312138417
 31
0.0
  0
LINE
  5
1BC
330
1F
100
AcDbEntity
  8
0
  6
Continuous
 62
     7
370
    15
100
AcDbLine
 10
111.123290281
 20
125.3595837142
 30
0.0
 11
111.4558841989
 21
125.2929457214
 31
0.0
  0
ARC
  5
1BD
330
1F
100
AcDbEntity
  8
0
  6
Continuous
 62
     7
370
    15
100
AcDbCircle
 10
111.0153291242
 20
124.8202530387
 30
0.0
 40
0.5499999999809546
100
AcDbArc
 50
78.6774475927
 51
90.0000000002
  0
LINE
  5
1BE
330
1F
100
AcDbEntity
  8
0
  6
Continuous
 62
     7
370
    15
100
AcDbLine
 10
108.3545949266
 20
125.3703125503
 30
0.0
 11
111.0153462693
 21
125.3703125503
 31
0.0
  0
ARC
  5
1BF
330
1F
100
AcDbEntity
  8
0
  6
Continuous
 62
     7
370
    15
100
AcDbCircle
 10
108.3545939227
 20
125.1202530387
 30
0.0
 40
0.2499999999999716
100
AcDbArc
 50
90.0
 51
180.0000000001
  0
LINE
  5
1C0
330
1F
100
AcDbEntity
  8
0
  6
Continuous
 62
     7
370
    15
100
AcDbLine
 10
108.1046130464
 20
124.8409040954
 30
0.0
 11
108.1046130464
 21
125.1202114608
 31
0.0
  0
LINE
  5
1C1
330
1F
100
AcDbEntity
  8
0
  6
Continuous
 62
     7
370
    15
100
AcDbLine
 10
108.0280806825
 20
124.8409040954
 30
0.0
 11
108.1046130464
 21
124.8409040954
 31
0.0
  0
LINE
  5
1C2
330
1F
100
AcDbEntity
  8
0
  6
Continuous
 62
     7
370
    15
100
AcDbLine
 10
108.0280806825
 20
126.3285168197
 30
0.0
 11
108.0280806825
 21
124.8409040954
 31
0.0
  0
LINE
  5
1C3
330
1F
100
AcDbEntity
  8
0
  6
Continuous
 62
     7
370
    15
100
AcDbLine
 10
108.1046130464
 20
126.3285168197
 30
0.0
 11
108.0280806825
 21
126.3285168197
 31
0.0
  0
LINE
  5
1C4
330
1F
100
AcDbEntity
  8
0
  6
Continuous
 62
     7
370
    15
100
AcDbLine
 10
108.1046130464
 20
125.96099458
 30
0.0
 11
108.1046130464
 21
126.3285168197
 31
0.0
  0
ARC
  5
1C5
330
1F
100
AcDbEntity
  8
0
  6
Continuous
 62
     7
370
    15
100
AcDbCircle
 10
108.3545939227
 20
125.9609530387
 30
0.0
 40
0.249999999999762
100
AcDbArc
 50
179.9983461062
 51
270.00004742
  0
LINE
  5
1C6
330
1F
100
AcDbEntity
  8
0
  6
Continuous
 62
     7
370
    15
100
AcDbLine
 10
111.0846664712
 20
126.2012012985
 30
0.0
 11
111.0239293382
 21
126.5050657775
 31
0.0
  0
ARC
  5
1C7
330
1F
100
AcDbEntity
  8
0
  6
Continuous
 62
     7
370
    15
100
AcDbCircle
 10
105.789870451
 20
134.1021895972
 30
0.0
 40
9.72054712077895
100
AcDbArc
 50
303.5805085501
 51
303.8753644677
  0
LINE
  5
1C8
330
1F
100
AcDbEntity
  8
0
  6
Continuous
 62
     7
370
    15
100
AcDbLine
 10
111.2079884813
 20
126.0316856887
 30
0.0
 11
111.2919118211
 21
125.905800679
 31
0.0
  0
ARC
  5
1C9
330
1F
100
AcDbEntity
  8
0
  6
Continuous
 62
     7
370
    15
100
AcDbCircle
 10
108.3545939227
 20
125.9609530387
 30
0.0
 40
0.1999999999998298
100
AcDbArc
 50
179.9979326348
 51
270.00004742
  0
SPLINE
  5
1CA
330
1F
100
AcDbEntity
  8
0
  6
Continuous
 62
     7
370
    15
100
AcDbSpline
210
0.0
220
0.0
230
1.0
 70
    24
 71
     3
 72
    11
 73
     7
 74
     0
 42
0.00000001
 43
0.00000001
 12
1.0
 22
0.0
 32
0.0
 13
1.0
 23
0.0
 33
0.0
 40
0.0
 40
0.0
 40
0.0
 40
0.0
 40
0.250026930861096
 40
0.5000971507909203
 40
0.7500092617134583
 40
1.0
 40
1.0
 40
1.0
 40
1.0
 10
108.1546213433476
 20
125.9609945800255
 30
0.0
 10
108.1538669327058
 20
125.9609945800255
 30
0.0
 10
108.1523579808052
 20
125.9609945800255
 30
0.0
 10
108.1407862546218
 20
125.9609945800252
 30
0.0
 10
108.1242669329006
 20
125.9609945800257
 30
0.0
 10
108.1111650287997
 20
125.9609945800255
 30
0.0
 10
108.104613046381
 20
125.9609945800255
 30
0.0
  0
LINE
  5
1CB
330
1F
100
AcDbEntity
  8
0
  6
Continuous
 62
     7
370
    15
100
AcDbLine
 10
108.1546213433
 20
126.3785847213
 30
0.0
 11
108.1546213433
 21
125.96099458
 31
0.0
  0
ARC
  5
1CC
330
1F
100
AcDbEntity
  8
0
  6
Continuous
 62
     7
370
    15
100
AcDbCircle
 10
121.0721697614
 20
113.4264060047
 30
0.0
 40
18.29267587426255
100
AcDbArc
 50
134.9233015192
 51
135.1449483589
  0
LINE
  5
1CD
330
1F
100
AcDbEntity
  8
0
  6
Continuous
 62
     7
370
    15
100
AcDbLine
 10
107.9780723855
 20
126.3785847213
 30
0.0
 11
108.1546213433
 21
126.3785847213
 31
0.0
  0
ARC
  5
1CE
330
1F
100
AcDbEntity
  8
0
  6
Continuous
 62
     7
370
    15
100
AcDbCircle
 10
95.0605239675
 20
113.4264060047
 30
0.0
 40
18.29267587426253
100
AcDbArc
 50
44.8550516411
 51
45.0766984808
  0
LWPOLYLINE
  5
1CF
330
1F
100
AcDbEntity
  8
0
  6
Continuous
 62
     7
370
    15
100
AcDbPolyline
 90
        9
 70
   128
 43
0.0
 10
111.0846664712
 20
126.2012012985
 10
111.0942032144
 20
126.2031086471
 10
111.1034419343
 20
126.2048967864
 10
111.1119057939
 20
126.2065657165
 10
111.1193563745
 20
126.2081154373
 10
111.1254360482
 20
126.2093075302
 10
111.1299660012
 20
126.2102612045
 10
111.1327674195
 20
126.2107380416
 10
111.1337210939
 20
126.2109764602
  0
ARC
  5
1D0
330
1F
100
AcDbEntity
  8
0
  6
Continuous
 62
     7
370
    15
100
AcDbCircle
 10
111.6239877469
 20
126.3090156681
 30
0.0
 40
0.5000000000086696
100
AcDbArc
 50
191.3074345111
 51
213.6950623631
  0
LINE
  5
1D1
330
1F
100
AcDbEntity
  8
0
  6
Continuous
 62
     7
370
    15
100
AcDbLine
 10
108.1546213433
 20
124.7909554031
 30
0.0
 11
107.9780723855
 21
124.7909554031
 31
0.0
  0
ARC
  5
1D2
330
1F
100
AcDbEntity
  8
0
  6
Continuous
 62
     7
370
    15
100
AcDbCircle
 10
136.099215965
 20
96.6862627056
 30
0.0
 40
39.7576718111136
100
AcDbArc
 50
134.9149047949
 51
135.0167639317
  0
ARC
  5
1D3
330
1F
100
AcDbEntity
  8
0
  6
Continuous
 62
     7
370
    15
100
AcDbCircle
 10
80.0334777639
 20
96.6862627056
 30
0.0
 40
39.7576718111136
100
AcDbArc
 50
44.9832360683
 51
45.0850952051
  0
LINE
  5
1D4
330
1F
100
AcDbEntity
  8
0
  6
Continuous
 62
     7
370
    15
100
AcDbLine
 10
107.9780723855
 20
124.7909554031
 30
0.0
 11
107.9780723855
 21
126.3785847213
 31
0.0
  0
ARC
  5
1D5
330
1F
100
AcDbEntity
  8
0
  6
Continuous
 62
     7
370
    15
100
AcDbCircle
 10
108.3545939227
 20
125.1202530387
 30
0.0
 40
0.1999999999998749
100
AcDbArc
 50
90.0
 51
180.0000000001
  0
LINE
  5
1D6
330
1F
100
AcDbEntity
  8
0
  6
Continuous
 62
     7
370
    15
100
AcDbLine
 10
108.1546213433
 20
125.1202114608
 30
0.0
 11
108.1046130464
 21
125.1202114608
 31
0.0
  0
LINE
  5
1D7
330
1F
100
AcDbEntity
  8
0
  6
Continuous
 62
     7
370
    15
100
AcDbLine
 10
108.3545949266
 20
125.3202446487
 30
0.0
 11
108.3545949266
 21
125.3703125503
 31
0.0
  0
LINE
  5
1D8
330
1F
100
AcDbEntity
  8
0
  6
Continuous
 62
     7
370
    15
100
AcDbLine
 10
108.1546213433
 20
125.1202114608
 30
0.0
 11
108.1546213433
 21
124.7909554031
 31
0.0
  0
ARC
  5
1D9
330
1F
100
AcDbEntity
  8
0
  6
Continuous
 62
     7
370
    15
100
AcDbCircle
 10
165.8281375004
 20
169.7910824786
 30
0.0
 40
70.25970469581509
100
AcDbArc
 50
219.2968214309
 51
219.3611679534
  0
LINE
  5
1DA
330
1F
100
AcDbEntity
  8
0
  6
Continuous
 62
     7
370
    15
100
AcDbLine
 10
111.5058924958
 20
125.2319105651
 30
0.0
 11
111.1135151193
 21
125.3104694869
 31
0.0
  0
ARC
  5
1DB
330
1F
100
AcDbEntity
  8
0
  6
Continuous
 62
     7
370
    15
100
AcDbCircle
 10
136.134304295
 20
120.3561335647
 30
0.0
 40
25.5065743565745
100
AcDbArc
 50
168.687320005
 51
168.7998099356
  0
LINE
  5
1DC
330
1F
100
AcDbEntity
  8
0
  6
Continuous
 62
     7
370
    15
100
AcDbLine
 10
111.5058924958
 20
125.3202446487
 30
0.0
 11
111.5058924958
 21
125.2319105651
 31
0.0
  0
LINE
  5
1DD
330
1F
100
AcDbEntity
  8
0
  6
Continuous
 62
     7
370
    15
100
AcDbLine
 10
111.0648777292
 20
126.5550144699
 30
0.0
 11
111.1337210939
 21
126.2109764602
 31
0.0
  0
LINE
  5
1DE
330
1F
100
AcDbEntity
  8
0
  6
Continuous
 62
     7
370
    15
100
AcDbLine
 10
111.0153462693
 20
125.3202446487
 30
0.0
 11
108.3545949266
 21
125.3202446487
 31
0.0
  0
LINE
  5
1DF
330
1F
100
AcDbEntity
  8
0
  6
Continuous
 62
     7
370
    15
100
AcDbLine
 10
111.0153462693
 20
125.3703125503
 30
0.0
 11
111.0153462693
 21
125.3202446487
 31
0.0
  0
ARC
  5
1E0
330
1F
100
AcDbEntity
  8
0
  6
Continuous
 62
     7
370
    15
100
AcDbCircle
 10
111.0153291242
 20
124.8202530387
 30
0.0
 40
0.4999999999808633
100
AcDbArc
 50
78.6775755319
 51
90.0000000002
  0
LINE
  5
1E1
330
1F
100
AcDbEntity
  8
0
  6
Continuous
 62
     7
370
    15
100
AcDbLine
 10
113.4824421212
 20
124.9554642227
 30
0.0
 11
112.6305725381
 21
124.9554642227
 31
0.0
  0
LINE
  5
1E2
330
1F
100
AcDbEntity
  8
0
  6
Continuous
 62
     7
370
    15
100
AcDbLine
 10
112.6305725381
 20
124.9554642227
 30
0.0
 11
112.6305725381
 21
125.0554808166
 31
0.0
  0
LINE
  5
1E3
330
1F
100
AcDbEntity
  8
0
  6
Continuous
 62
     7
370
    15
100
AcDbLine
 10
112.6305725381
 20
125.0554808166
 30
0.0
 11
113.3806969926
 21
125.0554808166
 31
0.0
  0
SPLINE
  5
1E4
330
1F
100
AcDbEntity
  8
0
  6
Continuous
 62
     7
370
    15
100
AcDbSpline
210
0.0
220
0.0
230
1.0
 70
     8
 71
     3
 72
    13
 73
     9
 74
     0
 42
0.00000001
 43
0.00000001
 12
1.0
 22
0.0
 32
0.0
 13
1.0
 23
0.0
 33
0.0
 40
0.0
 40
0.0
 40
0.0
 40
0.0
 40
0.0105767275457464
 40
0.2542619022339355
 40
0.5278943629761845
 40
0.7236405023728862
 40
0.8615249702281889
 40
1.0
 40
1.0
 40
1.0
 40
1.0
 10
113.4824421212407
 20
124.9554642226646
 30
0.0
 10
113.481965378653
 20
124.955941139313
 30
0.0
 10
113.4705046053031
 20
124.9674060970427
 30
0.0
 10
113.4463695261407
 20
124.9909233247512
 30
0.0
 10
113.4157038544003
 20
125.021015327247
 30
0.0
 10
113.3945525007828
 20
125.0418978984813
 30
0.0
 10
113.3828511579885
 20
125.0533550886867
 30
0.0
 10
113.3814160699647
 20
125.0547712318925
 30
0.0
 10
113.3806969926091
 20
125.0554808165977
 30
0.0
  0
ARC
  5
1E5
330
1F
100
AcDbEntity
  8
0
  6
Continuous
 62
     7
370
    15
100
AcDbCircle
 10
82.8860939227
 20
124.4824530387
 30
0.0
 40
30.60000000000006
100
AcDbArc
 50
0.8856813253
 51
89.2792899383
  0
ARC
  5
1E6
330
1F
100
AcDbEntity
  8
0
  6
Continuous
 62
     7
370
    15
100
AcDbCircle
 10
82.8860939227
 20
124.4824530387
 30
0.0
 40
30.5000000000001
100
AcDbArc
 50
1.0764725641
 51
89.0890526556
  0
SPLINE
  5
1E7
330
1F
100
AcDbEntity
  8
0
  6
Continuous
 62
     7
370
    15
100
AcDbSpline
210
0.0
220
0.0
230
1.0
 70
     8
 71
     3
 72
    13
 73
     9
 74
     0
 42
0.00000001
 43
0.00000001
 12
1.0
 22
0.0
 32
0.0
 13
1.0
 23
0.0
 33
0.0
 40
0.0
 40
0.0
 40
0.0
 40
0.0
 40
0.0105869477350308
 40
0.2536174051639699
 40
0.5274536087151979
 40
0.7232255581230329
 40
0.8612321207120003
 40
1.0
 40
1.0
 40
1.0
 40
1.0
 10
83.27099345180707
 20
155.0800093200157
 30
0.0
 10
83.27147034962587
 20
155.0795325568992
 30
0.0
 10
83.28289475544634
 20
155.068111377959
 30
0.0
 10
83.30643714471239
 20
155.0440933991967
 30
0.0
 10
83.33654336687643
 20
155.0135143557766
 30
0.0
 10
83.3574327429348
 20
154.992386107765
 30
0.0
 10
83.36888824461184
 20
154.9808046601464
 30
0.0
 10
83.37030148291066
 20
154.9793110659185
 30
0.0
 10
83.37101004574018
 20
154.978562214608
 30
0.0
  0
LINE
  5
1E8
330
1F
100
AcDbEntity
  8
0
  6
Continuous
 62
     7
370
    15
100
AcDbLine
 10
83.2709934518
 20
154.0838964965
 30
0.0
 11
83.2709934518
 21
155.08000932
 31
0.0
  0
LINE
  5
1E9
330
1F
100
AcDbEntity
  8
0
  6
Continuous
 62
     7
370
    15
100
AcDbLine
 10
83.3710100457
 20
154.9785622146
 30
0.0
 11
83.3710100457
 21
153.9838799026
 31
0.0
  0
LWPOLYLINE
  5
1EA
330
1F
100
AcDbEntity
  8
0
  6
Continuous
 62
     7
370
    15
100
AcDbPolyline
 90
        9
 70
   128
 43
0.0
 10
83.2709934518
 20
154.0838964965
 10
83.2904841706
 20
154.064346173
 10
83.3092596338
 20
154.0456303146
 10
83.3265449807
 20
154.0283449676
 10
83.3416845605
 20
154.0130861785
 10
83.3541419313
 20
154.0006884124
 10
83.3633806512
 20
153.9915092971
 10
83.3690430925
 20
153.9857872512
 10
83.3710100457
 20
153.9838799026
  0
ARC
  5
1EB
330
1F
100
AcDbEntity
  8
0
  6
Continuous
 62
     7
370
    15
100
AcDbCircle
 10
82.8860939227
 20
124.4824530387
 30
0.0
 40
30.50000000000009
100
AcDbArc
 50
270.910947337
 51
358.9235386778
  0
SPLINE
  5
1EC
330
1F
100
AcDbEntity
  8
0
  6
Continuous
 62
     7
370
    15
100
AcDbSpline
210
0.0
220
0.0
230
1.0
 70
     8
 71
     3
 72
    13
 73
     9
 74
     0
 42
0.00000001
 43
0.00000001
 12
1.0
 22
0.0
 32
0.0
 13
1.0
 23
0.0
 33
0.0
 40
0.0
 40
0.0
 40
0.0
 40
0.0
 40
0.1384057381430011
 40
0.276300839692878
 40
0.4720620750949008
 40
0.7457156384606609
 40
0.9898536003736143
 40
1.0
 40
1.0
 40
1.0
 40
1.0
 10
113.3806969926091
 20
123.9095219161461
 30
0.0
 10
113.3814160594514
 20
123.9101823809391
 30
0.0
 10
113.3828515401979
 20
123.911500873794
 30
0.0
 10
113.3945605074622
 20
123.9229894868258
 30
0.0
 10
113.4156514458322
 20
123.9439174087644
 30
0.0
 10
113.4466551391199
 20
123.9737017126762
 30
0.0
 10
113.4700051494308
 20
123.9980385437977
 30
0.0
 10
113.4819649056341
 20
124.0089826129102
 30
0.0
 10
113.4824421212408
 20
124.0094193007898
 30
0.0
  0
ARC
  5
1ED
330
1F
100
AcDbEntity
  8
0
  6
Continuous
 62
     7
370
    15
100
AcDbCircle
 10
82.8860939227
 20
124.4824530387
 30
0.0
 40
30.60000000000009
100
AcDbArc
 50
270.7207100288
 51
359.1143366887
  0
SPLINE
  5
1EE
330
1F
100
AcDbEntity
  8
0
  6
Continuous
 62
     7
370
    15
100
AcDbSpline
210
0.0
220
0.0
230
1.0
 70
     8
 71
     3
 72
    13
 73
     9
 74
     0
 42
0.00000001
 43
0.00000001
 12
1.0
 22
0.0
 32
0.0
 13
1.0
 23
0.0
 33
0.0
 40
0.0
 40
0.0
 40
0.0
 40
0.0
 40
0.1387678792879998
 40
0.2767744418769671
 40
0.4725463912848021
 40
0.7463825948360301
 40
0.9894130522649691
 40
1.0
 40
1.0
 40
1.0
 40
1.0
 10
83.37101004574018
 20
93.98632130884627
 30
0.0
 10
83.37030148291066
 20
93.98557245753553
 30
0.0
 10
83.36888824461172
 20
93.9840788633079
 30
0.0
 10
83.35743274293492
 20
93.97249741568942
 30
0.0
 10
83.33654336687643
 20
93.95136916767783
 30
0.0
 10
83.30643714471206
 20
93.92079012425619
 30
0.0
 10
83.28289475544668
 20
93.89677214549769
 30
0.0
 10
83.27147034962576
 20
93.88535096655487
 30
0.0
 10
83.27099345180707
 20
93.88487420343856
 30
0.0
  0
LINE
  5
1EF
330
1F
100
AcDbEntity
  8
0
  6
Continuous
 62
     7
370
    15
100
AcDbLine
 10
53.3845689103
 20
123.9095219161
 30
0.0
 11
52.3914959237
 21
123.9095219161
 31
0.0
  0
SPLINE
  5
1F0
330
1F
100
AcDbEntity
  8
0
  6
Continuous
 62
     7
370
    15
100
AcDbSpline
210
0.0
220
0.0
230
1.0
 70
     8
 71
     3
 72
    13
 73
     9
 74
     0
 42
0.00000001
 43
0.00000001
 12
1.0
 22
0.0
 32
0.0
 13
1.0
 23
0.0
 33
0.0
 40
0.0
 40
0.0
 40
0.0
 40
0.0
 40
0.1384057381430011
 40
0.276300839692878
 40
0.4720620750949008
 40
0.7457156384606609
 40
0.9898536003736143
 40
1.0
 40
1.0
 40
1.0
 40
1.0
 10
52.39149592373091
 20
123.9095219161461
 30
0.0
 10
52.39077685688873
 20
123.9101823809391
 30
0.0
 10
52.3893413761419
 20
123.911500873794
 30
0.0
 10
52.37763240887836
 20
123.9229894868258
 30
0.0
 10
52.35654147050714
 20
123.9439174087644
 30
0.0
 10
52.32553777722268
 20
123.9737017126762
 30
0.0
 10
52.30218776690429
 20
123.9980385437977
 30
0.0
 10
52.29022801070612
 20
124.0089826129102
 30
0.0
 10
52.28975079509943
 20
124.0094193007898
 30
0.0
  0
LINE
  5
1F1
330
1F
100
AcDbEntity
  8
0
  6
Continuous
 62
     7
370
    15
100
AcDbLine
 10
52.2897507951
 20
124.0094193008
 30
0.0
 11
53.284611921
 21
124.0094193008
 31
0.0
  0
ARC
  5
1F2
330
1F
100
AcDbEntity
  8
0
  6
Continuous
 62
     7
370
    15
100
AcDbCircle
 10
108.328100662
 20
178.9857932117
 30
0.0
 40
77.79580542139415
100
AcDbArc
 50
224.9650481655
 51
225.0691276637
  0
LINE
  5
1F3
330
1F
100
AcDbEntity
  8
0
  6
Continuous
 62
     7
370
    15
100
AcDbLine
 10
112.4875809953
 20
124.0094193008
 30
0.0
 11
113.4824421212
 21
124.0094193008
 31
0.0
  0
LINE
  5
1F4
330
1F
100
AcDbEntity
  8
0
  6
Continuous
 62
     7
370
    15
100
AcDbLine
 10
113.3806969926
 20
123.9095219161
 30
0.0
 11
112.3875644014
 21
123.9095219161
 31
0.0
  0
ARC
  5
1F5
330
1F
100
AcDbEntity
  8
0
  6
Continuous
 62
     7
370
    15
100
AcDbCircle
 10
84.915843229
 20
151.514042237
 30
0.0
 40
38.94489705105092
100
AcDbArc
 50
314.8618493967
 51
315.0698193299
  0
ARC
  5
1F6
330
1F
100
AcDbEntity
  8
0
  6
Continuous
 62
     7
370
    15
100
AcDbCircle
 10
82.8860939227
 20
124.4824530387
 30
0.0
 40
30.50000000000009
100
AcDbArc
 50
181.0764613222
 51
269.089052663
  0
SPLINE
  5
1F7
330
1F
100
AcDbEntity
  8
0
  6
Continuous
 62
     7
370
    15
100
AcDbSpline
210
0.0
220
0.0
230
1.0
 70
     8
 71
     3
 72
    13
 73
     9
 74
     0
 42
0.00000001
 43
0.00000001
 12
1.0
 22
0.0
 32
0.0
 13
1.0
 23
0.0
 33
0.0
 40
0.0
 40
0.0
 40
0.0
 40
0.0
 40
0.1387678792879998
 40
0.2767744418769671
 40
0.4725463912848021
 40
0.7463825948360301
 40
0.9894130522649691
 40
1.0
 40
1.0
 40
1.0
 40
1.0
 10
82.4011828705998
 20
93.98632130884627
 30
0.0
 10
82.40189143342921
 20
93.98557245753553
 30
0.0
 10
82.40330467172815
 20
93.9840788633079
 30
0.0
 10
82.4147601734053
 20
93.97249741568942
 30
0.0
 10
82.43564954946356
 20
93.95136916767783
 30
0.0
 10
82.46575577162749
 20
93.92079012425619
 30
0.0
 10
82.48929816089365
 20
93.89677214549769
 30
0.0
 10
82.500722566714
 20
93.88535096655487
 30
0.0
 10
82.5011994645329
 20
93.88487420343856
 30
0.0
  0
ARC
  5
1F8
330
1F
100
AcDbEntity
  8
0
  6
Continuous
 62
     7
370
    15
100
AcDbCircle
 10
82.8860939227
 20
124.4824530387
 30
0.0
 40
30.60000000000009
100
AcDbArc
 50
180.8856633113
 51
269.2792899712
  0
LINE
  5
1F9
330
1F
100
AcDbEntity
  8
0
  6
Continuous
 62
     7
370
    15
100
AcDbLine
 10
112.4875809953
 20
124.9554642227
 30
0.0
 11
112.4875809953
 21
124.0094193008
 31
0.0
  0
LINE
  5
1FA
330
1F
100
AcDbEntity
  8
0
  6
Continuous
 62
     7
370
    15
100
AcDbLine
 10
112.3875644014
 20
123.9095219161
 30
0.0
 11
112.3875644014
 21
125.0554808166
 31
0.0
  0
LWPOLYLINE
  5
1FB
330
1F
100
AcDbEntity
  8
0
  6
Continuous
 62
     7
370
    15
100
AcDbPolyline
 90
        9
 70
   128
 43
0.0
 10
112.4875809953
 20
124.9554642227
 10
112.4680902765
 20
124.9750145462
 10
112.4493148133
 20
124.9937304046
 10
112.4320294664
 20
125.0110157516
 10
112.4168898866
 20
125.0261553314
 10
112.4044325158
 20
125.0385530975
 10
112.3951937959
 20
125.0478514221
 10
112.3895313546
 20
125.053573468
 10
112.3875644014
 20
125.0554808166
  0
LINE
  5
1FC
330
1F
100
AcDbEntity
  8
0
  6
Continuous
 62
     7
370
    15
100
AcDbLine
 10
82.4011828706
 20
94.9811228301
 30
0.0
 11
83.3710100457
 21
94.9811228301
 31
0.0
  0
LWPOLYLINE
  5
1FD
330
1F
100
AcDbEntity
  8
0
  6
Continuous
 62
     7
370
    15
100
AcDbPolyline
 90
        9
 70
   128
 43
0.0
 10
83.3710100457
 20
94.9811228301
 10
83.3690430925
 20
94.9790962722
 10
83.3633806512
 20
94.9734934356
 10
83.3541419313
 20
94.964195111
 10
83.3416845605
 20
94.9517973449
 10
83.3265449807
 20
94.9366577651
 10
83.3092596338
 20
94.9193724182
 10
83.2904841706
 20
94.9005373504
 10
83.2709934518
 20
94.8811062362
  0
LINE
  5
1FE
330
1F
100
AcDbEntity
  8
0
  6
Continuous
 62
     7
370
    15
100
AcDbLine
 10
83.2709934518
 20
94.8811062362
 30
0.0
 11
82.5011994645
 21
94.8811062362
 31
0.0
  0
LWPOLYLINE
  5
1FF
330
1F
100
AcDbEntity
  8
0
  6
Continuous
 62
     7
370
    15
100
AcDbPolyline
 90
        9
 70
   128
 43
0.0
 10
82.4011828706
 20
94.9811228301
 10
82.4030902192
 20
94.9790962722
 10
82.4088122651
 20
94.9734934356
 10
82.4180509851
 20
94.964195111
 10
82.4305083558
 20
94.9517973449
 10
82.4456479356
 20
94.9366577651
 10
82.4629332826
 20
94.9193724182
 10
82.4817087457
 20
94.9005373504
 10
82.5011994645
 20
94.8811062362
  0
LINE
  5
200
330
1F
100
AcDbEntity
  8
0
  6
Continuous
 62
     7
370
    15
100
AcDbLine
 10
83.3710100457
 20
94.9811228301
 30
0.0
 11
83.3710100457
 21
93.9863213088
 31
0.0
  0
LINE
  5
201
330
1F
100
AcDbEntity
  8
0
  6
Continuous
 62
     7
370
    15
100
AcDbLine
 10
83.2709934518
 20
93.8848742034
 30
0.0
 11
83.2709934518
 21
94.8811062362
 31
0.0
  0
LINE
  5
202
330
1F
100
AcDbEntity
  8
0
  6
Continuous
 62
     7
370
    15
100
AcDbLine
 10
53.1416203782
 20
124.9554642227
 30
0.0
 11
52.2897507951
 21
124.9554642227
 31
0.0
  0
SPLINE
  5
203
330
1F
100
AcDbEntity
  8
0
  6
Continuous
 62
     7
370
    15
100
AcDbSpline
210
0.0
220
0.0
230
1.0
 70
     8
 71
     3
 72
    13
 73
     9
 74
     0
 42
0.00000001
 43
0.00000001
 12
1.0
 22
0.0
 32
0.0
 13
1.0
 23
0.0
 33
0.0
 40
0.0
 40
0.0
 40
0.0
 40
0.0
 40
0.0105767275457464
 40
0.2542619022339355
 40
0.5278943629761845
 40
0.7236405023728862
 40
0.8615249702281889
 40
1.0
 40
1.0
 40
1.0
 40
1.0
 10
52.28975079509932
 20
124.9554642226646
 30
0.0
 10
52.29022753768683
 20
124.955941139313
 30
0.0
 10
52.30168831103762
 20
124.9674060970427
 30
0.0
 10
52.32582339019851
 20
124.9909233247512
 30
0.0
 10
52.3564890619401
 20
125.021015327247
 30
0.0
 10
52.37764041555723
 20
125.0418978984813
 30
0.0
 10
52.3893417583515
 20
125.0533550886867
 30
0.0
 10
52.39077684637491
 20
125.0547712318925
 30
0.0
 10
52.39149592373091
 20
125.0554808165977
 30
0.0
  0
LINE
  5
204
330
1F
100
AcDbEntity
  8
0
  6
Continuous
 62
     7
370
    15
100
AcDbLine
 10
52.3914959237
 20
125.0554808166
 30
0.0
 11
53.1416203782
 21
125.0554808166
 31
0.0
  0
LINE
  5
205
330
1F
100
AcDbEntity
  8
0
  6
Continuous
 62
     7
370
    15
100
AcDbLine
 10
53.1416203782
 20
125.0554808166
 30
0.0
 11
53.1416203782
 21
124.9554642227
 31
0.0
  0
ARC
  5
206
330
1F
100
AcDbEntity
  8
0
  6
Continuous
 62
     7
370
    15
100
AcDbCircle
 10
82.8860939227
 20
124.4824530387
 30
0.0
 40
30.6000000000001
100
AcDbArc
 50
90.7207100361
 51
179.1143142794
  0
SPLINE
  5
207
330
1F
100
AcDbEntity
  8
0
  6
Continuous
 62
     7
370
    15
100
AcDbSpline
210
0.0
220
0.0
230
1.0
 70
     8
 71
     3
 72
    13
 73
     9
 74
     0
 42
0.00000001
 43
0.00000001
 12
1.0
 22
0.0
 32
0.0
 13
1.0
 23
0.0
 33
0.0
 40
0.0
 40
0.0
 40
0.0
 40
0.0
 40
0.0105869477350308
 40
0.2536174051639699
 40
0.5274536087151979
 40
0.7232255581230329
 40
0.8612321207120003
 40
1.0
 40
1.0
 40
1.0
 40
1.0
 10
82.5011994645329
 20
155.0800093200157
 30
0.0
 10
82.50072256671412
 20
155.0795325568992
 30
0.0
 10
82.4892981608931
 20
155.068111377959
 30
0.0
 10
82.46575577162793
 20
155.0440933991967
 30
0.0
 10
82.43564954946356
 20
155.0135143557766
 30
0.0
 10
82.4147601734053
 20
154.992386107765
 30
0.0
 10
82.40330467172826
 20
154.9808046601464
 30
0.0
 10
82.40189143342921
 20
154.9793110659185
 30
0.0
 10
82.4011828705998
 20
154.978562214608
 30
0.0
  0
ARC
  5
208
330
1F
100
AcDbEntity
  8
0
  6
Continuous
 62
     7
370
    15
100
AcDbCircle
 10
82.8860939227
 20
124.4824530387
 30
0.0
 40
30.5
100
AcDbArc
 50
90.9109473444
 51
178.9235274359
  0
LINE
  5
209
330
1F
100
AcDbEntity
  8
0
  6
Continuous
 62
     7
370
    15
100
AcDbLine
 10
53.1416203782
 20
125.0554808166
 30
0.0
 11
53.3845689103
 21
125.0554808166
 31
0.0
  0
ARC
  5
20A
330
1F
100
AcDbEntity
  8
0
  6
Continuous
 62
     7
370
    15
100
AcDbCircle
 10
-1.8245611384
 20
180.1317521121
 30
0.0
 40
77.98361174349864
100
AcDbArc
 50
314.9651323393
 51
315.0690231169
  0
LINE
  5
20B
330
1F
100
AcDbEntity
  8
0
  6
Continuous
 62
     7
370
    15
100
AcDbLine
 10
53.284611921
 20
124.9554642227
 30
0.0
 11
53.1416203782
 21
124.9554642227
 31
0.0
  0
LINE
  5
20C
330
1F
100
AcDbEntity
  8
0
  6
Continuous
 62
     7
370
    15
100
AcDbLine
 10
82.5011994645
 20
155.08000932
 30
0.0
 11
82.5011994645
 21
154.0838964965
 31
0.0
  0
LWPOLYLINE
  5
20D
330
1F
100
AcDbEntity
  8
0
  6
Continuous
 62
     7
370
    15
100
AcDbPolyline
 90
        9
 70
   128
 43
0.0
 10
82.5011994645
 20
154.0838964965
 10
82.4817087457
 20
154.064346173
 10
82.4629332826
 20
154.0456303146
 10
82.4456479356
 20
154.0283449676
 10
82.4305083558
 20
154.0130861785
 10
82.4180509851
 20
154.0006884124
 10
82.4088122651
 20
153.9915092971
 10
82.4030902192
 20
153.9857872512
 10
82.4011828706
 20
153.9838799026
  0
LINE
  5
20E
330
1F
100
AcDbEntity
  8
0
  6
Continuous
 62
     7
370
    15
100
AcDbLine
 10
82.4011828706
 20
153.9838799026
 30
0.0
 11
82.4011828706
 21
154.9785622146
 31
0.0
  0
LINE
  5
20F
330
1F
100
AcDbEntity
  8
0
  6
Continuous
 62
     7
370
    15
100
AcDbLine
 10
82.5011994645
 20
154.0838964965
 30
0.0
 11
83.2709934518
 21
154.0838964965
 31
0.0
  0
LINE
  5
210
330
1F
100
AcDbEntity
  8
0
  6
Continuous
 62
     7
370
    15
100
AcDbLine
 10
83.3710100457
 20
153.9838799026
 30
0.0
 11
82.4011828706
 21
153.9838799026
 31
0.0
  0
LINE
  5
211
330
1F
100
AcDbEntity
  8
0
  6
Continuous
 62
     7
370
    15
100
AcDbLine
 10
112.6305725381
 20
124.9554642227
 30
0.0
 11
112.4875809953
 21
124.9554642227
 31
0.0
  0
LINE
  5
212
330
1F
100
AcDbEntity
  8
0
  6
Continuous
 62
     7
370
    15
100
AcDbLine
 10
53.284611921
 20
124.0094193008
 30
0.0
 11
53.284611921
 21
124.9554642227
 31
0.0
  0
LINE
  5
213
330
1F
100
AcDbEntity
  8
0
  6
Continuous
 62
     7
370
    15
100
AcDbLine
 10
82.5011994645
 20
94.8811062362
 30
0.0
 11
82.5011994645
 21
93.8848742034
 31
0.0
  0
CIRCLE
  5
214
330
1F
100
AcDbEntity
  8
0
  6
Continuous
 62
     7
370
    15
100
AcDbCircle
 10
82.8860939227
 20
124.4824530387
 30
0.0
 40
31.39999999999986
  0
CIRCLE
  5
215
330
1F
100
AcDbEntity
  8
0
  6
Continuous
 62
     7
370
    15
100
AcDbCircle
 10
82.8860939227
 20
124.4824530387
 30
0.0
 40
31.49999999999986
  0
LINE
  5
216
330
1F
100
AcDbEntity
  8
0
  6
Continuous
 62
     7
370
    15
100
AcDbLine
 10
112.3875644014
 20
125.0554808166
 30
0.0
 11
112.6305725381
 21
125.0554808166
 31
0.0
  0
LINE
  5
217
330
1F
100
AcDbEntity
  8
0
  6
Continuous
 62
     7
370
    15
100
AcDbLine
 10
82.4011828706
 20
93.9863213088
 30
0.0
 11
82.4011828706
 21
94.9811228301
 31
0.0
  0
LINE
  5
218
330
1F
100
AcDbEntity
  8
0
  6
Continuous
 62
     7
370
    15
100
AcDbLine
 10
53.3845689103
 20
125.0554808166
 30
0.0
 11
53.3845689103
 21
123.9095219161
 31
0.0
  0
SPLINE
  5
219
330
1F
100
AcDbEntity
  8
0
  6
Continuous
 62
     7
370
    15
100
AcDbSpline
210
0.0
220
0.0
230
1.0
 70
     8
 71
     3
 72
    25
 73
    21
 74
     0
 42
0.00000001
 43
0.00000001
 12
1.0
 22
0.0
 32
0.0
 13
1.0
 23
0.0
 33
0.0
 40
0.0
 40
0.0
 40
0.0
 40
0.0
 40
0.0244603480364599
 40
0.0664792622273156
 40
0.1161668831583206
 40
0.1835325439200944
 40
0.2423461973838827
 40
0.3014188660386465
 40
0.360346368241144
 40
0.4336003195565215
 40
0.5062822324585347
 40
0.5304247336189182
 40
0.6065587076676952
 40
0.6832288604767164
 40
0.7497406483834045
 40
0.8154936108119024
 40
0.8689245224167194
 40
0.9226411179890839
 40
0.9788430811879816
 40
1.0
 40
1.0
 40
1.0
 40
1.0
 10
55.7658936784001
 20
125.1438149001549
 30
0.0
 10
55.73088654054323
 20
125.1772192791544
 30
0.0
 10
55.63574281266412
 20
125.2680069681828
 30
0.0
 10
55.51639205389855
 20
125.4702748204721
 30
0.0
 10
55.46118499159
 20
125.7851354952079
 30
0.0
 10
55.51258450216554
 20
126.1359624771023
 30
0.0
 10
55.67721684764201
 20
126.4681503487776
 30
0.0
 10
55.9229266465879
 20
126.7259905238129
 30
0.0
 10
56.27044014630309
 20
126.8923078812795
 30
0.0
 10
56.68026275432533
 20
126.9366747333744
 30
0.0
 10
57.01560096934807
 20
126.8656356179478
 30
0.0
 10
57.32463735021584
 20
126.7190945667204
 30
0.0
 10
57.6030002430081
 20
126.4932372570908
 30
0.0
 10
57.82348013431901
 20
126.1102494745587
 30
0.0
 10
57.91494730725075
 20
125.7027817973725
 30
0.0
 10
57.88746260794139
 20
125.3296885445869
 30
0.0
 10
57.74669340478564
 20
125.0121078448953
 30
0.0
 10
57.51751858677209
 20
124.7730497157724
 30
0.0
 10
57.27502578170959
 20
124.6697299807981
 30
0.0
 10
57.12871434650743
 20
124.6262875398658
 30
0.0
 10
57.08869955990034
 20
124.6144064452598
 30
0.0
  0
SPLINE
  5
21A
330
1F
100
AcDbEntity
  8
0
  6
Continuous
 62
     7
370
    15
100
AcDbSpline
210
0.0
220
0.0
230
1.0
 70
     8
 71
     3
 72
    13
 73
     9
 74
     0
 42
0.00000001
 43
0.00000001
 12
1.0
 22
0.0
 32
0.0
 13
1.0
 23
0.0
 33
0.0
 40
0.0
 40
0.0
 40
0.0
 40
0.0
 40
0.1542084566673347
 40
0.3077284612163337
 40
0.5119303663409037
 40
0.775035326730833
 40
0.9843727259846381
 40
0.9999999999999999
 40
0.9999999999999999
 40
0.9999999999999999
 40
0.9999999999999999
 10
57.08869955990034
 20
124.6144064452598
 30
0.0
 10
57.08890740886749
 20
124.6149054949312
 30
0.0
 10
57.08932217887583
 20
124.6159013663039
 30
0.0
 10
57.09259401518194
 20
124.6234343740943
 30
0.0
 10
57.09830086997833
 20
124.6365286289416
 30
0.0
 10
57.10587717254798
 20
124.6542780541348
 30
0.0
 10
57.11187950464267
 20
124.667756457496
 30
0.0
 10
57.11444908341198
 20
124.6740506950969
 30
0.0
 10
57.11462758037764
 20
124.6744879271934
 30
0.0
  0
SPLINE
  5
21B
330
1F
100
AcDbEntity
  8
0
  6
Continuous
 62
     7
370
    15
100
AcDbSpline
210
0.0
220
0.0
230
1.0
 70
     8
 71
     3
 72
    24
 73
    20
 74
     0
 42
0.00000001
 43
0.00000001
 12
1.0
 22
0.0
 32
0.0
 13
1.0
 23
0.0
 33
0.0
 40
0.0
 40
0.0
 40
0.0
 40
0.0
 40
0.0689369986679647
 40
0.1208136545183729
 40
0.1725955978519844
 40
0.237002583023172
 40
0.3025493712474438
 40
0.3780201047217117
 40
0.452759915982718
 40
0.4764615174550252
 40
0.5479369027356633
 40
0.6199056149417033
 40
0.6773302953050645
 40
0.7348898079024887
 40
0.7925200440528367
 40
0.8583557873407028
 40
0.9064939982796473
 40
0.9463381723106957
 40
1.0
 40
1.0
 40
1.0
 40
1.0
 10
57.11462758037764
 20
124.6744879271934
 30
0.0
 10
57.24288361436267
 20
124.7172576884603
 30
0.0
 10
57.46765522437122
 20
124.7922126656331
 30
0.0
 10
57.70472686895209
 20
125.0413903840814
 30
0.0
 10
57.83818504271706
 20
125.3427177143901
 30
0.0
 10
57.86417491109516
 20
125.6998751960052
 30
0.0
 10
57.77633723738282
 20
126.0914804786647
 30
0.0
 10
57.5642731175193
 20
126.4598158291534
 30
0.0
 10
57.29690681079811
 20
126.6769534597091
 30
0.0
 10
57.00003579092536
 20
126.8175495775267
 30
0.0
 10
56.6779055009505
 20
126.8859642646011
 30
0.0
 10
56.28507765955646
 20
126.8434526279498
 30
0.0
 10
55.95279514726489
 20
126.6848657143913
 30
0.0
 10
55.71857095797458
 20
126.4385423111986
 30
0.0
 10
55.56121784724563
 20
126.1210878049478
 30
0.0
 10
55.51252307316487
 20
125.7869468403478
 30
0.0
 10
55.5629240907631
 20
125.487963384099
 30
0.0
 10
55.70924157592291
 20
125.2506666576766
 30
0.0
 10
55.84487519957734
 20
125.1304385584992
 30
0.0
 10
55.92271349880415
 20
125.0614412810753
 30
0.0
  0
SPLINE
  5
21C
330
1F
100
AcDbEntity
  8
0
  6
Continuous
 62
     7
370
    15
100
AcDbSpline
210
0.0
220
0.0
230
1.0
 70
     8
 71
     3
 72
    13
 73
     9
 74
     0
 42
0.00000001
 43
0.00000001
 12
1.0
 22
0.0
 32
0.0
 13
1.0
 23
0.0
 33
0.0
 40
0.0
 40
0.0
 40
0.0
 40
0.0
 40
0.0293003858424505
 40
0.0655921190295746
 40
0.1303521019772623
 40
0.3277303508933939
 40
0.990003277800786
 40
1.0
 40
1.0
 40
1.0
 40
1.0
 10
55.7658936784001
 20
125.1438149001549
 30
0.0
 10
55.76609827578125
 20
125.1436663971336
 30
0.0
 10
55.76655628940105
 20
125.1433339568757
 30
0.0
 10
55.77085144941071
 20
125.1411740668952
 30
0.0
 10
55.78417876987293
 20
125.1340344900833
 30
0.0
 10
55.83438059555287
 20
125.1079875529201
 30
0.0
 10
55.88338553410274
 20
125.0804118828234
 30
0.0
 10
55.92213725651193
 20
125.061719242651
 30
0.0
 10
55.92271349880415
 20
125.0614412810753
 30
0.0
  0
LINE
  5
21D
330
1F
100
AcDbEntity
  8
0
  6
Continuous
 62
     7
370
    15
100
AcDbLine
 10
55.3734566972
 20
125.2222546127
 30
0.0
 11
55.7658936784
 21
125.1438149002
 31
0.0
  0
LINE
  5
21E
330
1F
100
AcDbEntity
  8
0
  6
Continuous
 62
     7
370
    15
100
AcDbLine
 10
55.9227134988
 20
125.0614412811
 30
0.0
 11
55.3636219308
 21
125.1732595947
 31
0.0
  0
SPLINE
  5
21F
330
1F
100
AcDbEntity
  8
0
  6
Continuous
 62
     7
370
    15
100
AcDbSpline
210
0.0
220
0.0
230
1.0
 70
     8
 71
     3
 72
    11
 73
     7
 74
     0
 42
0.00000001
 43
0.00000001
 12
1.0
 22
0.0
 32
0.0
 13
1.0
 23
0.0
 33
0.0
 40
0.0
 40
0.0
 40
0.0
 40
0.0
 40
0.249935809965818
 40
0.4997608357637179
 40
0.7505595948360297
 40
1.0
 40
1.0
 40
1.0
 40
1.0
 10
55.37345669719904
 20
125.2222546126795
 30
0.0
 10
55.37329225420204
 20
125.221531372337
 30
0.0
 10
55.37296344109807
 20
125.2200852122298
 30
0.0
 10
55.37077910911978
 20
125.208751560502
 30
0.0
 10
55.36747554848595
 20
125.1925113823253
 30
0.0
 10
55.36490414256309
 20
125.179665229705
 30
0.0
 10
55.36362193081099
 20
125.1732595946739
 30
0.0
  0
SPLINE
  5
220
330
1F
100
AcDbEntity
  8
0
  6
Continuous
 62
     7
370
    15
100
AcDbSpline
210
0.0
220
0.0
230
1.0
 70
     8
 71
     3
 72
    26
 73
    22
 74
     0
 42
0.00000001
 43
0.00000001
 12
1.0
 22
0.0
 32
0.0
 13
1.0
 23
0.0
 33
0.0
 40
0.0
 40
0.0
 40
0.0
 40
0.0
 40
0.0000129050339014
 40
0.0140545367163151
 40
0.0763977337145692
 40
0.1292021867797286
 40
0.1883869642153989
 40
0.247749751244969
 40
0.3182565264961602
 40
0.3850395170919007
 40
0.4483930611463855
 40
0.5189653950755404
 40
0.5892123501208802
 40
0.6511037787143885
 40
0.713482095282511
 40
0.7789823013738435
 40
0.844124197485914
 40
0.8883946054604793
 40
0.9321589242833281
 40
0.9900808296224615
 40
1.0
 40
1.0
 40
1.0
 40
1.0
 10
57.00072310421186
 20
124.7909554030846
 30
0.0
 10
57.00074297252819
 20
124.7909554015904
 30
0.0
 10
57.02238103916277
 20
124.7909537745406
 30
0.0
 10
57.13803753084032
 20
124.8198418457155
 30
0.0
 10
57.31880935105413
 20
124.9098219572359
 30
0.0
 10
57.51579208334665
 20
125.0978275544458
 30
0.0
 10
57.63701703610233
 20
125.3396294722868
 30
0.0
 10
57.66317236099592
 20
125.6350107176036
 30
0.0
 10
57.59180740343758
 20
125.9350144019237
 30
0.0
 10
57.42715116432515
 20
126.2023203816391
 30
0.0
 10
57.18737027243612
 20
126.4056842870107
 30
0.0
 10
56.88412112008098
 20
126.5143126406895
 30
0.0
 10
56.56608688476813
 20
126.5080462358056
 30
0.0
 10
56.27795865425131
 20
126.4133428358318
 30
0.0
 10
56.03681388521473
 20
126.2376072904218
 30
0.0
 10
55.87515951401453
 20
125.9804824283061
 30
0.0
 10
55.80957955598151
 20
125.7147980185357
 30
0.0
 10
55.82120784585972
 20
125.4756272698265
 30
0.0
 10
55.91331119506312
 20
125.2650685969904
 30
0.0
 10
56.03375777233629
 20
125.1397515492422
 30
0.0
 10
56.10785908021263
 20
125.0662304707839
 30
0.0
 10
56.11869357082563
 20
125.0554808165977
 30
0.0
  0
ARC
  5
221
330
1F
100
AcDbEntity
  8
0
  6
Continuous
 62
     7
370
    15
100
AcDbCircle
 10
51.4294391128
 20
129.6390500383
 30
0.0
 40
6.557302355531235
100
AcDbArc
 50
315.2158431495
 51
315.6529894273
  0
SPLINE
  5
222
330
1F
100
AcDbEntity
  8
0
  6
Continuous
 62
     7
370
    15
100
AcDbSpline
210
0.0
220
0.0
230
1.0
 70
     8
 71
     3
 72
    23
 73
    19
 74
     0
 42
0.00000001
 43
0.00000001
 12
1.0
 22
0.0
 32
0.0
 13
1.0
 23
0.0
 33
0.0
 40
0.0
 40
0.0
 40
0.0
 40
0.0
 40
0.0672807257121001
 40
0.1128704918019098
 40
0.1583225974557588
 40
0.2242440863259637
 40
0.2907140546293539
 40
0.3540492348698377
 40
0.4164691563415465
 40
0.4872775268170796
 40
0.5588443494318542
 40
0.6228859706708264
 40
0.6902377124515731
 40
0.7613004490266273
 40
0.8216554609336174
 40
0.8823335189668725
 40
0.9359049331567385
 40
1.0
 40
1.0
 40
1.0
 40
1.0
 10
56.08358643505293
 20
125.0198372390221
 30
0.0
 10
56.00608372146318
 20
125.0964053949008
 30
0.0
 10
55.87606477017712
 20
125.2248565273601
 30
0.0
 10
55.7717699734531
 20
125.463435109832
 30
0.0
 10
55.75891182680856
 20
125.7188915468696
 30
0.0
 10
55.82835126838978
 20
126.0007449888817
 30
0.0
 10
55.99957254128016
 20
126.2724425171086
 30
0.0
 10
56.25407562362758
 20
126.458412682153
 30
0.0
 10
56.55778711451983
 20
126.5581708725731
 30
0.0
 10
56.89286795906753
 20
126.564631431284
 30
0.0
 10
57.2125496766481
 20
126.4499298676147
 30
0.0
 10
57.46557654450143
 20
126.2356731238596
 30
0.0
 10
57.63883347987661
 20
125.9543066570256
 30
0.0
 10
57.71406411554366
 20
125.6381817117953
 30
0.0
 10
57.68609510414155
 20
125.3248078085118
 30
0.0
 10
57.55678937247763
 20
125.0692225463463
 30
0.0
 10
57.34853361238465
 20
124.8635726116937
 30
0.0
 10
57.17160508743632
 20
124.7923305367903
 30
0.0
 10
57.0752289101811
 20
124.7535236861656
 30
0.0
  0
SPLINE
  5
223
330
1F
100
AcDbEntity
  8
0
  6
Continuous
 62
     7
370
    15
100
AcDbSpline
210
0.0
220
0.0
230
1.0
 70
     8
 71
     3
 72
    13
 73
     9
 74
     0
 42
0.00000001
 43
0.00000001
 12
1.0
 22
0.0
 32
0.0
 13
1.0
 23
0.0
 33
0.0
 40
0.0
 40
0.0
 40
0.0
 40
0.0
 40
0.1131670776511372
 40
0.2255051434973005
 40
0.4078638341964145
 40
0.7062092377152995
 40
0.9863741822747096
 40
1.0
 40
1.0
 40
1.0
 40
1.0
 10
57.00072310421186
 20
124.7909554030846
 30
0.0
 10
57.00114881024751
 20
124.7906967359739
 30
0.0
 10
57.00199710378514
 20
124.7901812966329
 30
0.0
 10
57.00934175540537
 20
124.7862607646275
 30
0.0
 10
57.02378296948194
 20
124.7784725536702
 30
0.0
 10
57.04657555256296
 20
124.7670854255264
 30
0.0
 10
57.06536566536244
 20
124.7580025615504
 30
0.0
 10
57.07479173540017
 20
124.7537222061663
 30
0.0
 10
57.0752289101811
 20
124.7535236861656
 30
0.0
  0
LINE
  5
224
330
1F
100
AcDbEntity
  8
0
  6
Continuous
 62
     7
370
    15
100
AcDbLine
 10
57.0886995599
 20
124.6144064453
 30
0.0
 11
57.0007231042
 21
124.7909554031
 31
0.0
  0
LINE
  5
225
330
1F
100
AcDbEntity
  8
0
  6
Continuous
 62
     7
370
    15
100
AcDbLine
 10
57.0752289102
 20
124.7535236862
 30
0.0
 11
57.1146275804
 21
124.6744879272
 31
0.0
  0
LINE
  5
226
330
1F
100
AcDbEntity
  8
0
  6
Continuous
 62
     7
370
    15
100
AcDbLine
 10
54.3163683221
 20
126.6812571075
 30
0.0
 11
54.3163683221
 21
125.0174530532
 31
0.0
  0
LINE
  5
227
330
1F
100
AcDbEntity
  8
0
  6
Continuous
 62
     7
370
    15
100
AcDbLine
 10
54.6573664949
 20
126.6812571075
 30
0.0
 11
54.3163683221
 21
126.6812571075
 31
0.0
  0
LINE
  5
228
330
1F
100
AcDbEntity
  8
0
  6
Continuous
 62
     7
370
    15
100
AcDbLine
 10
54.6573664949
 20
125.1819618728
 30
0.0
 11
54.6573664949
 21
126.6812571075
 31
0.0
  0
LINE
  5
229
330
1F
100
AcDbEntity
  8
0
  6
Continuous
 62
     7
370
    15
100
AcDbLine
 10
55.2754070565
 20
125.1819618728
 30
0.0
 11
54.6573664949
 21
125.1819618728
 31
0.0
  0
ARC
  5
22A
330
1F
100
AcDbEntity
  8
0
  6
Continuous
 62
     7
370
    15
100
AcDbCircle
 10
55.2753841659
 20
124.7319530387
 30
0.0
 40
0.4499999999982475
100
AcDbArc
 50
78.6901817797
 51
89.999888171
  0
LINE
  5
22B
330
1F
100
AcDbEntity
  8
0
  6
Continuous
 62
     7
370
    15
100
AcDbLine
 10
56.0860302255
 20
125.0174530532
 30
0.0
 11
56.0835864351
 21
125.019837239
 31
0.0
  0
LINE
  5
22C
330
1F
100
AcDbEntity
  8
0
  6
Continuous
 62
     7
370
    15
100
AcDbLine
 10
54.3163683221
 20
125.0174530532
 30
0.0
 11
56.0860302255
 21
125.0174530532
 31
0.0
  0
ARC
  5
22D
330
1F
100
AcDbEntity
  8
0
  6
Continuous
 62
     7
370
    15
100
AcDbCircle
 10
55.2753841659
 20
124.7319530387
 30
0.0
 40
0.4999999999981668
100
AcDbArc
 50
78.6901817797
 51
90.0000000001
  0
LINE
  5
22E
330
1F
100
AcDbEntity
  8
0
  6
Continuous
 62
     7
370
    15
100
AcDbLine
 10
55.2754070565
 20
125.2319105651
 30
0.0
 11
55.2754070565
 21
125.1819618728
 31
0.0
  0
ARC
  5
22F
330
1F
100
AcDbEntity
  8
0
  6
Continuous
 62
     7
370
    15
100
AcDbCircle
 10
47.1461183037
 20
132.1377543793
 30
0.0
 40
10.10500748646896
100
AcDbArc
 50
314.7997391746
 51
315.2002608254
  0
LINE
  5
230
330
1F
100
AcDbEntity
  8
0
  6
Continuous
 62
     7
370
    15
100
AcDbLine
 10
54.2664196298
 20
124.9675043609
 30
0.0
 11
54.2664196298
 21
126.7312057998
 31
0.0
  0
ARC
  5
231
330
1F
100
AcDbEntity
  8
0
  6
Continuous
 62
     7
370
    15
100
AcDbCircle
 10
61.4538357859
 20
133.8686732636
 30
0.0
 40
10.12928392327935
100
AcDbArc
 50
224.8002191334
 51
225.1997808666
  0
LINE
  5
232
330
1F
100
AcDbEntity
  8
0
  6
Continuous
 62
     7
370
    15
100
AcDbLine
 10
54.7073747918
 20
125.2319105651
 30
0.0
 11
55.2754070565
 21
125.2319105651
 31
0.0
  0
ARC
  5
233
330
1F
100
AcDbEntity
  8
0
  6
Continuous
 62
     7
370
    15
100
AcDbCircle
 10
34.2150645582
 20
145.6986662971
 30
0.0
 40
28.96243893225012
100
AcDbArc
 50
314.895921698
 51
315.0357470287
  0
LINE
  5
234
330
1F
100
AcDbEntity
  8
0
  6
Continuous
 62
     7
370
    15
100
AcDbLine
 10
56.1186935708
 20
125.0554808166
 30
0.0
 11
56.2078621194
 21
124.9675043609
 31
0.0
  0
ARC
  5
235
330
1F
100
AcDbEntity
  8
0
  6
Continuous
 62
     7
370
    15
100
AcDbCircle
 10
62.8332757451
 20
141.3013780466
 30
0.0
 40
17.62644420442018
100
AcDbArc
 50
247.4933242394
 51
247.9213372355
  0
LINE
  5
236
330
1F
100
AcDbEntity
  8
0
  6
Continuous
 62
     7
370
    15
100
AcDbLine
 10
54.2664196298
 20
126.7312057998
 30
0.0
 11
54.7073747918
 21
126.7312057998
 31
0.0
  0
ARC
  5
237
330
1F
100
AcDbEntity
  8
0
  6
Continuous
 62
     7
370
    15
100
AcDbCircle
 10
34.2150645582
 20
147.1979615318
 30
0.0
 40
28.96243893225012
100
AcDbArc
 50
314.895921698
 51
315.0357470287
  0
LINE
  5
238
330
1F
100
AcDbEntity
  8
0
  6
Continuous
 62
     7
370
    15
100
AcDbLine
 10
56.2078621194
 20
124.9675043609
 30
0.0
 11
54.2664196298
 21
124.9675043609
 31
0.0
  0
LINE
  5
239
330
1F
100
AcDbEntity
  8
0
  6
Continuous
 62
     7
370
    15
100
AcDbLine
 10
54.7073747918
 20
126.7312057998
 30
0.0
 11
54.7073747918
 21
125.2319105651
 31
0.0
  0
LINE
  5
23A
330
1F
100
AcDbEntity
  8
0
  6
Continuous
 62
     7
370
    15
100
AcDbLine
 10
56.7741658494
 20
123.4299429443
 30
0.0
 11
57.417896013
 21
123.4299429443
 31
0.0
  0
SPLINE
  5
23B
330
1F
100
AcDbEntity
  8
0
  6
Continuous
 62
     7
370
    15
100
AcDbSpline
210
0.0
220
0.0
230
1.0
 70
    24
 71
     3
 72
    11
 73
     7
 74
     0
 42
0.00000001
 43
0.00000001
 12
1.0
 22
0.0
 32
0.0
 13
1.0
 23
0.0
 33
0.0
 40
0.0
 40
0.0
 40
0.0
 40
0.0
 40
0.2502143659069339
 40
0.5004720533346548
 40
0.7505715132271814
 40
1.0
 40
1.0
 40
1.0
 40
1.0
 10
57.41789601299482
 20
123.3799942519615
 30
0.0
 10
57.41789601299482
 20
123.3807486575086
 30
0.0
 10
57.41789601299471
 20
123.3822575992189
 30
0.0
 10
57.41789601299471
 20
123.3938294018239
 30
0.0
 10
57.41789601299482
 20
123.4103319335251
 30
0.0
 10
57.41789601299494
 20
123.4234117970511
 30
0.0
 10
57.41789601299494
 20
123.4299429442835
 30
0.0
  0
LINE
  5
23C
330
1F
100
AcDbEntity
  8
0
  6
Continuous
 62
     7
370
    15
100
AcDbLine
 10
57.417896013
 20
123.379994252
 30
0.0
 11
56.8241741464
 21
123.379994252
 31
0.0
  0
ARC
  5
23D
330
1F
100
AcDbEntity
  8
0
  6
Continuous
 62
     7
370
    15
100
AcDbCircle
 10
36.3318639127
 20
102.91323852
 30
0.0
 40
28.9624389322501
100
AcDbArc
 50
44.9642529713
 51
45.104078302
  0
ARC
  5
23E
330
1F
100
AcDbEntity
  8
0
  6
Continuous
 62
     7
370
    15
100
AcDbCircle
 10
57.4178939227
 20
123.1799530387
 30
0.0
 40
0.2000000000006288
100
AcDbArc
 50
0.0015354326
 51
90.0000637643
  0
ARC
  5
23F
330
1F
100
AcDbEntity
  8
0
  6
Continuous
 62
     7
370
    15
100
AcDbCircle
 10
57.4178939227
 20
123.1799530387
 30
0.0
 40
0.2500000000006249
100
AcDbArc
 50
0.0012283451
 51
90.0000510103
  0
SPLINE
  5
240
330
1F
100
AcDbEntity
  8
0
  6
Continuous
 62
     7
370
    15
100
AcDbSpline
210
0.0
220
0.0
230
1.0
 70
    24
 71
     3
 72
    11
 73
     7
 74
     0
 42
0.00000001
 43
0.00000001
 12
1.0
 22
0.0
 32
0.0
 13
1.0
 23
0.0
 33
0.0
 40
0.0
 40
0.0
 40
0.0
 40
0.0
 40
0.250026930861096
 40
0.5000971507909203
 40
0.7500092617134583
 40
1.0
 40
1.0
 40
1.0
 40
1.0
 10
57.61786959621626
 20
123.1799610640953
 30
0.0
 10
57.61862400685799
 20
123.1799610640953
 30
0.0
 10
57.62013295875853
 20
123.1799610640953
 30
0.0
 10
57.63170468494202
 20
123.1799610640951
 30
0.0
 10
57.64822400666345
 20
123.1799610640955
 30
0.0
 10
57.66132591076409
 20
123.1799610640953
 30
0.0
 10
57.66787789318281
 20
123.1799610640953
 30
0.0
  0
LINE
  5
241
330
1F
100
AcDbEntity
  8
0
  6
Continuous
 62
     7
370
    15
100
AcDbLine
 10
56.6097166345
 20
122.2476252105
 30
0.0
 11
56.1149384782
 21
122.4456318405
 31
0.0
  0
LINE
  5
242
330
1F
100
AcDbEntity
  8
0
  6
Continuous
 62
     7
370
    15
100
AcDbLine
 10
56.6097166345
 20
123.4299429443
 30
0.0
 11
56.6097166345
 21
122.2476252105
 31
0.0
  0
LINE
  5
243
330
1F
100
AcDbEntity
  8
0
  6
Continuous
 62
     7
370
    15
100
AcDbLine
 10
54.5357134149
 20
123.4299429443
 30
0.0
 11
56.6097166345
 21
123.4299429443
 31
0.0
  0
LINE
  5
244
330
1F
100
AcDbEntity
  8
0
  6
Continuous
 62
     7
370
    15
100
AcDbLine
 10
55.6484725282
 20
122.7217205551
 30
0.0
 11
54.5357134149
 21
123.4299429443
 31
0.0
  0
LWPOLYLINE
  5
245
330
1F
100
AcDbEntity
  8
0
  6
Continuous
 62
     7
370
    15
100
AcDbPolyline
 90
        9
 70
   128
 43
0.0
 10
55.6541945741
 20
122.7181442764
 10
55.6534793184
 20
122.7186211135
 10
55.6527640626
 20
122.7190979507
 10
55.6520488069
 20
122.7194555786
 10
55.6513335511
 20
122.7199324157
 10
55.6506182954
 20
122.7204092529
 10
55.6499030397
 20
122.7207668807
 10
55.6491877839
 20
122.7212437179
 10
55.6484725282
 20
122.7217205551
  0
LINE
  5
246
330
1F
100
AcDbEntity
  8
0
  6
Continuous
 62
     7
370
    15
100
AcDbLine
 10
56.0792949006
 20
122.4632748153
 30
0.0
 11
55.6541945741
 21
122.7181442764
 31
0.0
  0
ARC
  5
247
330
1F
100
AcDbEntity
  8
0
  6
Continuous
 62
     7
370
    15
100
AcDbCircle
 10
56.2078432846
 20
122.6776965181
 30
0.0
 40
0.249999999934378
100
AcDbArc
 50
239.0515274357
 51
248.1873911842
  0
LINE
  5
248
330
1F
100
AcDbEntity
  8
0
  6
Continuous
 62
     7
370
    15
100
AcDbLine
 10
56.7488338754
 20
122.0186241653
 30
0.0
 11
56.7741658494
 21
122.0186241653
 31
0.0
  0
LINE
  5
249
330
1F
100
AcDbEntity
  8
0
  6
Continuous
 62
     7
370
    15
100
AcDbLine
 10
55.9691455171
 20
122.4518307235
 30
0.0
 11
56.7488338754
 21
122.0186241653
 31
0.0
  0
LINE
  5
24A
330
1F
100
AcDbEntity
  8
0
  6
Continuous
 62
     7
370
    15
100
AcDbLine
 10
54.3933775232
 20
123.5021837738
 30
0.0
 11
55.9691455171
 21
122.4518307235
 31
0.0
  0
LINE
  5
24B
330
1F
100
AcDbEntity
  8
0
  6
Continuous
 62
     7
370
    15
100
AcDbLine
 10
54.2592670724
 20
123.7706430938
 30
0.0
 11
54.3933775232
 21
123.5021837738
 31
0.0
  0
LINE
  5
24C
330
1F
100
AcDbEntity
  8
0
  6
Continuous
 62
     7
370
    15
100
AcDbLine
 10
56.6097166345
 20
123.7706430938
 30
0.0
 11
54.2592670724
 21
123.7706430938
 31
0.0
  0
LINE
  5
24D
330
1F
100
AcDbEntity
  8
0
  6
Continuous
 62
     7
370
    15
100
AcDbLine
 10
56.6097166345
 20
124.2999323394
 30
0.0
 11
56.6097166345
 21
123.7706430938
 31
0.0
  0
LINE
  5
24E
330
1F
100
AcDbEntity
  8
0
  6
Continuous
 62
     7
370
    15
100
AcDbLine
 10
56.7741658494
 20
124.2999323394
 30
0.0
 11
56.6097166345
 21
124.2999323394
 31
0.0
  0
LINE
  5
24F
330
1F
100
AcDbEntity
  8
0
  6
Continuous
 62
     7
370
    15
100
AcDbLine
 10
56.7741658494
 20
123.7706430938
 30
0.0
 11
56.7741658494
 21
124.2999323394
 31
0.0
  0
LINE
  5
250
330
1F
100
AcDbEntity
  8
0
  6
Continuous
 62
     7
370
    15
100
AcDbLine
 10
57.417896013
 20
123.7706430938
 30
0.0
 11
56.7741658494
 21
123.7706430938
 31
0.0
  0
ARC
  5
251
330
1F
100
AcDbEntity
  8
0
  6
Continuous
 62
     7
370
    15
100
AcDbCircle
 10
57.4178939227
 20
124.0206530387
 30
0.0
 40
0.2500000000001918
100
AcDbArc
 50
269.999979811
 51
0.0
  0
LINE
  5
252
330
1F
100
AcDbEntity
  8
0
  6
Continuous
 62
     7
370
    15
100
AcDbLine
 10
57.6678778932
 20
124.2999323394
 30
0.0
 11
57.6678778932
 21
124.020624974
 31
0.0
  0
LINE
  5
253
330
1F
100
AcDbEntity
  8
0
  6
Continuous
 62
     7
370
    15
100
AcDbLine
 10
57.7444102571
 20
124.2999323394
 30
0.0
 11
57.6678778932
 21
124.2999323394
 31
0.0
  0
LINE
  5
254
330
1F
100
AcDbEntity
  8
0
  6
Continuous
 62
     7
370
    15
100
AcDbLine
 10
57.7444102571
 20
122.8124388244
 30
0.0
 11
57.7444102571
 21
124.2999323394
 31
0.0
  0
LINE
  5
255
330
1F
100
AcDbEntity
  8
0
  6
Continuous
 62
     7
370
    15
100
AcDbLine
 10
57.6678778932
 20
122.8124388244
 30
0.0
 11
57.7444102571
 21
122.8124388244
 31
0.0
  0
LINE
  5
256
330
1F
100
AcDbEntity
  8
0
  6
Continuous
 62
     7
370
    15
100
AcDbLine
 10
57.6678778932
 20
123.1799610641
 30
0.0
 11
57.6678778932
 21
122.8124388244
 31
0.0
  0
LINE
  5
257
330
1F
100
AcDbEntity
  8
0
  6
Continuous
 62
     7
370
    15
100
AcDbLine
 10
56.7741658494
 20
122.0186241653
 30
0.0
 11
56.7741658494
 21
123.4299429443
 31
0.0
  0
LINE
  5
258
330
1F
100
AcDbEntity
  8
0
  6
Continuous
 62
     7
370
    15
100
AcDbLine
 10
57.6178695962
 20
122.7624901321
 30
0.0
 11
57.6178695962
 21
123.1799610641
 31
0.0
  0
ARC
  5
259
330
1F
100
AcDbEntity
  8
0
  6
Continuous
 62
     7
370
    15
100
AcDbCircle
 10
85.7390131757
 20
94.6577974346
 30
0.0
 40
39.7576718111136
100
AcDbArc
 50
134.9149047949
 51
135.0167639317
  0
ARC
  5
25A
330
1F
100
AcDbEntity
  8
0
  6
Continuous
 62
     7
370
    15
100
AcDbCircle
 10
42.3737730787
 20
109.6016554223
 30
0.0
 40
20.08537529051726
100
AcDbArc
 50
44.8649430816
 51
45.0668070402
  0
LINE
  5
25B
330
1F
100
AcDbEntity
  8
0
  6
Continuous
 62
     7
370
    15
100
AcDbLine
 10
56.5597083375
 20
123.8207109954
 30
0.0
 11
56.5597083375
 21
124.350000241
 31
0.0
  0
ARC
  5
25C
330
1F
100
AcDbEntity
  8
0
  6
Continuous
 62
     7
370
    15
100
AcDbCircle
 10
42.3737730787
 20
110.1309446679
 30
0.0
 40
20.08537529051726
100
AcDbArc
 50
44.8649430816
 51
45.0668070402
  0
ARC
  5
25D
330
1F
100
AcDbEntity
  8
0
  6
Continuous
 62
     7
370
    15
100
AcDbCircle
 10
48.0038988875
 20
125.7253031753
 30
0.0
 40
8.749011790248755
100
AcDbArc
 50
337.9842212534
 51
338.3114165492
  0
LINE
  5
25E
330
1F
100
AcDbEntity
  8
0
  6
Continuous
 62
     7
370
    15
100
AcDbLine
 10
56.1335351274
 20
122.4920042541
 30
0.0
 11
56.5597083375
 21
122.3214157608
 31
0.0
  0
ARC
  5
25F
330
1F
100
AcDbEntity
  8
0
  6
Continuous
 62
     7
370
    15
100
AcDbCircle
 10
42.6853068104
 20
112.8648101772
 30
0.0
 40
16.7906642780303
100
AcDbArc
 50
33.9736396609
 51
34.2778164916
  0
LINE
  5
260
330
1F
100
AcDbEntity
  8
0
  6
Continuous
 62
     7
370
    15
100
AcDbLine
 10
56.5597083375
 20
122.3214157608
 30
0.0
 11
56.5597083375
 21
123.379994252
 31
0.0
  0
ARC
  5
261
330
1F
100
AcDbEntity
  8
0
  6
Continuous
 62
     7
370
    15
100
AcDbCircle
 10
77.0520185712
 20
102.91323852
 30
0.0
 40
28.9624389322501
100
AcDbArc
 50
134.895921698
 51
135.0357470287
  0
ARC
  5
262
330
1F
100
AcDbEntity
  8
0
  6
Continuous
 62
     7
370
    15
100
AcDbCircle
 10
71.0101094053
 20
110.1309446679
 30
0.0
 40
20.08537529051724
100
AcDbArc
 50
134.9331929598
 51
135.1350569184
  0
LINE
  5
263
330
1F
100
AcDbEntity
  8
0
  6
Continuous
 62
     7
370
    15
100
AcDbLine
 10
56.8241741464
 20
124.350000241
 30
0.0
 11
56.8241741464
 21
123.8207109954
 31
0.0
  0
ARC
  5
264
330
1F
100
AcDbEntity
  8
0
  6
Continuous
 62
     7
370
    15
100
AcDbCircle
 10
56.1866583162
 20
124.4074595457
 30
0.0
 40
0.8664296249633338
100
AcDbArc
 50
312.6936930581
 51
317.37455682
  0
LINE
  5
265
330
1F
100
AcDbEntity
  8
0
  6
Continuous
 62
     7
370
    15
100
AcDbLine
 10
56.5597083375
 20
124.350000241
 30
0.0
 11
56.8241741464
 21
124.350000241
 31
0.0
  0
LINE
  5
266
330
1F
100
AcDbEntity
  8
0
  6
Continuous
 62
     7
370
    15
100
AcDbLine
 10
56.8241741464
 20
123.8207109954
 30
0.0
 11
57.417896013
 21
123.8207109954
 31
0.0
  0
LINE
  5
267
330
1F
100
AcDbEntity
  8
0
  6
Continuous
 62
     7
370
    15
100
AcDbLine
 10
57.417896013
 20
123.8207109954
 30
0.0
 11
57.417896013
 21
123.7706430938
 31
0.0
  0
ARC
  5
268
330
1F
100
AcDbEntity
  8
0
  6
Continuous
 62
     7
370
    15
100
AcDbCircle
 10
57.4178939227
 20
124.0206530387
 30
0.0
 40
0.1999999999999886
100
AcDbArc
 50
269.9999999999
 51
0.0000000001
  0
LINE
  5
269
330
1F
100
AcDbEntity
  8
0
  6
Continuous
 62
     7
370
    15
100
AcDbLine
 10
57.6178695962
 20
124.020624974
 30
0.0
 11
57.6678778932
 21
124.020624974
 31
0.0
  0
ARC
  5
26A
330
1F
100
AcDbEntity
  8
0
  6
Continuous
 62
     7
370
    15
100
AcDbCircle
 10
44.8728146276
 20
108.6974192936
 30
0.0
 40
17.75690190400058
100
AcDbArc
 50
58.088503064
 51
58.3954439273
  0
LINE
  5
26B
330
1F
100
AcDbEntity
  8
0
  6
Continuous
 62
     7
370
    15
100
AcDbLine
 10
54.1783835695
 20
123.8207109954
 30
0.0
 11
56.5597083375
 21
123.8207109954
 31
0.0
  0
ARC
  5
26C
330
1F
100
AcDbEntity
  8
0
  6
Continuous
 62
     7
370
    15
100
AcDbCircle
 10
42.1420930735
 20
137.3578227506
 30
0.0
 40
18.49520754470786
100
AcDbArc
 50
311.3231536818
 51
311.483412163
  0
LINE
  5
26D
330
1F
100
AcDbEntity
  8
0
  6
Continuous
 62
     7
370
    15
100
AcDbLine
 10
54.3545748994
 20
123.4679707076
 30
0.0
 11
54.1783835695
 21
123.8207109954
 31
0.0
  0
LINE
  5
26E
330
1F
100
AcDbEntity
  8
0
  6
Continuous
 62
     7
370
    15
100
AcDbLine
 10
57.794418554
 20
122.7624901321
 30
0.0
 11
57.6178695962
 21
122.7624901321
 31
0.0
  0
ARC
  5
26F
330
1F
100
AcDbEntity
  8
0
  6
Continuous
 62
     7
370
    15
100
AcDbCircle
 10
29.6732749746
 20
94.6577974346
 30
0.0
 40
39.7576718111136
100
AcDbArc
 50
44.9832360683
 51
45.0850952051
  0
ARC
  5
270
330
1F
100
AcDbEntity
  8
0
  6
Continuous
 62
     7
370
    15
100
AcDbCircle
 10
36.3318639127
 20
101.501919741
 30
0.0
 40
28.9624389322501
100
AcDbArc
 50
44.9642529713
 51
45.104078302
  0
LINE
  5
271
330
1F
100
AcDbEntity
  8
0
  6
Continuous
 62
     7
370
    15
100
AcDbLine
 10
56.8241741464
 20
121.968675473
 30
0.0
 11
56.7358996675
 21
121.968675473
 31
0.0
  0
ARC
  5
272
330
1F
100
AcDbEntity
  8
0
  6
Continuous
 62
     7
370
    15
100
AcDbCircle
 10
15.3120966649
 20
132.7220133193
 30
0.0
 40
42.7967957916088
100
AcDbArc
 50
345.4476176907
 51
345.5166939702
  0
ARC
  5
273
330
1F
100
AcDbEntity
  8
0
  6
Continuous
 62
     7
370
    15
100
AcDbCircle
 10
61.162877412
 20
119.4493325524
 30
0.0
 40
5.909878096402884
100
AcDbArc
 50
148.8523369724
 51
149.337247367
  0
ARC
  5
274
330
1F
100
AcDbEntity
  8
0
  6
Continuous
 62
     7
370
    15
100
AcDbCircle
 10
56.2078432846
 20
122.6776965181
 30
0.0
 40
0.1999999999322612
100
AcDbArc
 50
239.0515274354
 51
248.1873911842
  0
ARC
  5
275
330
1F
100
AcDbEntity
  8
0
  6
Continuous
 62
     7
370
    15
100
AcDbCircle
 10
68.9772999576
 20
114.771932072
 30
0.0
 40
15.51281487852987
100
AcDbArc
 50
149.0024248582
 51
149.1871594812
  0
LINE
  5
276
330
1F
100
AcDbEntity
  8
0
  6
Continuous
 62
     7
370
    15
100
AcDbLine
 10
55.679884176
 20
122.7610596206
 30
0.0
 11
56.1049845025
 21
122.5061901596
 31
0.0
  0
LINE
  5
277
330
1F
100
AcDbEntity
  8
0
  6
Continuous
 62
     7
370
    15
100
AcDbLine
 10
57.6178695962
 20
124.020624974
 30
0.0
 11
57.6178695962
 21
124.350000241
 31
0.0
  0
ARC
  5
278
330
1F
100
AcDbEntity
  8
0
  6
Continuous
 62
     7
370
    15
100
AcDbCircle
 10
44.7003211782
 20
111.3978215244
 30
0.0
 40
18.29267587426254
100
AcDbArc
 50
44.8550516411
 51
45.0766984808
  0
LINE
  5
279
330
1F
100
AcDbEntity
  8
0
  6
Continuous
 62
     7
370
    15
100
AcDbLine
 10
56.5597083375
 20
123.379994252
 30
0.0
 11
54.7073747918
 21
123.379994252
 31
0.0
  0
ARC
  5
27A
330
1F
100
AcDbEntity
  8
0
  6
Continuous
 62
     7
370
    15
100
AcDbCircle
 10
39.2012582589
 20
70.4092368177
 30
0.0
 40
55.19366624069752
100
AcDbArc
 50
73.6836765644
 51
73.8692662992
  0
LINE
  5
27B
330
1F
100
AcDbEntity
  8
0
  6
Continuous
 62
     7
370
    15
100
AcDbLine
 10
57.6178695962
 20
124.350000241
 30
0.0
 11
57.794418554
 21
124.350000241
 31
0.0
  0
ARC
  5
27C
330
1F
100
AcDbEntity
  8
0
  6
Continuous
 62
     7
370
    15
100
AcDbCircle
 10
70.7119669721
 20
111.3978215244
 30
0.0
 40
18.29267587426254
100
AcDbArc
 50
134.9233015192
 51
135.1449483589
  0
ARC
  5
27D
330
1F
100
AcDbEntity
  8
0
  6
Continuous
 62
     7
370
    15
100
AcDbCircle
 10
45.6993455957
 20
128.6905638332
 30
0.0
 40
12.01626319777323
100
AcDbArc
 50
328.4836145751
 51
328.7220134757
  0
LINE
  5
27E
330
1F
100
AcDbEntity
  8
0
  6
Continuous
 62
     7
370
    15
100
AcDbLine
 10
55.9430982873
 20
122.4091537979
 30
0.0
 11
54.3545748994
 21
123.4679707076
 31
0.0
  0
LINE
  5
27F
330
1F
100
AcDbEntity
  8
0
  6
Continuous
 62
     7
370
    15
100
AcDbLine
 10
56.7358996675
 20
121.968675473
 30
0.0
 11
55.9430982873
 21
122.4091537979
 31
0.0
  0
LINE
  5
280
330
1F
100
AcDbEntity
  8
0
  6
Continuous
 62
     7
370
    15
100
AcDbLine
 10
57.794418554
 20
124.350000241
 30
0.0
 11
57.794418554
 21
122.7624901321
 31
0.0
  0
LINE
  5
281
330
1F
100
AcDbEntity
  8
0
  6
Continuous
 62
     7
370
    15
100
AcDbLine
 10
54.7073747918
 20
123.379994252
 30
0.0
 11
55.675354223
 21
122.7639206436
 31
0.0
  0
ARC
  5
282
330
1F
100
AcDbEntity
  8
0
  6
Continuous
 62
     7
370
    15
100
AcDbCircle
 10
49.8693957401
 20
126.4326870592
 30
0.0
 40
6.867969198903952
100
AcDbArc
 50
327.2939264482
 51
327.7113401574
  0
LWPOLYLINE
  5
283
330
1F
100
AcDbEntity
  8
0
  6
Continuous
 62
     7
370
    15
100
AcDbPolyline
 90
        9
 70
   128
 43
0.0
 10
55.675354223
 20
122.7639206436
 10
55.6758906648
 20
122.7635630157
 10
55.6764867112
 20
122.7632053878
 10
55.677023153
 20
122.76284776
 10
55.6776191995
 20
122.7624901321
 10
55.6781556413
 20
122.7621325042
 10
55.6787516877
 20
122.7617748764
 10
55.6792881295
 20
122.7614172485
 10
55.679884176
 20
122.7610596206
  0
LINE
  5
284
330
1F
100
AcDbEntity
  8
0
  6
Continuous
 62
     7
370
    15
100
AcDbLine
 10
56.8241741464
 20
123.379994252
 30
0.0
 11
56.8241741464
 21
121.968675473
 31
0.0
  0
LINE
  5
285
330
1F
100
AcDbEntity
  8
0
  6
Continuous
 62
     7
370
    15
100
AcDbLine
 10
142.0937022745
 20
97.5004919555
 30
0.0
 11
142.0937036715
 21
97.5002535369
 31
0.0
  0
LINE
  5
286
330
1F
100
AcDbEntity
  8
0
  6
Continuous
 62
     7
370
    15
100
AcDbLine
 10
142.0936964538
 20
149.447489598
 30
0.0
 11
142.0937050685
 21
149.446655133
 31
0.0
  0
LINE
  5
287
330
1F
100
AcDbEntity
  8
0
  6
Continuous
 62
     7
370
    15
100
AcDbLine
 10
140.0937049735
 20
92.9824598815
 30
0.0
 11
141.9937050056
 21
92.9824598815
 31
0.0
  0
LINE
  5
288
330
1F
100
AcDbEntity
  8
0
  6
Continuous
 62
     7
370
    15
100
AcDbLine
 10
141.9937050056
 20
155.9824236419
 30
0.0
 11
140.0937049735
 21
155.9824236419
 31
0.0
  0
ARC
  5
289
330
1F
100
AcDbEntity
  8
0
  6
Continuous
 62
     7
370
    15
100
AcDbCircle
 10
141.9937049735
 20
155.8824530387
 30
0.0
 40
0.0999999999999943
100
AcDbArc
 50
0.0
 51
90.0
  0
ARC
  5
28A
330
1F
100
AcDbEntity
  8
0
  6
Continuous
 62
     7
370
    15
100
AcDbCircle
 10
141.9937049735
 20
93.0824530387
 30
0.0
 40
0.0999999999999943
100
AcDbArc
 50
270.0
 51
0.0
  0
LINE
  5
28B
330
1F
100
AcDbEntity
  8
0
  6
Continuous
 62
     7
370
    15
100
AcDbLine
 10
140.0937049735
 20
155.9824236419
 30
0.0
 11
140.0937049735
 21
92.9824598815
 31
0.0
  0
LINE
  5
28C
330
1F
100
AcDbEntity
  8
0
  6
Continuous
 62
     7
370
    15
100
AcDbLine
 10
142.0937050685
 20
155.882407048
 30
0.0
 11
142.0937050685
 21
93.0824764755
 31
0.0
  0
LINE
  5
28D
330
1F
100
AcDbEntity
  8
0
  6
Continuous
 62
     8
370
    15
100
AcDbLine
 10
141.9937050056
 20
92.9824598815
 30
0.0
 11
141.9937050056
 21
155.9824236419
 31
0.0
  0
ENDSEC
  0
SECTION
  2
OBJECTS
  0
DICTIONARY
  5
C
330
0
100
AcDbDictionary
281
     1
  3
ACAD_GROUP
350
D
  3
ACAD_LAYOUT
350
1A
  3
ACAD_MLINESTYLE
350
17
  3
ACAD_PLOTSETTINGS
350
19
  3
ACAD_PLOTSTYLENAME
350
E
  0
DICTIONARY
  5
D
102
{ACAD_REACTORS
330
C
102
}
330
C
100
AcDbDictionary
281
     1
  0
DICTIONARY
  5
1A
102
{ACAD_REACTORS
330
C
102
}
330
C
100
AcDbDictionary
281
     1
  3
Layout1
350
1E
  3
Layout2
350
26
  3
Model
350
22
  0
DICTIONARY
  5
17
102
{ACAD_REACTORS
330
C
102
}
330
C
100
AcDbDictionary
281
     1
  3
Standard
350
18
  0
DICTIONARY
  5
19
102
{ACAD_REACTORS
330
C
102
}
330
C
100
AcDbDictionary
281
     1
  0
ACDBDICTIONARYWDFLT
  5
E
102
{ACAD_REACTORS
330
C
102
}
330
C
100
AcDbDictionary
281
     1
  3
Normal
350
F
100
AcDbDictionaryWithDefault
340
F
  0
LAYOUT
  5
1E
102
{ACAD_REACTORS
330
1A
102
}
330
1A
100
AcDbPlotSettings
  1

  2
none_device
  4

  6

 40
0.0
 41
0.0
 42
0.0
 43
0.0
 44
0.0
 45
0.0
 46
0.0
 47
0.0
 48
0.0
 49
0.0
140
0.0
141
0.0
142
1.0
143
1.0
 70
   688
 72
     0
 73
     0
 74
     5
  7

 75
    16
147
1.0
148
0.0
149
0.0
100
AcDbLayout
  1
Layout1
 70
     1
 71
     1
 10
0.0
 20
0.0
 11
420.0
 21
297.0
 12
0.0
 22
0.0
 32
0.0
 14
1.0000000000E+20
 24
1.0000000000E+20
 34
1.0000000000E+20
 15
-1.0000000000E+20
 25
-1.0000000000E+20
 35
-1.0000000000E+20
146
0.0
 13
0.0
 23
0.0
 33
0.0
 16
1.0
 26
0.0
 36
0.0
 17
0.0
 27
1.0
 37
0.0
 76
     0
330
1B
  0
LAYOUT
  5
26
102
{ACAD_REACTORS
330
1A
102
}
330
1A
100
AcDbPlotSettings
  1

  2
none_device
  4

  6

 40
0.0
 41
0.0
 42
0.0
 43
0.0
 44
0.0
 45
0.0
 46
0.0
 47
0.0
 48
0.0
 49
0.0
140
0.0
141
0.0
142
1.0
143
1.0
 70
   688
 72
     0
 73
     0
 74
     5
  7

 75
    16
147
1.0
148
0.0
149
0.0
100
AcDbLayout
  1
Layout2
 70
     1
 71
     2
 10
0.0
 20
0.0
 11
0.0
 21
0.0
 12
0.0
 22
0.0
 32
0.0
 14
0.0
 24
0.0
 34
0.0
 15
0.0
 25
0.0
 35
0.0
146
0.0
 13
0.0
 23
0.0
 33
0.0
 16
1.0
 26
0.0
 36
0.0
 17
0.0
 27
1.0
 37
0.0
 76
     0
330
23
  0
LAYOUT
  5
22
102
{ACAD_REACTORS
330
1A
102
}
330
1A
100
AcDbPlotSettings
  1

  2
none_device
  4

  6

 40
0.0
 41
0.0
 42
0.0
 43
0.0
 44
0.0
 45
0.0
 46
0.0
 47
0.0
 48
0.0
 49
0.0
140
0.0
141
0.0
142
1.0
143
1.0
 70
  1712
 72
     0
 73
     0
 74
     0
  7

 75
     0
147
1.0
148
0.0
149
0.0
100
AcDbLayout
  1
Model
 70
     1
 71
     0
 10
0.0
 20
0.0
 11
279.4
 21
215.9
 12
0.0
 22
0.0
 32
0.0
 14
0.0
 24
0.0
 34
0.0
 15
279.4
 25
215.9
 35
0.0
146
0.0
 13
0.0
 23
0.0
 33
0.0
 16
1.0
 26
0.0
 36
0.0
 17
0.0
 27
1.0
 37
0.0
 76
     0
330
1F
331
29
  0
MLINESTYLE
  5
18
102
{ACAD_REACTORS
330
17
102
}
330
17
100
AcDbMlineStyle
  2
Standard
 70
     0
  3

 62
   256
 51
90.0
 52
90.0
 71
     2
 49
0.5
 62
   256
  6
BYLAYER
 49
-0.5
 62
   256
  6
BYLAYER
  0
ACDBPLACEHOLDER
  5
F
102
{ACAD_REACTORS
330
E
102
}
330
E
  0
ENDSEC
  0
EOF
