  0
SECTION
  2
HEADER
  9
$ACADVER
  1
AC1015
  9
$ACADMAINTVER
 70
     6
  9
$DWGCODEPAGE
  3
ANSI_1251
  9
$INSBASE
 10
0.0
 20
0.0
 30
0.0
  9
$EXTMIN
 10
0.0
 20
0.0
 30
0.0
  9
$EXTMAX
 10
279.4
 20
215.9
 30
0.0
  9
$LIMMIN
 10
0.0
 20
0.0
  9
$LIMMAX
 10
279.4
 20
215.9
  9
$ORTHOMODE
 70
     0
  9
$REGENMODE
 70
     1
  9
$FILLMODE
 70
     1
  9
$QTEXTMODE
 70
     0
  9
$MIRRTEXT
 70
     1
  9
$LTSCALE
 40
1.0
  9
$ATTMODE
 70
     1
  9
$TEXTSIZE
 40
3.5
  9
$TRACEWID
 40
1.0
  9
$TEXTSTYLE
  7
Standard
  9
$CLAYER
  8
0
  9
$CELTYPE
  6
ByLayer
  9
$CECOLOR
 62
   256
  9
$CELTSCALE
 40
1.0
  9
$DISPSILH
 70
     0
  9
$DIMSCALE
 40
1.0
  9
$DIMASZ
 40
3.5
  9
$DIMEXO
 40
0.01
  9
$DIMDLI
 40
3.75
  9
$DIMRND
 40
0.0
  9
$DIMDLE
 40
0.0
  9
$DIMEXE
 40
1.0
  9
$DIMTP
 40
0.0
  9
$DIMTM
 40
0.0
  9
$DIMTXT
 40
3.5
  9
$DIMCEN
 40
2.5
  9
$DIMTSZ
 40
0.0
  9
$DIMTOL
 70
     0
  9
$DIMLIM
 70
     0
  9
$DIMTIH
 70
     1
  9
$DIMTOH
 70
     1
  9
$DIMSE1
 70
     0
  9
$DIMSE2
 70
     0
  9
$DIMTAD
 70
     1
  9
$DIMZIN
 70
     0
  9
$DIMBLK
  1

  9
$DIMASO
 70
     1
  9
$DIMSHO
 70
     1
  9
$DIMPOST
  1

  9
$DIMAPOST
  1

  9
$DIMALT
 70
     0
  9
$DIMALTD
 70
     3
  9
$DIMALTF
 40
0.0393700787
  9
$DIMLFAC
 40
5.0
  9
$DIMTOFL
 70
     1
  9
$DIMTVP
 40
0.0
  9
$DIMTIX
 70
     0
  9
$DIMSOXD
 70
     0
  9
$DIMSAH
 70
     0
  9
$DIMBLK1
  1

  9
$DIMBLK2
  1

  9
$DIMSTYLE
  2
ISO-25
  9
$DIMCLRD
 70
     0
  9
$DIMCLRE
 70
     0
  9
$DIMCLRT
 70
     0
  9
$DIMTFAC
 40
1.0
  9
$DIMGAP
 40
3.0
  9
$DIMJUST
 70
     0
  9
$DIMSD1
 70
     0
  9
$DIMSD2
 70
     0
  9
$DIMTOLJ
 70
     0
  9
$DIMTZIN
 70
     0
  9
$DIMALTZ
 70
     0
  9
$DIMALTTZ
 70
     0
  9
$DIMUPT
 70
     0
  9
$DIMDEC
 70
     2
  9
$DIMTDEC
 70
     3
  9
$DIMALTU
 70
     2
  9
$DIMALTTD
 70
     3
  9
$DIMTXSTY
  7
Standard
  9
$DIMAUNIT
 70
     0
  9
$DIMADEC
 70
     2
  9
$DIMALTRND
 40
0.0
  9
$DIMAZIN
 70
     0
  9
$DIMDSEP
 70
    44
  9
$DIMATFIT
 70
     3
  9
$DIMFRAC
 70
     0
  9
$DIMLDRBLK
  1

  9
$DIMLUNIT
 70
     2
  9
$DIMLWD
 70
    -2
  9
$DIMLWE
 70
    -2
  9
$DIMTMOVE
 70
     0
  9
$LUNITS
 70
     2
  9
$LUPREC
 70
     2
  9
$SKETCHINC
 40
1.0
  9
$FILLETRAD
 40
10.0
  9
$AUNITS
 70
     0
  9
$AUPREC
 70
     2
  9
$MENU
  1
.
  9
$ELEVATION
 40
0.0
  9
$PELEVATION
 40
0.0
  9
$THICKNESS
 40
0.0
  9
$LIMCHECK
 70
     0
  9
$CHAMFERA
 40
10.0
  9
$CHAMFERB
 40
10.0
  9
$CHAMFERC
 40
20.0
  9
$CHAMFERD
 40
0.0
  9
$SKPOLY
 70
     0
  9
$TDCREATE
 40
2457408.679140799
  9
$TDUCREATE
 40
2457408.595807465
  9
$TDUPDATE
 40
2457408.679141701
  9
$TDUUPDATE
 40
2457408.595808368
  9
$TDINDWG
 40
0.0000000116
  9
$TDUSRTIMER
 40
0.0000000116
  9
$USRTIMER
 70
     1
  9
$ANGBASE
 50
0.0
  9
$ANGDIR
 70
     0
  9
$PDMODE
 70
     0
  9
$PDSIZE
 40
-1.0
  9
$PLINEWID
 40
0.0
  9
$SPLFRAME
 70
     0
  9
$SPLINETYPE
 70
     6
  9
$SPLINESEGS
 70
     8
  9
$HANDSEED
  5
337
  9
$SURFTAB1
 70
     6
  9
$SURFTAB2
 70
     6
  9
$SURFTYPE
 70
     6
  9
$SURFU
 70
     6
  9
$SURFV
 70
     6
  9
$UCSBASE
  2

  9
$UCSNAME
  2

  9
$UCSORG
 10
0.0
 20
0.0
 30
0.0
  9
$UCSXDIR
 10
1.0
 20
0.0
 30
0.0
  9
$UCSYDIR
 10
0.0
 20
1.0
 30
0.0
  9
$UCSORTHOREF
  2

  9
$UCSORTHOVIEW
 70
     0
  9
$UCSORGTOP
 10
0.0
 20
0.0
 30
0.0
  9
$UCSORGBOTTOM
 10
0.0
 20
0.0
 30
0.0
  9
$UCSORGLEFT
 10
0.0
 20
0.0
 30
0.0
  9
$UCSORGRIGHT
 10
0.0
 20
0.0
 30
0.0
  9
$UCSORGFRONT
 10
0.0
 20
0.0
 30
0.0
  9
$UCSORGBACK
 10
0.0
 20
0.0
 30
0.0
  9
$PUCSBASE
  2

  9
$PUCSNAME
  2

  9
$PUCSORG
 10
0.0
 20
0.0
 30
0.0
  9
$PUCSXDIR
 10
1.0
 20
0.0
 30
0.0
  9
$PUCSYDIR
 10
0.0
 20
1.0
 30
0.0
  9
$PUCSORTHOREF
  2

  9
$PUCSORTHOVIEW
 70
     0
  9
$PUCSORGTOP
 10
0.0
 20
0.0
 30
0.0
  9
$PUCSORGBOTTOM
 10
0.0
 20
0.0
 30
0.0
  9
$PUCSORGLEFT
 10
0.0
 20
0.0
 30
0.0
  9
$PUCSORGRIGHT
 10
0.0
 20
0.0
 30
0.0
  9
$PUCSORGFRONT
 10
0.0
 20
0.0
 30
0.0
  9
$PUCSORGBACK
 10
0.0
 20
0.0
 30
0.0
  9
$USERI1
 70
     0
  9
$USERI2
 70
     0
  9
$USERI3
 70
     0
  9
$USERI4
 70
     0
  9
$USERI5
 70
     0
  9
$USERR1
 40
0.0
  9
$USERR2
 40
0.0
  9
$USERR3
 40
0.0
  9
$USERR4
 40
0.0
  9
$USERR5
 40
0.0
  9
$WORLDVIEW
 70
     1
  9
$SHADEDGE
 70
     3
  9
$SHADEDIF
 70
    70
  9
$TILEMODE
 70
     1
  9
$MAXACTVP
 70
    64
  9
$PINSBASE
 10
0.0
 20
0.0
 30
0.0
  9
$PLIMCHECK
 70
     0
  9
$PEXTMIN
 10
1.0000000000E+20
 20
1.0000000000E+20
 30
1.0000000000E+20
  9
$PEXTMAX
 10
-1.0000000000E+20
 20
-1.0000000000E+20
 30
-1.0000000000E+20
  9
$PLIMMIN
 10
0.0
 20
0.0
  9
$PLIMMAX
 10
420.0
 20
297.0
  9
$UNITMODE
 70
     0
  9
$VISRETAIN
 70
     1
  9
$PLINEGEN
 70
     0
  9
$PSLTSCALE
 70
     1
  9
$TREEDEPTH
 70
  3020
  9
$CMLSTYLE
  2
Standard
  9
$CMLJUST
 70
     0
  9
$CMLSCALE
 40
20.0
  9
$PROXYGRAPHICS
 70
     1
  9
$MEASUREMENT
 70
     1
  9
$CELWEIGHT
370
    -1
  9
$ENDCAPS
280
     0
  9
$JOINSTYLE
280
     0
  9
$LWDISPLAY
290
     1
  9
$INSUNITS
 70
     4
  9
$HYPERLINKBASE
  1

  9
$STYLESHEET
  1

  9
$XEDIT
290
     1
  9
$CEPSNTYPE
380
     0
  9
$PSTYLEMODE
290
     1
  9
$FINGERPRINTGUID
  2
{27D27D16-990C-4353-BBA5-56465E118E84}
  9
$VERSIONGUID
  2
{FAEB1C32-E019-11D5-929B-00C0DF256EC4}
  9
$EXTNAMES
290
     1
  9
$PSVPSCALE
 40
0.0
  9
$OLESTARTUP
290
     0
  0
ENDSEC
  0
SECTION
  2
CLASSES
  0
CLASS
  1
ACDBDICTIONARYWDFLT
  2
AcDbDictionaryWithDefault
  3
ObjectDBX Classes
 90
        0
280
     0
281
     0
  0
CLASS
  1
VISUALSTYLE
  2
AcDbVisualStyle
  3
ObjectDBX Classes
 90
     4095
280
     0
281
     0
  0
CLASS
  1
MATERIAL
  2
AcDbMaterial
  3
ObjectDBX Classes
 90
     1153
280
     0
281
     0
  0
CLASS
  1
ACDBPLACEHOLDER
  2
AcDbPlaceHolder
  3
ObjectDBX Classes
 90
        0
280
     0
281
     0
  0
CLASS
  1
LAYOUT
  2
AcDbLayout
  3
ObjectDBX Classes
 90
        0
280
     0
281
     0
  0
ENDSEC
  0
SECTION
  2
TABLES
  0
TABLE
  2
VPORT
  5
8
330
0
100
AcDbSymbolTable
 70
     1
  0
VPORT
  5
29
330
8
100
AcDbSymbolTableRecord
100
AcDbViewportTableRecord
  2
*Active
 70
     0
 10
0.0
 20
0.0
 11
1.0
 21
1.0
 12
139.7
 22
107.95
 13
0.0
 23
0.0
 14
10.0
 24
10.0
 15
10.0
 25
10.0
 16
0.0
 26
0.0
 36
1.0
 17
0.0
 27
0.0
 37
0.0
 40
215.9
 41
1.2941176471
 42
50.0
 43
0.0
 44
0.0
 50
0.0
 51
0.0
 71
     0
 72
  2000
 73
     1
 74
     3
 75
     0
 76
     0
 77
     0
 78
     0
281
     0
 65
     1
110
0.0
120
0.0
130
0.0
111
1.0
121
0.0
131
0.0
112
0.0
122
1.0
132
0.0
 79
     0
146
0.0
  0
ENDTAB
  0
TABLE
  2
LTYPE
  5
5
330
0
100
AcDbSymbolTable
 70
     6
  0
LTYPE
  5
14
330
5
100
AcDbSymbolTableRecord
100
AcDbLinetypeTableRecord
  2
ByBlock
 70
     0
  3

 72
    65
 73
     0
 40
0.0
  0
LTYPE
  5
15
330
5
100
AcDbSymbolTableRecord
100
AcDbLinetypeTableRecord
  2
ByLayer
 70
     0
  3

 72
    65
 73
     0
 40
0.0
  0
LTYPE
  5
16
330
5
100
AcDbSymbolTableRecord
100
AcDbLinetypeTableRecord
  2
Continuous
 70
     0
  3
Solid line
 72
    65
 73
     0
 40
0.0
  0
LTYPE
  5
3F
330
5
100
AcDbSymbolTableRecord
100
AcDbLinetypeTableRecord
  2
HIDDEN
 70
     0
  3
Hidden __ __ __ __ __ __ __ __ __ __ __ __ __ __
 72
    65
 73
     2
 40
1.905
 49
1.27
 74
     0
 49
-0.635
 74
     0
  0
LTYPE
  5
40
330
5
100
AcDbSymbolTableRecord
100
AcDbLinetypeTableRecord
  2
PHANTOM
 70
     0
  3
Phantom ______  __  __  ______  __  __  ______
 72
    65
 73
     6
 40
12.7
 49
6.35
 74
     0
 49
-1.27
 74
     0
 49
1.27
 74
     0
 49
-1.27
 74
     0
 49
1.27
 74
     0
 49
-1.27
 74
     0
  0
LTYPE
  5
41
330
5
100
AcDbSymbolTableRecord
100
AcDbLinetypeTableRecord
  2
CENTER
 70
     0
  3
Center ____ _ ____ _ ____ _ ____ _ ____ _ ____
 72
    65
 73
     4
 40
10.16
 49
6.35
 74
     0
 49
-1.27
 74
     0
 49
1.27
 74
     0
 49
-1.27
 74
     0
  0
LTYPE
  5
42
330
5
100
AcDbSymbolTableRecord
100
AcDbLinetypeTableRecord
  2
CENTERX2
 70
     0
  3
Center (2x) ________  __  ________  __  _____
 72
    65
 73
     4
 40
20.32
 49
12.7
 74
     0
 49
-2.54
 74
     0
 49
2.54
 74
     0
 49
-2.54
 74
     0
  0
LTYPE
  5
43
330
5
100
AcDbSymbolTableRecord
100
AcDbLinetypeTableRecord
  2
DOT2
 70
     0
  3
Dot (.5x) ........................................
 72
    65
 73
     2
 40
0.635
 49
0.0
 74
     0
 49
-0.635
 74
     0
  0
ENDTAB
  0
TABLE
  2
LAYER
  5
2
330
0
100
AcDbSymbolTable
 70
     1
  0
LAYER
  5
10
330
2
100
AcDbSymbolTableRecord
100
AcDbLayerTableRecord
  2
0
 70
     0
 62
     7
  6
Continuous
370
    -3
390
F
  0
ENDTAB
  0
TABLE
  2
STYLE
  5
3
330
0
100
AcDbSymbolTable
 70
     1
  0
STYLE
  5
11
330
3
100
AcDbSymbolTableRecord
100
AcDbTextStyleTableRecord
  2
Standard
 70
     0
 40
0.0
 41
1.0
 50
0.0
 71
     0
 42
3.5
  3
txt
  4

  0
ENDTAB
  0
TABLE
  2
VIEW
  5
6
330
0
100
AcDbSymbolTable
 70
     0
  0
ENDTAB
  0
TABLE
  2
UCS
  5
7
330
0
100
AcDbSymbolTable
 70
     0
  0
ENDTAB
  0
TABLE
  2
APPID
  5
9
330
0
100
AcDbSymbolTable
 70
     1
  0
APPID
  5
12
330
9
100
AcDbSymbolTableRecord
100
AcDbRegAppTableRecord
  2
ACAD
 70
     0
  0
ENDTAB
  0
TABLE
  2
DIMSTYLE
  5
A
330
0
100
AcDbSymbolTable
 70
     1
100
AcDbDimStyleTable
  0
DIMSTYLE
105
27
330
A
100
AcDbSymbolTableRecord
100
AcDbDimStyleTableRecord
  2
ISO-25
 70
     0
 41
2.5
 42
0.625
 43
3.75
 44
1.25
 73
     0
 74
     0
 77
     1
 78
     8
140
2.5
141
2.5
143
0.0393700787
147
0.625
171
     3
172
     1
178
     0
271
     2
272
     2
274
     3
278
    44
283
     0
284
     8
340
11
  0
ENDTAB
  0
TABLE
  2
BLOCK_RECORD
  5
1
330
0
100
AcDbSymbolTable
 70
     1
  0
BLOCK_RECORD
  5
1F
330
1
100
AcDbSymbolTableRecord
100
AcDbBlockTableRecord
  2
*Model_Space
340
22
  0
BLOCK_RECORD
  5
1B
330
1
100
AcDbSymbolTableRecord
100
AcDbBlockTableRecord
  2
*Paper_Space
340
1E
  0
BLOCK_RECORD
  5
23
330
1
100
AcDbSymbolTableRecord
100
AcDbBlockTableRecord
  2
*Paper_Space0
340
26
  0
ENDTAB
  0
ENDSEC
  0
SECTION
  2
BLOCKS
  0
BLOCK
  5
20
330
1F
100
AcDbEntity
  8
0
100
AcDbBlockBegin
  2
*Model_Space
 70
     0
 10
0.0
 20
0.0
 30
0.0
  3
*Model_Space
  1

  0
ENDBLK
  5
21
330
1F
100
AcDbEntity
  8
0
100
AcDbBlockEnd
  0
BLOCK
  5
1C
330
1B
100
AcDbEntity
 67
     1
  8
0
100
AcDbBlockBegin
  2
*Paper_Space
 70
     0
 10
0.0
 20
0.0
 30
0.0
  3
*Paper_Space
  1

  0
ENDBLK
  5
1D
330
1B
100
AcDbEntity
 67
     1
  8
0
100
AcDbBlockEnd
  0
BLOCK
  5
24
330
23
100
AcDbEntity
  8
0
100
AcDbBlockBegin
  2
*Paper_Space0
 70
     0
 10
0.0
 20
0.0
 30
0.0
  3
*Paper_Space0
  1

  0
ENDBLK
  5
25
330
23
100
AcDbEntity
  8
0
100
AcDbBlockEnd
  0
ENDSEC
  0
SECTION
  2
ENTITIES
  0
ARC
  5
44
330
1F
100
AcDbEntity
  8
0
  6
Continuous
 62
     7
370
    15
100
AcDbCircle
 10
74.9688714769
 20
167.6490305733
 30
0.0
 40
2.209999999999235
100
AcDbArc
 50
97.4843788672
 51
345.4582564657
  0
LINE
  5
45
330
1F
100
AcDbEntity
  8
0
  6
Continuous
 62
     7
370
    15
100
AcDbLine
 10
78.7693730455
 20
166.3712408171
 30
0.0
 11
77.1080738764
 21
167.0941319094
 31
0.0
  0
LINE
  5
46
330
1F
100
AcDbEntity
  8
0
  6
Continuous
 62
     7
370
    15
100
AcDbLine
 10
78.7493384342
 20
166.1175604687
 30
0.0
 11
78.7693730455
 21
166.3712408171
 31
0.0
  0
ARC
  5
47
330
1F
100
AcDbEntity
  8
0
  6
Continuous
 62
     7
370
    15
100
AcDbCircle
 10
78.575343033
 20
163.9144199512
 30
0.0
 40
2.20999999999924
100
AcDbArc
 50
85.4843788672
 51
333.4582564657
  0
LINE
  5
48
330
1F
100
AcDbEntity
  8
0
  6
Continuous
 62
     7
370
    15
100
AcDbLine
 10
82.0271274905
 20
161.8743832932
 30
0.0
 11
80.5524296026
 21
162.9268821107
 31
0.0
  0
LINE
  5
49
330
1F
100
AcDbEntity
  8
0
  6
Continuous
 62
     7
370
    15
100
AcDbLine
 10
81.9547868233
 20
161.6304125415
 30
0.0
 11
82.0271274905
 21
161.8743832932
 31
0.0
  0
ARC
  5
4A
330
1F
100
AcDbEntity
  8
0
  6
Continuous
 62
     7
370
    15
100
AcDbCircle
 10
81.3265353237
 20
159.5115919323
 30
0.0
 40
2.209999999999245
100
AcDbArc
 50
73.4843788672
 51
321.4582564657
  0
LINE
  5
4B
330
1F
100
AcDbEntity
  8
0
  6
Continuous
 62
     7
370
    15
100
AcDbLine
 10
84.2787421208
 20
156.7984688805
 30
0.0
 11
83.0550960164
 21
158.1345747934
 31
0.0
  0
LINE
  5
4C
330
1F
100
AcDbEntity
  8
0
  6
Continuous
 62
     7
370
    15
100
AcDbLine
 10
84.157258914
 20
156.5748695062
 30
0.0
 11
84.2787421208
 21
156.7984688805
 31
0.0
  0
ARC
  5
4D
330
1F
100
AcDbEntity
  8
0
  6
Continuous
 62
     7
370
    15
100
AcDbCircle
 10
83.1022080442
 20
154.6329712283
 30
0.0
 40
2.20999999999924
100
AcDbArc
 50
61.4843788672
 51
309.4582564657
  0
LINE
  5
4E
330
1F
100
AcDbEntity
  8
0
  6
Continuous
 62
     7
370
    15
100
AcDbLine
 10
85.4258126478
 20
151.3653382437
 30
0.0
 11
84.5066971045
 21
152.9266573266
 31
0.0
  0
LINE
  5
4F
330
1F
100
AcDbEntity
  8
0
  6
Continuous
 62
     7
370
    15
100
AcDbLine
 10
85.2604932051
 20
151.1718828009
 30
0.0
 11
85.4258126478
 21
151.3653382437
 31
0.0
  0
ARC
  5
50
330
1F
100
AcDbEntity
  8
0
  6
Continuous
 62
     7
370
    15
100
AcDbCircle
 10
83.8247557761
 20
149.491776974
 30
0.0
 40
2.209999999999249
100
AcDbArc
 50
49.4843788672
 51
297.4582564657
  0
LINE
  5
51
330
1F
100
AcDbEntity
  8
0
  6
Continuous
 62
     7
370
    15
100
AcDbLine
 10
85.4182041149
 20
145.812445298
 30
0.0
 11
84.843791173
 21
147.5307401047
 31
0.0
  0
LINE
  5
52
330
1F
100
AcDbEntity
  8
0
  6
Continuous
 62
     7
370
    15
100
AcDbLine
 10
85.2162784796
 20
145.6575887055
 30
0.0
 11
85.4182041149
 21
145.812445298
 31
0.0
  0
ARC
  5
53
330
1F
100
AcDbEntity
  8
0
  6
Continuous
 62
     7
370
    15
100
AcDbCircle
 10
83.4625997162
 20
144.3127040287
 30
0.0
 40
2.209999999999239
100
AcDbArc
 50
37.4843788672
 51
285.4582564657
  0
LINE
  5
54
330
1F
100
AcDbEntity
  8
0
  6
Continuous
 62
     7
370
    15
100
AcDbLine
 10
84.256250308
 20
140.3824779914
 30
0.0
 11
84.0516454439
 21
142.1826507674
 31
0.0
  0
LINE
  5
55
330
1F
100
AcDbEntity
  8
0
  6
Continuous
 62
     7
370
    15
100
AcDbLine
 10
84.0265399675
 20
140.2729887293
 30
0.0
 11
84.256250308
 21
140.3824779914
 31
0.0
  0
ARC
  5
56
330
1F
100
AcDbEntity
  8
0
  6
Continuous
 62
     7
370
    15
100
AcDbCircle
 10
82.0315678222
 20
139.322102732
 30
0.0
 40
2.209999999999263
100
AcDbArc
 50
25.4843788672
 51
273.4582564657
  0
LINE
  5
57
330
1F
100
AcDbEntity
  8
0
  6
Continuous
 62
     7
370
    15
100
AcDbLine
 10
81.9907358747
 20
135.3127520309
 30
0.0
 11
82.164878295
 21
137.1161270664
 31
0.0
  0
LINE
  5
58
330
1F
100
AcDbEntity
  8
0
  6
Continuous
 62
     7
370
    15
100
AcDbLine
 10
81.7432812314
 20
135.2534141169
 30
0.0
 11
81.9907358747
 21
135.3127520309
 31
0.0
  0
ARC
  5
59
330
1F
100
AcDbEntity
  8
0
  6
Continuous
 62
     7
370
    15
100
AcDbCircle
 10
79.5942030547
 20
134.7380863081
 30
0.0
 40
2.209999999999487
100
AcDbArc
 50
13.4843788672
 51
261.4582564657
  0
LINE
  5
5A
330
1F
100
AcDbEntity
  8
0
  6
Continuous
 62
     7
370
    15
100
AcDbLine
 10
78.7206730704
 20
130.8248381839
 30
0.0
 11
79.265951262
 21
132.5525995122
 31
0.0
  0
LINE
  5
5B
330
1F
100
AcDbEntity
  8
0
  6
Continuous
 62
     7
370
    15
100
AcDbLine
 10
78.4662878971
 20
130.8182474003
 30
0.0
 11
78.7206730704
 21
130.8248381839
 31
0.0
  0
ARC
  5
5C
330
1F
100
AcDbEntity
  8
0
  6
Continuous
 62
     7
370
    15
100
AcDbCircle
 10
76.2570299499
 20
130.7609982713
 30
0.0
 40
2.209999999999467
100
AcDbArc
 50
1.4843788672
 51
249.4582564657
  0
LINE
  5
5D
330
1F
100
AcDbEntity
  8
0
  6
Continuous
 62
     7
370
    15
100
AcDbLine
 10
74.5889789324
 20
127.1148811803
 30
0.0
 11
75.4815629583
 21
128.6915164219
 31
0.0
  0
LINE
  5
5E
330
1F
100
AcDbEntity
  8
0
  6
Continuous
 62
     7
370
    15
100
AcDbLine
 10
74.3387824755
 20
127.1613236294
 30
0.0
 11
74.5889789324
 21
127.1148811803
 31
0.0
  0
ARC
  5
5F
330
1F
100
AcDbEntity
  8
0
  6
Continuous
 62
     7
370
    15
100
AcDbCircle
 10
72.1658989859
 20
127.564656453
 30
0.0
 40
2.209999999999444
100
AcDbArc
 50
349.4843788672
 51
237.4582564657
  0
LINE
  5
60
330
1F
100
AcDbEntity
  8
0
  6
Continuous
 62
     7
370
    15
100
AcDbLine
 10
69.7762287121
 20
124.3450235353
 30
0.0
 11
70.9771095674
 21
125.7016267405
 31
0.0
  0
LINE
  5
61
330
1F
100
AcDbEntity
  8
0
  6
Continuous
 62
     7
370
    15
100
AcDbLine
 10
69.5411554437
 20
124.4424696789
 30
0.0
 11
69.7762287121
 21
124.3450235353
 31
0.0
  0
ARC
  5
62
330
1F
100
AcDbEntity
  8
0
  6
Continuous
 62
     7
370
    15
100
AcDbCircle
 10
67.4996122173
 20
125.2887563283
 30
0.0
 40
2.209999999999385
100
AcDbArc
 50
337.4843788672
 51
225.4582564657
  0
LINE
  5
63
330
1F
100
AcDbEntity
  8
0
  6
Continuous
 62
     7
370
    15
100
AcDbLine
 10
64.4927623581
 20
122.6363193021
 30
0.0
 11
65.9494548004
 21
123.7136017309
 31
0.0
  0
LINE
  5
64
330
1F
100
AcDbEntity
  8
0
  6
Continuous
 62
     7
370
    15
100
AcDbLine
 10
64.2830862563
 20
122.7805118786
 30
0.0
 11
64.4927623581
 21
122.6363193021
 31
0.0
  0
ARC
  5
65
330
1F
100
AcDbEntity
  8
0
  6
Continuous
 62
     7
370
    15
100
AcDbCircle
 10
62.4621087671
 20
124.0327656538
 30
0.0
 40
2.209999999999373
100
AcDbArc
 50
325.4843788672
 51
213.4582564657
  0
LINE
  5
66
330
1F
100
AcDbEntity
  8
0
  6
Continuous
 62
     7
370
    15
100
AcDbLine
 10
58.9694935349
 20
122.0634501205
 30
0.0
 11
60.6183328565
 21
122.8143285738
 31
0.0
  0
LINE
  5
67
330
1F
100
AcDbEntity
  8
0
  6
Continuous
 62
     7
370
    15
100
AcDbLine
 10
58.7943781998
 20
122.2480844484
 30
0.0
 11
58.9694935349
 21
122.0634501205
 31
0.0
  0
ARC
  5
68
330
1F
100
AcDbEntity
  8
0
  6
Continuous
 62
     7
370
    15
100
AcDbCircle
 10
57.2735517089
 20
123.8515772488
 30
0.0
 40
2.209999999999356
100
AcDbArc
 50
313.4843788672
 51
201.4582564657
  0
LINE
  5
69
330
1F
100
AcDbEntity
  8
0
  6
Continuous
 62
     7
370
    15
100
AcDbLine
 10
53.4478149276
 20
122.6514529215
 30
0.0
 11
55.2167392235
 21
123.0431090818
 31
0.0
  0
LINE
  5
6A
330
1F
100
AcDbEntity
  8
0
  6
Continuous
 62
     7
370
    15
100
AcDbLine
 10
53.3149140786
 20
122.8684615121
 30
0.0
 11
53.4478149276
 21
122.6514529215
 31
0.0
  0
ARC
  5
6B
330
1F
100
AcDbEntity
  8
0
  6
Continuous
 62
     7
370
    15
100
AcDbCircle
 10
52.1607058835
 20
124.753109916
 30
0.0
 40
2.209999999999327
100
AcDbArc
 50
301.4843788672
 51
189.4582564657
  0
LINE
  5
6C
330
1F
100
AcDbEntity
  8
0
  6
Continuous
 62
     7
370
    15
100
AcDbLine
 10
48.1690510075
 20
124.3746261821
 30
0.0
 11
49.9807498317
 21
124.3899430857
 31
0.0
  0
LINE
  5
6D
330
1F
100
AcDbEntity
  8
0
  6
Continuous
 62
     7
370
    15
100
AcDbLine
 10
48.0841725032
 20
124.6145229564
 30
0.0
 11
48.1690510075
 21
124.3746261821
 31
0.0
  0
ARC
  5
6E
330
1F
100
AcDbEntity
  8
0
  6
Continuous
 62
     7
370
    15
100
AcDbCircle
 10
47.3470271877
 20
126.6979623519
 30
0.0
 40
2.209999999999242
100
AcDbArc
 50
289.4843788672
 51
177.4582564657
  0
LINE
  5
6F
330
1F
100
AcDbEntity
  8
0
  6
Continuous
 62
     7
370
    15
100
AcDbLine
 10
43.3639085751
 20
127.157660924
 30
0.0
 11
45.1392016273
 21
126.7959695087
 31
0.0
  0
LINE
  5
70
330
1F
100
AcDbEntity
  8
0
  6
Continuous
 62
     7
370
    15
100
AcDbLine
 10
43.3307624321
 20
127.409962915
 30
0.0
 11
43.3639085751
 21
127.157660924
 31
0.0
  0
ARC
  5
71
330
1F
100
AcDbEntity
  8
0
  6
Continuous
 62
     7
370
    15
100
AcDbCircle
 10
43.0428964789
 20
129.6011351725
 30
0.0
 40
2.209999999999225
100
AcDbArc
 50
277.4843788672
 51
165.4582564657
  0
LINE
  5
72
330
1F
100
AcDbEntity
  8
0
  6
Continuous
 62
     7
370
    15
100
AcDbLine
 10
39.2423949103
 20
130.8789249287
 30
0.0
 11
40.9036940794
 21
130.1560338364
 31
0.0
  0
LINE
  5
73
330
1F
100
AcDbEntity
  8
0
  6
Continuous
 62
     7
370
    15
100
AcDbLine
 10
39.2624295216
 20
131.1326052771
 30
0.0
 11
39.2423949103
 21
130.8789249287
 31
0.0
  0
ARC
  5
74
330
1F
100
AcDbEntity
  8
0
  6
Continuous
 62
     7
370
    15
100
AcDbCircle
 10
39.4364249228
 20
133.3357457947
 30
0.0
 40
2.209999999999244
100
AcDbArc
 50
265.4843788672
 51
153.4582564657
  0
LINE
  5
75
330
1F
100
AcDbEntity
  8
0
  6
Continuous
 62
     7
370
    15
100
AcDbLine
 10
35.9846404653
 20
135.3757824526
 30
0.0
 11
37.4593383532
 21
134.3232836352
 31
0.0
  0
LINE
  5
76
330
1F
100
AcDbEntity
  8
0
  6
Continuous
 62
     7
370
    15
100
AcDbLine
 10
36.0569811325
 20
135.6197532044
 30
0.0
 11
35.9846404653
 21
135.3757824526
 31
0.0
  0
ARC
  5
77
330
1F
100
AcDbEntity
  8
0
  6
Continuous
 62
     7
370
    15
100
AcDbCircle
 10
36.6852326321
 20
137.7385738136
 30
0.0
 40
2.209999999999228
100
AcDbArc
 50
253.4843788672
 51
141.4582564657
  0
LINE
  5
78
330
1F
100
AcDbEntity
  8
0
  6
Continuous
 62
     7
370
    15
100
AcDbLine
 10
33.733025835
 20
140.4516968654
 30
0.0
 11
34.9566719394
 21
139.1155909525
 31
0.0
  0
LINE
  5
79
330
1F
100
AcDbEntity
  8
0
  6
Continuous
 62
     7
370
    15
100
AcDbLine
 10
33.8545090418
 20
140.6752962397
 30
0.0
 11
33.733025835
 21
140.4516968654
 31
0.0
  0
ARC
  5
7A
330
1F
100
AcDbEntity
  8
0
  6
Continuous
 62
     7
370
    15
100
AcDbCircle
 10
34.9095599116
 20
142.6171945176
 30
0.0
 40
2.209999999999253
100
AcDbArc
 50
241.4843788672
 51
129.4582564657
  0
LINE
  5
7B
330
1F
100
AcDbEntity
  8
0
  6
Continuous
 62
     7
370
    15
100
AcDbLine
 10
32.585955308
 20
145.8848275022
 30
0.0
 11
33.5050708513
 21
144.3235084192
 31
0.0
  0
LINE
  5
7C
330
1F
100
AcDbEntity
  8
0
  6
Continuous
 62
     7
370
    15
100
AcDbLine
 10
32.7512747507
 20
146.078282945
 30
0.0
 11
32.585955308
 21
145.8848275022
 31
0.0
  0
ARC
  5
7D
330
1F
100
AcDbEntity
  8
0
  6
Continuous
 62
     7
370
    15
100
AcDbCircle
 10
34.1870121797
 20
147.7583887718
 30
0.0
 40
2.209999999999219
100
AcDbArc
 50
229.4843788672
 51
117.4582564657
  0
LINE
  5
7E
330
1F
100
AcDbEntity
  8
0
  6
Continuous
 62
     7
370
    15
100
AcDbLine
 10
32.5935638409
 20
151.4377204479
 30
0.0
 11
33.1679767828
 21
149.7194256411
 31
0.0
  0
LINE
  5
7F
330
1F
100
AcDbEntity
  8
0
  6
Continuous
 62
     7
370
    15
100
AcDbLine
 10
32.7954894762
 20
151.5925770403
 30
0.0
 11
32.5935638409
 21
151.4377204479
 31
0.0
  0
ARC
  5
80
330
1F
100
AcDbEntity
  8
0
  6
Continuous
 62
     7
370
    15
100
AcDbCircle
 10
34.5491682396
 20
152.9374617171
 30
0.0
 40
2.209999999999235
100
AcDbArc
 50
217.4843788672
 51
105.4582564657
  0
LINE
  5
81
330
1F
100
AcDbEntity
  8
0
  6
Continuous
 62
     7
370
    15
100
AcDbLine
 10
33.7555176478
 20
156.8676877545
 30
0.0
 11
33.9601225119
 21
155.0675149785
 31
0.0
  0
LINE
  5
82
330
1F
100
AcDbEntity
  8
0
  6
Continuous
 62
     7
370
    15
100
AcDbLine
 10
33.9852279883
 20
156.9771770166
 30
0.0
 11
33.7555176478
 21
156.8676877545
 31
0.0
  0
ARC
  5
83
330
1F
100
AcDbEntity
  8
0
  6
Continuous
 62
     7
370
    15
100
AcDbCircle
 10
35.9802001336
 20
157.9280630138
 30
0.0
 40
2.209999999999257
100
AcDbArc
 50
205.4843788672
 51
93.4582564657
  0
LINE
  5
84
330
1F
100
AcDbEntity
  8
0
  6
Continuous
 62
     7
370
    15
100
AcDbLine
 10
36.0210320811
 20
161.9374137149
 30
0.0
 11
35.8468896608
 21
160.1340386794
 31
0.0
  0
LINE
  5
85
330
1F
100
AcDbEntity
  8
0
  6
Continuous
 62
     7
370
    15
100
AcDbLine
 10
36.2684867244
 20
161.9967516289
 30
0.0
 11
36.0210320811
 21
161.9374137149
 31
0.0
  0
ARC
  5
86
330
1F
100
AcDbEntity
  8
0
  6
Continuous
 62
     7
370
    15
100
AcDbCircle
 10
38.4175649011
 20
162.5120794377
 30
0.0
 40
2.209999999999235
100
AcDbArc
 50
193.4843788672
 51
81.4582564657
  0
LINE
  5
87
330
1F
100
AcDbEntity
  8
0
  6
Continuous
 62
     7
370
    15
100
AcDbLine
 10
39.2910948854
 20
166.4253275619
 30
0.0
 11
38.7458166938
 21
164.6975662337
 31
0.0
  0
LINE
  5
88
330
1F
100
AcDbEntity
  8
0
  6
Continuous
 62
     7
370
    15
100
AcDbLine
 10
39.5454800587
 20
166.4319183455
 30
0.0
 11
39.2910948854
 21
166.4253275619
 31
0.0
  0
ARC
  5
89
330
1F
100
AcDbEntity
  8
0
  6
Continuous
 62
     7
370
    15
100
AcDbCircle
 10
41.7547380059
 20
166.4891674745
 30
0.0
 40
2.209999999999239
100
AcDbArc
 50
181.4843788672
 51
69.4582564657
  0
LINE
  5
8A
330
1F
100
AcDbEntity
  8
0
  6
Continuous
 62
     7
370
    15
100
AcDbLine
 10
43.4227890234
 20
170.1352845655
 30
0.0
 11
42.5302049976
 21
168.558649324
 31
0.0
  0
LINE
  5
8B
330
1F
100
AcDbEntity
  8
0
  6
Continuous
 62
     7
370
    15
100
AcDbLine
 10
43.6729854803
 20
170.0888421164
 30
0.0
 11
43.4227890234
 21
170.1352845655
 31
0.0
  0
ARC
  5
8C
330
1F
100
AcDbEntity
  8
0
  6
Continuous
 62
     7
370
    15
100
AcDbCircle
 10
45.8458689699
 20
169.6855092929
 30
0.0
 40
2.209999999999235
100
AcDbArc
 50
169.4843788672
 51
57.4582564657
  0
LINE
  5
8D
330
1F
100
AcDbEntity
  8
0
  6
Continuous
 62
     7
370
    15
100
AcDbLine
 10
48.2355392437
 20
172.9051422105
 30
0.0
 11
47.0346583884
 21
171.5485390053
 31
0.0
  0
LINE
  5
8E
330
1F
100
AcDbEntity
  8
0
  6
Continuous
 62
     7
370
    15
100
AcDbLine
 10
48.4706125121
 20
172.8076960669
 30
0.0
 11
48.2355392437
 21
172.9051422105
 31
0.0
  0
ARC
  5
8F
330
1F
100
AcDbEntity
  8
0
  6
Continuous
 62
     7
370
    15
100
AcDbCircle
 10
50.5121557386
 20
171.9614094175
 30
0.0
 40
2.209999999999236
100
AcDbArc
 50
157.4843788672
 51
45.4582564657
  0
LINE
  5
90
330
1F
100
AcDbEntity
  8
0
  6
Continuous
 62
     7
370
    15
100
AcDbLine
 10
53.5190055977
 20
174.6138464437
 30
0.0
 11
52.0623131554
 21
173.536564015
 31
0.0
  0
LINE
  5
91
330
1F
100
AcDbEntity
  8
0
  6
Continuous
 62
     7
370
    15
100
AcDbLine
 10
53.7286816995
 20
174.4696538673
 30
0.0
 11
53.5190055977
 21
174.6138464437
 31
0.0
  0
ARC
  5
92
330
1F
100
AcDbEntity
  8
0
  6
Continuous
 62
     7
370
    15
100
AcDbCircle
 10
55.5496591887
 20
173.2174000921
 30
0.0
 40
2.209999999999213
100
AcDbArc
 50
145.4843788672
 51
33.4582564657
  0
LINE
  5
93
330
1F
100
AcDbEntity
  8
0
  6
Continuous
 62
     7
370
    15
100
AcDbLine
 10
59.0422744209
 20
175.1867156253
 30
0.0
 11
57.3934350993
 21
174.4358371721
 31
0.0
  0
LINE
  5
94
330
1F
100
AcDbEntity
  8
0
  6
Continuous
 62
     7
370
    15
100
AcDbLine
 10
59.217389756
 20
175.0020812975
 30
0.0
 11
59.0422744209
 21
175.1867156253
 31
0.0
  0
ARC
  5
95
330
1F
100
AcDbEntity
  8
0
  6
Continuous
 62
     7
370
    15
100
AcDbCircle
 10
60.7382162469
 20
173.3985884971
 30
0.0
 40
2.210000000000009
100
AcDbArc
 50
133.4843788672
 51
21.4582564658
  0
LINE
  5
96
330
1F
100
AcDbEntity
  8
0
  6
Continuous
 62
     7
370
    15
100
AcDbLine
 10
64.5639530282
 20
174.5987128244
 30
0.0
 11
62.7950287323
 21
174.2070566641
 31
0.0
  0
LINE
  5
97
330
1F
100
AcDbEntity
  8
0
  6
Continuous
 62
     7
370
    15
100
AcDbLine
 10
64.6968538772
 20
174.3817042337
 30
0.0
 11
64.5639530282
 21
174.5987128244
 31
0.0
  0
ARC
  5
98
330
1F
100
AcDbEntity
  8
0
  6
Continuous
 62
     7
370
    15
100
AcDbCircle
 10
65.8510620723
 20
172.4970558299
 30
0.0
 40
2.209999999999276
100
AcDbArc
 50
121.4843788672
 51
9.4582564657
  0
LINE
  5
99
330
1F
100
AcDbEntity
  8
0
  6
Continuous
 62
     7
370
    15
100
AcDbLine
 10
69.8427169483
 20
172.8755395637
 30
0.0
 11
68.0310181241
 21
172.8602226601
 31
0.0
  0
LINE
  5
9A
330
1F
100
AcDbEntity
  8
0
  6
Continuous
 62
     7
370
    15
100
AcDbLine
 10
69.9275954526
 20
172.6356427894
 30
0.0
 11
69.8427169483
 21
172.8755395637
 31
0.0
  0
ARC
  5
9B
330
1F
100
AcDbEntity
  8
0
  6
Continuous
 62
     7
370
    15
100
AcDbCircle
 10
70.6647407681
 20
170.552203394
 30
0.0
 40
2.209999999999257
100
AcDbArc
 50
109.4843788672
 51
357.4582564657
  0
LINE
  5
9C
330
1F
100
AcDbEntity
  8
0
  6
Continuous
 62
     7
370
    15
100
AcDbLine
 10
74.6478593807
 20
170.0925048218
 30
0.0
 11
72.8725663285
 21
170.4541962371
 31
0.0
  0
LINE
  5
9D
330
1F
100
AcDbEntity
  8
0
  6
Continuous
 62
     7
370
    15
100
AcDbLine
 10
74.6810055237
 20
169.8402028309
 30
0.0
 11
74.6478593807
 21
170.0925048218
 31
0.0
  0
ARC
  5
9E
330
1F
100
AcDbEntity
  8
0
  6
Continuous
 62
     7
370
    15
100
AcDbCircle
 10
54.0373161136
 20
152.8314391795
 30
0.0
 40
3.099999999999997
100
AcDbArc
 50
272.5
 51
319.7489713956
  0
ARC
  5
9F
330
1F
100
AcDbEntity
  8
0
  6
Continuous
 62
     7
370
    15
100
AcDbCircle
 10
59.0058839779
 20
148.6250828729
 30
0.0
 40
3.410000000000001
100
AcDbArc
 50
130.2510286044
 51
139.7489713956
  0
ARC
  5
A0
330
1F
100
AcDbEntity
  8
0
  6
Continuous
 62
     7
370
    15
100
AcDbCircle
 10
54.7995276714
 20
153.5936507373
 30
0.0
 40
3.100000000000005
100
AcDbArc
 50
310.2510286044
 51
357.5
  0
LINE
  5
A1
330
1F
100
AcDbEntity
  8
0
  6
Continuous
 62
     7
370
    15
100
AcDbLine
 10
58.4739052124
 20
166.6814174281
 30
0.0
 11
57.8965771842
 21
153.4584305958
 31
0.0
  0
ARC
  5
A2
330
1F
100
AcDbEntity
  8
0
  6
Continuous
 62
     7
370
    15
100
AcDbCircle
 10
55.3768557346
 20
166.8166373422
 30
0.0
 40
3.100000000000016
100
AcDbArc
 50
357.5
 51
101.2818177342
  0
ARC
  5
A3
330
1F
100
AcDbEntity
  8
0
  6
Continuous
 62
     7
370
    15
100
AcDbCircle
 10
59.0058839779
 20
148.6250828729
 30
0.0
 40
21.65
100
AcDbArc
 50
101.2818177342
 51
168.7181822658
  0
ARC
  5
A4
330
1F
100
AcDbEntity
  8
0
  6
Continuous
 62
     7
370
    15
100
AcDbCircle
 10
40.8143295086
 20
152.2541111162
 30
0.0
 40
3.099999999999997
100
AcDbArc
 50
168.7181822658
 51
272.5
  0
LINE
  5
A5
330
1F
100
AcDbEntity
  8
0
  6
Continuous
 62
     7
370
    15
100
AcDbLine
 10
54.172536255
 20
149.7343896666
 30
0.0
 11
40.9495494228
 21
149.1570616384
 31
0.0
  0
ARC
  5
A6
330
1F
100
AcDbEntity
  8
0
  6
Continuous
 62
     7
370
    15
100
AcDbCircle
 10
55.3768557346
 20
130.4335284036
 30
0.0
 40
3.100000000000005
100
AcDbArc
 50
258.7181822658
 51
2.5
  0
LINE
  5
A7
330
1F
100
AcDbEntity
  8
0
  6
Continuous
 62
     7
370
    15
100
AcDbLine
 10
57.8965771842
 20
143.79173515
 30
0.0
 11
58.4739052124
 21
130.5687483178
 31
0.0
  0
ARC
  5
A8
330
1F
100
AcDbEntity
  8
0
  6
Continuous
 62
     7
370
    15
100
AcDbCircle
 10
54.7995276714
 20
143.6565150086
 30
0.0
 40
3.100000000000011
100
AcDbArc
 50
2.5
 51
49.7489713956
  0
ARC
  5
A9
330
1F
100
AcDbEntity
  8
0
  6
Continuous
 62
     7
370
    15
100
AcDbCircle
 10
59.0058839779
 20
148.6250828729
 30
0.0
 40
3.410000000000013
100
AcDbArc
 50
220.2510286044
 51
229.7489713956
  0
ARC
  5
AA
330
1F
100
AcDbEntity
  8
0
  6
Continuous
 62
     7
370
    15
100
AcDbCircle
 10
54.0373161136
 20
144.4187265664
 30
0.0
 40
3.099999999999999
100
AcDbArc
 50
40.2510286044
 51
87.5
  0
LINE
  5
AB
330
1F
100
AcDbEntity
  8
0
  6
Continuous
 62
     7
370
    15
100
AcDbLine
 10
40.9495494228
 20
148.0931041074
 30
0.0
 11
54.172536255
 21
147.5157760793
 31
0.0
  0
ARC
  5
AC
330
1F
100
AcDbEntity
  8
0
  6
Continuous
 62
     7
370
    15
100
AcDbCircle
 10
40.8143295086
 20
144.9960546296
 30
0.0
 40
3.100000000000003
100
AcDbArc
 50
87.5
 51
191.2818177342
  0
ARC
  5
AD
330
1F
100
AcDbEntity
  8
0
  6
Continuous
 62
     7
370
    15
100
AcDbCircle
 10
59.0058839779
 20
148.6250828729
 30
0.0
 40
21.65000000000001
100
AcDbArc
 50
191.2818177342
 51
258.7181822658
  0
LINE
  5
AE
330
1F
100
AcDbEntity
  8
0
  6
Continuous
 62
     7
370
    15
100
AcDbLine
 10
77.062218533
 20
149.1570616384
 30
0.0
 11
63.8392317008
 21
149.7343896666
 31
0.0
  0
ARC
  5
AF
330
1F
100
AcDbEntity
  8
0
  6
Continuous
 62
     7
370
    15
100
AcDbCircle
 10
77.1974384472
 20
152.2541111162
 30
0.0
 40
3.099999999999998
100
AcDbArc
 50
267.5
 51
11.2818177342
  0
ARC
  5
B0
330
1F
100
AcDbEntity
  8
0
  6
Continuous
 62
     7
370
    15
100
AcDbCircle
 10
59.0058839779
 20
148.6250828729
 30
0.0
 40
21.65
100
AcDbArc
 50
11.2818177342
 51
78.7181822658
  0
ARC
  5
B1
330
1F
100
AcDbEntity
  8
0
  6
Continuous
 62
     7
370
    15
100
AcDbCircle
 10
62.6349122212
 20
166.8166373422
 30
0.0
 40
3.100000000000015
100
AcDbArc
 50
78.7181822658
 51
182.5
  0
LINE
  5
B2
330
1F
100
AcDbEntity
  8
0
  6
Continuous
 62
     7
370
    15
100
AcDbLine
 10
60.1151907716
 20
153.4584305958
 30
0.0
 11
59.5378627434
 21
166.6814174281
 31
0.0
  0
ARC
  5
B3
330
1F
100
AcDbEntity
  8
0
  6
Continuous
 62
     7
370
    15
100
AcDbCircle
 10
63.2122402844
 20
153.5936507373
 30
0.0
 40
3.099999999999996
100
AcDbArc
 50
182.5
 51
229.7489713956
  0
ARC
  5
B4
330
1F
100
AcDbEntity
  8
0
  6
Continuous
 62
     7
370
    15
100
AcDbCircle
 10
59.0058839779
 20
148.6250828729
 30
0.0
 40
3.410000000000002
100
AcDbArc
 50
40.2510286044
 51
49.7489713956
  0
ARC
  5
B5
330
1F
100
AcDbEntity
  8
0
  6
Continuous
 62
     7
370
    15
100
AcDbCircle
 10
63.9744518422
 20
152.8314391795
 30
0.0
 40
3.099999999999998
100
AcDbArc
 50
220.2510286044
 51
267.5
  0
ARC
  5
B6
330
1F
100
AcDbEntity
  8
0
  6
Continuous
 62
     7
370
    15
100
AcDbCircle
 10
62.6349122212
 20
130.4335284036
 30
0.0
 40
3.099999999999998
100
AcDbArc
 50
177.5
 51
281.2818177342
  0
ARC
  5
B7
330
1F
100
AcDbEntity
  8
0
  6
Continuous
 62
     7
370
    15
100
AcDbCircle
 10
59.0058839779
 20
148.6250828729
 30
0.0
 40
21.65000000000001
100
AcDbArc
 50
281.2818177342
 51
348.7181822658
  0
ARC
  5
B8
330
1F
100
AcDbEntity
  8
0
  6
Continuous
 62
     7
370
    15
100
AcDbCircle
 10
77.1974384472
 20
144.9960546296
 30
0.0
 40
3.100000000000008
100
AcDbArc
 50
348.7181822658
 51
92.5
  0
LINE
  5
B9
330
1F
100
AcDbEntity
  8
0
  6
Continuous
 62
     7
370
    15
100
AcDbLine
 10
63.8392317008
 20
147.5157760793
 30
0.0
 11
77.062218533
 21
148.0931041074
 31
0.0
  0
ARC
  5
BA
330
1F
100
AcDbEntity
  8
0
  6
Continuous
 62
     7
370
    15
100
AcDbCircle
 10
63.9744518422
 20
144.4187265664
 30
0.0
 40
3.099999999999996
100
AcDbArc
 50
92.5
 51
139.7489713956
  0
ARC
  5
BB
330
1F
100
AcDbEntity
  8
0
  6
Continuous
 62
     7
370
    15
100
AcDbCircle
 10
59.0058839779
 20
148.6250828729
 30
0.0
 40
3.410000000000022
100
AcDbArc
 50
310.2510286044
 51
319.7489713956
  0
ARC
  5
BC
330
1F
100
AcDbEntity
  8
0
  6
Continuous
 62
     7
370
    15
100
AcDbCircle
 10
63.2122402844
 20
143.6565150086
 30
0.0
 40
3.100000000000008
100
AcDbArc
 50
130.2510286044
 51
177.5
  0
LINE
  5
BD
330
1F
100
AcDbEntity
  8
0
  6
Continuous
 62
     7
370
    15
100
AcDbLine
 10
59.5378627434
 20
130.5687483178
 30
0.0
 11
60.1151907716
 21
143.79173515
 31
0.0
  0
CIRCLE
  5
BE
330
1F
100
AcDbEntity
  8
0
  6
Continuous
 62
     7
370
    15
100
AcDbCircle
 10
59.0058839779
 20
148.6250828729
 30
0.0
 40
2.049999999999997
  0
SPLINE
  5
BF
330
1F
100
AcDbEntity
  8
0
  6
Continuous
 62
     7
370
    15
100
AcDbSpline
210
0.0
220
0.0
230
1.0
 70
     8
 71
     3
 72
     8
 73
     4
 74
     0
 42
0.00000001
 43
0.00000001
 12
1.0
 22
0.0
 32
0.0
 13
1.0
 23
0.0
 33
0.0
 40
0.0
 40
0.0
 40
0.0
 40
0.0
 40
0.00025062732976
 40
0.00025062732976
 40
0.00025062732976
 40
0.00025062732976
 10
84.05164480787487
 20
142.1826510059388
 30
0.0
 10
84.05948578085516
 20
142.1942631830037
 30
0.0
 10
84.06729467543886
 20
142.2059183614844
 30
0.0
 10
84.07507032451186
 20
142.2176172135662
 30
0.0
  0
LINE
  5
C0
330
1F
100
AcDbEntity
  8
0
  6
Continuous
 62
     7
370
    15
100
AcDbLine
 10
84.0750700693
 20
142.2176170872
 30
0.0
 11
84.1002709131
 21
142.1975593792
 31
0.0
  0
LINE
  5
C1
330
1F
100
AcDbEntity
  8
0
  6
Continuous
 62
     7
370
    15
100
AcDbLine
 10
84.1002709131
 20
142.1975593792
 30
0.0
 11
84.303987668
 21
140.4052305744
 31
0.0
  0
LINE
  5
C2
330
1F
100
AcDbEntity
  8
0
  6
Continuous
 62
     7
370
    15
100
AcDbLine
 10
84.303987668
 20
140.4052305744
 30
0.0
 11
84.256250308
 21
140.3824779914
 31
0.0
  0
LINE
  5
C3
330
1F
100
AcDbEntity
  8
0
  6
Continuous
 62
     7
370
    15
100
AcDbLine
 10
32.7954894762
 20
151.5925770403
 30
0.0
 11
32.7959394913
 21
151.5929212571
 31
0.0
  0
SPLINE
  5
C4
330
1F
100
AcDbEntity
  8
0
  6
Continuous
 62
     7
370
    15
100
AcDbSpline
210
0.0
220
0.0
230
1.0
 70
    24
 71
     3
 72
     8
 73
     4
 74
     0
 42
0.00000001
 43
0.00000001
 12
1.0
 22
0.0
 32
0.0
 13
1.0
 23
0.0
 33
0.0
 40
0.0
 40
0.0
 40
0.0
 40
0.0
 40
0.0004280954770805
 40
0.0004280954770805
 40
0.0004280954770805
 40
0.0004280954770805
 10
32.79593950332307
 20
151.5929212758034
 30
0.0
 10
32.81898813784495
 20
151.590145380236
 30
0.0
 10
32.84212105201415
 20
151.5873593343275
 30
0.0
 10
32.86534416771308
 20
151.5845624248677
 30
0.0
  0
ARC
  5
C5
330
1F
100
AcDbEntity
  8
0
  6
Continuous
 62
     7
370
    15
100
AcDbCircle
 10
34.5491682396
 20
152.9374617171
 30
0.0
 40
2.159999999999235
100
AcDbArc
 50
218.7807740842
 51
105.8684512372
  0
SPLINE
  5
C6
330
1F
100
AcDbEntity
  8
0
  6
Continuous
 62
     7
370
    15
100
AcDbSpline
210
0.0
220
0.0
230
1.0
 70
    24
 71
     3
 72
     8
 73
     4
 74
     0
 42
0.00000001
 43
0.00000001
 12
1.0
 22
0.0
 32
0.0
 13
1.0
 23
0.0
 33
0.0
 40
0.0002082354842425
 40
0.0002082354842425
 40
0.0002082354842425
 40
0.0002082354842425
 40
0.0003884755548513
 40
0.0003884755548513
 40
0.0003884755548513
 40
0.0003884755548513
 10
33.93669763128932
 20
155.0325485322902
 30
0.0
 10
33.9439775147989
 20
155.0267546101734
 30
0.0
 10
33.95126497744972
 20
155.0209546559608
 30
0.0
 10
33.95856027383665
 20
155.0151484670253
 30
0.0
  0
SPLINE
  5
C7
330
1F
100
AcDbEntity
  8
0
  6
Continuous
 62
     7
370
    15
100
AcDbSpline
210
0.0
220
0.0
230
1.0
 70
     8
 71
     3
 72
     8
 73
     4
 74
     0
 42
0.00000001
 43
0.00000001
 12
1.0
 22
0.0
 32
0.0
 13
1.0
 23
0.0
 33
0.0
 40
0.0
 40
0.0
 40
0.0
 40
0.0
 40
0.0002506273297598
 40
0.0002506273297598
 40
0.0002506273297598
 40
0.0002506273297598
 10
33.96012314792629
 20
155.0675147399176
 30
0.0
 10
33.952282174946
 20
155.0559025628527
 30
0.0
 10
33.94447328036231
 20
155.044247384372
 30
0.0
 10
33.93669763128932
 20
155.0325485322902
 30
0.0
  0
SPLINE
  5
C8
330
1F
100
AcDbEntity
  8
0
  6
Continuous
 62
     7
370
    15
100
AcDbSpline
210
0.0
220
0.0
230
1.0
 70
    24
 71
     3
 72
     8
 73
     4
 74
     0
 42
0.00000001
 43
0.00000001
 12
1.0
 22
0.0
 32
0.0
 13
1.0
 23
0.0
 33
0.0
 40
0.0
 40
0.0
 40
0.0
 40
0.0
 40
0.0004280954770802
 40
0.0004280954770802
 40
0.0004280954770802
 40
0.0004280954770802
 10
58.79398892258452
 20
122.2484956290948
 30
0.0
 10
58.79434037315861
 20
122.271708160883
 30
0.0
 10
58.79469310884702
 20
122.2950055716253
 30
0.0
 10
58.79504721994792
 20
122.3183938253143
 30
0.0
  0
ARC
  5
C9
330
1F
100
AcDbEntity
  8
0
  6
Continuous
 62
     7
370
    15
100
AcDbCircle
 10
57.2735517089
 20
123.8515772488
 30
0.0
 40
2.15999999999934
100
AcDbArc
 50
314.7807740842
 51
201.8684512372
  0
SPLINE
  5
CA
330
1F
100
AcDbEntity
  8
0
  6
Continuous
 62
     7
370
    15
100
AcDbSpline
210
0.0
220
0.0
230
1.0
 70
    24
 71
     3
 72
     8
 73
     4
 74
     0
 42
0.00000001
 43
0.00000001
 12
1.0
 22
0.0
 32
0.0
 13
1.0
 23
0.0
 33
0.0
 40
0.000208235484243
 40
0.000208235484243
 40
0.000208235484243
 40
0.000208235484243
 40
0.0003884755548522
 40
0.0003884755548522
 40
0.0003884755548522
 40
0.0003884755548522
 10
55.25396261002611
 20
123.0234656133429
 30
0.0
 10
55.25896383739535
 20
123.0313112466641
 30
0.0
 10
55.26397027157987
 20
123.0391650481329
 30
0.0
 10
55.26898208748448
 20
123.0470272921298
 30
0.0
  0
SPLINE
  5
CB
330
1F
100
AcDbEntity
  8
0
  6
Continuous
 62
     7
370
    15
100
AcDbSpline
210
0.0
220
0.0
230
1.0
 70
     8
 71
     3
 72
     8
 73
     4
 74
     0
 42
0.00000001
 43
0.00000001
 12
1.0
 22
0.0
 32
0.0
 13
1.0
 23
0.0
 33
0.0
 40
0.0
 40
0.0
 40
0.0
 40
0.0
 40
0.0002506273297594
 40
0.0002506273297594
 40
0.0002506273297594
 40
0.0002506273297594
 10
55.21673931768746
 20
123.0431078385991
 30
0.0
 10
55.22910748688756
 20
123.036523622313
 30
0.0
 10
55.2415150688316
 20
123.0299758035666
 30
0.0
 10
55.25396261002611
 20
123.0234656133429
 30
0.0
  0
LINE
  5
CC
330
1F
100
AcDbEntity
  8
0
  6
Continuous
 62
     7
370
    15
100
AcDbLine
 10
58.7943781998
 20
122.2480844484
 30
0.0
 11
58.7939889302
 21
122.2484957204
 31
0.0
  0
SPLINE
  5
CD
330
1F
100
AcDbEntity
  8
0
  6
Continuous
 62
     7
370
    15
100
AcDbSpline
210
0.0
220
0.0
230
1.0
 70
    24
 71
     3
 72
     8
 73
     4
 74
     0
 42
0.00000001
 43
0.00000001
 12
1.0
 22
0.0
 32
0.0
 13
1.0
 23
0.0
 33
0.0
 40
0.0
 40
0.0
 40
0.0
 40
0.0
 40
0.0004280954770801
 40
0.0004280954770801
 40
0.0004280954770801
 40
0.0004280954770801
 10
74.68107966640639
 20
169.8396414182543
 30
0.0
 10
74.66715135306579
 20
169.8210686630195
 30
0.0
 10
74.65317210944839
 20
169.8024279946397
 30
0.0
 10
74.63913835695462
 20
169.7837146412193
 30
0.0
  0
ARC
  5
CE
330
1F
100
AcDbEntity
  8
0
  6
Continuous
 62
     7
370
    15
100
AcDbCircle
 10
74.9688714769
 20
167.6490305733
 30
0.0
 40
2.15999999999924
100
AcDbArc
 50
98.7807740842
 51
345.8684512372
  0
SPLINE
  5
CF
330
1F
100
AcDbEntity
  8
0
  6
Continuous
 62
     7
370
    15
100
AcDbSpline
210
0.0
220
0.0
230
1.0
 70
    24
 71
     3
 72
     8
 73
     4
 74
     0
 42
0.00000001
 43
0.00000001
 12
1.0
 22
0.0
 32
0.0
 13
1.0
 23
0.0
 33
0.0
 40
0.0002082354842424
 40
0.0002082354842424
 40
0.0002082354842424
 40
0.0002082354842424
 40
0.0003884755548511
 40
0.0003884755548511
 40
0.0003884755548511
 40
0.0003884755548511
 10
77.08950518609015
 20
167.1319022716185
 30
0.0
 10
77.08084756059463
 20
167.1284946686211
 30
0.0
 10
77.07218092158037
 20
167.1250835179426
 30
0.0
 10
77.06350496626959
 20
167.1216687004111
 30
0.0
  0
SPLINE
  5
D0
330
1F
100
AcDbEntity
  8
0
  6
Continuous
 62
     7
370
    15
100
AcDbSpline
210
0.0
220
0.0
230
1.0
 70
     8
 71
     3
 72
     8
 73
     4
 74
     0
 42
0.00000001
 43
0.00000001
 12
1.0
 22
0.0
 32
0.0
 13
1.0
 23
0.0
 33
0.0
 40
0.0
 40
0.0
 40
0.0
 40
0.0
 40
0.00025062732976
 40
0.00025062732976
 40
0.00025062732976
 40
0.00025062732976
 10
77.10807405185096
 20
167.0941320753005
 30
0.0
 10
77.10193809800964
 20
167.1067286456242
 30
0.0
 10
77.09574886465163
 20
167.1193189359495
 30
0.0
 10
77.08950518609015
 20
167.1319022716185
 30
0.0
  0
LINE
  5
D1
330
1F
100
AcDbEntity
  8
0
  6
Continuous
 62
     7
370
    15
100
AcDbLine
 10
74.6810055237
 20
169.8402028309
 30
0.0
 11
74.6810800295
 21
169.8396410571
 31
0.0
  0
SPLINE
  5
D2
330
1F
100
AcDbEntity
  8
0
  6
Continuous
 62
     7
370
    15
100
AcDbSpline
210
0.0
220
0.0
230
1.0
 70
     8
 71
     3
 72
     8
 73
     4
 74
     0
 42
0.00000001
 43
0.00000001
 12
1.0
 22
0.0
 32
0.0
 13
1.0
 23
0.0
 33
0.0
 40
0.0
 40
0.0
 40
0.0
 40
0.0
 40
0.0002506273297599
 40
0.0002506273297599
 40
0.0002506273297599
 40
0.0002506273297599
 10
84.5066981281504
 20
152.9266571879312
 30
0.0
 10
84.50913811548186
 20
152.9404546505706
 30
0.0
 10
84.51153130748834
 20
152.9542783494988
 30
0.0
 10
84.5138763645556
 20
152.9681284240794
 30
0.0
  0
LINE
  5
D3
330
1F
100
AcDbEntity
  8
0
  6
Continuous
 62
     7
370
    15
100
AcDbLine
 10
84.5138764839
 20
152.9681283758
 30
0.0
 11
84.5450586538
 21
152.9600552992
 31
0.0
  0
LINE
  5
D4
330
1F
100
AcDbEntity
  8
0
  6
Continuous
 62
     7
370
    15
100
AcDbLine
 10
84.5450586538
 20
152.9600552992
 30
0.0
 11
85.4601657848
 21
151.4055400864
 31
0.0
  0
LINE
  5
D5
330
1F
100
AcDbEntity
  8
0
  6
Continuous
 62
     7
370
    15
100
AcDbLine
 10
85.4601657848
 20
151.4055400864
 30
0.0
 11
85.4258126478
 21
151.3653382437
 31
0.0
  0
LINE
  5
D6
330
1F
100
AcDbEntity
  8
0
  6
Continuous
 62
     7
370
    15
100
AcDbLine
 10
48.4706125121
 20
172.8076960669
 30
0.0
 11
48.4711355429
 21
172.8074800001
 31
0.0
  0
SPLINE
  5
D7
330
1F
100
AcDbEntity
  8
0
  6
Continuous
 62
     7
370
    15
100
AcDbSpline
210
0.0
220
0.0
230
1.0
 70
    24
 71
     3
 72
     8
 73
     4
 74
     0
 42
0.00000001
 43
0.00000001
 12
1.0
 22
0.0
 32
0.0
 13
1.0
 23
0.0
 33
0.0
 40
0.0
 40
0.0
 40
0.0
 40
0.0
 40
0.0004280954770799
 40
0.0004280954770799
 40
0.0004280954770799
 40
0.0004280954770799
 10
48.47113519182891
 20
172.8074798211296
 30
0.0
 10
48.48025551301018
 20
172.7861311703274
 30
0.0
 10
48.48940918356195
 20
172.7647044560391
 30
0.0
 10
48.49859854676708
 20
172.7431941931589
 30
0.0
  0
ARC
  5
D8
330
1F
100
AcDbEntity
  8
0
  6
Continuous
 62
     7
370
    15
100
AcDbCircle
 10
50.5121557386
 20
171.9614094175
 30
0.0
 40
2.159999999999249
100
AcDbArc
 50
158.7807740842
 51
45.8684512372
  0
SPLINE
  5
D9
330
1F
100
AcDbEntity
  8
0
  6
Continuous
 62
     7
370
    15
100
AcDbSpline
210
0.0
220
0.0
230
1.0
 70
    24
 71
     3
 72
     8
 73
     4
 74
     0
 42
0.00000001
 43
0.00000001
 12
1.0
 22
0.0
 32
0.0
 13
1.0
 23
0.0
 33
0.0
 40
0.0002082354842425
 40
0.0002082354842425
 40
0.0002082354842425
 40
0.0002082354842425
 40
0.0003884755548513
 40
0.0003884755548513
 40
0.0003884755548513
 40
0.0003884755548513
 10
52.02031883947891
 20
173.5393679309806
 30
0.0
 10
52.01894109749297
 20
173.5301664058663
 30
0.0
 10
52.01756192112953
 20
173.5209553009753
 30
0.0
 10
52.01618126220567
 20
173.5117342945083
 30
0.0
  0
SPLINE
  5
DA
330
1F
100
AcDbEntity
  8
0
  6
Continuous
 62
     7
370
    15
100
AcDbSpline
210
0.0
220
0.0
230
1.0
 70
     8
 71
     3
 72
     8
 73
     4
 74
     0
 42
0.00000001
 43
0.00000001
 12
1.0
 22
0.0
 32
0.0
 13
1.0
 23
0.0
 33
0.0
 40
0.0
 40
0.0
 40
0.0
 40
0.0
 40
0.0002506273297599
 40
0.0002506273297599
 40
0.0002506273297599
 40
0.0002506273297599
 10
52.0623132218767
 20
173.5365639422898
 30
0.0
 10
52.04833629505507
 20
173.5375483355487
 30
0.0
 10
52.03433816711335
 20
173.5384834473933
 30
0.0
 10
52.02031883947891
 20
173.5393679309806
 30
0.0
  0
LINE
  5
DB
330
1F
100
AcDbEntity
  8
0
  6
Continuous
 62
     7
370
    15
100
AcDbLine
 10
32.7512747507
 20
146.078282945
 30
0.0
 11
32.7516413193
 21
146.0787130297
 31
0.0
  0
SPLINE
  5
DC
330
1F
100
AcDbEntity
  8
0
  6
Continuous
 62
     7
370
    15
100
AcDbSpline
210
0.0
220
0.0
230
1.0
 70
    24
 71
     3
 72
     8
 73
     4
 74
     0
 42
0.00000001
 43
0.00000001
 12
1.0
 22
0.0
 32
0.0
 13
1.0
 23
0.0
 33
0.0
 40
0.0
 40
0.0
 40
0.0
 40
0.0
 40
0.0004280954770801
 40
0.0004280954770801
 40
0.0004280954770801
 40
0.0004280954770801
 10
32.75164137431067
 20
146.0787130141173
 30
0.0
 10
32.77476348200938
 20
146.0807898591026
 30
0.0
 10
32.79797013801746
 20
146.0828742982802
 30
0.0
 10
32.82126728309478
 20
146.0849668652536
 30
0.0
  0
ARC
  5
DD
330
1F
100
AcDbEntity
  8
0
  6
Continuous
 62
     7
370
    15
100
AcDbCircle
 10
34.1870121797
 20
147.7583887718
 30
0.0
 40
2.159999999999254
100
AcDbArc
 50
230.7807740842
 51
117.8684512372
  0
SPLINE
  5
DE
330
1F
100
AcDbEntity
  8
0
  6
Continuous
 62
     7
370
    15
100
AcDbSpline
210
0.0
220
0.0
230
1.0
 70
    24
 71
     3
 72
     8
 73
     4
 74
     0
 42
0.00000001
 43
0.00000001
 12
1.0
 22
0.0
 32
0.0
 13
1.0
 23
0.0
 33
0.0
 40
0.0002082354842424
 40
0.0002082354842424
 40
0.0002082354842424
 40
0.0002082354842424
 40
0.0003884755548511
 40
0.0003884755548511
 40
0.0003884755548511
 40
0.0003884755548511
 10
33.15233248151941
 20
149.680353113668
 30
0.0
 10
33.16065790625169
 20
149.67619937554
 30
0.0
 10
33.16899199864602
 20
149.6720413129241
 30
0.0
 10
33.17733504986231
 20
149.6678787805543
 30
0.0
  0
SPLINE
  5
DF
330
1F
100
AcDbEntity
  8
0
  6
Continuous
 62
     7
370
    15
100
AcDbSpline
210
0.0
220
0.0
230
1.0
 70
     8
 71
     3
 72
     8
 73
     4
 74
     0
 42
0.00000001
 43
0.00000001
 12
1.0
 22
0.0
 32
0.0
 13
1.0
 23
0.0
 33
0.0
 40
0.0
 40
0.0
 40
0.0
 40
0.0
 40
0.0002506273297599
 40
0.0002506273297599
 40
0.0002506273297599
 40
0.0002506273297599
 10
33.16797621106454
 20
149.7194256645377
 30
0.0
 10
33.16272088952409
 20
149.7064370114523
 30
0.0
 10
33.15750588588735
 20
149.6934129661091
 30
0.0
 10
33.15233248151942
 20
149.680353113668
 30
0.0
  0
SPLINE
  5
E0
330
1F
100
AcDbEntity
  8
0
  6
Continuous
 62
     7
370
    15
100
AcDbSpline
210
0.0
220
0.0
230
1.0
 70
    24
 71
     3
 72
     8
 73
     4
 74
     0
 42
0.00000001
 43
0.00000001
 12
1.0
 22
0.0
 32
0.0
 13
1.0
 23
0.0
 33
0.0
 40
0.0
 40
0.0
 40
0.0
 40
0.0
 40
0.0004280954770806
 40
0.0004280954770806
 40
0.0004280954770806
 40
0.0004280954770806
 10
33.98573797514197
 20
156.9774207580152
 30
0.0
 10
34.00770580055878
 20
156.9699134418516
 30
0.0
 10
34.02975395353587
 20
156.9623786744322
 30
0.0
 10
34.05188807826348
 20
156.9548145269036
 30
0.0
  0
ARC
  5
E1
330
1F
100
AcDbEntity
  8
0
  6
Continuous
 62
     7
370
    15
100
AcDbCircle
 10
35.9802001336
 20
157.9280630138
 30
0.0
 40
2.159999999999236
100
AcDbArc
 50
206.7807740842
 51
93.8684512372
  0
SPLINE
  5
E2
330
1F
100
AcDbEntity
  8
0
  6
Continuous
 62
     7
370
    15
100
AcDbSpline
210
0.0
220
0.0
230
1.0
 70
    24
 71
     3
 72
     8
 73
     4
 74
     0
 42
0.00000001
 43
0.00000001
 12
1.0
 22
0.0
 32
0.0
 13
1.0
 23
0.0
 33
0.0
 40
0.0002082354842424
 40
0.0002082354842424
 40
0.0002082354842424
 40
0.0002082354842424
 40
0.0003884755548512
 40
0.0003884755548512
 40
0.0003884755548512
 40
0.0003884755548512
 10
35.81670651970878
 20
160.1047069551668
 30
0.0
 10
35.82262269615351
 20
160.09752607126
 30
0.0
 10
35.82854503197385
 20
160.0903377112811
 30
0.0
 10
35.83447373407257
 20
160.0831416240976
 30
0.0
  0
SPLINE
  5
E3
330
1F
100
AcDbEntity
  8
0
  6
Continuous
 62
     7
370
    15
100
AcDbSpline
210
0.0
220
0.0
230
1.0
 70
     8
 71
     3
 72
     8
 73
     4
 74
     0
 42
0.00000001
 43
0.00000001
 12
1.0
 22
0.0
 32
0.0
 13
1.0
 23
0.0
 33
0.0
 40
0.0
 40
0.0
 40
0.0
 40
0.0
 40
0.00025062732976
 40
0.00025062732976
 40
0.00025062732976
 40
0.00025062732976
 10
35.84689001595248
 20
160.1340386284921
 30
0.0
 10
35.83680607967673
 20
160.1243104353067
 30
0.0
 10
35.82674458031062
 20
160.114533510916
 30
0.0
 10
35.81670651970878
 20
160.1047069551669
 30
0.0
  0
LINE
  5
E4
330
1F
100
AcDbEntity
  8
0
  6
Continuous
 62
     7
370
    15
100
AcDbLine
 10
33.9852279883
 20
156.9771770166
 30
0.0
 11
33.985737608
 21
156.9774206505
 31
0.0
  0
SPLINE
  5
E5
330
1F
100
AcDbEntity
  8
0
  6
Continuous
 62
     7
370
    15
100
AcDbSpline
210
0.0
220
0.0
230
1.0
 70
     8
 71
     3
 72
     8
 73
     4
 74
     0
 42
0.00000001
 43
0.00000001
 12
1.0
 22
0.0
 32
0.0
 13
1.0
 23
0.0
 33
0.0
 40
0.0
 40
0.0
 40
0.0
 40
0.0
 40
0.00025062732976
 40
0.00025062732976
 40
0.00025062732976
 40
0.00025062732976
 10
84.84379174473663
 20
147.5307400813186
 30
0.0
 10
84.84904706627708
 20
147.543728734404
 30
0.0
 10
84.85426206991383
 20
147.5567527797473
 30
0.0
 10
84.85943547428177
 20
147.5698126321884
 30
0.0
  0
LINE
  5
E6
330
1F
100
AcDbEntity
  8
0
  6
Continuous
 62
     7
370
    15
100
AcDbLine
 10
84.859434412
 20
147.5698126258
 30
0.0
 11
84.888256238
 21
147.5554330052
 31
0.0
  0
LINE
  5
E7
330
1F
100
AcDbEntity
  8
0
  6
Continuous
 62
     7
370
    15
100
AcDbLine
 10
84.888256238
 20
147.5554330052
 30
0.0
 11
85.4601657848
 21
145.8446256594
 31
0.0
  0
LINE
  5
E8
330
1F
100
AcDbEntity
  8
0
  6
Continuous
 62
     7
370
    15
100
AcDbLine
 10
85.4601657848
 20
145.8446256594
 30
0.0
 11
85.4182041149
 21
145.812445298
 31
0.0
  0
SPLINE
  5
E9
330
1F
100
AcDbEntity
  8
0
  6
Continuous
 62
     7
370
    15
100
AcDbSpline
210
0.0
220
0.0
230
1.0
 70
    24
 71
     3
 72
     8
 73
     4
 74
     0
 42
0.00000001
 43
0.00000001
 12
1.0
 22
0.0
 32
0.0
 13
1.0
 23
0.0
 33
0.0
 40
0.0
 40
0.0
 40
0.0
 40
0.0
 40
0.00042809547708
 40
0.00042809547708
 40
0.00042809547708
 40
0.00042809547708
 10
69.54063276397245
 20
124.4426859247268
 30
0.0
 10
69.53151244279118
 20
124.464034575529
 30
0.0
 10
69.52235877223939
 20
124.4854612898173
 30
0.0
 10
69.51316940903426
 20
124.5069715526975
 30
0.0
  0
ARC
  5
EA
330
1F
100
AcDbEntity
  8
0
  6
Continuous
 62
     7
370
    15
100
AcDbCircle
 10
67.4996122173
 20
125.2887563283
 30
0.0
 40
2.159999999999405
100
AcDbArc
 50
338.7807740842
 51
225.8684512372
  0
SPLINE
  5
EB
330
1F
100
AcDbEntity
  8
0
  6
Continuous
 62
     7
370
    15
100
AcDbSpline
210
0.0
220
0.0
230
1.0
 70
    24
 71
     3
 72
     8
 73
     4
 74
     0
 42
0.00000001
 43
0.00000001
 12
1.0
 22
0.0
 32
0.0
 13
1.0
 23
0.0
 33
0.0
 40
0.0002082354842432
 40
0.0002082354842432
 40
0.0002082354842432
 40
0.0002082354842432
 40
0.0003884755548524
 40
0.0003884755548524
 40
0.0003884755548524
 40
0.0003884755548524
 10
65.99144911632186
 20
123.7107978148759
 30
0.0
 10
65.99282685830781
 20
123.7199993399903
 30
0.0
 10
65.99420603467125
 20
123.7292104448813
 30
0.0
 10
65.99558669359511
 20
123.7384314513483
 30
0.0
  0
SPLINE
  5
EC
330
1F
100
AcDbEntity
  8
0
  6
Continuous
 62
     7
370
    15
100
AcDbSpline
210
0.0
220
0.0
230
1.0
 70
     8
 71
     3
 72
     8
 73
     4
 74
     0
 42
0.00000001
 43
0.00000001
 12
1.0
 22
0.0
 32
0.0
 13
1.0
 23
0.0
 33
0.0
 40
0.0
 40
0.0
 40
0.0
 40
0.0
 40
0.0002506273297592
 40
0.0002506273297592
 40
0.0002506273297592
 40
0.0002506273297592
 10
65.94945473392418
 20
123.7136018035666
 30
0.0
 10
65.96343166074578
 20
123.7126174103078
 30
0.0
 10
65.97742978868746
 20
123.7116822984632
 30
0.0
 10
65.99144911632186
 20
123.7107978148759
 30
0.0
  0
LINE
  5
ED
330
1F
100
AcDbEntity
  8
0
  6
Continuous
 62
     7
370
    15
100
AcDbLine
 10
69.5411554437
 20
124.4424696789
 30
0.0
 11
69.5406324129
 21
124.4426857458
 31
0.0
  0
LINE
  5
EE
330
1F
100
AcDbEntity
  8
0
  6
Continuous
 62
     7
370
    15
100
AcDbLine
 10
35.8167058687
 20
160.1047072337
 30
0.0
 11
35.7962257128
 21
160.1295660959
 31
0.0
  0
LINE
  5
EF
330
1F
100
AcDbEntity
  8
0
  6
Continuous
 62
     7
370
    15
100
AcDbLine
 10
35.7962257128
 20
160.1295660959
 30
0.0
 11
35.9696081739
 21
161.9250830041
 31
0.0
  0
LINE
  5
F0
330
1F
100
AcDbEntity
  8
0
  6
Continuous
 62
     7
370
    15
100
AcDbLine
 10
35.9696081739
 20
161.9250830041
 30
0.0
 11
36.0210320811
 21
161.9374137149
 31
0.0
  0
SPLINE
  5
F1
330
1F
100
AcDbEntity
  8
0
  6
Continuous
 62
     7
370
    15
100
AcDbSpline
210
0.0
220
0.0
230
1.0
 70
    24
 71
     3
 72
     8
 73
     4
 74
     0
 42
0.00000001
 43
0.00000001
 12
1.0
 22
0.0
 32
0.0
 13
1.0
 23
0.0
 33
0.0
 40
0.0
 40
0.0
 40
0.0
 40
0.0
 40
0.0004280954770801
 40
0.0004280954770801
 40
0.0004280954770801
 40
0.0004280954770801
 10
74.338226264857
 20
127.161426750505
 30
0.0
 10
74.32486661049064
 20
127.1804126606685
 30
0.0
 10
74.31145810520616
 20
127.1994679947196
 30
0.0
 10
74.29799731650944
 20
127.2185976307055
 30
0.0
  0
ARC
  5
F2
330
1F
100
AcDbEntity
  8
0
  6
Continuous
 62
     7
370
    15
100
AcDbCircle
 10
72.1658989859
 20
127.564656453
 30
0.0
 40
2.159999999999453
100
AcDbArc
 50
350.7807740842
 51
237.8684512372
  0
SPLINE
  5
F3
330
1F
100
AcDbEntity
  8
0
  6
Continuous
 62
     7
370
    15
100
AcDbSpline
210
0.0
220
0.0
230
1.0
 70
    24
 71
     3
 72
     8
 73
     4
 74
     0
 42
0.00000001
 43
0.00000001
 12
1.0
 22
0.0
 32
0.0
 13
1.0
 23
0.0
 33
0.0
 40
0.0002082354842434
 40
0.0002082354842434
 40
0.0002082354842434
 40
0.0002082354842434
 40
0.0003884755548528
 40
0.0003884755548528
 40
0.0003884755548528
 40
0.0003884755548528
 10
71.01876888975235
 20
125.707615378643
 30
0.0
 10
71.01820342012572
 20
125.7169022770225
 30
0.0
 10
71.01763736178441
 20
125.7261988440614
 30
0.0
 10
71.01707069495262
 20
125.7355054045448
 30
0.0
  0
SPLINE
  5
F4
330
1F
100
AcDbEntity
  8
0
  6
Continuous
 62
     7
370
    15
100
AcDbSpline
210
0.0
220
0.0
230
1.0
 70
     8
 71
     3
 72
     8
 73
     4
 74
     0
 42
0.00000001
 43
0.00000001
 12
1.0
 22
0.0
 32
0.0
 13
1.0
 23
0.0
 33
0.0
 40
0.0
 40
0.0
 40
0.0
 40
0.0
 40
0.000250627329759
 40
0.000250627329759
 40
0.000250627329759
 40
0.000250627329759
 10
70.97710920333608
 20
125.7016269704041
 30
0.0
 10
70.99098536763913
 20
125.7035700549877
 30
0.0
 10
71.00487202358474
 20
125.7055657520291
 30
0.0
 10
71.01876888975235
 20
125.707615378643
 30
0.0
  0
LINE
  5
F5
330
1F
100
AcDbEntity
  8
0
  6
Continuous
 62
     7
370
    15
100
AcDbLine
 10
74.3387824755
 20
127.1613236294
 30
0.0
 11
74.3382266622
 21
127.1614264475
 31
0.0
  0
LINE
  5
F6
330
1F
100
AcDbEntity
  8
0
  6
Continuous
 62
     7
370
    15
100
AcDbLine
 10
53.7286816995
 20
174.4696538673
 30
0.0
 11
53.7291477333
 21
174.4693349825
 31
0.0
  0
SPLINE
  5
F7
330
1F
100
AcDbEntity
  8
0
  6
Continuous
 62
     7
370
    15
100
AcDbSpline
210
0.0
220
0.0
230
1.0
 70
    24
 71
     3
 72
     8
 73
     4
 74
     0
 42
0.00000001
 43
0.00000001
 12
1.0
 22
0.0
 32
0.0
 13
1.0
 23
0.0
 33
0.0
 40
0.0
 40
0.0
 40
0.0
 40
0.0
 40
0.0004280954770799
 40
0.0004280954770799
 40
0.0004280954770799
 40
0.0004280954770799
 10
53.72914776599806
 20
174.4693338602563
 30
0.0
 10
53.73363015219447
 20
174.4465555072977
 30
0.0
 10
53.73812892868626
 20
174.4236938630033
 30
0.0
 10
53.74264524713227
 20
174.4007430749344
 30
0.0
  0
ARC
  5
F8
330
1F
100
AcDbEntity
  8
0
  6
Continuous
 62
     7
370
    15
100
AcDbCircle
 10
55.5496591887
 20
173.2174000921
 30
0.0
 40
2.159999999999228
100
AcDbArc
 50
146.7807740842
 51
33.8684512372
  0
SPLINE
  5
F9
330
1F
100
AcDbEntity
  8
0
  6
Continuous
 62
     7
370
    15
100
AcDbSpline
210
0.0
220
0.0
230
1.0
 70
    24
 71
     3
 72
     8
 73
     4
 74
     0
 42
0.00000001
 43
0.00000001
 12
1.0
 22
0.0
 32
0.0
 13
1.0
 23
0.0
 33
0.0
 40
0.000208235484242
 40
0.000208235484242
 40
0.000208235484242
 40
0.000208235484242
 40
0.0003884755548504
 40
0.0003884755548504
 40
0.0003884755548504
 40
0.0003884755548504
 10
57.35294132991904
 20
174.4473116857071
 30
0.0
 10
57.34968059025645
 20
174.4385976846593
 30
0.0
 10
57.34641645581337
 20
174.4298746113998
 30
0.0
 10
57.34314881255398
 20
174.4211421611791
 30
0.0
  0
SPLINE
  5
FA
330
1F
100
AcDbEntity
  8
0
  6
Continuous
 62
     7
370
    15
100
AcDbSpline
210
0.0
220
0.0
230
1.0
 70
     8
 71
     3
 72
     8
 73
     4
 74
     0
 42
0.00000001
 43
0.00000001
 12
1.0
 22
0.0
 32
0.0
 13
1.0
 23
0.0
 33
0.0
 40
0.0
 40
0.0
 40
0.0
 40
0.0
 40
0.0002506273297604
 40
0.0002506273297604
 40
0.0002506273297604
 40
0.0002506273297604
 10
57.39343505227608
 20
174.4358378478476
 30
0.0
 10
57.37996822170673
 20
174.4397066962399
 30
0.0
 10
57.36647040713048
 20
174.4435317480958
 30
0.0
 10
57.35294132991904
 20
174.4473116857071
 30
0.0
  0
SPLINE
  5
FB
330
1F
100
AcDbEntity
  8
0
  6
Continuous
 62
     7
370
    15
100
AcDbSpline
210
0.0
220
0.0
230
1.0
 70
    24
 71
     3
 72
     8
 73
     4
 74
     0
 42
0.00000001
 43
0.00000001
 12
1.0
 22
0.0
 32
0.0
 13
1.0
 23
0.0
 33
0.0
 40
0.0
 40
0.0
 40
0.0
 40
0.0
 40
0.0004280954770801
 40
0.0004280954770801
 40
0.0004280954770801
 40
0.0004280954770801
 10
81.74273106853902
 20
135.2532827501715
 30
0.0
 10
81.72280415161133
 20
135.265193381191
 30
0.0
 10
81.70280436991028
 20
135.2771475646291
 30
0.0
 10
81.68272660361592
 20
135.2891483606827
 30
0.0
  0
ARC
  5
FC
330
1F
100
AcDbEntity
  8
0
  6
Continuous
 62
     7
370
    15
100
AcDbCircle
 10
79.5942030547
 20
134.7380863081
 30
0.0
 40
2.159999999999511
100
AcDbArc
 50
14.7807740842
 51
261.8684512372
  0
SPLINE
  5
FD
330
1F
100
AcDbEntity
  8
0
  6
Continuous
 62
     7
370
    15
100
AcDbSpline
210
0.0
220
0.0
230
1.0
 70
    24
 71
     3
 72
     8
 73
     4
 74
     0
 42
0.00000001
 43
0.00000001
 12
1.0
 22
0.0
 32
0.0
 13
1.0
 23
0.0
 33
0.0
 40
0.0002082354842436
 40
0.0002082354842436
 40
0.0002082354842436
 40
0.0002082354842436
 40
0.0003884755548533
 40
0.0003884755548533
 40
0.0003884755548533
 40
0.0003884755548533
 10
79.30157421873047
 20
132.5750150255544
 30
0.0
 10
79.29728031465014
 20
132.5832690321669
 30
0.0
 10
79.29298194015414
 20
132.5915316320875
 30
0.0
 10
79.28867894507437
 20
132.5998031139784
 30
0.0
  0
SPLINE
  5
FE
330
1F
100
AcDbEntity
  8
0
  6
Continuous
 62
     7
370
    15
100
AcDbSpline
210
0.0
220
0.0
230
1.0
 70
     8
 71
     3
 72
     8
 73
     4
 74
     0
 42
0.00000001
 43
0.00000001
 12
1.0
 22
0.0
 32
0.0
 13
1.0
 23
0.0
 33
0.0
 40
0.0
 40
0.0
 40
0.0
 40
0.0
 40
0.0002506273297587
 40
0.0002506273297587
 40
0.0002506273297587
 40
0.0002506273297587
 10
79.26595190650254
 20
132.5525998214048
 30
0.0
 10
79.27783808967033
 20
132.5600188619873
 30
0.0
 10
79.28971245801608
 20
132.5674902337771
 30
0.0
 10
79.30157421873047
 20
132.5750150255544
 30
0.0
  0
LINE
  5
FF
330
1F
100
AcDbEntity
  8
0
  6
Continuous
 62
     7
370
    15
100
AcDbLine
 10
81.7432812314
 20
135.2534141169
 30
0.0
 11
81.7427313786
 21
135.2532829867
 31
0.0
  0
LINE
  5
100
330
1F
100
AcDbEntity
  8
0
  6
Continuous
 62
     7
370
    15
100
AcDbLine
 10
48.0841725032
 20
124.6145229564
 30
0.0
 11
48.0839840036
 21
124.615056418
 31
0.0
  0
SPLINE
  5
101
330
1F
100
AcDbEntity
  8
0
  6
Continuous
 62
     7
370
    15
100
AcDbSpline
210
0.0
220
0.0
230
1.0
 70
    24
 71
     3
 72
     8
 73
     4
 74
     0
 42
0.00000001
 43
0.00000001
 12
1.0
 22
0.0
 32
0.0
 13
1.0
 23
0.0
 33
0.0
 40
0.0
 40
0.0
 40
0.0
 40
0.0
 40
0.0004280954770804
 40
0.0004280954770804
 40
0.0004280954770804
 40
0.0004280954770804
 10
48.08398366126685
 20
124.6150568916941
 30
0.0
 10
48.09374611459923
 20
124.6361196468429
 30
0.0
 10
48.10354426532283
 20
124.6572594200716
 30
0.0
 10
48.11338062170341
 20
124.6784816230309
 30
0.0
  0
ARC
  5
102
330
1F
100
AcDbEntity
  8
0
  6
Continuous
 62
     7
370
    15
100
AcDbCircle
 10
47.3470271877
 20
126.6979623519
 30
0.0
 40
2.159999999999235
100
AcDbArc
 50
290.7807740842
 51
177.8684512372
  0
SPLINE
  5
103
330
1F
100
AcDbEntity
  8
0
  6
Continuous
 62
     7
370
    15
100
AcDbSpline
210
0.0
220
0.0
230
1.0
 70
    24
 71
     3
 72
     8
 73
     4
 74
     0
 42
0.00000001
 43
0.00000001
 12
1.0
 22
0.0
 32
0.0
 13
1.0
 23
0.0
 33
0.0
 40
0.0002082354842424
 40
0.0002082354842424
 40
0.0002082354842424
 40
0.0002082354842424
 40
0.0003884755548514
 40
0.0003884755548514
 40
0.0003884755548514
 40
0.0003884755548514
 10
45.16521739337161
 20
126.7628856193828
 30
0.0
 10
45.17297734847727
 20
126.7680187796343
 30
0.0
 10
45.18074538253032
 20
126.7731572840573
 30
0.0
 10
45.18852176691483
 20
126.7783013121708
 30
0.0
  0
SPLINE
  5
104
330
1F
100
AcDbEntity
  8
0
  6
Continuous
 62
     7
370
    15
100
AcDbSpline
210
0.0
220
0.0
230
1.0
 70
     8
 71
     3
 72
     8
 73
     4
 74
     0
 42
0.00000001
 43
0.00000001
 12
1.0
 22
0.0
 32
0.0
 13
1.0
 23
0.0
 33
0.0
 40
0.0
 40
0.0
 40
0.0
 40
0.0
 40
0.0002506273297599
 40
0.0002506273297599
 40
0.0002506273297599
 40
0.0002506273297599
 10
45.13920143650032
 20
126.7959697620137
 30
0.0
 10
45.14782227926295
 20
126.7849241935119
 30
0.0
 10
45.15649393157189
 20
126.77389584521
 30
0.0
 10
45.16521739337161
 20
126.7628856193828
 30
0.0
  0
SPLINE
  5
105
330
1F
100
AcDbEntity
  8
0
  6
Continuous
 62
     7
370
    15
100
AcDbSpline
210
0.0
220
0.0
230
1.0
 70
    24
 71
     3
 72
     8
 73
     4
 74
     0
 42
0.00000001
 43
0.00000001
 12
1.0
 22
0.0
 32
0.0
 13
1.0
 23
0.0
 33
0.0
 40
0.0
 40
0.0
 40
0.0
 40
0.0
 40
0.00042809547708
 40
0.00042809547708
 40
0.00042809547708
 40
0.00042809547708
 10
39.54604512074099
 20
166.4319334029742
 30
0.0
 10
39.56306022728986
 20
166.4161400088281
 30
0.0
 10
39.58013755128496
 20
166.4002888645499
 30
0.0
 10
39.59728146441521
 20
166.384375912345
 30
0.0
  0
ARC
  5
106
330
1F
100
AcDbEntity
  8
0
  6
Continuous
 62
     7
370
    15
100
AcDbCircle
 10
41.7547380059
 20
166.4891674745
 30
0.0
 40
2.159999999999243
100
AcDbArc
 50
182.7807740842
 51
69.8684512372
  0
SPLINE
  5
107
330
1F
100
AcDbEntity
  8
0
  6
Continuous
 62
     7
370
    15
100
AcDbSpline
210
0.0
220
0.0
230
1.0
 70
    24
 71
     3
 72
     8
 73
     4
 74
     0
 42
0.00000001
 43
0.00000001
 12
1.0
 22
0.0
 32
0.0
 13
1.0
 23
0.0
 33
0.0
 40
0.0002082354842424
 40
0.0002082354842424
 40
0.0002082354842424
 40
0.0002082354842424
 40
0.0003884755548513
 40
0.0003884755548513
 40
0.0003884755548513
 40
0.0003884755548513
 10
42.49070000748314
 20
168.5441295037359
 30
0.0
 10
42.49318397498625
 20
168.5351631141139
 30
0.0
 10
42.49567052856652
 20
168.5261873895166
 30
0.0
 10
42.49815975509422
 20
168.5172020163679
 30
0.0
  0
SPLINE
  5
108
330
1F
100
AcDbEntity
  8
0
  6
Continuous
 62
     7
370
    15
100
AcDbSpline
210
0.0
220
0.0
230
1.0
 70
     8
 71
     3
 72
     8
 73
     4
 74
     0
 42
0.00000001
 43
0.00000001
 12
1.0
 22
0.0
 32
0.0
 13
1.0
 23
0.0
 33
0.0
 40
0.0
 40
0.0
 40
0.0
 40
0.0
 40
0.0002506273297599
 40
0.0002506273297599
 40
0.0002506273297599
 40
0.0002506273297599
 10
42.53020426971642
 20
168.5586485867287
 30
0.0
 10
42.51703532289715
 20
168.553862946423
 30
0.0
 10
42.50386705244791
 20
168.5490236620327
 30
0.0
 10
42.49070000748314
 20
168.5441295037359
 30
0.0
  0
LINE
  5
109
330
1F
100
AcDbEntity
  8
0
  6
Continuous
 62
     7
370
    15
100
AcDbLine
 10
39.5454800587
 20
166.4319183455
 30
0.0
 11
39.5460448127
 21
166.4319332467
 31
0.0
  0
SPLINE
  5
10A
330
1F
100
AcDbEntity
  8
0
  6
Continuous
 62
     7
370
    15
100
AcDbSpline
210
0.0
220
0.0
230
1.0
 70
    24
 71
     3
 72
     8
 73
     4
 74
     0
 42
0.00000001
 43
0.00000001
 12
1.0
 22
0.0
 32
0.0
 13
1.0
 23
0.0
 33
0.0
 40
0.0
 40
0.0
 40
0.0
 40
0.0
 40
0.0004280954770801
 40
0.0004280954770801
 40
0.0004280954770801
 40
0.0004280954770801
 10
85.21582845247814
 20
145.6572444700529
 30
0.0
 10
85.19277981795626
 20
145.6600203656204
 30
0.0
 10
85.16964690378707
 20
145.6628064115288
 30
0.0
 10
85.14642378808816
 20
145.6656033209887
 30
0.0
  0
ARC
  5
10B
330
1F
100
AcDbEntity
  8
0
  6
Continuous
 62
     7
370
    15
100
AcDbCircle
 10
83.4625997162
 20
144.3127040287
 30
0.0
 40
2.159999999999256
100
AcDbArc
 50
38.7807740842
 51
285.8684512372
  0
SPLINE
  5
10C
330
1F
100
AcDbEntity
  8
0
  6
Continuous
 62
     7
370
    15
100
AcDbSpline
210
0.0
220
0.0
230
1.0
 70
    24
 71
     3
 72
     8
 73
     4
 74
     0
 42
0.00000001
 43
0.00000001
 12
1.0
 22
0.0
 32
0.0
 13
1.0
 23
0.0
 33
0.0
 40
0.0002082354842424
 40
0.0002082354842424
 40
0.0002082354842424
 40
0.0002082354842424
 40
0.0003884755548511
 40
0.0003884755548511
 40
0.0003884755548511
 40
0.0003884755548511
 10
84.07507032451186
 20
142.2176172135662
 30
0.0
 10
84.06779044100229
 20
142.223411135683
 30
0.0
 10
84.06050297835147
 20
142.2292110898956
 30
0.0
 10
84.05320768196457
 20
142.2350172788311
 30
0.0
  0
LINE
  5
10D
330
1F
100
AcDbEntity
  8
0
  6
Continuous
 62
     7
370
    15
100
AcDbLine
 10
85.2162784796
 20
145.6575887055
 30
0.0
 11
85.2158284645
 21
145.6572444887
 31
0.0
  0
SPLINE
  5
10E
330
1F
100
AcDbEntity
  8
0
  6
Continuous
 62
     7
370
    15
100
AcDbSpline
210
0.0
220
0.0
230
1.0
 70
    24
 71
     3
 72
     8
 73
     4
 74
     0
 42
0.00000001
 43
0.00000001
 12
1.0
 22
0.0
 32
0.0
 13
1.0
 23
0.0
 33
0.0
 40
0.0
 40
0.0
 40
0.0
 40
0.0
 40
0.0004280954770804
 40
0.0004280954770804
 40
0.0004280954770804
 40
0.0004280954770804
 10
36.26903688726242
 20
161.9968829956849
 30
0.0
 10
36.28896380419011
 20
161.9849723646655
 30
0.0
 10
36.30896358589118
 20
161.9730181812273
 30
0.0
 10
36.32904135218556
 20
161.9610173851737
 30
0.0
  0
ARC
  5
10F
330
1F
100
AcDbEntity
  8
0
  6
Continuous
 62
     7
370
    15
100
AcDbCircle
 10
38.4175649011
 20
162.5120794377
 30
0.0
 40
2.15999999999925
100
AcDbArc
 50
194.7807740842
 51
81.8684512372
  0
SPLINE
  5
110
330
1F
100
AcDbEntity
  8
0
  6
Continuous
 62
     7
370
    15
100
AcDbSpline
210
0.0
220
0.0
230
1.0
 70
    24
 71
     3
 72
     8
 73
     4
 74
     0
 42
0.00000001
 43
0.00000001
 12
1.0
 22
0.0
 32
0.0
 13
1.0
 23
0.0
 33
0.0
 40
0.0002082354842425
 40
0.0002082354842425
 40
0.0002082354842425
 40
0.0002082354842425
 40
0.0003884755548512
 40
0.0003884755548512
 40
0.0003884755548512
 40
0.0003884755548512
 10
38.71019373707034
 20
164.6751507203017
 30
0.0
 10
38.71448764115063
 20
164.6668967136893
 30
0.0
 10
38.71878601564661
 20
164.6586341137687
 30
0.0
 10
38.72308901072635
 20
164.6503626318778
 30
0.0
  0
SPLINE
  5
111
330
1F
100
AcDbEntity
  8
0
  6
Continuous
 62
     7
370
    15
100
AcDbSpline
210
0.0
220
0.0
230
1.0
 70
     8
 71
     3
 72
     8
 73
     4
 74
     0
 42
0.00000001
 43
0.00000001
 12
1.0
 22
0.0
 32
0.0
 13
1.0
 23
0.0
 33
0.0
 40
0.0
 40
0.0
 40
0.0
 40
0.0
 40
0.00025062732976
 40
0.00025062732976
 40
0.00025062732976
 40
0.00025062732976
 10
38.74581604929843
 20
164.6975659244514
 30
0.0
 10
38.73392986613059
 20
164.6901468838689
 30
0.0
 10
38.72205549778479
 20
164.682675512079
 30
0.0
 10
38.71019373707034
 20
164.6751507203017
 30
0.0
  0
LINE
  5
112
330
1F
100
AcDbEntity
  8
0
  6
Continuous
 62
     7
370
    15
100
AcDbLine
 10
36.2684867244
 20
161.9967516289
 30
0.0
 11
36.2690365772
 21
161.9968827592
 31
0.0
  0
SPLINE
  5
113
330
1F
100
AcDbEntity
  8
0
  6
Continuous
 62
     7
370
    15
100
AcDbSpline
210
0.0
220
0.0
230
1.0
 70
     8
 71
     3
 72
     8
 73
     4
 74
     0
 42
0.00000001
 43
0.00000001
 12
1.0
 22
0.0
 32
0.0
 13
1.0
 23
0.0
 33
0.0
 40
0.0
 40
0.0
 40
0.0
 40
0.0
 40
0.0002506273297592
 40
0.0002506273297592
 40
0.0002506273297592
 40
0.0002506273297592
 10
49.98074953583475
 20
124.3899428441251
 30
0.0
 10
49.99147849532254
 20
124.3809310217915
 30
0.0
 10
50.00225357376527
 20
124.3719466072537
 30
0.0
 10
50.01307556166275
 20
124.3629906909698
 30
0.0
  0
LINE
  5
114
330
1F
100
AcDbEntity
  8
0
  6
Continuous
 62
     7
370
    15
100
AcDbLine
 10
50.0130756657
 20
124.3629913555
 30
0.0
 11
49.990493701
 21
124.3400227056
 31
0.0
  0
LINE
  5
115
330
1F
100
AcDbEntity
  8
0
  6
Continuous
 62
     7
370
    15
100
AcDbLine
 10
49.990493701
 20
124.3400227056
 30
0.0
 11
48.186689512
 21
124.3247743474
 31
0.0
  0
LINE
  5
116
330
1F
100
AcDbEntity
  8
0
  6
Continuous
 62
     7
370
    15
100
AcDbLine
 10
48.186689512
 20
124.3247743474
 30
0.0
 11
48.1690510075
 21
124.3746261821
 31
0.0
  0
LINE
  5
117
330
1F
100
AcDbEntity
  8
0
  6
Continuous
 62
     7
370
    15
100
AcDbLine
 10
84.157258914
 20
156.5748695062
 30
0.0
 11
84.1569877129
 21
156.5743725525
 31
0.0
  0
SPLINE
  5
118
330
1F
100
AcDbEntity
  8
0
  6
Continuous
 62
     7
370
    15
100
AcDbSpline
210
0.0
220
0.0
230
1.0
 70
    24
 71
     3
 72
     8
 73
     4
 74
     0
 42
0.00000001
 43
0.00000001
 12
1.0
 22
0.0
 32
0.0
 13
1.0
 23
0.0
 33
0.0
 40
0.0
 40
0.0
 40
0.0
 40
0.0
 40
0.0004280954770801
 40
0.0004280954770801
 40
0.0004280954770801
 40
0.0004280954770801
 10
84.15698832689262
 20
156.574372411757
 30
0.0
 10
84.13480329307566
 20
156.5675335943106
 30
0.0
 10
84.11253713745411
 20
156.5606697700413
 30
0.0
 10
84.09018416003039
 20
156.5537791818527
 30
0.0
  0
ARC
  5
119
330
1F
100
AcDbEntity
  8
0
  6
Continuous
 62
     7
370
    15
100
AcDbCircle
 10
83.1022080442
 20
154.6329712283
 30
0.0
 40
2.159999999999274
100
AcDbArc
 50
62.7807740842
 51
309.8684512372
  0
SPLINE
  5
11A
330
1F
100
AcDbEntity
  8
0
  6
Continuous
 62
     7
370
    15
100
AcDbSpline
210
0.0
220
0.0
230
1.0
 70
    24
 71
     3
 72
     8
 73
     4
 74
     0
 42
0.00000001
 43
0.00000001
 12
1.0
 22
0.0
 32
0.0
 13
1.0
 23
0.0
 33
0.0
 40
0.0002082354842425
 40
0.0002082354842425
 40
0.0002082354842425
 40
0.0002082354842425
 40
0.0003884755548513
 40
0.0003884755548513
 40
0.0003884755548513
 40
0.0003884755548513
 10
84.5138763645556
 20
152.9681284240794
 30
0.0
 10
84.50486925961121
 20
152.9704604399305
 30
0.0
 10
84.4958527773024
 20
152.9727948836608
 30
0.0
 10
84.48682660262929
 20
152.9751318368264
 30
0.0
  0
SPLINE
  5
11B
330
1F
100
AcDbEntity
  8
0
  6
Continuous
 62
     7
370
    15
100
AcDbSpline
210
0.0
220
0.0
230
1.0
 70
     8
 71
     3
 72
     8
 73
     4
 74
     0
 42
0.00000001
 43
0.00000001
 12
1.0
 22
0.0
 32
0.0
 13
1.0
 23
0.0
 33
0.0
 40
0.0
 40
0.0
 40
0.0
 40
0.0
 40
0.0002506273297601
 40
0.0002506273297601
 40
0.0002506273297601
 40
0.0002506273297601
 10
62.79502863811349
 20
174.2070579072576
 30
0.0
 10
62.78266046891336
 20
174.2136421235437
 30
0.0
 10
62.77025288696927
 20
174.2201899422901
 30
0.0
 10
62.75780534577473
 20
174.2267001325139
 30
0.0
  0
LINE
  5
11C
330
1F
100
AcDbEntity
  8
0
  6
Continuous
 62
     7
370
    15
100
AcDbLine
 10
62.7578052591
 20
174.2266993747
 30
0.0
 11
62.7751189183
 21
174.2538612114
 31
0.0
  0
LINE
  5
11D
330
1F
100
AcDbEntity
  8
0
  6
Continuous
 62
     7
370
    15
100
AcDbLine
 10
62.7751189183
 20
174.2538612114
 30
0.0
 11
64.5363348435
 21
174.6438096986
 31
0.0
  0
LINE
  5
11E
330
1F
100
AcDbEntity
  8
0
  6
Continuous
 62
     7
370
    15
100
AcDbLine
 10
64.5363348435
 20
174.6438096986
 30
0.0
 11
64.5639530282
 21
174.5987128244
 31
0.0
  0
SPLINE
  5
11F
330
1F
100
AcDbEntity
  8
0
  6
Continuous
 62
     7
370
    15
100
AcDbSpline
210
0.0
220
0.0
230
1.0
 70
     8
 71
     3
 72
     8
 73
     4
 74
     0
 42
0.00000001
 43
0.00000001
 12
1.0
 22
0.0
 32
0.0
 13
1.0
 23
0.0
 33
0.0
 40
0.0
 40
0.0
 40
0.0
 40
0.0
 40
0.0002506273297593
 40
0.0002506273297593
 40
0.0002506273297593
 40
0.0002506273297593
 10
60.61833290352489
 20
122.814327898009
 30
0.0
 10
60.63179973409419
 20
122.8104590496168
 30
0.0
 10
60.64529754867039
 20
122.8066339977609
 30
0.0
 10
60.65882662588177
 20
122.8028540601496
 30
0.0
  0
LINE
  5
120
330
1F
100
AcDbEntity
  8
0
  6
Continuous
 62
     7
370
    15
100
AcDbLine
 10
60.6588265758
 20
122.8028546796
 30
0.0
 11
60.6475383874
 21
122.7726887689
 31
0.0
  0
LINE
  5
121
330
1F
100
AcDbEntity
  8
0
  6
Continuous
 62
     7
370
    15
100
AcDbLine
 10
60.6475383874
 20
122.7726887689
 30
0.0
 11
59.0058839779
 21
122.0250826107
 31
0.0
  0
LINE
  5
122
330
1F
100
AcDbEntity
  8
0
  6
Continuous
 62
     7
370
    15
100
AcDbLine
 10
59.0058839779
 20
122.0250826107
 30
0.0
 11
58.9694935349
 21
122.0634501205
 31
0.0
  0
SPLINE
  5
123
330
1F
100
AcDbEntity
  8
0
  6
Continuous
 62
     7
370
    15
100
AcDbSpline
210
0.0
220
0.0
230
1.0
 70
    24
 71
     3
 72
     8
 73
     4
 74
     0
 42
0.00000001
 43
0.00000001
 12
1.0
 22
0.0
 32
0.0
 13
1.0
 23
0.0
 33
0.0
 40
0.0
 40
0.0
 40
0.0
 40
0.0
 40
0.0004280954770801
 40
0.0004280954770801
 40
0.0004280954770801
 40
0.0004280954770801
 10
53.31461848606825
 20
122.8689428040534
 30
0.0
 10
53.31978841333633
 20
122.8915750156458
 30
0.0
 10
53.32497724496276
 20
122.9142899841934
 30
0.0
 10
53.33018630925625
 20
122.9370935245869
 30
0.0
  0
ARC
  5
124
330
1F
100
AcDbEntity
  8
0
  6
Continuous
 62
     7
370
    15
100
AcDbCircle
 10
52.1607058835
 20
124.753109916
 30
0.0
 40
2.159999999999351
100
AcDbArc
 50
302.7807740842
 51
189.8684512372
  0
SPLINE
  5
125
330
1F
100
AcDbEntity
  8
0
  6
Continuous
 62
     7
370
    15
100
AcDbSpline
210
0.0
220
0.0
230
1.0
 70
    24
 71
     3
 72
     8
 73
     4
 74
     0
 42
0.00000001
 43
0.00000001
 12
1.0
 22
0.0
 32
0.0
 13
1.0
 23
0.0
 33
0.0
 40
0.0002082354842429
 40
0.0002082354842429
 40
0.0002082354842429
 40
0.0002082354842429
 40
0.0003884755548522
 40
0.0003884755548522
 40
0.0003884755548522
 40
0.0003884755548522
 10
50.01307556166275
 20
124.3629906909698
 30
0.0
 10
50.01959869910404
 20
124.3696250647407
 30
0.0
 10
50.02612862783259
 20
124.3762663456078
 30
0.0
 10
50.03266557597802
 20
124.3829147655909
 30
0.0
  0
LINE
  5
126
330
1F
100
AcDbEntity
  8
0
  6
Continuous
 62
     7
370
    15
100
AcDbLine
 10
53.3149140786
 20
122.8684615121
 30
0.0
 11
53.3146186631
 21
122.8689413295
 31
0.0
  0
SPLINE
  5
127
330
1F
100
AcDbEntity
  8
0
  6
Continuous
 62
     7
370
    15
100
AcDbSpline
210
0.0
220
0.0
230
1.0
 70
    24
 71
     3
 72
     8
 73
     4
 74
     0
 42
0.00000001
 43
0.00000001
 12
1.0
 22
0.0
 32
0.0
 13
1.0
 23
0.0
 33
0.0
 40
0.0
 40
0.0
 40
0.0
 40
0.0
 40
0.0004280954770801
 40
0.0004280954770801
 40
0.0004280954770801
 40
0.0004280954770801
 10
78.74929376875652
 20
166.1169959751693
 30
0.0
 10
78.73180832953614
 20
166.1017249383743
 30
0.0
 10
78.71425895305087
 20
166.0863980614993
 30
0.0
 10
78.69664114676931
 20
166.0710114209589
 30
0.0
  0
ARC
  5
128
330
1F
100
AcDbEntity
  8
0
  6
Continuous
 62
     7
370
    15
100
AcDbCircle
 10
78.575343033
 20
163.9144199512
 30
0.0
 40
2.159999999999242
100
AcDbArc
 50
86.7807740842
 51
333.8684512372
  0
SPLINE
  5
129
330
1F
100
AcDbEntity
  8
0
  6
Continuous
 62
     7
370
    15
100
AcDbSpline
210
0.0
220
0.0
230
1.0
 70
    24
 71
     3
 72
     8
 73
     4
 74
     0
 42
0.00000001
 43
0.00000001
 12
1.0
 22
0.0
 32
0.0
 13
1.0
 23
0.0
 33
0.0
 40
0.0002082354842425
 40
0.0002082354842425
 40
0.0002082354842425
 40
0.0002082354842425
 40
0.0003884755548513
 40
0.0003884755548513
 40
0.0003884755548513
 40
0.0003884755548513
 10
80.5421187881108
 20
162.9676876034684
 30
0.0
 10
80.53294187200346
 20
162.9661544863274
 30
0.0
 10
80.52375540174003
 20
162.9646197730467
 30
0.0
 10
80.51455905638193
 20
162.9630834100095
 30
0.0
  0
SPLINE
  5
12A
330
1F
100
AcDbEntity
  8
0
  6
Continuous
 62
     7
370
    15
100
AcDbSpline
210
0.0
220
0.0
230
1.0
 70
     8
 71
     3
 72
     8
 73
     4
 74
     0
 42
0.00000001
 43
0.00000001
 12
1.0
 22
0.0
 32
0.0
 13
1.0
 23
0.0
 33
0.0
 40
0.0
 40
0.0
 40
0.0
 40
0.0
 40
0.0002506273297599
 40
0.0002506273297599
 40
0.0002506273297599
 40
0.0002506273297599
 10
80.55242901422406
 20
162.9268820922837
 30
0.0
 10
80.54904611993048
 20
162.9404791338613
 30
0.0
 10
80.54560980472036
 20
162.9540811101079
 30
0.0
 10
80.5421187881108
 20
162.9676876034684
 30
0.0
  0
LINE
  5
12B
330
1F
100
AcDbEntity
  8
0
  6
Continuous
 62
     7
370
    15
100
AcDbLine
 10
78.7493384342
 20
166.1175604687
 30
0.0
 11
78.7492937307
 21
166.1169957147
 31
0.0
  0
SPLINE
  5
12C
330
1F
100
AcDbEntity
  8
0
  6
Continuous
 62
     7
370
    15
100
AcDbSpline
210
0.0
220
0.0
230
1.0
 70
     8
 71
     3
 72
     8
 73
     4
 74
     0
 42
0.00000001
 43
0.00000001
 12
1.0
 22
0.0
 32
0.0
 13
1.0
 23
0.0
 33
0.0
 40
0.0
 40
0.0
 40
0.0
 40
0.0
 40
0.0002506273297599
 40
0.0002506273297599
 40
0.0002506273297599
 40
0.0002506273297599
 10
40.90369390395023
 20
130.1560336705559
 30
0.0
 10
40.90982985779156
 20
130.1434371002321
 30
0.0
 10
40.91601909114958
 20
130.1308468099069
 30
0.0
 10
40.92226276971103
 20
130.1182634742378
 30
0.0
  0
LINE
  5
12D
330
1F
100
AcDbEntity
  8
0
  6
Continuous
 62
     7
370
    15
100
AcDbLine
 10
40.9222624164
 20
130.1182638631
 30
0.0
 11
40.8922917109
 21
130.1064666138
 31
0.0
  0
LINE
  5
12E
330
1F
100
AcDbEntity
  8
0
  6
Continuous
 62
     7
370
    15
100
AcDbLine
 10
40.8922917109
 20
130.1064666138
 30
0.0
 11
39.2382315259
 21
130.8262090908
 31
0.0
  0
LINE
  5
12F
330
1F
100
AcDbEntity
  8
0
  6
Continuous
 62
     7
370
    15
100
AcDbLine
 10
39.2382315259
 20
130.8262090908
 30
0.0
 11
39.2423949103
 21
130.8789249287
 31
0.0
  0
LINE
  5
130
330
1F
100
AcDbEntity
  8
0
  6
Continuous
 62
     7
370
    15
100
AcDbLine
 10
81.9547868233
 20
161.6304125415
 30
0.0
 11
81.9546258907
 21
161.6298701392
 31
0.0
  0
SPLINE
  5
131
330
1F
100
AcDbEntity
  8
0
  6
Continuous
 62
     7
370
    15
100
AcDbSpline
210
0.0
220
0.0
230
1.0
 70
    24
 71
     3
 72
     8
 73
     4
 74
     0
 42
0.00000001
 43
0.00000001
 12
1.0
 22
0.0
 32
0.0
 13
1.0
 23
0.0
 33
0.0
 40
0.0
 40
0.0
 40
0.0
 40
0.0
 40
0.0004280954770801
 40
0.0004280954770801
 40
0.0004280954770801
 40
0.0004280954770801
 10
81.95462612385491
 20
161.6298699940048
 30
0.0
 10
81.93434775635313
 20
161.618568093236
 30
0.0
 10
81.91399523896366
 20
161.6072248659318
 30
0.0
 10
81.8935633615684
 20
161.5958374082965
 30
0.0
  0
ARC
  5
132
330
1F
100
AcDbEntity
  8
0
  6
Continuous
 62
     7
370
    15
100
AcDbCircle
 10
81.3265353237
 20
159.5115919323
 30
0.0
 40
2.159999999999263
100
AcDbArc
 50
74.7807740842
 51
321.8684512372
  0
SPLINE
  5
133
330
1F
100
AcDbEntity
  8
0
  6
Continuous
 62
     7
370
    15
100
AcDbSpline
210
0.0
220
0.0
230
1.0
 70
    24
 71
     3
 72
     8
 73
     4
 74
     0
 42
0.00000001
 43
0.00000001
 12
1.0
 22
0.0
 32
0.0
 13
1.0
 23
0.0
 33
0.0
 40
0.0002082354842424
 40
0.0002082354842424
 40
0.0002082354842424
 40
0.0002082354842424
 40
0.0003884755548511
 40
0.0003884755548511
 40
0.0003884755548511
 40
0.0003884755548511
 10
83.053495586605
 20
158.1766322851403
 30
0.0
 10
83.04420045515545
 20
158.1770406584316
 30
0.0
 10
83.03489564647495
 20
158.1774494568834
 30
0.0
 10
83.02558083549064
 20
158.1778586947774
 30
0.0
  0
SPLINE
  5
134
330
1F
100
AcDbEntity
  8
0
  6
Continuous
 62
     7
370
    15
100
AcDbSpline
210
0.0
220
0.0
230
1.0
 70
     8
 71
     3
 72
     8
 73
     4
 74
     0
 42
0.00000001
 43
0.00000001
 12
1.0
 22
0.0
 32
0.0
 13
1.0
 23
0.0
 33
0.0
 40
0.0
 40
0.0
 40
0.0
 40
0.0
 40
0.0002506273297599
 40
0.0002506273297599
 40
0.0002506273297599
 40
0.0002506273297599
 10
83.05509656671562
 20
158.1345748557344
 30
0.0
 10
83.05461458068334
 20
158.1485781126031
 30
0.0
 10
83.05408136708508
 20
158.1625973031394
 30
0.0
 10
83.053495586605
 20
158.1766322851403
 30
0.0
  0
SPLINE
  5
135
330
1F
100
AcDbEntity
  8
0
  6
Continuous
 62
     7
370
    15
100
AcDbSpline
210
0.0
220
0.0
230
1.0
 70
     8
 71
     3
 72
     8
 73
     4
 74
     0
 42
0.00000001
 43
0.00000001
 12
1.0
 22
0.0
 32
0.0
 13
1.0
 23
0.0
 33
0.0
 40
0.0
 40
0.0
 40
0.0
 40
0.0
 40
0.0002506273297589
 40
0.0002506273297589
 40
0.0002506273297589
 40
0.0002506273297589
 10
75.48156368608447
 20
128.6915171591276
 30
0.0
 10
75.49473263290368
 20
128.6963027994333
 30
0.0
 10
75.50790090335288
 20
128.7011420838236
 30
0.0
 10
75.52106794831761
 20
128.7060362421203
 30
0.0
  0
LINE
  5
136
330
1F
100
AcDbEntity
  8
0
  6
Continuous
 62
     7
370
    15
100
AcDbLine
 10
75.5210674267
 20
128.7060361133
 30
0.0
 11
75.5296668868
 21
128.6749955044
 31
0.0
  0
LINE
  5
137
330
1F
100
AcDbEntity
  8
0
  6
Continuous
 62
     7
370
    15
100
AcDbLine
 10
75.5296668868
 20
128.6749955044
 30
0.0
 11
74.640972064
 21
127.1052311884
 31
0.0
  0
LINE
  5
138
330
1F
100
AcDbEntity
  8
0
  6
Continuous
 62
     7
370
    15
100
AcDbLine
 10
74.640972064
 20
127.1052311884
 30
0.0
 11
74.5889789324
 21
127.1148811803
 31
0.0
  0
SPLINE
  5
139
330
1F
100
AcDbEntity
  8
0
  6
Continuous
 62
     7
370
    15
100
AcDbSpline
210
0.0
220
0.0
230
1.0
 70
     8
 71
     3
 72
     8
 73
     4
 74
     0
 42
0.00000001
 43
0.00000001
 12
1.0
 22
0.0
 32
0.0
 13
1.0
 23
0.0
 33
0.0
 40
0.0
 40
0.0
 40
0.0
 40
0.0
 40
0.00025062732976
 40
0.00025062732976
 40
0.00025062732976
 40
0.00025062732976
 10
34.95667138908556
 20
139.115590890122
 30
0.0
 10
34.95715337511784
 20
139.1015876332533
 30
0.0
 10
34.95768658871611
 20
139.087568442717
 30
0.0
 10
34.9582723691962
 20
139.073533460716
 30
0.0
  0
LINE
  5
13A
330
1F
100
AcDbEntity
  8
0
  6
Continuous
 62
     7
370
    15
100
AcDbLine
 10
34.9582723241
 20
139.07353317
 30
0.0
 11
34.9260932665
 21
139.0749472902
 31
0.0
  0
LINE
  5
13B
330
1F
100
AcDbEntity
  8
0
  6
Continuous
 62
     7
370
    15
100
AcDbLine
 10
34.9260932665
 20
139.0749472902
 30
0.0
 11
33.7077802878
 21
140.4052305744
 31
0.0
  0
LINE
  5
13C
330
1F
100
AcDbEntity
  8
0
  6
Continuous
 62
     7
370
    15
100
AcDbLine
 10
33.7077802878
 20
140.4052305744
 30
0.0
 11
33.733025835
 21
140.4516968654
 31
0.0
  0
SPLINE
  5
13D
330
1F
100
AcDbEntity
  8
0
  6
Continuous
 62
     7
370
    15
100
AcDbSpline
210
0.0
220
0.0
230
1.0
 70
    24
 71
     3
 72
     8
 73
     4
 74
     0
 42
0.00000001
 43
0.00000001
 12
1.0
 22
0.0
 32
0.0
 13
1.0
 23
0.0
 33
0.0
 40
0.0
 40
0.0
 40
0.0
 40
0.0
 40
0.0004280954770802
 40
0.0004280954770802
 40
0.0004280954770802
 40
0.0004280954770802
 10
64.28262018980338
 20
122.7808318856
 30
0.0
 10
64.27813780360695
 20
122.8036102385586
 30
0.0
 10
64.27363902711517
 20
122.826471882853
 30
0.0
 10
64.26912270866914
 20
122.8494226709219
 30
0.0
  0
ARC
  5
13E
330
1F
100
AcDbEntity
  8
0
  6
Continuous
 62
     7
370
    15
100
AcDbCircle
 10
62.4621087671
 20
124.0327656538
 30
0.0
 40
2.159999999999375
100
AcDbArc
 50
326.7807740842
 51
213.8684512372
  0
SPLINE
  5
13F
330
1F
100
AcDbEntity
  8
0
  6
Continuous
 62
     7
370
    15
100
AcDbSpline
210
0.0
220
0.0
230
1.0
 70
    24
 71
     3
 72
     8
 73
     4
 74
     0
 42
0.00000001
 43
0.00000001
 12
1.0
 22
0.0
 32
0.0
 13
1.0
 23
0.0
 33
0.0
 40
0.000208235484243
 40
0.000208235484243
 40
0.000208235484243
 40
0.000208235484243
 40
0.0003884755548524
 40
0.0003884755548524
 40
0.0003884755548524
 40
0.0003884755548524
 10
60.65882662588177
 20
122.8028540601496
 30
0.0
 10
60.66208736554438
 20
122.8115680611974
 30
0.0
 10
60.66535149998747
 20
122.8202911344571
 30
0.0
 10
60.66861914324687
 20
122.8290235846778
 30
0.0
  0
LINE
  5
140
330
1F
100
AcDbEntity
  8
0
  6
Continuous
 62
     7
370
    15
100
AcDbLine
 10
64.2830862563
 20
122.7805118786
 30
0.0
 11
64.2826202225
 21
122.7808307634
 31
0.0
  0
LINE
  5
141
330
1F
100
AcDbEntity
  8
0
  6
Continuous
 62
     7
370
    15
100
AcDbLine
 10
83.0534956317
 20
158.1766325758
 30
0.0
 11
83.0856746893
 21
158.1752184556
 31
0.0
  0
LINE
  5
142
330
1F
100
AcDbEntity
  8
0
  6
Continuous
 62
     7
370
    15
100
AcDbLine
 10
83.0856746893
 20
158.1752184556
 30
0.0
 11
84.303987668
 21
156.8449351714
 31
0.0
  0
LINE
  5
143
330
1F
100
AcDbEntity
  8
0
  6
Continuous
 62
     7
370
    15
100
AcDbLine
 10
84.303987668
 20
156.8449351714
 30
0.0
 11
84.2787421208
 21
156.7984688805
 31
0.0
  0
SPLINE
  5
144
330
1F
100
AcDbEntity
  8
0
  6
Continuous
 62
     7
370
    15
100
AcDbSpline
210
0.0
220
0.0
230
1.0
 70
    24
 71
     3
 72
     8
 73
     4
 74
     0
 42
0.00000001
 43
0.00000001
 12
1.0
 22
0.0
 32
0.0
 13
1.0
 23
0.0
 33
0.0
 40
0.0
 40
0.0
 40
0.0
 40
0.0
 40
0.0004280954770802
 40
0.0004280954770802
 40
0.0004280954770802
 40
0.0004280954770802
 10
78.46572283506048
 20
130.8182323428822
 30
0.0
 10
78.4487077285116
 20
130.8340257370284
 30
0.0
 10
78.43163040451648
 20
130.8498768813066
 30
0.0
 10
78.41448649138623
 20
130.8657898335114
 30
0.0
  0
ARC
  5
145
330
1F
100
AcDbEntity
  8
0
  6
Continuous
 62
     7
370
    15
100
AcDbCircle
 10
76.2570299499
 20
130.7609982713
 30
0.0
 40
2.159999999999485
100
AcDbArc
 50
2.7807740842
 51
249.8684512372
  0
SPLINE
  5
146
330
1F
100
AcDbEntity
  8
0
  6
Continuous
 62
     7
370
    15
100
AcDbSpline
210
0.0
220
0.0
230
1.0
 70
    24
 71
     3
 72
     8
 73
     4
 74
     0
 42
0.00000001
 43
0.00000001
 12
1.0
 22
0.0
 32
0.0
 13
1.0
 23
0.0
 33
0.0
 40
0.0002082354842435
 40
0.0002082354842435
 40
0.0002082354842435
 40
0.0002082354842435
 40
0.0003884755548531
 40
0.0003884755548531
 40
0.0003884755548531
 40
0.0003884755548531
 10
75.5210679483176
 20
128.7060362421203
 30
0.0
 10
75.51858398081447
 20
128.7150026317423
 30
0.0
 10
75.51609742723419
 20
128.7239783563397
 30
0.0
 10
75.51360820070646
 20
128.7329637294884
 30
0.0
  0
LINE
  5
147
330
1F
100
AcDbEntity
  8
0
  6
Continuous
 62
     7
370
    15
100
AcDbLine
 10
78.4662878971
 20
130.8182474003
 30
0.0
 11
78.4657231431
 21
130.8182324992
 31
0.0
  0
SPLINE
  5
148
330
1F
100
AcDbEntity
  8
0
  6
Continuous
 62
     7
370
    15
100
AcDbSpline
210
0.0
220
0.0
230
1.0
 70
    24
 71
     3
 72
     8
 73
     4
 74
     0
 42
0.00000001
 43
0.00000001
 12
1.0
 22
0.0
 32
0.0
 13
1.0
 23
0.0
 33
0.0
 40
0.0
 40
0.0
 40
0.0
 40
0.0
 40
0.0004280954770802
 40
0.0004280954770802
 40
0.0004280954770802
 40
0.0004280954770802
 10
39.26247418704467
 20
131.1331697706871
 30
0.0
 10
39.27995962626504
 20
131.1484408074821
 30
0.0
 10
39.29750900275032
 20
131.1637676843571
 30
0.0
 10
39.31512680903189
 20
131.1791543248975
 30
0.0
  0
ARC
  5
149
330
1F
100
AcDbEntity
  8
0
  6
Continuous
 62
     7
370
    15
100
AcDbCircle
 10
39.4364249228
 20
133.3357457947
 30
0.0
 40
2.159999999999248
100
AcDbArc
 50
266.7807740842
 51
153.8684512372
  0
SPLINE
  5
14A
330
1F
100
AcDbEntity
  8
0
  6
Continuous
 62
     7
370
    15
100
AcDbSpline
210
0.0
220
0.0
230
1.0
 70
    24
 71
     3
 72
     8
 73
     4
 74
     0
 42
0.00000001
 43
0.00000001
 12
1.0
 22
0.0
 32
0.0
 13
1.0
 23
0.0
 33
0.0
 40
0.0002082354842424
 40
0.0002082354842424
 40
0.0002082354842424
 40
0.0002082354842424
 40
0.0003884755548512
 40
0.0003884755548512
 40
0.0003884755548512
 40
0.0003884755548512
 10
37.46964916769038
 20
134.282478142388
 30
0.0
 10
37.47882608379771
 20
134.2840112595289
 30
0.0
 10
37.48801255406114
 20
134.2855459728097
 30
0.0
 10
37.49720889941925
 20
134.2870823358469
 30
0.0
  0
SPLINE
  5
14B
330
1F
100
AcDbEntity
  8
0
  6
Continuous
 62
     7
370
    15
100
AcDbSpline
210
0.0
220
0.0
230
1.0
 70
     8
 71
     3
 72
     8
 73
     4
 74
     0
 42
0.00000001
 43
0.00000001
 12
1.0
 22
0.0
 32
0.0
 13
1.0
 23
0.0
 33
0.0
 40
0.0
 40
0.0
 40
0.0
 40
0.0
 40
0.00025062732976
 40
0.00025062732976
 40
0.00025062732976
 40
0.00025062732976
 10
37.45933894157711
 20
134.3232836535726
 30
0.0
 10
37.4627218358707
 20
134.309686611995
 30
0.0
 10
37.46615815108081
 20
134.2960846357485
 30
0.0
 10
37.46964916769038
 20
134.282478142388
 30
0.0
  0
LINE
  5
14C
330
1F
100
AcDbEntity
  8
0
  6
Continuous
 62
     7
370
    15
100
AcDbLine
 10
39.2624295216
 20
131.1326052771
 30
0.0
 11
39.2624742251
 21
131.1331700311
 31
0.0
  0
SPLINE
  5
14D
330
1F
100
AcDbEntity
  8
0
  6
Continuous
 62
     7
370
    15
100
AcDbSpline
210
0.0
220
0.0
230
1.0
 70
    24
 71
     3
 72
     8
 73
     4
 74
     0
 42
0.00000001
 43
0.00000001
 12
1.0
 22
0.0
 32
0.0
 13
1.0
 23
0.0
 33
0.0
 40
0.0
 40
0.0
 40
0.0
 40
0.0
 40
0.0004280954770801
 40
0.0004280954770801
 40
0.0004280954770801
 40
0.0004280954770801
 10
43.33068828939481
 20
127.4105243276021
 30
0.0
 10
43.34461660273539
 20
127.4290970828369
 30
0.0
 10
43.35859584635279
 20
127.4477377512168
 30
0.0
 10
43.37262959884657
 20
127.4664511046371
 30
0.0
  0
ARC
  5
14E
330
1F
100
AcDbEntity
  8
0
  6
Continuous
 62
     7
370
    15
100
AcDbCircle
 10
43.0428964789
 20
129.6011351725
 30
0.0
 40
2.159999999999246
100
AcDbArc
 50
278.7807740842
 51
165.8684512372
  0
SPLINE
  5
14F
330
1F
100
AcDbEntity
  8
0
  6
Continuous
 62
     7
370
    15
100
AcDbSpline
210
0.0
220
0.0
230
1.0
 70
    24
 71
     3
 72
     8
 73
     4
 74
     0
 42
0.00000001
 43
0.00000001
 12
1.0
 22
0.0
 32
0.0
 13
1.0
 23
0.0
 33
0.0
 40
0.0002082354842425
 40
0.0002082354842425
 40
0.0002082354842425
 40
0.0002082354842425
 40
0.0003884755548512
 40
0.0003884755548512
 40
0.0003884755548512
 40
0.0003884755548512
 10
40.92226276971103
 20
130.1182634742378
 30
0.0
 10
40.93092039520654
 20
130.1216710772353
 30
0.0
 10
40.93958703422082
 20
130.1250822279138
 30
0.0
 10
40.94826298953158
 20
130.1284970454452
 30
0.0
  0
LINE
  5
150
330
1F
100
AcDbEntity
  8
0
  6
Continuous
 62
     7
370
    15
100
AcDbLine
 10
43.3307624321
 20
127.409962915
 30
0.0
 11
43.3306879263
 21
127.4105246888
 31
0.0
  0
SPLINE
  5
151
330
1F
100
AcDbEntity
  8
0
  6
Continuous
 62
     7
370
    15
100
AcDbSpline
210
0.0
220
0.0
230
1.0
 70
     8
 71
     3
 72
     8
 73
     4
 74
     0
 42
0.00000001
 43
0.00000001
 12
1.0
 22
0.0
 32
0.0
 13
1.0
 23
0.0
 33
0.0
 40
0.0
 40
0.0
 40
0.0
 40
0.0
 40
0.0002506273297599
 40
0.0002506273297599
 40
0.0002506273297599
 40
0.0002506273297599
 10
72.87256651930088
 20
170.4541959838427
 30
0.0
 10
72.86394567653824
 20
170.4652415523445
 30
0.0
 10
72.8552740242293
 20
170.4762699006463
 30
0.0
 10
72.84655056242958
 20
170.4872801264736
 30
0.0
  0
LINE
  5
152
330
1F
100
AcDbEntity
  8
0
  6
Continuous
 62
     7
370
    15
100
AcDbLine
 10
72.8465503912
 20
170.4872797952
 30
0.0
 11
72.8734142046
 21
170.5050509201
 31
0.0
  0
LINE
  5
153
330
1F
100
AcDbEntity
  8
0
  6
Continuous
 62
     7
370
    15
100
AcDbLine
 10
72.8734142046
 20
170.5050509201
 30
0.0
 11
74.640972064
 21
170.1449345575
 31
0.0
  0
LINE
  5
154
330
1F
100
AcDbEntity
  8
0
  6
Continuous
 62
     7
370
    15
100
AcDbLine
 10
74.640972064
 20
170.1449345575
 30
0.0
 11
74.6478593807
 21
170.0925048218
 31
0.0
  0
LWPOLYLINE
  5
155
330
1F
100
AcDbEntity
  8
0
  6
Continuous
 62
     7
370
    15
100
AcDbPolyline
 90
        9
 70
   128
 43
0.0
 10
60.1151907716
 20
143.79173515
 10
60.2321335945
 20
143.7866292672
 10
60.3445823203
 20
143.7817197071
 10
60.4482157055
 20
143.7771949695
 10
60.5390510421
 20
143.7732290254
 10
60.6135978263
 20
143.7699742393
 10
60.6689908441
 20
143.7675557808
 10
60.7031018372
 20
143.7660664098
 10
60.7146196898
 20
143.7655634956
  0
LINE
  5
156
330
1F
100
AcDbEntity
  8
0
  6
Continuous
 62
     7
370
    15
100
AcDbLine
 10
60.7146196898
 20
143.7655634956
 30
0.0
 11
60.1372917082
 21
130.5425774084
 31
0.0
  0
LWPOLYLINE
  5
157
330
1F
100
AcDbEntity
  8
0
  6
Continuous
 62
     7
370
    15
100
AcDbPolyline
 90
        9
 70
   128
 43
0.0
 10
59.5378627434
 20
130.5687483178
 10
59.6548055198
 20
130.56364318
 10
59.7672542456
 20
130.5587332473
 10
59.8708876308
 20
130.5542077647
 10
59.9617229674
 20
130.5502425657
 10
60.0362696584
 20
130.5469881521
 10
60.0916628625
 20
130.5445696936
 10
60.1257737625
 20
130.5430795775
 10
60.1372917082
 20
130.5425774084
  0
ARC
  5
158
330
1F
100
AcDbEntity
  8
0
  6
Continuous
 62
     7
370
    15
100
AcDbCircle
 10
59.0058839779
 20
148.6250828729
 30
0.0
 40
21.05
100
AcDbArc
 50
11.2818177342
 51
78.7181822658
  0
LWPOLYLINE
  5
159
330
1F
100
AcDbEntity
  8
0
  6
Continuous
 62
     7
370
    15
100
AcDbPolyline
 90
        9
 70
   128
 43
0.0
 10
63.1239994328
 20
169.2683290468
 10
63.1262550961
 20
169.2796360479
 10
63.1329345416
 20
169.3131189571
 10
63.1437818419
 20
169.3674932943
 10
63.1583797644
 20
169.4406699167
 10
63.1761672806
 20
169.5298339949
 10
63.1964607995
 20
169.6315627323
 10
63.2184806179
 20
169.7419430838
 10
63.2413807224
 20
169.8567356692
  0
LWPOLYLINE
  5
15A
330
1F
100
AcDbEntity
  8
0
  6
Continuous
 62
     7
370
    15
100
AcDbPolyline
 90
        9
 70
   128
 43
0.0
 10
80.2375367742
 20
152.8605796174
 10
80.1227441888
 20
152.8376795129
 10
80.0123638373
 20
152.8156596945
 10
79.9106350999
 20
152.7953661756
 10
79.8214710217
 20
152.7775786595
 10
79.7482943993
 20
152.7629807369
 10
79.6939200621
 20
152.7521334366
 10
79.6604371529
 20
152.7454539911
 10
79.6491301518
 20
152.7431983278
  0
ARC
  5
15B
330
1F
100
AcDbEntity
  8
0
  6
Continuous
 62
     7
370
    15
100
AcDbCircle
 10
55.3768557346
 20
166.8166373422
 30
0.0
 40
2.500000000000004
100
AcDbArc
 50
357.5
 51
101.2818177342
  0
LWPOLYLINE
  5
15C
330
1F
100
AcDbEntity
  8
0
  6
Continuous
 62
     7
370
    15
100
AcDbPolyline
 90
        9
 70
   128
 43
0.0
 10
54.887768523
 20
169.2683290468
 10
54.8855128597
 20
169.2796360479
 10
54.8788334142
 20
169.3131189571
 10
54.8679861139
 20
169.3674932943
 10
54.8533881914
 20
169.4406699167
 10
54.8356006752
 20
169.5298339949
 10
54.8153071563
 20
169.6315627323
 10
54.7932873379
 20
169.7419430838
 10
54.7703872334
 20
169.8567356692
  0
LWPOLYLINE
  5
15D
330
1F
100
AcDbEntity
  8
0
  6
Continuous
 62
     7
370
    15
100
AcDbPolyline
 90
        9
 70
   128
 43
0.0
 10
57.8744762476
 20
166.7075883375
 10
57.8859941933
 20
166.7070861683
 10
57.9201050933
 20
166.7055960522
 10
57.9754982974
 20
166.7031775938
 10
58.0500449884
 20
166.6999231802
 10
58.140880325
 20
166.6959579812
 10
58.2445137102
 20
166.6914324985
 10
58.356962436
 20
166.6865225659
 10
58.4739052124
 20
166.6814174281
  0
LINE
  5
15E
330
1F
100
AcDbEntity
  8
0
  6
Continuous
 62
     7
370
    15
100
AcDbLine
 10
69.9275954526
 20
172.6356427894
 30
0.0
 11
69.9277839522
 21
172.6351093279
 31
0.0
  0
SPLINE
  5
15F
330
1F
100
AcDbEntity
  8
0
  6
Continuous
 62
     7
370
    15
100
AcDbSpline
210
0.0
220
0.0
230
1.0
 70
    24
 71
     3
 72
     8
 73
     4
 74
     0
 42
0.00000001
 43
0.00000001
 12
1.0
 22
0.0
 32
0.0
 13
1.0
 23
0.0
 33
0.0
 40
0.0
 40
0.0
 40
0.0
 40
0.0
 40
0.0004280954770802
 40
0.0004280954770802
 40
0.0004280954770802
 40
0.0004280954770802
 10
69.92778429453433
 20
172.6351088541622
 30
0.0
 10
69.91802184120196
 20
172.6140460990135
 30
0.0
 10
69.90822369047837
 20
172.5929063257848
 30
0.0
 10
69.89838733409778
 20
172.5716841228255
 30
0.0
  0
ARC
  5
160
330
1F
100
AcDbEntity
  8
0
  6
Continuous
 62
     7
370
    15
100
AcDbCircle
 10
70.6647407681
 20
170.552203394
 30
0.0
 40
2.159999999999242
100
AcDbArc
 50
110.7807740842
 51
357.8684512372
  0
SPLINE
  5
161
330
1F
100
AcDbEntity
  8
0
  6
Continuous
 62
     7
370
    15
100
AcDbSpline
210
0.0
220
0.0
230
1.0
 70
    24
 71
     3
 72
     8
 73
     4
 74
     0
 42
0.00000001
 43
0.00000001
 12
1.0
 22
0.0
 32
0.0
 13
1.0
 23
0.0
 33
0.0
 40
0.0002082354842423
 40
0.0002082354842423
 40
0.0002082354842423
 40
0.0002082354842423
 40
0.0003884755548512
 40
0.0003884755548512
 40
0.0003884755548512
 40
0.0003884755548512
 10
72.84655056242958
 20
170.4872801264736
 30
0.0
 10
72.83879060732393
 20
170.4821469662221
 30
0.0
 10
72.83102257327087
 20
170.477008461799
 30
0.0
 10
72.82324618888636
 20
170.4718644336856
 30
0.0
  0
ARC
  5
162
330
1F
100
AcDbEntity
  8
0
  6
Continuous
 62
     7
370
    15
100
AcDbCircle
 10
54.7995276714
 20
143.6565150086
 30
0.0
 40
2.500000000000025
100
AcDbArc
 50
2.5
 51
49.7489713956
  0
LWPOLYLINE
  5
163
330
1F
100
AcDbEntity
  8
0
  6
Continuous
 62
     7
370
    15
100
AcDbPolyline
 90
        9
 70
   128
 43
0.0
 10
56.4148719322
 20
145.5645672755
 10
56.4223210226
 20
145.5733662249
 10
56.4443823781
 20
145.5994251893
 10
56.4802081223
 20
145.6417428107
 10
56.5284215744
 20
145.6986924411
 10
56.5871695887
 20
145.7680860312
 10
56.6541948255
 20
145.8472564594
 10
56.7269214328
 20
145.9331614674
 10
56.8025545116
 20
146.022499703
  0
LWPOLYLINE
  5
164
330
1F
100
AcDbEntity
  8
0
  6
Continuous
 62
     7
370
    15
100
AcDbPolyline
 90
        9
 70
   128
 43
0.0
 10
57.8965771842
 20
143.79173515
 10
57.7796343613
 20
143.7866292672
 10
57.6671856355
 20
143.7817197071
 10
57.5635522503
 20
143.7771949695
 10
57.4727169137
 20
143.7732290254
 10
57.3981701295
 20
143.7699742393
 10
57.3427771117
 20
143.7675557808
 10
57.3086661186
 20
143.7660664098
 10
57.297148266
 20
143.7655634956
  0
ARC
  5
165
330
1F
100
AcDbEntity
  8
0
  6
Continuous
 62
     7
370
    15
100
AcDbCircle
 10
59.0058839779
 20
148.6250828729
 30
0.0
 40
4.010000000000004
100
AcDbArc
 50
220.2510286044
 51
229.7489713956
  0
LWPOLYLINE
  5
166
330
1F
100
AcDbEntity
  8
0
  6
Continuous
 62
     7
370
    15
100
AcDbPolyline
 90
        9
 70
   128
 43
0.0
 10
55.9453683804
 20
146.0340708272
 10
55.9541673299
 20
146.0415199177
 10
55.9802262943
 20
146.0635812731
 10
56.0225439157
 20
146.0994070174
 10
56.0794935461
 20
146.1476204695
 10
56.1488871362
 20
146.2063684837
 10
56.2280575644
 20
146.2733937205
 10
56.3139625724
 20
146.3461203278
 10
56.403300808
 20
146.4217534066
  0
ARC
  5
167
330
1F
100
AcDbEntity
  8
0
  6
Continuous
 62
     7
370
    15
100
AcDbCircle
 10
59.0058839779
 20
148.6250828729
 30
0.0
 40
4.010000000000002
100
AcDbArc
 50
40.2510286044
 51
49.7489713956
  0
LWPOLYLINE
  5
168
330
1F
100
AcDbEntity
  8
0
  6
Continuous
 62
     7
370
    15
100
AcDbPolyline
 90
        9
 70
   128
 43
0.0
 10
61.6084671478
 20
150.8284123392
 10
61.6978053834
 20
150.904045418
 10
61.7837103914
 20
150.9767720253
 10
61.8628808196
 20
151.0437972621
 10
61.9322744097
 20
151.1025452764
 10
61.9892240401
 20
151.1507587285
 10
62.0315416615
 20
151.1865844728
 10
62.0576006259
 20
151.2086458282
 10
62.0663995754
 20
151.2160949187
  0
LWPOLYLINE
  5
169
330
1F
100
AcDbEntity
  8
0
  6
Continuous
 62
     7
370
    15
100
AcDbPolyline
 90
        9
 70
   128
 43
0.0
 10
61.5968960236
 20
151.6855984704
 10
61.5894469332
 20
151.676799521
 10
61.5673855777
 20
151.6507405565
 10
61.5315598335
 20
151.6084229351
 10
61.4833463814
 20
151.5514733047
 10
61.4245983671
 20
151.4820797147
 10
61.3575731303
 20
151.4029092864
 10
61.284846523
 20
151.3170042784
 10
61.2092134442
 20
151.2276660429
  0
LINE
  5
16A
330
1F
100
AcDbEntity
  8
0
  6
Continuous
 62
     7
370
    15
100
AcDbLine
 10
59.217389756
 20
175.0020812975
 30
0.0
 11
59.2177790256
 21
175.0016700254
 31
0.0
  0
SPLINE
  5
16B
330
1F
100
AcDbEntity
  8
0
  6
Continuous
 62
     7
370
    15
100
AcDbSpline
210
0.0
220
0.0
230
1.0
 70
    24
 71
     3
 72
     8
 73
     4
 74
     0
 42
0.00000001
 43
0.00000001
 12
1.0
 22
0.0
 32
0.0
 13
1.0
 23
0.0
 33
0.0
 40
0.0
 40
0.0
 40
0.0
 40
0.0
 40
0.0004280954770803
 40
0.0004280954770803
 40
0.0004280954770803
 40
0.0004280954770803
 10
59.21777903321674
 20
175.0016701167615
 30
0.0
 10
59.21742758264264
 20
174.9784575849733
 30
0.0
 10
59.21707484695421
 20
174.955160174231
 30
0.0
 10
59.21672073585331
 20
174.931771920542
 30
0.0
  0
ARC
  5
16C
330
1F
100
AcDbEntity
  8
0
  6
Continuous
 62
     7
370
    15
100
AcDbCircle
 10
60.7382162469
 20
173.3985884971
 30
0.0
 40
2.160000000000007
100
AcDbArc
 50
134.7807740842
 51
21.8684512373
  0
SPLINE
  5
16D
330
1F
100
AcDbEntity
  8
0
  6
Continuous
 62
     7
370
    15
100
AcDbSpline
210
0.0
220
0.0
230
1.0
 70
    24
 71
     3
 72
     8
 73
     4
 74
     0
 42
0.00000001
 43
0.00000001
 12
1.0
 22
0.0
 32
0.0
 13
1.0
 23
0.0
 33
0.0
 40
0.0002082354842424
 40
0.0002082354842424
 40
0.0002082354842424
 40
0.0002082354842424
 40
0.000388475554851
 40
0.000388475554851
 40
0.000388475554851
 40
0.000388475554851
 10
62.75780534577473
 20
174.2267001325139
 30
0.0
 10
62.7528041184055
 20
174.2188544991927
 30
0.0
 10
62.74779768422101
 20
174.2110006977239
 30
0.0
 10
62.74278586831642
 20
174.2031384537271
 30
0.0
  0
LWPOLYLINE
  5
16E
330
1F
100
AcDbEntity
  8
0
  6
Continuous
 62
     7
370
    15
100
AcDbPolyline
 90
        9
 70
   128
 43
0.0
 10
63.2413807224
 20
127.3934300767
 10
63.2184806179
 20
127.508222662
 10
63.1964607995
 20
127.6186030136
 10
63.1761672806
 20
127.7203317509
 10
63.1583797644
 20
127.8094958292
 10
63.1437818419
 20
127.8826724516
 10
63.1329345416
 20
127.9370467888
 10
63.1262550961
 20
127.970529698
 10
63.1239994328
 20
127.9818366991
  0
ARC
  5
16F
330
1F
100
AcDbEntity
  8
0
  6
Continuous
 62
     7
370
    15
100
AcDbCircle
 10
59.0058839779
 20
148.6250828729
 30
0.0
 40
21.05
100
AcDbArc
 50
281.2818177342
 51
348.7181822658
  0
LWPOLYLINE
  5
170
330
1F
100
AcDbEntity
  8
0
  6
Continuous
 62
     7
370
    15
100
AcDbPolyline
 90
        9
 70
   128
 43
0.0
 10
80.2375367742
 20
144.3895861284
 10
80.1227441888
 20
144.4124862329
 10
80.0123638373
 20
144.4345060514
 10
79.9106350999
 20
144.4547995703
 10
79.8214710217
 20
144.4725870864
 10
79.7482943993
 20
144.4871850089
 10
79.6939200621
 20
144.4980323092
 10
79.6604371529
 20
144.5047117547
 10
79.6491301518
 20
144.506967418
  0
LINE
  5
171
330
1F
100
AcDbEntity
  8
0
  6
Continuous
 62
     7
370
    15
100
AcDbLine
 10
36.0569811325
 20
135.6197532044
 30
0.0
 11
36.0571420651
 21
135.6202956067
 31
0.0
  0
SPLINE
  5
172
330
1F
100
AcDbEntity
  8
0
  6
Continuous
 62
     7
370
    15
100
AcDbSpline
210
0.0
220
0.0
230
1.0
 70
    24
 71
     3
 72
     8
 73
     4
 74
     0
 42
0.00000001
 43
0.00000001
 12
1.0
 22
0.0
 32
0.0
 13
1.0
 23
0.0
 33
0.0
 40
0.0
 40
0.0
 40
0.0
 40
0.0
 40
0.0004280954770801
 40
0.0004280954770801
 40
0.0004280954770801
 40
0.0004280954770801
 10
36.05714183194629
 20
135.6202957518516
 30
0.0
 10
36.07742019944806
 20
135.6315976526204
 30
0.0
 10
36.09777271683753
 20
135.6429408799246
 30
0.0
 10
36.11820459423279
 20
135.6543283375599
 30
0.0
  0
ARC
  5
173
330
1F
100
AcDbEntity
  8
0
  6
Continuous
 62
     7
370
    15
100
AcDbCircle
 10
36.6852326321
 20
137.7385738136
 30
0.0
 40
2.159999999999228
100
AcDbArc
 50
254.7807740842
 51
141.8684512372
  0
SPLINE
  5
174
330
1F
100
AcDbEntity
  8
0
  6
Continuous
 62
     7
370
    15
100
AcDbSpline
210
0.0
220
0.0
230
1.0
 70
    24
 71
     3
 72
     8
 73
     4
 74
     0
 42
0.00000001
 43
0.00000001
 12
1.0
 22
0.0
 32
0.0
 13
1.0
 23
0.0
 33
0.0
 40
0.0002082354842424
 40
0.0002082354842424
 40
0.0002082354842424
 40
0.0002082354842424
 40
0.0003884755548511
 40
0.0003884755548511
 40
0.0003884755548511
 40
0.0003884755548511
 10
34.9582723691962
 20
139.073533460716
 30
0.0
 10
34.96756750064571
 20
139.0731250874247
 30
0.0
 10
34.97687230932622
 20
139.072716288973
 30
0.0
 10
34.98618712031054
 20
139.0723070510789
 30
0.0
  0
ARC
  5
175
330
1F
100
AcDbEntity
  8
0
  6
Continuous
 62
     7
370
    15
100
AcDbCircle
 10
40.8143295086
 20
144.9960546296
 30
0.0
 40
2.500000000000009
100
AcDbArc
 50
87.5
 51
191.2818177342
  0
LWPOLYLINE
  5
176
330
1F
100
AcDbEntity
  8
0
  6
Continuous
 62
     7
370
    15
100
AcDbPolyline
 90
        9
 70
   128
 43
0.0
 10
37.7742311816
 20
144.3895861284
 10
37.889023767
 20
144.4124862329
 10
37.9994041185
 20
144.4345060514
 10
38.1011328559
 20
144.4547995703
 10
38.1902969341
 20
144.4725870864
 10
38.2634735565
 20
144.4871850089
 10
38.3178478937
 20
144.4980323092
 10
38.3513308029
 20
144.5047117547
 10
38.362637804
 20
144.506967418
  0
LWPOLYLINE
  5
177
330
1F
100
AcDbEntity
  8
0
  6
Continuous
 62
     7
370
    15
100
AcDbPolyline
 90
        9
 70
   128
 43
0.0
 10
40.9233785133
 20
147.4936751426
 10
40.9238806825
 20
147.5051930883
 10
40.9253707986
 20
147.5393039883
 10
40.9277892571
 20
147.5946971924
 10
40.9310436707
 20
147.6692438835
 10
40.9350088697
 20
147.7600792201
 10
40.9395343523
 20
147.8637126052
 10
40.9444442849
 20
147.9761613311
 10
40.9495494228
 20
148.0931041074
  0
ARC
  5
178
330
1F
100
AcDbEntity
  8
0
  6
Continuous
 62
     7
370
    15
100
AcDbCircle
 10
62.6349122212
 20
166.8166373422
 30
0.0
 40
2.500000000000008
100
AcDbArc
 50
78.7181822658
 51
182.5
  0
LWPOLYLINE
  5
179
330
1F
100
AcDbEntity
  8
0
  6
Continuous
 62
     7
370
    15
100
AcDbPolyline
 90
        9
 70
   128
 43
0.0
 10
60.1372917082
 20
166.7075883375
 10
60.1257737625
 20
166.7070861683
 10
60.0916628625
 20
166.7055960522
 10
60.0362696584
 20
166.7031775938
 10
59.9617229674
 20
166.6999231802
 10
59.8708876308
 20
166.6959579812
 10
59.7672542456
 20
166.6914324985
 10
59.6548055198
 20
166.6865225659
 10
59.5378627434
 20
166.6814174281
  0
LINE
  5
17A
330
1F
100
AcDbEntity
  8
0
  6
Continuous
 62
     7
370
    15
100
AcDbLine
 10
71.0187687438
 20
125.7076155172
 30
0.0
 11
71.0207267563
 21
125.6754647718
 31
0.0
  0
LINE
  5
17B
330
1F
100
AcDbEntity
  8
0
  6
Continuous
 62
     7
370
    15
100
AcDbLine
 10
71.0207267563
 20
125.6754647718
 30
0.0
 11
69.8250784438
 21
124.3247743474
 31
0.0
  0
LINE
  5
17C
330
1F
100
AcDbEntity
  8
0
  6
Continuous
 62
     7
370
    15
100
AcDbLine
 10
69.8250784438
 20
124.3247743474
 30
0.0
 11
69.7762287121
 21
124.3450235353
 31
0.0
  0
LINE
  5
17D
330
1F
100
AcDbEntity
  8
0
  6
Continuous
 62
     7
370
    15
100
AcDbLine
 10
60.1372917082
 20
166.7075883375
 30
0.0
 11
60.7146196898
 21
153.4846022503
 31
0.0
  0
LWPOLYLINE
  5
17E
330
1F
100
AcDbEntity
  8
0
  6
Continuous
 62
     7
370
    15
100
AcDbPolyline
 90
        9
 70
   128
 43
0.0
 10
60.7146196898
 20
153.4846022503
 10
60.7031018372
 20
153.4840993361
 10
60.6689908441
 20
153.482609965
 10
60.6135978263
 20
153.4801915066
 10
60.5390510421
 20
153.4769367204
 10
60.4482157055
 20
153.4729707764
 10
60.3445823203
 20
153.4684460388
 10
60.2321335945
 20
153.4635364787
 10
60.1151907716
 20
153.4584305958
  0
LWPOLYLINE
  5
17F
330
1F
100
AcDbEntity
  8
0
  6
Continuous
 62
     7
370
    15
100
AcDbPolyline
 90
        9
 70
   128
 43
0.0
 10
63.8392317008
 20
149.7343896666
 10
63.8443375837
 20
149.8513324895
 10
63.8492471438
 20
149.9637812154
 10
63.8537718814
 20
150.0674146005
 10
63.8577378254
 20
150.1582499371
 10
63.8609926115
 20
150.2327967213
 10
63.86341107
 20
150.2881897391
 10
63.8649004411
 20
150.3223007323
 10
63.8654033553
 20
150.3338185848
  0
LINE
  5
180
330
1F
100
AcDbEntity
  8
0
  6
Continuous
 62
     7
370
    15
100
AcDbLine
 10
63.8654033553
 20
150.3338185848
 30
0.0
 11
77.0883894425
 21
149.7564906032
 31
0.0
  0
LWPOLYLINE
  5
181
330
1F
100
AcDbEntity
  8
0
  6
Continuous
 62
     7
370
    15
100
AcDbPolyline
 90
        9
 70
   128
 43
0.0
 10
77.062218533
 20
149.1570616384
 10
77.0673236709
 20
149.2740044148
 10
77.0722336035
 20
149.3864531406
 10
77.0767590861
 20
149.4900865258
 10
77.0807242851
 20
149.5809218624
 10
77.0839786987
 20
149.6554685534
 10
77.0863971572
 20
149.7108617575
 10
77.0878872733
 20
149.7449726575
 10
77.0883894425
 20
149.7564906032
  0
LINE
  5
182
330
1F
100
AcDbEntity
  8
0
  6
Continuous
 62
     7
370
    15
100
AcDbLine
 10
55.2539626967
 20
123.0234663711
 30
0.0
 11
55.2366490375
 21
122.9963045345
 31
0.0
  0
LINE
  5
183
330
1F
100
AcDbEntity
  8
0
  6
Continuous
 62
     7
370
    15
100
AcDbLine
 10
55.2366490375
 20
122.9963045345
 30
0.0
 11
53.4754331123
 21
122.6063560472
 31
0.0
  0
LINE
  5
184
330
1F
100
AcDbEntity
  8
0
  6
Continuous
 62
     7
370
    15
100
AcDbLine
 10
53.4754331123
 20
122.6063560472
 30
0.0
 11
53.4478149276
 21
122.6514529215
 31
0.0
  0
ARC
  5
185
330
1F
100
AcDbEntity
  8
0
  6
Continuous
 62
     7
370
    15
100
AcDbCircle
 10
63.9744518422
 20
152.8314391795
 30
0.0
 40
2.500000000000005
100
AcDbArc
 50
220.2510286044
 51
267.5
  0
SPLINE
  5
186
330
1F
100
AcDbEntity
  8
0
  6
Continuous
 62
     7
370
    15
100
AcDbSpline
210
0.0
220
0.0
230
1.0
 70
    24
 71
     3
 72
     8
 73
     4
 74
     0
 42
0.00000001
 43
0.00000001
 12
1.0
 22
0.0
 32
0.0
 13
1.0
 23
0.0
 33
0.0
 40
0.0
 40
0.0
 40
0.0
 40
0.0
 40
0.0004280954770802
 40
0.0004280954770802
 40
0.0004280954770802
 40
0.0004280954770802
 10
84.0260299806592
 20
140.2727449878411
 30
0.0
 10
84.00406215524242
 20
140.2802523040048
 30
0.0
 10
83.98201400226534
 20
140.2877870714241
 30
0.0
 10
83.95987987753776
 20
140.2953512189527
 30
0.0
  0
ARC
  5
187
330
1F
100
AcDbEntity
  8
0
  6
Continuous
 62
     7
370
    15
100
AcDbCircle
 10
82.0315678222
 20
139.322102732
 30
0.0
 40
2.159999999999268
100
AcDbArc
 50
26.7807740842
 51
273.8684512372
  0
SPLINE
  5
188
330
1F
100
AcDbEntity
  8
0
  6
Continuous
 62
     7
370
    15
100
AcDbSpline
210
0.0
220
0.0
230
1.0
 70
    24
 71
     3
 72
     8
 73
     4
 74
     0
 42
0.00000001
 43
0.00000001
 12
1.0
 22
0.0
 32
0.0
 13
1.0
 23
0.0
 33
0.0
 40
0.0002082354842424
 40
0.0002082354842424
 40
0.0002082354842424
 40
0.0002082354842424
 40
0.0003884755548512
 40
0.0003884755548512
 40
0.0003884755548512
 40
0.0003884755548512
 10
82.1950614360924
 20
137.1454587906895
 30
0.0
 10
82.18914525964766
 20
137.1526396745964
 30
0.0
 10
82.18322292382732
 20
137.1598280345753
 30
0.0
 10
82.17729422172859
 20
137.1670241217587
 30
0.0
  0
SPLINE
  5
189
330
1F
100
AcDbEntity
  8
0
  6
Continuous
 62
     7
370
    15
100
AcDbSpline
210
0.0
220
0.0
230
1.0
 70
     8
 71
     3
 72
     8
 73
     4
 74
     0
 42
0.00000001
 43
0.00000001
 12
1.0
 22
0.0
 32
0.0
 13
1.0
 23
0.0
 33
0.0
 40
0.0
 40
0.0
 40
0.0
 40
0.0
 40
0.00025062732976
 40
0.00025062732976
 40
0.00025062732976
 40
0.00025062732976
 10
82.16487793984868
 20
137.1161271173643
 30
0.0
 10
82.17496187612443
 20
137.1258553105497
 30
0.0
 10
82.18502337549054
 20
137.1356322349403
 30
0.0
 10
82.1950614360924
 20
137.1454587906895
 30
0.0
  0
LINE
  5
18A
330
1F
100
AcDbEntity
  8
0
  6
Continuous
 62
     7
370
    15
100
AcDbLine
 10
84.0265399675
 20
140.2729887293
 30
0.0
 11
84.0260303478
 21
140.2727450953
 31
0.0
  0
LWPOLYLINE
  5
18B
330
1F
100
AcDbEntity
  8
0
  6
Continuous
 62
     7
370
    15
100
AcDbPolyline
 90
        9
 70
   128
 43
0.0
 10
54.7703872334
 20
127.3934300767
 10
54.7932873379
 20
127.508222662
 10
54.8153071563
 20
127.6186030136
 10
54.8356006752
 20
127.7203317509
 10
54.8533881914
 20
127.8094958292
 10
54.8679861139
 20
127.8826724516
 10
54.8788334142
 20
127.9370467888
 10
54.8855128597
 20
127.970529698
 10
54.887768523
 20
127.9818366991
  0
ARC
  5
18C
330
1F
100
AcDbEntity
  8
0
  6
Continuous
 62
     7
370
    15
100
AcDbCircle
 10
55.3768557346
 20
130.4335284036
 30
0.0
 40
2.5
100
AcDbArc
 50
258.7181822658
 51
2.5
  0
LWPOLYLINE
  5
18D
330
1F
100
AcDbEntity
  8
0
  6
Continuous
 62
     7
370
    15
100
AcDbPolyline
 90
        9
 70
   128
 43
0.0
 10
58.4739052124
 20
130.5687483178
 10
58.356962436
 20
130.56364318
 10
58.2445137102
 20
130.5587332473
 10
58.140880325
 20
130.5542077647
 10
58.0500449884
 20
130.5502425657
 10
57.9754982974
 20
130.5469881521
 10
57.9201050933
 20
130.5445696936
 10
57.8859941933
 20
130.5430795775
 10
57.8744762476
 20
130.5425774084
  0
ARC
  5
18E
330
1F
100
AcDbEntity
  8
0
  6
Continuous
 62
     7
370
    15
100
AcDbCircle
 10
63.9744518422
 20
144.4187265664
 30
0.0
 40
2.500000000000001
100
AcDbArc
 50
92.5
 51
139.7489713956
  0
LWPOLYLINE
  5
18F
330
1F
100
AcDbEntity
  8
0
  6
Continuous
 62
     7
370
    15
100
AcDbPolyline
 90
        9
 70
   128
 43
0.0
 10
62.0663995754
 20
146.0340708272
 10
62.0576006259
 20
146.0415199177
 10
62.0315416615
 20
146.0635812731
 10
61.9892240401
 20
146.0994070174
 10
61.9322744097
 20
146.1476204695
 10
61.8628808196
 20
146.2063684837
 10
61.7837103914
 20
146.2733937205
 10
61.6978053834
 20
146.3461203278
 10
61.6084671478
 20
146.4217534066
  0
LWPOLYLINE
  5
190
330
1F
100
AcDbEntity
  8
0
  6
Continuous
 62
     7
370
    15
100
AcDbPolyline
 90
        9
 70
   128
 43
0.0
 10
63.8654033553
 20
146.9163471611
 10
63.8649004411
 20
146.9278650136
 10
63.86341107
 20
146.9619760067
 10
63.8609926115
 20
147.0173690246
 10
63.8577378254
 20
147.0919158087
 10
63.8537718814
 20
147.1827511453
 10
63.8492471438
 20
147.2863845305
 10
63.8443375837
 20
147.3988332563
 10
63.8392317008
 20
147.5157760793
  0
ARC
  5
191
330
1F
100
AcDbEntity
  8
0
  6
Continuous
 62
     7
370
    15
100
AcDbCircle
 10
62.6349122212
 20
130.4335284036
 30
0.0
 40
2.499999999999996
100
AcDbArc
 50
177.5
 51
281.2818177342
  0
ARC
  5
192
330
1F
100
AcDbEntity
  8
0
  6
Continuous
 62
     7
370
    15
100
AcDbCircle
 10
59.0058839779
 20
148.6250828729
 30
0.0
 40
4.010000000000001
100
AcDbArc
 50
310.2510286044
 51
319.7489713956
  0
LWPOLYLINE
  5
193
330
1F
100
AcDbEntity
  8
0
  6
Continuous
 62
     7
370
    15
100
AcDbPolyline
 90
        9
 70
   128
 43
0.0
 10
61.5968960236
 20
145.5645672755
 10
61.5894469332
 20
145.5733662249
 10
61.5673855777
 20
145.5994251893
 10
61.5315598335
 20
145.6417428107
 10
61.4833463814
 20
145.6986924411
 10
61.4245983671
 20
145.7680860312
 10
61.3575731303
 20
145.8472564594
 10
61.284846523
 20
145.9331614674
 10
61.2092134442
 20
146.022499703
  0
LWPOLYLINE
  5
194
330
1F
100
AcDbEntity
  8
0
  6
Continuous
 62
     7
370
    15
100
AcDbPolyline
 90
        9
 70
   128
 43
0.0
 10
54.172536255
 20
149.7343896666
 10
54.1674303721
 20
149.8513324895
 10
54.162520812
 20
149.9637812154
 10
54.1579960744
 20
150.0674146005
 10
54.1540301304
 20
150.1582499371
 10
54.1507753443
 20
150.2327967213
 10
54.1483568858
 20
150.2881897391
 10
54.1468675147
 20
150.3223007323
 10
54.1463646005
 20
150.3338185848
  0
ARC
  5
195
330
1F
100
AcDbEntity
  8
0
  6
Continuous
 62
     7
370
    15
100
AcDbCircle
 10
54.0373161136
 20
152.8314391795
 30
0.0
 40
2.499999999999988
100
AcDbArc
 50
272.5
 51
319.7489713956
  0
LWPOLYLINE
  5
196
330
1F
100
AcDbEntity
  8
0
  6
Continuous
 62
     7
370
    15
100
AcDbPolyline
 90
        9
 70
   128
 43
0.0
 10
56.403300808
 20
150.8284123392
 10
56.3139625724
 20
150.904045418
 10
56.2280575644
 20
150.9767720253
 10
56.1488871362
 20
151.0437972621
 10
56.0794935461
 20
151.1025452764
 10
56.0225439157
 20
151.1507587285
 10
55.9802262943
 20
151.1865844728
 10
55.9541673299
 20
151.2086458282
 10
55.9453683804
 20
151.2160949187
  0
ARC
  5
197
330
1F
100
AcDbEntity
  8
0
  6
Continuous
 62
     7
370
    15
100
AcDbCircle
 10
63.2122402844
 20
143.6565150086
 30
0.0
 40
2.500000000000022
100
AcDbArc
 50
130.2510286044
 51
177.5
  0
LWPOLYLINE
  5
198
330
1F
100
AcDbEntity
  8
0
  6
Continuous
 62
     7
370
    15
100
AcDbPolyline
 90
        9
 70
   128
 43
0.0
 10
40.9495494228
 20
149.1570616384
 10
40.9444442849
 20
149.2740044148
 10
40.9395343523
 20
149.3864531406
 10
40.9350088697
 20
149.4900865258
 10
40.9310436707
 20
149.5809218624
 10
40.9277892571
 20
149.6554685534
 10
40.9253707986
 20
149.7108617575
 10
40.9238806825
 20
149.7449726575
 10
40.9233785133
 20
149.7564906032
  0
LINE
  5
199
330
1F
100
AcDbEntity
  8
0
  6
Continuous
 62
     7
370
    15
100
AcDbLine
 10
40.9233785133
 20
149.7564906032
 30
0.0
 11
54.1463646005
 21
150.3338185848
 31
0.0
  0
ARC
  5
19A
330
1F
100
AcDbEntity
  8
0
  6
Continuous
 62
     7
370
    15
100
AcDbCircle
 10
40.8143295086
 20
152.2541111162
 30
0.0
 40
2.500000000000002
100
AcDbArc
 50
168.7181822658
 51
272.5
  0
LWPOLYLINE
  5
19B
330
1F
100
AcDbEntity
  8
0
  6
Continuous
 62
     7
370
    15
100
AcDbPolyline
 90
        9
 70
   128
 43
0.0
 10
38.362637804
 20
152.7431983278
 10
38.3513308029
 20
152.7454539911
 10
38.3178478937
 20
152.7521334366
 10
38.2634735565
 20
152.7629807369
 10
38.1902969341
 20
152.7775786595
 10
38.1011328559
 20
152.7953661756
 10
37.9994041185
 20
152.8156596945
 10
37.889023767
 20
152.8376795129
 10
37.7742311816
 20
152.8605796174
  0
SPLINE
  5
19C
330
1F
100
AcDbEntity
  8
0
  6
Continuous
 62
     7
370
    15
100
AcDbSpline
210
0.0
220
0.0
230
1.0
 70
     8
 71
     3
 72
     8
 73
     4
 74
     0
 42
0.00000001
 43
0.00000001
 12
1.0
 22
0.0
 32
0.0
 13
1.0
 23
0.0
 33
0.0
 40
0.0
 40
0.0
 40
0.0
 40
0.0
 40
0.0002506273297599
 40
0.0002506273297599
 40
0.0002506273297599
 40
0.0002506273297599
 10
47.03465875246479
 20
171.5485387754522
 30
0.0
 10
47.0207825881617
 20
171.5465956908687
 30
0.0
 10
47.00689593221603
 20
171.5445999938273
 30
0.0
 10
46.99299906604838
 20
171.5425503672134
 30
0.0
  0
LINE
  5
19D
330
1F
100
AcDbEntity
  8
0
  6
Continuous
 62
     7
370
    15
100
AcDbLine
 10
46.992999212
 20
171.5425502287
 30
0.0
 11
46.9910411995
 21
171.574700974
 31
0.0
  0
LINE
  5
19E
330
1F
100
AcDbEntity
  8
0
  6
Continuous
 62
     7
370
    15
100
AcDbLine
 10
46.9910411995
 20
171.574700974
 30
0.0
 11
48.186689512
 21
172.9253913985
 31
0.0
  0
LINE
  5
19F
330
1F
100
AcDbEntity
  8
0
  6
Continuous
 62
     7
370
    15
100
AcDbLine
 10
48.186689512
 20
172.9253913985
 30
0.0
 11
48.2355392437
 21
172.9051422105
 31
0.0
  0
LINE
  5
1A0
330
1F
100
AcDbEntity
  8
0
  6
Continuous
 62
     7
370
    15
100
AcDbLine
 10
45.1652175646
 20
126.7628859506
 30
0.0
 11
45.1383537512
 21
126.7451148258
 31
0.0
  0
LINE
  5
1A1
330
1F
100
AcDbEntity
  8
0
  6
Continuous
 62
     7
370
    15
100
AcDbLine
 10
45.1383537512
 20
126.7451148258
 30
0.0
 11
43.3707958918
 21
127.1052311884
 31
0.0
  0
LINE
  5
1A2
330
1F
100
AcDbEntity
  8
0
  6
Continuous
 62
     7
370
    15
100
AcDbLine
 10
43.3707958918
 20
127.1052311884
 30
0.0
 11
43.3639085751
 21
127.157660924
 31
0.0
  0
SPLINE
  5
1A3
330
1F
100
AcDbEntity
  8
0
  6
Continuous
 62
     7
370
    15
100
AcDbSpline
210
0.0
220
0.0
230
1.0
 70
     8
 71
     3
 72
     8
 73
     4
 74
     0
 42
0.00000001
 43
0.00000001
 12
1.0
 22
0.0
 32
0.0
 13
1.0
 23
0.0
 33
0.0
 40
0.0
 40
0.0
 40
0.0
 40
0.0
 40
0.00025062732976
 40
0.00025062732976
 40
0.00025062732976
 40
0.00025062732976
 10
68.0310184199663
 20
172.8602229017317
 30
0.0
 10
68.02028946047847
 20
172.8692347240654
 30
0.0
 10
68.0095143820357
 20
172.8782191386032
 30
0.0
 10
67.99869239413819
 20
172.8871750548871
 30
0.0
  0
LINE
  5
1A4
330
1F
100
AcDbEntity
  8
0
  6
Continuous
 62
     7
370
    15
100
AcDbLine
 10
67.9986922901
 20
172.8871743904
 30
0.0
 11
68.0212742548
 21
172.9101430402
 31
0.0
  0
LINE
  5
1A5
330
1F
100
AcDbEntity
  8
0
  6
Continuous
 62
     7
370
    15
100
AcDbLine
 10
68.0212742548
 20
172.9101430402
 30
0.0
 11
69.8250784438
 21
172.9253913985
 31
0.0
  0
LINE
  5
1A6
330
1F
100
AcDbEntity
  8
0
  6
Continuous
 62
     7
370
    15
100
AcDbLine
 10
69.8250784438
 20
172.9253913985
 30
0.0
 11
69.8427169483
 21
172.8755395637
 31
0.0
  0
ARC
  5
1A7
330
1F
100
AcDbEntity
  8
0
  6
Continuous
 62
     7
370
    15
100
AcDbCircle
 10
54.7995276714
 20
153.5936507373
 30
0.0
 40
2.500000000000009
100
AcDbArc
 50
310.2510286044
 51
357.5
  0
LWPOLYLINE
  5
1A8
330
1F
100
AcDbEntity
  8
0
  6
Continuous
 62
     7
370
    15
100
AcDbPolyline
 90
        9
 70
   128
 43
0.0
 10
57.297148266
 20
153.4846022503
 10
57.3086661186
 20
153.4840993361
 10
57.3427771117
 20
153.482609965
 10
57.3981701295
 20
153.4801915066
 10
57.4727169137
 20
153.4769367204
 10
57.5635522503
 20
153.4729707764
 10
57.6671856355
 20
153.4684460388
 10
57.7796343613
 20
153.4635364787
 10
57.8965771842
 20
153.4584305958
  0
LWPOLYLINE
  5
1A9
330
1F
100
AcDbEntity
  8
0
  6
Continuous
 62
     7
370
    15
100
AcDbPolyline
 90
        9
 70
   128
 43
0.0
 10
56.8025545116
 20
151.2276660429
 10
56.7269214328
 20
151.3170042784
 10
56.6541948255
 20
151.4029092864
 10
56.5871695887
 20
151.4820797147
 10
56.5284215744
 20
151.5514733047
 10
56.4802081223
 20
151.6084229351
 10
56.4443823781
 20
151.6507405565
 10
56.4223210226
 20
151.676799521
 10
56.4148719322
 20
151.6855984704
  0
LINE
  5
1AA
330
1F
100
AcDbEntity
  8
0
  6
Continuous
 62
     7
370
    15
100
AcDbLine
 10
57.35294138
 20
174.4473110662
 30
0.0
 11
57.3642295684
 21
174.4774769769
 31
0.0
  0
LINE
  5
1AB
330
1F
100
AcDbEntity
  8
0
  6
Continuous
 62
     7
370
    15
100
AcDbLine
 10
57.3642295684
 20
174.4774769769
 30
0.0
 11
59.0058839779
 21
175.2250831352
 31
0.0
  0
LINE
  5
1AC
330
1F
100
AcDbEntity
  8
0
  6
Continuous
 62
     7
370
    15
100
AcDbLine
 10
59.0058839779
 20
175.2250831352
 30
0.0
 11
59.0422744209
 21
175.1867156253
 31
0.0
  0
ARC
  5
1AD
330
1F
100
AcDbEntity
  8
0
  6
Continuous
 62
     7
370
    15
100
AcDbCircle
 10
59.0058839779
 20
148.6250828729
 30
0.0
 40
21.05
100
AcDbArc
 50
191.2818177342
 51
258.7181822658
  0
LINE
  5
1AE
330
1F
100
AcDbEntity
  8
0
  6
Continuous
 62
     7
370
    15
100
AcDbLine
 10
82.1950620871
 20
137.1454585121
 30
0.0
 11
82.215542243
 21
137.12059965
 31
0.0
  0
LINE
  5
1AF
330
1F
100
AcDbEntity
  8
0
  6
Continuous
 62
     7
370
    15
100
AcDbLine
 10
82.215542243
 20
137.12059965
 30
0.0
 11
82.0421597819
 21
135.3250827418
 31
0.0
  0
LINE
  5
1B0
330
1F
100
AcDbEntity
  8
0
  6
Continuous
 62
     7
370
    15
100
AcDbLine
 10
82.0421597819
 20
135.3250827418
 30
0.0
 11
81.9907358747
 21
135.3127520309
 31
0.0
  0
LINE
  5
1B1
330
1F
100
AcDbEntity
  8
0
  6
Continuous
 62
     7
370
    15
100
AcDbLine
 10
79.301573978
 20
132.5750153289
 30
0.0
 11
79.3164393764
 21
132.5464408622
 31
0.0
  0
LINE
  5
1B2
330
1F
100
AcDbEntity
  8
0
  6
Continuous
 62
     7
370
    15
100
AcDbLine
 10
79.3164393764
 20
132.5464408622
 30
0.0
 11
78.7735364299
 21
130.8262090908
 31
0.0
  0
LINE
  5
1B3
330
1F
100
AcDbEntity
  8
0
  6
Continuous
 62
     7
370
    15
100
AcDbLine
 10
78.7735364299
 20
130.8262090908
 30
0.0
 11
78.7206730704
 21
130.8248381839
 31
0.0
  0
ARC
  5
1B4
330
1F
100
AcDbEntity
  8
0
  6
Continuous
 62
     7
370
    15
100
AcDbCircle
 10
77.1974384472
 20
152.2541111162
 30
0.0
 40
2.500000000000003
100
AcDbArc
 50
267.5
 51
11.2818177342
  0
LINE
  5
1B5
330
1F
100
AcDbEntity
  8
0
  6
Continuous
 62
     7
370
    15
100
AcDbLine
 10
65.9914492529
 20
123.7107973323
 30
0.0
 11
65.9866793912
 21
123.6789431201
 31
0.0
  0
LINE
  5
1B6
330
1F
100
AcDbEntity
  8
0
  6
Continuous
 62
     7
370
    15
100
AcDbLine
 10
65.9866793912
 20
123.6789431201
 30
0.0
 11
64.5363348435
 21
122.6063560472
 31
0.0
  0
LINE
  5
1B7
330
1F
100
AcDbEntity
  8
0
  6
Continuous
 62
     7
370
    15
100
AcDbLine
 10
64.5363348435
 20
122.6063560472
 30
0.0
 11
64.4927623581
 21
122.6363193021
 31
0.0
  0
ARC
  5
1B8
330
1F
100
AcDbEntity
  8
0
  6
Continuous
 62
     7
370
    15
100
AcDbCircle
 10
59.0058839779
 20
148.6250828729
 30
0.0
 40
21.04999999999999
100
AcDbArc
 50
101.2818177342
 51
168.7181822658
  0
ARC
  5
1B9
330
1F
100
AcDbEntity
  8
0
  6
Continuous
 62
     7
370
    15
100
AcDbCircle
 10
63.2122402844
 20
153.5936507373
 30
0.0
 40
2.499999999999987
100
AcDbArc
 50
182.5
 51
229.7489713956
  0
SPLINE
  5
1BA
330
1F
100
AcDbEntity
  8
0
  6
Continuous
 62
     7
370
    15
100
AcDbSpline
210
0.0
220
0.0
230
1.0
 70
    24
 71
     3
 72
     8
 73
     4
 74
     0
 42
0.00000001
 43
0.00000001
 12
1.0
 22
0.0
 32
0.0
 13
1.0
 23
0.0
 33
0.0
 40
0.0
 40
0.0
 40
0.0
 40
0.0
 40
0.0004280954770802
 40
0.0004280954770802
 40
0.0004280954770802
 40
0.0004280954770802
 10
33.85477962890857
 20
140.6757933340994
 30
0.0
 10
33.87696466272552
 20
140.6826321515458
 30
0.0
 10
33.89923081834708
 20
140.6894959758151
 30
0.0
 10
33.92158379577082
 20
140.6963865640037
 30
0.0
  0
ARC
  5
1BB
330
1F
100
AcDbEntity
  8
0
  6
Continuous
 62
     7
370
    15
100
AcDbCircle
 10
34.9095599116
 20
142.6171945176
 30
0.0
 40
2.159999999999241
100
AcDbArc
 50
242.7807740842
 51
129.8684512372
  0
SPLINE
  5
1BC
330
1F
100
AcDbEntity
  8
0
  6
Continuous
 62
     7
370
    15
100
AcDbSpline
210
0.0
220
0.0
230
1.0
 70
    24
 71
     3
 72
     8
 73
     4
 74
     0
 42
0.00000001
 43
0.00000001
 12
1.0
 22
0.0
 32
0.0
 13
1.0
 23
0.0
 33
0.0
 40
0.0002082354842424
 40
0.0002082354842424
 40
0.0002082354842424
 40
0.0002082354842424
 40
0.0003884755548512
 40
0.0003884755548512
 40
0.0003884755548512
 40
0.0003884755548512
 10
33.49789159124557
 20
144.282037321777
 30
0.0
 10
33.50689869618995
 20
144.2797053059259
 30
0.0
 10
33.51591517849877
 20
144.2773708621956
 30
0.0
 10
33.52494135317188
 20
144.27503390903
 30
0.0
  0
SPLINE
  5
1BD
330
1F
100
AcDbEntity
  8
0
  6
Continuous
 62
     7
370
    15
100
AcDbSpline
210
0.0
220
0.0
230
1.0
 70
     8
 71
     3
 72
     8
 73
     4
 74
     0
 42
0.00000001
 43
0.00000001
 12
1.0
 22
0.0
 32
0.0
 13
1.0
 23
0.0
 33
0.0
 40
0.0
 40
0.0
 40
0.0
 40
0.0
 40
0.00025062732976
 40
0.00025062732976
 40
0.00025062732976
 40
0.00025062732976
 10
33.50506982765076
 20
144.3235085579252
 30
0.0
 10
33.50262984031932
 20
144.3097110952857
 30
0.0
 10
33.50023664831284
 20
144.2958873963576
 30
0.0
 10
33.49789159124557
 20
144.282037321777
 30
0.0
  0
LINE
  5
1BE
330
1F
100
AcDbEntity
  8
0
  6
Continuous
 62
     7
370
    15
100
AcDbLine
 10
33.8545090418
 20
140.6752962397
 30
0.0
 11
33.8547802429
 21
140.6757931934
 31
0.0
  0
ARC
  5
1BF
330
1F
100
AcDbEntity
  8
0
  6
Continuous
 62
     7
370
    15
100
AcDbCircle
 10
77.1974384472
 20
144.9960546296
 30
0.0
 40
2.500000000000008
100
AcDbArc
 50
348.7181822658
 51
92.5
  0
LWPOLYLINE
  5
1C0
330
1F
100
AcDbEntity
  8
0
  6
Continuous
 62
     7
370
    15
100
AcDbPolyline
 90
        9
 70
   128
 43
0.0
 10
77.0883894425
 20
147.4936751426
 10
77.0878872733
 20
147.5051930883
 10
77.0863971572
 20
147.5393039883
 10
77.0839786987
 20
147.5946971924
 10
77.0807242851
 20
147.6692438835
 10
77.0767590861
 20
147.7600792201
 10
77.0722336035
 20
147.8637126052
 10
77.0673236709
 20
147.9761613311
 10
77.062218533
 20
148.0931041074
  0
LINE
  5
1C1
330
1F
100
AcDbEntity
  8
0
  6
Continuous
 62
     7
370
    15
100
AcDbLine
 10
77.0883894425
 20
147.4936751426
 30
0.0
 11
63.8654033553
 21
146.9163471611
 31
0.0
  0
ARC
  5
1C2
330
1F
100
AcDbEntity
  8
0
  6
Continuous
 62
     7
370
    15
100
AcDbCircle
 10
54.0373161136
 20
144.4187265664
 30
0.0
 40
2.500000000000004
100
AcDbArc
 50
40.2510286044
 51
87.5
  0
LWPOLYLINE
  5
1C3
330
1F
100
AcDbEntity
  8
0
  6
Continuous
 62
     7
370
    15
100
AcDbPolyline
 90
        9
 70
   128
 43
0.0
 10
54.1463646005
 20
146.9163471611
 10
54.1468675147
 20
146.9278650136
 10
54.1483568858
 20
146.9619760067
 10
54.1507753443
 20
147.0173690246
 10
54.1540301304
 20
147.0919158087
 10
54.1579960744
 20
147.1827511453
 10
54.162520812
 20
147.2863845305
 10
54.1674303721
 20
147.3988332563
 10
54.172536255
 20
147.5157760793
  0
SPLINE
  5
1C4
330
1F
100
AcDbEntity
  8
0
  6
Continuous
 62
     7
370
    15
100
AcDbSpline
210
0.0
220
0.0
230
1.0
 70
    24
 71
     3
 72
     8
 73
     4
 74
     0
 42
0.00000001
 43
0.00000001
 12
1.0
 22
0.0
 32
0.0
 13
1.0
 23
0.0
 33
0.0
 40
0.0
 40
0.0
 40
0.0
 40
0.0
 40
0.0004280954770799
 40
0.0004280954770799
 40
0.0004280954770799
 40
0.0004280954770799
 10
43.67354169094443
 20
170.0887389953514
 30
0.0
 10
43.68690134531077
 20
170.0697530851879
 30
0.0
 10
43.70030985059525
 20
170.0506977511368
 30
0.0
 10
43.71377063929197
 20
170.0315681151509
 30
0.0
  0
ARC
  5
1C5
330
1F
100
AcDbEntity
  8
0
  6
Continuous
 62
     7
370
    15
100
AcDbCircle
 10
45.8458689699
 20
169.6855092929
 30
0.0
 40
2.159999999999255
100
AcDbArc
 50
170.7807740842
 51
57.8684512372
  0
SPLINE
  5
1C6
330
1F
100
AcDbEntity
  8
0
  6
Continuous
 62
     7
370
    15
100
AcDbSpline
210
0.0
220
0.0
230
1.0
 70
    24
 71
     3
 72
     8
 73
     4
 74
     0
 42
0.00000001
 43
0.00000001
 12
1.0
 22
0.0
 32
0.0
 13
1.0
 23
0.0
 33
0.0
 40
0.0002082354842426
 40
0.0002082354842426
 40
0.0002082354842426
 40
0.0002082354842426
 40
0.0003884755548513
 40
0.0003884755548513
 40
0.0003884755548513
 40
0.0003884755548513
 10
46.99299906604838
 20
171.5425503672134
 30
0.0
 10
46.99356453567501
 20
171.5332634688339
 30
0.0
 10
46.99413059401631
 20
171.523966901795
 30
0.0
 10
46.99469726084808
 20
171.5146603413117
 30
0.0
  0
LINE
  5
1C7
330
1F
100
AcDbEntity
  8
0
  6
Continuous
 62
     7
370
    15
100
AcDbLine
 10
43.6729854803
 20
170.0888421164
 30
0.0
 11
43.6735412936
 21
170.0887392984
 31
0.0
  0
ARC
  5
1C8
330
1F
100
AcDbEntity
  8
0
  6
Continuous
 62
     7
370
    15
100
AcDbCircle
 10
59.0058839779
 20
148.6250828729
 30
0.0
 40
4.009999999999993
100
AcDbArc
 50
130.2510286044
 51
139.7489713956
  0
LINE
  5
1C9
330
1F
100
AcDbEntity
  8
0
  6
Continuous
 62
     7
370
    15
100
AcDbLine
 10
33.4978914719
 20
144.28203737
 30
0.0
 11
33.466709302
 21
144.2901104466
 31
0.0
  0
LINE
  5
1CA
330
1F
100
AcDbEntity
  8
0
  6
Continuous
 62
     7
370
    15
100
AcDbLine
 10
33.466709302
 20
144.2901104466
 30
0.0
 11
32.551602171
 21
145.8446256594
 31
0.0
  0
LINE
  5
1CB
330
1F
100
AcDbEntity
  8
0
  6
Continuous
 62
     7
370
    15
100
AcDbLine
 10
32.551602171
 20
145.8446256594
 30
0.0
 11
32.585955308
 21
145.8848275022
 31
0.0
  0
LINE
  5
1CC
330
1F
100
AcDbEntity
  8
0
  6
Continuous
 62
     7
370
    15
100
AcDbLine
 10
33.1523335438
 20
149.6803531201
 30
0.0
 11
33.1235117178
 21
149.6947327406
 31
0.0
  0
LINE
  5
1CD
330
1F
100
AcDbEntity
  8
0
  6
Continuous
 62
     7
370
    15
100
AcDbLine
 10
33.1235117178
 20
149.6947327406
 30
0.0
 11
32.551602171
 21
151.4055400864
 31
0.0
  0
LINE
  5
1CE
330
1F
100
AcDbEntity
  8
0
  6
Continuous
 62
     7
370
    15
100
AcDbLine
 10
32.551602171
 20
151.4055400864
 30
0.0
 11
32.5935638409
 21
151.4377204479
 31
0.0
  0
LINE
  5
1CF
330
1F
100
AcDbEntity
  8
0
  6
Continuous
 62
     7
370
    15
100
AcDbLine
 10
33.9366978865
 20
155.0325486587
 30
0.0
 11
33.9114970427
 21
155.0526063667
 31
0.0
  0
LINE
  5
1D0
330
1F
100
AcDbEntity
  8
0
  6
Continuous
 62
     7
370
    15
100
AcDbLine
 10
33.9114970427
 20
155.0526063667
 30
0.0
 11
33.7077802878
 21
156.8449351714
 31
0.0
  0
LINE
  5
1D1
330
1F
100
AcDbEntity
  8
0
  6
Continuous
 62
     7
370
    15
100
AcDbLine
 10
33.7077802878
 20
156.8449351714
 30
0.0
 11
33.7555176478
 21
156.8676877545
 31
0.0
  0
CIRCLE
  5
1D2
330
1F
100
AcDbEntity
  8
0
  6
Continuous
 62
     7
370
    15
100
AcDbCircle
 10
59.0058839779
 20
148.6250828729
 30
0.0
 40
2.0
  0
LINE
  5
1D3
330
1F
100
AcDbEntity
  8
0
  6
Continuous
 62
     7
370
    15
100
AcDbLine
 10
38.7101939778
 20
164.6751504169
 30
0.0
 11
38.6953285794
 21
164.7037248836
 31
0.0
  0
LINE
  5
1D4
330
1F
100
AcDbEntity
  8
0
  6
Continuous
 62
     7
370
    15
100
AcDbLine
 10
38.6953285794
 20
164.7037248836
 30
0.0
 11
39.2382315259
 21
166.4239566551
 31
0.0
  0
LINE
  5
1D5
330
1F
100
AcDbEntity
  8
0
  6
Continuous
 62
     7
370
    15
100
AcDbLine
 10
39.2382315259
 20
166.4239566551
 30
0.0
 11
39.2910948854
 21
166.4253275619
 31
0.0
  0
SPLINE
  5
1D6
330
1F
100
AcDbEntity
  8
0
  6
Continuous
 62
     7
370
    15
100
AcDbSpline
210
0.0
220
0.0
230
1.0
 70
    24
 71
     3
 72
     8
 73
     4
 74
     0
 42
0.00000001
 43
0.00000001
 12
1.0
 22
0.0
 32
0.0
 13
1.0
 23
0.0
 33
0.0
 40
0.0
 40
0.0
 40
0.0
 40
0.0
 40
0.0004280954770802
 40
0.0004280954770802
 40
0.0004280954770802
 40
0.0004280954770802
 10
85.26012658149055
 20
151.1714527317391
 30
0.0
 10
85.23700447379184
 20
151.1693758867538
 30
0.0
 10
85.21379781778376
 20
151.1672914475762
 30
0.0
 10
85.19050067270643
 20
151.1651988806028
 30
0.0
  0
ARC
  5
1D7
330
1F
100
AcDbEntity
  8
0
  6
Continuous
 62
     7
370
    15
100
AcDbCircle
 10
83.8247557761
 20
149.491776974
 30
0.0
 40
2.159999999999253
100
AcDbArc
 50
50.7807740842
 51
297.8684512372
  0
SPLINE
  5
1D8
330
1F
100
AcDbEntity
  8
0
  6
Continuous
 62
     7
370
    15
100
AcDbSpline
210
0.0
220
0.0
230
1.0
 70
    24
 71
     3
 72
     8
 73
     4
 74
     0
 42
0.00000001
 43
0.00000001
 12
1.0
 22
0.0
 32
0.0
 13
1.0
 23
0.0
 33
0.0
 40
0.0002082354842425
 40
0.0002082354842425
 40
0.0002082354842425
 40
0.0002082354842425
 40
0.0003884755548512
 40
0.0003884755548512
 40
0.0003884755548512
 40
0.0003884755548512
 10
84.85943547428177
 20
147.5698126321884
 30
0.0
 10
84.85111004954948
 20
147.5739663703164
 30
0.0
 10
84.84277595715514
 20
147.5781244329322
 30
0.0
 10
84.83443290593885
 20
147.5822869653021
 30
0.0
  0
LINE
  5
1D9
330
1F
100
AcDbEntity
  8
0
  6
Continuous
 62
     7
370
    15
100
AcDbLine
 10
85.2604932051
 20
151.1718828009
 30
0.0
 11
85.2601266365
 21
151.1714527161
 31
0.0
  0
LINE
  5
1DA
330
1F
100
AcDbEntity
  8
0
  6
Continuous
 62
     7
370
    15
100
AcDbLine
 10
52.0203187029
 20
173.5393684135
 30
0.0
 11
52.0250885646
 21
173.5712226258
 31
0.0
  0
LINE
  5
1DB
330
1F
100
AcDbEntity
  8
0
  6
Continuous
 62
     7
370
    15
100
AcDbLine
 10
52.0250885646
 20
173.5712226258
 30
0.0
 11
53.4754331123
 21
174.6438096986
 31
0.0
  0
LINE
  5
1DC
330
1F
100
AcDbEntity
  8
0
  6
Continuous
 62
     7
370
    15
100
AcDbLine
 10
53.4754331123
 20
174.6438096986
 30
0.0
 11
53.5190055977
 21
174.6138464437
 31
0.0
  0
LINE
  5
1DD
330
1F
100
AcDbEntity
  8
0
  6
Continuous
 62
     7
370
    15
100
AcDbLine
 10
57.8744762476
 20
130.5425774084
 30
0.0
 11
57.297148266
 21
143.7655634956
 31
0.0
  0
SPLINE
  5
1DE
330
1F
100
AcDbEntity
  8
0
  6
Continuous
 62
     7
370
    15
100
AcDbSpline
210
0.0
220
0.0
230
1.0
 70
    24
 71
     3
 72
     8
 73
     4
 74
     0
 42
0.00000001
 43
0.00000001
 12
1.0
 22
0.0
 32
0.0
 13
1.0
 23
0.0
 33
0.0
 40
0.0
 40
0.0
 40
0.0
 40
0.0
 40
0.0004280954770803
 40
0.0004280954770803
 40
0.0004280954770803
 40
0.0004280954770803
 10
64.69714946973296
 20
174.381222941803
 30
0.0
 10
64.69197954246489
 20
174.3585907302105
 30
0.0
 10
64.68679071083847
 20
174.3358757616629
 30
0.0
 10
64.68158164654497
 20
174.3130722212694
 30
0.0
  0
ARC
  5
1DF
330
1F
100
AcDbEntity
  8
0
  6
Continuous
 62
     7
370
    15
100
AcDbCircle
 10
65.8510620723
 20
172.4970558299
 30
0.0
 40
2.159999999999244
100
AcDbArc
 50
122.7807740842
 51
9.8684512372
  0
SPLINE
  5
1E0
330
1F
100
AcDbEntity
  8
0
  6
Continuous
 62
     7
370
    15
100
AcDbSpline
210
0.0
220
0.0
230
1.0
 70
    24
 71
     3
 72
     8
 73
     4
 74
     0
 42
0.00000001
 43
0.00000001
 12
1.0
 22
0.0
 32
0.0
 13
1.0
 23
0.0
 33
0.0
 40
0.0002082354842425
 40
0.0002082354842425
 40
0.0002082354842425
 40
0.0002082354842425
 40
0.0003884755548514
 40
0.0003884755548514
 40
0.0003884755548514
 40
0.0003884755548514
 10
67.99869239413819
 20
172.8871750548871
 30
0.0
 10
67.99216925669691
 20
172.8805406811163
 30
0.0
 10
67.98563932796837
 20
172.8738994002492
 30
0.0
 10
67.97910237982296
 20
172.867250980266
 30
0.0
  0
LINE
  5
1E1
330
1F
100
AcDbEntity
  8
0
  6
Continuous
 62
     7
370
    15
100
AcDbLine
 10
64.6968538772
 20
174.3817042337
 30
0.0
 11
64.6971492927
 21
174.3812244163
 31
0.0
  0
LINE
  5
1E2
330
1F
100
AcDbEntity
  8
0
  6
Continuous
 62
     7
370
    15
100
AcDbLine
 10
80.5421194892
 20
162.9676874505
 30
0.0
 11
80.5738872748
 21
162.9729952441
 31
0.0
  0
LINE
  5
1E3
330
1F
100
AcDbEntity
  8
0
  6
Continuous
 62
     7
370
    15
100
AcDbLine
 10
80.5738872748
 20
162.9729952441
 30
0.0
 11
82.0421597819
 21
161.9250830041
 31
0.0
  0
LINE
  5
1E4
330
1F
100
AcDbEntity
  8
0
  6
Continuous
 62
     7
370
    15
100
AcDbLine
 10
82.0421597819
 20
161.9250830041
 30
0.0
 11
82.0271274905
 21
161.8743832932
 31
0.0
  0
LINE
  5
1E5
330
1F
100
AcDbEntity
  8
0
  6
Continuous
 62
     7
370
    15
100
AcDbLine
 10
54.1463646005
 20
146.9163471611
 30
0.0
 11
40.9233785133
 21
147.4936751426
 31
0.0
  0
LINE
  5
1E6
330
1F
100
AcDbEntity
  8
0
  6
Continuous
 62
     7
370
    15
100
AcDbLine
 10
57.297148266
 20
153.4846022503
 30
0.0
 11
57.8744762476
 21
166.7075883375
 31
0.0
  0
LINE
  5
1E7
330
1F
100
AcDbEntity
  8
0
  6
Continuous
 62
     7
370
    15
100
AcDbLine
 10
42.4907005291
 20
168.5441296325
 30
0.0
 11
42.482101069
 21
168.5751702414
 31
0.0
  0
LINE
  5
1E8
330
1F
100
AcDbEntity
  8
0
  6
Continuous
 62
     7
370
    15
100
AcDbLine
 10
42.482101069
 20
168.5751702414
 30
0.0
 11
43.3707958918
 21
170.1449345575
 31
0.0
  0
LINE
  5
1E9
330
1F
100
AcDbEntity
  8
0
  6
Continuous
 62
     7
370
    15
100
AcDbLine
 10
43.3707958918
 20
170.1449345575
 30
0.0
 11
43.4227890234
 21
170.1352845655
 31
0.0
  0
LINE
  5
1EA
330
1F
100
AcDbEntity
  8
0
  6
Continuous
 62
     7
370
    15
100
AcDbLine
 10
77.0895055394
 20
167.1319018827
 30
0.0
 11
77.1194762449
 21
167.143699132
 31
0.0
  0
LINE
  5
1EB
330
1F
100
AcDbEntity
  8
0
  6
Continuous
 62
     7
370
    15
100
AcDbLine
 10
77.1194762449
 20
167.143699132
 30
0.0
 11
78.7735364299
 21
166.4239566551
 31
0.0
  0
LINE
  5
1EC
330
1F
100
AcDbEntity
  8
0
  6
Continuous
 62
     7
370
    15
100
AcDbLine
 10
78.7735364299
 20
166.4239566551
 30
0.0
 11
78.7693730455
 21
166.3712408171
 31
0.0
  0
LINE
  5
1ED
330
1F
100
AcDbEntity
  8
0
  6
Continuous
 62
     7
370
    15
100
AcDbLine
 10
37.4696484666
 20
134.2824782954
 30
0.0
 11
37.437880681
 21
134.2771705018
 31
0.0
  0
LINE
  5
1EE
330
1F
100
AcDbEntity
  8
0
  6
Continuous
 62
     7
370
    15
100
AcDbLine
 10
37.437880681
 20
134.2771705018
 30
0.0
 11
35.9696081739
 21
135.3250827418
 31
0.0
  0
LINE
  5
1EF
330
1F
100
AcDbEntity
  8
0
  6
Continuous
 62
     7
370
    15
100
AcDbLine
 10
35.9696081739
 20
135.3250827418
 30
0.0
 11
35.9846404653
 21
135.3757824526
 31
0.0
  0
LINE
  5
1F0
330
1F
100
AcDbEntity
  8
0
  6
Continuous
 62
     7
370
    15
100
AcDbLine
 10
115.1392209691
 20
144.2901104466
 30
0.0
 11
115.1392209691
 21
145.8446256594
 31
0.0
  0
LINE
  5
1F1
330
1F
100
AcDbEntity
  8
0
  6
Continuous
 62
     7
370
    15
100
AcDbLine
 10
112.0392210198
 20
144.2901104466
 30
0.0
 11
115.1392209691
 21
144.2901104466
 31
0.0
  0
LINE
  5
1F2
330
1F
100
AcDbEntity
  8
0
  6
Continuous
 62
     7
370
    15
100
AcDbLine
 10
112.0392210198
 20
145.8446256594
 30
0.0
 11
112.0392210198
 21
144.2901104466
 31
0.0
  0
LINE
  5
1F3
330
1F
100
AcDbEntity
  8
0
  6
Continuous
 62
     7
370
    15
100
AcDbLine
 10
115.1392209691
 20
145.8446256594
 30
0.0
 11
112.0392210198
 21
145.8446256594
 31
0.0
  0
LINE
  5
1F4
330
1F
100
AcDbEntity
  8
0
  6
Continuous
 62
     7
370
    15
100
AcDbLine
 10
112.0392210198
 20
144.2901104466
 30
0.0
 11
112.0164455262
 21
144.28203737
 31
0.0
  0
SPLINE
  5
1F5
330
1F
100
AcDbEntity
  8
0
  6
Continuous
 62
     7
370
    15
100
AcDbSpline
210
0.0
220
0.0
230
1.0
 70
     8
 71
     3
 72
     8
 73
     4
 74
     0
 42
0.00000001
 43
0.00000001
 12
1.0
 22
0.0
 32
0.0
 13
1.0
 23
0.0
 33
0.0
 40
0.0
 40
0.0
 40
0.0
 40
0.0
 40
0.0002506273297516
 40
0.0002506273297516
 40
0.0002506273297516
 40
0.0002506273297516
 10
112.0164454656585
 20
144.2820373217778
 30
0.0
 10
112.0073983813521
 20
144.295887396358
 30
0.0
 10
111.9983231963801
 20
144.3097110952862
 30
0.0
 10
111.9892209944752
 20
144.3235085579252
 30
0.0
  0
LINE
  5
1F6
330
1F
100
AcDbEntity
  8
0
  6
Continuous
 62
     7
370
    15
100
AcDbLine
 10
111.9892209185
 20
144.3235084192
 30
0.0
 11
111.9892209185
 21
145.8848275022
 31
0.0
  0
LINE
  5
1F7
330
1F
100
AcDbEntity
  8
0
  6
Continuous
 62
     7
370
    15
100
AcDbLine
 10
111.9892209185
 20
145.8848275022
 30
0.0
 11
112.0392210198
 21
145.8446256594
 31
0.0
  0
LINE
  5
1F8
330
1F
100
AcDbEntity
  8
0
  6
Continuous
 62
     7
370
    15
100
AcDbLine
 10
111.9897866038
 20
146.0787130297
 30
0.0
 11
111.9892209185
 21
146.078282945
 31
0.0
  0
LINE
  5
1F9
330
1F
100
AcDbEntity
  8
0
  6
Continuous
 62
     7
370
    15
100
AcDbLine
 10
115.1886553851
 20
146.0787130297
 30
0.0
 11
111.9897866038
 21
146.0787130297
 31
0.0
  0
LINE
  5
1FA
330
1F
100
AcDbEntity
  8
0
  6
Continuous
 62
     7
370
    15
100
AcDbLine
 10
115.1892210705
 20
146.078282945
 30
0.0
 11
115.1886553851
 21
146.0787130297
 31
0.0
  0
LINE
  5
1FB
330
1F
100
AcDbEntity
  8
0
  6
Continuous
 62
     7
370
    15
100
AcDbLine
 10
115.1892210705
 20
146.078282945
 30
0.0
 11
115.1892210705
 21
145.8848275022
 31
0.0
  0
LINE
  5
1FC
330
1F
100
AcDbEntity
  8
0
  6
Continuous
 62
     7
370
    15
100
AcDbLine
 10
115.1392209691
 20
145.8446256594
 30
0.0
 11
115.1892210705
 21
145.8848275022
 31
0.0
  0
LINE
  5
1FD
330
1F
100
AcDbEntity
  8
0
  6
Continuous
 62
     7
370
    15
100
AcDbLine
 10
111.9892209185
 20
146.078282945
 30
0.0
 11
111.9892209185
 21
145.8848275022
 31
0.0
  0
LINE
  5
1FE
330
1F
100
AcDbEntity
  8
0
  6
Continuous
 62
     7
370
    15
100
AcDbLine
 10
115.1892210705
 20
145.8848275022
 30
0.0
 11
115.1892210705
 21
144.3235084192
 31
0.0
  0
SPLINE
  5
1FF
330
1F
100
AcDbEntity
  8
0
  6
Continuous
 62
     7
370
    15
100
AcDbSpline
210
0.0
220
0.0
230
1.0
 70
     8
 71
     3
 72
     8
 73
     4
 74
     0
 42
0.00000001
 43
0.00000001
 12
1.0
 22
0.0
 32
0.0
 13
1.0
 23
0.0
 33
0.0
 40
0.0
 40
0.0
 40
0.0
 40
0.0
 40
0.00025062732976
 40
0.00025062732976
 40
0.00025062732976
 40
0.00025062732976
 10
115.1892209944752
 20
144.3235085579252
 30
0.0
 10
115.1801187925699
 20
144.3097110952857
 30
0.0
 10
115.1710436075959
 20
144.2958873963576
 30
0.0
 10
115.1619965232892
 20
144.282037321777
 30
0.0
  0
LINE
  5
200
330
1F
100
AcDbEntity
  8
0
  6
Continuous
 62
     7
370
    15
100
AcDbLine
 10
115.1619964627
 20
144.28203737
 30
0.0
 11
115.1392209691
 21
144.2901104466
 31
0.0
  0
LINE
  5
201
330
1F
100
AcDbEntity
  8
0
  6
Continuous
 62
     7
370
    15
100
AcDbLine
 10
111.9897866038
 20
151.5929212571
 30
0.0
 11
111.9892209185
 21
151.5925770403
 31
0.0
  0
LINE
  5
202
330
1F
100
AcDbEntity
  8
0
  6
Continuous
 62
     7
370
    15
100
AcDbLine
 10
115.1886553851
 20
151.5929212571
 30
0.0
 11
111.9897866038
 21
151.5929212571
 31
0.0
  0
LINE
  5
203
330
1F
100
AcDbEntity
  8
0
  6
Continuous
 62
     7
370
    15
100
AcDbLine
 10
115.1892210705
 20
151.5925770403
 30
0.0
 11
115.1886553851
 21
151.5929212571
 31
0.0
  0
LINE
  5
204
330
1F
100
AcDbEntity
  8
0
  6
Continuous
 62
     7
370
    15
100
AcDbLine
 10
115.1892210705
 20
151.5925770403
 30
0.0
 11
115.1892210705
 21
151.4377204479
 31
0.0
  0
LINE
  5
205
330
1F
100
AcDbEntity
  8
0
  6
Continuous
 62
     7
370
    15
100
AcDbLine
 10
115.1392209691
 20
151.4055400864
 30
0.0
 11
115.1892210705
 21
151.4377204479
 31
0.0
  0
LINE
  5
206
330
1F
100
AcDbEntity
  8
0
  6
Continuous
 62
     7
370
    15
100
AcDbLine
 10
115.1392209691
 20
151.4055400864
 30
0.0
 11
112.0392210198
 21
151.4055400864
 31
0.0
  0
LINE
  5
207
330
1F
100
AcDbEntity
  8
0
  6
Continuous
 62
     7
370
    15
100
AcDbLine
 10
111.9892209185
 20
151.4377204479
 30
0.0
 11
112.0392210198
 21
151.4055400864
 31
0.0
  0
LINE
  5
208
330
1F
100
AcDbEntity
  8
0
  6
Continuous
 62
     7
370
    15
100
AcDbLine
 10
111.9892209185
 20
151.5925770403
 30
0.0
 11
111.9892209185
 21
151.4377204479
 31
0.0
  0
LINE
  5
209
330
1F
100
AcDbEntity
  8
0
  6
Continuous
 62
     7
370
    15
100
AcDbLine
 10
112.0392210198
 20
151.4055400864
 30
0.0
 11
112.0392210198
 21
149.6947327406
 31
0.0
  0
LINE
  5
20A
330
1F
100
AcDbEntity
  8
0
  6
Continuous
 62
     7
370
    15
100
AcDbLine
 10
112.0392210198
 20
149.6947327406
 30
0.0
 11
112.0164455262
 21
149.6803531201
 31
0.0
  0
SPLINE
  5
20B
330
1F
100
AcDbEntity
  8
0
  6
Continuous
 62
     7
370
    15
100
AcDbSpline
210
0.0
220
0.0
230
1.0
 70
     8
 71
     3
 72
     8
 73
     4
 74
     0
 42
0.00000001
 43
0.00000001
 12
1.0
 22
0.0
 32
0.0
 13
1.0
 23
0.0
 33
0.0
 40
0.0
 40
0.0
 40
0.0
 40
0.0
 40
0.0002506273297515
 40
0.0002506273297515
 40
0.0002506273297515
 40
0.0002506273297515
 10
112.0164454656585
 20
149.6803531136694
 30
0.0
 10
112.0073983813521
 20
149.6934129661101
 30
0.0
 10
111.9983231963801
 20
149.7064370114528
 30
0.0
 10
111.9892209944752
 20
149.7194256645377
 30
0.0
  0
LINE
  5
20C
330
1F
100
AcDbEntity
  8
0
  6
Continuous
 62
     7
370
    15
100
AcDbLine
 10
111.9892209185
 20
149.7194256411
 30
0.0
 11
111.9892209185
 21
151.4377204479
 31
0.0
  0
LINE
  5
20D
330
1F
100
AcDbEntity
  8
0
  6
Continuous
 62
     7
370
    15
100
AcDbLine
 10
115.1392209691
 20
149.6947327406
 30
0.0
 11
115.1392209691
 21
151.4055400864
 31
0.0
  0
LINE
  5
20E
330
1F
100
AcDbEntity
  8
0
  6
Continuous
 62
     7
370
    15
100
AcDbLine
 10
112.0392210198
 20
149.6947327406
 30
0.0
 11
115.1392209691
 21
149.6947327406
 31
0.0
  0
LINE
  5
20F
330
1F
100
AcDbEntity
  8
0
  6
Continuous
 62
     7
370
    15
100
AcDbLine
 10
115.1892210705
 20
151.4377204479
 30
0.0
 11
115.1892210705
 21
149.7194256411
 31
0.0
  0
SPLINE
  5
210
330
1F
100
AcDbEntity
  8
0
  6
Continuous
 62
     7
370
    15
100
AcDbSpline
210
0.0
220
0.0
230
1.0
 70
     8
 71
     3
 72
     8
 73
     4
 74
     0
 42
0.00000001
 43
0.00000001
 12
1.0
 22
0.0
 32
0.0
 13
1.0
 23
0.0
 33
0.0
 40
0.0
 40
0.0
 40
0.0
 40
0.0
 40
0.0002506273297599
 40
0.0002506273297599
 40
0.0002506273297599
 40
0.0002506273297599
 10
115.1892209944752
 20
149.7194256645377
 30
0.0
 10
115.1801187925699
 20
149.7064370114523
 30
0.0
 10
115.1710436075959
 20
149.6934129661091
 30
0.0
 10
115.1619965232892
 20
149.680353113668
 30
0.0
  0
LINE
  5
211
330
1F
100
AcDbEntity
  8
0
  6
Continuous
 62
     7
370
    15
100
AcDbLine
 10
115.1619964627
 20
149.6803531201
 30
0.0
 11
115.1392209691
 21
149.6947327406
 31
0.0
  0
LINE
  5
212
330
1F
100
AcDbEntity
  8
0
  6
Continuous
 62
     7
370
    15
100
AcDbLine
 10
112.0392210198
 20
149.6678787993
 30
0.0
 11
112.0392210198
 21
146.0849668608
 31
0.0
  0
SPLINE
  5
213
330
1F
100
AcDbEntity
  8
0
  6
Continuous
 62
     7
370
    15
100
AcDbSpline
210
0.0
220
0.0
230
1.0
 70
     8
 71
     3
 72
     8
 73
     4
 74
     0
 42
0.00000001
 43
0.00000001
 12
1.0
 22
0.0
 32
0.0
 13
1.0
 23
0.0
 33
0.0
 40
0.0
 40
0.0
 40
0.0
 40
0.0
 40
0.00042809547708
 40
0.00042809547708
 40
0.00042809547708
 40
0.00042809547708
 10
111.9897866777326
 20
146.0787130141173
 30
0.0
 10
112.0063869560239
 20
146.0807898591026
 30
0.0
 10
112.0228692794709
 20
146.0828742982802
 30
0.0
 10
112.0392209944752
 20
146.0849668652536
 30
0.0
  0
SPLINE
  5
214
330
1F
100
AcDbEntity
  8
0
  6
Continuous
 62
     7
370
    15
100
AcDbSpline
210
0.0
220
0.0
230
1.0
 70
     8
 71
     3
 72
     8
 73
     4
 74
     0
 42
0.00000001
 43
0.00000001
 12
1.0
 22
0.0
 32
0.0
 13
1.0
 23
0.0
 33
0.0
 40
0.0
 40
0.0
 40
0.0
 40
0.0
 40
0.0001802400706298
 40
0.0001802400706298
 40
0.0001802400706298
 40
0.0001802400706298
 10
112.0392209944752
 20
149.6678787805543
 30
0.0
 10
112.0316413176329
 20
149.6720413129246
 30
0.0
 10
112.0240493096175
 20
149.6761993755409
 30
0.0
 10
112.0164454656585
 20
149.6803531136694
 30
0.0
  0
LINE
  5
215
330
1F
100
AcDbEntity
  8
0
  6
Continuous
 62
     7
370
    15
100
AcDbLine
 10
111.9892209185
 20
146.0704963432
 30
0.0
 11
111.9892209185
 21
149.7076849231
 31
0.0
  0
SPLINE
  5
216
330
1F
100
AcDbEntity
  8
0
  6
Continuous
 62
     7
370
    15
100
AcDbSpline
210
0.0
220
0.0
230
1.0
 70
     8
 71
     3
 72
     8
 73
     4
 74
     0
 42
0.00000001
 43
0.00000001
 12
1.0
 22
0.0
 32
0.0
 13
1.0
 23
0.0
 33
0.0
 40
0.0
 40
0.0
 40
0.0
 40
0.0
 40
0.0004280954770801
 40
0.0004280954770801
 40
0.0004280954770801
 40
0.0004280954770801
 10
115.1886553112178
 20
146.0787130141173
 30
0.0
 10
115.1720550329265
 20
146.0807898591026
 30
0.0
 10
115.1555727094795
 20
146.0828742982802
 30
0.0
 10
115.1392209944752
 20
146.0849668652536
 30
0.0
  0
LINE
  5
217
330
1F
100
AcDbEntity
  8
0
  6
Continuous
 62
     7
370
    15
100
AcDbLine
 10
115.1392209691
 20
146.0849668608
 30
0.0
 11
115.1392209691
 21
149.6678787993
 31
0.0
  0
SPLINE
  5
218
330
1F
100
AcDbEntity
  8
0
  6
Continuous
 62
     7
370
    15
100
AcDbSpline
210
0.0
220
0.0
230
1.0
 70
     8
 71
     3
 72
     8
 73
     4
 74
     0
 42
0.00000001
 43
0.00000001
 12
1.0
 22
0.0
 32
0.0
 13
1.0
 23
0.0
 33
0.0
 40
0.0002082354842424
 40
0.0002082354842424
 40
0.0002082354842424
 40
0.0002082354842424
 40
0.0003884755548511
 40
0.0003884755548511
 40
0.0003884755548511
 40
0.0003884755548511
 10
115.1619965232892
 20
149.680353113668
 30
0.0
 10
115.1543926793311
 20
149.67619937554
 30
0.0
 10
115.1468006713166
 20
149.6720413129241
 30
0.0
 10
115.1392209944752
 20
149.6678787805543
 30
0.0
  0
LINE
  5
219
330
1F
100
AcDbEntity
  8
0
  6
Continuous
 62
     7
370
    15
100
AcDbLine
 10
115.1892210705
 20
149.7343896666
 30
0.0
 11
115.1892210705
 21
146.0602104442
 31
0.0
  0
LINE
  5
21A
330
1F
100
AcDbEntity
  8
0
  6
Continuous
 62
     7
370
    15
100
AcDbLine
 10
112.0392210198
 20
146.0849668608
 30
0.0
 11
115.1392209691
 21
146.0849668608
 31
0.0
  0
LINE
  5
21B
330
1F
100
AcDbEntity
  8
0
  6
Continuous
 62
     7
370
    15
100
AcDbLine
 10
112.0392210198
 20
155.0151485727
 30
0.0
 11
112.0392210198
 21
151.5929212571
 31
0.0
  0
SPLINE
  5
21C
330
1F
100
AcDbEntity
  8
0
  6
Continuous
 62
     7
370
    15
100
AcDbSpline
210
0.0
220
0.0
230
1.0
 70
     8
 71
     3
 72
     8
 73
     4
 74
     0
 42
0.00000001
 43
0.00000001
 12
1.0
 22
0.0
 32
0.0
 13
1.0
 23
0.0
 33
0.0
 40
0.0
 40
0.0
 40
0.0
 40
0.0
 40
0.0002506273297516
 40
0.0002506273297516
 40
0.0002506273297516
 40
0.0002506273297516
 10
112.0164454656585
 20
155.0325485322923
 30
0.0
 10
112.0073983813521
 20
155.0442473843737
 30
0.0
 10
111.9983231963801
 20
155.055902562853
 30
0.0
 10
111.9892209944752
 20
155.0675147399176
 30
0.0
  0
SPLINE
  5
21D
330
1F
100
AcDbEntity
  8
0
  6
Continuous
 62
     7
370
    15
100
AcDbSpline
210
0.0
220
0.0
230
1.0
 70
     8
 71
     3
 72
     8
 73
     4
 74
     0
 42
0.00000001
 43
0.00000001
 12
1.0
 22
0.0
 32
0.0
 13
1.0
 23
0.0
 33
0.0
 40
0.0
 40
0.0
 40
0.0
 40
0.0
 40
0.0001802400706297
 40
0.0001802400706297
 40
0.0001802400706297
 40
0.0001802400706297
 10
112.0392209944752
 20
155.0151484670253
 30
0.0
 10
112.0316413176329
 20
155.0209546559615
 30
0.0
 10
112.0240493096175
 20
155.0267546101747
 30
0.0
 10
112.0164454656585
 20
155.0325485322923
 30
0.0
  0
LINE
  5
21E
330
1F
100
AcDbEntity
  8
0
  6
Continuous
 62
     7
370
    15
100
AcDbLine
 10
111.9892209185
 20
151.5925770403
 30
0.0
 11
111.9892209185
 21
155.0634581373
 31
0.0
  0
LINE
  5
21F
330
1F
100
AcDbEntity
  8
0
  6
Continuous
 62
     7
370
    15
100
AcDbLine
 10
115.1392209691
 20
151.5929212571
 30
0.0
 11
115.1392209691
 21
155.0151485727
 31
0.0
  0
SPLINE
  5
220
330
1F
100
AcDbEntity
  8
0
  6
Continuous
 62
     7
370
    15
100
AcDbSpline
210
0.0
220
0.0
230
1.0
 70
     8
 71
     3
 72
     8
 73
     4
 74
     0
 42
0.00000001
 43
0.00000001
 12
1.0
 22
0.0
 32
0.0
 13
1.0
 23
0.0
 33
0.0
 40
0.0002082354842425
 40
0.0002082354842425
 40
0.0002082354842425
 40
0.0002082354842425
 40
0.0003884755548513
 40
0.0003884755548513
 40
0.0003884755548513
 40
0.0003884755548513
 10
115.1619965232893
 20
155.0325485322902
 30
0.0
 10
115.1543926793311
 20
155.0267546101734
 30
0.0
 10
115.1468006713166
 20
155.0209546559608
 30
0.0
 10
115.1392209944752
 20
155.0151484670253
 30
0.0
  0
SPLINE
  5
221
330
1F
100
AcDbEntity
  8
0
  6
Continuous
 62
     7
370
    15
100
AcDbSpline
210
0.0
220
0.0
230
1.0
 70
     8
 71
     3
 72
     8
 73
     4
 74
     0
 42
0.00000001
 43
0.00000001
 12
1.0
 22
0.0
 32
0.0
 13
1.0
 23
0.0
 33
0.0
 40
0.0
 40
0.0
 40
0.0
 40
0.0
 40
0.0002506273297598
 40
0.0002506273297598
 40
0.0002506273297598
 40
0.0002506273297598
 10
115.1892209944752
 20
155.0675147399176
 30
0.0
 10
115.1801187925699
 20
155.0559025628527
 30
0.0
 10
115.1710436075959
 20
155.044247384372
 30
0.0
 10
115.1619965232893
 20
155.0325485322902
 30
0.0
  0
LINE
  5
222
330
1F
100
AcDbEntity
  8
0
  6
Continuous
 62
     7
370
    15
100
AcDbLine
 10
115.1892210705
 20
155.0675149785
 30
0.0
 11
115.1892210705
 21
151.5925770403
 31
0.0
  0
LINE
  5
223
330
1F
100
AcDbEntity
  8
0
  6
Continuous
 62
     7
370
    15
100
AcDbLine
 10
115.1392209691
 20
149.6678787993
 30
0.0
 11
112.0392210198
 21
149.6678787993
 31
0.0
  0
LINE
  5
224
330
1F
100
AcDbEntity
  8
0
  6
Continuous
 62
     7
370
    15
100
AcDbLine
 10
115.1392209691
 20
155.0151485727
 30
0.0
 11
112.0392210198
 21
155.0151485727
 31
0.0
  0
SPLINE
  5
225
330
1F
100
AcDbEntity
  8
0
  6
Continuous
 62
     7
370
    15
100
AcDbSpline
210
0.0
220
0.0
230
1.0
 70
     8
 71
     3
 72
     8
 73
     4
 74
     0
 42
0.00000001
 43
0.00000001
 12
1.0
 22
0.0
 32
0.0
 13
1.0
 23
0.0
 33
0.0
 40
0.0002082354842424
 40
0.0002082354842424
 40
0.0002082354842424
 40
0.0002082354842424
 40
0.0003884755548512
 40
0.0003884755548512
 40
0.0003884755548512
 40
0.0003884755548512
 10
115.1619965232892
 20
144.282037321777
 30
0.0
 10
115.1543926793311
 20
144.2797053059259
 30
0.0
 10
115.1468006713166
 20
144.2773708621956
 30
0.0
 10
115.1392209944752
 20
144.27503390903
 30
0.0
  0
LINE
  5
226
330
1F
100
AcDbEntity
  8
0
  6
Continuous
 62
     7
370
    15
100
AcDbLine
 10
115.1392209691
 20
144.2750338243
 30
0.0
 11
112.0392210198
 21
144.2750338243
 31
0.0
  0
SPLINE
  5
227
330
1F
100
AcDbEntity
  8
0
  6
Continuous
 62
     7
370
    15
100
AcDbSpline
210
0.0
220
0.0
230
1.0
 70
     8
 71
     3
 72
     8
 73
     4
 74
     0
 42
0.00000001
 43
0.00000001
 12
1.0
 22
0.0
 32
0.0
 13
1.0
 23
0.0
 33
0.0
 40
0.0
 40
0.0
 40
0.0
 40
0.0
 40
0.0001802400706297
 40
0.0001802400706297
 40
0.0001802400706297
 40
0.0001802400706297
 10
112.0392209944752
 20
144.27503390903
 30
0.0
 10
112.0316413176329
 20
144.2773708621959
 30
0.0
 10
112.0240493096175
 20
144.2797053059264
 30
0.0
 10
112.0164454656585
 20
144.2820373217778
 30
0.0
  0
LINE
  5
228
330
1F
100
AcDbEntity
  8
0
  6
Continuous
 62
     7
370
    15
100
AcDbLine
 10
112.0392210198
 20
144.2750338243
 30
0.0
 11
112.0392210198
 21
140.6963865982
 31
0.0
  0
SPLINE
  5
229
330
1F
100
AcDbEntity
  8
0
  6
Continuous
 62
     7
370
    15
100
AcDbSpline
210
0.0
220
0.0
230
1.0
 70
     8
 71
     3
 72
     8
 73
     4
 74
     0
 42
0.00000001
 43
0.00000001
 12
1.0
 22
0.0
 32
0.0
 13
1.0
 23
0.0
 33
0.0
 40
0.0
 40
0.0
 40
0.0
 40
0.0
 40
0.0004280954770802
 40
0.0004280954770802
 40
0.0004280954770802
 40
0.0004280954770802
 10
111.9897866777326
 20
140.6757933340994
 30
0.0
 10
112.0063869560239
 20
140.6826321515458
 30
0.0
 10
112.0228692794709
 20
140.6894959758151
 30
0.0
 10
112.0392209944752
 20
140.6963865640037
 30
0.0
  0
LINE
  5
22A
330
1F
100
AcDbEntity
  8
0
  6
Continuous
 62
     7
370
    15
100
AcDbLine
 10
111.9897866038
 20
140.6757931934
 30
0.0
 11
111.9892209185
 21
140.6752962397
 31
0.0
  0
LINE
  5
22B
330
1F
100
AcDbEntity
  8
0
  6
Continuous
 62
     7
370
    15
100
AcDbLine
 10
111.9892209185
 20
140.6752962397
 30
0.0
 11
111.9892209185
 21
144.3235084192
 31
0.0
  0
LINE
  5
22C
330
1F
100
AcDbEntity
  8
0
  6
Continuous
 62
     7
370
    15
100
AcDbLine
 10
115.1892210705
 20
140.6752962397
 30
0.0
 11
115.1886553851
 21
140.6757931934
 31
0.0
  0
SPLINE
  5
22D
330
1F
100
AcDbEntity
  8
0
  6
Continuous
 62
     7
370
    15
100
AcDbSpline
210
0.0
220
0.0
230
1.0
 70
     8
 71
     3
 72
     8
 73
     4
 74
     0
 42
0.00000001
 43
0.00000001
 12
1.0
 22
0.0
 32
0.0
 13
1.0
 23
0.0
 33
0.0
 40
0.0
 40
0.0
 40
0.0
 40
0.0
 40
0.0004280954770802
 40
0.0004280954770802
 40
0.0004280954770802
 40
0.0004280954770802
 10
115.1886553112178
 20
140.6757933340994
 30
0.0
 10
115.1720550329265
 20
140.6826321515458
 30
0.0
 10
115.1555727094795
 20
140.6894959758151
 30
0.0
 10
115.1392209944752
 20
140.6963865640037
 30
0.0
  0
LINE
  5
22E
330
1F
100
AcDbEntity
  8
0
  6
Continuous
 62
     7
370
    15
100
AcDbLine
 10
115.1392209691
 20
140.6963865982
 30
0.0
 11
115.1392209691
 21
144.2878998594
 31
0.0
  0
LINE
  5
22F
330
1F
100
AcDbEntity
  8
0
  6
Continuous
 62
     7
370
    15
100
AcDbLine
 10
115.1892210705
 20
144.3235084192
 30
0.0
 11
115.1892210705
 21
140.6752962397
 31
0.0
  0
LINE
  5
230
330
1F
100
AcDbEntity
  8
0
  6
Continuous
 62
     7
370
    15
100
AcDbLine
 10
112.0392210198
 20
140.6963865982
 30
0.0
 11
115.1392209691
 21
140.6963865982
 31
0.0
  0
LINE
  5
231
330
1F
100
AcDbEntity
  8
0
  6
Continuous
 62
     7
370
    15
100
AcDbLine
 10
115.1392209691
 20
139.0749472902
 30
0.0
 11
115.1392209691
 21
140.4052305744
 31
0.0
  0
LINE
  5
232
330
1F
100
AcDbEntity
  8
0
  6
Continuous
 62
     7
370
    15
100
AcDbLine
 10
112.0392210198
 20
139.0749472902
 30
0.0
 11
115.1392209691
 21
139.0749472902
 31
0.0
  0
LINE
  5
233
330
1F
100
AcDbEntity
  8
0
  6
Continuous
 62
     7
370
    15
100
AcDbLine
 10
112.0392210198
 20
140.4052305744
 30
0.0
 11
112.0392210198
 21
139.0749472902
 31
0.0
  0
LINE
  5
234
330
1F
100
AcDbEntity
  8
0
  6
Continuous
 62
     7
370
    15
100
AcDbLine
 10
115.1392209691
 20
140.4052305744
 30
0.0
 11
112.0392210198
 21
140.4052305744
 31
0.0
  0
LINE
  5
235
330
1F
100
AcDbEntity
  8
0
  6
Continuous
 62
     7
370
    15
100
AcDbLine
 10
112.0392210198
 20
139.0749472902
 30
0.0
 11
112.0164455262
 21
139.07353317
 31
0.0
  0
SPLINE
  5
236
330
1F
100
AcDbEntity
  8
0
  6
Continuous
 62
     7
370
    15
100
AcDbSpline
210
0.0
220
0.0
230
1.0
 70
     8
 71
     3
 72
     8
 73
     4
 74
     0
 42
0.00000001
 43
0.00000001
 12
1.0
 22
0.0
 32
0.0
 13
1.0
 23
0.0
 33
0.0
 40
0.0
 40
0.0
 40
0.0
 40
0.0
 40
0.0002506273297517
 40
0.0002506273297517
 40
0.0002506273297517
 40
0.0002506273297517
 10
112.0164454656585
 20
139.0735334607162
 30
0.0
 10
112.0073983813522
 20
139.0875684427167
 30
0.0
 10
111.9983231963801
 20
139.1015876332538
 30
0.0
 10
111.9892209944752
 20
139.115590890122
 30
0.0
  0
LINE
  5
237
330
1F
100
AcDbEntity
  8
0
  6
Continuous
 62
     7
370
    15
100
AcDbLine
 10
111.9892209185
 20
140.4516968654
 30
0.0
 11
112.0392210198
 21
140.4052305744
 31
0.0
  0
LINE
  5
238
330
1F
100
AcDbEntity
  8
0
  6
Continuous
 62
     7
370
    15
100
AcDbLine
 10
111.9892209185
 20
139.1155909525
 30
0.0
 11
111.9892209185
 21
140.4516968654
 31
0.0
  0
LINE
  5
239
330
1F
100
AcDbEntity
  8
0
  6
Continuous
 62
     7
370
    15
100
AcDbLine
 10
115.1886553851
 20
140.6757931934
 30
0.0
 11
111.9897866038
 21
140.6757931934
 31
0.0
  0
LINE
  5
23A
330
1F
100
AcDbEntity
  8
0
  6
Continuous
 62
     7
370
    15
100
AcDbLine
 10
115.1392209691
 20
140.4052305744
 30
0.0
 11
115.1892210705
 21
140.4516968654
 31
0.0
  0
LINE
  5
23B
330
1F
100
AcDbEntity
  8
0
  6
Continuous
 62
     7
370
    15
100
AcDbLine
 10
115.1892210705
 20
140.6752962397
 30
0.0
 11
115.1892210705
 21
140.4516968654
 31
0.0
  0
LINE
  5
23C
330
1F
100
AcDbEntity
  8
0
  6
Continuous
 62
     7
370
    15
100
AcDbLine
 10
111.9892209185
 20
140.6752962397
 30
0.0
 11
111.9892209185
 21
140.4516968654
 31
0.0
  0
SPLINE
  5
23D
330
1F
100
AcDbEntity
  8
0
  6
Continuous
 62
     7
370
    15
100
AcDbSpline
210
0.0
220
0.0
230
1.0
 70
     8
 71
     3
 72
     8
 73
     4
 74
     0
 42
0.00000001
 43
0.00000001
 12
1.0
 22
0.0
 32
0.0
 13
1.0
 23
0.0
 33
0.0
 40
0.0
 40
0.0
 40
0.0
 40
0.0
 40
0.00025062732976
 40
0.00025062732976
 40
0.00025062732976
 40
0.00025062732976
 10
115.1892209944752
 20
139.115590890122
 30
0.0
 10
115.1801187925699
 20
139.1015876332533
 30
0.0
 10
115.1710436075959
 20
139.087568442717
 30
0.0
 10
115.1619965232892
 20
139.073533460716
 30
0.0
  0
LINE
  5
23E
330
1F
100
AcDbEntity
  8
0
  6
Continuous
 62
     7
370
    15
100
AcDbLine
 10
115.1619964627
 20
139.07353317
 30
0.0
 11
115.1392209691
 21
139.0749472902
 31
0.0
  0
LINE
  5
23F
330
1F
100
AcDbEntity
  8
0
  6
Continuous
 62
     7
370
    15
100
AcDbLine
 10
115.1892210705
 20
140.4516968654
 30
0.0
 11
115.1892210705
 21
139.1155909525
 31
0.0
  0
LINE
  5
240
330
1F
100
AcDbEntity
  8
0
  6
Continuous
 62
     7
370
    15
100
AcDbLine
 10
115.1392209691
 20
155.0526063667
 30
0.0
 11
115.1392209691
 21
156.8449351714
 31
0.0
  0
LINE
  5
241
330
1F
100
AcDbEntity
  8
0
  6
Continuous
 62
     7
370
    15
100
AcDbLine
 10
112.0392210198
 20
155.0526063667
 30
0.0
 11
115.1392209691
 21
155.0526063667
 31
0.0
  0
LINE
  5
242
330
1F
100
AcDbEntity
  8
0
  6
Continuous
 62
     7
370
    15
100
AcDbLine
 10
112.0392210198
 20
156.8449351714
 30
0.0
 11
112.0392210198
 21
155.0526063667
 31
0.0
  0
LINE
  5
243
330
1F
100
AcDbEntity
  8
0
  6
Continuous
 62
     7
370
    15
100
AcDbLine
 10
115.1392209691
 20
156.8449351714
 30
0.0
 11
112.0392210198
 21
156.8449351714
 31
0.0
  0
LINE
  5
244
330
1F
100
AcDbEntity
  8
0
  6
Continuous
 62
     7
370
    15
100
AcDbLine
 10
111.9897866038
 20
156.9774206505
 30
0.0
 11
111.9892209185
 21
156.9771770166
 31
0.0
  0
LINE
  5
245
330
1F
100
AcDbEntity
  8
0
  6
Continuous
 62
     7
370
    15
100
AcDbLine
 10
115.1886553851
 20
156.9774206505
 30
0.0
 11
111.9897866038
 21
156.9774206505
 31
0.0
  0
LINE
  5
246
330
1F
100
AcDbEntity
  8
0
  6
Continuous
 62
     7
370
    15
100
AcDbLine
 10
115.1892210705
 20
156.9771770166
 30
0.0
 11
115.1886553851
 21
156.9774206505
 31
0.0
  0
LINE
  5
247
330
1F
100
AcDbEntity
  8
0
  6
Continuous
 62
     7
370
    15
100
AcDbLine
 10
115.1392209691
 20
156.8449351714
 30
0.0
 11
115.1892210705
 21
156.8676877545
 31
0.0
  0
LINE
  5
248
330
1F
100
AcDbEntity
  8
0
  6
Continuous
 62
     7
370
    15
100
AcDbLine
 10
111.9892209185
 20
156.8676877545
 30
0.0
 11
112.0392210198
 21
156.8449351714
 31
0.0
  0
LINE
  5
249
330
1F
100
AcDbEntity
  8
0
  6
Continuous
 62
     7
370
    15
100
AcDbLine
 10
115.1892210705
 20
156.9771770166
 30
0.0
 11
115.1892210705
 21
156.8676877545
 31
0.0
  0
LINE
  5
24A
330
1F
100
AcDbEntity
  8
0
  6
Continuous
 62
     7
370
    15
100
AcDbLine
 10
111.9892209185
 20
156.9771770166
 30
0.0
 11
111.9892209185
 21
156.8676877545
 31
0.0
  0
LINE
  5
24B
330
1F
100
AcDbEntity
  8
0
  6
Continuous
 62
     7
370
    15
100
AcDbLine
 10
112.0392210198
 20
155.0526063667
 30
0.0
 11
112.0164455262
 21
155.0325486587
 31
0.0
  0
LINE
  5
24C
330
1F
100
AcDbEntity
  8
0
  6
Continuous
 62
     7
370
    15
100
AcDbLine
 10
111.9892209185
 20
155.0675149785
 30
0.0
 11
111.9892209185
 21
156.8676877545
 31
0.0
  0
LINE
  5
24D
330
1F
100
AcDbEntity
  8
0
  6
Continuous
 62
     7
370
    15
100
AcDbLine
 10
115.1619964627
 20
155.0325486587
 30
0.0
 11
115.1392209691
 21
155.0526063667
 31
0.0
  0
LINE
  5
24E
330
1F
100
AcDbEntity
  8
0
  6
Continuous
 62
     7
370
    15
100
AcDbLine
 10
115.1892210705
 20
156.8676877545
 30
0.0
 11
115.1892210705
 21
155.0675149785
 31
0.0
  0
LINE
  5
24F
330
1F
100
AcDbEntity
  8
0
  6
Continuous
 62
     7
370
    15
100
AcDbLine
 10
112.0392210198
 20
160.0831415282
 30
0.0
 11
112.0392210198
 21
156.9774206505
 31
0.0
  0
SPLINE
  5
250
330
1F
100
AcDbEntity
  8
0
  6
Continuous
 62
     7
370
    15
100
AcDbSpline
210
0.0
220
0.0
230
1.0
 70
     8
 71
     3
 72
     8
 73
     4
 74
     0
 42
0.00000001
 43
0.00000001
 12
1.0
 22
0.0
 32
0.0
 13
1.0
 23
0.0
 33
0.0
 40
0.0
 40
0.0
 40
0.0
 40
0.0
 40
0.0002506273297517
 40
0.0002506273297517
 40
0.0002506273297517
 40
0.0002506273297517
 10
112.0164454656585
 20
160.1047069551694
 30
0.0
 10
112.0073983813521
 20
160.1145335109182
 30
0.0
 10
111.9983231963801
 20
160.124310435307
 30
0.0
 10
111.9892209944752
 20
160.1340386284921
 30
0.0
  0
SPLINE
  5
251
330
1F
100
AcDbEntity
  8
0
  6
Continuous
 62
     7
370
    15
100
AcDbSpline
210
0.0
220
0.0
230
1.0
 70
     8
 71
     3
 72
     8
 73
     4
 74
     0
 42
0.00000001
 43
0.00000001
 12
1.0
 22
0.0
 32
0.0
 13
1.0
 23
0.0
 33
0.0
 40
0.0
 40
0.0
 40
0.0
 40
0.0
 40
0.0001802400706297
 40
0.0001802400706297
 40
0.0001802400706297
 40
0.0001802400706297
 10
112.0392209944752
 20
160.0831416240976
 30
0.0
 10
112.0316413176329
 20
160.090337711282
 30
0.0
 10
112.0240493096175
 20
160.0975260712617
 30
0.0
 10
112.0164454656585
 20
160.1047069551694
 30
0.0
  0
LINE
  5
252
330
1F
100
AcDbEntity
  8
0
  6
Continuous
 62
     7
370
    15
100
AcDbLine
 10
111.9892209185
 20
156.9771770166
 30
0.0
 11
111.9892209185
 21
160.1340386794
 31
0.0
  0
LINE
  5
253
330
1F
100
AcDbEntity
  8
0
  6
Continuous
 62
     7
370
    15
100
AcDbLine
 10
115.1392209691
 20
156.9774206505
 30
0.0
 11
115.1392209691
 21
160.0831415282
 31
0.0
  0
SPLINE
  5
254
330
1F
100
AcDbEntity
  8
0
  6
Continuous
 62
     7
370
    15
100
AcDbSpline
210
0.0
220
0.0
230
1.0
 70
     8
 71
     3
 72
     8
 73
     4
 74
     0
 42
0.00000001
 43
0.00000001
 12
1.0
 22
0.0
 32
0.0
 13
1.0
 23
0.0
 33
0.0
 40
0.0002082354842424
 40
0.0002082354842424
 40
0.0002082354842424
 40
0.0002082354842424
 40
0.0003884755548512
 40
0.0003884755548512
 40
0.0003884755548512
 40
0.0003884755548512
 10
115.1619965232892
 20
160.1047069551668
 30
0.0
 10
115.1543926793311
 20
160.09752607126
 30
0.0
 10
115.1468006713166
 20
160.0903377112811
 30
0.0
 10
115.1392209944752
 20
160.0831416240976
 30
0.0
  0
SPLINE
  5
255
330
1F
100
AcDbEntity
  8
0
  6
Continuous
 62
     7
370
    15
100
AcDbSpline
210
0.0
220
0.0
230
1.0
 70
     8
 71
     3
 72
     8
 73
     4
 74
     0
 42
0.00000001
 43
0.00000001
 12
1.0
 22
0.0
 32
0.0
 13
1.0
 23
0.0
 33
0.0
 40
0.0
 40
0.0
 40
0.0
 40
0.0
 40
0.00025062732976
 40
0.00025062732976
 40
0.00025062732976
 40
0.00025062732976
 10
115.1892209944752
 20
160.1340386284921
 30
0.0
 10
115.1801187925699
 20
160.1243104353067
 30
0.0
 10
115.1710436075959
 20
160.114533510916
 30
0.0
 10
115.1619965232892
 20
160.1047069551669
 30
0.0
  0
LINE
  5
256
330
1F
100
AcDbEntity
  8
0
  6
Continuous
 62
     7
370
    15
100
AcDbLine
 10
115.1892210705
 20
160.1340386794
 30
0.0
 11
115.1892210705
 21
156.9771770166
 31
0.0
  0
LINE
  5
257
330
1F
100
AcDbEntity
  8
0
  6
Continuous
 62
     7
370
    15
100
AcDbLine
 10
115.1392209691
 20
160.0831415282
 30
0.0
 11
112.0392210198
 21
160.0831415282
 31
0.0
  0
SPLINE
  5
258
330
1F
100
AcDbEntity
  8
0
  6
Continuous
 62
     7
370
    15
100
AcDbSpline
210
0.0
220
0.0
230
1.0
 70
     8
 71
     3
 72
     8
 73
     4
 74
     0
 42
0.00000001
 43
0.00000001
 12
1.0
 22
0.0
 32
0.0
 13
1.0
 23
0.0
 33
0.0
 40
0.0002082354842424
 40
0.0002082354842424
 40
0.0002082354842424
 40
0.0002082354842424
 40
0.0003884755548511
 40
0.0003884755548511
 40
0.0003884755548511
 40
0.0003884755548511
 10
115.1619965232892
 20
139.073533460716
 30
0.0
 10
115.1543926793311
 20
139.0731250874247
 30
0.0
 10
115.1468006713166
 20
139.072716288973
 30
0.0
 10
115.1392209944752
 20
139.0723070510789
 30
0.0
  0
LINE
  5
259
330
1F
100
AcDbEntity
  8
0
  6
Continuous
 62
     7
370
    15
100
AcDbLine
 10
115.1392209691
 20
139.0723068045
 30
0.0
 11
112.0392210198
 21
139.0723068045
 31
0.0
  0
SPLINE
  5
25A
330
1F
100
AcDbEntity
  8
0
  6
Continuous
 62
     7
370
    15
100
AcDbSpline
210
0.0
220
0.0
230
1.0
 70
     8
 71
     3
 72
     8
 73
     4
 74
     0
 42
0.00000001
 43
0.00000001
 12
1.0
 22
0.0
 32
0.0
 13
1.0
 23
0.0
 33
0.0
 40
0.0
 40
0.0
 40
0.0
 40
0.0
 40
0.0001802400706296
 40
0.0001802400706296
 40
0.0001802400706296
 40
0.0001802400706296
 10
112.0392209944752
 20
139.0723070510789
 30
0.0
 10
112.0316413176329
 20
139.072716288973
 30
0.0
 10
112.0240493096175
 20
139.0731250874248
 30
0.0
 10
112.0164454656585
 20
139.0735334607162
 30
0.0
  0
LINE
  5
25B
330
1F
100
AcDbEntity
  8
0
  6
Continuous
 62
     7
370
    15
100
AcDbLine
 10
115.1892210705
 20
135.6197532044
 30
0.0
 11
115.1886553851
 21
135.6202956067
 31
0.0
  0
SPLINE
  5
25C
330
1F
100
AcDbEntity
  8
0
  6
Continuous
 62
     7
370
    15
100
AcDbSpline
210
0.0
220
0.0
230
1.0
 70
     8
 71
     3
 72
     8
 73
     4
 74
     0
 42
0.00000001
 43
0.00000001
 12
1.0
 22
0.0
 32
0.0
 13
1.0
 23
0.0
 33
0.0
 40
0.0
 40
0.0
 40
0.0
 40
0.0
 40
0.0004280954770801
 40
0.0004280954770801
 40
0.0004280954770801
 40
0.0004280954770801
 10
115.1886553112178
 20
135.6202957518516
 30
0.0
 10
115.1720550329265
 20
135.6315976526204
 30
0.0
 10
115.1555727094795
 20
135.6429408799246
 30
0.0
 10
115.1392209944752
 20
135.6543283375599
 30
0.0
  0
LINE
  5
25D
330
1F
100
AcDbEntity
  8
0
  6
Continuous
 62
     7
370
    15
100
AcDbLine
 10
115.1392209691
 20
135.6543283687
 30
0.0
 11
115.1392209691
 21
139.0761162863
 31
0.0
  0
LINE
  5
25E
330
1F
100
AcDbEntity
  8
0
  6
Continuous
 62
     7
370
    15
100
AcDbLine
 10
115.1892210705
 20
139.1155909525
 30
0.0
 11
115.1892210705
 21
135.6197532044
 31
0.0
  0
LINE
  5
25F
330
1F
100
AcDbEntity
  8
0
  6
Continuous
 62
     7
370
    15
100
AcDbLine
 10
112.0392210198
 20
139.0723068045
 30
0.0
 11
112.0392210198
 21
135.6543283687
 31
0.0
  0
SPLINE
  5
260
330
1F
100
AcDbEntity
  8
0
  6
Continuous
 62
     7
370
    15
100
AcDbSpline
210
0.0
220
0.0
230
1.0
 70
     8
 71
     3
 72
     8
 73
     4
 74
     0
 42
0.00000001
 43
0.00000001
 12
1.0
 22
0.0
 32
0.0
 13
1.0
 23
0.0
 33
0.0
 40
0.0
 40
0.0
 40
0.0
 40
0.0
 40
0.0004280954770801
 40
0.0004280954770801
 40
0.0004280954770801
 40
0.0004280954770801
 10
111.9897866777326
 20
135.6202957518516
 30
0.0
 10
112.0063869560239
 20
135.6315976526204
 30
0.0
 10
112.0228692794709
 20
135.6429408799246
 30
0.0
 10
112.0392209944752
 20
135.6543283375599
 30
0.0
  0
LINE
  5
261
330
1F
100
AcDbEntity
  8
0
  6
Continuous
 62
     7
370
    15
100
AcDbLine
 10
111.9897866038
 20
135.6202956067
 30
0.0
 11
111.9892209185
 21
135.6197532044
 31
0.0
  0
LINE
  5
262
330
1F
100
AcDbEntity
  8
0
  6
Continuous
 62
     7
370
    15
100
AcDbLine
 10
111.9892209185
 20
135.6197532044
 30
0.0
 11
111.9892209185
 21
139.1258660482
 31
0.0
  0
LINE
  5
263
330
1F
100
AcDbEntity
  8
0
  6
Continuous
 62
     7
370
    15
100
AcDbLine
 10
112.0392210198
 20
135.6543283687
 30
0.0
 11
115.1392209691
 21
135.6543283687
 31
0.0
  0
LINE
  5
264
330
1F
100
AcDbEntity
  8
0
  6
Continuous
 62
     7
370
    15
100
AcDbLine
 10
115.1392209691
 20
160.1295660959
 30
0.0
 11
115.1392209691
 21
161.9250830041
 31
0.0
  0
LINE
  5
265
330
1F
100
AcDbEntity
  8
0
  6
Continuous
 62
     7
370
    15
100
AcDbLine
 10
112.0392210198
 20
160.1295660959
 30
0.0
 11
115.1392209691
 21
160.1295660959
 31
0.0
  0
LINE
  5
266
330
1F
100
AcDbEntity
  8
0
  6
Continuous
 62
     7
370
    15
100
AcDbLine
 10
112.0392210198
 20
161.9250830041
 30
0.0
 11
112.0392210198
 21
160.1295660959
 31
0.0
  0
LINE
  5
267
330
1F
100
AcDbEntity
  8
0
  6
Continuous
 62
     7
370
    15
100
AcDbLine
 10
115.1392209691
 20
161.9250830041
 30
0.0
 11
112.0392210198
 21
161.9250830041
 31
0.0
  0
LINE
  5
268
330
1F
100
AcDbEntity
  8
0
  6
Continuous
 62
     7
370
    15
100
AcDbLine
 10
112.0392210198
 20
160.1295660959
 30
0.0
 11
112.0164455262
 21
160.1047072337
 31
0.0
  0
LINE
  5
269
330
1F
100
AcDbEntity
  8
0
  6
Continuous
 62
     7
370
    15
100
AcDbLine
 10
111.9892209185
 20
161.9374137149
 30
0.0
 11
112.0392210198
 21
161.9250830041
 31
0.0
  0
LINE
  5
26A
330
1F
100
AcDbEntity
  8
0
  6
Continuous
 62
     7
370
    15
100
AcDbLine
 10
111.9892209185
 20
160.1340386794
 30
0.0
 11
111.9892209185
 21
161.9374137149
 31
0.0
  0
LINE
  5
26B
330
1F
100
AcDbEntity
  8
0
  6
Continuous
 62
     7
370
    15
100
AcDbLine
 10
115.1619964627
 20
160.1047072337
 30
0.0
 11
115.1392209691
 21
160.1295660959
 31
0.0
  0
LINE
  5
26C
330
1F
100
AcDbEntity
  8
0
  6
Continuous
 62
     7
370
    15
100
AcDbLine
 10
115.1392209691
 20
161.9250830041
 30
0.0
 11
115.1892210705
 21
161.9374137149
 31
0.0
  0
LINE
  5
26D
330
1F
100
AcDbEntity
  8
0
  6
Continuous
 62
     7
370
    15
100
AcDbLine
 10
115.1892210705
 20
161.9374137149
 30
0.0
 11
115.1892210705
 21
160.1340386794
 31
0.0
  0
LINE
  5
26E
330
1F
100
AcDbEntity
  8
0
  6
Continuous
 62
     7
370
    15
100
AcDbLine
 10
115.1886553851
 20
135.6202956067
 30
0.0
 11
111.9897866038
 21
135.6202956067
 31
0.0
  0
LINE
  5
26F
330
1F
100
AcDbEntity
  8
0
  6
Continuous
 62
     7
370
    15
100
AcDbLine
 10
115.1392209691
 20
135.3250827418
 30
0.0
 11
115.1892210705
 21
135.3757824526
 31
0.0
  0
LINE
  5
270
330
1F
100
AcDbEntity
  8
0
  6
Continuous
 62
     7
370
    15
100
AcDbLine
 10
115.1392209691
 20
135.3250827418
 30
0.0
 11
112.0392210198
 21
135.3250827418
 31
0.0
  0
LINE
  5
271
330
1F
100
AcDbEntity
  8
0
  6
Continuous
 62
     7
370
    15
100
AcDbLine
 10
111.9892209185
 20
135.3757824526
 30
0.0
 11
112.0392210198
 21
135.3250827418
 31
0.0
  0
LINE
  5
272
330
1F
100
AcDbEntity
  8
0
  6
Continuous
 62
     7
370
    15
100
AcDbLine
 10
115.1892210705
 20
135.6197532044
 30
0.0
 11
115.1892210705
 21
135.3757824526
 31
0.0
  0
LINE
  5
273
330
1F
100
AcDbEntity
  8
0
  6
Continuous
 62
     7
370
    15
100
AcDbLine
 10
111.9892209185
 20
135.6197532044
 30
0.0
 11
111.9892209185
 21
135.3757824526
 31
0.0
  0
LINE
  5
274
330
1F
100
AcDbEntity
  8
0
  6
Continuous
 62
     7
370
    15
100
AcDbLine
 10
115.1392209691
 20
134.2771705018
 30
0.0
 11
115.1392209691
 21
135.3250827418
 31
0.0
  0
LINE
  5
275
330
1F
100
AcDbEntity
  8
0
  6
Continuous
 62
     7
370
    15
100
AcDbLine
 10
112.0392210198
 20
134.2771705018
 30
0.0
 11
115.1392209691
 21
134.2771705018
 31
0.0
  0
LINE
  5
276
330
1F
100
AcDbEntity
  8
0
  6
Continuous
 62
     7
370
    15
100
AcDbLine
 10
112.0392210198
 20
135.3250827418
 30
0.0
 11
112.0392210198
 21
134.2771705018
 31
0.0
  0
LINE
  5
277
330
1F
100
AcDbEntity
  8
0
  6
Continuous
 62
     7
370
    15
100
AcDbLine
 10
112.0392210198
 20
134.2771705018
 30
0.0
 11
112.0164455262
 21
134.2824782954
 31
0.0
  0
SPLINE
  5
278
330
1F
100
AcDbEntity
  8
0
  6
Continuous
 62
     7
370
    15
100
AcDbSpline
210
0.0
220
0.0
230
1.0
 70
     8
 71
     3
 72
     8
 73
     4
 74
     0
 42
0.00000001
 43
0.00000001
 12
1.0
 22
0.0
 32
0.0
 13
1.0
 23
0.0
 33
0.0
 40
0.0
 40
0.0
 40
0.0
 40
0.0
 40
0.0002506273297516
 40
0.0002506273297516
 40
0.0002506273297516
 40
0.0002506273297516
 10
112.0164454656585
 20
134.2824781423874
 30
0.0
 10
112.0073983813521
 20
134.2960846357475
 30
0.0
 10
111.9983231963801
 20
134.3096866119955
 30
0.0
 10
111.9892209944752
 20
134.3232836535726
 30
0.0
  0
LINE
  5
279
330
1F
100
AcDbEntity
  8
0
  6
Continuous
 62
     7
370
    15
100
AcDbLine
 10
111.9892209185
 20
134.3232836352
 30
0.0
 11
111.9892209185
 21
135.3757824526
 31
0.0
  0
SPLINE
  5
27A
330
1F
100
AcDbEntity
  8
0
  6
Continuous
 62
     7
370
    15
100
AcDbSpline
210
0.0
220
0.0
230
1.0
 70
     8
 71
     3
 72
     8
 73
     4
 74
     0
 42
0.00000001
 43
0.00000001
 12
1.0
 22
0.0
 32
0.0
 13
1.0
 23
0.0
 33
0.0
 40
0.0
 40
0.0
 40
0.0
 40
0.0
 40
0.00025062732976
 40
0.00025062732976
 40
0.00025062732976
 40
0.00025062732976
 10
115.1892209944752
 20
134.3232836535726
 30
0.0
 10
115.1801187925699
 20
134.309686611995
 30
0.0
 10
115.1710436075959
 20
134.2960846357485
 30
0.0
 10
115.1619965232892
 20
134.282478142388
 30
0.0
  0
LINE
  5
27B
330
1F
100
AcDbEntity
  8
0
  6
Continuous
 62
     7
370
    15
100
AcDbLine
 10
115.1619964627
 20
134.2824782954
 30
0.0
 11
115.1392209691
 21
134.2771705018
 31
0.0
  0
LINE
  5
27C
330
1F
100
AcDbEntity
  8
0
  6
Continuous
 62
     7
370
    15
100
AcDbLine
 10
115.1892210705
 20
135.3757824526
 30
0.0
 11
115.1892210705
 21
134.3232836352
 31
0.0
  0
LINE
  5
27D
330
1F
100
AcDbEntity
  8
0
  6
Continuous
 62
     7
370
    15
100
AcDbLine
 10
111.9897866038
 20
161.9968827592
 30
0.0
 11
111.9892209185
 21
161.9967516289
 31
0.0
  0
LINE
  5
27E
330
1F
100
AcDbEntity
  8
0
  6
Continuous
 62
     7
370
    15
100
AcDbLine
 10
115.1886553851
 20
161.9968827592
 30
0.0
 11
111.9897866038
 21
161.9968827592
 31
0.0
  0
LINE
  5
27F
330
1F
100
AcDbEntity
  8
0
  6
Continuous
 62
     7
370
    15
100
AcDbLine
 10
115.1892210705
 20
161.9967516289
 30
0.0
 11
115.1886553851
 21
161.9968827592
 31
0.0
  0
LINE
  5
280
330
1F
100
AcDbEntity
  8
0
  6
Continuous
 62
     7
370
    15
100
AcDbLine
 10
115.1892210705
 20
161.9967516289
 30
0.0
 11
115.1892210705
 21
161.9374137149
 31
0.0
  0
LINE
  5
281
330
1F
100
AcDbEntity
  8
0
  6
Continuous
 62
     7
370
    15
100
AcDbLine
 10
111.9892209185
 20
161.9967516289
 30
0.0
 11
111.9892209185
 21
161.9374137149
 31
0.0
  0
LINE
  5
282
330
1F
100
AcDbEntity
  8
0
  6
Continuous
 62
     7
370
    15
100
AcDbLine
 10
112.0392210198
 20
164.6503623353
 30
0.0
 11
112.0392210198
 21
161.9968827592
 31
0.0
  0
SPLINE
  5
283
330
1F
100
AcDbEntity
  8
0
  6
Continuous
 62
     7
370
    15
100
AcDbSpline
210
0.0
220
0.0
230
1.0
 70
     8
 71
     3
 72
     8
 73
     4
 74
     0
 42
0.00000001
 43
0.00000001
 12
1.0
 22
0.0
 32
0.0
 13
1.0
 23
0.0
 33
0.0
 40
0.0
 40
0.0
 40
0.0
 40
0.0
 40
0.0002506273297516
 40
0.0002506273297516
 40
0.0002506273297516
 40
0.0002506273297516
 10
112.0164454656585
 20
164.6751507203046
 30
0.0
 10
112.0073983813521
 20
164.6826755120816
 30
0.0
 10
111.9983231963801
 20
164.6901468838691
 30
0.0
 10
111.9892209944752
 20
164.6975659244514
 30
0.0
  0
SPLINE
  5
284
330
1F
100
AcDbEntity
  8
0
  6
Continuous
 62
     7
370
    15
100
AcDbSpline
210
0.0
220
0.0
230
1.0
 70
     8
 71
     3
 72
     8
 73
     4
 74
     0
 42
0.00000001
 43
0.00000001
 12
1.0
 22
0.0
 32
0.0
 13
1.0
 23
0.0
 33
0.0
 40
0.0
 40
0.0
 40
0.0
 40
0.0
 40
0.0001802400706297
 40
0.0001802400706297
 40
0.0001802400706297
 40
0.0001802400706297
 10
112.0392209944752
 20
164.6503626318778
 30
0.0
 10
112.0316413176329
 20
164.6586341137697
 30
0.0
 10
112.0240493096175
 20
164.6668967136912
 30
0.0
 10
112.0164454656585
 20
164.6751507203046
 30
0.0
  0
LINE
  5
285
330
1F
100
AcDbEntity
  8
0
  6
Continuous
 62
     7
370
    15
100
AcDbLine
 10
111.9892209185
 20
161.9967516289
 30
0.0
 11
111.9892209185
 21
164.6975662337
 31
0.0
  0
LINE
  5
286
330
1F
100
AcDbEntity
  8
0
  6
Continuous
 62
     7
370
    15
100
AcDbLine
 10
115.1392209691
 20
161.9968827592
 30
0.0
 11
115.1392209691
 21
164.6503623353
 31
0.0
  0
SPLINE
  5
287
330
1F
100
AcDbEntity
  8
0
  6
Continuous
 62
     7
370
    15
100
AcDbSpline
210
0.0
220
0.0
230
1.0
 70
     8
 71
     3
 72
     8
 73
     4
 74
     0
 42
0.00000001
 43
0.00000001
 12
1.0
 22
0.0
 32
0.0
 13
1.0
 23
0.0
 33
0.0
 40
0.0002082354842425
 40
0.0002082354842425
 40
0.0002082354842425
 40
0.0002082354842425
 40
0.0003884755548512
 40
0.0003884755548512
 40
0.0003884755548512
 40
0.0003884755548512
 10
115.1619965232892
 20
164.6751507203017
 30
0.0
 10
115.1543926793311
 20
164.6668967136893
 30
0.0
 10
115.1468006713166
 20
164.6586341137687
 30
0.0
 10
115.1392209944752
 20
164.6503626318778
 30
0.0
  0
SPLINE
  5
288
330
1F
100
AcDbEntity
  8
0
  6
Continuous
 62
     7
370
    15
100
AcDbSpline
210
0.0
220
0.0
230
1.0
 70
     8
 71
     3
 72
     8
 73
     4
 74
     0
 42
0.00000001
 43
0.00000001
 12
1.0
 22
0.0
 32
0.0
 13
1.0
 23
0.0
 33
0.0
 40
0.0
 40
0.0
 40
0.0
 40
0.0
 40
0.00025062732976
 40
0.00025062732976
 40
0.00025062732976
 40
0.00025062732976
 10
115.1892209944752
 20
164.6975659244514
 30
0.0
 10
115.1801187925699
 20
164.6901468838689
 30
0.0
 10
115.1710436075959
 20
164.682675512079
 30
0.0
 10
115.1619965232892
 20
164.6751507203017
 30
0.0
  0
LINE
  5
289
330
1F
100
AcDbEntity
  8
0
  6
Continuous
 62
     7
370
    15
100
AcDbLine
 10
115.1892210705
 20
164.6975662337
 30
0.0
 11
115.1892210705
 21
161.9967516289
 31
0.0
  0
LINE
  5
28A
330
1F
100
AcDbEntity
  8
0
  6
Continuous
 62
     7
370
    15
100
AcDbLine
 10
115.1392209691
 20
164.6503623353
 30
0.0
 11
112.0392210198
 21
164.6503623353
 31
0.0
  0
LINE
  5
28B
330
1F
100
AcDbEntity
  8
0
  6
Continuous
 62
     7
370
    15
100
AcDbLine
 10
112.0392210198
 20
134.2771705018
 30
0.0
 11
112.0392210198
 21
131.1791550146
 31
0.0
  0
SPLINE
  5
28C
330
1F
100
AcDbEntity
  8
0
  6
Continuous
 62
     7
370
    15
100
AcDbSpline
210
0.0
220
0.0
230
1.0
 70
     8
 71
     3
 72
     8
 73
     4
 74
     0
 42
0.00000001
 43
0.00000001
 12
1.0
 22
0.0
 32
0.0
 13
1.0
 23
0.0
 33
0.0
 40
0.0
 40
0.0
 40
0.0
 40
0.0
 40
0.0004280954770802
 40
0.0004280954770802
 40
0.0004280954770802
 40
0.0004280954770802
 10
111.9897866777326
 20
131.1331697706871
 30
0.0
 10
112.0063869560239
 20
131.1484408074821
 30
0.0
 10
112.0228692794709
 20
131.1637676843571
 30
0.0
 10
112.0392209944752
 20
131.1791543248975
 30
0.0
  0
LINE
  5
28D
330
1F
100
AcDbEntity
  8
0
  6
Continuous
 62
     7
370
    15
100
AcDbLine
 10
111.9897866038
 20
131.1331700311
 30
0.0
 11
111.9892209185
 21
131.1326052771
 31
0.0
  0
LINE
  5
28E
330
1F
100
AcDbEntity
  8
0
  6
Continuous
 62
     7
370
    15
100
AcDbLine
 10
111.9892209185
 20
131.1326052771
 30
0.0
 11
111.9892209185
 21
134.3232836352
 31
0.0
  0
LINE
  5
28F
330
1F
100
AcDbEntity
  8
0
  6
Continuous
 62
     7
370
    15
100
AcDbLine
 10
115.1892210705
 20
131.1326052771
 30
0.0
 11
115.1886553851
 21
131.1331700311
 31
0.0
  0
SPLINE
  5
290
330
1F
100
AcDbEntity
  8
0
  6
Continuous
 62
     7
370
    15
100
AcDbSpline
210
0.0
220
0.0
230
1.0
 70
     8
 71
     3
 72
     8
 73
     4
 74
     0
 42
0.00000001
 43
0.00000001
 12
1.0
 22
0.0
 32
0.0
 13
1.0
 23
0.0
 33
0.0
 40
0.0
 40
0.0
 40
0.0
 40
0.0
 40
0.0004280954770802
 40
0.0004280954770802
 40
0.0004280954770802
 40
0.0004280954770802
 10
115.1886553112178
 20
131.1331697706871
 30
0.0
 10
115.1720550329265
 20
131.1484408074821
 30
0.0
 10
115.1555727094795
 20
131.1637676843571
 30
0.0
 10
115.1392209944752
 20
131.1791543248975
 30
0.0
  0
LINE
  5
291
330
1F
100
AcDbEntity
  8
0
  6
Continuous
 62
     7
370
    15
100
AcDbLine
 10
115.1392209691
 20
131.1791550146
 30
0.0
 11
115.1392209691
 21
134.291956924
 31
0.0
  0
LINE
  5
292
330
1F
100
AcDbEntity
  8
0
  6
Continuous
 62
     7
370
    15
100
AcDbLine
 10
115.1892210705
 20
134.3232836352
 30
0.0
 11
115.1892210705
 21
131.1326052771
 31
0.0
  0
LINE
  5
293
330
1F
100
AcDbEntity
  8
0
  6
Continuous
 62
     7
370
    15
100
AcDbLine
 10
112.0392210198
 20
131.1791550146
 30
0.0
 11
115.1392209691
 21
131.1791550146
 31
0.0
  0
LINE
  5
294
330
1F
100
AcDbEntity
  8
0
  6
Continuous
 62
     7
370
    15
100
AcDbLine
 10
112.0392210198
 20
166.4239566551
 30
0.0
 11
112.0392210198
 21
164.7037248836
 31
0.0
  0
LINE
  5
295
330
1F
100
AcDbEntity
  8
0
  6
Continuous
 62
     7
370
    15
100
AcDbLine
 10
112.0392210198
 20
164.7037248836
 30
0.0
 11
112.0164455262
 21
164.6751504169
 31
0.0
  0
LINE
  5
296
330
1F
100
AcDbEntity
  8
0
  6
Continuous
 62
     7
370
    15
100
AcDbLine
 10
111.9892209185
 20
166.4253275619
 30
0.0
 11
112.0392210198
 21
166.4239566551
 31
0.0
  0
LINE
  5
297
330
1F
100
AcDbEntity
  8
0
  6
Continuous
 62
     7
370
    15
100
AcDbLine
 10
111.9892209185
 20
164.6975662337
 30
0.0
 11
111.9892209185
 21
166.4253275619
 31
0.0
  0
LINE
  5
298
330
1F
100
AcDbEntity
  8
0
  6
Continuous
 62
     7
370
    15
100
AcDbLine
 10
115.1392209691
 20
164.7037248836
 30
0.0
 11
115.1392209691
 21
166.4239566551
 31
0.0
  0
LINE
  5
299
330
1F
100
AcDbEntity
  8
0
  6
Continuous
 62
     7
370
    15
100
AcDbLine
 10
112.0392210198
 20
164.7037248836
 30
0.0
 11
115.1392209691
 21
164.7037248836
 31
0.0
  0
LINE
  5
29A
330
1F
100
AcDbEntity
  8
0
  6
Continuous
 62
     7
370
    15
100
AcDbLine
 10
115.1392209691
 20
166.4239566551
 30
0.0
 11
112.0392210198
 21
166.4239566551
 31
0.0
  0
LINE
  5
29B
330
1F
100
AcDbEntity
  8
0
  6
Continuous
 62
     7
370
    15
100
AcDbLine
 10
115.1619964627
 20
164.6751504169
 30
0.0
 11
115.1392209691
 21
164.7037248836
 31
0.0
  0
LINE
  5
29C
330
1F
100
AcDbEntity
  8
0
  6
Continuous
 62
     7
370
    15
100
AcDbLine
 10
115.1392209691
 20
166.4239566551
 30
0.0
 11
115.1892210705
 21
166.4253275619
 31
0.0
  0
LINE
  5
29D
330
1F
100
AcDbEntity
  8
0
  6
Continuous
 62
     7
370
    15
100
AcDbLine
 10
115.1892210705
 20
166.4253275619
 30
0.0
 11
115.1892210705
 21
164.6975662337
 31
0.0
  0
LINE
  5
29E
330
1F
100
AcDbEntity
  8
0
  6
Continuous
 62
     7
370
    15
100
AcDbLine
 10
115.1392209691
 20
130.1064666138
 30
0.0
 11
115.1392209691
 21
130.8262090908
 31
0.0
  0
LINE
  5
29F
330
1F
100
AcDbEntity
  8
0
  6
Continuous
 62
     7
370
    15
100
AcDbLine
 10
112.0392210198
 20
130.1064666138
 30
0.0
 11
115.1392209691
 21
130.1064666138
 31
0.0
  0
LINE
  5
2A0
330
1F
100
AcDbEntity
  8
0
  6
Continuous
 62
     7
370
    15
100
AcDbLine
 10
112.0392210198
 20
130.8262090908
 30
0.0
 11
112.0392210198
 21
130.1064666138
 31
0.0
  0
LINE
  5
2A1
330
1F
100
AcDbEntity
  8
0
  6
Continuous
 62
     7
370
    15
100
AcDbLine
 10
115.1392209691
 20
130.8262090908
 30
0.0
 11
112.0392210198
 21
130.8262090908
 31
0.0
  0
LINE
  5
2A2
330
1F
100
AcDbEntity
  8
0
  6
Continuous
 62
     7
370
    15
100
AcDbLine
 10
115.1886553851
 20
131.1331700311
 30
0.0
 11
111.9897866038
 21
131.1331700311
 31
0.0
  0
LINE
  5
2A3
330
1F
100
AcDbEntity
  8
0
  6
Continuous
 62
     7
370
    15
100
AcDbLine
 10
115.1392209691
 20
130.8262090908
 30
0.0
 11
115.1892210705
 21
130.8789249287
 31
0.0
  0
LINE
  5
2A4
330
1F
100
AcDbEntity
  8
0
  6
Continuous
 62
     7
370
    15
100
AcDbLine
 10
111.9892209185
 20
130.8789249287
 30
0.0
 11
112.0392210198
 21
130.8262090908
 31
0.0
  0
LINE
  5
2A5
330
1F
100
AcDbEntity
  8
0
  6
Continuous
 62
     7
370
    15
100
AcDbLine
 10
115.1892210705
 20
131.1326052771
 30
0.0
 11
115.1892210705
 21
130.8789249287
 31
0.0
  0
LINE
  5
2A6
330
1F
100
AcDbEntity
  8
0
  6
Continuous
 62
     7
370
    15
100
AcDbLine
 10
111.9892209185
 20
131.1326052771
 30
0.0
 11
111.9892209185
 21
130.8789249287
 31
0.0
  0
LINE
  5
2A7
330
1F
100
AcDbEntity
  8
0
  6
Continuous
 62
     7
370
    15
100
AcDbLine
 10
112.0392210198
 20
130.1064666138
 30
0.0
 11
112.0164455262
 21
130.1182638631
 31
0.0
  0
SPLINE
  5
2A8
330
1F
100
AcDbEntity
  8
0
  6
Continuous
 62
     7
370
    15
100
AcDbSpline
210
0.0
220
0.0
230
1.0
 70
     8
 71
     3
 72
     8
 73
     4
 74
     0
 42
0.00000001
 43
0.00000001
 12
1.0
 22
0.0
 32
0.0
 13
1.0
 23
0.0
 33
0.0
 40
0.0
 40
0.0
 40
0.0
 40
0.0
 40
0.0002506273297515
 40
0.0002506273297515
 40
0.0002506273297515
 40
0.0002506273297515
 10
112.0164454656585
 20
130.1182634742367
 30
0.0
 10
112.0073983813521
 20
130.1308468099053
 30
0.0
 10
111.9983231963801
 20
130.1434371002325
 30
0.0
 10
111.9892209944752
 20
130.1560336705559
 30
0.0
  0
LINE
  5
2A9
330
1F
100
AcDbEntity
  8
0
  6
Continuous
 62
     7
370
    15
100
AcDbLine
 10
111.9892209185
 20
130.1560338364
 30
0.0
 11
111.9892209185
 21
130.8789249287
 31
0.0
  0
SPLINE
  5
2AA
330
1F
100
AcDbEntity
  8
0
  6
Continuous
 62
     7
370
    15
100
AcDbSpline
210
0.0
220
0.0
230
1.0
 70
     8
 71
     3
 72
     8
 73
     4
 74
     0
 42
0.00000001
 43
0.00000001
 12
1.0
 22
0.0
 32
0.0
 13
1.0
 23
0.0
 33
0.0
 40
0.0
 40
0.0
 40
0.0
 40
0.0
 40
0.0002506273297599
 40
0.0002506273297599
 40
0.0002506273297599
 40
0.0002506273297599
 10
115.1892209944752
 20
130.1560336705559
 30
0.0
 10
115.1801187925699
 20
130.1434371002321
 30
0.0
 10
115.1710436075959
 20
130.1308468099069
 30
0.0
 10
115.1619965232892
 20
130.1182634742378
 30
0.0
  0
LINE
  5
2AB
330
1F
100
AcDbEntity
  8
0
  6
Continuous
 62
     7
370
    15
100
AcDbLine
 10
115.1619964627
 20
130.1182638631
 30
0.0
 11
115.1392209691
 21
130.1064666138
 31
0.0
  0
LINE
  5
2AC
330
1F
100
AcDbEntity
  8
0
  6
Continuous
 62
     7
370
    15
100
AcDbLine
 10
115.1892210705
 20
130.8789249287
 30
0.0
 11
115.1892210705
 21
130.1560338364
 31
0.0
  0
LINE
  5
2AD
330
1F
100
AcDbEntity
  8
0
  6
Continuous
 62
     7
370
    15
100
AcDbLine
 10
111.9897866038
 20
166.4319332467
 30
0.0
 11
111.9892209185
 21
166.4319183455
 31
0.0
  0
LINE
  5
2AE
330
1F
100
AcDbEntity
  8
0
  6
Continuous
 62
     7
370
    15
100
AcDbLine
 10
115.1886553851
 20
166.4319332467
 30
0.0
 11
111.9897866038
 21
166.4319332467
 31
0.0
  0
LINE
  5
2AF
330
1F
100
AcDbEntity
  8
0
  6
Continuous
 62
     7
370
    15
100
AcDbLine
 10
115.1892210705
 20
166.4319183455
 30
0.0
 11
115.1886553851
 21
166.4319332467
 31
0.0
  0
LINE
  5
2B0
330
1F
100
AcDbEntity
  8
0
  6
Continuous
 62
     7
370
    15
100
AcDbLine
 10
115.1892210705
 20
166.4319183455
 30
0.0
 11
115.1892210705
 21
166.4253275619
 31
0.0
  0
LINE
  5
2B1
330
1F
100
AcDbEntity
  8
0
  6
Continuous
 62
     7
370
    15
100
AcDbLine
 10
111.9892209185
 20
166.4319183455
 30
0.0
 11
111.9892209185
 21
166.4253275619
 31
0.0
  0
LINE
  5
2B2
330
1F
100
AcDbEntity
  8
0
  6
Continuous
 62
     7
370
    15
100
AcDbLine
 10
112.0392210198
 20
168.5172017441
 30
0.0
 11
112.0392210198
 21
166.4319332467
 31
0.0
  0
SPLINE
  5
2B3
330
1F
100
AcDbEntity
  8
0
  6
Continuous
 62
     7
370
    15
100
AcDbSpline
210
0.0
220
0.0
230
1.0
 70
     8
 71
     3
 72
     8
 73
     4
 74
     0
 42
0.00000001
 43
0.00000001
 12
1.0
 22
0.0
 32
0.0
 13
1.0
 23
0.0
 33
0.0
 40
0.0
 40
0.0
 40
0.0
 40
0.0
 40
0.0002506273297515
 40
0.0002506273297515
 40
0.0002506273297515
 40
0.0002506273297515
 10
112.0164454656585
 20
168.544129503739
 30
0.0
 10
112.0073983813521
 20
168.5490236620356
 30
0.0
 10
111.9983231963801
 20
168.5538629464231
 30
0.0
 10
111.9892209944752
 20
168.5586485867287
 30
0.0
  0
SPLINE
  5
2B4
330
1F
100
AcDbEntity
  8
0
  6
Continuous
 62
     7
370
    15
100
AcDbSpline
210
0.0
220
0.0
230
1.0
 70
     8
 71
     3
 72
     8
 73
     4
 74
     0
 42
0.00000001
 43
0.00000001
 12
1.0
 22
0.0
 32
0.0
 13
1.0
 23
0.0
 33
0.0
 40
0.0
 40
0.0
 40
0.0
 40
0.0
 40
0.0001802400706298
 40
0.0001802400706298
 40
0.0001802400706298
 40
0.0001802400706298
 10
112.0392209944752
 20
168.5172020163679
 30
0.0
 10
112.0316413176329
 20
168.5261873895177
 30
0.0
 10
112.0240493096175
 20
168.535163114116
 30
0.0
 10
112.0164454656585
 20
168.544129503739
 30
0.0
  0
LINE
  5
2B5
330
1F
100
AcDbEntity
  8
0
  6
Continuous
 62
     7
370
    15
100
AcDbLine
 10
111.9892209185
 20
166.4319183455
 30
0.0
 11
111.9892209185
 21
168.558649324
 31
0.0
  0
LINE
  5
2B6
330
1F
100
AcDbEntity
  8
0
  6
Continuous
 62
     7
370
    15
100
AcDbLine
 10
115.1392209691
 20
166.4319332467
 30
0.0
 11
115.1392209691
 21
168.5172017441
 31
0.0
  0
SPLINE
  5
2B7
330
1F
100
AcDbEntity
  8
0
  6
Continuous
 62
     7
370
    15
100
AcDbSpline
210
0.0
220
0.0
230
1.0
 70
     8
 71
     3
 72
     8
 73
     4
 74
     0
 42
0.00000001
 43
0.00000001
 12
1.0
 22
0.0
 32
0.0
 13
1.0
 23
0.0
 33
0.0
 40
0.0002082354842424
 40
0.0002082354842424
 40
0.0002082354842424
 40
0.0002082354842424
 40
0.0003884755548513
 40
0.0003884755548513
 40
0.0003884755548513
 40
0.0003884755548513
 10
115.1619965232892
 20
168.5441295037359
 30
0.0
 10
115.1543926793311
 20
168.5351631141139
 30
0.0
 10
115.1468006713166
 20
168.5261873895166
 30
0.0
 10
115.1392209944752
 20
168.5172020163679
 30
0.0
  0
SPLINE
  5
2B8
330
1F
100
AcDbEntity
  8
0
  6
Continuous
 62
     7
370
    15
100
AcDbSpline
210
0.0
220
0.0
230
1.0
 70
     8
 71
     3
 72
     8
 73
     4
 74
     0
 42
0.00000001
 43
0.00000001
 12
1.0
 22
0.0
 32
0.0
 13
1.0
 23
0.0
 33
0.0
 40
0.0
 40
0.0
 40
0.0
 40
0.0
 40
0.0002506273297599
 40
0.0002506273297599
 40
0.0002506273297599
 40
0.0002506273297599
 10
115.1892209944752
 20
168.5586485867287
 30
0.0
 10
115.1801187925699
 20
168.553862946423
 30
0.0
 10
115.1710436075959
 20
168.5490236620327
 30
0.0
 10
115.1619965232892
 20
168.5441295037359
 30
0.0
  0
LINE
  5
2B9
330
1F
100
AcDbEntity
  8
0
  6
Continuous
 62
     7
370
    15
100
AcDbLine
 10
115.1892210705
 20
168.558649324
 30
0.0
 11
115.1892210705
 21
166.4319183455
 31
0.0
  0
LINE
  5
2BA
330
1F
100
AcDbEntity
  8
0
  6
Continuous
 62
     7
370
    15
100
AcDbLine
 10
115.1392209691
 20
168.5172017441
 30
0.0
 11
112.0392210198
 21
168.5172017441
 31
0.0
  0
LINE
  5
2BB
330
1F
100
AcDbEntity
  8
0
  6
Continuous
 62
     7
370
    15
100
AcDbLine
 10
112.0392210198
 20
130.1064666138
 30
0.0
 11
112.0392210198
 21
127.466451727
 31
0.0
  0
SPLINE
  5
2BC
330
1F
100
AcDbEntity
  8
0
  6
Continuous
 62
     7
370
    15
100
AcDbSpline
210
0.0
220
0.0
230
1.0
 70
     8
 71
     3
 72
     8
 73
     4
 74
     0
 42
0.00000001
 43
0.00000001
 12
1.0
 22
0.0
 32
0.0
 13
1.0
 23
0.0
 33
0.0
 40
0.0
 40
0.0
 40
0.0
 40
0.0
 40
0.0004280954770801
 40
0.0004280954770801
 40
0.0004280954770801
 40
0.0004280954770801
 10
111.9897866777326
 20
127.4105243276021
 30
0.0
 10
112.0063869560239
 20
127.4290970828369
 30
0.0
 10
112.0228692794709
 20
127.4477377512168
 30
0.0
 10
112.0392209944752
 20
127.4664511046371
 30
0.0
  0
LINE
  5
2BD
330
1F
100
AcDbEntity
  8
0
  6
Continuous
 62
     7
370
    15
100
AcDbLine
 10
111.9897866038
 20
127.4105246888
 30
0.0
 11
111.9892209185
 21
127.409962915
 31
0.0
  0
LINE
  5
2BE
330
1F
100
AcDbEntity
  8
0
  6
Continuous
 62
     7
370
    15
100
AcDbLine
 10
111.9892209185
 20
127.409962915
 30
0.0
 11
111.9892209185
 21
130.1609795318
 31
0.0
  0
LINE
  5
2BF
330
1F
100
AcDbEntity
  8
0
  6
Continuous
 62
     7
370
    15
100
AcDbLine
 10
115.1892210705
 20
127.409962915
 30
0.0
 11
115.1886553851
 21
127.4105246888
 31
0.0
  0
SPLINE
  5
2C0
330
1F
100
AcDbEntity
  8
0
  6
Continuous
 62
     7
370
    15
100
AcDbSpline
210
0.0
220
0.0
230
1.0
 70
     8
 71
     3
 72
     8
 73
     4
 74
     0
 42
0.00000001
 43
0.00000001
 12
1.0
 22
0.0
 32
0.0
 13
1.0
 23
0.0
 33
0.0
 40
0.0
 40
0.0
 40
0.0
 40
0.0
 40
0.0004280954770801
 40
0.0004280954770801
 40
0.0004280954770801
 40
0.0004280954770801
 10
115.1886553112178
 20
127.4105243276021
 30
0.0
 10
115.1720550329265
 20
127.4290970828369
 30
0.0
 10
115.1555727094795
 20
127.4477377512168
 30
0.0
 10
115.1392209944752
 20
127.4664511046371
 30
0.0
  0
LINE
  5
2C1
330
1F
100
AcDbEntity
  8
0
  6
Continuous
 62
     7
370
    15
100
AcDbLine
 10
115.1392209691
 20
127.466451727
 30
0.0
 11
115.1392209691
 21
130.125833653
 31
0.0
  0
LINE
  5
2C2
330
1F
100
AcDbEntity
  8
0
  6
Continuous
 62
     7
370
    15
100
AcDbLine
 10
115.1892210705
 20
130.1560338364
 30
0.0
 11
115.1892210705
 21
127.409962915
 31
0.0
  0
LINE
  5
2C3
330
1F
100
AcDbEntity
  8
0
  6
Continuous
 62
     7
370
    15
100
AcDbLine
 10
112.0392210198
 20
127.466451727
 30
0.0
 11
115.1392209691
 21
127.466451727
 31
0.0
  0
LINE
  5
2C4
330
1F
100
AcDbEntity
  8
0
  6
Continuous
 62
     7
370
    15
100
AcDbLine
 10
115.1392209691
 20
168.5751702414
 30
0.0
 11
115.1392209691
 21
170.1449345575
 31
0.0
  0
LINE
  5
2C5
330
1F
100
AcDbEntity
  8
0
  6
Continuous
 62
     7
370
    15
100
AcDbLine
 10
112.0392210198
 20
168.5751702414
 30
0.0
 11
115.1392209691
 21
168.5751702414
 31
0.0
  0
LINE
  5
2C6
330
1F
100
AcDbEntity
  8
0
  6
Continuous
 62
     7
370
    15
100
AcDbLine
 10
112.0392210198
 20
170.1449345575
 30
0.0
 11
112.0392210198
 21
168.5751702414
 31
0.0
  0
LINE
  5
2C7
330
1F
100
AcDbEntity
  8
0
  6
Continuous
 62
     7
370
    15
100
AcDbLine
 10
115.1392209691
 20
170.1449345575
 30
0.0
 11
112.0392210198
 21
170.1449345575
 31
0.0
  0
LINE
  5
2C8
330
1F
100
AcDbEntity
  8
0
  6
Continuous
 62
     7
370
    15
100
AcDbLine
 10
115.1619964627
 20
168.5441296325
 30
0.0
 11
115.1392209691
 21
168.5751702414
 31
0.0
  0
LINE
  5
2C9
330
1F
100
AcDbEntity
  8
0
  6
Continuous
 62
     7
370
    15
100
AcDbLine
 10
112.0392210198
 20
168.5751702414
 30
0.0
 11
112.0164455262
 21
168.5441296325
 31
0.0
  0
LINE
  5
2CA
330
1F
100
AcDbEntity
  8
0
  6
Continuous
 62
     7
370
    15
100
AcDbLine
 10
111.9892209185
 20
170.1352845655
 30
0.0
 11
112.0392210198
 21
170.1449345575
 31
0.0
  0
LINE
  5
2CB
330
1F
100
AcDbEntity
  8
0
  6
Continuous
 62
     7
370
    15
100
AcDbLine
 10
111.9892209185
 20
168.558649324
 30
0.0
 11
111.9892209185
 21
170.1352845655
 31
0.0
  0
LINE
  5
2CC
330
1F
100
AcDbEntity
  8
0
  6
Continuous
 62
     7
370
    15
100
AcDbLine
 10
115.1392209691
 20
170.1449345575
 30
0.0
 11
115.1892210705
 21
170.1352845655
 31
0.0
  0
LINE
  5
2CD
330
1F
100
AcDbEntity
  8
0
  6
Continuous
 62
     7
370
    15
100
AcDbLine
 10
115.1892210705
 20
170.1352845655
 30
0.0
 11
115.1892210705
 21
168.558649324
 31
0.0
  0
LINE
  5
2CE
330
1F
100
AcDbEntity
  8
0
  6
Continuous
 62
     7
370
    15
100
AcDbLine
 10
115.1886553851
 20
127.4105246888
 30
0.0
 11
111.9897866038
 21
127.4105246888
 31
0.0
  0
LINE
  5
2CF
330
1F
100
AcDbEntity
  8
0
  6
Continuous
 62
     7
370
    15
100
AcDbLine
 10
115.1392209691
 20
127.1052311884
 30
0.0
 11
115.1892210705
 21
127.157660924
 31
0.0
  0
LINE
  5
2D0
330
1F
100
AcDbEntity
  8
0
  6
Continuous
 62
     7
370
    15
100
AcDbLine
 10
115.1392209691
 20
127.1052311884
 30
0.0
 11
112.0392210198
 21
127.1052311884
 31
0.0
  0
LINE
  5
2D1
330
1F
100
AcDbEntity
  8
0
  6
Continuous
 62
     7
370
    15
100
AcDbLine
 10
111.9892209185
 20
127.157660924
 30
0.0
 11
112.0392210198
 21
127.1052311884
 31
0.0
  0
LINE
  5
2D2
330
1F
100
AcDbEntity
  8
0
  6
Continuous
 62
     7
370
    15
100
AcDbLine
 10
115.1892210705
 20
127.409962915
 30
0.0
 11
115.1892210705
 21
127.157660924
 31
0.0
  0
LINE
  5
2D3
330
1F
100
AcDbEntity
  8
0
  6
Continuous
 62
     7
370
    15
100
AcDbLine
 10
111.9892209185
 20
127.409962915
 30
0.0
 11
111.9892209185
 21
127.157660924
 31
0.0
  0
LINE
  5
2D4
330
1F
100
AcDbEntity
  8
0
  6
Continuous
 62
     7
370
    15
100
AcDbLine
 10
112.0392210198
 20
127.1052311884
 30
0.0
 11
112.0392210198
 21
126.7451148258
 31
0.0
  0
LINE
  5
2D5
330
1F
100
AcDbEntity
  8
0
  6
Continuous
 62
     7
370
    15
100
AcDbLine
 10
112.0392210198
 20
126.7451148258
 30
0.0
 11
112.0164455262
 21
126.7628859506
 31
0.0
  0
SPLINE
  5
2D6
330
1F
100
AcDbEntity
  8
0
  6
Continuous
 62
     7
370
    15
100
AcDbSpline
210
0.0
220
0.0
230
1.0
 70
     8
 71
     3
 72
     8
 73
     4
 74
     0
 42
0.00000001
 43
0.00000001
 12
1.0
 22
0.0
 32
0.0
 13
1.0
 23
0.0
 33
0.0
 40
0.0
 40
0.0
 40
0.0
 40
0.0
 40
0.0002506273297516
 40
0.0002506273297516
 40
0.0002506273297516
 40
0.0002506273297516
 10
112.0164454656585
 20
126.762885619381
 30
0.0
 10
112.0073983813521
 20
126.7738958452079
 30
0.0
 10
111.9983231963801
 20
126.7849241935123
 30
0.0
 10
111.9892209944752
 20
126.7959697620137
 30
0.0
  0
LINE
  5
2D7
330
1F
100
AcDbEntity
  8
0
  6
Continuous
 62
     7
370
    15
100
AcDbLine
 10
111.9892209185
 20
126.7959695087
 30
0.0
 11
111.9892209185
 21
127.157660924
 31
0.0
  0
SPLINE
  5
2D8
330
1F
100
AcDbEntity
  8
0
  6
Continuous
 62
     7
370
    15
100
AcDbSpline
210
0.0
220
0.0
230
1.0
 70
     8
 71
     3
 72
     8
 73
     4
 74
     0
 42
0.00000001
 43
0.00000001
 12
1.0
 22
0.0
 32
0.0
 13
1.0
 23
0.0
 33
0.0
 40
0.0
 40
0.0
 40
0.0
 40
0.0
 40
0.0002506273297599
 40
0.0002506273297599
 40
0.0002506273297599
 40
0.0002506273297599
 10
115.1892209944752
 20
126.7959697620137
 30
0.0
 10
115.1801187925699
 20
126.7849241935119
 30
0.0
 10
115.1710436075959
 20
126.77389584521
 30
0.0
 10
115.1619965232892
 20
126.7628856193828
 30
0.0
  0
LINE
  5
2D9
330
1F
100
AcDbEntity
  8
0
  6
Continuous
 62
     7
370
    15
100
AcDbLine
 10
115.1619964627
 20
126.7628859506
 30
0.0
 11
115.1392209691
 21
126.7451148258
 31
0.0
  0
LINE
  5
2DA
330
1F
100
AcDbEntity
  8
0
  6
Continuous
 62
     7
370
    15
100
AcDbLine
 10
115.1392209691
 20
126.7451148258
 30
0.0
 11
115.1392209691
 21
127.1052311884
 31
0.0
  0
LINE
  5
2DB
330
1F
100
AcDbEntity
  8
0
  6
Continuous
 62
     7
370
    15
100
AcDbLine
 10
115.1892210705
 20
127.157660924
 30
0.0
 11
115.1892210705
 21
126.7959695087
 31
0.0
  0
LINE
  5
2DC
330
1F
100
AcDbEntity
  8
0
  6
Continuous
 62
     7
370
    15
100
AcDbLine
 10
112.0392210198
 20
126.7451148258
 30
0.0
 11
115.1392209691
 21
126.7451148258
 31
0.0
  0
LINE
  5
2DD
330
1F
100
AcDbEntity
  8
0
  6
Continuous
 62
     7
370
    15
100
AcDbLine
 10
112.0392210198
 20
171.5146597252
 30
0.0
 11
112.0392210198
 21
170.1449345575
 31
0.0
  0
SPLINE
  5
2DE
330
1F
100
AcDbEntity
  8
0
  6
Continuous
 62
     7
370
    15
100
AcDbSpline
210
0.0
220
0.0
230
1.0
 70
     8
 71
     3
 72
     8
 73
     4
 74
     0
 42
0.00000001
 43
0.00000001
 12
1.0
 22
0.0
 32
0.0
 13
1.0
 23
0.0
 33
0.0
 40
0.0
 40
0.0
 40
0.0
 40
0.0
 40
0.0002506273297515
 40
0.0002506273297515
 40
0.0002506273297515
 40
0.0002506273297515
 10
112.0164454656585
 20
171.5425503672166
 30
0.0
 10
112.0073983813521
 20
171.5445999938304
 30
0.0
 10
111.9983231963801
 20
171.5465956908687
 30
0.0
 10
111.9892209944752
 20
171.5485387754522
 30
0.0
  0
SPLINE
  5
2DF
330
1F
100
AcDbEntity
  8
0
  6
Continuous
 62
     7
370
    15
100
AcDbSpline
210
0.0
220
0.0
230
1.0
 70
     8
 71
     3
 72
     8
 73
     4
 74
     0
 42
0.00000001
 43
0.00000001
 12
1.0
 22
0.0
 32
0.0
 13
1.0
 23
0.0
 33
0.0
 40
0.0
 40
0.0
 40
0.0
 40
0.0
 40
0.0001802400706297
 40
0.0001802400706297
 40
0.0001802400706297
 40
0.0001802400706297
 10
112.0392209944752
 20
171.5146603413117
 30
0.0
 10
112.0316413176329
 20
171.5239669017961
 30
0.0
 10
112.0240493096175
 20
171.5332634688361
 30
0.0
 10
112.0164454656585
 20
171.5425503672166
 30
0.0
  0
LINE
  5
2E0
330
1F
100
AcDbEntity
  8
0
  6
Continuous
 62
     7
370
    15
100
AcDbLine
 10
111.9892209185
 20
170.1352845655
 30
0.0
 11
111.9892209185
 21
171.5485390053
 31
0.0
  0
LINE
  5
2E1
330
1F
100
AcDbEntity
  8
0
  6
Continuous
 62
     7
370
    15
100
AcDbLine
 10
115.1392209691
 20
170.1449345575
 30
0.0
 11
115.1392209691
 21
171.5146597252
 31
0.0
  0
SPLINE
  5
2E2
330
1F
100
AcDbEntity
  8
0
  6
Continuous
 62
     7
370
    15
100
AcDbSpline
210
0.0
220
0.0
230
1.0
 70
     8
 71
     3
 72
     8
 73
     4
 74
     0
 42
0.00000001
 43
0.00000001
 12
1.0
 22
0.0
 32
0.0
 13
1.0
 23
0.0
 33
0.0
 40
0.0002082354842426
 40
0.0002082354842426
 40
0.0002082354842426
 40
0.0002082354842426
 40
0.0003884755548513
 40
0.0003884755548513
 40
0.0003884755548513
 40
0.0003884755548513
 10
115.1619965232892
 20
171.5425503672134
 30
0.0
 10
115.1543926793311
 20
171.5332634688339
 30
0.0
 10
115.1468006713166
 20
171.523966901795
 30
0.0
 10
115.1392209944752
 20
171.5146603413117
 30
0.0
  0
SPLINE
  5
2E3
330
1F
100
AcDbEntity
  8
0
  6
Continuous
 62
     7
370
    15
100
AcDbSpline
210
0.0
220
0.0
230
1.0
 70
     8
 71
     3
 72
     8
 73
     4
 74
     0
 42
0.00000001
 43
0.00000001
 12
1.0
 22
0.0
 32
0.0
 13
1.0
 23
0.0
 33
0.0
 40
0.0
 40
0.0
 40
0.0
 40
0.0
 40
0.0002506273297599
 40
0.0002506273297599
 40
0.0002506273297599
 40
0.0002506273297599
 10
115.1892209944752
 20
171.5485387754522
 30
0.0
 10
115.1801187925699
 20
171.5465956908687
 30
0.0
 10
115.1710436075959
 20
171.5445999938273
 30
0.0
 10
115.1619965232892
 20
171.5425503672134
 30
0.0
  0
LINE
  5
2E4
330
1F
100
AcDbEntity
  8
0
  6
Continuous
 62
     7
370
    15
100
AcDbLine
 10
115.1892210705
 20
171.5485390053
 30
0.0
 11
115.1892210705
 21
170.1352845655
 31
0.0
  0
LINE
  5
2E5
330
1F
100
AcDbEntity
  8
0
  6
Continuous
 62
     7
370
    15
100
AcDbLine
 10
115.1392209691
 20
171.5146597252
 30
0.0
 11
112.0392210198
 21
171.5146597252
 31
0.0
  0
LINE
  5
2E6
330
1F
100
AcDbEntity
  8
0
  6
Continuous
 62
     7
370
    15
100
AcDbLine
 10
112.0392210198
 20
126.7451148258
 30
0.0
 11
112.0392210198
 21
124.6784817205
 31
0.0
  0
SPLINE
  5
2E7
330
1F
100
AcDbEntity
  8
0
  6
Continuous
 62
     7
370
    15
100
AcDbSpline
210
0.0
220
0.0
230
1.0
 70
     8
 71
     3
 72
     8
 73
     4
 74
     0
 42
0.00000001
 43
0.00000001
 12
1.0
 22
0.0
 32
0.0
 13
1.0
 23
0.0
 33
0.0
 40
0.0
 40
0.0
 40
0.0
 40
0.0
 40
0.0004280954770804
 40
0.0004280954770804
 40
0.0004280954770804
 40
0.0004280954770804
 10
111.9897866777326
 20
124.6150568916941
 30
0.0
 10
112.0063869560239
 20
124.6361196468429
 30
0.0
 10
112.0228692794709
 20
124.6572594200716
 30
0.0
 10
112.0392209944752
 20
124.6784816230309
 30
0.0
  0
LINE
  5
2E8
330
1F
100
AcDbEntity
  8
0
  6
Continuous
 62
     7
370
    15
100
AcDbLine
 10
111.9897866038
 20
124.615056418
 30
0.0
 11
111.9892209185
 21
124.6145229564
 31
0.0
  0
LINE
  5
2E9
330
1F
100
AcDbEntity
  8
0
  6
Continuous
 62
     7
370
    15
100
AcDbLine
 10
111.9892209185
 20
124.6145229564
 30
0.0
 11
111.9892209185
 21
126.7968605981
 31
0.0
  0
LINE
  5
2EA
330
1F
100
AcDbEntity
  8
0
  6
Continuous
 62
     7
370
    15
100
AcDbLine
 10
115.1892210705
 20
124.6145229564
 30
0.0
 11
115.1886553851
 21
124.615056418
 31
0.0
  0
SPLINE
  5
2EB
330
1F
100
AcDbEntity
  8
0
  6
Continuous
 62
     7
370
    15
100
AcDbSpline
210
0.0
220
0.0
230
1.0
 70
     8
 71
     3
 72
     8
 73
     4
 74
     0
 42
0.00000001
 43
0.00000001
 12
1.0
 22
0.0
 32
0.0
 13
1.0
 23
0.0
 33
0.0
 40
0.0
 40
0.0
 40
0.0
 40
0.0
 40
0.0004280954770804
 40
0.0004280954770804
 40
0.0004280954770804
 40
0.0004280954770804
 10
115.1886553112178
 20
124.6150568916941
 30
0.0
 10
115.1720550329265
 20
124.6361196468429
 30
0.0
 10
115.1555727094795
 20
124.6572594200716
 30
0.0
 10
115.1392209944752
 20
124.6784816230309
 30
0.0
  0
LINE
  5
2EC
330
1F
100
AcDbEntity
  8
0
  6
Continuous
 62
     7
370
    15
100
AcDbLine
 10
115.1392209691
 20
124.6784817205
 30
0.0
 11
115.1392209691
 21
126.7648126708
 31
0.0
  0
LINE
  5
2ED
330
1F
100
AcDbEntity
  8
0
  6
Continuous
 62
     7
370
    15
100
AcDbLine
 10
115.1892210705
 20
126.7959695087
 30
0.0
 11
115.1892210705
 21
124.6145229564
 31
0.0
  0
LINE
  5
2EE
330
1F
100
AcDbEntity
  8
0
  6
Continuous
 62
     7
370
    15
100
AcDbLine
 10
112.0392210198
 20
124.6784817205
 30
0.0
 11
115.1392209691
 21
124.6784817205
 31
0.0
  0
LINE
  5
2EF
330
1F
100
AcDbEntity
  8
0
  6
Continuous
 62
     7
370
    15
100
AcDbLine
 10
115.1619964627
 20
171.5425502287
 30
0.0
 11
115.1392209691
 21
171.574700974
 31
0.0
  0
LINE
  5
2F0
330
1F
100
AcDbEntity
  8
0
  6
Continuous
 62
     7
370
    15
100
AcDbLine
 10
112.0392210198
 20
171.574700974
 30
0.0
 11
112.0164455262
 21
171.5425502287
 31
0.0
  0
LINE
  5
2F1
330
1F
100
AcDbEntity
  8
0
  6
Continuous
 62
     7
370
    15
100
AcDbLine
 10
112.0392210198
 20
171.574700974
 30
0.0
 11
115.1392209691
 21
171.574700974
 31
0.0
  0
LINE
  5
2F2
330
1F
100
AcDbEntity
  8
0
  6
Continuous
 62
     7
370
    15
100
AcDbLine
 10
115.1392209691
 20
171.574700974
 30
0.0
 11
115.1392209691
 21
172.9253913985
 31
0.0
  0
LINE
  5
2F3
330
1F
100
AcDbEntity
  8
0
  6
Continuous
 62
     7
370
    15
100
AcDbLine
 10
112.0392210198
 20
172.9253913985
 30
0.0
 11
112.0392210198
 21
171.574700974
 31
0.0
  0
LINE
  5
2F4
330
1F
100
AcDbEntity
  8
0
  6
Continuous
 62
     7
370
    15
100
AcDbLine
 10
115.1392209691
 20
172.9253913985
 30
0.0
 11
112.0392210198
 21
172.9253913985
 31
0.0
  0
LINE
  5
2F5
330
1F
100
AcDbEntity
  8
0
  6
Continuous
 62
     7
370
    15
100
AcDbLine
 10
111.9892209185
 20
172.9051422105
 30
0.0
 11
112.0392210198
 21
172.9253913985
 31
0.0
  0
LINE
  5
2F6
330
1F
100
AcDbEntity
  8
0
  6
Continuous
 62
     7
370
    15
100
AcDbLine
 10
111.9892209185
 20
171.5485390053
 30
0.0
 11
111.9892209185
 21
172.9051422105
 31
0.0
  0
LINE
  5
2F7
330
1F
100
AcDbEntity
  8
0
  6
Continuous
 62
     7
370
    15
100
AcDbLine
 10
115.1392209691
 20
172.9253913985
 30
0.0
 11
115.1892210705
 21
172.9051422105
 31
0.0
  0
LINE
  5
2F8
330
1F
100
AcDbEntity
  8
0
  6
Continuous
 62
     7
370
    15
100
AcDbLine
 10
115.1892210705
 20
172.9051422105
 30
0.0
 11
115.1892210705
 21
171.5485390053
 31
0.0
  0
LINE
  5
2F9
330
1F
100
AcDbEntity
  8
0
  6
Continuous
 62
     7
370
    15
100
AcDbLine
 10
115.1886553851
 20
124.615056418
 30
0.0
 11
111.9897866038
 21
124.615056418
 31
0.0
  0
LINE
  5
2FA
330
1F
100
AcDbEntity
  8
0
  6
Continuous
 62
     7
370
    15
100
AcDbLine
 10
115.1392209691
 20
124.3247743474
 30
0.0
 11
115.1892210705
 21
124.3746261821
 31
0.0
  0
LINE
  5
2FB
330
1F
100
AcDbEntity
  8
0
  6
Continuous
 62
     7
370
    15
100
AcDbLine
 10
115.1392209691
 20
124.3247743474
 30
0.0
 11
112.0392210198
 21
124.3247743474
 31
0.0
  0
LINE
  5
2FC
330
1F
100
AcDbEntity
  8
0
  6
Continuous
 62
     7
370
    15
100
AcDbLine
 10
111.9892209185
 20
124.3746261821
 30
0.0
 11
112.0392210198
 21
124.3247743474
 31
0.0
  0
LINE
  5
2FD
330
1F
100
AcDbEntity
  8
0
  6
Continuous
 62
     7
370
    15
100
AcDbLine
 10
115.1892210705
 20
124.6145229564
 30
0.0
 11
115.1892210705
 21
124.3746261821
 31
0.0
  0
LINE
  5
2FE
330
1F
100
AcDbEntity
  8
0
  6
Continuous
 62
     7
370
    15
100
AcDbLine
 10
111.9892209185
 20
124.6145229564
 30
0.0
 11
111.9892209185
 21
124.3746261821
 31
0.0
  0
LINE
  5
2FF
330
1F
100
AcDbEntity
  8
0
  6
Continuous
 62
     7
370
    15
100
AcDbLine
 10
112.0392210198
 20
173.5117342101
 30
0.0
 11
112.0392210198
 21
172.9253913985
 31
0.0
  0
SPLINE
  5
300
330
1F
100
AcDbEntity
  8
0
  6
Continuous
 62
     7
370
    15
100
AcDbSpline
210
0.0
220
0.0
230
1.0
 70
     8
 71
     3
 72
     8
 73
     4
 74
     0
 42
0.00000001
 43
0.00000001
 12
1.0
 22
0.0
 32
0.0
 13
1.0
 23
0.0
 33
0.0
 40
0.0
 40
0.0
 40
0.0
 40
0.0
 40
0.0002506273297515
 40
0.0002506273297515
 40
0.0002506273297515
 40
0.0002506273297515
 10
112.0164454656585
 20
173.5393679309838
 30
0.0
 10
112.0073983813521
 20
173.5384834473966
 30
0.0
 10
111.9983231963801
 20
173.5375483355486
 30
0.0
 10
111.9892209944752
 20
173.5365639422898
 30
0.0
  0
SPLINE
  5
301
330
1F
100
AcDbEntity
  8
0
  6
Continuous
 62
     7
370
    15
100
AcDbSpline
210
0.0
220
0.0
230
1.0
 70
     8
 71
     3
 72
     8
 73
     4
 74
     0
 42
0.00000001
 43
0.00000001
 12
1.0
 22
0.0
 32
0.0
 13
1.0
 23
0.0
 33
0.0
 40
0.0
 40
0.0
 40
0.0
 40
0.0
 40
0.0001802400706297
 40
0.0001802400706297
 40
0.0001802400706297
 40
0.0001802400706297
 10
112.0392209944752
 20
173.5117342945083
 30
0.0
 10
112.0316413176328
 20
173.5209553009763
 30
0.0
 10
112.0240493096175
 20
173.5301664058684
 30
0.0
 10
112.0164454656585
 20
173.5393679309838
 30
0.0
  0
LINE
  5
302
330
1F
100
AcDbEntity
  8
0
  6
Continuous
 62
     7
370
    15
100
AcDbLine
 10
111.9892209185
 20
172.8755395637
 30
0.0
 11
111.9892209185
 21
173.536564015
 31
0.0
  0
LINE
  5
303
330
1F
100
AcDbEntity
  8
0
  6
Continuous
 62
     7
370
    15
100
AcDbLine
 10
115.1392209691
 20
172.9253913985
 30
0.0
 11
115.1392209691
 21
173.5117342101
 31
0.0
  0
SPLINE
  5
304
330
1F
100
AcDbEntity
  8
0
  6
Continuous
 62
     7
370
    15
100
AcDbSpline
210
0.0
220
0.0
230
1.0
 70
     8
 71
     3
 72
     8
 73
     4
 74
     0
 42
0.00000001
 43
0.00000001
 12
1.0
 22
0.0
 32
0.0
 13
1.0
 23
0.0
 33
0.0
 40
0.0002082354842425
 40
0.0002082354842425
 40
0.0002082354842425
 40
0.0002082354842425
 40
0.0003884755548513
 40
0.0003884755548513
 40
0.0003884755548513
 40
0.0003884755548513
 10
115.1619965232892
 20
173.5393679309806
 30
0.0
 10
115.1543926793311
 20
173.5301664058663
 30
0.0
 10
115.1468006713166
 20
173.5209553009753
 30
0.0
 10
115.1392209944752
 20
173.5117342945083
 30
0.0
  0
SPLINE
  5
305
330
1F
100
AcDbEntity
  8
0
  6
Continuous
 62
     7
370
    15
100
AcDbSpline
210
0.0
220
0.0
230
1.0
 70
     8
 71
     3
 72
     8
 73
     4
 74
     0
 42
0.00000001
 43
0.00000001
 12
1.0
 22
0.0
 32
0.0
 13
1.0
 23
0.0
 33
0.0
 40
0.0
 40
0.0
 40
0.0
 40
0.0
 40
0.0002506273297599
 40
0.0002506273297599
 40
0.0002506273297599
 40
0.0002506273297599
 10
115.1892209944752
 20
173.5365639422898
 30
0.0
 10
115.1801187925699
 20
173.5375483355487
 30
0.0
 10
115.1710436075959
 20
173.5384834473933
 30
0.0
 10
115.1619965232892
 20
173.5393679309806
 30
0.0
  0
LINE
  5
306
330
1F
100
AcDbEntity
  8
0
  6
Continuous
 62
     7
370
    15
100
AcDbLine
 10
115.1892210705
 20
173.536564015
 30
0.0
 11
115.1892210705
 21
172.8755395637
 31
0.0
  0
LINE
  5
307
330
1F
100
AcDbEntity
  8
0
  6
Continuous
 62
     7
370
    15
100
AcDbLine
 10
115.1392209691
 20
173.5117342101
 30
0.0
 11
112.0392210198
 21
173.5117342101
 31
0.0
  0
LINE
  5
308
330
1F
100
AcDbEntity
  8
0
  6
Continuous
 62
     7
370
    15
100
AcDbLine
 10
112.0392210198
 20
124.3247743474
 30
0.0
 11
112.0392210198
 21
122.9370932804
 31
0.0
  0
SPLINE
  5
309
330
1F
100
AcDbEntity
  8
0
  6
Continuous
 62
     7
370
    15
100
AcDbSpline
210
0.0
220
0.0
230
1.0
 70
     8
 71
     3
 72
     8
 73
     4
 74
     0
 42
0.00000001
 43
0.00000001
 12
1.0
 22
0.0
 32
0.0
 13
1.0
 23
0.0
 33
0.0
 40
0.0
 40
0.0
 40
0.0
 40
0.0
 40
0.0004280954770801
 40
0.0004280954770801
 40
0.0004280954770801
 40
0.0004280954770801
 10
111.9897866777326
 20
122.8689428040534
 30
0.0
 10
112.0063869560239
 20
122.8915750156458
 30
0.0
 10
112.0228692794709
 20
122.9142899841934
 30
0.0
 10
112.0392209944752
 20
122.9370935245869
 30
0.0
  0
LINE
  5
30A
330
1F
100
AcDbEntity
  8
0
  6
Continuous
 62
     7
370
    15
100
AcDbLine
 10
111.9897866038
 20
122.8689413295
 30
0.0
 11
111.9892209185
 21
122.8684615121
 31
0.0
  0
LINE
  5
30B
330
1F
100
AcDbEntity
  8
0
  6
Continuous
 62
     7
370
    15
100
AcDbLine
 10
111.9892209185
 20
122.8684615121
 30
0.0
 11
111.9892209185
 21
124.3450235353
 31
0.0
  0
LINE
  5
30C
330
1F
100
AcDbEntity
  8
0
  6
Continuous
 62
     7
370
    15
100
AcDbLine
 10
115.1892210705
 20
122.8684615121
 30
0.0
 11
115.1886553851
 21
122.8689413295
 31
0.0
  0
SPLINE
  5
30D
330
1F
100
AcDbEntity
  8
0
  6
Continuous
 62
     7
370
    15
100
AcDbSpline
210
0.0
220
0.0
230
1.0
 70
     8
 71
     3
 72
     8
 73
     4
 74
     0
 42
0.00000001
 43
0.00000001
 12
1.0
 22
0.0
 32
0.0
 13
1.0
 23
0.0
 33
0.0
 40
0.0
 40
0.0
 40
0.0
 40
0.0
 40
0.0004280954770801
 40
0.0004280954770801
 40
0.0004280954770801
 40
0.0004280954770801
 10
115.1886553112178
 20
122.8689428040534
 30
0.0
 10
115.1720550329265
 20
122.8915750156458
 30
0.0
 10
115.1555727094795
 20
122.9142899841934
 30
0.0
 10
115.1392209944752
 20
122.9370935245869
 30
0.0
  0
LINE
  5
30E
330
1F
100
AcDbEntity
  8
0
  6
Continuous
 62
     7
370
    15
100
AcDbLine
 10
115.1392209691
 20
122.9370932804
 30
0.0
 11
115.1392209691
 21
124.3247743474
 31
0.0
  0
LINE
  5
30F
330
1F
100
AcDbEntity
  8
0
  6
Continuous
 62
     7
370
    15
100
AcDbLine
 10
115.1892210705
 20
124.3450235353
 30
0.0
 11
115.1892210705
 21
122.8684615121
 31
0.0
  0
LINE
  5
310
330
1F
100
AcDbEntity
  8
0
  6
Continuous
 62
     7
370
    15
100
AcDbLine
 10
112.0392210198
 20
122.9370932804
 30
0.0
 11
115.1392209691
 21
122.9370932804
 31
0.0
  0
LINE
  5
311
330
1F
100
AcDbEntity
  8
0
  6
Continuous
 62
     7
370
    15
100
AcDbLine
 10
115.1619964627
 20
173.5393684135
 30
0.0
 11
115.1392209691
 21
173.5712226258
 31
0.0
  0
LINE
  5
312
330
1F
100
AcDbEntity
  8
0
  6
Continuous
 62
     7
370
    15
100
AcDbLine
 10
112.0392210198
 20
173.5712226258
 30
0.0
 11
112.0164455262
 21
173.5393684135
 31
0.0
  0
LINE
  5
313
330
1F
100
AcDbEntity
  8
0
  6
Continuous
 62
     7
370
    15
100
AcDbLine
 10
112.0392210198
 20
173.5712226258
 30
0.0
 11
115.1392209691
 21
173.5712226258
 31
0.0
  0
LINE
  5
314
330
1F
100
AcDbEntity
  8
0
  6
Continuous
 62
     7
370
    15
100
AcDbLine
 10
115.1392209691
 20
173.5712226258
 30
0.0
 11
115.1392209691
 21
174.6438096986
 31
0.0
  0
LINE
  5
315
330
1F
100
AcDbEntity
  8
0
  6
Continuous
 62
     7
370
    15
100
AcDbLine
 10
115.1392209691
 20
174.6438096986
 30
0.0
 11
115.1892210705
 21
174.6138464437
 31
0.0
  0
LINE
  5
316
330
1F
100
AcDbEntity
  8
0
  6
Continuous
 62
     7
370
    15
100
AcDbLine
 10
115.1892210705
 20
174.6138464437
 30
0.0
 11
115.1892210705
 21
173.536564015
 31
0.0
  0
LINE
  5
317
330
1F
100
AcDbEntity
  8
0
  6
Continuous
 62
     7
370
    15
100
AcDbLine
 10
112.0392210198
 20
174.6438096986
 30
0.0
 11
112.0392210198
 21
173.5712226258
 31
0.0
  0
LINE
  5
318
330
1F
100
AcDbEntity
  8
0
  6
Continuous
 62
     7
370
    15
100
AcDbLine
 10
111.9892209185
 20
174.6138464437
 30
0.0
 11
112.0392210198
 21
174.6438096986
 31
0.0
  0
LINE
  5
319
330
1F
100
AcDbEntity
  8
0
  6
Continuous
 62
     7
370
    15
100
AcDbLine
 10
111.9892209185
 20
173.536564015
 30
0.0
 11
111.9892209185
 21
174.6138464437
 31
0.0
  0
LINE
  5
31A
330
1F
100
AcDbEntity
  8
0
  6
Continuous
 62
     7
370
    15
100
AcDbLine
 10
115.1392209691
 20
174.6438096986
 30
0.0
 11
112.0392210198
 21
174.6438096986
 31
0.0
  0
LINE
  5
31B
330
1F
100
AcDbEntity
  8
0
  6
Continuous
 62
     7
370
    15
100
AcDbLine
 10
115.1886553851
 20
122.8689413295
 30
0.0
 11
111.9897866038
 21
122.8689413295
 31
0.0
  0
LINE
  5
31C
330
1F
100
AcDbEntity
  8
0
  6
Continuous
 62
     7
370
    15
100
AcDbLine
 10
115.1392209691
 20
122.6063560472
 30
0.0
 11
115.1892210705
 21
122.6514529215
 31
0.0
  0
LINE
  5
31D
330
1F
100
AcDbEntity
  8
0
  6
Continuous
 62
     7
370
    15
100
AcDbLine
 10
115.1392209691
 20
122.6063560472
 30
0.0
 11
112.0392210198
 21
122.6063560472
 31
0.0
  0
LINE
  5
31E
330
1F
100
AcDbEntity
  8
0
  6
Continuous
 62
     7
370
    15
100
AcDbLine
 10
111.9892209185
 20
122.6514529215
 30
0.0
 11
112.0392210198
 21
122.6063560472
 31
0.0
  0
LINE
  5
31F
330
1F
100
AcDbEntity
  8
0
  6
Continuous
 62
     7
370
    15
100
AcDbLine
 10
115.1892210705
 20
122.8684615121
 30
0.0
 11
115.1892210705
 21
122.6514529215
 31
0.0
  0
LINE
  5
320
330
1F
100
AcDbEntity
  8
0
  6
Continuous
 62
     7
370
    15
100
AcDbLine
 10
111.9892209185
 20
122.8684615121
 30
0.0
 11
111.9892209185
 21
122.6514529215
 31
0.0
  0
LINE
  5
321
330
1F
100
AcDbEntity
  8
0
  6
Continuous
 62
     7
370
    15
100
AcDbLine
 10
112.0392210198
 20
122.6063560472
 30
0.0
 11
112.0392210198
 21
122.3183940874
 31
0.0
  0
SPLINE
  5
322
330
1F
100
AcDbEntity
  8
0
  6
Continuous
 62
     7
370
    15
100
AcDbSpline
210
0.0
220
0.0
230
1.0
 70
     8
 71
     3
 72
     8
 73
     4
 74
     0
 42
0.00000001
 43
0.00000001
 12
1.0
 22
0.0
 32
0.0
 13
1.0
 23
0.0
 33
0.0
 40
0.0
 40
0.0
 40
0.0
 40
0.0
 40
0.0004280954770802
 40
0.0004280954770802
 40
0.0004280954770802
 40
0.0004280954770802
 10
111.9897866777326
 20
122.2484956290948
 30
0.0
 10
112.0063869560239
 20
122.271708160883
 30
0.0
 10
112.0228692794709
 20
122.2950055716253
 30
0.0
 10
112.0392209944752
 20
122.3183938253143
 30
0.0
  0
LINE
  5
323
330
1F
100
AcDbEntity
  8
0
  6
Continuous
 62
     7
370
    15
100
AcDbLine
 10
111.9897866038
 20
122.2484957204
 30
0.0
 11
111.9892209185
 21
122.2480844484
 31
0.0
  0
LINE
  5
324
330
1F
100
AcDbEntity
  8
0
  6
Continuous
 62
     7
370
    15
100
AcDbLine
 10
111.9892209185
 20
122.2480844484
 30
0.0
 11
111.9892209185
 21
122.6363193021
 31
0.0
  0
LINE
  5
325
330
1F
100
AcDbEntity
  8
0
  6
Continuous
 62
     7
370
    15
100
AcDbLine
 10
115.1892210705
 20
122.2480844484
 30
0.0
 11
115.1886553851
 21
122.2484957204
 31
0.0
  0
SPLINE
  5
326
330
1F
100
AcDbEntity
  8
0
  6
Continuous
 62
     7
370
    15
100
AcDbSpline
210
0.0
220
0.0
230
1.0
 70
     8
 71
     3
 72
     8
 73
     4
 74
     0
 42
0.00000001
 43
0.00000001
 12
1.0
 22
0.0
 32
0.0
 13
1.0
 23
0.0
 33
0.0
 40
0.0
 40
0.0
 40
0.0
 40
0.0
 40
0.0004280954770802
 40
0.0004280954770802
 40
0.0004280954770802
 40
0.0004280954770802
 10
115.1886553112178
 20
122.2484956290948
 30
0.0
 10
115.1720550329265
 20
122.271708160883
 30
0.0
 10
115.1555727094795
 20
122.2950055716253
 30
0.0
 10
115.1392209944752
 20
122.3183938253143
 30
0.0
  0
LINE
  5
327
330
1F
100
AcDbEntity
  8
0
  6
Continuous
 62
     7
370
    15
100
AcDbLine
 10
115.1392209691
 20
122.3183940874
 30
0.0
 11
115.1392209691
 21
122.6063560472
 31
0.0
  0
LINE
  5
328
330
1F
100
AcDbEntity
  8
0
  6
Continuous
 62
     7
370
    15
100
AcDbLine
 10
115.1892210705
 20
122.6363193021
 30
0.0
 11
115.1892210705
 21
122.2480844484
 31
0.0
  0
LINE
  5
329
330
1F
100
AcDbEntity
  8
0
  6
Continuous
 62
     7
370
    15
100
AcDbLine
 10
112.0392210198
 20
122.3183940874
 30
0.0
 11
115.1392209691
 21
122.3183940874
 31
0.0
  0
LINE
  5
32A
330
1F
100
AcDbEntity
  8
0
  6
Continuous
 62
     7
370
    15
100
AcDbLine
 10
115.1392209691
 20
174.6438096986
 30
0.0
 11
115.1392209691
 21
175.2250831352
 31
0.0
  0
LINE
  5
32B
330
1F
100
AcDbEntity
  8
0
  6
Continuous
 62
     7
370
    15
100
AcDbLine
 10
115.1392209691
 20
175.2250831352
 30
0.0
 11
115.1892210705
 21
175.1867156253
 31
0.0
  0
LINE
  5
32C
330
1F
100
AcDbEntity
  8
0
  6
Continuous
 62
     7
370
    15
100
AcDbLine
 10
115.1892210705
 20
175.1867156253
 30
0.0
 11
115.1892210705
 21
174.6138464437
 31
0.0
  0
LINE
  5
32D
330
1F
100
AcDbEntity
  8
0
  6
Continuous
 62
     7
370
    15
100
AcDbLine
 10
112.0392210198
 20
175.2250831352
 30
0.0
 11
112.0392210198
 21
174.6438096986
 31
0.0
  0
LINE
  5
32E
330
1F
100
AcDbEntity
  8
0
  6
Continuous
 62
     7
370
    15
100
AcDbLine
 10
111.9892209185
 20
175.1867156253
 30
0.0
 11
112.0392210198
 21
175.2250831352
 31
0.0
  0
LINE
  5
32F
330
1F
100
AcDbEntity
  8
0
  6
Continuous
 62
     7
370
    15
100
AcDbLine
 10
111.9892209185
 20
174.6138464437
 30
0.0
 11
111.9892209185
 21
175.1867156253
 31
0.0
  0
LINE
  5
330
330
1F
100
AcDbEntity
  8
0
  6
Continuous
 62
     7
370
    15
100
AcDbLine
 10
115.1392209691
 20
175.2250831352
 30
0.0
 11
112.0392210198
 21
175.2250831352
 31
0.0
  0
LINE
  5
331
330
1F
100
AcDbEntity
  8
0
  6
Continuous
 62
     7
370
    15
100
AcDbLine
 10
115.1886553851
 20
122.2484957204
 30
0.0
 11
111.9897866038
 21
122.2484957204
 31
0.0
  0
LINE
  5
332
330
1F
100
AcDbEntity
  8
0
  6
Continuous
 62
     7
370
    15
100
AcDbLine
 10
115.1392209691
 20
122.0250826107
 30
0.0
 11
115.1892210705
 21
122.0634501205
 31
0.0
  0
LINE
  5
333
330
1F
100
AcDbEntity
  8
0
  6
Continuous
 62
     7
370
    15
100
AcDbLine
 10
115.1392209691
 20
122.0250826107
 30
0.0
 11
112.0392210198
 21
122.0250826107
 31
0.0
  0
LINE
  5
334
330
1F
100
AcDbEntity
  8
0
  6
Continuous
 62
     7
370
    15
100
AcDbLine
 10
111.9892209185
 20
122.0634501205
 30
0.0
 11
112.0392210198
 21
122.0250826107
 31
0.0
  0
LINE
  5
335
330
1F
100
AcDbEntity
  8
0
  6
Continuous
 62
     7
370
    15
100
AcDbLine
 10
115.1892210705
 20
122.2480844484
 30
0.0
 11
115.1892210705
 21
122.0634501205
 31
0.0
  0
LINE
  5
336
330
1F
100
AcDbEntity
  8
0
  6
Continuous
 62
     7
370
    15
100
AcDbLine
 10
111.9892209185
 20
122.2480844484
 30
0.0
 11
111.9892209185
 21
122.0634501205
 31
0.0
  0
ENDSEC
  0
SECTION
  2
OBJECTS
  0
DICTIONARY
  5
C
330
0
100
AcDbDictionary
281
     1
  3
ACAD_GROUP
350
D
  3
ACAD_LAYOUT
350
1A
  3
ACAD_MLINESTYLE
350
17
  3
ACAD_PLOTSETTINGS
350
19
  3
ACAD_PLOTSTYLENAME
350
E
  0
DICTIONARY
  5
D
102
{ACAD_REACTORS
330
C
102
}
330
C
100
AcDbDictionary
281
     1
  0
DICTIONARY
  5
1A
102
{ACAD_REACTORS
330
C
102
}
330
C
100
AcDbDictionary
281
     1
  3
Layout1
350
1E
  3
Layout2
350
26
  3
Model
350
22
  0
DICTIONARY
  5
17
102
{ACAD_REACTORS
330
C
102
}
330
C
100
AcDbDictionary
281
     1
  3
Standard
350
18
  0
DICTIONARY
  5
19
102
{ACAD_REACTORS
330
C
102
}
330
C
100
AcDbDictionary
281
     1
  0
ACDBDICTIONARYWDFLT
  5
E
102
{ACAD_REACTORS
330
C
102
}
330
C
100
AcDbDictionary
281
     1
  3
Normal
350
F
100
AcDbDictionaryWithDefault
340
F
  0
LAYOUT
  5
1E
102
{ACAD_REACTORS
330
1A
102
}
330
1A
100
AcDbPlotSettings
  1

  2
none_device
  4

  6

 40
0.0
 41
0.0
 42
0.0
 43
0.0
 44
0.0
 45
0.0
 46
0.0
 47
0.0
 48
0.0
 49
0.0
140
0.0
141
0.0
142
1.0
143
1.0
 70
   688
 72
     0
 73
     0
 74
     5
  7

 75
    16
147
1.0
148
0.0
149
0.0
100
AcDbLayout
  1
Layout1
 70
     1
 71
     1
 10
0.0
 20
0.0
 11
420.0
 21
297.0
 12
0.0
 22
0.0
 32
0.0
 14
1.0000000000E+20
 24
1.0000000000E+20
 34
1.0000000000E+20
 15
-1.0000000000E+20
 25
-1.0000000000E+20
 35
-1.0000000000E+20
146
0.0
 13
0.0
 23
0.0
 33
0.0
 16
1.0
 26
0.0
 36
0.0
 17
0.0
 27
1.0
 37
0.0
 76
     0
330
1B
  0
LAYOUT
  5
26
102
{ACAD_REACTORS
330
1A
102
}
330
1A
100
AcDbPlotSettings
  1

  2
none_device
  4

  6

 40
0.0
 41
0.0
 42
0.0
 43
0.0
 44
0.0
 45
0.0
 46
0.0
 47
0.0
 48
0.0
 49
0.0
140
0.0
141
0.0
142
1.0
143
1.0
 70
   688
 72
     0
 73
     0
 74
     5
  7

 75
    16
147
1.0
148
0.0
149
0.0
100
AcDbLayout
  1
Layout2
 70
     1
 71
     2
 10
0.0
 20
0.0
 11
0.0
 21
0.0
 12
0.0
 22
0.0
 32
0.0
 14
0.0
 24
0.0
 34
0.0
 15
0.0
 25
0.0
 35
0.0
146
0.0
 13
0.0
 23
0.0
 33
0.0
 16
1.0
 26
0.0
 36
0.0
 17
0.0
 27
1.0
 37
0.0
 76
     0
330
23
  0
LAYOUT
  5
22
102
{ACAD_REACTORS
330
1A
102
}
330
1A
100
AcDbPlotSettings
  1

  2
none_device
  4

  6

 40
0.0
 41
0.0
 42
0.0
 43
0.0
 44
0.0
 45
0.0
 46
0.0
 47
0.0
 48
0.0
 49
0.0
140
0.0
141
0.0
142
1.0
143
1.0
 70
  1712
 72
     0
 73
     0
 74
     0
  7

 75
     0
147
1.0
148
0.0
149
0.0
100
AcDbLayout
  1
Model
 70
     1
 71
     0
 10
0.0
 20
0.0
 11
279.4
 21
215.9
 12
0.0
 22
0.0
 32
0.0
 14
0.0
 24
0.0
 34
0.0
 15
279.4
 25
215.9
 35
0.0
146
0.0
 13
0.0
 23
0.0
 33
0.0
 16
1.0
 26
0.0
 36
0.0
 17
0.0
 27
1.0
 37
0.0
 76
     0
330
1F
331
29
  0
MLINESTYLE
  5
18
102
{ACAD_REACTORS
330
17
102
}
330
17
100
AcDbMlineStyle
  2
Standard
 70
     0
  3

 62
   256
 51
90.0
 52
90.0
 71
     2
 49
0.5
 62
   256
  6
BYLAYER
 49
-0.5
 62
   256
  6
BYLAYER
  0
ACDBPLACEHOLDER
  5
F
102
{ACAD_REACTORS
330
E
102
}
330
E
  0
ENDSEC
  0
EOF
