  0
SECTION
  2
HEADER
  9
$ACADVER
  1
AC1015
  9
$ACADMAINTVER
 70
     6
  9
$DWGCODEPAGE
  3
ANSI_1251
  9
$INSBASE
 10
0.0
 20
0.0
 30
0.0
  9
$EXTMIN
 10
0.0
 20
0.0
 30
0.0
  9
$EXTMAX
 10
279.4
 20
215.9
 30
0.0
  9
$LIMMIN
 10
0.0
 20
0.0
  9
$LIMMAX
 10
279.4
 20
215.9
  9
$ORTHOMODE
 70
     0
  9
$REGENMODE
 70
     1
  9
$FILLMODE
 70
     1
  9
$QTEXTMODE
 70
     0
  9
$MIRRTEXT
 70
     1
  9
$LTSCALE
 40
1.0
  9
$ATTMODE
 70
     1
  9
$TEXTSIZE
 40
3.5
  9
$TRACEWID
 40
1.0
  9
$TEXTSTYLE
  7
Standard
  9
$CLAYER
  8
0
  9
$CELTYPE
  6
ByLayer
  9
$CECOLOR
 62
   256
  9
$CELTSCALE
 40
1.0
  9
$DISPSILH
 70
     0
  9
$DIMSCALE
 40
1.0
  9
$DIMASZ
 40
3.5
  9
$DIMEXO
 40
0.01
  9
$DIMDLI
 40
3.75
  9
$DIMRND
 40
0.0
  9
$DIMDLE
 40
0.0
  9
$DIMEXE
 40
1.0
  9
$DIMTP
 40
0.0
  9
$DIMTM
 40
0.0
  9
$DIMTXT
 40
3.5
  9
$DIMCEN
 40
2.5
  9
$DIMTSZ
 40
0.0
  9
$DIMTOL
 70
     0
  9
$DIMLIM
 70
     0
  9
$DIMTIH
 70
     1
  9
$DIMTOH
 70
     1
  9
$DIMSE1
 70
     0
  9
$DIMSE2
 70
     0
  9
$DIMTAD
 70
     1
  9
$DIMZIN
 70
     0
  9
$DIMBLK
  1

  9
$DIMASO
 70
     1
  9
$DIMSHO
 70
     1
  9
$DIMPOST
  1

  9
$DIMAPOST
  1

  9
$DIMALT
 70
     0
  9
$DIMALTD
 70
     3
  9
$DIMALTF
 40
0.0393700787
  9
$DIMLFAC
 40
2.0
  9
$DIMTOFL
 70
     1
  9
$DIMTVP
 40
0.0
  9
$DIMTIX
 70
     0
  9
$DIMSOXD
 70
     0
  9
$DIMSAH
 70
     0
  9
$DIMBLK1
  1

  9
$DIMBLK2
  1

  9
$DIMSTYLE
  2
ISO-25
  9
$DIMCLRD
 70
     0
  9
$DIMCLRE
 70
     0
  9
$DIMCLRT
 70
     0
  9
$DIMTFAC
 40
1.0
  9
$DIMGAP
 40
3.0
  9
$DIMJUST
 70
     0
  9
$DIMSD1
 70
     0
  9
$DIMSD2
 70
     0
  9
$DIMTOLJ
 70
     0
  9
$DIMTZIN
 70
     0
  9
$DIMALTZ
 70
     0
  9
$DIMALTTZ
 70
     0
  9
$DIMUPT
 70
     0
  9
$DIMDEC
 70
     2
  9
$DIMTDEC
 70
     3
  9
$DIMALTU
 70
     2
  9
$DIMALTTD
 70
     3
  9
$DIMTXSTY
  7
Standard
  9
$DIMAUNIT
 70
     0
  9
$DIMADEC
 70
     2
  9
$DIMALTRND
 40
0.0
  9
$DIMAZIN
 70
     0
  9
$DIMDSEP
 70
    44
  9
$DIMATFIT
 70
     3
  9
$DIMFRAC
 70
     0
  9
$DIMLDRBLK
  1

  9
$DIMLUNIT
 70
     2
  9
$DIMLWD
 70
    -2
  9
$DIMLWE
 70
    -2
  9
$DIMTMOVE
 70
     0
  9
$LUNITS
 70
     2
  9
$LUPREC
 70
     2
  9
$SKETCHINC
 40
1.0
  9
$FILLETRAD
 40
10.0
  9
$AUNITS
 70
     0
  9
$AUPREC
 70
     2
  9
$MENU
  1
.
  9
$ELEVATION
 40
0.0
  9
$PELEVATION
 40
0.0
  9
$THICKNESS
 40
0.0
  9
$LIMCHECK
 70
     0
  9
$CHAMFERA
 40
10.0
  9
$CHAMFERB
 40
10.0
  9
$CHAMFERC
 40
20.0
  9
$CHAMFERD
 40
0.0
  9
$SKPOLY
 70
     0
  9
$TDCREATE
 40
2457408.669320197
  9
$TDUCREATE
 40
2457408.585986863
  9
$TDUPDATE
 40
2457408.6693211
  9
$TDUUPDATE
 40
2457408.585987766
  9
$TDINDWG
 40
0.0000000116
  9
$TDUSRTIMER
 40
0.0000000116
  9
$USRTIMER
 70
     1
  9
$ANGBASE
 50
0.0
  9
$ANGDIR
 70
     0
  9
$PDMODE
 70
     0
  9
$PDSIZE
 40
-1.0
  9
$PLINEWID
 40
0.0
  9
$SPLFRAME
 70
     0
  9
$SPLINETYPE
 70
     6
  9
$SPLINESEGS
 70
     8
  9
$HANDSEED
  5
BF
  9
$SURFTAB1
 70
     6
  9
$SURFTAB2
 70
     6
  9
$SURFTYPE
 70
     6
  9
$SURFU
 70
     6
  9
$SURFV
 70
     6
  9
$UCSBASE
  2

  9
$UCSNAME
  2

  9
$UCSORG
 10
0.0
 20
0.0
 30
0.0
  9
$UCSXDIR
 10
1.0
 20
0.0
 30
0.0
  9
$UCSYDIR
 10
0.0
 20
1.0
 30
0.0
  9
$UCSORTHOREF
  2

  9
$UCSORTHOVIEW
 70
     0
  9
$UCSORGTOP
 10
0.0
 20
0.0
 30
0.0
  9
$UCSORGBOTTOM
 10
0.0
 20
0.0
 30
0.0
  9
$UCSORGLEFT
 10
0.0
 20
0.0
 30
0.0
  9
$UCSORGRIGHT
 10
0.0
 20
0.0
 30
0.0
  9
$UCSORGFRONT
 10
0.0
 20
0.0
 30
0.0
  9
$UCSORGBACK
 10
0.0
 20
0.0
 30
0.0
  9
$PUCSBASE
  2

  9
$PUCSNAME
  2

  9
$PUCSORG
 10
0.0
 20
0.0
 30
0.0
  9
$PUCSXDIR
 10
1.0
 20
0.0
 30
0.0
  9
$PUCSYDIR
 10
0.0
 20
1.0
 30
0.0
  9
$PUCSORTHOREF
  2

  9
$PUCSORTHOVIEW
 70
     0
  9
$PUCSORGTOP
 10
0.0
 20
0.0
 30
0.0
  9
$PUCSORGBOTTOM
 10
0.0
 20
0.0
 30
0.0
  9
$PUCSORGLEFT
 10
0.0
 20
0.0
 30
0.0
  9
$PUCSORGRIGHT
 10
0.0
 20
0.0
 30
0.0
  9
$PUCSORGFRONT
 10
0.0
 20
0.0
 30
0.0
  9
$PUCSORGBACK
 10
0.0
 20
0.0
 30
0.0
  9
$USERI1
 70
     0
  9
$USERI2
 70
     0
  9
$USERI3
 70
     0
  9
$USERI4
 70
     0
  9
$USERI5
 70
     0
  9
$USERR1
 40
0.0
  9
$USERR2
 40
0.0
  9
$USERR3
 40
0.0
  9
$USERR4
 40
0.0
  9
$USERR5
 40
0.0
  9
$WORLDVIEW
 70
     1
  9
$SHADEDGE
 70
     3
  9
$SHADEDIF
 70
    70
  9
$TILEMODE
 70
     1
  9
$MAXACTVP
 70
    64
  9
$PINSBASE
 10
0.0
 20
0.0
 30
0.0
  9
$PLIMCHECK
 70
     0
  9
$PEXTMIN
 10
1.0000000000E+20
 20
1.0000000000E+20
 30
1.0000000000E+20
  9
$PEXTMAX
 10
-1.0000000000E+20
 20
-1.0000000000E+20
 30
-1.0000000000E+20
  9
$PLIMMIN
 10
0.0
 20
0.0
  9
$PLIMMAX
 10
420.0
 20
297.0
  9
$UNITMODE
 70
     0
  9
$VISRETAIN
 70
     1
  9
$PLINEGEN
 70
     0
  9
$PSLTSCALE
 70
     1
  9
$TREEDEPTH
 70
  3020
  9
$CMLSTYLE
  2
Standard
  9
$CMLJUST
 70
     0
  9
$CMLSCALE
 40
20.0
  9
$PROXYGRAPHICS
 70
     1
  9
$MEASUREMENT
 70
     1
  9
$CELWEIGHT
370
    -1
  9
$ENDCAPS
280
     0
  9
$JOINSTYLE
280
     0
  9
$LWDISPLAY
290
     1
  9
$INSUNITS
 70
     4
  9
$HYPERLINKBASE
  1

  9
$STYLESHEET
  1

  9
$XEDIT
290
     1
  9
$CEPSNTYPE
380
     0
  9
$PSTYLEMODE
290
     1
  9
$FINGERPRINTGUID
  2
{6E5DE9E2-9307-4CD4-921A-9B3AC54BE3EE}
  9
$VERSIONGUID
  2
{FAEB1C32-E019-11D5-929B-00C0DF256EC4}
  9
$EXTNAMES
290
     1
  9
$PSVPSCALE
 40
0.0
  9
$OLESTARTUP
290
     0
  0
ENDSEC
  0
SECTION
  2
CLASSES
  0
CLASS
  1
ACDBDICTIONARYWDFLT
  2
AcDbDictionaryWithDefault
  3
ObjectDBX Classes
 90
        0
280
     0
281
     0
  0
CLASS
  1
VISUALSTYLE
  2
AcDbVisualStyle
  3
ObjectDBX Classes
 90
     4095
280
     0
281
     0
  0
CLASS
  1
MATERIAL
  2
AcDbMaterial
  3
ObjectDBX Classes
 90
     1153
280
     0
281
     0
  0
CLASS
  1
ACDBPLACEHOLDER
  2
AcDbPlaceHolder
  3
ObjectDBX Classes
 90
        0
280
     0
281
     0
  0
CLASS
  1
LAYOUT
  2
AcDbLayout
  3
ObjectDBX Classes
 90
        0
280
     0
281
     0
  0
ENDSEC
  0
SECTION
  2
TABLES
  0
TABLE
  2
VPORT
  5
8
330
0
100
AcDbSymbolTable
 70
     1
  0
VPORT
  5
29
330
8
100
AcDbSymbolTableRecord
100
AcDbViewportTableRecord
  2
*Active
 70
     0
 10
0.0
 20
0.0
 11
1.0
 21
1.0
 12
139.7
 22
107.95
 13
0.0
 23
0.0
 14
10.0
 24
10.0
 15
10.0
 25
10.0
 16
0.0
 26
0.0
 36
1.0
 17
0.0
 27
0.0
 37
0.0
 40
215.9
 41
1.2941176471
 42
50.0
 43
0.0
 44
0.0
 50
0.0
 51
0.0
 71
     0
 72
  2000
 73
     1
 74
     3
 75
     0
 76
     0
 77
     0
 78
     0
281
     0
 65
     1
110
0.0
120
0.0
130
0.0
111
1.0
121
0.0
131
0.0
112
0.0
122
1.0
132
0.0
 79
     0
146
0.0
  0
ENDTAB
  0
TABLE
  2
LTYPE
  5
5
330
0
100
AcDbSymbolTable
 70
     6
  0
LTYPE
  5
14
330
5
100
AcDbSymbolTableRecord
100
AcDbLinetypeTableRecord
  2
ByBlock
 70
     0
  3

 72
    65
 73
     0
 40
0.0
  0
LTYPE
  5
15
330
5
100
AcDbSymbolTableRecord
100
AcDbLinetypeTableRecord
  2
ByLayer
 70
     0
  3

 72
    65
 73
     0
 40
0.0
  0
LTYPE
  5
16
330
5
100
AcDbSymbolTableRecord
100
AcDbLinetypeTableRecord
  2
Continuous
 70
     0
  3
Solid line
 72
    65
 73
     0
 40
0.0
  0
LTYPE
  5
3F
330
5
100
AcDbSymbolTableRecord
100
AcDbLinetypeTableRecord
  2
HIDDEN
 70
     0
  3
Hidden __ __ __ __ __ __ __ __ __ __ __ __ __ __
 72
    65
 73
     2
 40
1.905
 49
1.27
 74
     0
 49
-0.635
 74
     0
  0
LTYPE
  5
40
330
5
100
AcDbSymbolTableRecord
100
AcDbLinetypeTableRecord
  2
PHANTOM
 70
     0
  3
Phantom ______  __  __  ______  __  __  ______
 72
    65
 73
     6
 40
12.7
 49
6.35
 74
     0
 49
-1.27
 74
     0
 49
1.27
 74
     0
 49
-1.27
 74
     0
 49
1.27
 74
     0
 49
-1.27
 74
     0
  0
LTYPE
  5
41
330
5
100
AcDbSymbolTableRecord
100
AcDbLinetypeTableRecord
  2
CENTER
 70
     0
  3
Center ____ _ ____ _ ____ _ ____ _ ____ _ ____
 72
    65
 73
     4
 40
10.16
 49
6.35
 74
     0
 49
-1.27
 74
     0
 49
1.27
 74
     0
 49
-1.27
 74
     0
  0
LTYPE
  5
42
330
5
100
AcDbSymbolTableRecord
100
AcDbLinetypeTableRecord
  2
CENTERX2
 70
     0
  3
Center (2x) ________  __  ________  __  _____
 72
    65
 73
     4
 40
20.32
 49
12.7
 74
     0
 49
-2.54
 74
     0
 49
2.54
 74
     0
 49
-2.54
 74
     0
  0
LTYPE
  5
43
330
5
100
AcDbSymbolTableRecord
100
AcDbLinetypeTableRecord
  2
DOT2
 70
     0
  3
Dot (.5x) ........................................
 72
    65
 73
     2
 40
0.635
 49
0.0
 74
     0
 49
-0.635
 74
     0
  0
ENDTAB
  0
TABLE
  2
LAYER
  5
2
330
0
100
AcDbSymbolTable
 70
     1
  0
LAYER
  5
10
330
2
100
AcDbSymbolTableRecord
100
AcDbLayerTableRecord
  2
0
 70
     0
 62
     7
  6
Continuous
370
    -3
390
F
  0
ENDTAB
  0
TABLE
  2
STYLE
  5
3
330
0
100
AcDbSymbolTable
 70
     1
  0
STYLE
  5
11
330
3
100
AcDbSymbolTableRecord
100
AcDbTextStyleTableRecord
  2
Standard
 70
     0
 40
0.0
 41
1.0
 50
0.0
 71
     0
 42
3.5
  3
txt
  4

  0
ENDTAB
  0
TABLE
  2
VIEW
  5
6
330
0
100
AcDbSymbolTable
 70
     0
  0
ENDTAB
  0
TABLE
  2
UCS
  5
7
330
0
100
AcDbSymbolTable
 70
     0
  0
ENDTAB
  0
TABLE
  2
APPID
  5
9
330
0
100
AcDbSymbolTable
 70
     1
  0
APPID
  5
12
330
9
100
AcDbSymbolTableRecord
100
AcDbRegAppTableRecord
  2
ACAD
 70
     0
  0
ENDTAB
  0
TABLE
  2
DIMSTYLE
  5
A
330
0
100
AcDbSymbolTable
 70
     1
100
AcDbDimStyleTable
  0
DIMSTYLE
105
27
330
A
100
AcDbSymbolTableRecord
100
AcDbDimStyleTableRecord
  2
ISO-25
 70
     0
 41
2.5
 42
0.625
 43
3.75
 44
1.25
 73
     0
 74
     0
 77
     1
 78
     8
140
2.5
141
2.5
143
0.0393700787
147
0.625
171
     3
172
     1
178
     0
271
     2
272
     2
274
     3
278
    44
283
     0
284
     8
340
11
  0
ENDTAB
  0
TABLE
  2
BLOCK_RECORD
  5
1
330
0
100
AcDbSymbolTable
 70
     1
  0
BLOCK_RECORD
  5
1F
330
1
100
AcDbSymbolTableRecord
100
AcDbBlockTableRecord
  2
*Model_Space
340
22
  0
BLOCK_RECORD
  5
1B
330
1
100
AcDbSymbolTableRecord
100
AcDbBlockTableRecord
  2
*Paper_Space
340
1E
  0
BLOCK_RECORD
  5
23
330
1
100
AcDbSymbolTableRecord
100
AcDbBlockTableRecord
  2
*Paper_Space0
340
26
  0
ENDTAB
  0
ENDSEC
  0
SECTION
  2
BLOCKS
  0
BLOCK
  5
20
330
1F
100
AcDbEntity
  8
0
100
AcDbBlockBegin
  2
*Model_Space
 70
     0
 10
0.0
 20
0.0
 30
0.0
  3
*Model_Space
  1

  0
ENDBLK
  5
21
330
1F
100
AcDbEntity
  8
0
100
AcDbBlockEnd
  0
BLOCK
  5
1C
330
1B
100
AcDbEntity
 67
     1
  8
0
100
AcDbBlockBegin
  2
*Paper_Space
 70
     0
 10
0.0
 20
0.0
 30
0.0
  3
*Paper_Space
  1

  0
ENDBLK
  5
1D
330
1B
100
AcDbEntity
 67
     1
  8
0
100
AcDbBlockEnd
  0
BLOCK
  5
24
330
23
100
AcDbEntity
  8
0
100
AcDbBlockBegin
  2
*Paper_Space0
 70
     0
 10
0.0
 20
0.0
 30
0.0
  3
*Paper_Space0
  1

  0
ENDBLK
  5
25
330
23
100
AcDbEntity
  8
0
100
AcDbBlockEnd
  0
ENDSEC
  0
SECTION
  2
ENTITIES
  0
LINE
  5
44
330
1F
100
AcDbEntity
  8
0
  6
Continuous
 62
     7
370
    15
100
AcDbLine
 10
70.0085550427
 20
170.1189447514
 30
0.0
 11
69.8140849403
 21
176.5952924744
 31
0.0
  0
LINE
  5
45
330
1F
100
AcDbEntity
  8
0
  6
Continuous
 62
     7
370
    15
100
AcDbLine
 10
69.8140849403
 20
176.5952924744
 30
0.0
 11
69.9390286243
 21
176.5990442512
 31
0.0
  0
LINE
  5
46
330
1F
100
AcDbEntity
  8
0
  6
Continuous
 62
     7
370
    15
100
AcDbLine
 10
69.9390286243
 20
176.5990442512
 30
0.0
 11
70.1336590936
 21
170.1173559027
 31
0.0
  0
LINE
  5
47
330
1F
100
AcDbEntity
  8
0
  6
Continuous
 62
     7
370
    15
100
AcDbLine
 10
70.1336590936
 20
170.1173559027
 30
0.0
 11
70.0085550427
 21
170.1189447514
 31
0.0
  0
LINE
  5
48
330
1F
100
AcDbEntity
  8
0
  6
Continuous
 62
     7
370
    15
100
AcDbLine
 10
56.0702797006
 20
176.5952924744
 30
0.0
 11
55.8758095982
 21
170.1189447514
 31
0.0
  0
LINE
  5
49
330
1F
100
AcDbEntity
  8
0
  6
Continuous
 62
     7
370
    15
100
AcDbLine
 10
55.8758095982
 20
170.1189447514
 30
0.0
 11
55.7508599668
 21
170.1224984654
 31
0.0
  0
LINE
  5
4A
330
1F
100
AcDbEntity
  8
0
  6
Continuous
 62
     7
370
    15
100
AcDbLine
 10
55.7508599668
 20
170.1224984654
 30
0.0
 11
55.9453360166
 21
176.5990442512
 31
0.0
  0
LINE
  5
4B
330
1F
100
AcDbEntity
  8
0
  6
Continuous
 62
     7
370
    15
100
AcDbLine
 10
56.0702797006
 20
176.5952924744
 30
0.0
 11
55.9453360166
 21
176.5990442512
 31
0.0
  0
LINE
  5
4C
330
1F
100
AcDbEntity
  8
0
  6
Continuous
 62
     7
370
    15
100
AcDbLine
 10
70.0113172006
 20
169.9939447514
 30
0.0
 11
55.8757061651
 21
169.9939447514
 31
0.0
  0
LINE
  5
4D
330
1F
100
AcDbEntity
  8
0
  6
Continuous
 62
     7
370
    15
100
AcDbLine
 10
55.8757061651
 20
169.9939447514
 30
0.0
 11
55.8758095982
 21
170.1189447514
 31
0.0
  0
LINE
  5
4E
330
1F
100
AcDbEntity
  8
0
  6
Continuous
 62
     7
370
    15
100
AcDbLine
 10
55.8758095982
 20
170.1189447514
 30
0.0
 11
70.0085550427
 21
170.1189447514
 31
0.0
  0
LINE
  5
4F
330
1F
100
AcDbEntity
  8
0
  6
Continuous
 62
     7
370
    15
100
AcDbLine
 10
70.0113172006
 20
169.9939447514
 30
0.0
 11
70.0085550427
 21
170.1189447514
 31
0.0
  0
ARC
  5
50
330
1F
100
AcDbEntity
  8
0
  6
Continuous
 62
     7
370
    15
100
AcDbCircle
 10
62.9421823204
 20
176.3889447514
 30
0.0
 40
6.875000000000001
100
AcDbArc
 50
1.7199461045
 51
178.2800538955
  0
CIRCLE
  5
51
330
1F
100
AcDbEntity
  8
0
  6
Continuous
 62
     7
370
    15
100
AcDbCircle
 10
62.9421823204
 20
176.3889447514
 30
0.0
 40
2.374999999999993
  0
LINE
  5
52
330
1F
100
AcDbEntity
  8
0
  6
Continuous
 62
     7
370
    15
100
AcDbLine
 10
70.0113172006
 20
169.9939447514
 30
0.0
 11
70.1336590936
 21
170.1173559027
 31
0.0
  0
CIRCLE
  5
53
330
1F
100
AcDbEntity
  8
0
  6
Continuous
 62
     7
370
    15
100
AcDbCircle
 10
62.9421823204
 20
176.3889447514
 30
0.0
 40
2.249999999999993
  0
LINE
  5
54
330
1F
100
AcDbEntity
  8
0
  6
Continuous
 62
     7
370
    15
100
AcDbLine
 10
55.8757061651
 20
169.9939447514
 30
0.0
 11
55.7508599668
 21
170.1224984654
 31
0.0
  0
ARC
  5
55
330
1F
100
AcDbEntity
  8
0
  6
Continuous
 62
     7
370
    15
100
AcDbCircle
 10
62.9421823204
 20
176.3889447514
 30
0.0
 40
7.000000000000003
100
AcDbArc
 50
1.7199461045
 51
178.2800538955
  0
SPLINE
  5
56
330
1F
100
AcDbEntity
  8
0
  6
Continuous
 62
     7
370
    15
100
AcDbSpline
210
0.0
220
0.0
230
1.0
 70
     8
 71
     3
 72
    47
 73
    43
 74
     0
 42
0.00000001
 43
0.00000001
 12
1.0
 22
0.0
 32
0.0
 13
1.0
 23
0.0
 33
0.0
 40
0.0
 40
0.0
 40
0.0
 40
0.0
 40
0.031442691758501
 40
0.0625548815249332
 40
0.0933365744314283
 40
0.1237877758643145
 40
0.1539084914743305
 40
0.183698727187407
 40
0.2131584892160524
 40
0.2422877840713823
 40
0.271086618575842
 40
0.2995549998766612
 40
0.327692935460105
 40
0.3555004331665621
 40
0.3829775012065469
 40
0.4101241481776741
 40
0.4369403830826674
 40
0.4634262153485054
 40
0.4895816548467661
 40
0.5154067119152698
 40
0.5409013973811306
 40
0.5660657225853095
 40
0.5908996994088057
 40
0.6154033403006063
 40
0.6395766583075485
 40
0.663419667106237
 40
0.6869323810372129
 40
0.7101148151415421
 40
0.7329669852000483
 40
0.7554889077754156
 40
0.7776806002574241
 40
0.7995420809115831
 40
0.8210733689315033
 40
0.8422744844953213
 40
0.8631454488265958
 40
0.8836862842600753
 40
0.9038970143128243
 40
0.9237776637612571
 40
0.9433282587246387
 40
0.9625488267557504
 40
0.9814393969394566
 40
0.9999999999999999
 40
0.9999999999999999
 40
0.9999999999999999
 40
0.9999999999999999
 10
70.07331155039141
 20
168.0459968470498
 30
0.0
 10
70.07228580834922
 20
168.0783477281307
 30
0.0
 10
70.0702451060958
 20
168.1427094420953
 30
0.0
 10
70.06725769751968
 20
168.2383649437764
 30
0.0
 10
70.06434494764002
 20
168.3324579921617
 30
0.0
 10
70.06151085392987
 20
168.424786342065
 30
0.0
 10
70.05875436214187
 20
168.5151763424608
 30
0.0
 10
70.05607574996749
 20
168.6034655316053
 30
0.0
 10
70.05347494396682
 20
168.6895070232211
 30
0.0
 10
70.05095196323632
 20
168.7731680756055
 30
0.0
 10
70.04850680247529
 20
168.8543301286125
 30
0.0
 10
70.04613946279859
 20
168.9328883946925
 30
0.0
 10
70.04384994361787
 20
169.0087515146018
 30
0.0
 10
70.04163824477939
 20
169.0818411493091
 30
0.0
 10
70.03950436600016
 20
169.1520915478092
 30
0.0
 10
70.03744830701552
 20
169.2194490860262
 30
0.0
 10
70.03547006753934
 20
169.2838717834791
 30
0.0
 10
70.03356964727345
 20
169.3453288011007
 30
0.0
 10
70.03174704590398
 20
169.4037999242061
 30
0.0
 10
70.0300022631013
 20
169.4592750341698
 30
0.0
 10
70.02833529851857
 20
169.5117535722161
 30
0.0
 10
70.02674615179083
 20
169.5612439984806
 30
0.0
 10
70.02523482253375
 20
169.6077632492905
 30
0.0
 10
70.02380131034226
 20
169.6513361953834
 30
0.0
 10
70.02244561478928
 20
169.6919951035675
 30
0.0
 10
70.02116773542404
 20
169.7297791041094
 30
0.0
 10
70.01996767177054
 20
169.7647336659317
 30
0.0
 10
70.01884542332611
 20
169.7969100814694
 30
0.0
 10
70.01780098955736
 20
169.8263649629338
 30
0.0
 10
70.01683436990619
 20
169.8531597511921
 30
0.0
 10
70.01594556375801
 20
169.8773602395498
 30
0.0
 10
70.01513457054666
 20
169.8990361099406
 30
0.0
 10
70.01440138935959
 20
169.9182604956785
 30
0.0
 10
70.01374602036543
 20
169.9351095234015
 30
0.0
 10
70.0131684595941
 20
169.9496620105103
 30
0.0
 10
70.01266871794834
 20
169.9619986782292
 30
0.0
 10
70.01224675191511
 20
169.9722032143508
 30
0.0
 10
70.0119027159129
 20
169.9803566846529
 30
0.0
 10
70.0116360435301
 20
169.9865562496783
 30
0.0
 10
70.01144879112894
 20
169.990845507485
 30
0.0
 10
70.0113334747268
 20
169.9934664337595
 30
0.0
 10
70.01132259332864
 20
169.9937862514353
 30
0.0
 10
70.01131720056536
 20
169.9939447513812
 30
0.0
  0
LINE
  5
57
330
1F
100
AcDbEntity
  8
0
  6
Continuous
 62
     7
370
    15
100
AcDbLine
 10
55.813563614
 20
168.045996847
 30
0.0
 11
70.0733115504
 21
168.045996847
 31
0.0
  0
SPLINE
  5
58
330
1F
100
AcDbEntity
  8
0
  6
Continuous
 62
     7
370
    15
100
AcDbSpline
210
0.0
220
0.0
230
1.0
 70
     8
 71
     3
 72
    30
 73
    26
 74
     0
 42
0.00000001
 43
0.00000001
 12
1.0
 22
0.0
 32
0.0
 13
1.0
 23
0.0
 33
0.0
 40
0.0
 40
0.0
 40
0.0
 40
0.0
 40
0.0324934311682273
 40
0.06598485824557
 40
0.1004744208831064
 40
0.135962244676016
 40
0.1724484426356121
 40
0.2099331164657903
 40
0.2484163576742092
 40
0.2878982485432358
 40
0.3283788629813255
 40
0.3698582672720893
 40
0.4123365207354285
 40
0.4558136763128364
 40
0.5002897810870646
 40
0.5457648767447829
 40
0.5922389999895724
 40
0.63971218291151
 40
0.6881844533187115
 40
0.7376558350354202
 40
0.788126348170625
 40
0.8395960093606223
 40
0.8920648319885042
 40
0.9455328263831548
 40
1.0
 40
1.0
 40
1.0
 40
1.0
 10
55.87570616512118
 20
169.9939447513812
 30
0.0
 10
55.87568663168296
 20
169.9934584973503
 30
0.0
 10
55.87564696486091
 20
169.9924710545919
 30
0.0
 10
55.87528695201988
 20
169.9843054862672
 30
0.0
 10
55.87470957790479
 20
169.97071773862
 30
0.0
 10
55.87389126862084
 20
169.9507698473755
 30
0.0
 10
55.87283860320937
 20
169.9241594051813
 30
0.0
 10
55.87154972618825
 20
169.8904260189599
 30
0.0
 10
55.87002514079055
 20
169.8491808707891
 30
0.0
 10
55.86826469332527
 20
169.8000508259038
 30
0.0
 10
55.8662684145643
 20
169.7427028921271
 30
0.0
 10
55.86403628503954
 20
169.6768468378376
 30
0.0
 10
55.86156830026684
 20
169.6022444131935
 30
0.0
 10
55.85886445251026
 20
169.5187171696697
 30
0.0
 10
55.8559247356586
 20
169.4261550069337
 30
0.0
 10
55.8527491441473
 20
169.3245247364048
 30
0.0
 10
55.84933767178566
 20
169.2138787105121
 30
0.0
 10
55.84569031740197
 20
169.0943633616238
 30
0.0
 10
55.84180706247281
 20
168.966227415467
 30
0.0
 10
55.83768795715118
 20
168.8298299752547
 30
0.0
 10
55.8333327890486
 20
168.6856468630511
 30
0.0
 10
55.82874235671505
 20
168.5342804967908
 30
0.0
 10
55.82391357543227
 20
168.3764520004729
 30
0.0
 10
55.81885827526749
 20
168.2130563043622
 30
0.0
 10
55.81533935951328
 20
168.1020259435181
 30
0.0
 10
55.81356361395362
 20
168.0459968470498
 30
0.0
  0
LINE
  5
59
330
1F
100
AcDbEntity
  8
0
  6
Continuous
 62
     7
370
    15
100
AcDbLine
 10
55.813563614
 20
168.045996847
 30
0.0
 11
55.6887174156
 21
168.0529938739
 31
0.0
  0
SPLINE
  5
5A
330
1F
100
AcDbEntity
  8
0
  6
Continuous
 62
     7
370
    15
100
AcDbSpline
210
0.0
220
0.0
230
1.0
 70
    24
 71
     3
 72
    23
 73
    19
 74
     0
 42
0.00000001
 43
0.00000001
 12
1.0
 22
0.0
 32
0.0
 13
1.0
 23
0.0
 33
0.0
 40
0.0
 40
0.0
 40
0.0
 40
0.0
 40
0.0311788283877669
 40
0.0622327429349822
 40
0.0932377130817349
 40
0.1242700677284527
 40
0.1554059343786951
 40
0.1867206856187583
 40
0.2182884127212242
 40
0.2501814439291208
 40
0.3756701391547567
 40
0.5001072637841856
 40
0.6244310226781883
 40
0.7499912586569658
 40
0.8133763855022302
 40
0.8757714173358897
 40
0.9377757322107213
 40
1.0
 40
1.0
 40
1.0
 40
1.0
 10
55.68871741564484
 20
168.0529938739305
 30
0.0
 10
55.68974003329099
 20
168.0870496356313
 30
0.0
 10
55.69178117160133
 20
168.1550247191406
 30
0.0
 10
55.69482756715715
 20
168.2564774189703
 30
0.0
 10
55.69785111535084
 20
168.3571692436837
 30
0.0
 10
55.70085145626162
 20
168.4570882070065
 30
0.0
 10
55.70382863537783
 20
168.5562358238151
 30
0.0
 10
55.7067825177044
 20
168.6546075984313
 30
0.0
 10
55.70971331820532
 20
168.7522106897016
 30
0.0
 10
55.71544941825442
 20
168.9432373721565
 30
0.0
 10
55.72360250591588
 20
169.2147558732988
 30
0.0
 10
55.73303407779503
 20
169.528851142033
 30
0.0
 10
55.74077680844182
 20
169.7867037136299
 30
0.0
 10
55.74554114707721
 20
169.9453682759321
 30
0.0
 10
55.74830747251188
 20
170.0374939302706
 30
0.0
 10
55.74979085654487
 20
170.0868943814837
 30
0.0
 10
55.75070950241078
 20
170.1174876191561
 30
0.0
 10
55.75080975284571
 20
170.120826212946
 30
0.0
 10
55.75085996681239
 20
170.1224984654145
 30
0.0
  0
LINE
  5
5B
330
1F
100
AcDbEntity
  8
0
  6
Continuous
 62
     7
370
    15
100
AcDbLine
 10
70.1956534434
 20
168.0527867918
 30
0.0
 11
70.0733115504
 21
168.045996847
 31
0.0
  0
SPLINE
  5
5C
330
1F
100
AcDbEntity
  8
0
  6
Continuous
 62
     7
370
    15
100
AcDbSpline
210
0.0
220
0.0
230
1.0
 70
    24
 71
     3
 72
    23
 73
    19
 74
     0
 42
0.00000001
 43
0.00000001
 12
1.0
 22
0.0
 32
0.0
 13
1.0
 23
0.0
 33
0.0
 40
0.0
 40
0.0
 40
0.0
 40
0.0
 40
0.0311648158445887
 40
0.0622049352469174
 40
0.0931964288688602
 40
0.1242157251189579
 40
0.1553390475847229
 40
0.1866418599390316
 40
0.2181983381930186
 40
0.2500808879157746
 40
0.3755384828663033
 40
0.4999648166268438
 40
0.6242993266816728
 40
0.7498906590311953
 40
0.8132975035379706
 40
0.8757170233102803
 40
0.9377478927142306
 40
0.9999999999999999
 40
0.9999999999999999
 40
0.9999999999999999
 40
0.9999999999999999
 10
70.13365909362098
 20
170.1173559027056
 30
0.0
 10
70.1336698375343
 20
170.1169981031378
 30
0.0
 10
70.13369128237247
 20
170.1162839356274
 30
0.0
 10
70.13391385733277
 20
170.1088716248414
 30
0.0
 10
70.13427613786033
 20
170.0968067642733
 30
0.0
 10
70.13479161128261
 20
170.0796401917046
 30
0.0
 10
70.13545666824287
 20
170.0574921078717
 30
0.0
 10
70.13627217962735
 20
170.0303335100527
 30
0.0
 10
70.13723812739025
 20
169.9981649992199
 30
0.0
 10
70.1394392675656
 20
169.9248614477267
 30
0.0
 10
70.14371743124113
 20
169.7823877448729
 30
0.0
 10
70.15143735091473
 20
169.5252948365476
 30
0.0
 10
70.16084932981549
 20
169.2118520636958
 30
0.0
 10
70.16988980640028
 20
168.9107812603587
 30
0.0
 10
70.17758066627661
 20
168.6546561169989
 30
0.0
 10
70.18351779813835
 20
168.4569345652242
 30
0.0
 10
70.18954990967252
 20
168.2560499494207
 30
0.0
 10
70.1936165191792
 20
168.1206215370414
 30
0.0
 10
70.19565344344703
 20
168.0527867918371
 30
0.0
  0
LINE
  5
5D
330
1F
100
AcDbEntity
  8
0
  6
Continuous
 62
     7
370
    15
100
AcDbLine
 10
71.8171823204
 20
109.9706765107
 30
0.0
 11
70.0733115504
 21
168.045996847
 31
0.0
  0
LINE
  5
5E
330
1F
100
AcDbEntity
  8
0
  6
Continuous
 62
     7
370
    15
100
AcDbLine
 10
71.8171823204
 20
105.0172861013
 30
0.0
 11
71.8171823204
 21
109.9706765107
 31
0.0
  0
LINE
  5
5F
330
1F
100
AcDbEntity
  8
0
  6
Continuous
 62
     7
370
    15
100
AcDbLine
 10
65.9905877281
 20
105.0172861013
 30
0.0
 11
71.8171823204
 21
105.0172861013
 31
0.0
  0
LINE
  5
60
330
1F
100
AcDbEntity
  8
0
  6
Continuous
 62
     7
370
    15
100
AcDbLine
 10
64.5671823204
 20
106.440691509
 30
0.0
 11
65.9905877281
 21
105.0172861013
 31
0.0
  0
LINE
  5
61
330
1F
100
AcDbEntity
  8
0
  6
Continuous
 62
     7
370
    15
100
AcDbLine
 10
64.5671823204
 20
108.1491629047
 30
0.0
 11
64.5671823204
 21
106.440691509
 31
0.0
  0
SPLINE
  5
62
330
1F
100
AcDbEntity
  8
0
  6
Continuous
 62
     7
370
    15
100
AcDbSpline
210
0.0
220
0.0
230
1.0
 70
     8
 71
     3
 72
    41
 73
    37
 74
     0
 42
0.00000001
 43
0.00000001
 12
1.0
 22
0.0
 32
0.0
 13
1.0
 23
0.0
 33
0.0
 40
0.0
 40
0.0
 40
0.0
 40
0.0
 40
0.0099123737392165
 40
0.0197042689433999
 40
0.0293950520966293
 40
0.0390047010207869
 40
0.048553702783154
 40
0.0580629364409868
 40
0.0675535435211598
 40
0.0770467899959287
 40
0.08656392414443
 40
0.0961260350023892
 40
0.1057539160573615
 40
0.115467938450115
 40
0.125287937247191
 40
0.1879247250959395
 40
0.2501184132716025
 40
0.3127361773640587
 40
0.3749449348189069
 40
0.4374230061932668
 40
0.4997510696409901
 40
0.5620347418965917
 40
0.6245572189307593
 40
0.6663195236707555
 40
0.7074450045592271
 40
0.7496445766908366
 40
0.7913945421287744
 40
0.8325202219788891
 40
0.8747364651740676
 40
0.8928754316091215
 40
0.9107104207282815
 40
0.9283729384421573
 40
0.945998351591051
 40
0.9637228771674733
 40
0.9816804768598925
 40
1.0
 40
1.0
 40
1.0
 40
1.0
 10
61.31749648155441
 20
108.1491629046591
 30
0.0
 10
61.29048745334933
 20
108.1751597961895
 30
0.0
 10
61.23679767432623
 20
108.2268376037341
 30
0.0
 10
61.16106891713441
 20
108.3082718224622
 30
0.0
 10
61.08958449972023
 20
108.3919220638652
 30
0.0
 10
61.02263717226487
 20
108.47809826317
 30
0.0
 10
60.96015141314522
 20
108.5667178275781
 30
0.0
 10
60.90214888247692
 20
108.6578015483082
 30
0.0
 10
60.84862528653532
 20
108.7513424628177
 30
0.0
 10
60.7995829187586
 20
108.847340865467
 30
0.0
 10
60.75502210883969
 20
108.9457943936671
 30
0.0
 10
60.71494285987588
 20
109.0467032698698
 30
0.0
 10
60.67934670074952
 20
109.1500595396546
 30
0.0
 10
60.64822752503198
 20
109.2558856979095
 30
0.0
 10
60.57402487809882
 20
109.5574945861511
 30
0.0
 10
60.53100560060226
 20
110.0739882393812
 30
0.0
 10
60.70010259298876
 20
110.7726540577504
 30
0.0
 10
61.0544365704843
 20
111.3969505116117
 30
0.0
 10
61.58661457702767
 20
111.8802265931731
 30
0.0
 10
62.23094197024805
 20
112.1966749186742
 30
0.0
 10
62.94203609162224
 20
112.2973974315832
 30
0.0
 10
63.65316396672898
 20
112.1969406437411
 30
0.0
 10
64.22742676883136
 20
111.9142012780462
 30
0.0
 10
64.6541335590307
 20
111.5626636396076
 30
0.0
 10
64.95149407010072
 20
111.1902347363624
 30
0.0
 10
65.16692232522013
 20
110.7660456482137
 30
0.0
 10
65.30091361191788
 20
110.3093866033637
 30
0.0
 10
65.3372472735974
 20
109.8344016554645
 30
0.0
 10
65.2878318942343
 20
109.4512650355097
 30
0.0
 10
65.21205211825496
 20
109.1652963876154
 30
0.0
 10
65.14350481117954
 20
108.9741515799824
 30
0.0
 10
65.05938960523021
 20
108.7914920981027
 30
0.0
 10
64.95974645865329
 20
108.6172532214337
 30
0.0
 10
64.844345851181
 20
108.4517483309201
 30
0.0
 10
64.71419537117094
 20
108.2939475163689
 30
0.0
 10
64.61630277602474
 20
108.1977443696429
 30
0.0
 10
64.56686815932967
 20
108.1491629046591
 30
0.0
  0
LINE
  5
63
330
1F
100
AcDbEntity
  8
0
  6
Continuous
 62
     7
370
    15
100
AcDbLine
 10
61.3171823204
 20
106.440691509
 30
0.0
 11
61.3171823204
 21
108.1488283533
 31
0.0
  0
LINE
  5
64
330
1F
100
AcDbEntity
  8
0
  6
Continuous
 62
     7
370
    15
100
AcDbLine
 10
59.8937769128
 20
105.0172861013
 30
0.0
 11
61.3171823204
 21
106.440691509
 31
0.0
  0
LINE
  5
65
330
1F
100
AcDbEntity
  8
0
  6
Continuous
 62
     7
370
    15
100
AcDbLine
 10
54.0671823204
 20
105.0172861013
 30
0.0
 11
59.8937769128
 21
105.0172861013
 31
0.0
  0
LINE
  5
66
330
1F
100
AcDbEntity
  8
0
  6
Continuous
 62
     7
370
    15
100
AcDbLine
 10
54.0671823204
 20
109.887069711
 30
0.0
 11
54.0671823204
 21
105.0172861013
 31
0.0
  0
LINE
  5
67
330
1F
100
AcDbEntity
  8
0
  6
Continuous
 62
     7
370
    15
100
AcDbLine
 10
55.813563614
 20
168.045996847
 30
0.0
 11
54.0671823204
 21
109.887069711
 31
0.0
  0
LINE
  5
68
330
1F
100
AcDbEntity
  8
0
  6
Continuous
 62
     7
370
    15
100
AcDbLine
 10
54.0671823204
 20
109.887069711
 30
0.0
 11
53.9422798882
 21
109.8921940045
 31
0.0
  0
LINE
  5
69
330
1F
100
AcDbEntity
  8
0
  6
Continuous
 62
     7
370
    15
100
AcDbLine
 10
53.9422798882
 20
109.8921940045
 30
0.0
 11
55.6887174156
 21
168.0529938739
 31
0.0
  0
LINE
  5
6A
330
1F
100
AcDbEntity
  8
0
  6
Continuous
 62
     7
370
    15
100
AcDbLine
 10
71.9370154315
 20
110.0610152598
 30
0.0
 11
71.8171823204
 21
109.9706765107
 31
0.0
  0
LINE
  5
6B
330
1F
100
AcDbEntity
  8
0
  6
Continuous
 62
     7
370
    15
100
AcDbLine
 10
70.1956534434
 20
168.0527867918
 30
0.0
 11
71.9370154315
 21
110.0610152598
 31
0.0
  0
SPLINE
  5
6C
330
1F
100
AcDbEntity
  8
0
  6
Continuous
 62
     7
370
    15
100
AcDbSpline
210
0.0
220
0.0
230
1.0
 70
     8
 71
     3
 72
    32
 73
    28
 74
     0
 42
0.00000001
 43
0.00000001
 12
1.0
 22
0.0
 32
0.0
 13
1.0
 23
0.0
 33
0.0
 40
0.0
 40
0.0
 40
0.0
 40
0.0
 40
0.0079416111915798
 40
0.0225671207442588
 40
0.0438727741885983
 40
0.0718530741965032
 40
0.1065007952662799
 40
0.1478069881387928
 40
0.1957609828886842
 40
0.2503503919876394
 40
0.3194283542196693
 40
0.3840787094667215
 40
0.4442962184833651
 40
0.5000766913831421
 40
0.5509463240975232
 40
0.6089104438549358
 40
0.6739543426636686
 40
0.7460605022688445
 40
0.8252088589506116
 40
0.853084704300801
 40
0.8792393504959305
 40
0.9036723617944844
 40
0.9263833350863704
 40
0.9473719009098085
 40
0.9666377249194623
 40
0.9841805100721891
 40
0.9999999999999999
 40
0.9999999999999999
 40
0.9999999999999999
 40
0.9999999999999999
 10
64.44218178921317
 20
108.211893293111
 30
0.0
 10
64.46331543864017
 20
108.2312388817769
 30
0.0
 10
64.52336945121779
 20
108.286211887224
 30
0.0
 10
64.63307900639612
 20
108.4004896461771
 30
0.0
 10
64.77865360856653
 20
108.5797235712648
 30
0.0
 10
64.9405992777214
 20
108.8366287821731
 30
0.0
 10
65.09143066492705
 20
109.1817280589537
 30
0.0
 10
65.19360531586631
 20
109.6198632104181
 30
0.0
 10
65.20093258851384
 20
110.1433506545676
 30
0.0
 10
65.05647450697266
 20
110.7524419473793
 30
0.0
 10
64.70542956853124
 20
111.3494279639949
 30
0.0
 10
64.16885972422857
 20
111.815963313434
 30
0.0
 10
63.56381363418892
 20
112.0821580158121
 30
0.0
 10
62.95985726181011
 20
112.1638250751165
 30
0.0
 10
62.36461663270398
 20
112.0904433303972
 30
0.0
 10
61.775515719445
 20
111.8517742850857
 30
0.0
 10
61.22003423798616
 20
111.4005965148805
 30
0.0
 10
60.7986493486755
 20
110.7256180694009
 30
0.0
 10
60.67278310023862
 20
110.0735727217896
 30
0.0
 10
60.7053138767869
 20
109.593360295418
 30
0.0
 10
60.76084614504138
 20
109.315023236884
 30
0.0
 10
60.84391035478939
 20
109.0633959712637
 30
0.0
 10
60.94707837203382
 20
108.8398113192372
 30
0.0
 10
61.06348359222358
 20
108.6443089335773
 30
0.0
 10
61.1873736162968
 20
108.4763197675453
 30
0.0
 10
61.31253034069019
 20
108.3331330882682
 30
0.0
 10
61.40047965961941
 20
108.2508905051471
 30
0.0
 10
61.44218285167092
 20
108.211893293111
 30
0.0
  0
SPLINE
  5
6D
330
1F
100
AcDbEntity
  8
0
  6
Continuous
 62
     7
370
    15
100
AcDbSpline
210
0.0
220
0.0
230
1.0
 70
     8
 71
     3
 72
     9
 73
     5
 74
     0
 42
0.00000001
 43
0.00000001
 12
1.0
 22
0.0
 32
0.0
 13
1.0
 23
0.0
 33
0.0
 40
0.0
 40
0.0
 40
0.0
 40
0.0
 40
0.512031637051244
 40
0.9999999999999999
 40
0.9999999999999999
 40
0.9999999999999999
 40
0.9999999999999999
 10
61.31707237958912
 20
108.1494138545155
 30
0.0
 10
61.33915610564948
 20
108.1586886795732
 30
0.0
 10
61.38228571808425
 20
108.1768024529939
 30
0.0
 10
61.42412081381687
 20
108.2004358074813
 30
0.0
 10
61.44453501699532
 20
108.2119681367814
 30
0.0
  0
SPLINE
  5
6E
330
1F
100
AcDbEntity
  8
0
  6
Continuous
 62
     7
370
    15
100
AcDbSpline
210
0.0
220
0.0
230
1.0
 70
     8
 71
     3
 72
     9
 73
     5
 74
     0
 42
0.00000001
 43
0.00000001
 12
1.0
 22
0.0
 32
0.0
 13
1.0
 23
0.0
 33
0.0
 40
0.0
 40
0.0
 40
0.0
 40
0.0
 40
0.5224496431540214
 40
0.9999999999999999
 40
0.9999999999999999
 40
0.9999999999999999
 40
0.9999999999999999
 10
64.5670869886645
 20
108.149495853864
 30
0.0
 10
64.54471034295926
 20
108.1588266650032
 30
0.0
 10
64.50188009893778
 20
108.1766863980156
 30
0.0
 10
64.46175671343401
 20
108.1985508772194
 30
0.0
 10
64.44259577636883
 20
108.2089922670654
 30
0.0
  0
LINE
  5
6F
330
1F
100
AcDbEntity
  8
0
  6
Continuous
 62
     7
370
    15
100
AcDbLine
 10
61.4421823204
 20
108.2118937683
 30
0.0
 11
61.4421823204
 21
106.3921980074
 31
0.0
  0
LINE
  5
70
330
1F
100
AcDbEntity
  8
0
  6
Continuous
 62
     7
370
    15
100
AcDbLine
 10
61.4421823204
 20
106.3921980074
 30
0.0
 11
61.3171823204
 21
106.440691509
 31
0.0
  0
LINE
  5
71
330
1F
100
AcDbEntity
  8
0
  6
Continuous
 62
     7
370
    15
100
AcDbLine
 10
64.4421823204
 20
106.3921980074
 30
0.0
 11
64.4421823204
 21
108.2118937683
 31
0.0
  0
LINE
  5
72
330
1F
100
AcDbEntity
  8
0
  6
Continuous
 62
     7
370
    15
100
AcDbLine
 10
64.4421823204
 20
106.3921980074
 30
0.0
 11
64.5671823204
 21
106.440691509
 31
0.0
  0
LINE
  5
73
330
1F
100
AcDbEntity
  8
0
  6
Continuous
 62
     7
370
    15
100
AcDbLine
 10
71.9421823204
 20
109.8889447514
 30
0.0
 11
71.9421823204
 21
105.0139447514
 31
0.0
  0
LINE
  5
74
330
1F
100
AcDbEntity
  8
0
  6
Continuous
 62
     7
370
    15
100
AcDbLine
 10
71.9421823204
 20
105.0139447514
 30
0.0
 11
71.8171823204
 21
105.0172861013
 31
0.0
  0
LINE
  5
75
330
1F
100
AcDbEntity
  8
0
  6
Continuous
 62
     7
370
    15
100
AcDbLine
 10
71.9370154315
 20
110.0610152598
 30
0.0
 11
71.9421823204
 21
109.8889447514
 31
0.0
  0
LINE
  5
76
330
1F
100
AcDbEntity
  8
0
  6
Continuous
 62
     7
370
    15
100
AcDbLine
 10
54.0671823204
 20
105.0172861013
 30
0.0
 11
53.9421823204
 21
105.0139447514
 31
0.0
  0
LINE
  5
77
330
1F
100
AcDbEntity
  8
0
  6
Continuous
 62
     7
370
    15
100
AcDbLine
 10
53.9421823204
 20
105.0139447514
 30
0.0
 11
53.9421823204
 21
109.8889447514
 31
0.0
  0
LINE
  5
78
330
1F
100
AcDbEntity
  8
0
  6
Continuous
 62
     7
370
    15
100
AcDbLine
 10
53.9421823204
 20
109.8889447514
 30
0.0
 11
53.9422798882
 21
109.8921940045
 31
0.0
  0
LINE
  5
79
330
1F
100
AcDbEntity
  8
0
  6
Continuous
 62
     7
370
    15
100
AcDbLine
 10
64.4421823204
 20
106.3889447514
 30
0.0
 11
64.4421823204
 21
106.3921980074
 31
0.0
  0
LINE
  5
7A
330
1F
100
AcDbEntity
  8
0
  6
Continuous
 62
     7
370
    15
100
AcDbLine
 10
65.9905877281
 20
105.0172861013
 30
0.0
 11
65.9454943447
 21
104.8889447514
 31
0.0
  0
LINE
  5
7B
330
1F
100
AcDbEntity
  8
0
  6
Continuous
 62
     7
370
    15
100
AcDbLine
 10
65.9454943447
 20
104.8889447514
 30
0.0
 11
65.9421823204
 21
104.8889447514
 31
0.0
  0
LINE
  5
7C
330
1F
100
AcDbEntity
  8
0
  6
Continuous
 62
     7
370
    15
100
AcDbLine
 10
65.9421823204
 20
104.8889447514
 30
0.0
 11
64.4421823204
 21
106.3889447514
 31
0.0
  0
LINE
  5
7D
330
1F
100
AcDbEntity
  8
0
  6
Continuous
 62
     7
370
    15
100
AcDbLine
 10
61.4421823204
 20
106.3921980074
 30
0.0
 11
61.4421823204
 21
106.3889447514
 31
0.0
  0
LINE
  5
7E
330
1F
100
AcDbEntity
  8
0
  6
Continuous
 62
     7
370
    15
100
AcDbLine
 10
61.4421823204
 20
106.3889447514
 30
0.0
 11
59.9421823204
 21
104.8889447514
 31
0.0
  0
LINE
  5
7F
330
1F
100
AcDbEntity
  8
0
  6
Continuous
 62
     7
370
    15
100
AcDbLine
 10
59.9421823204
 20
104.8889447514
 30
0.0
 11
59.9388702961
 21
104.8889447514
 31
0.0
  0
LINE
  5
80
330
1F
100
AcDbEntity
  8
0
  6
Continuous
 62
     7
370
    15
100
AcDbLine
 10
59.9388702961
 20
104.8889447514
 30
0.0
 11
59.8937769128
 21
105.0172861013
 31
0.0
  0
LINE
  5
81
330
1F
100
AcDbEntity
  8
0
  6
Continuous
 62
     7
370
    15
100
AcDbLine
 10
71.8171823204
 20
105.0172861013
 30
0.0
 11
71.8171823204
 21
104.8889447514
 31
0.0
  0
LINE
  5
82
330
1F
100
AcDbEntity
  8
0
  6
Continuous
 62
     7
370
    15
100
AcDbLine
 10
71.8171823204
 20
104.8889447514
 30
0.0
 11
65.9454943447
 21
104.8889447514
 31
0.0
  0
LINE
  5
83
330
1F
100
AcDbEntity
  8
0
  6
Continuous
 62
     7
370
    15
100
AcDbLine
 10
71.9421823204
 20
105.0139447514
 30
0.0
 11
71.8171823204
 21
104.8889447514
 31
0.0
  0
LINE
  5
84
330
1F
100
AcDbEntity
  8
0
  6
Continuous
 62
     7
370
    15
100
AcDbLine
 10
54.0671823204
 20
104.8889447514
 30
0.0
 11
53.9421823204
 21
105.0139447514
 31
0.0
  0
LINE
  5
85
330
1F
100
AcDbEntity
  8
0
  6
Continuous
 62
     7
370
    15
100
AcDbLine
 10
54.0671823204
 20
104.8889447514
 30
0.0
 11
54.0671823204
 21
105.0172861013
 31
0.0
  0
LINE
  5
86
330
1F
100
AcDbEntity
  8
0
  6
Continuous
 62
     7
370
    15
100
AcDbLine
 10
59.9388702961
 20
104.8889447514
 30
0.0
 11
54.0671823204
 21
104.8889447514
 31
0.0
  0
LINE
  5
87
330
1F
100
AcDbEntity
  8
0
  6
Continuous
 62
     7
370
    15
100
AcDbLine
 10
128.3668009234
 20
183.3889447514
 30
0.0
 11
128.2416478909
 21
183.2671053355
 31
0.0
  0
LINE
  5
88
330
1F
100
AcDbEntity
  8
0
  6
Continuous
 62
     7
370
    15
100
AcDbLine
 10
130.5375043736
 20
183.3889447514
 30
0.0
 11
128.3668009234
 21
183.3889447514
 31
0.0
  0
LINE
  5
89
330
1F
100
AcDbEntity
  8
0
  6
Continuous
 62
     7
370
    15
100
AcDbLine
 10
138.7731160221
 20
183.3889447514
 30
0.0
 11
132.2587255761
 21
183.3889447514
 31
0.0
  0
LINE
  5
8A
330
1F
100
AcDbEntity
  8
0
  6
Continuous
 62
     7
370
    15
100
AcDbLine
 10
138.8981160221
 20
183.2639447514
 30
0.0
 11
138.7731160221
 21
183.3889447514
 31
0.0
  0
LINE
  5
8B
330
1F
100
AcDbEntity
  8
0
  6
Continuous
 62
     7
370
    15
100
AcDbLine
 10
123.8954973
 20
109.8889447514
 30
0.0
 11
123.8954973
 21
109.7639447514
 31
0.0
  0
ARC
  5
8C
330
1F
100
AcDbEntity
  8
0
  6
Continuous
 62
     7
370
    15
100
AcDbCircle
 10
123.8954973
 20
112.3889447514
 30
0.0
 40
2.500000000000014
100
AcDbArc
 50
270.0
 51
287.6179001037
  0
SPLINE
  5
8D
330
1F
100
AcDbEntity
  8
0
  6
Continuous
 62
     7
370
    15
100
AcDbSpline
210
0.0
220
0.0
230
1.0
 70
     8
 71
     3
 72
     8
 73
     4
 74
     0
 42
0.00000001
 43
0.00000001
 12
1.0
 22
0.0
 32
0.0
 13
1.0
 23
0.0
 33
0.0
 40
0.0
 40
0.0
 40
0.0
 40
0.0
 40
1.0
 40
1.0
 40
1.0
 40
1.0
 10
125.0619480203193
 20
110.0424936744707
 30
0.0
 10
124.9233908569338
 20
110.0189886354037
 30
0.0
 10
124.7860931886409
 20
110.0073575105129
 30
0.0
 10
124.6519828796147
 20
110.006810039615
 30
0.0
  0
ELLIPSE
  5
8E
330
1F
100
AcDbEntity
  8
0
  6
Continuous
 62
     7
370
    15
100
AcDbEllipse
 10
123.8954973
 20
112.3123069888
 30
0.0
 11
0.0
 21
2.552231902526586
 31
0.0
210
0.0
220
0.0
230
1.0
 40
0.9995490657
 41
3.460727947936924
 42
3.616479502286414
  0
ARC
  5
8F
330
1F
100
AcDbEntity
  8
0
  6
Continuous
 62
     7
370
    15
100
AcDbCircle
 10
123.8954973
 20
112.3889447514
 30
0.0
 40
2.625
100
AcDbArc
 50
270.0
 51
287.7527901619
  0
SPLINE
  5
90
330
1F
100
AcDbEntity
  8
0
  6
Continuous
 62
     7
370
    15
100
AcDbSpline
210
0.0
220
0.0
230
1.0
 70
     8
 71
     3
 72
    25
 73
    21
 74
     0
 42
0.00000001
 43
0.00000001
 12
1.0
 22
0.0
 32
0.0
 13
1.0
 23
0.0
 33
0.0
 40
0.0
 40
0.0
 40
0.0
 40
0.0
 40
0.0419183334689842
 40
0.0834984664339026
 40
0.1248264373747032
 40
0.165989865984676
 40
0.2070774246358375
 40
0.2481782767564178
 40
0.2893814994738679
 40
0.3307755090369527
 40
0.3724475073242448
 40
0.4144829662005677
 40
0.4569651637987404
 40
0.4999747833127248
 40
0.5844203831172808
 40
0.6674875446335455
 40
0.7498700951467573
 40
0.8322791556099703
 40
0.9154251667859236
 40
1.0
 40
1.0
 40
1.0
 40
1.0
 10
126.5198034951308
 20
112.3243760001952
 30
0.0
 10
126.5184248936421
 20
112.2846391861976
 30
0.0
 10
126.515678813333
 20
112.2054861580309
 30
0.0
 10
126.5048309779531
 20
112.0875408632546
 30
0.0
 10
126.4890566525526
 20
111.9709034281879
 30
0.0
 10
126.4678829837003
 20
111.8555856011099
 30
0.0
 10
126.4414355513521
 20
111.7415863218492
 30
0.0
 10
126.4096811801959
 20
111.6289079303613
 30
0.0
 10
126.3726293468909
 20
111.5175517970126
 30
0.0
 10
126.3302787697537
 20
111.4075192818241
 30
0.0
 10
126.2826301710941
 20
111.2988118730232
 30
0.0
 10
126.2296884034687
 20
111.1914293388616
 30
0.0
 10
126.1714405178135
 20
111.085376849139
 30
0.0
 10
126.0878606538578
 20
110.9475133916667
 30
0.0
 10
125.9735193035352
 20
110.7834650868446
 30
0.0
 10
125.8206766703283
 20
110.6018679592255
 30
0.0
 10
125.653088624794
 20
110.4364405425633
 30
0.0
 10
125.4705549883369
 20
110.2876820278072
 30
0.0
 10
125.2739312239478
 20
110.1539787845148
 30
0.0
 10
125.1330092618805
 20
110.0798658350934
 30
0.0
 10
125.0619480203193
 20
110.0424936744707
 30
0.0
  0
SPLINE
  5
91
330
1F
100
AcDbEntity
  8
0
  6
Continuous
 62
     7
370
    15
100
AcDbSpline
210
0.0
220
0.0
230
1.0
 70
     8
 71
     3
 72
    27
 73
    23
 74
     0
 42
0.00000001
 43
0.00000001
 12
1.0
 22
0.0
 32
0.0
 13
1.0
 23
0.0
 33
0.0
 40
0.0
 40
0.0
 40
0.0
 40
0.0
 40
0.0367586117122952
 40
0.0749107687983044
 40
0.1144565581796972
 40
0.1553960539747481
 40
0.1977293190478968
 40
0.2414564063125732
 40
0.2865773598329382
 40
0.3330922157606548
 40
0.3810010031354744
 40
0.4303037445727083
 40
0.4810004568562249
 40
0.5330911514521322
 40
0.58657583495558
 40
0.6414545094807792
 40
0.6977271730027842
 40
0.7553938196579427
 40
0.8144544400089033
 40
0.8749090212790831
 40
0.9367575475607242
 40
1.0
 40
1.0
 40
1.0
 40
1.0
 10
124.6521664694199
 20
110.0062043609754
 30
0.0
 10
124.688143880822
 20
110.0181532871849
 30
0.0
 10
124.761462633135
 20
110.0425041319794
 30
0.0
 10
124.8711577954181
 20
110.0862148909093
 30
0.0
 10
124.9826897732651
 20
110.1365512530835
 30
0.0
 10
125.0953769760779
 20
110.1944527439617
 30
0.0
 10
125.2086743127616
 20
110.2602167030537
 30
0.0
 10
125.3219185318172
 20
110.3342868717475
 30
0.0
 10
125.4343985558047
 20
110.4170209473963
 30
0.0
 10
125.5453350275207
 20
110.5087455170864
 30
0.0
 10
125.6538865102649
 20
110.6097293234153
 30
0.0
 10
125.7591494073606
 20
110.7201788602162
 30
0.0
 10
125.8601610788425
 20
110.8402271483031
 30
0.0
 10
125.9559034161947
 20
110.9699239991355
 30
0.0
 10
126.0453087149083
 20
111.1092255595069
 30
0.0
 10
126.1272639162495
 20
111.2579840232757
 30
0.0
 10
126.200628273588
 20
111.4159371110337
 30
0.0
 10
126.2642067938022
 20
111.5826990575182
 30
0.0
 10
126.3169030736231
 20
111.7577475141988
 30
0.0
 10
126.3571866954876
 20
111.940429042506
 30
0.0
 10
126.3852186531628
 20
112.1298967633574
 30
0.0
 10
126.3914832566914
 20
112.2587400957309
 30
0.0
 10
126.3946504626303
 20
112.3238796317954
 30
0.0
  0
LINE
  5
92
330
1F
100
AcDbEntity
  8
0
  6
Continuous
 62
     7
370
    15
100
AcDbLine
 10
126.5198034951
 20
112.3243760002
 30
0.0
 11
126.3946504626
 21
112.3238796318
 31
0.0
  0
LINE
  5
93
330
1F
100
AcDbEntity
  8
0
  6
Continuous
 62
     7
370
    15
100
AcDbLine
 10
138.7731160221
 20
170.1224984654
 30
0.0
 11
138.7731160221
 21
176.5990442512
 31
0.0
  0
LINE
  5
94
330
1F
100
AcDbEntity
  8
0
  6
Continuous
 62
     7
370
    15
100
AcDbLine
 10
135.8467239881
 20
170.1224984654
 30
0.0
 11
138.7731160221
 21
170.1224984654
 31
0.0
  0
SPLINE
  5
95
330
1F
100
AcDbEntity
  8
0
  6
Continuous
 62
     7
370
    15
100
AcDbSpline
210
0.0
220
0.0
230
1.0
 70
     8
 71
     3
 72
    23
 73
    19
 74
     0
 42
0.00000001
 43
0.00000001
 12
1.0
 22
0.0
 32
0.0
 13
1.0
 23
0.0
 33
0.0
 40
0.0
 40
0.0
 40
0.0
 40
0.0
 40
0.0311788283877669
 40
0.0622327429349822
 40
0.0932377130817349
 40
0.1242700677284527
 40
0.1554059343786951
 40
0.1867206856187583
 40
0.2182884127212242
 40
0.2501814439291208
 40
0.3756701391547567
 40
0.5001072637841856
 40
0.6244310226781883
 40
0.7499912586569658
 40
0.8133763855022302
 40
0.8757714173358897
 40
0.9377757322107213
 40
1.0
 40
1.0
 40
1.0
 40
1.0
 10
133.7226388692102
 20
168.0529938739305
 30
0.0
 10
133.7238842809717
 20
168.0870496356313
 30
0.0
 10
133.7263701149177
 20
168.1550247191406
 30
0.0
 10
133.7364439329034
 20
168.2564774189703
 30
0.0
 10
133.7511631776743
 20
168.3571692436837
 30
0.0
 10
133.7709779198201
 20
168.4570882070065
 30
0.0
 10
133.7957676764937
 20
168.5562358238151
 30
0.0
 10
133.8255614172795
 20
168.6546075984313
 30
0.0
 10
133.860358721166
 20
168.7522106897016
 30
0.0
 10
133.9388320504515
 20
168.9432373721565
 30
0.0
 10
134.0887496519486
 20
169.2147558732988
 30
0.0
 10
134.3547151579992
 20
169.528851142033
 30
0.0
 10
134.6757238439948
 20
169.7867037136299
 30
0.0
 10
134.9817613779335
 20
169.9453682759321
 30
0.0
 10
135.2409934204749
 20
170.0374939302706
 30
0.0
 10
135.4405422598511
 20
170.0868943814837
 30
0.0
 10
135.6427734586465
 20
170.1174876191561
 30
0.0
 10
135.7786602801191
 20
170.120826212946
 30
0.0
 10
135.8467239880598
 20
170.1224984654145
 30
0.0
  0
LINE
  5
96
330
1F
100
AcDbEntity
  8
0
  6
Continuous
 62
     7
370
    15
100
AcDbLine
 10
132.2084301943
 20
109.8921940045
 30
0.0
 11
133.7226388692
 21
168.0529938739
 31
0.0
  0
LINE
  5
97
330
1F
100
AcDbEntity
  8
0
  6
Continuous
 62
     7
370
    15
100
AcDbLine
 10
132.2082479997
 20
109.8889447514
 30
0.0
 11
132.2084301943
 21
109.8921940045
 31
0.0
  0
LINE
  5
98
330
1F
100
AcDbEntity
  8
0
  6
Continuous
 62
     7
370
    15
100
AcDbLine
 10
132.2082479997
 20
109.8889447514
 30
0.0
 11
124.6958878297
 21
109.8889447514
 31
0.0
  0
LINE
  5
99
330
1F
100
AcDbEntity
  8
0
  6
Continuous
 62
     7
370
    15
100
AcDbLine
 10
128.1931859187
 20
176.5990442512
 30
0.0
 11
126.5198034951
 21
112.3243760002
 31
0.0
  0
LINE
  5
9A
330
1F
100
AcDbEntity
  8
0
  6
Continuous
 62
     7
370
    15
100
AcDbLine
 10
138.7731160221
 20
176.5990442512
 30
0.0
 11
128.1931859187
 21
176.5990442512
 31
0.0
  0
LINE
  5
9B
330
1F
100
AcDbEntity
  8
0
  6
Continuous
 62
     7
370
    15
100
AcDbLine
 10
111.8981160221
 20
105.0139447514
 30
0.0
 11
111.8981160221
 21
109.7639447514
 31
0.0
  0
LINE
  5
9C
330
1F
100
AcDbEntity
  8
0
  6
Continuous
 62
     7
370
    15
100
AcDbLine
 10
111.8981160221
 20
109.7639447514
 30
0.0
 11
112.0231160221
 21
109.7639447514
 31
0.0
  0
LINE
  5
9D
330
1F
100
AcDbEntity
  8
0
  6
Continuous
 62
     7
370
    15
100
AcDbLine
 10
112.0231160221
 20
109.7639447514
 30
0.0
 11
112.0231160221
 21
105.0139447514
 31
0.0
  0
LINE
  5
9E
330
1F
100
AcDbEntity
  8
0
  6
Continuous
 62
     7
370
    15
100
AcDbLine
 10
111.8981160221
 20
105.0139447514
 30
0.0
 11
112.0231160221
 21
105.0139447514
 31
0.0
  0
LINE
  5
9F
330
1F
100
AcDbEntity
  8
0
  6
Continuous
 62
     7
370
    15
100
AcDbLine
 10
112.0231160221
 20
109.8889447514
 30
0.0
 11
112.0231160221
 21
109.7639447514
 31
0.0
  0
LINE
  5
A0
330
1F
100
AcDbEntity
  8
0
  6
Continuous
 62
     7
370
    15
100
AcDbLine
 10
112.0231160221
 20
109.8889447514
 30
0.0
 11
111.8981160221
 21
109.7639447514
 31
0.0
  0
LINE
  5
A1
330
1F
100
AcDbEntity
  8
0
  6
Continuous
 62
     7
370
    15
100
AcDbLine
 10
132.0781160221
 20
104.8889447514
 30
0.0
 11
112.0231160221
 21
104.8889447514
 31
0.0
  0
LINE
  5
A2
330
1F
100
AcDbEntity
  8
0
  6
Continuous
 62
     7
370
    15
100
AcDbLine
 10
112.0231160221
 20
104.8889447514
 30
0.0
 11
112.0231160221
 21
105.0139447514
 31
0.0
  0
LINE
  5
A3
330
1F
100
AcDbEntity
  8
0
  6
Continuous
 62
     7
370
    15
100
AcDbLine
 10
112.0231160221
 20
105.0139447514
 30
0.0
 11
132.0813280242
 21
105.0139447514
 31
0.0
  0
LINE
  5
A4
330
1F
100
AcDbEntity
  8
0
  6
Continuous
 62
     7
370
    15
100
AcDbLine
 10
132.0781160221
 20
104.8889447514
 30
0.0
 11
132.0813280242
 21
105.0139447514
 31
0.0
  0
LINE
  5
A5
330
1F
100
AcDbEntity
  8
0
  6
Continuous
 62
     7
370
    15
100
AcDbLine
 10
132.0813280242
 20
105.0139447514
 30
0.0
 11
132.2082479997
 21
109.8889447514
 31
0.0
  0
LINE
  5
A6
330
1F
100
AcDbEntity
  8
0
  6
Continuous
 62
     7
370
    15
100
AcDbLine
 10
123.8954973
 20
109.7639447514
 30
0.0
 11
112.0231160221
 21
109.7639447514
 31
0.0
  0
LINE
  5
A7
330
1F
100
AcDbEntity
  8
0
  6
Continuous
 62
     7
370
    15
100
AcDbLine
 10
112.0231160221
 20
109.8889447514
 30
0.0
 11
123.8954973
 21
109.8889447514
 31
0.0
  0
LINE
  5
A8
330
1F
100
AcDbEntity
  8
0
  6
Continuous
 62
     7
370
    15
100
AcDbLine
 10
111.8981160221
 20
105.0139447514
 30
0.0
 11
112.0231160221
 21
104.8889447514
 31
0.0
  0
LINE
  5
A9
330
1F
100
AcDbEntity
  8
0
  6
Continuous
 62
     7
370
    15
100
AcDbLine
 10
132.3332415394
 20
109.887069711
 30
0.0
 11
132.2084301943
 21
109.8921940045
 31
0.0
  0
LINE
  5
AA
330
1F
100
AcDbEntity
  8
0
  6
Continuous
 62
     7
370
    15
100
AcDbLine
 10
132.3332415394
 20
109.887069711
 30
0.0
 11
132.206457372
 21
105.0172861013
 31
0.0
  0
LINE
  5
AB
330
1F
100
AcDbEntity
  8
0
  6
Continuous
 62
     7
370
    15
100
AcDbLine
 10
132.206457372
 20
105.0172861013
 30
0.0
 11
132.0813280242
 21
105.0139447514
 31
0.0
  0
LINE
  5
AC
330
1F
100
AcDbEntity
  8
0
  6
Continuous
 62
     7
370
    15
100
AcDbLine
 10
132.0781160221
 20
104.8889447514
 30
0.0
 11
132.206457372
 21
105.0172861013
 31
0.0
  0
LINE
  5
AD
330
1F
100
AcDbEntity
  8
0
  6
Continuous
 62
     7
370
    15
100
AcDbLine
 10
133.847401458
 20
168.045996847
 30
0.0
 11
132.3332415394
 21
109.887069711
 31
0.0
  0
LINE
  5
AE
330
1F
100
AcDbEntity
  8
0
  6
Continuous
 62
     7
370
    15
100
AcDbLine
 10
133.847401458
 20
168.045996847
 30
0.0
 11
133.7226388692
 21
168.0529938739
 31
0.0
  0
LINE
  5
AF
330
1F
100
AcDbEntity
  8
0
  6
Continuous
 62
     7
370
    15
100
AcDbLine
 10
126.3946504626
 20
112.3238796318
 30
0.0
 11
128.0680328862
 21
176.5985478828
 31
0.0
  0
LINE
  5
B0
330
1F
100
AcDbEntity
  8
0
  6
Continuous
 62
     7
370
    15
100
AcDbLine
 10
128.1931859187
 20
176.5990442512
 30
0.0
 11
128.0680328862
 21
176.5985478828
 31
0.0
  0
SPLINE
  5
B1
330
1F
100
AcDbEntity
  8
0
  6
Continuous
 62
     7
370
    15
100
AcDbSpline
210
0.0
220
0.0
230
1.0
 70
     8
 71
     3
 72
    30
 73
    26
 74
     0
 42
0.00000001
 43
0.00000001
 12
1.0
 22
0.0
 32
0.0
 13
1.0
 23
0.0
 33
0.0
 40
0.0
 40
0.0
 40
0.0
 40
0.0
 40
0.0324934311682273
 40
0.06598485824557
 40
0.1004744208831064
 40
0.135962244676016
 40
0.1724484426356121
 40
0.2099331164657903
 40
0.2484163576742092
 40
0.2878982485432358
 40
0.3283788629813255
 40
0.3698582672720893
 40
0.4123365207354285
 40
0.4558136763128364
 40
0.5002897810870646
 40
0.5457648767447829
 40
0.5922389999895724
 40
0.63971218291151
 40
0.6881844533187115
 40
0.7376558350354202
 40
0.788126348170625
 40
0.8395960093606223
 40
0.8920648319885042
 40
0.9455328263831548
 40
1.0
 40
1.0
 40
1.0
 40
1.0
 10
135.8467239880598
 20
169.9939447513812
 30
0.0
 10
135.8132559859962
 20
169.9934584973503
 30
0.0
 10
135.7452920532092
 20
169.9924710545919
 30
0.0
 10
135.6420685501777
 20
169.9843054862672
 30
0.0
 10
135.5363387566569
 20
169.97071773862
 30
0.0
 10
135.4284660914
 20
169.9507698473755
 30
0.0
 10
135.3188670326188
 20
169.9241594051813
 30
0.0
 10
135.2080129548816
 20
169.8904260189599
 30
0.0
 10
135.0964316488492
 20
169.8491808707891
 30
0.0
 10
134.9847082674885
 20
169.8000508259038
 30
0.0
 10
134.8734856576206
 20
169.7427028921271
 30
0.0
 10
134.7634639706066
 20
169.6768468378376
 30
0.0
 10
134.6553994623708
 20
169.6022444131935
 30
0.0
 10
134.5501023820639
 20
169.5187171696697
 30
0.0
 10
134.4484338722309
 20
169.4261550069337
 30
0.0
 10
134.3513017244642
 20
169.3245247364048
 30
0.0
 10
134.2596551553048
 20
169.2138787105121
 30
0.0
 10
134.1744775595122
 20
169.0943633616238
 30
0.0
 10
134.096780894601
 20
168.966227415467
 30
0.0
 10
134.0275873168768
 20
168.8298299752547
 30
0.0
 10
133.9679531759568
 20
168.6856468630511
 30
0.0
 10
133.9188232647544
 20
168.5342804967908
 30
0.0
 10
133.8815306072213
 20
168.3764520004729
 30
0.0
 10
133.8558097183152
 20
168.2130563043622
 30
0.0
 10
133.8502214553366
 20
168.1020259435181
 30
0.0
 10
133.8474014579671
 20
168.0459968470498
 30
0.0
  0
LINE
  5
B2
330
1F
100
AcDbEntity
  8
0
  6
Continuous
 62
     7
370
    15
100
AcDbLine
 10
135.8467239881
 20
169.9939447514
 30
0.0
 11
135.8467239881
 21
170.1224984654
 31
0.0
  0
LINE
  5
B3
330
1F
100
AcDbEntity
  8
0
  6
Continuous
 62
     7
370
    15
100
AcDbLine
 10
138.7731160221
 20
169.9939447514
 30
0.0
 11
135.8467239881
 21
169.9939447514
 31
0.0
  0
LINE
  5
B4
330
1F
100
AcDbEntity
  8
0
  6
Continuous
 62
     7
370
    15
100
AcDbLine
 10
138.7731160221
 20
169.9939447514
 30
0.0
 11
138.7731160221
 21
170.1224984654
 31
0.0
  0
LINE
  5
B5
330
1F
100
AcDbEntity
  8
0
  6
Continuous
 62
     7
370
    15
100
AcDbLine
 10
138.8981160221
 20
176.5952924744
 30
0.0
 11
138.8981160221
 21
170.1189447514
 31
0.0
  0
LINE
  5
B6
330
1F
100
AcDbEntity
  8
0
  6
Continuous
 62
     7
370
    15
100
AcDbLine
 10
138.8981160221
 20
170.1189447514
 30
0.0
 11
138.7731160221
 21
170.1224984654
 31
0.0
  0
LINE
  5
B7
330
1F
100
AcDbEntity
  8
0
  6
Continuous
 62
     7
370
    15
100
AcDbLine
 10
138.8981160221
 20
176.5952924744
 30
0.0
 11
138.7731160221
 21
176.5990442512
 31
0.0
  0
LINE
  5
B8
330
1F
100
AcDbEntity
  8
0
  6
Continuous
 62
     7
370
    15
100
AcDbLine
 10
138.7731160221
 20
169.9939447514
 30
0.0
 11
138.8981160221
 21
170.1189447514
 31
0.0
  0
SPLINE
  5
B9
330
1F
100
AcDbEntity
  8
0
  6
Continuous
 62
     7
370
    15
100
AcDbSpline
210
0.0
220
0.0
230
1.0
 70
     8
 71
     3
 72
    54
 73
    50
 74
     0
 42
0.00000001
 43
0.00000001
 12
1.0
 22
0.0
 32
0.0
 13
1.0
 23
0.0
 33
0.0
 40
0.0
 40
0.0
 40
0.0
 40
0.0
 40
0.0163655915478126
 40
0.032793583368641
 40
0.0492839828981035
 40
0.0658367974864939
 40
0.0824520344006972
 40
0.0991297008254289
 40
0.1158698038644474
 40
0.1326723505417472
 40
0.1495373478027289
 40
0.1664648025153486
 40
0.1834547214712452
 40
0.20050711138685
 40
0.2176219789044728
 40
0.2347993305933723
 40
0.2520391729508035
 40
0.2693415124030507
 40
0.2867063553064377
 40
0.3041337079483244
 40
0.3216235765480822
 40
0.3391759672580552
 40
0.3567908861645022
 40
0.3744683392885241
 40
0.3922083325869742
 40
0.4100108719533534
 40
0.4278759632186878
 40
0.4458036121523954
 40
0.4637938244631337
 40
0.4818466057996348
 40
0.4999619617515265
 40
0.5200412067874842
 40
0.5410264367464844
 40
0.5629176514081614
 40
0.585714848920196
 40
0.6094180259804602
 40
0.6340271779856406
 40
0.6595422991534716
 40
0.6859633826240175
 40
0.713290420544162
 40
0.7415234041385462
 40
0.770662323769477
 40
0.8007071689878039
 40
0.8316579285763532
 40
0.8635145905871829
 40
0.8962771423736918
 40
0.9299455706184055
 40
0.9645198613571268
 40
1.0
 40
1.0
 40
1.0
 40
1.0
 10
128.3668009234036
 20
183.3889447513812
 30
0.0
 10
128.366789360565
 20
183.3885162094447
 30
0.0
 10
128.3667661907998
 20
183.3876574915866
 30
0.0
 10
128.3665789502842
 20
183.3806931427826
 30
0.0
 10
128.3662802328005
 20
183.3695189699044
 30
0.0
 10
128.3658589693985
 20
183.353682578743
 30
0.0
 10
128.3653181428624
 20
183.3332530246093
 30
0.0
 10
128.3646569494012
 20
183.3081626817626
 30
0.0
 10
128.363875605586
 20
183.2783847266909
 30
0.0
 10
128.3629740530388
 20
183.243885446491
 30
0.0
 10
128.3619523074688
 20
183.2046372232859
 30
0.0
 10
128.3608103646225
 20
183.1606151677213
 30
0.0
 10
128.3595482256257
 20
183.1117981569702
 30
0.0
 10
128.3581658901549
 20
183.0581686844151
 30
0.0
 10
128.3566633582776
 20
182.9997130277778
 30
0.0
 10
128.3550406299559
 20
182.9364213294974
 30
0.0
 10
128.3532977051809
 20
182.8682876985847
 30
0.0
 10
128.3514345839356
 20
182.7953103043025
 30
0.0
 10
128.3494512662066
 20
182.7174914694371
 30
0.0
 10
128.3473477519763
 20
182.6348377608389
 30
0.0
 10
128.3451240412413
 20
182.5473600776276
 30
0.0
 10
128.342780133946
 20
182.4550737367143
 30
0.0
 10
128.3403160302315
 20
182.3579985555202
 30
0.0
 10
128.3377317295028
 20
182.2561589315864
 30
0.0
 10
128.3350272339262
 20
182.1495839192813
 30
0.0
 10
128.3322025353091
 20
182.0383073019176
 30
0.0
 10
128.3292576643253
 20
181.9223676646898
 30
0.0
 10
128.3261925058319
 20
181.8018084471967
 30
0.0
 10
128.3230074917412
 20
181.6766780542845
 30
0.0
 10
128.3197010016439
 20
181.5470297288756
 30
0.0
 10
128.3161593989929
 20
181.4082305205537
 30
0.0
 10
128.3122888228545
 20
181.2577022674556
 30
0.0
 10
128.3080031734058
 20
181.0925899049656
 30
0.0
 10
128.3033784592202
 20
180.9151083335439
 30
0.0
 10
128.2984126884972
 20
180.7248077555216
 30
0.0
 10
128.293106393239
 20
180.5212711145313
 30
0.0
 10
128.2874593913794
 20
180.3041222881781
 30
0.0
 10
128.2814717081924
 20
180.0730344812889
 30
0.0
 10
128.2751433136726
 20
179.8277392004099
 30
0.0
 10
128.2684741966209
 20
179.5680356690517
 30
0.0
 10
128.2614643423891
 20
179.2938006660591
 30
0.0
 10
128.2541137419803
 20
179.0049987639331
 30
0.0
 10
128.2464223766404
 20
178.7016927532826
 30
0.0
 10
128.238390270864
 20
178.3840547604372
 30
0.0
 10
128.2300172863852
 20
178.0523756659915
 30
0.0
 10
128.221303923599
 20
177.7070816629967
 30
0.0
 10
128.212248202235
 20
177.3487229712936
 30
0.0
 10
128.20285778617
 20
176.9780701038451
 30
0.0
 10
128.1964375470908
 20
176.7264706485376
 30
0.0
 10
128.1931859186832
 20
176.5990442511552
 30
0.0
  0
SPLINE
  5
BA
330
1F
100
AcDbEntity
  8
0
  6
Continuous
 62
     7
370
    15
100
AcDbSpline
210
0.0
220
0.0
230
1.0
 70
    24
 71
     3
 72
    32
 73
    28
 74
     0
 42
0.00000001
 43
0.00000001
 12
1.0
 22
0.0
 32
0.0
 13
1.0
 23
0.0
 33
0.0
 40
0.0
 40
0.0
 40
0.0
 40
0.0
 40
0.0178265852325261
 40
0.0356032532728591
 40
0.0533440544915243
 40
0.0710631245812483
 40
0.0887746512661288
 40
0.1064928403912675
 40
0.1242318817954556
 40
0.1420059153755153
 40
0.1598289977456074
 40
0.1777150698783387
 40
0.1956779260878578
 40
0.2137311846793368
 40
0.2318882605462805
 40
0.250162339948688
 40
0.3756457589582182
 40
0.5000174035287235
 40
0.6248829723630346
 40
0.7498418284240337
 40
0.785842100022831
 40
0.8215726277511409
 40
0.8571417052236944
 40
0.8926591028859967
 40
0.9282350695644219
 40
0.9639793121421473
 40
1.0
 40
1.0
 40
1.0
 40
1.0
 10
128.0680328861827
 20
176.5985478827553
 30
0.0
 10
128.06966914371
 20
176.6613965826472
 30
0.0
 10
128.0729370769909
 20
176.7869179963635
 30
0.0
 10
128.0778249898003
 20
176.9746628715579
 30
0.0
 10
128.0826919710712
 20
177.1616037657437
 30
0.0
 10
128.0875376868364
 20
177.3477278512248
 30
0.0
 10
128.0923622144654
 20
177.5330380997735
 30
0.0
 10
128.0971655214086
 20
177.7175332611526
 30
0.0
 10
128.1019476049057
 20
177.901213229337
 30
0.0
 10
128.1067084542168
 20
178.0840775918157
 30
0.0
 10
128.1114480629811
 20
178.2661261042663
 30
0.0
 10
128.1161664183108
 20
178.4473582716631
 30
0.0
 10
128.1208635329047
 20
178.6277745817717
 30
0.0
 10
128.1255393273549
 20
178.8073719845341
 30
0.0
 10
128.130194072494
 20
178.9861608826339
 30
0.0
 10
128.1438731364786
 20
179.5115741337959
 30
0.0
 10
128.1655533922722
 20
180.3443133983634
 30
0.0
 10
128.1919200703757
 20
181.3570582820952
 30
0.0
 10
128.2135695763732
 20
182.188616446089
 30
0.0
 10
128.2257491528004
 20
182.6564343359371
 30
0.0
 10
128.2320884318931
 20
182.8999262328904
 30
0.0
 10
128.2350390055475
 20
183.0132578539925
 30
0.0
 10
128.2374515331377
 20
183.1059231098982
 30
0.0
 10
128.2393301719073
 20
183.1780816804552
 30
0.0
 10
128.240661938543
 20
183.2292348762151
 30
0.0
 10
128.2414945620354
 20
183.2612159691193
 30
0.0
 10
128.2415966501961
 20
183.2651371783857
 30
0.0
 10
128.2416478909031
 20
183.2671053354529
 30
0.0
  0
LINE
  5
BB
330
1F
100
AcDbEntity
  8
0
  6
Continuous
 62
     7
370
    15
100
AcDbLine
 10
138.7731160221
 20
176.5990442512
 30
0.0
 11
138.7731160221
 21
183.3889447514
 31
0.0
  0
LWPOLYLINE
  5
BC
330
1F
100
AcDbEntity
  8
0
  6
Continuous
 62
     7
370
    15
100
AcDbPolyline
 90
       14
 70
   128
 43
0.0
 10
132.0064119805
 20
183.3616465942
 10
132.0064490057
 20
183.3616492068
 10
132.1956250485
 20
183.3809097612
 10
132.2587276705
 20
183.3889447514
 10
132.1956668943
 20
183.3809175287
 10
132.006352891
 20
183.3616405774
 10
131.7282382066
 20
183.342016645
 10
131.3976820342
 20
183.3342845138
 10
131.2263479886
 20
183.336259112
 10
131.0678923774
 20
183.3419950267
 10
130.7896164586
 20
183.361664166
 10
130.6004512827
 20
183.38092651
 10
130.5375043736
 20
183.3889447514
 10
130.5375043736
 20
183.3889447514
  0
LINE
  5
BD
330
1F
100
AcDbEntity
  8
0
  6
Continuous
 62
     7
370
    15
100
AcDbLine
 10
138.8981160221
 20
183.2639447514
 30
0.0
 11
138.8981160221
 21
176.5952924744
 31
0.0
  0
SPLINE
  5
BE
330
1F
100
AcDbEntity
  8
0
  6
Continuous
 62
     7
370
    15
100
AcDbSpline
210
0.0
220
0.0
230
1.0
 70
     8
 71
     3
 72
    10
 73
     6
 74
     0
 42
0.00000001
 43
0.00000001
 12
1.0
 22
0.0
 32
0.0
 13
1.0
 23
0.0
 33
0.0
 40
0.0
 40
0.0
 40
0.0
 40
0.0
 40
0.0500566791612661
 40
0.5235778524241909
 40
1.0
 40
1.0
 40
1.0
 40
1.0
 10
126.340592049846
 20
111.8837544467843
 30
0.0
 10
126.3446188667642
 20
111.8980660126406
 30
0.0
 10
126.3867381641181
 20
112.0477606995718
 30
0.0
 10
126.3856543592858
 20
112.2146132696158
 30
0.0
 10
126.3903037534334
 20
112.2511684227868
 30
0.0
 10
126.3926355497586
 20
112.2695018161553
 30
0.0
  0
ENDSEC
  0
SECTION
  2
OBJECTS
  0
DICTIONARY
  5
C
330
0
100
AcDbDictionary
281
     1
  3
ACAD_GROUP
350
D
  3
ACAD_LAYOUT
350
1A
  3
ACAD_MLINESTYLE
350
17
  3
ACAD_PLOTSETTINGS
350
19
  3
ACAD_PLOTSTYLENAME
350
E
  0
DICTIONARY
  5
D
102
{ACAD_REACTORS
330
C
102
}
330
C
100
AcDbDictionary
281
     1
  0
DICTIONARY
  5
1A
102
{ACAD_REACTORS
330
C
102
}
330
C
100
AcDbDictionary
281
     1
  3
Layout1
350
1E
  3
Layout2
350
26
  3
Model
350
22
  0
DICTIONARY
  5
17
102
{ACAD_REACTORS
330
C
102
}
330
C
100
AcDbDictionary
281
     1
  3
Standard
350
18
  0
DICTIONARY
  5
19
102
{ACAD_REACTORS
330
C
102
}
330
C
100
AcDbDictionary
281
     1
  0
ACDBDICTIONARYWDFLT
  5
E
102
{ACAD_REACTORS
330
C
102
}
330
C
100
AcDbDictionary
281
     1
  3
Normal
350
F
100
AcDbDictionaryWithDefault
340
F
  0
LAYOUT
  5
1E
102
{ACAD_REACTORS
330
1A
102
}
330
1A
100
AcDbPlotSettings
  1

  2
none_device
  4

  6

 40
0.0
 41
0.0
 42
0.0
 43
0.0
 44
0.0
 45
0.0
 46
0.0
 47
0.0
 48
0.0
 49
0.0
140
0.0
141
0.0
142
1.0
143
1.0
 70
   688
 72
     0
 73
     0
 74
     5
  7

 75
    16
147
1.0
148
0.0
149
0.0
100
AcDbLayout
  1
Layout1
 70
     1
 71
     1
 10
0.0
 20
0.0
 11
420.0
 21
297.0
 12
0.0
 22
0.0
 32
0.0
 14
1.0000000000E+20
 24
1.0000000000E+20
 34
1.0000000000E+20
 15
-1.0000000000E+20
 25
-1.0000000000E+20
 35
-1.0000000000E+20
146
0.0
 13
0.0
 23
0.0
 33
0.0
 16
1.0
 26
0.0
 36
0.0
 17
0.0
 27
1.0
 37
0.0
 76
     0
330
1B
  0
LAYOUT
  5
26
102
{ACAD_REACTORS
330
1A
102
}
330
1A
100
AcDbPlotSettings
  1

  2
none_device
  4

  6

 40
0.0
 41
0.0
 42
0.0
 43
0.0
 44
0.0
 45
0.0
 46
0.0
 47
0.0
 48
0.0
 49
0.0
140
0.0
141
0.0
142
1.0
143
1.0
 70
   688
 72
     0
 73
     0
 74
     5
  7

 75
    16
147
1.0
148
0.0
149
0.0
100
AcDbLayout
  1
Layout2
 70
     1
 71
     2
 10
0.0
 20
0.0
 11
0.0
 21
0.0
 12
0.0
 22
0.0
 32
0.0
 14
0.0
 24
0.0
 34
0.0
 15
0.0
 25
0.0
 35
0.0
146
0.0
 13
0.0
 23
0.0
 33
0.0
 16
1.0
 26
0.0
 36
0.0
 17
0.0
 27
1.0
 37
0.0
 76
     0
330
23
  0
LAYOUT
  5
22
102
{ACAD_REACTORS
330
1A
102
}
330
1A
100
AcDbPlotSettings
  1

  2
none_device
  4

  6

 40
0.0
 41
0.0
 42
0.0
 43
0.0
 44
0.0
 45
0.0
 46
0.0
 47
0.0
 48
0.0
 49
0.0
140
0.0
141
0.0
142
1.0
143
1.0
 70
  1712
 72
     0
 73
     0
 74
     0
  7

 75
     0
147
1.0
148
0.0
149
0.0
100
AcDbLayout
  1
Model
 70
     1
 71
     0
 10
0.0
 20
0.0
 11
279.4
 21
215.9
 12
0.0
 22
0.0
 32
0.0
 14
0.0
 24
0.0
 34
0.0
 15
279.4
 25
215.9
 35
0.0
146
0.0
 13
0.0
 23
0.0
 33
0.0
 16
1.0
 26
0.0
 36
0.0
 17
0.0
 27
1.0
 37
0.0
 76
     0
330
1F
331
29
  0
MLINESTYLE
  5
18
102
{ACAD_REACTORS
330
17
102
}
330
17
100
AcDbMlineStyle
  2
Standard
 70
     0
  3

 62
   256
 51
90.0
 52
90.0
 71
     2
 49
0.5
 62
   256
  6
BYLAYER
 49
-0.5
 62
   256
  6
BYLAYER
  0
ACDBPLACEHOLDER
  5
F
102
{ACAD_REACTORS
330
E
102
}
330
E
  0
ENDSEC
  0
EOF
