  0
SECTION
  2
HEADER
  9
$ACADVER
  1
AC1015
  9
$ACADMAINTVER
 70
     6
  9
$DWGCODEPAGE
  3
ANSI_1251
  9
$INSBASE
 10
0.0
 20
0.0
 30
0.0
  9
$EXTMIN
 10
0.0
 20
0.0
 30
0.0
  9
$EXTMAX
 10
297.0
 20
210.0
 30
0.0
  9
$LIMMIN
 10
0.0
 20
0.0
  9
$LIMMAX
 10
297.0
 20
210.0
  9
$ORTHOMODE
 70
     0
  9
$REGENMODE
 70
     1
  9
$FILLMODE
 70
     1
  9
$QTEXTMODE
 70
     0
  9
$MIRRTEXT
 70
     1
  9
$LTSCALE
 40
1.0
  9
$ATTMODE
 70
     1
  9
$TEXTSIZE
 40
3.5
  9
$TRACEWID
 40
1.0
  9
$TEXTSTYLE
  7
Standard
  9
$CLAYER
  8
0
  9
$CELTYPE
  6
ByLayer
  9
$CECOLOR
 62
   256
  9
$CELTSCALE
 40
1.0
  9
$DISPSILH
 70
     0
  9
$DIMSCALE
 40
1.0
  9
$DIMASZ
 40
3.5
  9
$DIMEXO
 40
0.01
  9
$DIMDLI
 40
3.75
  9
$DIMRND
 40
0.0
  9
$DIMDLE
 40
0.0
  9
$DIMEXE
 40
1.0
  9
$DIMTP
 40
0.0
  9
$DIMTM
 40
0.0
  9
$DIMTXT
 40
3.5
  9
$DIMCEN
 40
2.5
  9
$DIMTSZ
 40
0.0
  9
$DIMTOL
 70
     0
  9
$DIMLIM
 70
     0
  9
$DIMTIH
 70
     1
  9
$DIMTOH
 70
     1
  9
$DIMSE1
 70
     0
  9
$DIMSE2
 70
     0
  9
$DIMTAD
 70
     1
  9
$DIMZIN
 70
     0
  9
$DIMBLK
  1

  9
$DIMASO
 70
     1
  9
$DIMSHO
 70
     1
  9
$DIMPOST
  1

  9
$DIMAPOST
  1

  9
$DIMALT
 70
     0
  9
$DIMALTD
 70
     3
  9
$DIMALTF
 40
0.0393700787
  9
$DIMLFAC
 40
10.0
  9
$DIMTOFL
 70
     1
  9
$DIMTVP
 40
0.0
  9
$DIMTIX
 70
     0
  9
$DIMSOXD
 70
     0
  9
$DIMSAH
 70
     0
  9
$DIMBLK1
  1

  9
$DIMBLK2
  1

  9
$DIMSTYLE
  2
ISO-25
  9
$DIMCLRD
 70
     0
  9
$DIMCLRE
 70
     0
  9
$DIMCLRT
 70
     0
  9
$DIMTFAC
 40
1.0
  9
$DIMGAP
 40
3.0
  9
$DIMJUST
 70
     0
  9
$DIMSD1
 70
     0
  9
$DIMSD2
 70
     0
  9
$DIMTOLJ
 70
     0
  9
$DIMTZIN
 70
     0
  9
$DIMALTZ
 70
     0
  9
$DIMALTTZ
 70
     0
  9
$DIMUPT
 70
     0
  9
$DIMDEC
 70
     2
  9
$DIMTDEC
 70
     3
  9
$DIMALTU
 70
     2
  9
$DIMALTTD
 70
     3
  9
$DIMTXSTY
  7
Standard
  9
$DIMAUNIT
 70
     0
  9
$DIMADEC
 70
     2
  9
$DIMALTRND
 40
0.0
  9
$DIMAZIN
 70
     0
  9
$DIMDSEP
 70
    44
  9
$DIMATFIT
 70
     3
  9
$DIMFRAC
 70
     0
  9
$DIMLDRBLK
  1

  9
$DIMLUNIT
 70
     2
  9
$DIMLWD
 70
    -2
  9
$DIMLWE
 70
    -2
  9
$DIMTMOVE
 70
     0
  9
$LUNITS
 70
     2
  9
$LUPREC
 70
     2
  9
$SKETCHINC
 40
1.0
  9
$FILLETRAD
 40
10.0
  9
$AUNITS
 70
     0
  9
$AUPREC
 70
     2
  9
$MENU
  1
.
  9
$ELEVATION
 40
0.0
  9
$PELEVATION
 40
0.0
  9
$THICKNESS
 40
0.0
  9
$LIMCHECK
 70
     0
  9
$CHAMFERA
 40
10.0
  9
$CHAMFERB
 40
10.0
  9
$CHAMFERC
 40
20.0
  9
$CHAMFERD
 40
0.0
  9
$SKPOLY
 70
     0
  9
$TDCREATE
 40
2457407.83430772
  9
$TDUCREATE
 40
2457407.750974386
  9
$TDUPDATE
 40
2457407.834308079
  9
$TDUUPDATE
 40
2457407.750974745
  9
$TDINDWG
 40
0.0000000116
  9
$TDUSRTIMER
 40
0.0000000116
  9
$USRTIMER
 70
     1
  9
$ANGBASE
 50
0.0
  9
$ANGDIR
 70
     0
  9
$PDMODE
 70
     0
  9
$PDSIZE
 40
-1.0
  9
$PLINEWID
 40
0.0
  9
$SPLFRAME
 70
     0
  9
$SPLINETYPE
 70
     6
  9
$SPLINESEGS
 70
     8
  9
$HANDSEED
  5
12E
  9
$SURFTAB1
 70
     6
  9
$SURFTAB2
 70
     6
  9
$SURFTYPE
 70
     6
  9
$SURFU
 70
     6
  9
$SURFV
 70
     6
  9
$UCSBASE
  2

  9
$UCSNAME
  2

  9
$UCSORG
 10
0.0
 20
0.0
 30
0.0
  9
$UCSXDIR
 10
1.0
 20
0.0
 30
0.0
  9
$UCSYDIR
 10
0.0
 20
1.0
 30
0.0
  9
$UCSORTHOREF
  2

  9
$UCSORTHOVIEW
 70
     0
  9
$UCSORGTOP
 10
0.0
 20
0.0
 30
0.0
  9
$UCSORGBOTTOM
 10
0.0
 20
0.0
 30
0.0
  9
$UCSORGLEFT
 10
0.0
 20
0.0
 30
0.0
  9
$UCSORGRIGHT
 10
0.0
 20
0.0
 30
0.0
  9
$UCSORGFRONT
 10
0.0
 20
0.0
 30
0.0
  9
$UCSORGBACK
 10
0.0
 20
0.0
 30
0.0
  9
$PUCSBASE
  2

  9
$PUCSNAME
  2

  9
$PUCSORG
 10
0.0
 20
0.0
 30
0.0
  9
$PUCSXDIR
 10
1.0
 20
0.0
 30
0.0
  9
$PUCSYDIR
 10
0.0
 20
1.0
 30
0.0
  9
$PUCSORTHOREF
  2

  9
$PUCSORTHOVIEW
 70
     0
  9
$PUCSORGTOP
 10
0.0
 20
0.0
 30
0.0
  9
$PUCSORGBOTTOM
 10
0.0
 20
0.0
 30
0.0
  9
$PUCSORGLEFT
 10
0.0
 20
0.0
 30
0.0
  9
$PUCSORGRIGHT
 10
0.0
 20
0.0
 30
0.0
  9
$PUCSORGFRONT
 10
0.0
 20
0.0
 30
0.0
  9
$PUCSORGBACK
 10
0.0
 20
0.0
 30
0.0
  9
$USERI1
 70
     0
  9
$USERI2
 70
     0
  9
$USERI3
 70
     0
  9
$USERI4
 70
     0
  9
$USERI5
 70
     0
  9
$USERR1
 40
0.0
  9
$USERR2
 40
0.0
  9
$USERR3
 40
0.0
  9
$USERR4
 40
0.0
  9
$USERR5
 40
0.0
  9
$WORLDVIEW
 70
     1
  9
$SHADEDGE
 70
     3
  9
$SHADEDIF
 70
    70
  9
$TILEMODE
 70
     1
  9
$MAXACTVP
 70
    64
  9
$PINSBASE
 10
0.0
 20
0.0
 30
0.0
  9
$PLIMCHECK
 70
     0
  9
$PEXTMIN
 10
1.0000000000E+20
 20
1.0000000000E+20
 30
1.0000000000E+20
  9
$PEXTMAX
 10
-1.0000000000E+20
 20
-1.0000000000E+20
 30
-1.0000000000E+20
  9
$PLIMMIN
 10
0.0
 20
0.0
  9
$PLIMMAX
 10
420.0
 20
297.0
  9
$UNITMODE
 70
     0
  9
$VISRETAIN
 70
     1
  9
$PLINEGEN
 70
     0
  9
$PSLTSCALE
 70
     1
  9
$TREEDEPTH
 70
  3020
  9
$CMLSTYLE
  2
Standard
  9
$CMLJUST
 70
     0
  9
$CMLSCALE
 40
20.0
  9
$PROXYGRAPHICS
 70
     1
  9
$MEASUREMENT
 70
     1
  9
$CELWEIGHT
370
    -1
  9
$ENDCAPS
280
     0
  9
$JOINSTYLE
280
     0
  9
$LWDISPLAY
290
     1
  9
$INSUNITS
 70
     4
  9
$HYPERLINKBASE
  1

  9
$STYLESHEET
  1

  9
$XEDIT
290
     1
  9
$CEPSNTYPE
380
     0
  9
$PSTYLEMODE
290
     1
  9
$FINGERPRINTGUID
  2
{AE42CCC2-9213-44D1-A8AA-1A06F1F6C7C0}
  9
$VERSIONGUID
  2
{FAEB1C32-E019-11D5-929B-00C0DF256EC4}
  9
$EXTNAMES
290
     1
  9
$PSVPSCALE
 40
0.0
  9
$OLESTARTUP
290
     0
  0
ENDSEC
  0
SECTION
  2
CLASSES
  0
CLASS
  1
ACDBDICTIONARYWDFLT
  2
AcDbDictionaryWithDefault
  3
ObjectDBX Classes
 90
        0
280
     0
281
     0
  0
CLASS
  1
VISUALSTYLE
  2
AcDbVisualStyle
  3
ObjectDBX Classes
 90
     4095
280
     0
281
     0
  0
CLASS
  1
MATERIAL
  2
AcDbMaterial
  3
ObjectDBX Classes
 90
     1153
280
     0
281
     0
  0
CLASS
  1
ACDBPLACEHOLDER
  2
AcDbPlaceHolder
  3
ObjectDBX Classes
 90
        0
280
     0
281
     0
  0
CLASS
  1
LAYOUT
  2
AcDbLayout
  3
ObjectDBX Classes
 90
        0
280
     0
281
     0
  0
ENDSEC
  0
SECTION
  2
TABLES
  0
TABLE
  2
VPORT
  5
8
330
0
100
AcDbSymbolTable
 70
     1
  0
VPORT
  5
29
330
8
100
AcDbSymbolTableRecord
100
AcDbViewportTableRecord
  2
*Active
 70
     0
 10
0.0
 20
0.0
 11
1.0
 21
1.0
 12
148.5
 22
105.0
 13
0.0
 23
0.0
 14
10.0
 24
10.0
 15
10.0
 25
10.0
 16
0.0
 26
0.0
 36
1.0
 17
0.0
 27
0.0
 37
0.0
 40
210.0
 41
1.4142857143
 42
50.0
 43
0.0
 44
0.0
 50
0.0
 51
0.0
 71
     0
 72
  2000
 73
     1
 74
     3
 75
     0
 76
     0
 77
     0
 78
     0
281
     0
 65
     1
110
0.0
120
0.0
130
0.0
111
1.0
121
0.0
131
0.0
112
0.0
122
1.0
132
0.0
 79
     0
146
0.0
  0
ENDTAB
  0
TABLE
  2
LTYPE
  5
5
330
0
100
AcDbSymbolTable
 70
     6
  0
LTYPE
  5
14
330
5
100
AcDbSymbolTableRecord
100
AcDbLinetypeTableRecord
  2
ByBlock
 70
     0
  3

 72
    65
 73
     0
 40
0.0
  0
LTYPE
  5
15
330
5
100
AcDbSymbolTableRecord
100
AcDbLinetypeTableRecord
  2
ByLayer
 70
     0
  3

 72
    65
 73
     0
 40
0.0
  0
LTYPE
  5
16
330
5
100
AcDbSymbolTableRecord
100
AcDbLinetypeTableRecord
  2
Continuous
 70
     0
  3
Solid line
 72
    65
 73
     0
 40
0.0
  0
LTYPE
  5
3F
330
5
100
AcDbSymbolTableRecord
100
AcDbLinetypeTableRecord
  2
HIDDEN
 70
     0
  3
Hidden __ __ __ __ __ __ __ __ __ __ __ __ __ __
 72
    65
 73
     2
 40
1.905
 49
1.27
 74
     0
 49
-0.635
 74
     0
  0
LTYPE
  5
40
330
5
100
AcDbSymbolTableRecord
100
AcDbLinetypeTableRecord
  2
PHANTOM
 70
     0
  3
Phantom ______  __  __  ______  __  __  ______
 72
    65
 73
     6
 40
12.7
 49
6.35
 74
     0
 49
-1.27
 74
     0
 49
1.27
 74
     0
 49
-1.27
 74
     0
 49
1.27
 74
     0
 49
-1.27
 74
     0
  0
LTYPE
  5
41
330
5
100
AcDbSymbolTableRecord
100
AcDbLinetypeTableRecord
  2
CENTER
 70
     0
  3
Center ____ _ ____ _ ____ _ ____ _ ____ _ ____
 72
    65
 73
     4
 40
10.16
 49
6.35
 74
     0
 49
-1.27
 74
     0
 49
1.27
 74
     0
 49
-1.27
 74
     0
  0
LTYPE
  5
42
330
5
100
AcDbSymbolTableRecord
100
AcDbLinetypeTableRecord
  2
CENTERX2
 70
     0
  3
Center (2x) ________  __  ________  __  _____
 72
    65
 73
     4
 40
20.32
 49
12.7
 74
     0
 49
-2.54
 74
     0
 49
2.54
 74
     0
 49
-2.54
 74
     0
  0
LTYPE
  5
43
330
5
100
AcDbSymbolTableRecord
100
AcDbLinetypeTableRecord
  2
DOT2
 70
     0
  3
Dot (.5x) ........................................
 72
    65
 73
     2
 40
0.635
 49
0.0
 74
     0
 49
-0.635
 74
     0
  0
ENDTAB
  0
TABLE
  2
LAYER
  5
2
330
0
100
AcDbSymbolTable
 70
     1
  0
LAYER
  5
10
330
2
100
AcDbSymbolTableRecord
100
AcDbLayerTableRecord
  2
0
 70
     0
 62
     7
  6
Continuous
370
    -3
390
F
  0
ENDTAB
  0
TABLE
  2
STYLE
  5
3
330
0
100
AcDbSymbolTable
 70
     1
  0
STYLE
  5
11
330
3
100
AcDbSymbolTableRecord
100
AcDbTextStyleTableRecord
  2
Standard
 70
     0
 40
0.0
 41
1.0
 50
0.0
 71
     0
 42
3.5
  3
txt
  4

  0
ENDTAB
  0
TABLE
  2
VIEW
  5
6
330
0
100
AcDbSymbolTable
 70
     0
  0
ENDTAB
  0
TABLE
  2
UCS
  5
7
330
0
100
AcDbSymbolTable
 70
     0
  0
ENDTAB
  0
TABLE
  2
APPID
  5
9
330
0
100
AcDbSymbolTable
 70
     1
  0
APPID
  5
12
330
9
100
AcDbSymbolTableRecord
100
AcDbRegAppTableRecord
  2
ACAD
 70
     0
  0
ENDTAB
  0
TABLE
  2
DIMSTYLE
  5
A
330
0
100
AcDbSymbolTable
 70
     1
100
AcDbDimStyleTable
  0
DIMSTYLE
105
27
330
A
100
AcDbSymbolTableRecord
100
AcDbDimStyleTableRecord
  2
ISO-25
 70
     0
 41
2.5
 42
0.625
 43
3.75
 44
1.25
 73
     0
 74
     0
 77
     1
 78
     8
140
2.5
141
2.5
143
0.0393700787
147
0.625
171
     3
172
     1
178
     0
271
     2
272
     2
274
     3
278
    44
283
     0
284
     8
340
11
  0
ENDTAB
  0
TABLE
  2
BLOCK_RECORD
  5
1
330
0
100
AcDbSymbolTable
 70
     1
  0
BLOCK_RECORD
  5
1F
330
1
100
AcDbSymbolTableRecord
100
AcDbBlockTableRecord
  2
*Model_Space
340
22
  0
BLOCK_RECORD
  5
1B
330
1
100
AcDbSymbolTableRecord
100
AcDbBlockTableRecord
  2
*Paper_Space
340
1E
  0
BLOCK_RECORD
  5
23
330
1
100
AcDbSymbolTableRecord
100
AcDbBlockTableRecord
  2
*Paper_Space0
340
26
  0
ENDTAB
  0
ENDSEC
  0
SECTION
  2
BLOCKS
  0
BLOCK
  5
20
330
1F
100
AcDbEntity
  8
0
100
AcDbBlockBegin
  2
*Model_Space
 70
     0
 10
0.0
 20
0.0
 30
0.0
  3
*Model_Space
  1

  0
ENDBLK
  5
21
330
1F
100
AcDbEntity
  8
0
100
AcDbBlockEnd
  0
BLOCK
  5
1C
330
1B
100
AcDbEntity
 67
     1
  8
0
100
AcDbBlockBegin
  2
*Paper_Space
 70
     0
 10
0.0
 20
0.0
 30
0.0
  3
*Paper_Space
  1

  0
ENDBLK
  5
1D
330
1B
100
AcDbEntity
 67
     1
  8
0
100
AcDbBlockEnd
  0
BLOCK
  5
24
330
23
100
AcDbEntity
  8
0
100
AcDbBlockBegin
  2
*Paper_Space0
 70
     0
 10
0.0
 20
0.0
 30
0.0
  3
*Paper_Space0
  1

  0
ENDBLK
  5
25
330
23
100
AcDbEntity
  8
0
100
AcDbBlockEnd
  0
ENDSEC
  0
SECTION
  2
ENTITIES
  0
CIRCLE
  5
44
330
1F
100
AcDbEntity
  8
0
  6
Continuous
 62
     7
370
    15
100
AcDbCircle
 10
57.9806353591
 20
171.408121547
 30
0.0
 40
1.54999999999999
  0
CIRCLE
  5
45
330
1F
100
AcDbEntity
  8
0
  6
Continuous
 62
     7
370
    15
100
AcDbCircle
 10
57.9806353591
 20
162.608121547
 30
0.0
 40
0.5049999999999955
  0
CIRCLE
  5
46
330
1F
100
AcDbEntity
  8
0
  6
Continuous
 62
     7
370
    15
100
AcDbCircle
 10
57.9806353591
 20
148.008121547
 30
0.0
 40
0.5049999999999955
  0
CIRCLE
  5
47
330
1F
100
AcDbEntity
  8
0
  6
Continuous
 62
     7
370
    15
100
AcDbCircle
 10
57.9806353591
 20
140.858121547
 30
0.0
 40
1.049999999999976
  0
CIRCLE
  5
48
330
1F
100
AcDbEntity
  8
0
  6
Continuous
 62
     7
370
    15
100
AcDbCircle
 10
57.9806353591
 20
130.608121547
 30
0.0
 40
0.5049999999999955
  0
CIRCLE
  5
49
330
1F
100
AcDbEntity
  8
0
  6
Continuous
 62
     7
370
    15
100
AcDbCircle
 10
57.9806353591
 20
123.608121547
 30
0.0
 40
1.049999999999976
  0
CIRCLE
  5
4A
330
1F
100
AcDbEntity
  8
0
  6
Continuous
 62
     7
370
    15
100
AcDbCircle
 10
57.9806353591
 20
114.608121547
 30
0.0
 40
0.5550000000000139
  0
CIRCLE
  5
4B
330
1F
100
AcDbEntity
  8
0
  6
Continuous
 62
     7
370
    15
100
AcDbCircle
 10
57.9806353591
 20
106.608121547
 30
0.0
 40
0.3674999999999997
  0
CIRCLE
  5
4C
330
1F
100
AcDbEntity
  8
0
  6
Continuous
 62
     7
370
    15
100
AcDbCircle
 10
57.9806353591
 20
98.608121547
 30
0.0
 40
0.5049999999999955
  0
CIRCLE
  5
4D
330
1F
100
AcDbEntity
  8
0
  6
Continuous
 62
     7
370
    15
100
AcDbCircle
 10
57.9806353591
 20
88.358121547
 30
0.0
 40
1.049999999999976
  0
CIRCLE
  5
4E
330
1F
100
AcDbEntity
  8
0
  6
Continuous
 62
     7
370
    15
100
AcDbCircle
 10
57.9806353591
 20
82.108121547
 30
0.0
 40
1.54999999999999
  0
ARC
  5
4F
330
1F
100
AcDbEntity
  8
0
  6
Continuous
 62
     7
370
    15
100
AcDbCircle
 10
61.9656165862
 20
77.9347430527
 30
0.0
 40
1.100000000000005
100
AcDbArc
 50
18.4128756817
 51
96.2015091966
  0
ARC
  5
50
330
1F
100
AcDbEntity
  8
0
  6
Continuous
 62
     7
370
    15
100
AcDbCircle
 10
57.9806353591
 20
114.608121547
 30
0.0
 40
35.78924999999999
100
AcDbArc
 50
263.7984908034
 51
276.2015091966
  0
ARC
  5
51
330
1F
100
AcDbEntity
  8
0
  6
Continuous
 62
     7
370
    15
100
AcDbCircle
 10
53.995654132
 20
77.9347430527
 30
0.0
 40
1.100000000000004
100
AcDbArc
 50
83.7984908034
 51
161.5871243183
  0
ARC
  5
52
330
1F
100
AcDbEntity
  8
0
  6
Continuous
 62
     7
370
    15
100
AcDbCircle
 10
57.9806353591
 20
76.608121547
 30
0.0
 40
5.299999999999994
100
AcDbArc
 50
161.5871243183
 51
18.4128756817
  0
ARC
  5
53
330
1F
100
AcDbEntity
  8
0
  6
Continuous
 62
     7
370
    15
100
AcDbCircle
 10
52.6806353591
 20
171.8881613878
 30
0.0
 40
1.099999999999995
100
AcDbArc
 50
0.0
 51
43.4456175992
  0
ARC
  5
54
330
1F
100
AcDbEntity
  8
0
  6
Continuous
 62
     7
370
    15
100
AcDbCircle
 10
57.9806353591
 20
176.908121547
 30
0.0
 40
6.199999999999988
100
AcDbArc
 50
316.5543824008
 51
223.4456175992
  0
ARC
  5
55
330
1F
100
AcDbEntity
  8
0
  6
Continuous
 62
     7
370
    15
100
AcDbCircle
 10
63.2806353591
 20
171.8881613878
 30
0.0
 40
1.100000000000009
100
AcDbArc
 50
136.5543824008
 51
180.0
  0
LINE
  5
56
330
1F
100
AcDbEntity
  8
0
  6
Continuous
 62
     7
370
    15
100
AcDbLine
 10
62.1806353025
 20
81.6280814736
 30
0.0
 11
62.1806353025
 21
171.8881639569
 31
0.0
  0
ARC
  5
57
330
1F
100
AcDbEntity
  8
0
  6
Continuous
 62
     7
370
    15
100
AcDbCircle
 10
63.2806353591
 20
81.6280817062
 30
0.0
 40
1.100000000000004
100
AcDbArc
 50
180.0
 51
223.4456175992
  0
ARC
  5
58
330
1F
100
AcDbEntity
  8
0
  6
Continuous
 62
     7
370
    15
100
AcDbCircle
 10
57.9806353591
 20
76.608121547
 30
0.0
 40
6.200000000000002
100
AcDbArc
 50
136.5543824008
 51
43.4456175992
  0
ARC
  5
59
330
1F
100
AcDbEntity
  8
0
  6
Continuous
 62
     7
370
    15
100
AcDbCircle
 10
52.6806353591
 20
81.6280817062
 30
0.0
 40
1.100000000000004
100
AcDbArc
 50
316.5543824008
 51
0.0
  0
LINE
  5
5A
330
1F
100
AcDbEntity
  8
0
  6
Continuous
 62
     7
370
    15
100
AcDbLine
 10
53.7806354157
 20
171.8881639569
 30
0.0
 11
53.7806354157
 21
81.6280814736
 31
0.0
  0
ARC
  5
5B
330
1F
100
AcDbEntity
  8
0
  6
Continuous
 62
     7
370
    15
100
AcDbCircle
 10
60.2806353591
 20
90.8441651213
 30
0.0
 40
0.7000000000000091
100
AcDbArc
 50
275.5281666538
 51
0.0
  0
LINE
  5
5C
330
1F
100
AcDbEntity
  8
0
  6
Continuous
 62
     7
370
    15
100
AcDbLine
 10
60.9806352921
 20
95.3834160148
 30
0.0
 11
60.9806352921
 21
90.8441650598
 31
0.0
  0
ARC
  5
5D
330
1F
100
AcDbEntity
  8
0
  6
Continuous
 62
     7
370
    15
100
AcDbCircle
 10
60.2806353591
 20
95.3834161073
 30
0.0
 40
0.7000000000000028
100
AcDbArc
 50
0.0
 51
96.8223102969
  0
ARC
  5
5E
330
1F
100
AcDbEntity
  8
0
  6
Continuous
 62
     7
370
    15
100
AcDbCircle
 10
57.9806353591
 20
114.608121547
 30
0.0
 40
18.6618
100
AcDbArc
 50
263.1776897031
 51
276.8223102969
  0
ARC
  5
5F
330
1F
100
AcDbEntity
  8
0
  6
Continuous
 62
     7
370
    15
100
AcDbCircle
 10
55.6806353591
 20
95.3834161073
 30
0.0
 40
0.7000000000000106
100
AcDbArc
 50
83.1776897031
 51
180.0
  0
LINE
  5
60
330
1F
100
AcDbEntity
  8
0
  6
Continuous
 62
     7
370
    15
100
AcDbLine
 10
54.9806354262
 20
90.8441650598
 30
0.0
 11
54.9806354262
 21
95.3834160148
 31
0.0
  0
ARC
  5
61
330
1F
100
AcDbEntity
  8
0
  6
Continuous
 62
     7
370
    15
100
AcDbCircle
 10
55.6806353591
 20
90.8441651213
 30
0.0
 40
0.6999999999999957
100
AcDbArc
 50
180.0
 51
264.4718333462
  0
ARC
  5
62
330
1F
100
AcDbEntity
  8
0
  6
Continuous
 62
     7
370
    15
100
AcDbCircle
 10
57.9806353591
 20
114.608121547
 30
0.0
 40
24.575
100
AcDbArc
 50
264.4718333462
 51
275.5281666538
  0
LINE
  5
63
330
1F
100
AcDbEntity
  8
0
  6
Continuous
 62
     7
370
    15
100
AcDbLine
 10
59.4806353256
 20
122.1081214874
 30
0.0
 11
59.4806353256
 21
123.608121547
 31
0.0
  0
ARC
  5
64
330
1F
100
AcDbEntity
  8
0
  6
Continuous
 62
     7
370
    15
100
AcDbCircle
 10
60.2306353591
 20
122.108121547
 30
0.0
 40
0.75
100
AcDbArc
 50
180.0
 51
0.0
  0
LINE
  5
65
330
1F
100
AcDbEntity
  8
0
  6
Continuous
 62
     7
370
    15
100
AcDbLine
 10
60.9806352921
 20
127.8211953966
 30
0.0
 11
60.9806352921
 21
122.1081214874
 31
0.0
  0
ARC
  5
66
330
1F
100
AcDbEntity
  8
0
  6
Continuous
 62
     7
370
    15
100
AcDbCircle
 10
60.2806353591
 20
127.8211964335
 30
0.0
 40
0.7000000000000028
100
AcDbArc
 50
0.0
 51
61.3690101631
  0
ARC
  5
67
330
1F
100
AcDbEntity
  8
0
  6
Continuous
 62
     7
370
    15
100
AcDbCircle
 10
57.9806353591
 20
123.608121547
 30
0.0
 40
5.499999999999994
100
AcDbArc
 50
61.3690101631
 51
118.6309898369
  0
ARC
  5
68
330
1F
100
AcDbEntity
  8
0
  6
Continuous
 62
     7
370
    15
100
AcDbCircle
 10
55.6806353591
 20
127.8211964335
 30
0.0
 40
0.6999999999999957
100
AcDbArc
 50
118.6309898369
 51
180.0
  0
LINE
  5
69
330
1F
100
AcDbEntity
  8
0
  6
Continuous
 62
     7
370
    15
100
AcDbLine
 10
54.9806354262
 20
122.1081214874
 30
0.0
 11
54.9806354262
 21
127.8211953966
 31
0.0
  0
ARC
  5
6A
330
1F
100
AcDbEntity
  8
0
  6
Continuous
 62
     7
370
    15
100
AcDbCircle
 10
55.7306353591
 20
122.108121547
 30
0.0
 40
0.75
100
AcDbArc
 50
180.0
 51
0.0
  0
LINE
  5
6B
330
1F
100
AcDbEntity
  8
0
  6
Continuous
 62
     7
370
    15
100
AcDbLine
 10
56.4806353926
 20
123.608121547
 30
0.0
 11
56.4806353926
 21
122.1081214874
 31
0.0
  0
ARC
  5
6C
330
1F
100
AcDbEntity
  8
0
  6
Continuous
 62
     7
370
    15
100
AcDbCircle
 10
57.9806353591
 20
123.608121547
 30
0.0
 40
1.500000000000007
100
AcDbArc
 50
0.0
 51
180.0
  0
ARC
  5
6D
330
1F
100
AcDbEntity
  8
0
  6
Continuous
 62
     7
370
    15
100
AcDbCircle
 10
60.2806353591
 20
133.8328269866
 30
0.0
 40
0.7000000000000379
100
AcDbArc
 50
263.1776897031
 51
0.0
  0
LINE
  5
6E
330
1F
100
AcDbEntity
  8
0
  6
Continuous
 62
     7
370
    15
100
AcDbLine
 10
60.9806352921
 20
138.372078809
 30
0.0
 11
60.9806352921
 21
133.8328274815
 31
0.0
  0
ARC
  5
6F
330
1F
100
AcDbEntity
  8
0
  6
Continuous
 62
     7
370
    15
100
AcDbCircle
 10
60.2806353591
 20
138.3720779726
 30
0.0
 40
0.7000000000000098
100
AcDbArc
 50
0.0
 51
84.4718333462
  0
ARC
  5
70
330
1F
100
AcDbEntity
  8
0
  6
Continuous
 62
     7
370
    15
100
AcDbCircle
 10
57.9806353591
 20
114.608121547
 30
0.0
 40
24.575
100
AcDbArc
 50
84.4718333462
 51
95.5281666538
  0
ARC
  5
71
330
1F
100
AcDbEntity
  8
0
  6
Continuous
 62
     7
370
    15
100
AcDbCircle
 10
55.6806353591
 20
138.3720779726
 30
0.0
 40
0.7000000000000098
100
AcDbArc
 50
95.5281666538
 51
180.0
  0
LINE
  5
72
330
1F
100
AcDbEntity
  8
0
  6
Continuous
 62
     7
370
    15
100
AcDbLine
 10
54.9806354262
 20
133.8328274815
 30
0.0
 11
54.9806354262
 21
138.372078809
 31
0.0
  0
ARC
  5
73
330
1F
100
AcDbEntity
  8
0
  6
Continuous
 62
     7
370
    15
100
AcDbCircle
 10
55.6806353591
 20
133.8328269866
 30
0.0
 40
0.7000000000000396
100
AcDbArc
 50
180.0
 51
276.8223102969
  0
ARC
  5
74
330
1F
100
AcDbEntity
  8
0
  6
Continuous
 62
     7
370
    15
100
AcDbCircle
 10
57.9806353591
 20
114.608121547
 30
0.0
 40
18.66179999999997
100
AcDbArc
 50
83.1776897031
 51
96.8223102969
  0
ARC
  5
75
330
1F
100
AcDbEntity
  8
0
  6
Continuous
 62
     7
370
    15
100
AcDbCircle
 10
60.2806353591
 20
151.3111272141
 30
0.0
 40
0.70000000000001
100
AcDbArc
 50
266.4142391406
 51
0.0
  0
LINE
  5
76
330
1F
100
AcDbEntity
  8
0
  6
Continuous
 62
     7
370
    15
100
AcDbLine
 10
60.9806352921
 20
159.1237458317
 30
0.0
 11
60.9806352921
 21
151.3111266224
 31
0.0
  0
ARC
  5
77
330
1F
100
AcDbEntity
  8
0
  6
Continuous
 62
     7
370
    15
100
AcDbCircle
 10
60.2806353591
 20
159.1237438048
 30
0.0
 40
0.7000000000000028
100
AcDbArc
 50
0.0
 51
87.0423143396
  0
ARC
  5
78
330
1F
100
AcDbEntity
  8
0
  6
Continuous
 62
     7
370
    15
100
AcDbCircle
 10
57.9806353591
 20
114.608121547
 30
0.0
 40
45.275
100
AcDbArc
 50
87.0423143396
 51
92.9576856604
  0
ARC
  5
79
330
1F
100
AcDbEntity
  8
0
  6
Continuous
 62
     7
370
    15
100
AcDbCircle
 10
55.6806353591
 20
159.1237438048
 30
0.0
 40
0.6999999999999957
100
AcDbArc
 50
92.9576856604
 51
180.0
  0
LINE
  5
7A
330
1F
100
AcDbEntity
  8
0
  6
Continuous
 62
     7
370
    15
100
AcDbLine
 10
54.9806354262
 20
151.3111266224
 30
0.0
 11
54.9806354262
 21
159.1237458317
 31
0.0
  0
ARC
  5
7B
330
1F
100
AcDbEntity
  8
0
  6
Continuous
 62
     7
370
    15
100
AcDbCircle
 10
55.6806353591
 20
151.3111272141
 30
0.0
 40
0.6999999999999957
100
AcDbArc
 50
180.0
 51
273.5857608594
  0
ARC
  5
7C
330
1F
100
AcDbEntity
  8
0
  6
Continuous
 62
     7
370
    15
100
AcDbCircle
 10
57.9806353591
 20
114.608121547
 30
0.0
 40
36.07500000000002
100
AcDbArc
 50
86.4142391406
 51
93.5857608594
  0
ARC
  5
7D
330
1F
100
AcDbEntity
  8
0
  6
Continuous
 62
     7
370
    15
100
AcDbCircle
 10
60.2806353591
 20
165.9683983965
 30
0.0
 40
0.7000000000000028
100
AcDbArc
 50
267.4359112513
 51
0.0
  0
LINE
  5
7E
330
1F
100
AcDbEntity
  8
0
  6
Continuous
 62
     7
370
    15
100
AcDbLine
 10
60.9806352921
 20
167.9748329251
 30
0.0
 11
60.9806352921
 21
165.9683975308
 31
0.0
  0
ARC
  5
7F
330
1F
100
AcDbEntity
  8
0
  6
Continuous
 62
     7
370
    15
100
AcDbCircle
 10
60.2806353591
 20
167.9748318078
 30
0.0
 40
0.7000000000000028
100
AcDbArc
 50
0.0
 51
87.5321920404
  0
ARC
  5
80
330
1F
100
AcDbEntity
  8
0
  6
Continuous
 62
     7
370
    15
100
AcDbCircle
 10
57.9806353591
 20
114.608121547
 30
0.0
 40
54.11625000000002
100
AcDbArc
 50
87.5321920404
 51
92.4678079596
  0
ARC
  5
81
330
1F
100
AcDbEntity
  8
0
  6
Continuous
 62
     7
370
    15
100
AcDbCircle
 10
55.6806353591
 20
167.9748318078
 30
0.0
 40
0.7000000000000028
100
AcDbArc
 50
92.4678079596
 51
180.0
  0
LINE
  5
82
330
1F
100
AcDbEntity
  8
0
  6
Continuous
 62
     7
370
    15
100
AcDbLine
 10
54.9806354262
 20
165.9683975308
 30
0.0
 11
54.9806354262
 21
167.9748329251
 31
0.0
  0
ARC
  5
83
330
1F
100
AcDbEntity
  8
0
  6
Continuous
 62
     7
370
    15
100
AcDbCircle
 10
55.6806353591
 20
165.9683983965
 30
0.0
 40
0.6999999999999957
100
AcDbArc
 50
180.0
 51
272.5640887487
  0
ARC
  5
84
330
1F
100
AcDbEntity
  8
0
  6
Continuous
 62
     7
370
    15
100
AcDbCircle
 10
57.9806353591
 20
114.608121547
 30
0.0
 40
50.71175000000002
100
AcDbArc
 50
87.4359112513
 51
92.5640887487
  0
ARC
  5
85
330
1F
100
AcDbEntity
  8
0
  6
Continuous
 62
     7
370
    15
100
AcDbCircle
 10
61.4409884742
 20
175.1092451425
 30
0.0
 40
1.100000000000007
100
AcDbArc
 50
266.7265424076
 51
332.5321795721
  0
ARC
  5
86
330
1F
100
AcDbEntity
  8
0
  6
Continuous
 62
     7
370
    15
100
AcDbCircle
 10
57.9806353591
 20
176.908121547
 30
0.0
 40
5.00000000000006
100
AcDbArc
 50
332.5321795721
 51
207.4678204279
  0
ARC
  5
87
330
1F
100
AcDbEntity
  8
0
  6
Continuous
 62
     7
370
    15
100
AcDbCircle
 10
54.520282244
 20
175.1092451425
 30
0.0
 40
1.100000000000084
100
AcDbArc
 50
207.4678204279
 51
273.2734575924
  0
ARC
  5
88
330
1F
100
AcDbEntity
  8
0
  6
Continuous
 62
     7
370
    15
100
AcDbCircle
 10
57.9806353591
 20
114.608121547
 30
0.0
 40
59.49999999999999
100
AcDbArc
 50
86.7265424076
 51
93.2734575924
  0
LWPOLYLINE
  5
89
330
1F
100
AcDbEntity
  8
0
  6
Continuous
 62
     7
370
    15
100
AcDbPolyline
 90
        9
 70
   128
 43
0.0
 10
60.249319642
 20
165.2690979569
 10
60.2519379623
 20
165.3275701134
 10
60.2544555135
 20
165.3837892144
 10
60.2567758105
 20
165.4356035321
 10
60.2588096328
 20
165.4810163109
 10
60.2604787491
 20
165.5182930558
 10
60.2617190845
 20
165.5459853737
 10
60.262482769
 20
165.5630382626
 10
60.2627405591
 20
165.5687960713
  0
ARC
  5
8A
330
1F
100
AcDbEntity
  8
0
  6
Continuous
 62
     7
370
    15
100
AcDbCircle
 10
60.2806353591
 20
165.9683983965
 30
0.0
 40
0.3999999999999986
100
AcDbArc
 50
267.4359112513
 51
0.0
  0
LINE
  5
8B
330
1F
100
AcDbEntity
  8
0
  6
Continuous
 62
     7
370
    15
100
AcDbLine
 10
60.9806352921
 20
165.9683975308
 30
0.0
 11
60.6806354292
 21
165.9683975308
 31
0.0
  0
LINE
  5
8C
330
1F
100
AcDbEntity
  8
0
  6
Continuous
 62
     7
370
    15
100
AcDbLine
 10
55.2806352891
 20
167.9748329251
 30
0.0
 11
55.2806352891
 21
165.9683975308
 31
0.0
  0
LINE
  5
8D
330
1F
100
AcDbEntity
  8
0
  6
Continuous
 62
     7
370
    15
100
AcDbLine
 10
55.2806352891
 20
165.9683975308
 30
0.0
 11
54.9806354262
 21
165.9683975308
 31
0.0
  0
LINE
  5
8E
330
1F
100
AcDbEntity
  8
0
  6
Continuous
 62
     7
370
    15
100
AcDbLine
 10
55.2806352891
 20
167.9748329251
 30
0.0
 11
54.9806354262
 21
167.9748329251
 31
0.0
  0
LWPOLYLINE
  5
8F
330
1F
100
AcDbEntity
  8
0
  6
Continuous
 62
     7
370
    15
100
AcDbPolyline
 90
        9
 70
   128
 43
0.0
 10
55.7119510762
 20
165.2690979569
 10
55.7093327559
 20
165.3275701134
 10
55.7068152047
 20
165.3837892144
 10
55.7044949077
 20
165.4356035321
 10
55.7024610854
 20
165.4810163109
 10
55.7007919691
 20
165.5182930558
 10
55.6995516337
 20
165.5459853737
 10
55.6987879492
 20
165.5630382626
 10
55.6985301591
 20
165.5687960713
  0
ARC
  5
90
330
1F
100
AcDbEntity
  8
0
  6
Continuous
 62
     7
370
    15
100
AcDbCircle
 10
57.9806353591
 20
114.608121547
 30
0.0
 40
51.01175000000005
100
AcDbArc
 50
87.4359112513
 51
92.5640887487
  0
ARC
  5
91
330
1F
100
AcDbEntity
  8
0
  6
Continuous
 62
     7
370
    15
100
AcDbCircle
 10
55.6806353591
 20
165.9683983965
 30
0.0
 40
0.3999999999999986
100
AcDbArc
 50
180.0
 51
272.5640887487
  0
LINE
  5
92
330
1F
100
AcDbEntity
  8
0
  6
Continuous
 62
     7
370
    15
100
AcDbLine
 10
60.9806352921
 20
133.8328274815
 30
0.0
 11
60.6806354292
 21
133.8328274815
 31
0.0
  0
LINE
  5
93
330
1F
100
AcDbEntity
  8
0
  6
Continuous
 62
     7
370
    15
100
AcDbLine
 10
60.6806354292
 20
133.8328274815
 30
0.0
 11
60.6806354292
 21
138.372078809
 31
0.0
  0
LINE
  5
94
330
1F
100
AcDbEntity
  8
0
  6
Continuous
 62
     7
370
    15
100
AcDbLine
 10
60.9806352921
 20
138.372078809
 30
0.0
 11
60.6806354292
 21
138.372078809
 31
0.0
  0
ARC
  5
95
330
1F
100
AcDbEntity
  8
0
  6
Continuous
 62
     7
370
    15
100
AcDbCircle
 10
55.6806353591
 20
138.3720779726
 30
0.0
 40
0.4000000000000015
100
AcDbArc
 50
95.5281666538
 51
180.0
  0
LINE
  5
96
330
1F
100
AcDbEntity
  8
0
  6
Continuous
 62
     7
370
    15
100
AcDbLine
 10
55.2806352891
 20
138.372078809
 30
0.0
 11
54.9806354262
 21
138.372078809
 31
0.0
  0
LWPOLYLINE
  5
97
330
1F
100
AcDbEntity
  8
0
  6
Continuous
 62
     7
370
    15
100
AcDbPolyline
 90
        9
 70
   128
 43
0.0
 10
55.6421013243
 20
138.7702169745
 10
55.6415460698
 20
138.7759539215
 10
55.6399013541
 20
138.7929472058
 10
55.6372306935
 20
138.8205411761
 10
55.6336365334
 20
138.85767785
 10
55.6292570822
 20
138.9029267161
 10
55.6242605366
 20
138.9545502989
 10
55.6188389353
 20
139.0105667441
 10
55.6132008947
 20
139.0688213436
  0
LWPOLYLINE
  5
98
330
1F
100
AcDbEntity
  8
0
  6
Continuous
 62
     7
370
    15
100
AcDbPolyline
 90
        9
 70
   128
 43
0.0
 10
60.197481855
 20
133.1377836792
 10
60.2044343643
 20
133.1958952276
 10
60.2111197702
 20
133.2517745821
 10
60.2172808416
 20
133.3032729952
 10
60.2226812087
 20
133.3484145729
 10
60.2271131865
 20
133.3854588597
 10
60.2304063432
 20
133.4129842846
 10
60.2324343912
 20
133.4299358456
 10
60.2331190996
 20
133.4356578915
  0
ARC
  5
99
330
1F
100
AcDbEntity
  8
0
  6
Continuous
 62
     7
370
    15
100
AcDbCircle
 10
60.2806353591
 20
133.8328269866
 30
0.0
 40
0.4000000000000091
100
AcDbArc
 50
263.1776897031
 51
0.0
  0
LINE
  5
9A
330
1F
100
AcDbEntity
  8
0
  6
Continuous
 62
     7
370
    15
100
AcDbLine
 10
55.2806352891
 20
138.372078809
 30
0.0
 11
55.2806352891
 21
133.8328274815
 31
0.0
  0
LINE
  5
9B
330
1F
100
AcDbEntity
  8
0
  6
Continuous
 62
     7
370
    15
100
AcDbLine
 10
55.2806352891
 20
133.8328274815
 30
0.0
 11
54.9806354262
 21
133.8328274815
 31
0.0
  0
LWPOLYLINE
  5
9C
330
1F
100
AcDbEntity
  8
0
  6
Continuous
 62
     7
370
    15
100
AcDbPolyline
 90
        9
 70
   128
 43
0.0
 10
55.7637888632
 20
133.1377836792
 10
55.756836354
 20
133.1958952276
 10
55.750150948
 20
133.2517745821
 10
55.7439898766
 20
133.3032729952
 10
55.7385895096
 20
133.3484145729
 10
55.7341575317
 20
133.3854588597
 10
55.7308643751
 20
133.4129842846
 10
55.728836327
 20
133.4299358456
 10
55.7281516187
 20
133.4356578915
  0
ARC
  5
9D
330
1F
100
AcDbEntity
  8
0
  6
Continuous
 62
     7
370
    15
100
AcDbCircle
 10
57.9806353591
 20
114.608121547
 30
0.0
 40
18.96180000000001
100
AcDbArc
 50
83.1776897031
 51
96.8223102969
  0
ARC
  5
9E
330
1F
100
AcDbEntity
  8
0
  6
Continuous
 62
     7
370
    15
100
AcDbCircle
 10
55.6806353591
 20
133.8328269866
 30
0.0
 40
0.4000000000000108
100
AcDbArc
 50
180.0
 51
276.8223102969
  0
CIRCLE
  5
9F
330
1F
100
AcDbEntity
  8
0
  6
Continuous
 62
     7
370
    15
100
AcDbCircle
 10
57.9806353591
 20
98.608121547
 30
0.0
 40
0.4549999999999912
  0
CIRCLE
  5
A0
330
1F
100
AcDbEntity
  8
0
  6
Continuous
 62
     7
370
    15
100
AcDbCircle
 10
57.9806353591
 20
162.608121547
 30
0.0
 40
0.4549999999999912
  0
ARC
  5
A1
330
1F
100
AcDbEntity
  8
0
  6
Continuous
 62
     7
370
    15
100
AcDbCircle
 10
60.2806353591
 20
159.1237438048
 30
0.0
 40
0.4000000000000057
100
AcDbArc
 50
0.0
 51
87.0423143396
  0
LWPOLYLINE
  5
A2
330
1F
100
AcDbEntity
  8
0
  6
Continuous
 62
     7
370
    15
100
AcDbPolyline
 90
        9
 70
   128
 43
0.0
 10
60.3012747757
 20
159.5232102005
 10
60.3015722401
 20
159.5289680092
 10
60.302453085
 20
159.5460149376
 10
60.3038834102
 20
159.5737012951
 10
60.3058086402
 20
159.6109601586
 10
60.3081542693
 20
159.6563610165
 10
60.3108305178
 20
159.7081574528
 10
60.3137343816
 20
159.7643646328
 10
60.3167542882
 20
159.8228129475
  0
LINE
  5
A3
330
1F
100
AcDbEntity
  8
0
  6
Continuous
 62
     7
370
    15
100
AcDbLine
 10
60.9806352921
 20
159.1237458317
 30
0.0
 11
60.6806354292
 21
159.1237458317
 31
0.0
  0
ARC
  5
A4
330
1F
100
AcDbEntity
  8
0
  6
Continuous
 62
     7
370
    15
100
AcDbCircle
 10
57.9806353591
 20
114.608121547
 30
0.0
 40
44.97500000000001
100
AcDbArc
 50
87.0423143396
 51
92.9576856604
  0
LWPOLYLINE
  5
A5
330
1F
100
AcDbEntity
  8
0
  6
Continuous
 62
     7
370
    15
100
AcDbPolyline
 90
        9
 70
   128
 43
0.0
 10
55.6599959425
 20
159.5232102005
 10
55.6596984781
 20
159.5289680092
 10
55.6588176332
 20
159.5460149376
 10
55.657387308
 20
159.5737012951
 10
55.655462078
 20
159.6109601586
 10
55.6531164489
 20
159.6563610165
 10
55.6504402004
 20
159.7081574528
 10
55.6475363366
 20
159.7643646328
 10
55.64451643
 20
159.8228129475
  0
LINE
  5
A6
330
1F
100
AcDbEntity
  8
0
  6
Continuous
 62
     7
370
    15
100
AcDbLine
 10
60.9806352921
 20
151.3111266224
 30
0.0
 11
60.6806354292
 21
151.3111266224
 31
0.0
  0
LINE
  5
A7
330
1F
100
AcDbEntity
  8
0
  6
Continuous
 62
     7
370
    15
100
AcDbLine
 10
60.6806354292
 20
151.3111266224
 30
0.0
 11
60.6806354292
 21
159.1237458317
 31
0.0
  0
ARC
  5
A8
330
1F
100
AcDbEntity
  8
0
  6
Continuous
 62
     7
370
    15
100
AcDbCircle
 10
55.6806353591
 20
159.1237438048
 30
0.0
 40
0.4000000000000034
100
AcDbArc
 50
92.9576856604
 51
180.0
  0
LINE
  5
A9
330
1F
100
AcDbEntity
  8
0
  6
Continuous
 62
     7
370
    15
100
AcDbLine
 10
55.2806352891
 20
159.1237458317
 30
0.0
 11
54.9806354262
 21
159.1237458317
 31
0.0
  0
LWPOLYLINE
  5
AA
330
1F
100
AcDbEntity
  8
0
  6
Continuous
 62
     7
370
    15
100
AcDbPolyline
 90
        9
 70
   128
 43
0.0
 10
60.2368555657
 20
150.612500581
 10
60.240516036
 20
150.6709071724
 10
60.2440358765
 20
150.7270785897
 10
60.247279673
 20
150.7788452236
 10
60.2501228146
 20
150.8242162792
 10
60.2524563364
 20
150.8614513008
 10
60.2541900866
 20
150.8891197769
 10
60.2552577548
 20
150.9061547844
 10
60.2556183629
 20
150.9119125931
  0
ARC
  5
AB
330
1F
100
AcDbEntity
  8
0
  6
Continuous
 62
     7
370
    15
100
AcDbCircle
 10
60.2806353591
 20
151.3111272141
 30
0.0
 40
0.4000000000000057
100
AcDbArc
 50
266.4142391406
 51
0.0
  0
LINE
  5
AC
330
1F
100
AcDbEntity
  8
0
  6
Continuous
 62
     7
370
    15
100
AcDbLine
 10
55.2806352891
 20
159.1237458317
 30
0.0
 11
55.2806352891
 21
151.3111266224
 31
0.0
  0
LINE
  5
AD
330
1F
100
AcDbEntity
  8
0
  6
Continuous
 62
     7
370
    15
100
AcDbLine
 10
55.2806352891
 20
151.3111266224
 30
0.0
 11
54.9806354262
 21
151.3111266224
 31
0.0
  0
LWPOLYLINE
  5
AE
330
1F
100
AcDbEntity
  8
0
  6
Continuous
 62
     7
370
    15
100
AcDbPolyline
 90
        9
 70
   128
 43
0.0
 10
55.7244151525
 20
150.612500581
 10
55.7207546823
 20
150.6709071724
 10
55.7172348417
 20
150.7270785897
 10
55.7139910452
 20
150.7788452236
 10
55.7111479036
 20
150.8242162792
 10
55.7088143818
 20
150.8614513008
 10
55.7070806317
 20
150.8891197769
 10
55.7060129635
 20
150.9061547844
 10
55.7056523554
 20
150.9119125931
  0
ARC
  5
AF
330
1F
100
AcDbEntity
  8
0
  6
Continuous
 62
     7
370
    15
100
AcDbCircle
 10
57.9806353591
 20
114.608121547
 30
0.0
 40
36.375
100
AcDbArc
 50
86.4142391406
 51
93.5857608594
  0
ARC
  5
B0
330
1F
100
AcDbEntity
  8
0
  6
Continuous
 62
     7
370
    15
100
AcDbCircle
 10
55.6806353591
 20
151.3111272141
 30
0.0
 40
0.399999999999997
100
AcDbArc
 50
180.0
 51
273.5857608594
  0
LINE
  5
B1
330
1F
100
AcDbEntity
  8
0
  6
Continuous
 62
     7
370
    15
100
AcDbLine
 10
60.9806352921
 20
122.1081214874
 30
0.0
 11
60.6806354292
 21
122.1081214874
 31
0.0
  0
LINE
  5
B2
330
1F
100
AcDbEntity
  8
0
  6
Continuous
 62
     7
370
    15
100
AcDbLine
 10
60.6806354292
 20
122.1081214874
 30
0.0
 11
60.6806354292
 21
127.8211953966
 31
0.0
  0
LINE
  5
B3
330
1F
100
AcDbEntity
  8
0
  6
Continuous
 62
     7
370
    15
100
AcDbLine
 10
60.9806352921
 20
127.8211953966
 30
0.0
 11
60.6806354292
 21
127.8211953966
 31
0.0
  0
CIRCLE
  5
B4
330
1F
100
AcDbEntity
  8
0
  6
Continuous
 62
     7
370
    15
100
AcDbCircle
 10
57.9806353591
 20
88.358121547
 30
0.0
 40
1.0
  0
LINE
  5
B5
330
1F
100
AcDbEntity
  8
0
  6
Continuous
 62
     7
370
    15
100
AcDbLine
 10
59.4806353256
 20
122.1081214874
 30
0.0
 11
59.7806352816
 21
122.1081214874
 31
0.0
  0
ARC
  5
B6
330
1F
100
AcDbEntity
  8
0
  6
Continuous
 62
     7
370
    15
100
AcDbCircle
 10
60.2306353591
 20
122.108121547
 30
0.0
 40
0.4499999999999957
100
AcDbArc
 50
180.0
 51
0.0
  0
LINE
  5
B7
330
1F
100
AcDbEntity
  8
0
  6
Continuous
 62
     7
370
    15
100
AcDbLine
 10
55.2806352891
 20
127.8211953966
 30
0.0
 11
55.2806352891
 21
122.1081214874
 31
0.0
  0
LINE
  5
B8
330
1F
100
AcDbEntity
  8
0
  6
Continuous
 62
     7
370
    15
100
AcDbLine
 10
55.2806352891
 20
122.1081214874
 30
0.0
 11
54.9806354262
 21
122.1081214874
 31
0.0
  0
LINE
  5
B9
330
1F
100
AcDbEntity
  8
0
  6
Continuous
 62
     7
370
    15
100
AcDbLine
 10
55.2806352891
 20
127.8211953966
 30
0.0
 11
54.9806354262
 21
127.8211953966
 31
0.0
  0
LINE
  5
BA
330
1F
100
AcDbEntity
  8
0
  6
Continuous
 62
     7
370
    15
100
AcDbLine
 10
59.4806353256
 20
123.608121547
 30
0.0
 11
59.7806352816
 21
123.608121547
 31
0.0
  0
LINE
  5
BB
330
1F
100
AcDbEntity
  8
0
  6
Continuous
 62
     7
370
    15
100
AcDbLine
 10
59.7806352816
 20
123.608121547
 30
0.0
 11
59.7806352816
 21
122.1081214874
 31
0.0
  0
CIRCLE
  5
BC
330
1F
100
AcDbEntity
  8
0
  6
Continuous
 62
     7
370
    15
100
AcDbCircle
 10
57.9806353591
 20
106.608121547
 30
0.0
 40
0.3174999999999955
  0
LINE
  5
BD
330
1F
100
AcDbEntity
  8
0
  6
Continuous
 62
     7
370
    15
100
AcDbLine
 10
56.4806353926
 20
123.608121547
 30
0.0
 11
56.1806354366
 21
123.608121547
 31
0.0
  0
ARC
  5
BE
330
1F
100
AcDbEntity
  8
0
  6
Continuous
 62
     7
370
    15
100
AcDbCircle
 10
57.9806353591
 20
123.608121547
 30
0.0
 40
1.800000000000004
100
AcDbArc
 50
0.0
 51
180.0
  0
CIRCLE
  5
BF
330
1F
100
AcDbEntity
  8
0
  6
Continuous
 62
     7
370
    15
100
AcDbCircle
 10
57.9806353591
 20
114.608121547
 30
0.0
 40
0.5049999999999955
  0
ARC
  5
C0
330
1F
100
AcDbEntity
  8
0
  6
Continuous
 62
     7
370
    15
100
AcDbCircle
 10
60.2806353591
 20
138.3720779726
 30
0.0
 40
0.4000000000000021
100
AcDbArc
 50
0.0
 51
84.4718333462
  0
LWPOLYLINE
  5
C1
330
1F
100
AcDbEntity
  8
0
  6
Continuous
 62
     7
370
    15
100
AcDbPolyline
 90
        9
 70
   128
 43
0.0
 10
60.3191693939
 20
138.7702169745
 10
60.3197246484
 20
138.7759539215
 10
60.3213693641
 20
138.7929472058
 10
60.3240400247
 20
138.8205411761
 10
60.3276341848
 20
138.85767785
 10
60.3320136361
 20
138.9029267161
 10
60.3370101817
 20
138.9545502989
 10
60.3424317829
 20
139.0105667441
 10
60.3480698235
 20
139.0688213436
  0
ARC
  5
C2
330
1F
100
AcDbEntity
  8
0
  6
Continuous
 62
     7
370
    15
100
AcDbCircle
 10
57.9806353591
 20
114.608121547
 30
0.0
 40
24.275
100
AcDbArc
 50
84.4718333462
 51
95.5281666538
  0
LINE
  5
C3
330
1F
100
AcDbEntity
  8
0
  6
Continuous
 62
     7
370
    15
100
AcDbLine
 10
62.4806355379
 20
171.8881639569
 30
0.0
 11
62.4806355379
 21
81.6280814736
 31
0.0
  0
LINE
  5
C4
330
1F
100
AcDbEntity
  8
0
  6
Continuous
 62
     7
370
    15
100
AcDbLine
 10
62.4806355379
 20
81.6280814736
 30
0.0
 11
62.1806353025
 21
81.6280814736
 31
0.0
  0
LINE
  5
C5
330
1F
100
AcDbEntity
  8
0
  6
Continuous
 62
     7
370
    15
100
AcDbLine
 10
62.4806355379
 20
171.8881639569
 30
0.0
 11
62.1806353025
 21
171.8881639569
 31
0.0
  0
CIRCLE
  5
C6
330
1F
100
AcDbEntity
  8
0
  6
Continuous
 62
     7
370
    15
100
AcDbCircle
 10
57.9806353591
 20
130.608121547
 30
0.0
 40
0.4549999999999983
  0
ARC
  5
C7
330
1F
100
AcDbEntity
  8
0
  6
Continuous
 62
     7
370
    15
100
AcDbCircle
 10
63.2806353591
 20
81.6280817062
 30
0.0
 40
0.8000000000000054
100
AcDbArc
 50
180.0
 51
223.4456175992
  0
LWPOLYLINE
  5
C8
330
1F
100
AcDbEntity
  8
0
  6
Continuous
 62
     7
370
    15
100
AcDbPolyline
 90
        9
 70
   128
 43
0.0
 10
62.6998133652
 20
81.0779484837
 10
62.695628374
 20
81.0739847748
 10
62.6832339607
 20
81.06224564
 10
62.6631062172
 20
81.0431810944
 10
62.6360188864
 20
81.0175257652
 10
62.6030128144
 20
80.986263129
 10
62.565356835
 20
80.9505971997
 10
62.5244974784
 20
80.9118959038
 10
62.4820053272
 20
80.8716493575
  0
CIRCLE
  5
C9
330
1F
100
AcDbEntity
  8
0
  6
Continuous
 62
     7
370
    15
100
AcDbCircle
 10
57.9806353591
 20
140.858121547
 30
0.0
 40
1.0
  0
ARC
  5
CA
330
1F
100
AcDbEntity
  8
0
  6
Continuous
 62
     7
370
    15
100
AcDbCircle
 10
57.9806353591
 20
76.608121547
 30
0.0
 40
6.500000000000001
100
AcDbArc
 50
136.5543824008
 51
43.4456175992
  0
LWPOLYLINE
  5
CB
330
1F
100
AcDbEntity
  8
0
  6
Continuous
 62
     7
370
    15
100
AcDbPolyline
 90
        9
 70
   128
 43
0.0
 10
53.2614573531
 20
81.0779484837
 10
53.2656423442
 20
81.0739847748
 10
53.2780367575
 20
81.06224564
 10
53.298164501
 20
81.0431810944
 10
53.3252518318
 20
81.0175257652
 10
53.3582579039
 20
80.986263129
 10
53.3959138833
 20
80.9505971997
 10
53.4367732398
 20
80.9118959038
 10
53.4792653911
 20
80.8716493575
  0
CIRCLE
  5
CC
330
1F
100
AcDbEntity
  8
0
  6
Continuous
 62
     7
370
    15
100
AcDbCircle
 10
57.9806353591
 20
148.008121547
 30
0.0
 40
0.4549999999999983
  0
ARC
  5
CD
330
1F
100
AcDbEntity
  8
0
  6
Continuous
 62
     7
370
    15
100
AcDbCircle
 10
57.9806353591
 20
114.608121547
 30
0.0
 40
53.81625
100
AcDbArc
 50
87.5321920404
 51
92.4678079596
  0
LWPOLYLINE
  5
CE
330
1F
100
AcDbEntity
  8
0
  6
Continuous
 62
     7
370
    15
100
AcDbPolyline
 90
        9
 70
   128
 43
0.0
 10
55.66341222
 20
168.3744582264
 10
55.6631639294
 20
168.3802219956
 10
55.6624289296
 20
168.3972748844
 10
55.6612351604
 20
168.4249731629
 10
55.6596286289
 20
168.4622499077
 10
55.6576711751
 20
168.507668647
 10
55.6554380499
 20
168.5594829647
 10
55.6530147485
 20
168.6157080261
 10
55.6504947759
 20
168.6741801827
  0
LWPOLYLINE
  5
CF
330
1F
100
AcDbEntity
  8
0
  6
Continuous
 62
     7
370
    15
100
AcDbPolyline
 90
        9
 70
   128
 43
0.0
 10
60.2978584982
 20
168.3744582264
 10
60.2981067888
 20
168.3802219956
 10
60.2988417886
 20
168.3972748844
 10
60.3000355579
 20
168.4249731629
 10
60.3016420893
 20
168.4622499077
 10
60.3035995431
 20
168.507668647
 10
60.3058326684
 20
168.5594829647
 10
60.3082559697
 20
168.6157080261
 10
60.3107759423
 20
168.6741801827
  0
LINE
  5
D0
330
1F
100
AcDbEntity
  8
0
  6
Continuous
 62
     7
370
    15
100
AcDbLine
 10
60.6806354292
 20
165.9683975308
 30
0.0
 11
60.6806354292
 21
167.9748329251
 31
0.0
  0
LINE
  5
D1
330
1F
100
AcDbEntity
  8
0
  6
Continuous
 62
     7
370
    15
100
AcDbLine
 10
60.9806352921
 20
167.9748329251
 30
0.0
 11
60.6806354292
 21
167.9748329251
 31
0.0
  0
ARC
  5
D2
330
1F
100
AcDbEntity
  8
0
  6
Continuous
 62
     7
370
    15
100
AcDbCircle
 10
60.2806353591
 20
95.3834161073
 30
0.0
 40
0.4000000000000057
100
AcDbArc
 50
0.0
 51
96.8223102969
  0
LWPOLYLINE
  5
D3
330
1F
100
AcDbEntity
  8
0
  6
Continuous
 62
     7
370
    15
100
AcDbPolyline
 90
        9
 70
   128
 43
0.0
 10
60.2331190996
 20
95.7805839284
 10
60.2324343912
 20
95.7863074644
 10
60.2304063432
 20
95.8032582803
 10
60.2271131865
 20
95.8307850091
 10
60.2226812087
 20
95.8678296684
 10
60.2172808416
 20
95.9129686384
 10
60.2111197702
 20
95.964467424
 10
60.2044343643
 20
96.0203469648
 10
60.197481855
 20
96.0784596308
  0
LINE
  5
D4
330
1F
100
AcDbEntity
  8
0
  6
Continuous
 62
     7
370
    15
100
AcDbLine
 10
60.9806352921
 20
95.3834160148
 30
0.0
 11
60.6806354292
 21
95.3834160148
 31
0.0
  0
CIRCLE
  5
D5
330
1F
100
AcDbEntity
  8
0
  6
Continuous
 62
     7
370
    15
100
AcDbCircle
 10
57.9806353591
 20
171.408121547
 30
0.0
 40
1.5
  0
ARC
  5
D6
330
1F
100
AcDbEntity
  8
0
  6
Continuous
 62
     7
370
    15
100
AcDbCircle
 10
61.4409884742
 20
175.1092451425
 30
0.0
 40
0.7999999999999854
100
AcDbArc
 50
266.7265424076
 51
332.5321795721
  0
LWPOLYLINE
  5
D7
330
1F
100
AcDbEntity
  8
0
  6
Continuous
 62
     7
370
    15
100
AcDbPolyline
 90
        9
 70
   128
 43
0.0
 10
62.1508046679
 20
174.7402462094
 10
62.1559191189
 20
174.7375878422
 10
62.1710661493
 20
174.7297140686
 10
62.1956642411
 20
174.7169229119
 10
62.2287671707
 20
174.6997150509
 10
62.269103124
 20
174.6787461369
 10
62.3151223801
 20
174.6548208325
 10
62.3650561712
 20
174.6288630097
 10
62.4169856004
 20
174.6018680661
  0
LWPOLYLINE
  5
D8
330
1F
100
AcDbEntity
  8
0
  6
Continuous
 62
     7
370
    15
100
AcDbPolyline
 90
        9
 70
   128
 43
0.0
 10
61.3781768523
 20
174.0110370247
 10
61.3815188102
 20
174.0694734185
 10
61.3847322456
 20
174.1256567566
 10
61.3876938514
 20
174.177441272
 10
61.3902900062
 20
174.2228242485
 10
61.3924201272
 20
174.2600711911
 10
61.3940033756
 20
174.2877515881
 10
61.3949779115
 20
174.304792556
 10
61.3953072272
 20
174.3105503647
  0
ARC
  5
D9
330
1F
100
AcDbEntity
  8
0
  6
Continuous
 62
     7
370
    15
100
AcDbCircle
 10
57.9806353591
 20
176.908121547
 30
0.0
 40
4.699999999999977
100
AcDbArc
 50
332.5321795721
 51
207.4678204279
  0
LWPOLYLINE
  5
DA
330
1F
100
AcDbEntity
  8
0
  6
Continuous
 62
     7
370
    15
100
AcDbPolyline
 90
        9
 70
   128
 43
0.0
 10
53.8104660503
 20
174.7402462094
 10
53.8053515993
 20
174.7375878422
 10
53.7902045689
 20
174.7297140686
 10
53.7656064771
 20
174.7169229119
 10
53.7325035475
 20
174.6997150509
 10
53.6921675943
 20
174.6787461369
 10
53.6461483381
 20
174.6548208325
 10
53.596214547
 20
174.6288630097
 10
53.5442851178
 20
174.6018680661
  0
LWPOLYLINE
  5
DB
330
1F
100
AcDbEntity
  8
0
  6
Continuous
 62
     7
370
    15
100
AcDbPolyline
 90
        9
 70
   128
 43
0.0
 10
54.5830938659
 20
174.0110370247
 10
54.579751908
 20
174.0694734185
 10
54.5765384726
 20
174.1256567566
 10
54.5735768668
 20
174.177441272
 10
54.570980712
 20
174.2228242485
 10
54.568850591
 20
174.2600711911
 10
54.5672673426
 20
174.2877515881
 10
54.5662928067
 20
174.304792556
 10
54.565963491
 20
174.3105503647
  0
ARC
  5
DC
330
1F
100
AcDbEntity
  8
0
  6
Continuous
 62
     7
370
    15
100
AcDbCircle
 10
57.9806353591
 20
114.608121547
 30
0.0
 40
59.8
100
AcDbArc
 50
86.7265424076
 51
93.2734575924
  0
ARC
  5
DD
330
1F
100
AcDbEntity
  8
0
  6
Continuous
 62
     7
370
    15
100
AcDbCircle
 10
54.520282244
 20
175.1092451425
 30
0.0
 40
0.8000000000000138
100
AcDbArc
 50
207.4678204279
 51
273.2734575924
  0
ARC
  5
DE
330
1F
100
AcDbEntity
  8
0
  6
Continuous
 62
     7
370
    15
100
AcDbCircle
 10
60.2806353591
 20
127.8211964335
 30
0.0
 40
0.3999999999999986
100
AcDbArc
 50
0.0
 51
61.3690101631
  0
LWPOLYLINE
  5
DF
330
1F
100
AcDbEntity
  8
0
  6
Continuous
 62
     7
370
    15
100
AcDbPolyline
 90
        9
 70
   128
 43
0.0
 10
60.4723021082
 20
128.1722846358
 10
60.4750642247
 20
128.1773450701
 10
60.4832444034
 20
128.1923296778
 10
60.4965282298
 20
128.216663274
 10
60.5144053392
 20
128.2494100659
 10
60.5361887879
 20
128.2893123953
 10
60.5610413171
 20
128.3348354428
 10
60.5880077623
 20
128.3842327921
 10
60.6160519339
 20
128.4356030552
  0
ARC
  5
E0
330
1F
100
AcDbEntity
  8
0
  6
Continuous
 62
     7
370
    15
100
AcDbCircle
 10
57.9806353591
 20
123.608121547
 30
0.0
 40
5.200000000000008
100
AcDbArc
 50
61.3690101631
 51
118.6309898369
  0
LWPOLYLINE
  5
E1
330
1F
100
AcDbEntity
  8
0
  6
Continuous
 62
     7
370
    15
100
AcDbPolyline
 90
        9
 70
   128
 43
0.0
 10
55.48896861
 20
128.1722846358
 10
55.4862064935
 20
128.1773450701
 10
55.4780263148
 20
128.1923296778
 10
55.4647424884
 20
128.216663274
 10
55.446865379
 20
128.2494100659
 10
55.4250819303
 20
128.2893123953
 10
55.4002294011
 20
128.3348354428
 10
55.373262956
 20
128.3842327921
 10
55.3452187843
 20
128.4356030552
  0
LWPOLYLINE
  5
E2
330
1F
100
AcDbEntity
  8
0
  6
Continuous
 62
     7
370
    15
100
AcDbPolyline
 90
        9
 70
   128
 43
0.0
 10
52.9519684307
 20
78.2821911304
 10
53.0074994705
 20
78.2637047498
 10
53.0608962916
 20
78.2459291546
 10
53.1101070039
 20
78.229546818
 10
53.1532406501
 20
78.215186569
 10
53.1886394761
 20
78.2034027307
 10
53.2149430059
 20
78.1946453182
 10
53.2311409406
 20
78.1892540781
 10
53.2366100393
 20
78.1874331562
  0
ARC
  5
E3
330
1F
100
AcDbEntity
  8
0
  6
Continuous
 62
     7
370
    15
100
AcDbCircle
 10
57.9806353591
 20
76.608121547
 30
0.0
 40
4.999999999999999
100
AcDbArc
 50
161.5871243183
 51
18.4128756817
  0
LWPOLYLINE
  5
E4
330
1F
100
AcDbEntity
  8
0
  6
Continuous
 62
     7
370
    15
100
AcDbPolyline
 90
        9
 70
   128
 43
0.0
 10
63.0093022875
 20
78.2821911304
 10
62.9537712477
 20
78.2637047498
 10
62.9003744267
 20
78.2459291546
 10
62.8511637144
 20
78.229546818
 10
62.8080300681
 20
78.215186569
 10
62.7726312421
 20
78.2034027307
 10
62.7463277124
 20
78.1946453182
 10
62.7301297776
 20
78.1892540781
 10
62.7246606789
 20
78.1874331562
  0
ARC
  5
E5
330
1F
100
AcDbEntity
  8
0
  6
Continuous
 62
     7
370
    15
100
AcDbCircle
 10
55.6806353591
 20
127.8211964335
 30
0.0
 40
0.3999999999999915
100
AcDbArc
 50
118.6309898369
 51
180.0
  0
ARC
  5
E6
330
1F
100
AcDbEntity
  8
0
  6
Continuous
 62
     7
370
    15
100
AcDbCircle
 10
60.2806353591
 20
167.9748318078
 30
0.0
 40
0.4000000000000057
100
AcDbArc
 50
0.0
 51
87.5321920404
  0
CIRCLE
  5
E7
330
1F
100
AcDbEntity
  8
0
  6
Continuous
 62
     7
370
    15
100
AcDbCircle
 10
57.9806353591
 20
123.608121547
 30
0.0
 40
1.0
  0
LINE
  5
E8
330
1F
100
AcDbEntity
  8
0
  6
Continuous
 62
     7
370
    15
100
AcDbLine
 10
55.2806352891
 20
95.3834160148
 30
0.0
 11
55.2806352891
 21
90.8441650598
 31
0.0
  0
LINE
  5
E9
330
1F
100
AcDbEntity
  8
0
  6
Continuous
 62
     7
370
    15
100
AcDbLine
 10
55.2806352891
 20
90.8441650598
 30
0.0
 11
54.9806354262
 21
90.8441650598
 31
0.0
  0
LINE
  5
EA
330
1F
100
AcDbEntity
  8
0
  6
Continuous
 62
     7
370
    15
100
AcDbLine
 10
55.2806352891
 20
95.3834160148
 30
0.0
 11
54.9806354262
 21
95.3834160148
 31
0.0
  0
ARC
  5
EB
330
1F
100
AcDbEntity
  8
0
  6
Continuous
 62
     7
370
    15
100
AcDbCircle
 10
55.7306353591
 20
122.108121547
 30
0.0
 40
0.4499999999999957
100
AcDbArc
 50
180.0
 51
0.0
  0
LINE
  5
EC
330
1F
100
AcDbEntity
  8
0
  6
Continuous
 62
     7
370
    15
100
AcDbLine
 10
56.1806354366
 20
122.1081214874
 30
0.0
 11
56.4806353926
 21
122.1081214874
 31
0.0
  0
ARC
  5
ED
330
1F
100
AcDbEntity
  8
0
  6
Continuous
 62
     7
370
    15
100
AcDbCircle
 10
57.9806353591
 20
114.608121547
 30
0.0
 40
18.9618
100
AcDbArc
 50
263.1776897031
 51
276.8223102969
  0
LWPOLYLINE
  5
EE
330
1F
100
AcDbEntity
  8
0
  6
Continuous
 62
     7
370
    15
100
AcDbPolyline
 90
        9
 70
   128
 43
0.0
 10
55.7281516187
 20
95.7805839284
 10
55.728836327
 20
95.7863074644
 10
55.7308643751
 20
95.8032582803
 10
55.7341575317
 20
95.8307850091
 10
55.7385895096
 20
95.8678296684
 10
55.7439898766
 20
95.9129686384
 10
55.750150948
 20
95.964467424
 10
55.756836354
 20
96.0203469648
 10
55.7637888632
 20
96.0784596308
  0
LINE
  5
EF
330
1F
100
AcDbEntity
  8
0
  6
Continuous
 62
     7
370
    15
100
AcDbLine
 10
56.1806354366
 20
122.1081214874
 30
0.0
 11
56.1806354366
 21
123.608121547
 31
0.0
  0
LWPOLYLINE
  5
F0
330
1F
100
AcDbEntity
  8
0
  6
Continuous
 62
     7
370
    15
100
AcDbPolyline
 90
        9
 70
   128
 43
0.0
 10
62.4820053272
 20
172.6445945828
 10
62.5244974784
 20
172.6043495266
 10
62.565356835
 20
172.5656482308
 10
62.6030128144
 20
172.5299808113
 10
62.6360188864
 20
172.4987181752
 10
62.6631062172
 20
172.473064336
 10
62.6832339607
 20
172.4539968102
 10
62.695628374
 20
172.4422606556
 10
62.6998133652
 20
172.4382969467
  0
ARC
  5
F1
330
1F
100
AcDbEntity
  8
0
  6
Continuous
 62
     7
370
    15
100
AcDbCircle
 10
63.2806353591
 20
171.8881613878
 30
0.0
 40
0.7999999999999972
100
AcDbArc
 50
136.5543824008
 51
180.0
  0
ARC
  5
F2
330
1F
100
AcDbEntity
  8
0
  6
Continuous
 62
     7
370
    15
100
AcDbCircle
 10
52.6806353591
 20
81.6280817062
 30
0.0
 40
0.8000000000000105
100
AcDbArc
 50
316.5543824008
 51
0.0
  0
LINE
  5
F3
330
1F
100
AcDbEntity
  8
0
  6
Continuous
 62
     7
370
    15
100
AcDbLine
 10
53.7806354157
 20
81.6280814736
 30
0.0
 11
53.4806351803
 21
81.6280814736
 31
0.0
  0
LWPOLYLINE
  5
F4
330
1F
100
AcDbEntity
  8
0
  6
Continuous
 62
     7
370
    15
100
AcDbPolyline
 90
        9
 70
   128
 43
0.0
 10
60.3480698235
 20
90.147421035
 10
60.3424317829
 20
90.2056756346
 10
60.3370101817
 20
90.2616920798
 10
60.3320136361
 20
90.3133164077
 10
60.3276341848
 20
90.3585660188
 10
60.3240400247
 20
90.3957012026
 10
60.3213693641
 20
90.423295918
 10
60.3197246484
 20
90.4402877121
 10
60.3191693939
 20
90.4460254042
  0
ARC
  5
F5
330
1F
100
AcDbEntity
  8
0
  6
Continuous
 62
     7
370
    15
100
AcDbCircle
 10
60.2806353591
 20
90.8441651213
 30
0.0
 40
0.4000000000000015
100
AcDbArc
 50
275.5281666538
 51
0.0
  0
LINE
  5
F6
330
1F
100
AcDbEntity
  8
0
  6
Continuous
 62
     7
370
    15
100
AcDbLine
 10
60.9806352921
 20
90.8441650598
 30
0.0
 11
60.6806354292
 21
90.8441650598
 31
0.0
  0
LINE
  5
F7
330
1F
100
AcDbEntity
  8
0
  6
Continuous
 62
     7
370
    15
100
AcDbLine
 10
53.7806354157
 20
171.8881639569
 30
0.0
 11
53.4806351803
 21
171.8881639569
 31
0.0
  0
ARC
  5
F8
330
1F
100
AcDbEntity
  8
0
  6
Continuous
 62
     7
370
    15
100
AcDbCircle
 10
52.6806353591
 20
171.8881613878
 30
0.0
 40
0.8000000000000043
100
AcDbArc
 50
0.0
 51
43.4456175992
  0
LWPOLYLINE
  5
F9
330
1F
100
AcDbEntity
  8
0
  6
Continuous
 62
     7
370
    15
100
AcDbPolyline
 90
        9
 70
   128
 43
0.0
 10
53.4792653911
 20
172.6445945828
 10
53.4367732398
 20
172.6043495266
 10
53.3959138833
 20
172.5656482308
 10
53.3582579039
 20
172.5299808113
 10
53.3252518318
 20
172.4987181752
 10
53.298164501
 20
172.473064336
 10
53.2780367575
 20
172.4539968102
 10
53.2656423442
 20
172.4422606556
 10
53.2614573531
 20
172.4382969467
  0
CIRCLE
  5
FA
330
1F
100
AcDbEntity
  8
0
  6
Continuous
 62
     7
370
    15
100
AcDbCircle
 10
57.9806353591
 20
82.108121547
 30
0.0
 40
1.5
  0
LINE
  5
FB
330
1F
100
AcDbEntity
  8
0
  6
Continuous
 62
     7
370
    15
100
AcDbLine
 10
53.4806351803
 20
81.6280814736
 30
0.0
 11
53.4806351803
 21
171.8881639569
 31
0.0
  0
ARC
  5
FC
330
1F
100
AcDbEntity
  8
0
  6
Continuous
 62
     7
370
    15
100
AcDbCircle
 10
53.995654132
 20
77.9347430527
 30
0.0
 40
0.7999999999999958
100
AcDbArc
 50
83.7984908034
 51
161.5871243183
  0
LWPOLYLINE
  5
FD
330
1F
100
AcDbEntity
  8
0
  6
Continuous
 62
     7
370
    15
100
AcDbPolyline
 90
        9
 70
   128
 43
0.0
 10
54.0820747308
 20
78.7300619213
 10
54.0826972268
 20
78.7357929079
 10
54.0845416181
 20
78.7527638404
 10
54.0875363789
 20
78.7803250282
 10
54.091566398
 20
78.8174155085
 10
54.0964774482
 20
78.8626107304
 10
54.1020802848
 20
78.9141732185
 10
54.1081599585
 20
78.9701211183
 10
54.1144821487
 20
79.0283056824
  0
ARC
  5
FE
330
1F
100
AcDbEntity
  8
0
  6
Continuous
 62
     7
370
    15
100
AcDbCircle
 10
55.6806353591
 20
95.3834161073
 30
0.0
 40
0.40000000000001
100
AcDbArc
 50
83.1776897031
 51
180.0
  0
ARC
  5
FF
330
1F
100
AcDbEntity
  8
0
  6
Continuous
 62
     7
370
    15
100
AcDbCircle
 10
57.9806353591
 20
114.608121547
 30
0.0
 40
36.08925000000001
100
AcDbArc
 50
263.7984908034
 51
276.2015091966
  0
LWPOLYLINE
  5
100
330
1F
100
AcDbEntity
  8
0
  6
Continuous
 62
     7
370
    15
100
AcDbPolyline
 90
        9
 70
   128
 43
0.0
 10
61.8791959874
 20
78.7300619213
 10
61.8785734914
 20
78.7357929079
 10
61.8767291002
 20
78.7527638404
 10
61.8737343393
 20
78.7803250282
 10
61.8697043203
 20
78.8174155085
 10
61.8647932701
 20
78.8626107304
 10
61.8591904335
 20
78.9141732185
 10
61.8531107597
 20
78.9701211183
 10
61.8467885695
 20
79.0283056824
  0
ARC
  5
101
330
1F
100
AcDbEntity
  8
0
  6
Continuous
 62
     7
370
    15
100
AcDbCircle
 10
57.9806353591
 20
176.908121547
 30
0.0
 40
6.500000000000011
100
AcDbArc
 50
316.5543824008
 51
223.4456175992
  0
ARC
  5
102
330
1F
100
AcDbEntity
  8
0
  6
Continuous
 62
     7
370
    15
100
AcDbCircle
 10
55.6806353591
 20
167.9748318078
 30
0.0
 40
0.3999999999999986
100
AcDbArc
 50
92.4678079596
 51
180.0
  0
ARC
  5
103
330
1F
100
AcDbEntity
  8
0
  6
Continuous
 62
     7
370
    15
100
AcDbCircle
 10
61.9656165862
 20
77.9347430527
 30
0.0
 40
0.8000000000000026
100
AcDbArc
 50
18.4128756817
 51
96.2015091966
  0
LINE
  5
104
330
1F
100
AcDbEntity
  8
0
  6
Continuous
 62
     7
370
    15
100
AcDbLine
 10
60.6806354292
 20
90.8441650598
 30
0.0
 11
60.6806354292
 21
95.3834160148
 31
0.0
  0
LWPOLYLINE
  5
105
330
1F
100
AcDbEntity
  8
0
  6
Continuous
 62
     7
370
    15
100
AcDbPolyline
 90
        9
 70
   128
 43
0.0
 10
55.6132008947
 20
90.147421035
 10
55.6188389353
 20
90.2056756346
 10
55.6242605366
 20
90.2616920798
 10
55.6292570822
 20
90.3133164077
 10
55.6336365334
 20
90.3585660188
 10
55.6372306935
 20
90.3957012026
 10
55.6399013541
 20
90.423295918
 10
55.6415460698
 20
90.4402877121
 10
55.6421013243
 20
90.4460254042
  0
ARC
  5
106
330
1F
100
AcDbEntity
  8
0
  6
Continuous
 62
     7
370
    15
100
AcDbCircle
 10
57.9806353591
 20
114.608121547
 30
0.0
 40
24.275
100
AcDbArc
 50
264.4718333462
 51
275.5281666538
  0
ARC
  5
107
330
1F
100
AcDbEntity
  8
0
  6
Continuous
 62
     7
370
    15
100
AcDbCircle
 10
55.6806353591
 20
90.8441651213
 30
0.0
 40
0.4000000000000015
100
AcDbArc
 50
180.0
 51
264.4718333462
  0
ARC
  5
108
330
1F
100
AcDbEntity
  8
0
  6
Continuous
 62
     7
370
    15
100
AcDbCircle
 10
89.0020165746
 20
183.108121547
 30
0.0
 40
0.3000000000000114
100
AcDbArc
 50
90.0
 51
180.0
  0
LINE
  5
109
330
1F
100
AcDbEntity
  8
0
  6
Continuous
 62
     7
370
    15
100
AcDbLine
 10
90.0020166014
 20
183.4081205456
 30
0.0
 11
89.0020165772
 21
183.4081205456
 31
0.0
  0
ARC
  5
10A
330
1F
100
AcDbEntity
  8
0
  6
Continuous
 62
     7
370
    15
100
AcDbCircle
 10
89.0020165746
 20
70.408121547
 30
0.0
 40
0.3000000000000256
100
AcDbArc
 50
180.0
 51
270.0
  0
LINE
  5
10B
330
1F
100
AcDbEntity
  8
0
  6
Continuous
 62
     7
370
    15
100
AcDbLine
 10
89.0020165772
 20
70.1081219046
 30
0.0
 11
90.0020166014
 21
70.1081219046
 31
0.0
  0
ARC
  5
10C
330
1F
100
AcDbEntity
  8
0
  6
Continuous
 62
     7
370
    15
100
AcDbCircle
 10
90.0020165746
 20
183.108121547
 30
0.0
 40
0.3000000000000114
100
AcDbArc
 50
0.0
 51
90.0
  0
ARC
  5
10D
330
1F
100
AcDbEntity
  8
0
  6
Continuous
 62
     7
370
    15
100
AcDbCircle
 10
90.0020165746
 20
70.408121547
 30
0.0
 40
0.3000000000000256
100
AcDbArc
 50
270.0
 51
0.0
  0
ARC
  5
10E
330
1F
100
AcDbEntity
  8
0
  6
Continuous
 62
     7
370
    15
100
AcDbCircle
 10
88.9624775848
 20
172.7020792242
 30
0.0
 40
0.2667291169480127
100
AcDbArc
 50
192.4458564318
 51
278.5247433247
  0
LINE
  5
10F
330
1F
100
AcDbEntity
  8
0
  6
Continuous
 62
     7
370
    15
100
AcDbLine
 10
88.7020165746
 20
172.6445945828
 30
0.0
 11
88.7020165746
 21
183.108124408
 31
0.0
  0
LINE
  5
110
330
1F
100
AcDbEntity
  8
0
  6
Continuous
 62
     7
370
    15
100
AcDbLine
 10
90.0020166014
 20
172.4382969467
 30
0.0
 11
89.0020165772
 21
172.4382969467
 31
0.0
  0
LINE
  5
111
330
1F
100
AcDbEntity
  8
0
  6
Continuous
 62
     7
370
    15
100
AcDbLine
 10
88.7020165746
 20
70.4081210224
 30
0.0
 11
88.7020165746
 21
80.8716493575
 31
0.0
  0
ARC
  5
112
330
1F
100
AcDbEntity
  8
0
  6
Continuous
 62
     7
370
    15
100
AcDbCircle
 10
88.9624812216
 20
80.8141613328
 30
0.0
 40
0.2667333974873798
100
AcDbArc
 50
81.4761844349
 51
167.553602251
  0
LINE
  5
113
330
1F
100
AcDbEntity
  8
0
  6
Continuous
 62
     7
370
    15
100
AcDbLine
 10
90.0020166014
 20
81.0779484837
 30
0.0
 11
89.0020165772
 21
81.0779484837
 31
0.0
  0
LINE
  5
114
330
1F
100
AcDbEntity
  8
0
  6
Continuous
 62
     7
370
    15
100
AcDbLine
 10
90.3020166506
 20
183.108124408
 30
0.0
 11
90.3020166506
 21
172.6445945828
 31
0.0
  0
ARC
  5
115
330
1F
100
AcDbEntity
  8
0
  6
Continuous
 62
     7
370
    15
100
AcDbCircle
 10
90.0415554964
 20
172.7020794247
 30
0.0
 40
0.2667293007604639
100
AcDbArc
 50
261.4752837554
 51
347.5541081837
  0
ARC
  5
116
330
1F
100
AcDbEntity
  8
0
  6
Continuous
 62
     7
370
    15
100
AcDbCircle
 10
90.0415518596
 20
80.8141611323
 30
0.0
 40
0.2667335813059186
100
AcDbArc
 50
12.4464331334
 51
98.5237884852
  0
LINE
  5
117
330
1F
100
AcDbEntity
  8
0
  6
Continuous
 62
     7
370
    15
100
AcDbLine
 10
90.3020166506
 20
80.8716493575
 30
0.0
 11
90.3020166506
 21
70.4081210224
 31
0.0
  0
LINE
  5
118
330
1F
100
AcDbEntity
  8
0
  6
Continuous
 62
     7
370
    15
100
AcDbLine
 10
89.0020165772
 20
172.4382969467
 30
0.0
 11
89.0020165772
 21
171.8881639569
 31
0.0
  0
LINE
  5
119
330
1F
100
AcDbEntity
  8
0
  6
Continuous
 62
     7
370
    15
100
AcDbLine
 10
89.0020165772
 20
171.8881639569
 30
0.0
 11
88.7020165746
 21
171.8881639569
 31
0.0
  0
LINE
  5
11A
330
1F
100
AcDbEntity
  8
0
  6
Continuous
 62
     7
370
    15
100
AcDbLine
 10
88.7020165746
 20
171.8881639569
 30
0.0
 11
88.7020165746
 21
172.6445945828
 31
0.0
  0
LINE
  5
11B
330
1F
100
AcDbEntity
  8
0
  6
Continuous
 62
     7
370
    15
100
AcDbLine
 10
90.0020166014
 20
171.8881639569
 30
0.0
 11
90.0020166014
 21
172.4382969467
 31
0.0
  0
LINE
  5
11C
330
1F
100
AcDbEntity
  8
0
  6
Continuous
 62
     7
370
    15
100
AcDbLine
 10
90.0020166014
 20
171.8881639569
 30
0.0
 11
89.0020165772
 21
171.8881639569
 31
0.0
  0
LINE
  5
11D
330
1F
100
AcDbEntity
  8
0
  6
Continuous
 62
     7
370
    15
100
AcDbLine
 10
90.3020166506
 20
171.8881639569
 30
0.0
 11
90.0020166014
 21
171.8881639569
 31
0.0
  0
LINE
  5
11E
330
1F
100
AcDbEntity
  8
0
  6
Continuous
 62
     7
370
    15
100
AcDbLine
 10
90.3020166506
 20
172.6445945828
 30
0.0
 11
90.3020166506
 21
171.8881639569
 31
0.0
  0
LINE
  5
11F
330
1F
100
AcDbEntity
  8
0
  6
Continuous
 62
     7
370
    15
100
AcDbLine
 10
89.0020165772
 20
81.6280814736
 30
0.0
 11
89.0020165772
 21
81.0779484837
 31
0.0
  0
LINE
  5
120
330
1F
100
AcDbEntity
  8
0
  6
Continuous
 62
     7
370
    15
100
AcDbLine
 10
89.0020165772
 20
81.6280814736
 30
0.0
 11
88.7020165746
 21
81.6280814736
 31
0.0
  0
LINE
  5
121
330
1F
100
AcDbEntity
  8
0
  6
Continuous
 62
     7
370
    15
100
AcDbLine
 10
88.7020165746
 20
80.8716493575
 30
0.0
 11
88.7020165746
 21
81.6280814736
 31
0.0
  0
LINE
  5
122
330
1F
100
AcDbEntity
  8
0
  6
Continuous
 62
     7
370
    15
100
AcDbLine
 10
90.0020166014
 20
81.6280814736
 30
0.0
 11
89.0020165772
 21
81.6280814736
 31
0.0
  0
LINE
  5
123
330
1F
100
AcDbEntity
  8
0
  6
Continuous
 62
     7
370
    15
100
AcDbLine
 10
90.0020166014
 20
81.0779484837
 30
0.0
 11
90.0020166014
 21
81.6280814736
 31
0.0
  0
LINE
  5
124
330
1F
100
AcDbEntity
  8
0
  6
Continuous
 62
     7
370
    15
100
AcDbLine
 10
90.3020166506
 20
81.6280814736
 30
0.0
 11
90.0020166014
 21
81.6280814736
 31
0.0
  0
LINE
  5
125
330
1F
100
AcDbEntity
  8
0
  6
Continuous
 62
     7
370
    15
100
AcDbLine
 10
90.3020166506
 20
81.6280814736
 30
0.0
 11
90.3020166506
 21
80.8716493575
 31
0.0
  0
LINE
  5
126
330
1F
100
AcDbEntity
  8
0
  6
Continuous
 62
     7
370
    15
100
AcDbLine
 10
89.0020165772
 20
171.8881639569
 30
0.0
 11
89.0020165772
 21
81.6280814736
 31
0.0
  0
LINE
  5
127
330
1F
100
AcDbEntity
  8
0
  6
Continuous
 62
     7
370
    15
100
AcDbLine
 10
88.7020165746
 20
81.6280814736
 30
0.0
 11
88.7020165746
 21
171.8881639569
 31
0.0
  0
LINE
  5
128
330
1F
100
AcDbEntity
  8
0
  6
Continuous
 62
     7
370
    15
100
AcDbLine
 10
90.0020166014
 20
81.6280814736
 30
0.0
 11
90.0020166014
 21
171.8881639569
 31
0.0
  0
LINE
  5
129
330
1F
100
AcDbEntity
  8
0
  6
Continuous
 62
     7
370
    15
100
AcDbLine
 10
90.3020166506
 20
171.8881639569
 30
0.0
 11
90.3020166506
 21
81.6280814736
 31
0.0
  0
LINE
  5
12A
330
1F
100
AcDbEntity
  8
0
  6
Continuous
 62
     8
370
    15
100
AcDbLine
 10
89.0020165772
 20
183.4081205456
 30
0.0
 11
89.0020165772
 21
172.4382969467
 31
0.0
  0
LINE
  5
12B
330
1F
100
AcDbEntity
  8
0
  6
Continuous
 62
     8
370
    15
100
AcDbLine
 10
90.0020166014
 20
172.4382969467
 30
0.0
 11
90.0020166014
 21
183.4081205456
 31
0.0
  0
LINE
  5
12C
330
1F
100
AcDbEntity
  8
0
  6
Continuous
 62
     8
370
    15
100
AcDbLine
 10
89.0020165772
 20
81.0779484837
 30
0.0
 11
89.0020165772
 21
70.1081219046
 31
0.0
  0
LINE
  5
12D
330
1F
100
AcDbEntity
  8
0
  6
Continuous
 62
     8
370
    15
100
AcDbLine
 10
90.0020166014
 20
70.1081219046
 30
0.0
 11
90.0020166014
 21
81.0779484837
 31
0.0
  0
ENDSEC
  0
SECTION
  2
OBJECTS
  0
DICTIONARY
  5
C
330
0
100
AcDbDictionary
281
     1
  3
ACAD_GROUP
350
D
  3
ACAD_LAYOUT
350
1A
  3
ACAD_MLINESTYLE
350
17
  3
ACAD_PLOTSETTINGS
350
19
  3
ACAD_PLOTSTYLENAME
350
E
  0
DICTIONARY
  5
D
102
{ACAD_REACTORS
330
C
102
}
330
C
100
AcDbDictionary
281
     1
  0
DICTIONARY
  5
1A
102
{ACAD_REACTORS
330
C
102
}
330
C
100
AcDbDictionary
281
     1
  3
Layout1
350
1E
  3
Layout2
350
26
  3
Model
350
22
  0
DICTIONARY
  5
17
102
{ACAD_REACTORS
330
C
102
}
330
C
100
AcDbDictionary
281
     1
  3
Standard
350
18
  0
DICTIONARY
  5
19
102
{ACAD_REACTORS
330
C
102
}
330
C
100
AcDbDictionary
281
     1
  0
ACDBDICTIONARYWDFLT
  5
E
102
{ACAD_REACTORS
330
C
102
}
330
C
100
AcDbDictionary
281
     1
  3
Normal
350
F
100
AcDbDictionaryWithDefault
340
F
  0
LAYOUT
  5
1E
102
{ACAD_REACTORS
330
1A
102
}
330
1A
100
AcDbPlotSettings
  1

  2
none_device
  4

  6

 40
0.0
 41
0.0
 42
0.0
 43
0.0
 44
0.0
 45
0.0
 46
0.0
 47
0.0
 48
0.0
 49
0.0
140
0.0
141
0.0
142
1.0
143
1.0
 70
   688
 72
     0
 73
     0
 74
     5
  7

 75
    16
147
1.0
148
0.0
149
0.0
100
AcDbLayout
  1
Layout1
 70
     1
 71
     1
 10
0.0
 20
0.0
 11
420.0
 21
297.0
 12
0.0
 22
0.0
 32
0.0
 14
1.0000000000E+20
 24
1.0000000000E+20
 34
1.0000000000E+20
 15
-1.0000000000E+20
 25
-1.0000000000E+20
 35
-1.0000000000E+20
146
0.0
 13
0.0
 23
0.0
 33
0.0
 16
1.0
 26
0.0
 36
0.0
 17
0.0
 27
1.0
 37
0.0
 76
     0
330
1B
  0
LAYOUT
  5
26
102
{ACAD_REACTORS
330
1A
102
}
330
1A
100
AcDbPlotSettings
  1

  2
none_device
  4

  6

 40
0.0
 41
0.0
 42
0.0
 43
0.0
 44
0.0
 45
0.0
 46
0.0
 47
0.0
 48
0.0
 49
0.0
140
0.0
141
0.0
142
1.0
143
1.0
 70
   688
 72
     0
 73
     0
 74
     5
  7

 75
    16
147
1.0
148
0.0
149
0.0
100
AcDbLayout
  1
Layout2
 70
     1
 71
     2
 10
0.0
 20
0.0
 11
0.0
 21
0.0
 12
0.0
 22
0.0
 32
0.0
 14
0.0
 24
0.0
 34
0.0
 15
0.0
 25
0.0
 35
0.0
146
0.0
 13
0.0
 23
0.0
 33
0.0
 16
1.0
 26
0.0
 36
0.0
 17
0.0
 27
1.0
 37
0.0
 76
     0
330
23
  0
LAYOUT
  5
22
102
{ACAD_REACTORS
330
1A
102
}
330
1A
100
AcDbPlotSettings
  1

  2
none_device
  4

  6

 40
0.0
 41
0.0
 42
0.0
 43
0.0
 44
0.0
 45
0.0
 46
0.0
 47
0.0
 48
0.0
 49
0.0
140
0.0
141
0.0
142
1.0
143
1.0
 70
  1712
 72
     0
 73
     0
 74
     0
  7

 75
     0
147
1.0
148
0.0
149
0.0
100
AcDbLayout
  1
Model
 70
     1
 71
     0
 10
0.0
 20
0.0
 11
297.0
 21
210.0
 12
0.0
 22
0.0
 32
0.0
 14
0.0
 24
0.0
 34
0.0
 15
297.0
 25
210.0
 35
0.0
146
0.0
 13
0.0
 23
0.0
 33
0.0
 16
1.0
 26
0.0
 36
0.0
 17
0.0
 27
1.0
 37
0.0
 76
     0
330
1F
331
29
  0
MLINESTYLE
  5
18
102
{ACAD_REACTORS
330
17
102
}
330
17
100
AcDbMlineStyle
  2
Standard
 70
     0
  3

 62
   256
 51
90.0
 52
90.0
 71
     2
 49
0.5
 62
   256
  6
BYLAYER
 49
-0.5
 62
   256
  6
BYLAYER
  0
ACDBPLACEHOLDER
  5
F
102
{ACAD_REACTORS
330
E
102
}
330
E
  0
ENDSEC
  0
EOF
