  0
SECTION
  2
HEADER
  9
$ACADVER
  1
AC1015
  9
$ACADMAINTVER
 70
     6
  9
$DWGCODEPAGE
  3
ANSI_1251
  9
$INSBASE
 10
0.0
 20
0.0
 30
0.0
  9
$EXTMIN
 10
0.0
 20
0.0
 30
0.0
  9
$EXTMAX
 10
279.4
 20
215.9
 30
0.0
  9
$LIMMIN
 10
0.0
 20
0.0
  9
$LIMMAX
 10
279.4
 20
215.9
  9
$ORTHOMODE
 70
     0
  9
$REGENMODE
 70
     1
  9
$FILLMODE
 70
     1
  9
$QTEXTMODE
 70
     0
  9
$MIRRTEXT
 70
     1
  9
$LTSCALE
 40
1.0
  9
$ATTMODE
 70
     1
  9
$TEXTSIZE
 40
3.5
  9
$TRACEWID
 40
1.0
  9
$TEXTSTYLE
  7
Standard
  9
$CLAYER
  8
0
  9
$CELTYPE
  6
ByLayer
  9
$CECOLOR
 62
   256
  9
$CELTSCALE
 40
1.0
  9
$DISPSILH
 70
     0
  9
$DIMSCALE
 40
1.0
  9
$DIMASZ
 40
3.5
  9
$DIMEXO
 40
0.01
  9
$DIMDLI
 40
3.75
  9
$DIMRND
 40
0.0
  9
$DIMDLE
 40
0.0
  9
$DIMEXE
 40
1.0
  9
$DIMTP
 40
0.0
  9
$DIMTM
 40
0.0
  9
$DIMTXT
 40
3.5
  9
$DIMCEN
 40
2.5
  9
$DIMTSZ
 40
0.0
  9
$DIMTOL
 70
     0
  9
$DIMLIM
 70
     0
  9
$DIMTIH
 70
     1
  9
$DIMTOH
 70
     1
  9
$DIMSE1
 70
     0
  9
$DIMSE2
 70
     0
  9
$DIMTAD
 70
     1
  9
$DIMZIN
 70
     0
  9
$DIMBLK
  1

  9
$DIMASO
 70
     1
  9
$DIMSHO
 70
     1
  9
$DIMPOST
  1

  9
$DIMAPOST
  1

  9
$DIMALT
 70
     0
  9
$DIMALTD
 70
     3
  9
$DIMALTF
 40
0.0393700787
  9
$DIMLFAC
 40
1.0
  9
$DIMTOFL
 70
     1
  9
$DIMTVP
 40
0.0
  9
$DIMTIX
 70
     0
  9
$DIMSOXD
 70
     0
  9
$DIMSAH
 70
     0
  9
$DIMBLK1
  1

  9
$DIMBLK2
  1

  9
$DIMSTYLE
  2
ISO-25
  9
$DIMCLRD
 70
     0
  9
$DIMCLRE
 70
     0
  9
$DIMCLRT
 70
     0
  9
$DIMTFAC
 40
1.0
  9
$DIMGAP
 40
3.0
  9
$DIMJUST
 70
     0
  9
$DIMSD1
 70
     0
  9
$DIMSD2
 70
     0
  9
$DIMTOLJ
 70
     0
  9
$DIMTZIN
 70
     0
  9
$DIMALTZ
 70
     0
  9
$DIMALTTZ
 70
     0
  9
$DIMUPT
 70
     0
  9
$DIMDEC
 70
     2
  9
$DIMTDEC
 70
     3
  9
$DIMALTU
 70
     2
  9
$DIMALTTD
 70
     3
  9
$DIMTXSTY
  7
Standard
  9
$DIMAUNIT
 70
     0
  9
$DIMADEC
 70
     2
  9
$DIMALTRND
 40
0.0
  9
$DIMAZIN
 70
     0
  9
$DIMDSEP
 70
    44
  9
$DIMATFIT
 70
     3
  9
$DIMFRAC
 70
     0
  9
$DIMLDRBLK
  1

  9
$DIMLUNIT
 70
     2
  9
$DIMLWD
 70
    -2
  9
$DIMLWE
 70
    -2
  9
$DIMTMOVE
 70
     0
  9
$LUNITS
 70
     2
  9
$LUPREC
 70
     2
  9
$SKETCHINC
 40
1.0
  9
$FILLETRAD
 40
10.0
  9
$AUNITS
 70
     0
  9
$AUPREC
 70
     2
  9
$MENU
  1
.
  9
$ELEVATION
 40
0.0
  9
$PELEVATION
 40
0.0
  9
$THICKNESS
 40
0.0
  9
$LIMCHECK
 70
     0
  9
$CHAMFERA
 40
10.0
  9
$CHAMFERB
 40
10.0
  9
$CHAMFERC
 40
20.0
  9
$CHAMFERD
 40
0.0
  9
$SKPOLY
 70
     0
  9
$TDCREATE
 40
2457408.668596458
  9
$TDUCREATE
 40
2457408.585263125
  9
$TDUPDATE
 40
2457408.66859772
  9
$TDUUPDATE
 40
2457408.585264387
  9
$TDINDWG
 40
0.0000000116
  9
$TDUSRTIMER
 40
0.0000000116
  9
$USRTIMER
 70
     1
  9
$ANGBASE
 50
0.0
  9
$ANGDIR
 70
     0
  9
$PDMODE
 70
     0
  9
$PDSIZE
 40
-1.0
  9
$PLINEWID
 40
0.0
  9
$SPLFRAME
 70
     0
  9
$SPLINETYPE
 70
     6
  9
$SPLINESEGS
 70
     8
  9
$HANDSEED
  5
385
  9
$SURFTAB1
 70
     6
  9
$SURFTAB2
 70
     6
  9
$SURFTYPE
 70
     6
  9
$SURFU
 70
     6
  9
$SURFV
 70
     6
  9
$UCSBASE
  2

  9
$UCSNAME
  2

  9
$UCSORG
 10
0.0
 20
0.0
 30
0.0
  9
$UCSXDIR
 10
1.0
 20
0.0
 30
0.0
  9
$UCSYDIR
 10
0.0
 20
1.0
 30
0.0
  9
$UCSORTHOREF
  2

  9
$UCSORTHOVIEW
 70
     0
  9
$UCSORGTOP
 10
0.0
 20
0.0
 30
0.0
  9
$UCSORGBOTTOM
 10
0.0
 20
0.0
 30
0.0
  9
$UCSORGLEFT
 10
0.0
 20
0.0
 30
0.0
  9
$UCSORGRIGHT
 10
0.0
 20
0.0
 30
0.0
  9
$UCSORGFRONT
 10
0.0
 20
0.0
 30
0.0
  9
$UCSORGBACK
 10
0.0
 20
0.0
 30
0.0
  9
$PUCSBASE
  2

  9
$PUCSNAME
  2

  9
$PUCSORG
 10
0.0
 20
0.0
 30
0.0
  9
$PUCSXDIR
 10
1.0
 20
0.0
 30
0.0
  9
$PUCSYDIR
 10
0.0
 20
1.0
 30
0.0
  9
$PUCSORTHOREF
  2

  9
$PUCSORTHOVIEW
 70
     0
  9
$PUCSORGTOP
 10
0.0
 20
0.0
 30
0.0
  9
$PUCSORGBOTTOM
 10
0.0
 20
0.0
 30
0.0
  9
$PUCSORGLEFT
 10
0.0
 20
0.0
 30
0.0
  9
$PUCSORGRIGHT
 10
0.0
 20
0.0
 30
0.0
  9
$PUCSORGFRONT
 10
0.0
 20
0.0
 30
0.0
  9
$PUCSORGBACK
 10
0.0
 20
0.0
 30
0.0
  9
$USERI1
 70
     0
  9
$USERI2
 70
     0
  9
$USERI3
 70
     0
  9
$USERI4
 70
     0
  9
$USERI5
 70
     0
  9
$USERR1
 40
0.0
  9
$USERR2
 40
0.0
  9
$USERR3
 40
0.0
  9
$USERR4
 40
0.0
  9
$USERR5
 40
0.0
  9
$WORLDVIEW
 70
     1
  9
$SHADEDGE
 70
     3
  9
$SHADEDIF
 70
    70
  9
$TILEMODE
 70
     1
  9
$MAXACTVP
 70
    64
  9
$PINSBASE
 10
0.0
 20
0.0
 30
0.0
  9
$PLIMCHECK
 70
     0
  9
$PEXTMIN
 10
1.0000000000E+20
 20
1.0000000000E+20
 30
1.0000000000E+20
  9
$PEXTMAX
 10
-1.0000000000E+20
 20
-1.0000000000E+20
 30
-1.0000000000E+20
  9
$PLIMMIN
 10
0.0
 20
0.0
  9
$PLIMMAX
 10
420.0
 20
297.0
  9
$UNITMODE
 70
     0
  9
$VISRETAIN
 70
     1
  9
$PLINEGEN
 70
     0
  9
$PSLTSCALE
 70
     1
  9
$TREEDEPTH
 70
  3020
  9
$CMLSTYLE
  2
Standard
  9
$CMLJUST
 70
     0
  9
$CMLSCALE
 40
20.0
  9
$PROXYGRAPHICS
 70
     1
  9
$MEASUREMENT
 70
     1
  9
$CELWEIGHT
370
    -1
  9
$ENDCAPS
280
     0
  9
$JOINSTYLE
280
     0
  9
$LWDISPLAY
290
     1
  9
$INSUNITS
 70
     4
  9
$HYPERLINKBASE
  1

  9
$STYLESHEET
  1

  9
$XEDIT
290
     1
  9
$CEPSNTYPE
380
     0
  9
$PSTYLEMODE
290
     1
  9
$FINGERPRINTGUID
  2
{33EAA258-DEDA-449F-AE8B-84D192ABF539}
  9
$VERSIONGUID
  2
{FAEB1C32-E019-11D5-929B-00C0DF256EC4}
  9
$EXTNAMES
290
     1
  9
$PSVPSCALE
 40
0.0
  9
$OLESTARTUP
290
     0
  0
ENDSEC
  0
SECTION
  2
CLASSES
  0
CLASS
  1
ACDBDICTIONARYWDFLT
  2
AcDbDictionaryWithDefault
  3
ObjectDBX Classes
 90
        0
280
     0
281
     0
  0
CLASS
  1
VISUALSTYLE
  2
AcDbVisualStyle
  3
ObjectDBX Classes
 90
     4095
280
     0
281
     0
  0
CLASS
  1
MATERIAL
  2
AcDbMaterial
  3
ObjectDBX Classes
 90
     1153
280
     0
281
     0
  0
CLASS
  1
ACDBPLACEHOLDER
  2
AcDbPlaceHolder
  3
ObjectDBX Classes
 90
        0
280
     0
281
     0
  0
CLASS
  1
LAYOUT
  2
AcDbLayout
  3
ObjectDBX Classes
 90
        0
280
     0
281
     0
  0
ENDSEC
  0
SECTION
  2
TABLES
  0
TABLE
  2
VPORT
  5
8
330
0
100
AcDbSymbolTable
 70
     1
  0
VPORT
  5
29
330
8
100
AcDbSymbolTableRecord
100
AcDbViewportTableRecord
  2
*Active
 70
     0
 10
0.0
 20
0.0
 11
1.0
 21
1.0
 12
139.7
 22
107.95
 13
0.0
 23
0.0
 14
10.0
 24
10.0
 15
10.0
 25
10.0
 16
0.0
 26
0.0
 36
1.0
 17
0.0
 27
0.0
 37
0.0
 40
215.9
 41
1.2941176471
 42
50.0
 43
0.0
 44
0.0
 50
0.0
 51
0.0
 71
     0
 72
  2000
 73
     1
 74
     3
 75
     0
 76
     0
 77
     0
 78
     0
281
     0
 65
     1
110
0.0
120
0.0
130
0.0
111
1.0
121
0.0
131
0.0
112
0.0
122
1.0
132
0.0
 79
     0
146
0.0
  0
ENDTAB
  0
TABLE
  2
LTYPE
  5
5
330
0
100
AcDbSymbolTable
 70
     6
  0
LTYPE
  5
14
330
5
100
AcDbSymbolTableRecord
100
AcDbLinetypeTableRecord
  2
ByBlock
 70
     0
  3

 72
    65
 73
     0
 40
0.0
  0
LTYPE
  5
15
330
5
100
AcDbSymbolTableRecord
100
AcDbLinetypeTableRecord
  2
ByLayer
 70
     0
  3

 72
    65
 73
     0
 40
0.0
  0
LTYPE
  5
16
330
5
100
AcDbSymbolTableRecord
100
AcDbLinetypeTableRecord
  2
Continuous
 70
     0
  3
Solid line
 72
    65
 73
     0
 40
0.0
  0
LTYPE
  5
3F
330
5
100
AcDbSymbolTableRecord
100
AcDbLinetypeTableRecord
  2
HIDDEN
 70
     0
  3
Hidden __ __ __ __ __ __ __ __ __ __ __ __ __ __
 72
    65
 73
     2
 40
1.905
 49
1.27
 74
     0
 49
-0.635
 74
     0
  0
LTYPE
  5
40
330
5
100
AcDbSymbolTableRecord
100
AcDbLinetypeTableRecord
  2
PHANTOM
 70
     0
  3
Phantom ______  __  __  ______  __  __  ______
 72
    65
 73
     6
 40
12.7
 49
6.35
 74
     0
 49
-1.27
 74
     0
 49
1.27
 74
     0
 49
-1.27
 74
     0
 49
1.27
 74
     0
 49
-1.27
 74
     0
  0
LTYPE
  5
41
330
5
100
AcDbSymbolTableRecord
100
AcDbLinetypeTableRecord
  2
CENTER
 70
     0
  3
Center ____ _ ____ _ ____ _ ____ _ ____ _ ____
 72
    65
 73
     4
 40
10.16
 49
6.35
 74
     0
 49
-1.27
 74
     0
 49
1.27
 74
     0
 49
-1.27
 74
     0
  0
LTYPE
  5
42
330
5
100
AcDbSymbolTableRecord
100
AcDbLinetypeTableRecord
  2
CENTERX2
 70
     0
  3
Center (2x) ________  __  ________  __  _____
 72
    65
 73
     4
 40
20.32
 49
12.7
 74
     0
 49
-2.54
 74
     0
 49
2.54
 74
     0
 49
-2.54
 74
     0
  0
LTYPE
  5
43
330
5
100
AcDbSymbolTableRecord
100
AcDbLinetypeTableRecord
  2
DOT2
 70
     0
  3
Dot (.5x) ........................................
 72
    65
 73
     2
 40
0.635
 49
0.0
 74
     0
 49
-0.635
 74
     0
  0
ENDTAB
  0
TABLE
  2
LAYER
  5
2
330
0
100
AcDbSymbolTable
 70
     1
  0
LAYER
  5
10
330
2
100
AcDbSymbolTableRecord
100
AcDbLayerTableRecord
  2
0
 70
     0
 62
     7
  6
Continuous
370
    -3
390
F
  0
ENDTAB
  0
TABLE
  2
STYLE
  5
3
330
0
100
AcDbSymbolTable
 70
     1
  0
STYLE
  5
11
330
3
100
AcDbSymbolTableRecord
100
AcDbTextStyleTableRecord
  2
Standard
 70
     0
 40
0.0
 41
1.0
 50
0.0
 71
     0
 42
3.5
  3
txt
  4

  0
ENDTAB
  0
TABLE
  2
VIEW
  5
6
330
0
100
AcDbSymbolTable
 70
     0
  0
ENDTAB
  0
TABLE
  2
UCS
  5
7
330
0
100
AcDbSymbolTable
 70
     0
  0
ENDTAB
  0
TABLE
  2
APPID
  5
9
330
0
100
AcDbSymbolTable
 70
     1
  0
APPID
  5
12
330
9
100
AcDbSymbolTableRecord
100
AcDbRegAppTableRecord
  2
ACAD
 70
     0
  0
ENDTAB
  0
TABLE
  2
DIMSTYLE
  5
A
330
0
100
AcDbSymbolTable
 70
     1
100
AcDbDimStyleTable
  0
DIMSTYLE
105
27
330
A
100
AcDbSymbolTableRecord
100
AcDbDimStyleTableRecord
  2
ISO-25
 70
     0
 41
2.5
 42
0.625
 43
3.75
 44
1.25
 73
     0
 74
     0
 77
     1
 78
     8
140
2.5
141
2.5
143
0.0393700787
147
0.625
171
     3
172
     1
178
     0
271
     2
272
     2
274
     3
278
    44
283
     0
284
     8
340
11
  0
ENDTAB
  0
TABLE
  2
BLOCK_RECORD
  5
1
330
0
100
AcDbSymbolTable
 70
     1
  0
BLOCK_RECORD
  5
1F
330
1
100
AcDbSymbolTableRecord
100
AcDbBlockTableRecord
  2
*Model_Space
340
22
  0
BLOCK_RECORD
  5
1B
330
1
100
AcDbSymbolTableRecord
100
AcDbBlockTableRecord
  2
*Paper_Space
340
1E
  0
BLOCK_RECORD
  5
23
330
1
100
AcDbSymbolTableRecord
100
AcDbBlockTableRecord
  2
*Paper_Space0
340
26
  0
ENDTAB
  0
ENDSEC
  0
SECTION
  2
BLOCKS
  0
BLOCK
  5
20
330
1F
100
AcDbEntity
  8
0
100
AcDbBlockBegin
  2
*Model_Space
 70
     0
 10
0.0
 20
0.0
 30
0.0
  3
*Model_Space
  1

  0
ENDBLK
  5
21
330
1F
100
AcDbEntity
  8
0
100
AcDbBlockEnd
  0
BLOCK
  5
1C
330
1B
100
AcDbEntity
 67
     1
  8
0
100
AcDbBlockBegin
  2
*Paper_Space
 70
     0
 10
0.0
 20
0.0
 30
0.0
  3
*Paper_Space
  1

  0
ENDBLK
  5
1D
330
1B
100
AcDbEntity
 67
     1
  8
0
100
AcDbBlockEnd
  0
BLOCK
  5
24
330
23
100
AcDbEntity
  8
0
100
AcDbBlockBegin
  2
*Paper_Space0
 70
     0
 10
0.0
 20
0.0
 30
0.0
  3
*Paper_Space0
  1

  0
ENDBLK
  5
25
330
23
100
AcDbEntity
  8
0
100
AcDbBlockEnd
  0
ENDSEC
  0
SECTION
  2
ENTITIES
  0
LINE
  5
44
330
1F
100
AcDbEntity
  8
0
  6
Continuous
 62
     7
370
    15
100
AcDbLine
 10
90.0875275877
 20
170.2450924309
 30
0.0
 11
88.8124519882
 21
167.3812270852
 31
0.0
  0
ARC
  5
45
330
1F
100
AcDbEntity
  8
0
  6
Continuous
 62
     7
370
    15
100
AcDbCircle
 10
100.8216863861
 20
165.4659383987
 30
0.0
 40
11.75
100
AcDbArc
 50
115.6237757499
 51
156.0
  0
ARC
  5
46
330
1F
100
AcDbEntity
  8
0
  6
Continuous
 62
     7
370
    15
100
AcDbCircle
 10
76.0631767956
 20
129.2803027423
 30
0.0
 40
50.75000000000001
100
AcDbArc
 50
64.8130914957
 51
67.1869085043
  0
ARC
  5
47
330
1F
100
AcDbEntity
  8
0
  6
Continuous
 62
     7
370
    15
100
AcDbCircle
 10
86.3876681554
 20
171.8923773592
 30
0.0
 40
11.75000000000002
100
AcDbArc
 50
336.0
 51
16.3762242501
  0
LINE
  5
48
330
1F
100
AcDbEntity
  8
0
  6
Continuous
 62
     7
370
    15
100
AcDbLine
 10
95.8467518834
 20
164.2493569048
 30
0.0
 11
97.1218274829
 21
167.1132222505
 31
0.0
  0
ARC
  5
49
330
1F
100
AcDbEntity
  8
0
  6
Continuous
 62
     7
370
    15
100
AcDbCircle
 10
98.3955437168
 20
163.1145603475
 30
0.0
 40
2.789999999999992
100
AcDbArc
 50
156.0
 51
236.5731164362
  0
ARC
  5
4A
330
1F
100
AcDbEntity
  8
0
  6
Continuous
 62
     7
370
    15
100
AcDbCircle
 10
76.0631767956
 20
129.2803027423
 30
0.0
 40
37.75000000000004
100
AcDbArc
 50
51.4268835638
 51
56.5731164362
  0
ARC
  5
4B
330
1F
100
AcDbEntity
  8
0
  6
Continuous
 62
     7
370
    15
100
AcDbCircle
 10
101.3403870617
 20
160.9750064191
 30
0.0
 40
2.789999999999988
100
AcDbArc
 50
231.4268835638
 51
312.0
  0
LINE
  5
4C
330
1F
100
AcDbEntity
  8
0
  6
Continuous
 62
     7
370
    15
100
AcDbLine
 10
105.5369397548
 20
160.9992832632
 30
0.0
 11
103.2072605488
 21
158.9016319008
 31
0.0
  0
ARC
  5
4D
330
1F
100
AcDbEntity
  8
0
  6
Continuous
 62
     7
370
    15
100
AcDbCircle
 10
113.3992247444
 20
152.2673327497
 30
0.0
 40
11.75000000000002
100
AcDbArc
 50
91.6237757499
 51
132.0
  0
ARC
  5
4E
330
1F
100
AcDbEntity
  8
0
  6
Continuous
 62
     7
370
    15
100
AcDbCircle
 10
76.0631767956
 20
129.2803027423
 30
0.0
 40
50.75000000000004
100
AcDbArc
 50
40.8130914957
 51
43.1869085043
  0
ARC
  5
4F
330
1F
100
AcDbEntity
  8
0
  6
Continuous
 62
     7
370
    15
100
AcDbCircle
 10
102.826961164
 20
164.0090209922
 30
0.0
 40
11.75000000000003
100
AcDbArc
 50
312.0
 51
352.3762242501
  0
LINE
  5
50
330
1F
100
AcDbEntity
  8
0
  6
Continuous
 62
     7
370
    15
100
AcDbLine
 10
108.3595661369
 20
153.1794165017
 30
0.0
 11
110.6892472056
 21
155.2770697267
 31
0.0
  0
ARC
  5
51
330
1F
100
AcDbEntity
  8
0
  6
Continuous
 62
     7
370
    15
100
AcDbCircle
 10
110.2264415142
 20
151.1060431367
 30
0.0
 40
2.789999999999992
100
AcDbArc
 50
132.0
 51
212.5731164362
  0
ARC
  5
52
330
1F
100
AcDbEntity
  8
0
  6
Continuous
 62
     7
370
    15
100
AcDbCircle
 10
76.0631767956
 20
129.2803027423
 30
0.0
 40
37.75000000000003
100
AcDbArc
 50
27.4268835638
 51
32.5731164362
  0
ARC
  5
53
330
1F
100
AcDbEntity
  8
0
  6
Continuous
 62
     7
370
    15
100
AcDbCircle
 10
112.0464547929
 20
147.9536876676
 30
0.0
 40
2.789999999999966
100
AcDbArc
 50
207.4268835638
 51
288.0
  0
LINE
  5
54
330
1F
100
AcDbEntity
  8
0
  6
Continuous
 62
     7
370
    15
100
AcDbLine
 10
115.8900728372
 20
146.2689750584
 30
0.0
 11
112.9086112526
 21
145.3002393933
 31
0.0
  0
ARC
  5
55
330
1F
100
AcDbEntity
  8
0
  6
Continuous
 62
     7
370
    15
100
AcDbCircle
 10
119.5210212251
 20
135.0940607818
 30
0.0
 40
11.75
100
AcDbArc
 50
67.6237757499
 51
108.0
  0
ARC
  5
56
330
1F
100
AcDbEntity
  8
0
  6
Continuous
 62
     7
370
    15
100
AcDbCircle
 10
76.0631767956
 20
129.2803027423
 30
0.0
 40
50.75000000000001
100
AcDbArc
 50
16.8130914957
 51
19.1869085043
  0
ARC
  5
57
330
1F
100
AcDbEntity
  8
0
  6
Continuous
 62
     7
370
    15
100
AcDbCircle
 10
114.638552714
 20
150.1207537392
 30
0.0
 40
11.75000000000002
100
AcDbArc
 50
288.0
 51
328.3762242501
  0
LINE
  5
58
330
1F
100
AcDbEntity
  8
0
  6
Continuous
 62
     7
370
    15
100
AcDbLine
 10
115.2880435732
 20
137.9771047028
 30
0.0
 11
118.2695014325
 21
138.9458394365
 31
0.0
  0
ARC
  5
59
330
1F
100
AcDbEntity
  8
0
  6
Continuous
 62
     7
370
    15
100
AcDbCircle
 10
116.1502004782
 20
135.3236571312
 30
0.0
 40
2.789999999999992
100
AcDbArc
 50
108.0
 51
188.5731164362
  0
ARC
  5
5A
330
1F
100
AcDbEntity
  8
0
  6
Continuous
 62
     7
370
    15
100
AcDbCircle
 10
76.0631767956
 20
129.2803027423
 30
0.0
 40
37.75000000000002
100
AcDbArc
 50
3.4268835638
 51
8.5731164362
  0
ARC
  5
5B
330
1F
100
AcDbEntity
  8
0
  6
Continuous
 62
     7
370
    15
100
AcDbCircle
 10
116.5306868605
 20
131.7035710201
 30
0.0
 40
2.789999999999995
100
AcDbArc
 50
183.4268835638
 51
264.0
  0
LINE
  5
5C
330
1F
100
AcDbEntity
  8
0
  6
Continuous
 62
     7
370
    15
100
AcDbLine
 10
119.3567721096
 20
128.6011695152
 30
0.0
 11
116.2390543071
 21
128.9288549265
 31
0.0
  0
ARC
  5
5D
330
1F
100
AcDbEntity
  8
0
  6
Continuous
 62
     7
370
    15
100
AcDbCircle
 10
118.1285616017
 20
116.9155372325
 30
0.0
 40
11.74999999999999
100
AcDbArc
 50
43.6237757499
 51
84.0
  0
ARC
  5
5E
330
1F
100
AcDbEntity
  8
0
  6
Continuous
 62
     7
370
    15
100
AcDbCircle
 10
76.0631767956
 20
129.2803027423
 30
0.0
 40
50.75000000000001
100
AcDbArc
 50
352.8130914957
 51
355.1869085043
  0
ARC
  5
5F
330
1F
100
AcDbEntity
  8
0
  6
Continuous
 62
     7
370
    15
100
AcDbCircle
 10
119.7801113213
 20
132.6289831793
 30
0.0
 40
11.75000000000005
100
AcDbArc
 50
264.0
 51
304.3762242501
  0
LINE
  5
60
330
1F
100
AcDbEntity
  8
0
  6
Continuous
 62
     7
370
    15
100
AcDbLine
 10
115.4341829864
 20
121.271036634
 30
0.0
 11
118.5519007889
 21
120.9433507861
 31
0.0
  0
ARC
  5
61
330
1F
100
AcDbEntity
  8
0
  6
Continuous
 62
     7
370
    15
100
AcDbCircle
 10
115.1425488683
 20
118.4963202496
 30
0.0
 40
2.789999999999986
100
AcDbArc
 50
84.0
 51
164.5731164362
  0
ARC
  5
62
330
1F
100
AcDbEntity
  8
0
  6
Continuous
 62
     7
370
    15
100
AcDbCircle
 10
76.0631767956
 20
129.2803027423
 30
0.0
 40
37.75000000000005
100
AcDbArc
 50
339.4268835638
 51
344.5731164362
  0
ARC
  5
63
330
1F
100
AcDbEntity
  8
0
  6
Continuous
 62
     7
370
    15
100
AcDbCircle
 10
114.0177188021
 20
115.0344492727
 30
0.0
 40
2.789999999999982
100
AcDbArc
 50
159.4268835638
 51
240.0
  0
LINE
  5
64
330
1F
100
AcDbEntity
  8
0
  6
Continuous
 62
     7
370
    15
100
AcDbLine
 10
115.3376160112
 20
111.0507921071
 30
0.0
 11
112.622717574
 21
112.6182378025
 31
0.0
  0
ARC
  5
65
330
1F
100
AcDbEntity
  8
0
  6
Continuous
 62
     7
370
    15
100
AcDbCircle
 10
109.4626147934
 20
100.8749939703
 30
0.0
 40
11.75
100
AcDbArc
 50
19.6237757499
 51
60.0
  0
ARC
  5
66
330
1F
100
AcDbEntity
  8
0
  6
Continuous
 62
     7
370
    15
100
AcDbCircle
 10
76.0631767956
 20
129.2803027423
 30
0.0
 40
50.75000000000001
100
AcDbArc
 50
328.8130914957
 51
331.1869085043
  0
ARC
  5
67
330
1F
100
AcDbEntity
  8
0
  6
Continuous
 62
     7
370
    15
100
AcDbCircle
 10
117.3626147934
 20
114.5581953501
 30
0.0
 40
11.75000000000003
100
AcDbArc
 50
240.0
 51
280.3762242501
  0
LINE
  5
68
330
1F
100
AcDbEntity
  8
0
  6
Continuous
 62
     7
370
    15
100
AcDbLine
 10
108.7727194575
 20
105.9498433711
 30
0.0
 11
111.4876141695
 21
104.3823976757
 31
0.0
  0
ARC
  5
69
330
1F
100
AcDbEntity
  8
0
  6
Continuous
 62
     7
370
    15
100
AcDbCircle
 10
107.3777188021
 20
103.5336319104
 30
0.0
 40
2.790000000000005
100
AcDbArc
 50
60.0
 51
140.5731164362
  0
ARC
  5
6A
330
1F
100
AcDbEntity
  8
0
  6
Continuous
 62
     7
370
    15
100
AcDbCircle
 10
76.0631767956
 20
129.2803027423
 30
0.0
 40
37.75000000000001
100
AcDbArc
 50
315.4268835638
 51
320.5731164362
  0
ARC
  5
6B
330
1F
100
AcDbEntity
  8
0
  6
Continuous
 62
     7
370
    15
100
AcDbCircle
 10
104.9420656246
 20
100.8285650097
 30
0.0
 40
2.789999999999984
100
AcDbArc
 50
135.4268835638
 51
216.0
  0
LINE
  5
6C
330
1F
100
AcDbEntity
  8
0
  6
Continuous
 62
     7
370
    15
100
AcDbLine
 10
104.5275518594
 20
96.6524631472
 30
0.0
 11
102.6849077937
 21
99.1886445077
 31
0.0
  0
ARC
  5
6D
330
1F
100
AcDbEntity
  8
0
  6
Continuous
 62
     7
370
    15
100
AcDbCircle
 10
95.0216017308
 20
89.7459866489
 30
0.0
 40
11.75000000000001
100
AcDbArc
 50
355.6237757499
 51
36.0
  0
ARC
  5
6E
330
1F
100
AcDbEntity
  8
0
  6
Continuous
 62
     7
370
    15
100
AcDbCircle
 10
76.0631767956
 20
129.2803027423
 30
0.0
 40
50.75
100
AcDbArc
 50
304.8130914957
 51
307.1869085043
  0
ARC
  5
6F
330
1F
100
AcDbEntity
  8
0
  6
Continuous
 62
     7
370
    15
100
AcDbCircle
 10
107.8040702419
 20
99.0329936351
 30
0.0
 40
11.75000000000001
100
AcDbArc
 50
216.0
 51
256.3762242501
  0
LINE
  5
70
330
1F
100
AcDbEntity
  8
0
  6
Continuous
 62
     7
370
    15
100
AcDbLine
 10
96.4554773567
 20
94.6626961918
 30
0.0
 11
98.2981214223
 21
92.1265185566
 31
0.0
  0
ARC
  5
71
330
1F
100
AcDbEntity
  8
0
  6
Continuous
 62
     7
370
    15
100
AcDbCircle
 10
94.1983199393
 20
93.0227768593
 30
0.0
 40
2.789999999999984
100
AcDbArc
 50
36.0
 51
116.5731164362
  0
ARC
  5
72
330
1F
100
AcDbEntity
  8
0
  6
Continuous
 62
     7
370
    15
100
AcDbCircle
 10
76.0631767956
 20
129.2803027423
 30
0.0
 40
37.75000000000001
100
AcDbArc
 50
291.4268835638
 51
296.5731164362
  0
ARC
  5
73
330
1F
100
AcDbEntity
  8
0
  6
Continuous
 62
     7
370
    15
100
AcDbCircle
 10
90.872990212
 20
91.5422446766
 30
0.0
 40
2.789999999999981
100
AcDbArc
 50
111.4268835638
 51
192.0
  0
LINE
  5
74
330
1F
100
AcDbEntity
  8
0
  6
Continuous
 62
     7
370
    15
100
AcDbLine
 10
88.7957394046
 20
87.8957845958
 30
0.0
 11
88.1439579574
 21
90.9621716233
 31
0.0
  0
ARC
  5
75
330
1F
100
AcDbEntity
  8
0
  6
Continuous
 62
     7
370
    15
100
AcDbCircle
 10
77.3025047651
 20
85.452821738
 30
0.0
 40
11.74999999999999
100
AcDbArc
 50
331.6237757499
 51
12.0
  0
ARC
  5
76
330
1F
100
AcDbEntity
  8
0
  6
Continuous
 62
     7
370
    15
100
AcDbCircle
 10
76.0631767956
 20
129.2803027423
 30
0.0
 40
50.74999999999999
100
AcDbArc
 50
280.8130914957
 51
283.1869085043
  0
ARC
  5
77
330
1F
100
AcDbEntity
  8
0
  6
Continuous
 62
     7
370
    15
100
AcDbCircle
 10
92.7572368567
 20
88.7378264529
 30
0.0
 40
11.75000000000002
100
AcDbArc
 50
192.0
 51
232.3762242501
  0
LINE
  5
78
330
1F
100
AcDbEntity
  8
0
  6
Continuous
 62
     7
370
    15
100
AcDbLine
 10
80.6122219113
 20
89.3612504692
 30
0.0
 11
81.2640024272
 21
86.2948634417
 31
0.0
  0
ARC
  5
79
330
1F
100
AcDbEntity
  8
0
  6
Continuous
 62
     7
370
    15
100
AcDbCircle
 10
77.8831900743
 20
88.7811774225
 30
0.0
 40
2.790000000000008
100
AcDbArc
 50
12.0
 51
92.5731164362
  0
ARC
  5
7A
330
1F
100
AcDbEntity
  8
0
  6
Continuous
 62
     7
370
    15
100
AcDbCircle
 10
76.0631767956
 20
129.2803027423
 30
0.0
 40
37.74999999999999
100
AcDbArc
 50
267.4268835638
 51
272.5731164362
  0
ARC
  5
7B
330
1F
100
AcDbEntity
  8
0
  6
Continuous
 62
     7
370
    15
100
AcDbCircle
 10
74.2431635169
 20
88.7811774225
 30
0.0
 40
2.789999999999994
100
AcDbArc
 50
87.4268835638
 51
168.0
  0
LINE
  5
7C
330
1F
100
AcDbEntity
  8
0
  6
Continuous
 62
     7
370
    15
100
AcDbLine
 10
70.862351164
 20
86.2948634417
 30
0.0
 11
71.5141316799
 21
89.3612504692
 31
0.0
  0
ARC
  5
7D
330
1F
100
AcDbEntity
  8
0
  6
Continuous
 62
     7
370
    15
100
AcDbCircle
 10
59.3691167345
 20
88.7378264529
 30
0.0
 40
11.75000000000001
100
AcDbArc
 50
307.6237757499
 51
348.0
  0
ARC
  5
7E
330
1F
100
AcDbEntity
  8
0
  6
Continuous
 62
     7
370
    15
100
AcDbCircle
 10
76.0631767956
 20
129.2803027423
 30
0.0
 40
50.75000000000002
100
AcDbArc
 50
256.8130914957
 51
259.1869085043
  0
ARC
  5
7F
330
1F
100
AcDbEntity
  8
0
  6
Continuous
 62
     7
370
    15
100
AcDbCircle
 10
74.8238488261
 20
85.452821738
 30
0.0
 40
11.75000000000003
100
AcDbArc
 50
168.0
 51
208.3762242501
  0
LINE
  5
80
330
1F
100
AcDbEntity
  8
0
  6
Continuous
 62
     7
370
    15
100
AcDbLine
 10
63.9823956338
 20
90.9621716233
 30
0.0
 11
63.3306141866
 21
87.8957845958
 31
0.0
  0
ARC
  5
81
330
1F
100
AcDbEntity
  8
0
  6
Continuous
 62
     7
370
    15
100
AcDbCircle
 10
61.2533633791
 20
91.5422446766
 30
0.0
 40
2.789999999999994
100
AcDbArc
 50
348.0
 51
68.5731164362
  0
ARC
  5
82
330
1F
100
AcDbEntity
  8
0
  6
Continuous
 62
     7
370
    15
100
AcDbCircle
 10
76.0631767956
 20
129.2803027423
 30
0.0
 40
37.74999999999999
100
AcDbArc
 50
243.4268835638
 51
248.5731164362
  0
ARC
  5
83
330
1F
100
AcDbEntity
  8
0
  6
Continuous
 62
     7
370
    15
100
AcDbCircle
 10
57.9280336519
 20
93.0227768593
 30
0.0
 40
2.789999999999997
100
AcDbArc
 50
63.4268835638
 51
144.0
  0
LINE
  5
84
330
1F
100
AcDbEntity
  8
0
  6
Continuous
 62
     7
370
    15
100
AcDbLine
 10
53.8282321689
 20
92.1265185566
 30
0.0
 11
55.6708762345
 21
94.6626961918
 31
0.0
  0
ARC
  5
85
330
1F
100
AcDbEntity
  8
0
  6
Continuous
 62
     7
370
    15
100
AcDbCircle
 10
44.3222833492
 20
99.0329936351
 30
0.0
 40
11.74999999999999
100
AcDbArc
 50
283.6237757499
 51
324.0
  0
ARC
  5
86
330
1F
100
AcDbEntity
  8
0
  6
Continuous
 62
     7
370
    15
100
AcDbCircle
 10
76.0631767956
 20
129.2803027423
 30
0.0
 40
50.74999999999999
100
AcDbArc
 50
232.8130914957
 51
235.1869085043
  0
ARC
  5
87
330
1F
100
AcDbEntity
  8
0
  6
Continuous
 62
     7
370
    15
100
AcDbCircle
 10
57.1047518603
 20
89.7459866489
 30
0.0
 40
11.75000000000003
100
AcDbArc
 50
144.0
 51
184.3762242501
  0
LINE
  5
88
330
1F
100
AcDbEntity
  8
0
  6
Continuous
 62
     7
370
    15
100
AcDbLine
 10
49.4414457974
 20
99.1886445077
 30
0.0
 11
47.5988017318
 21
96.6524631472
 31
0.0
  0
ARC
  5
89
330
1F
100
AcDbEntity
  8
0
  6
Continuous
 62
     7
370
    15
100
AcDbCircle
 10
47.1842879666
 20
100.8285650097
 30
0.0
 40
2.789999999999999
100
AcDbArc
 50
324.0
 51
44.5731164362
  0
ARC
  5
8A
330
1F
100
AcDbEntity
  8
0
  6
Continuous
 62
     7
370
    15
100
AcDbCircle
 10
76.0631767956
 20
129.2803027423
 30
0.0
 40
37.75000000000001
100
AcDbArc
 50
219.4268835638
 51
224.5731164362
  0
ARC
  5
8B
330
1F
100
AcDbEntity
  8
0
  6
Continuous
 62
     7
370
    15
100
AcDbCircle
 10
44.7486347891
 20
103.5336319104
 30
0.0
 40
2.789999999999983
100
AcDbArc
 50
39.4268835638
 51
120.0
  0
LINE
  5
8C
330
1F
100
AcDbEntity
  8
0
  6
Continuous
 62
     7
370
    15
100
AcDbLine
 10
40.6387394217
 20
104.3823976757
 30
0.0
 11
43.3536341337
 21
105.9498433711
 31
0.0
  0
ARC
  5
8D
330
1F
100
AcDbEntity
  8
0
  6
Continuous
 62
     7
370
    15
100
AcDbCircle
 10
34.7637387978
 20
114.5581953501
 30
0.0
 40
11.74999999999999
100
AcDbArc
 50
259.6237757499
 51
300.0
  0
ARC
  5
8E
330
1F
100
AcDbEntity
  8
0
  6
Continuous
 62
     7
370
    15
100
AcDbCircle
 10
76.0631767956
 20
129.2803027423
 30
0.0
 40
50.74999999999999
100
AcDbArc
 50
208.8130914957
 51
211.1869085043
  0
ARC
  5
8F
330
1F
100
AcDbEntity
  8
0
  6
Continuous
 62
     7
370
    15
100
AcDbCircle
 10
42.6637387978
 20
100.8749939703
 30
0.0
 40
11.75000000000001
100
AcDbArc
 50
120.0
 51
160.3762242501
  0
LINE
  5
90
330
1F
100
AcDbEntity
  8
0
  6
Continuous
 62
     7
370
    15
100
AcDbLine
 10
39.5036360172
 20
112.6182378025
 30
0.0
 11
36.7887375799
 21
111.0507921071
 31
0.0
  0
ARC
  5
91
330
1F
100
AcDbEntity
  8
0
  6
Continuous
 62
     7
370
    15
100
AcDbCircle
 10
38.1086347891
 20
115.0344492727
 30
0.0
 40
2.789999999999996
100
AcDbArc
 50
300.0
 51
20.5731164362
  0
ARC
  5
92
330
1F
100
AcDbEntity
  8
0
  6
Continuous
 62
     7
370
    15
100
AcDbCircle
 10
76.0631767956
 20
129.2803027423
 30
0.0
 40
37.75000000000002
100
AcDbArc
 50
195.4268835638
 51
200.5731164362
  0
ARC
  5
93
330
1F
100
AcDbEntity
  8
0
  6
Continuous
 62
     7
370
    15
100
AcDbCircle
 10
36.9838047229
 20
118.4963202496
 30
0.0
 40
2.789999999999984
100
AcDbArc
 50
15.4268835638
 51
96.0
  0
LINE
  5
94
330
1F
100
AcDbEntity
  8
0
  6
Continuous
 62
     7
370
    15
100
AcDbLine
 10
33.5744528023
 20
120.9433507861
 30
0.0
 11
36.6921706048
 21
121.271036634
 31
0.0
  0
ARC
  5
95
330
1F
100
AcDbEntity
  8
0
  6
Continuous
 62
     7
370
    15
100
AcDbCircle
 10
32.3462422698
 20
132.6289831793
 30
0.0
 40
11.75000000000001
100
AcDbArc
 50
235.6237757499
 51
276.0
  0
ARC
  5
96
330
1F
100
AcDbEntity
  8
0
  6
Continuous
 62
     7
370
    15
100
AcDbCircle
 10
76.0631767956
 20
129.2803027423
 30
0.0
 40
50.75000000000001
100
AcDbArc
 50
184.8130914957
 51
187.1869085043
  0
ARC
  5
97
330
1F
100
AcDbEntity
  8
0
  6
Continuous
 62
     7
370
    15
100
AcDbCircle
 10
33.9977919894
 20
116.9155372325
 30
0.0
 40
11.74999999999999
100
AcDbArc
 50
96.0
 51
136.3762242501
  0
LINE
  5
98
330
1F
100
AcDbEntity
  8
0
  6
Continuous
 62
     7
370
    15
100
AcDbLine
 10
35.8872992841
 20
128.9288549265
 30
0.0
 11
32.7695814816
 21
128.6011695152
 31
0.0
  0
ARC
  5
99
330
1F
100
AcDbEntity
  8
0
  6
Continuous
 62
     7
370
    15
100
AcDbCircle
 10
35.5956667307
 20
131.7035710201
 30
0.0
 40
2.790000000000012
100
AcDbArc
 50
276.0
 51
356.5731164362
  0
ARC
  5
9A
330
1F
100
AcDbEntity
  8
0
  6
Continuous
 62
     7
370
    15
100
AcDbCircle
 10
76.0631767956
 20
129.2803027423
 30
0.0
 40
37.75000000000001
100
AcDbArc
 50
171.4268835638
 51
176.5731164362
  0
ARC
  5
9B
330
1F
100
AcDbEntity
  8
0
  6
Continuous
 62
     7
370
    15
100
AcDbCircle
 10
35.976153113
 20
135.3236571312
 30
0.0
 40
2.789999999999996
100
AcDbArc
 50
351.4268835638
 51
72.0
  0
LINE
  5
9C
330
1F
100
AcDbEntity
  8
0
  6
Continuous
 62
     7
370
    15
100
AcDbLine
 10
33.8568521586
 20
138.9458394365
 30
0.0
 11
36.8383100179
 21
137.9771047028
 31
0.0
  0
ARC
  5
9D
330
1F
100
AcDbEntity
  8
0
  6
Continuous
 62
     7
370
    15
100
AcDbCircle
 10
37.4878008772
 20
150.1207537392
 30
0.0
 40
11.75000000000002
100
AcDbArc
 50
211.6237757499
 51
252.0
  0
ARC
  5
9E
330
1F
100
AcDbEntity
  8
0
  6
Continuous
 62
     7
370
    15
100
AcDbCircle
 10
76.0631767956
 20
129.2803027423
 30
0.0
 40
50.75000000000001
100
AcDbArc
 50
160.8130914957
 51
163.1869085043
  0
ARC
  5
9F
330
1F
100
AcDbEntity
  8
0
  6
Continuous
 62
     7
370
    15
100
AcDbCircle
 10
32.6053323661
 20
135.0940607818
 30
0.0
 40
11.75000000000002
100
AcDbArc
 50
72.0
 51
112.3762242501
  0
LINE
  5
A0
330
1F
100
AcDbEntity
  8
0
  6
Continuous
 62
     7
370
    15
100
AcDbLine
 10
39.2177423385
 20
145.3002393933
 30
0.0
 11
36.2362807539
 21
146.2689750584
 31
0.0
  0
ARC
  5
A1
330
1F
100
AcDbEntity
  8
0
  6
Continuous
 62
     7
370
    15
100
AcDbCircle
 10
40.0798987983
 20
147.9536876676
 30
0.0
 40
2.790000000000004
100
AcDbArc
 50
252.0
 51
332.5731164362
  0
ARC
  5
A2
330
1F
100
AcDbEntity
  8
0
  6
Continuous
 62
     7
370
    15
100
AcDbCircle
 10
76.0631767956
 20
129.2803027423
 30
0.0
 40
37.75000000000001
100
AcDbArc
 50
147.4268835638
 51
152.5731164362
  0
ARC
  5
A3
330
1F
100
AcDbEntity
  8
0
  6
Continuous
 62
     7
370
    15
100
AcDbCircle
 10
41.899912077
 20
151.1060431367
 30
0.0
 40
2.789999999999991
100
AcDbArc
 50
327.4268835638
 51
48.0
  0
LINE
  5
A4
330
1F
100
AcDbEntity
  8
0
  6
Continuous
 62
     7
370
    15
100
AcDbLine
 10
41.4371063856
 20
155.2770697267
 30
0.0
 11
43.7667874542
 21
153.1794165017
 31
0.0
  0
ARC
  5
A5
330
1F
100
AcDbEntity
  8
0
  6
Continuous
 62
     7
370
    15
100
AcDbCircle
 10
49.2993924272
 20
164.0090209922
 30
0.0
 40
11.75
100
AcDbArc
 50
187.6237757499
 51
228.0
  0
ARC
  5
A6
330
1F
100
AcDbEntity
  8
0
  6
Continuous
 62
     7
370
    15
100
AcDbCircle
 10
76.0631767956
 20
129.2803027423
 30
0.0
 40
50.75000000000001
100
AcDbArc
 50
136.8130914957
 51
139.1869085042
  0
ARC
  5
A7
330
1F
100
AcDbEntity
  8
0
  6
Continuous
 62
     7
370
    15
100
AcDbCircle
 10
38.7271288467
 20
152.2673327497
 30
0.0
 40
11.75000000000002
100
AcDbArc
 50
48.0
 51
88.3762242501
  0
LINE
  5
A8
330
1F
100
AcDbEntity
  8
0
  6
Continuous
 62
     7
370
    15
100
AcDbLine
 10
48.9190930424
 20
158.9016319008
 30
0.0
 11
46.5894138363
 21
160.9992832632
 31
0.0
  0
ARC
  5
A9
330
1F
100
AcDbEntity
  8
0
  6
Continuous
 62
     7
370
    15
100
AcDbCircle
 10
50.7859665294
 20
160.9750064191
 30
0.0
 40
2.789999999999992
100
AcDbArc
 50
228.0
 51
308.5731164362
  0
ARC
  5
AA
330
1F
100
AcDbEntity
  8
0
  6
Continuous
 62
     7
370
    15
100
AcDbCircle
 10
76.0631767956
 20
129.2803027423
 30
0.0
 40
37.75000000000002
100
AcDbArc
 50
123.4268835638
 51
128.5731164362
  0
ARC
  5
AB
330
1F
100
AcDbEntity
  8
0
  6
Continuous
 62
     7
370
    15
100
AcDbCircle
 10
53.7308098743
 20
163.1145603475
 30
0.0
 40
2.789999999999994
100
AcDbArc
 50
303.4268835638
 51
24.0
  0
LINE
  5
AC
330
1F
100
AcDbEntity
  8
0
  6
Continuous
 62
     7
370
    15
100
AcDbLine
 10
55.0045261082
 20
167.1132222505
 30
0.0
 11
56.2796017078
 21
164.2493569048
 31
0.0
  0
ARC
  5
AD
330
1F
100
AcDbEntity
  8
0
  6
Continuous
 62
     7
370
    15
100
AcDbCircle
 10
65.7386854358
 20
171.8923773592
 30
0.0
 40
11.7499999999995
100
AcDbArc
 50
163.6237757499
 51
204.0
  0
ARC
  5
AE
330
1F
100
AcDbEntity
  8
0
  6
Continuous
 62
     7
370
    15
100
AcDbCircle
 10
76.0631767956
 20
129.2803027423
 30
0.0
 40
50.75000000000004
100
AcDbArc
 50
112.8130914957
 51
115.1869085042
  0
ARC
  5
AF
330
1F
100
AcDbEntity
  8
0
  6
Continuous
 62
     7
370
    15
100
AcDbCircle
 10
51.304667205
 20
165.4659383987
 30
0.0
 40
11.75000000000001
100
AcDbArc
 50
24.0
 51
64.3762242501
  0
LINE
  5
B0
330
1F
100
AcDbEntity
  8
0
  6
Continuous
 62
     7
370
    15
100
AcDbLine
 10
63.313901603
 20
167.3812270852
 30
0.0
 11
62.0388260034
 21
170.2450924309
 31
0.0
  0
ARC
  5
B1
330
1F
100
AcDbEntity
  8
0
  6
Continuous
 62
     7
370
    15
100
AcDbCircle
 10
65.8626935518
 20
168.5160229675
 30
0.0
 40
2.789999999999976
100
AcDbArc
 50
204.0
 51
284.5731164362
  0
ARC
  5
B2
330
1F
100
AcDbEntity
  8
0
  6
Continuous
 62
     7
370
    15
100
AcDbCircle
 10
76.0631767956
 20
129.2803027423
 30
0.0
 40
37.75000000000005
100
AcDbArc
 50
99.4268835638
 51
104.5731164362
  0
ARC
  5
B3
330
1F
100
AcDbEntity
  8
0
  6
Continuous
 62
     7
370
    15
100
AcDbCircle
 10
69.4231767956
 20
169.2728270437
 30
0.0
 40
2.789999999999992
100
AcDbArc
 50
279.4268835638
 51
0.0
  0
LINE
  5
B4
330
1F
100
AcDbEntity
  8
0
  6
Continuous
 62
     7
370
    15
100
AcDbLine
 10
72.2131768164
 20
172.4077203067
 30
0.0
 11
72.2131768164
 21
169.2728251906
 31
0.0
  0
ARC
  5
B5
330
1F
100
AcDbEntity
  8
0
  6
Continuous
 62
     7
370
    15
100
AcDbCircle
 10
83.9631767956
 20
172.4077189065
 30
0.0
 40
11.74999999999999
100
AcDbArc
 50
139.6237757499
 51
180.0
  0
ARC
  5
B6
330
1F
100
AcDbEntity
  8
0
  6
Continuous
 62
     7
370
    15
100
AcDbCircle
 10
76.0631767956
 20
129.2803027423
 30
0.0
 40
50.75000000000003
100
AcDbArc
 50
88.8130914957
 51
91.1869085043
  0
ARC
  5
B7
330
1F
100
AcDbEntity
  8
0
  6
Continuous
 62
     7
370
    15
100
AcDbCircle
 10
68.1631767956
 20
172.4077189065
 30
0.0
 40
11.75000000000003
100
AcDbArc
 50
0.0
 51
40.3762242501
  0
LINE
  5
B8
330
1F
100
AcDbEntity
  8
0
  6
Continuous
 62
     7
370
    15
100
AcDbLine
 10
79.9131767747
 20
169.2728251906
 30
0.0
 11
79.9131767747
 21
172.4077203067
 31
0.0
  0
ARC
  5
B9
330
1F
100
AcDbEntity
  8
0
  6
Continuous
 62
     7
370
    15
100
AcDbCircle
 10
82.7031767956
 20
169.2728270437
 30
0.0
 40
2.789999999999992
100
AcDbArc
 50
180.0
 51
260.5731164362
  0
ARC
  5
BA
330
1F
100
AcDbEntity
  8
0
  6
Continuous
 62
     7
370
    15
100
AcDbCircle
 10
76.0631767956
 20
129.2803027423
 30
0.0
 40
37.75000000000004
100
AcDbArc
 50
75.4268835638
 51
80.5731164362
  0
ARC
  5
BB
330
1F
100
AcDbEntity
  8
0
  6
Continuous
 62
     7
370
    15
100
AcDbCircle
 10
86.2636600393
 20
168.5160229675
 30
0.0
 40
2.789999999999999
100
AcDbArc
 50
255.4268835638
 51
336.0
  0
CIRCLE
  5
BC
330
1F
100
AcDbEntity
  8
0
  6
Continuous
 62
     7
370
    15
100
AcDbCircle
 10
76.0631767956
 20
129.2803027423
 30
0.0
 40
10.25
  0
ARC
  5
BD
330
1F
100
AcDbEntity
  8
0
  6
Continuous
 62
     7
370
    15
100
AcDbCircle
 10
41.899912077
 20
151.1060431367
 30
0.0
 40
2.54000000000001
100
AcDbArc
 50
327.4268835638
 51
48.0
  0
LINE
  5
BE
330
1F
100
AcDbEntity
  8
0
  6
Continuous
 62
     7
370
    15
100
AcDbLine
 10
43.5995032934
 20
152.9936306866
 30
0.0
 11
43.7667874542
 21
153.1794165017
 31
0.0
  0
LINE
  5
BF
330
1F
100
AcDbEntity
  8
0
  6
Continuous
 62
     7
370
    15
100
AcDbLine
 10
44.0403839496
 20
149.7385688813
 30
0.0
 11
44.2510602919
 21
149.6039760055
 31
0.0
  0
LINE
  5
C0
330
1F
100
AcDbEntity
  8
0
  6
Continuous
 62
     7
370
    15
100
AcDbLine
 10
118.2695014325
 20
138.9458394365
 30
0.0
 11
118.3467565027
 21
138.7080755772
 31
0.0
  0
LINE
  5
C1
330
1F
100
AcDbEntity
  8
0
  6
Continuous
 62
     7
370
    15
100
AcDbLine
 10
118.3467565027
 20
138.7080755772
 30
0.0
 11
115.3652986434
 21
137.7393408434
 31
0.0
  0
LINE
  5
C2
330
1F
100
AcDbEntity
  8
0
  6
Continuous
 62
     7
370
    15
100
AcDbLine
 10
115.2880435732
 20
137.9771047028
 30
0.0
 11
115.3652986434
 21
137.7393408434
 31
0.0
  0
LINE
  5
C3
330
1F
100
AcDbEntity
  8
0
  6
Continuous
 62
     7
370
    15
100
AcDbLine
 10
43.5995032934
 20
152.9936306866
 30
0.0
 11
41.26982595
 21
155.0912839116
 31
0.0
  0
LINE
  5
C4
330
1F
100
AcDbEntity
  8
0
  6
Continuous
 62
     7
370
    15
100
AcDbLine
 10
41.26982595
 20
155.0912839116
 30
0.0
 11
41.4371063856
 21
155.2770697267
 31
0.0
  0
ARC
  5
C5
330
1F
100
AcDbEntity
  8
0
  6
Continuous
 62
     7
370
    15
100
AcDbCircle
 10
114.638552714
 20
150.1207537392
 30
0.0
 40
12.00000000000002
100
AcDbArc
 50
288.0
 51
328.3762242501
  0
SPLINE
  5
C6
330
1F
100
AcDbEntity
  8
0
  6
Continuous
 62
     7
370
    15
100
AcDbSpline
210
0.0
220
0.0
230
1.0
 70
     8
 71
     3
 72
     8
 73
     4
 74
     0
 42
0.00000001
 43
0.00000001
 12
1.0
 22
0.0
 32
0.0
 13
1.0
 23
0.0
 33
0.0
 40
0.0001085338104882
 40
0.0001085338104882
 40
0.0001085338104882
 40
0.0001085338104882
 40
0.0003707418624266
 40
0.0003707418624266
 40
0.0003707418624266
 40
0.0003707418624266
 10
124.8358622640993
 20
143.9350540797006
 30
0.0
 10
124.7718538628915
 20
143.943206670402
 30
0.0
 10
124.7078293529178
 20
143.9514434579441
 30
0.0
 10
124.6437884570459
 20
143.9597669899281
 30
0.0
  0
SPLINE
  5
C7
330
1F
100
AcDbEntity
  8
0
  6
Continuous
 62
     7
370
    15
100
AcDbSpline
210
0.0
220
0.0
230
1.0
 70
     8
 71
     3
 72
     8
 73
     4
 74
     0
 42
0.00000001
 43
0.00000001
 12
1.0
 22
0.0
 32
0.0
 13
1.0
 23
0.0
 33
0.0
 40
0.0
 40
0.0
 40
0.0
 40
0.0
 40
1.0
 40
1.0
 40
1.0
 40
1.0
 10
124.8887382878805
 20
143.9097711863653
 30
0.0
 10
124.8739359014146
 20
143.9227924991348
 30
0.0
 10
124.8563644073426
 20
143.9324427727594
 30
0.0
 10
124.8358622640993
 20
143.9350540797006
 30
0.0
  0
SPLINE
  5
C8
330
1F
100
AcDbEntity
  8
0
  6
Continuous
 62
     7
370
    15
100
AcDbSpline
210
0.0
220
0.0
230
1.0
 70
     8
 71
     3
 72
     8
 73
     4
 74
     0
 42
0.00000001
 43
0.00000001
 12
1.0
 22
0.0
 32
0.0
 13
1.0
 23
0.0
 33
0.0
 40
0.0
 40
0.0
 40
0.0
 40
0.0
 40
1.0
 40
1.0
 40
1.0
 40
1.0
 10
124.856665813282
 20
143.8286821654749
 30
0.0
 10
124.8724209846116
 20
143.8542680350344
 30
0.0
 10
124.8830814580027
 20
143.8820560698354
 30
0.0
 10
124.8887382878811
 20
143.9097711863664
 30
0.0
  0
ARC
  5
C9
330
1F
100
AcDbEntity
  8
0
  6
Continuous
 62
     7
370
    15
100
AcDbCircle
 10
49.2993924272
 20
164.0090209922
 30
0.0
 40
11.99999999999998
100
AcDbArc
 50
187.6237757499
 51
228.0
  0
SPLINE
  5
CA
330
1F
100
AcDbEntity
  8
0
  6
Continuous
 62
     7
370
    15
100
AcDbSpline
210
0.0
220
0.0
230
1.0
 70
     8
 71
     3
 72
     8
 73
     4
 74
     0
 42
0.00000001
 43
0.00000001
 12
1.0
 22
0.0
 32
0.0
 13
1.0
 23
0.0
 33
0.0
 40
0.0
 40
0.0
 40
0.0
 40
0.0
 40
1.0
 40
1.0
 40
1.0
 40
1.0
 10
37.40914776236896
 20
162.5041321647715
 30
0.0
 10
37.40308356401898
 20
162.4766968183313
 30
0.0
 10
37.40148499360811
 20
162.4467473478918
 30
0.0
 10
37.4054655497044
 20
162.417008607418
 30
0.0
  0
SPLINE
  5
CB
330
1F
100
AcDbEntity
  8
0
  6
Continuous
 62
     7
370
    15
100
AcDbSpline
210
0.0
220
0.0
230
1.0
 70
     8
 71
     3
 72
     8
 73
     4
 74
     0
 42
0.00000001
 43
0.00000001
 12
1.0
 22
0.0
 32
0.0
 13
1.0
 23
0.0
 33
0.0
 40
0.0
 40
0.0
 40
0.0
 40
0.0
 40
1.0
 40
1.0
 40
1.0
 40
1.0
 10
37.46773589287503
 20
162.5057226207207
 30
0.0
 10
37.44783821548084
 20
162.5117079081379
 30
0.0
 10
37.42814888061794
 20
162.5100639384953
 30
0.0
 10
37.4091477623694
 20
162.5041321647695
 30
0.0
  0
SPLINE
  5
CC
330
1F
100
AcDbEntity
  8
0
  6
Continuous
 62
     7
370
    15
100
AcDbSpline
210
0.0
220
0.0
230
1.0
 70
     8
 71
     3
 72
     8
 73
     4
 74
     0
 42
0.00000001
 43
0.00000001
 12
1.0
 22
0.0
 32
0.0
 13
1.0
 23
0.0
 33
0.0
 40
0.0001085338104882
 40
0.0001085338104882
 40
0.0001085338104882
 40
0.0001085338104882
 40
0.0003707418624266
 40
0.0003707418624266
 40
0.0003707418624266
 40
0.0003707418624266
 10
37.46773589287503
 20
162.5057226207207
 30
0.0
 10
37.52952643442371
 20
162.4871358206881
 30
0.0
 10
37.59136593800251
 20
162.4686193862714
 30
0.0
 10
37.65325569298736
 20
162.4501755321004
 30
0.0
  0
SPLINE
  5
CD
330
1F
100
AcDbEntity
  8
0
  6
Continuous
 62
     7
370
    15
100
AcDbSpline
210
0.0
220
0.0
230
1.0
 70
     8
 71
     3
 72
     8
 73
     4
 74
     0
 42
0.00000001
 43
0.00000001
 12
1.0
 22
0.0
 32
0.0
 13
1.0
 23
0.0
 33
0.0
 40
0.0001085338104882
 40
0.0001085338104882
 40
0.0001085338104882
 40
0.0001085338104882
 40
0.0003707418624266
 40
0.0003707418624266
 40
0.0003707418624266
 40
0.0003707418624266
 10
124.134954913063
 20
146.09222509507
 30
0.0
 10
124.0879630012854
 20
146.0480063163916
 30
0.0
 10
124.0410075469037
 20
146.0037099525432
 30
0.0
 10
123.9940898231555
 20
145.9593337795778
 30
0.0
  0
ARC
  5
CE
330
1F
100
AcDbEntity
  8
0
  6
Continuous
 62
     7
370
    15
100
AcDbCircle
 10
76.0631767956
 20
129.2803027423
 30
0.0
 40
50.92677669529665
100
AcDbArc
 50
16.7239708372
 51
19.2760291628
  0
ARC
  5
CF
330
1F
100
AcDbEntity
  8
0
  6
Continuous
 62
     7
370
    15
100
AcDbCircle
 10
76.0631767956
 20
129.2803027423
 30
0.0
 40
50.92677669529664
100
AcDbArc
 50
136.7239708372
 51
139.2760291628
  0
SPLINE
  5
D0
330
1F
100
AcDbEntity
  8
0
  6
Continuous
 62
     7
370
    15
100
AcDbSpline
210
0.0
220
0.0
230
1.0
 70
     8
 71
     3
 72
     8
 73
     4
 74
     0
 42
0.00000001
 43
0.00000001
 12
1.0
 22
0.0
 32
0.0
 13
1.0
 23
0.0
 33
0.0
 40
0.0001085338104882
 40
0.0001085338104882
 40
0.0001085338104882
 40
0.0001085338104882
 40
0.0003707418624266
 40
0.0003707418624266
 40
0.0003707418624266
 40
0.0003707418624266
 10
38.98544711697434
 20
164.191311700102
 30
0.0
 10
39.01039096692416
 20
164.1318025032497
 30
0.0
 10
39.035269954654
 20
164.0722372573766
 30
0.0
 10
39.06008201244254
 20
164.0126144486784
 30
0.0
  0
LINE
  5
D1
330
1F
100
AcDbEntity
  8
0
  6
Continuous
 62
     7
370
    15
100
AcDbLine
 10
115.8900728372
 20
146.2689750584
 30
0.0
 11
115.812817767
 21
146.506739849
 31
0.0
  0
ARC
  5
D2
330
1F
100
AcDbEntity
  8
0
  6
Continuous
 62
     7
370
    15
100
AcDbCircle
 10
119.5210212251
 20
135.0940607818
 30
0.0
 40
11.99999999999997
100
AcDbArc
 50
67.6237757499
 51
108.0
  0
SPLINE
  5
D3
330
1F
100
AcDbEntity
  8
0
  6
Continuous
 62
     7
370
    15
100
AcDbSpline
210
0.0
220
0.0
230
1.0
 70
     8
 71
     3
 72
     8
 73
     4
 74
     0
 42
0.00000001
 43
0.00000001
 12
1.0
 22
0.0
 32
0.0
 13
1.0
 23
0.0
 33
0.0
 40
0.0
 40
0.0
 40
0.0
 40
0.0
 40
1.0
 40
1.0
 40
1.0
 40
1.0
 10
124.1628716030605
 20
146.1437591324231
 30
0.0
 10
124.1421439952567
 20
146.1627285554678
 30
0.0
 10
124.1170062782316
 20
146.1790876932731
 30
0.0
 10
124.0892614954566
 20
146.1905098008095
 30
0.0
  0
SPLINE
  5
D4
330
1F
100
AcDbEntity
  8
0
  6
Continuous
 62
     7
370
    15
100
AcDbSpline
210
0.0
220
0.0
230
1.0
 70
     8
 71
     3
 72
     8
 73
     4
 74
     0
 42
0.00000001
 43
0.00000001
 12
1.0
 22
0.0
 32
0.0
 13
1.0
 23
0.0
 33
0.0
 40
0.0
 40
0.0
 40
0.0
 40
0.0
 40
1.0
 40
1.0
 40
1.0
 40
1.0
 10
124.134954913063
 20
146.09222509507
 30
0.0
 10
124.1500871627125
 20
146.106464345461
 30
0.0
 10
124.1585081106703
 20
146.1243377944573
 30
0.0
 10
124.1628716030586
 20
146.1437591324237
 30
0.0
  0
ARC
  5
D5
330
1F
100
AcDbEntity
  8
0
  6
Continuous
 62
     7
370
    15
100
AcDbCircle
 10
38.7271288467
 20
152.2673327497
 30
0.0
 40
12.00000000000001
100
AcDbArc
 50
48.0
 51
88.3762242501
  0
LINE
  5
D6
330
1F
100
AcDbEntity
  8
0
  6
Continuous
 62
     7
370
    15
100
AcDbLine
 10
46.7566961345
 20
161.185070941
 30
0.0
 11
46.5894138363
 21
160.9992832632
 31
0.0
  0
SPLINE
  5
D7
330
1F
100
AcDbEntity
  8
0
  6
Continuous
 62
     7
370
    15
100
AcDbSpline
210
0.0
220
0.0
230
1.0
 70
     8
 71
     3
 72
     8
 73
     4
 74
     0
 42
0.00000001
 43
0.00000001
 12
1.0
 22
0.0
 32
0.0
 13
1.0
 23
0.0
 33
0.0
 40
0.0
 40
0.0
 40
0.0
 40
0.0
 40
1.0
 40
1.0
 40
1.0
 40
1.0
 10
38.98090473299322
 20
164.2497451266152
 30
0.0
 10
38.97702913857718
 20
164.2304152275144
 30
0.0
 10
38.97745750350078
 20
164.2103727304533
 30
0.0
 10
38.98544711697433
 20
164.191311700102
 30
0.0
  0
SPLINE
  5
D8
330
1F
100
AcDbEntity
  8
0
  6
Continuous
 62
     7
370
    15
100
AcDbSpline
210
0.0
220
0.0
230
1.0
 70
     8
 71
     3
 72
     8
 73
     4
 74
     0
 42
0.00000001
 43
0.00000001
 12
1.0
 22
0.0
 32
0.0
 13
1.0
 23
0.0
 33
0.0
 40
0.0
 40
0.0
 40
0.0
 40
0.0
 40
1.0
 40
1.0
 40
1.0
 40
1.0
 10
39.06716612235159
 20
164.262514059296
 30
0.0
 10
39.03713052367032
 20
164.2633655031286
 30
0.0
 10
39.00773514291589
 20
164.2587037265012
 30
0.0
 10
38.98090473299202
 20
164.2497451266153
 30
0.0
  0
LINE
  5
D9
330
1F
100
AcDbEntity
  8
0
  6
Continuous
 62
     7
370
    15
100
AcDbLine
 10
112.9086112526
 20
145.3002393933
 30
0.0
 11
112.8313561824
 21
145.5380041839
 31
0.0
  0
LINE
  5
DA
330
1F
100
AcDbEntity
  8
0
  6
Continuous
 62
     7
370
    15
100
AcDbLine
 10
112.8313561824
 20
145.5380041839
 30
0.0
 11
115.812817767
 21
146.506739849
 31
0.0
  0
LINE
  5
DB
330
1F
100
AcDbEntity
  8
0
  6
Continuous
 62
     7
370
    15
100
AcDbLine
 10
46.7566961345
 20
161.185070941
 30
0.0
 11
49.0863753406
 21
159.0874177159
 31
0.0
  0
LINE
  5
DC
330
1F
100
AcDbEntity
  8
0
  6
Continuous
 62
     7
370
    15
100
AcDbLine
 10
49.0863753406
 20
159.0874177159
 30
0.0
 11
48.9190930424
 21
158.9016319008
 31
0.0
  0
LINE
  5
DD
330
1F
100
AcDbEntity
  8
0
  6
Continuous
 62
     7
370
    15
100
AcDbLine
 10
109.5700507906
 20
146.6685683222
 30
0.0
 11
109.7919514326
 21
146.7837226333
 31
0.0
  0
ARC
  5
DE
330
1F
100
AcDbEntity
  8
0
  6
Continuous
 62
     7
370
    15
100
AcDbCircle
 10
112.0464547929
 20
147.9536876676
 30
0.0
 40
2.54
100
AcDbArc
 50
207.4268835638
 51
288.0
  0
ARC
  5
DF
330
1F
100
AcDbEntity
  8
0
  6
Continuous
 62
     7
370
    15
100
AcDbCircle
 10
50.7859665294
 20
160.9750064191
 30
0.0
 40
2.54000000000001
100
AcDbArc
 50
228.0
 51
308.5731164362
  0
LINE
  5
E0
330
1F
100
AcDbEntity
  8
0
  6
Continuous
 62
     7
370
    15
100
AcDbLine
 10
52.3696897474
 20
158.9892004372
 30
0.0
 11
52.5255670694
 21
158.7937474938
 31
0.0
  0
LINE
  5
E1
330
1F
100
AcDbEntity
  8
0
  6
Continuous
 62
     7
370
    15
100
AcDbLine
 10
107.8752932993
 20
149.6039760055
 30
0.0
 11
108.0859696415
 21
149.7385688813
 31
0.0
  0
ARC
  5
E2
330
1F
100
AcDbEntity
  8
0
  6
Continuous
 62
     7
370
    15
100
AcDbCircle
 10
76.0631767956
 20
129.2803027423
 30
0.0
 40
38.00000000000001
100
AcDbArc
 50
27.4268835638
 51
32.5731164362
  0
ARC
  5
E3
330
1F
100
AcDbEntity
  8
0
  6
Continuous
 62
     7
370
    15
100
AcDbCircle
 10
76.0631767956
 20
129.2803027423
 30
0.0
 40
38.00000000000003
100
AcDbArc
 50
123.4268835638
 51
128.5731164362
  0
LINE
  5
E4
330
1F
100
AcDbEntity
  8
0
  6
Continuous
 62
     7
370
    15
100
AcDbLine
 10
55.1300255505
 20
160.9947048815
 30
0.0
 11
55.2677439449
 21
160.7860550971
 31
0.0
  0
LINE
  5
E5
330
1F
100
AcDbEntity
  8
0
  6
Continuous
 62
     7
370
    15
100
AcDbLine
 10
108.3595661369
 20
153.1794165017
 30
0.0
 11
108.5268502978
 21
152.9936306866
 31
0.0
  0
ARC
  5
E6
330
1F
100
AcDbEntity
  8
0
  6
Continuous
 62
     7
370
    15
100
AcDbCircle
 10
110.2264415142
 20
151.1060431367
 30
0.0
 40
2.54
100
AcDbArc
 50
132.0
 51
212.5731164362
  0
ARC
  5
E7
330
1F
100
AcDbEntity
  8
0
  6
Continuous
 62
     7
370
    15
100
AcDbCircle
 10
53.7308098743
 20
163.1145603475
 30
0.0
 40
2.540000000000004
100
AcDbArc
 50
303.4268835638
 51
24.0
  0
LINE
  5
E8
330
1F
100
AcDbEntity
  8
0
  6
Continuous
 62
     7
370
    15
100
AcDbLine
 10
56.0512153355
 20
164.1476713808
 30
0.0
 11
56.2796017078
 21
164.2493569048
 31
0.0
  0
LINE
  5
E9
330
1F
100
AcDbEntity
  8
0
  6
Continuous
 62
     7
370
    15
100
AcDbLine
 10
110.6892472056
 20
155.2770697267
 30
0.0
 11
110.8565276412
 21
155.0912839116
 31
0.0
  0
LINE
  5
EA
330
1F
100
AcDbEntity
  8
0
  6
Continuous
 62
     7
370
    15
100
AcDbLine
 10
110.8565276412
 20
155.0912839116
 30
0.0
 11
108.5268502978
 21
152.9936306866
 31
0.0
  0
LINE
  5
EB
330
1F
100
AcDbEntity
  8
0
  6
Continuous
 62
     7
370
    15
100
AcDbLine
 10
56.0512153355
 20
164.1476713808
 30
0.0
 11
54.7761397359
 21
167.0115367265
 31
0.0
  0
LINE
  5
EC
330
1F
100
AcDbEntity
  8
0
  6
Continuous
 62
     7
370
    15
100
AcDbLine
 10
54.7761397359
 20
167.0115367265
 30
0.0
 11
55.0045261082
 21
167.1132222505
 31
0.0
  0
ARC
  5
ED
330
1F
100
AcDbEntity
  8
0
  6
Continuous
 62
     7
370
    15
100
AcDbCircle
 10
102.826961164
 20
164.0090209922
 30
0.0
 40
12.00000000000001
100
AcDbArc
 50
312.0
 51
352.3762242501
  0
SPLINE
  5
EE
330
1F
100
AcDbEntity
  8
0
  6
Continuous
 62
     7
370
    15
100
AcDbSpline
210
0.0
220
0.0
230
1.0
 70
     8
 71
     3
 72
     8
 73
     4
 74
     0
 42
0.00000001
 43
0.00000001
 12
1.0
 22
0.0
 32
0.0
 13
1.0
 23
0.0
 33
0.0
 40
0.0001085338104882
 40
0.0001085338104882
 40
0.0001085338104882
 40
0.0001085338104882
 40
0.0003707418624266
 40
0.0003707418624266
 40
0.0003707418624266
 40
0.0003707418624266
 10
114.6586176982858
 20
162.5057226207201
 30
0.0
 10
114.5968271567371
 20
162.4871358206875
 30
0.0
 10
114.5349876531583
 20
162.4686193862708
 30
0.0
 10
114.4730978981734
 20
162.4501755320999
 30
0.0
  0
SPLINE
  5
EF
330
1F
100
AcDbEntity
  8
0
  6
Continuous
 62
     7
370
    15
100
AcDbSpline
210
0.0
220
0.0
230
1.0
 70
     8
 71
     3
 72
     8
 73
     4
 74
     0
 42
0.00000001
 43
0.00000001
 12
1.0
 22
0.0
 32
0.0
 13
1.0
 23
0.0
 33
0.0
 40
0.0
 40
0.0
 40
0.0
 40
0.0
 40
1.0
 40
1.0
 40
1.0
 40
1.0
 10
114.7172058287917
 20
162.5041321647696
 30
0.0
 10
114.6983869308292
 20
162.510007052922
 30
0.0
 10
114.6784094523369
 20
162.5116760460442
 30
0.0
 10
114.6586176982858
 20
162.5057226207201
 30
0.0
  0
SPLINE
  5
F0
330
1F
100
AcDbEntity
  8
0
  6
Continuous
 62
     7
370
    15
100
AcDbSpline
210
0.0
220
0.0
230
1.0
 70
     8
 71
     3
 72
     8
 73
     4
 74
     0
 42
0.00000001
 43
0.00000001
 12
1.0
 22
0.0
 32
0.0
 13
1.0
 23
0.0
 33
0.0
 40
0.0
 40
0.0
 40
0.0
 40
0.0
 40
1.0
 40
1.0
 40
1.0
 40
1.0
 10
114.7208880414542
 20
162.4170086074172
 30
0.0
 10
114.7248743959619
 20
162.4467906678308
 30
0.0
 10
114.7233108110121
 20
162.4765123059607
 30
0.0
 10
114.7172058287919
 20
162.5041321647708
 30
0.0
  0
ARC
  5
F1
330
1F
100
AcDbEntity
  8
0
  6
Continuous
 62
     7
370
    15
100
AcDbCircle
 10
65.7386854358
 20
171.8923773592
 30
0.0
 40
11.99999999999948
100
AcDbArc
 50
163.6237757499
 51
204.0
  0
SPLINE
  5
F2
330
1F
100
AcDbEntity
  8
0
  6
Continuous
 62
     7
370
    15
100
AcDbSpline
210
0.0
220
0.0
230
1.0
 70
     8
 71
     3
 72
     8
 73
     4
 74
     0
 42
0.00000001
 43
0.00000001
 12
1.0
 22
0.0
 32
0.0
 13
1.0
 23
0.0
 33
0.0
 40
0.0
 40
0.0
 40
0.0
 40
0.0
 40
1.0
 40
1.0
 40
1.0
 40
1.0
 10
54.2643130021304
 20
175.3537912070129
 30
0.0
 10
54.24761412056087
 20
175.3311943025736
 30
0.0
 10
54.23397220675481
 20
175.3044842970574
 30
0.0
 10
54.22551279022585
 20
175.2756975677573
 30
0.0
  0
SPLINE
  5
F3
330
1F
100
AcDbEntity
  8
0
  6
Continuous
 62
     7
370
    15
100
AcDbSpline
210
0.0
220
0.0
230
1.0
 70
     8
 71
     3
 72
     8
 73
     4
 74
     0
 42
0.00000001
 43
0.00000001
 12
1.0
 22
0.0
 32
0.0
 13
1.0
 23
0.0
 33
0.0
 40
0.0
 40
0.0
 40
0.0
 40
0.0
 40
1.0
 40
1.0
 40
1.0
 40
1.0
 10
54.31848281933973
 20
175.3314142212948
 30
0.0
 10
54.30273982225058
 20
175.3449751679358
 30
0.0
 10
54.28408405712879
 20
175.3514817009028
 30
0.0
 10
54.26431300213002
 20
175.353791207011
 30
0.0
  0
SPLINE
  5
F4
330
1F
100
AcDbEntity
  8
0
  6
Continuous
 62
     7
370
    15
100
AcDbSpline
210
0.0
220
0.0
230
1.0
 70
     8
 71
     3
 72
     8
 73
     4
 74
     0
 42
0.00000001
 43
0.00000001
 12
1.0
 22
0.0
 32
0.0
 13
1.0
 23
0.0
 33
0.0
 40
0.0001085338104882
 40
0.0001085338104882
 40
0.0001085338104882
 40
0.0001085338104882
 40
0.0003707418624266
 40
0.0003707418624266
 40
0.0003707418624266
 40
0.0003707418624266
 10
54.31848281933973
 20
175.3314142212948
 30
0.0
 10
54.36737135524601
 20
175.2893018571095
 30
0.0
 10
54.41633324046694
 20
175.2472338604613
 30
0.0
 10
54.4653705536771
 20
175.2052117300788
 30
0.0
  0
SPLINE
  5
F5
330
1F
100
AcDbEntity
  8
0
  6
Continuous
 62
     7
370
    15
100
AcDbSpline
210
0.0
220
0.0
230
1.0
 70
     8
 71
     3
 72
     8
 73
     4
 74
     0
 42
0.00000001
 43
0.00000001
 12
1.0
 22
0.0
 32
0.0
 13
1.0
 23
0.0
 33
0.0
 40
0.0001085338104882
 40
0.0001085338104882
 40
0.0001085338104882
 40
0.0001085338104882
 40
0.0003707418624266
 40
0.0003707418624266
 40
0.0003707418624266
 40
0.0003707418624266
 10
113.1409064741865
 20
164.1913117001015
 30
0.0
 10
113.1159626242366
 20
164.1318025032492
 30
0.0
 10
113.0910836365068
 20
164.0722372573761
 30
0.0
 10
113.0662715787183
 20
164.0126144486779
 30
0.0
  0
ARC
  5
F6
330
1F
100
AcDbEntity
  8
0
  6
Continuous
 62
     7
370
    15
100
AcDbCircle
 10
76.0631767956
 20
129.2803027423
 30
0.0
 40
50.92677669529665
100
AcDbArc
 50
40.7239708372
 51
43.2760291628
  0
ARC
  5
F7
330
1F
100
AcDbEntity
  8
0
  6
Continuous
 62
     7
370
    15
100
AcDbCircle
 10
76.0631767956
 20
129.2803027423
 30
0.0
 40
50.92677669529665
100
AcDbArc
 50
112.7239708372
 51
115.2760291628
  0
SPLINE
  5
F8
330
1F
100
AcDbEntity
  8
0
  6
Continuous
 62
     7
370
    15
100
AcDbSpline
210
0.0
220
0.0
230
1.0
 70
     8
 71
     3
 72
     8
 73
     4
 74
     0
 42
0.00000001
 43
0.00000001
 12
1.0
 22
0.0
 32
0.0
 13
1.0
 23
0.0
 33
0.0
 40
0.0001085338104882
 40
0.0001085338104882
 40
0.0001085338104882
 40
0.0001085338104882
 40
0.0003707418624266
 40
0.0003707418624266
 40
0.0003707418624266
 40
0.0003707418624266
 10
56.3905718578816
 20
176.2539676997669
 30
0.0
 10
56.38915462773951
 20
176.1894577655006
 30
0.0
 10
56.38765534582046
 20
176.1249230097475
 30
0.0
 10
56.3860715074473
 20
176.0603628905967
 30
0.0
  0
LINE
  5
F9
330
1F
100
AcDbEntity
  8
0
  6
Continuous
 62
     7
370
    15
100
AcDbLine
 10
105.5369397548
 20
160.9992832632
 30
0.0
 11
105.3696574566
 21
161.185070941
 31
0.0
  0
ARC
  5
FA
330
1F
100
AcDbEntity
  8
0
  6
Continuous
 62
     7
370
    15
100
AcDbCircle
 10
113.3992247444
 20
152.2673327497
 30
0.0
 40
11.99999999999998
100
AcDbArc
 50
91.6237757499
 51
132.0
  0
SPLINE
  5
FB
330
1F
100
AcDbEntity
  8
0
  6
Continuous
 62
     7
370
    15
100
AcDbSpline
210
0.0
220
0.0
230
1.0
 70
     8
 71
     3
 72
     8
 73
     4
 74
     0
 42
0.00000001
 43
0.00000001
 12
1.0
 22
0.0
 32
0.0
 13
1.0
 23
0.0
 33
0.0
 40
0.0
 40
0.0
 40
0.0
 40
0.0
 40
1.0
 40
1.0
 40
1.0
 40
1.0
 10
113.1454488581689
 20
164.2497451266148
 30
0.0
 10
113.1187976867617
 20
164.2586438792543
 30
0.0
 10
113.0891793787634
 20
164.2633642646499
 30
0.0
 10
113.0591874688098
 20
164.2625140592976
 30
0.0
  0
SPLINE
  5
FC
330
1F
100
AcDbEntity
  8
0
  6
Continuous
 62
     7
370
    15
100
AcDbSpline
210
0.0
220
0.0
230
1.0
 70
     8
 71
     3
 72
     8
 73
     4
 74
     0
 42
0.00000001
 43
0.00000001
 12
1.0
 22
0.0
 32
0.0
 13
1.0
 23
0.0
 33
0.0
 40
0.0
 40
0.0
 40
0.0
 40
0.0
 40
1.0
 40
1.0
 40
1.0
 40
1.0
 10
113.1409064741865
 20
164.1913117001015
 30
0.0
 10
113.1489388472137
 20
164.2104747430411
 30
0.0
 10
113.1493619793247
 20
164.2302280592879
 30
0.0
 10
113.145448858167
 20
164.2497451266145
 30
0.0
  0
ARC
  5
FD
330
1F
100
AcDbEntity
  8
0
  6
Continuous
 62
     7
370
    15
100
AcDbCircle
 10
51.304667205
 20
165.4659383987
 30
0.0
 40
12.0
100
AcDbArc
 50
24.0
 51
64.3762242501
  0
LINE
  5
FE
330
1F
100
AcDbEntity
  8
0
  6
Continuous
 62
     7
370
    15
100
AcDbLine
 10
62.2672123757
 20
170.3467779549
 30
0.0
 11
62.0388260034
 21
170.2450924309
 31
0.0
  0
SPLINE
  5
FF
330
1F
100
AcDbEntity
  8
0
  6
Continuous
 62
     7
370
    15
100
AcDbSpline
210
0.0
220
0.0
230
1.0
 70
     8
 71
     3
 72
     8
 73
     4
 74
     0
 42
0.00000001
 43
0.00000001
 12
1.0
 22
0.0
 32
0.0
 13
1.0
 23
0.0
 33
0.0
 40
0.0
 40
0.0
 40
0.0
 40
0.0
 40
1.0
 40
1.0
 40
1.0
 40
1.0
 10
56.41018919937218
 20
176.3091968451446
 30
0.0
 10
56.39878648942648
 20
176.2931144498871
 30
0.0
 10
56.39102580228317
 20
176.2746304860261
 30
0.0
 10
56.3905718578816
 20
176.2539676997669
 30
0.0
  0
SPLINE
  5
100
330
1F
100
AcDbEntity
  8
0
  6
Continuous
 62
     7
370
    15
100
AcDbSpline
210
0.0
220
0.0
230
1.0
 70
     8
 71
     3
 72
     8
 73
     4
 74
     0
 42
0.00000001
 43
0.00000001
 12
1.0
 22
0.0
 32
0.0
 13
1.0
 23
0.0
 33
0.0
 40
0.0
 40
0.0
 40
0.0
 40
0.0
 40
1.0
 40
1.0
 40
1.0
 40
1.0
 10
56.49418649260467
 20
176.2857761776594
 30
0.0
 10
56.46709392126807
 20
176.2987705888855
 30
0.0
 10
56.43834378932801
 20
176.306468022513
 30
0.0
 10
56.4101891993711
 20
176.3091968451452
 30
0.0
  0
LINE
  5
101
330
1F
100
AcDbEntity
  8
0
  6
Continuous
 62
     7
370
    15
100
AcDbLine
 10
103.2072605488
 20
158.9016319008
 30
0.0
 11
103.0399782506
 21
159.0874177159
 31
0.0
  0
LINE
  5
102
330
1F
100
AcDbEntity
  8
0
  6
Continuous
 62
     7
370
    15
100
AcDbLine
 10
103.0399782506
 20
159.0874177159
 30
0.0
 11
105.3696574566
 21
161.185070941
 31
0.0
  0
LINE
  5
103
330
1F
100
AcDbEntity
  8
0
  6
Continuous
 62
     7
370
    15
100
AcDbLine
 10
62.2672123757
 20
170.3467779549
 30
0.0
 11
63.5422879753
 21
167.4829126091
 31
0.0
  0
LINE
  5
104
330
1F
100
AcDbEntity
  8
0
  6
Continuous
 62
     7
370
    15
100
AcDbLine
 10
63.5422879753
 20
167.4829126091
 30
0.0
 11
63.313901603
 21
167.3812270852
 31
0.0
  0
LINE
  5
105
330
1F
100
AcDbEntity
  8
0
  6
Continuous
 62
     7
370
    15
100
AcDbLine
 10
99.6007865218
 20
158.7937474938
 30
0.0
 11
99.7566638437
 21
158.9892004372
 31
0.0
  0
ARC
  5
106
330
1F
100
AcDbEntity
  8
0
  6
Continuous
 62
     7
370
    15
100
AcDbCircle
 10
101.3403870617
 20
160.9750064191
 30
0.0
 40
2.53999999999999
100
AcDbArc
 50
231.4268835638
 51
312.0
  0
ARC
  5
107
330
1F
100
AcDbEntity
  8
0
  6
Continuous
 62
     7
370
    15
100
AcDbCircle
 10
65.8626935518
 20
168.5160229675
 30
0.0
 40
2.540000000000007
100
AcDbArc
 50
204.0
 51
284.5731164362
  0
LINE
  5
108
330
1F
100
AcDbEntity
  8
0
  6
Continuous
 62
     7
370
    15
100
AcDbLine
 10
66.5017964241
 20
166.0577432008
 30
0.0
 11
66.5646998135
 21
165.8157855959
 31
0.0
  0
LINE
  5
109
330
1F
100
AcDbEntity
  8
0
  6
Continuous
 62
     7
370
    15
100
AcDbLine
 10
96.8586096463
 20
160.7860550971
 30
0.0
 11
96.9963280407
 21
160.9947048815
 31
0.0
  0
ARC
  5
10A
330
1F
100
AcDbEntity
  8
0
  6
Continuous
 62
     7
370
    15
100
AcDbCircle
 10
76.0631767956
 20
129.2803027423
 30
0.0
 40
38.00000000000002
100
AcDbArc
 50
51.4268835638
 51
56.5731164362
  0
ARC
  5
10B
330
1F
100
AcDbEntity
  8
0
  6
Continuous
 62
     7
370
    15
100
AcDbCircle
 10
76.0631767956
 20
129.2803027423
 30
0.0
 40
38.00000000000002
100
AcDbArc
 50
99.4268835638
 51
104.5731164362
  0
LINE
  5
10C
330
1F
100
AcDbEntity
  8
0
  6
Continuous
 62
     7
370
    15
100
AcDbLine
 10
69.8392006492
 20
166.7671278806
 30
0.0
 11
69.8801476431
 21
166.5205062123
 31
0.0
  0
CIRCLE
  5
10D
330
1F
100
AcDbEntity
  8
0
  6
Continuous
 62
     7
370
    15
100
AcDbCircle
 10
76.0631767956
 20
129.2803027423
 30
0.0
 40
10.0
  0
SPLINE
  5
10E
330
1F
100
AcDbEntity
  8
0
  6
Continuous
 62
     7
370
    15
100
AcDbSpline
210
0.0
220
0.0
230
1.0
 70
     8
 71
     3
 72
     8
 73
     4
 74
     0
 42
0.00000001
 43
0.00000001
 12
1.0
 22
0.0
 32
0.0
 13
1.0
 23
0.0
 33
0.0
 40
0.0001085338104882
 40
0.0001085338104882
 40
0.0001085338104882
 40
0.0001085338104882
 40
0.0003707418624266
 40
0.0003707418624266
 40
0.0003707418624266
 40
0.0003707418624266
 10
66.5868395808025
 20
79.2429605110622
 30
0.0
 10
66.57204095103145
 20
79.30576608977324
 30
0.0
 10
66.55715690183438
 20
79.36857888803824
 30
0.0
 10
66.54218487059767
 20
79.43139891517458
 30
0.0
  0
ARC
  5
10F
330
1F
100
AcDbEntity
  8
0
  6
Continuous
 62
     7
370
    15
100
AcDbCircle
 10
76.0631767956
 20
129.2803027423
 30
0.0
 40
50.92677669529665
100
AcDbArc
 50
256.7239708372
 51
259.2760291628
  0
SPLINE
  5
110
330
1F
100
AcDbEntity
  8
0
  6
Continuous
 62
     7
370
    15
100
AcDbSpline
210
0.0
220
0.0
230
1.0
 70
     8
 71
     3
 72
     8
 73
     4
 74
     0
 42
0.00000001
 43
0.00000001
 12
1.0
 22
0.0
 32
0.0
 13
1.0
 23
0.0
 33
0.0
 40
0.0001085338104882
 40
0.0001085338104882
 40
0.0001085338104882
 40
0.0001085338104882
 40
0.0003707418624266
 40
0.0003707418624266
 40
0.0003707418624266
 40
0.0003707418624266
 10
64.36822100566692
 20
79.71454244705029
 30
0.0
 10
64.40728555692498
 20
79.76589905320118
 30
0.0
 10
64.44643107916879
 20
79.81722751153218
 30
0.0
 10
64.48565991725215
 20
79.86852678824633
 30
0.0
  0
LINE
  5
111
330
1F
100
AcDbEntity
  8
0
  6
Continuous
 62
     7
370
    15
100
AcDbLine
 10
70.862351164
 20
86.2948634417
 30
0.0
 11
71.1068880667
 21
86.2428844662
 31
0.0
  0
ARC
  5
112
330
1F
100
AcDbEntity
  8
0
  6
Continuous
 62
     7
370
    15
100
AcDbCircle
 10
59.3691167345
 20
88.7378264529
 30
0.0
 40
11.99999999999999
100
AcDbArc
 50
307.6237757499
 51
348.0
  0
SPLINE
  5
113
330
1F
100
AcDbEntity
  8
0
  6
Continuous
 62
     7
370
    15
100
AcDbSpline
210
0.0
220
0.0
230
1.0
 70
     8
 71
     3
 72
     8
 73
     4
 74
     0
 42
0.00000001
 43
0.00000001
 12
1.0
 22
0.0
 32
0.0
 13
1.0
 23
0.0
 33
0.0
 40
0.0
 40
0.0
 40
0.0
 40
0.0
 40
1.0
 40
1.0
 40
1.0
 40
1.0
 10
66.61751102131112
 20
79.1930169296583
 30
0.0
 10
66.64430282746488
 20
79.2014828530537
 30
0.0
 10
66.67103911490085
 20
79.21507318568791
 30
0.0
 10
66.69480334157957
 20
79.23338981862538
 30
0.0
  0
SPLINE
  5
114
330
1F
100
AcDbEntity
  8
0
  6
Continuous
 62
     7
370
    15
100
AcDbSpline
210
0.0
220
0.0
230
1.0
 70
     8
 71
     3
 72
     8
 73
     4
 74
     0
 42
0.00000001
 43
0.00000001
 12
1.0
 22
0.0
 32
0.0
 13
1.0
 23
0.0
 33
0.0
 40
0.0
 40
0.0
 40
0.0
 40
0.0
 40
1.0
 40
1.0
 40
1.0
 40
1.0
 10
66.5868395808025
 20
79.2429605110622
 30
0.0
 10
66.59160500854728
 20
79.22273597325388
 30
0.0
 10
66.60287339545235
 20
79.20650649390035
 30
0.0
 10
66.61751102131258
 20
79.19301692965965
 30
0.0
  0
ARC
  5
115
330
1F
100
AcDbEntity
  8
0
  6
Continuous
 62
     7
370
    15
100
AcDbCircle
 10
74.8238488261
 20
85.452821738
 30
0.0
 40
12.00000000000002
100
AcDbArc
 50
168.0
 51
208.3762242501
  0
LINE
  5
116
330
1F
100
AcDbEntity
  8
0
  6
Continuous
 62
     7
370
    15
100
AcDbLine
 10
63.0860777495
 20
87.9477635713
 30
0.0
 11
63.3306141866
 21
87.8957845958
 31
0.0
  0
SPLINE
  5
117
330
1F
100
AcDbEntity
  8
0
  6
Continuous
 62
     7
370
    15
100
AcDbSpline
210
0.0
220
0.0
230
1.0
 70
     8
 71
     3
 72
     8
 73
     4
 74
     0
 42
0.00000001
 43
0.00000001
 12
1.0
 22
0.0
 32
0.0
 13
1.0
 23
0.0
 33
0.0
 40
0.0
 40
0.0
 40
0.0
 40
0.0
 40
1.0
 40
1.0
 40
1.0
 40
1.0
 10
64.31988736586689
 20
79.68139191387228
 30
0.0
 10
64.33856534674881
 20
79.68770050020365
 30
0.0
 10
64.35570847589719
 20
79.69809272364014
 30
0.0
 10
64.36822100566692
 20
79.71454244705029
 30
0.0
  0
SPLINE
  5
118
330
1F
100
AcDbEntity
  8
0
  6
Continuous
 62
     7
370
    15
100
AcDbSpline
210
0.0
220
0.0
230
1.0
 70
     8
 71
     3
 72
     8
 73
     4
 74
     0
 42
0.00000001
 43
0.00000001
 12
1.0
 22
0.0
 32
0.0
 13
1.0
 23
0.0
 33
0.0
 40
0.0
 40
0.0
 40
0.0
 40
0.0
 40
1.0
 40
1.0
 40
1.0
 40
1.0
 10
64.265698451107
 20
79.74971200208203
 30
0.0
 10
64.27997887845865
 20
79.72327468868984
 30
0.0
 10
64.29871378582196
 20
79.7001484305163
 30
0.0
 10
64.31988736586744
 20
79.68139191387122
 30
0.0
  0
LINE
  5
119
330
1F
100
AcDbEntity
  8
0
  6
Continuous
 62
     7
370
    15
100
AcDbLine
 10
71.5141316799
 20
89.3612504692
 30
0.0
 11
71.7586685826
 21
89.3092714937
 31
0.0
  0
LINE
  5
11A
330
1F
100
AcDbEntity
  8
0
  6
Continuous
 62
     7
370
    15
100
AcDbLine
 10
71.7586685826
 20
89.3092714937
 30
0.0
 11
71.1068880667
 21
86.2428844662
 31
0.0
  0
LINE
  5
11B
330
1F
100
AcDbEntity
  8
0
  6
Continuous
 62
     7
370
    15
100
AcDbLine
 10
63.0860777495
 20
87.9477635713
 30
0.0
 11
63.7378582654
 21
91.0141505988
 31
0.0
  0
LINE
  5
11C
330
1F
100
AcDbEntity
  8
0
  6
Continuous
 62
     7
370
    15
100
AcDbLine
 10
63.7378582654
 20
91.0141505988
 30
0.0
 11
63.9823956338
 21
90.9621716233
 31
0.0
  0
LINE
  5
11D
330
1F
100
AcDbEntity
  8
0
  6
Continuous
 62
     7
370
    15
100
AcDbLine
 10
74.3684184893
 20
91.5683657618
 30
0.0
 11
74.3571948881
 21
91.3186148496
 31
0.0
  0
ARC
  5
11E
330
1F
100
AcDbEntity
  8
0
  6
Continuous
 62
     7
370
    15
100
AcDbCircle
 10
74.2431635169
 20
88.7811774225
 30
0.0
 40
2.540000000000005
100
AcDbArc
 50
87.4268835638
 51
168.0
  0
ARC
  5
11F
330
1F
100
AcDbEntity
  8
0
  6
Continuous
 62
     7
370
    15
100
AcDbCircle
 10
61.2533633791
 20
91.5422446766
 30
0.0
 40
2.540000000000008
100
AcDbArc
 50
348.0
 51
68.5731164362
  0
LINE
  5
120
330
1F
100
AcDbEntity
  8
0
  6
Continuous
 62
     7
370
    15
100
AcDbLine
 10
62.181259684
 20
93.9066895039
 30
0.0
 11
62.2725879696
 21
94.1394121142
 31
0.0
  0
LINE
  5
121
330
1F
100
AcDbEntity
  8
0
  6
Continuous
 62
     7
370
    15
100
AcDbLine
 10
77.7579351018
 20
91.5683657618
 30
0.0
 11
77.769158703
 21
91.3186148496
 31
0.0
  0
ARC
  5
122
330
1F
100
AcDbEntity
  8
0
  6
Continuous
 62
     7
370
    15
100
AcDbCircle
 10
76.0631767956
 20
129.2803027423
 30
0.0
 40
37.99999999999998
100
AcDbArc
 50
267.4268835638
 51
272.5731164362
  0
ARC
  5
123
330
1F
100
AcDbEntity
  8
0
  6
Continuous
 62
     7
370
    15
100
AcDbCircle
 10
76.0631767956
 20
129.2803027423
 30
0.0
 40
37.99999999999998
100
AcDbArc
 50
243.4268835638
 51
248.5731164362
  0
LINE
  5
124
330
1F
100
AcDbEntity
  8
0
  6
Continuous
 62
     7
370
    15
100
AcDbLine
 10
59.064276695
 20
95.294460723
 30
0.0
 11
59.1761117724
 21
95.5180526467
 31
0.0
  0
LINE
  5
125
330
1F
100
AcDbEntity
  8
0
  6
Continuous
 62
     7
370
    15
100
AcDbLine
 10
80.6122219113
 20
89.3612504692
 30
0.0
 11
80.3676850085
 21
89.3092714937
 31
0.0
  0
ARC
  5
126
330
1F
100
AcDbEntity
  8
0
  6
Continuous
 62
     7
370
    15
100
AcDbCircle
 10
77.8831900743
 20
88.7811774225
 30
0.0
 40
2.540000000000022
100
AcDbArc
 50
12.0
 51
92.5731164362
  0
ARC
  5
127
330
1F
100
AcDbEntity
  8
0
  6
Continuous
 62
     7
370
    15
100
AcDbCircle
 10
57.9280336519
 20
93.0227768593
 30
0.0
 40
2.540000000000014
100
AcDbArc
 50
63.4268835638
 51
144.0
  0
LINE
  5
128
330
1F
100
AcDbEntity
  8
0
  6
Continuous
 62
     7
370
    15
100
AcDbLine
 10
55.8731296954
 20
94.515752116
 30
0.0
 11
55.6708762345
 21
94.6626961918
 31
0.0
  0
LINE
  5
129
330
1F
100
AcDbEntity
  8
0
  6
Continuous
 62
     7
370
    15
100
AcDbLine
 10
81.2640024272
 20
86.2948634417
 30
0.0
 11
81.0194655244
 21
86.2428844662
 31
0.0
  0
LINE
  5
12A
330
1F
100
AcDbEntity
  8
0
  6
Continuous
 62
     7
370
    15
100
AcDbLine
 10
81.0194655244
 20
86.2428844662
 30
0.0
 11
80.3676850085
 21
89.3092714937
 31
0.0
  0
LINE
  5
12B
330
1F
100
AcDbEntity
  8
0
  6
Continuous
 62
     7
370
    15
100
AcDbLine
 10
55.8731296954
 20
94.515752116
 30
0.0
 11
54.0304874924
 21
91.9795707555
 31
0.0
  0
LINE
  5
12C
330
1F
100
AcDbEntity
  8
0
  6
Continuous
 62
     7
370
    15
100
AcDbLine
 10
54.0304874924
 20
91.9795707555
 30
0.0
 11
53.8282321689
 21
92.1265185566
 31
0.0
  0
ARC
  5
12D
330
1F
100
AcDbEntity
  8
0
  6
Continuous
 62
     7
370
    15
100
AcDbCircle
 10
92.7572368567
 20
88.7378264529
 30
0.0
 40
12.0
100
AcDbArc
 50
192.0
 51
232.3762242501
  0
SPLINE
  5
12E
330
1F
100
AcDbEntity
  8
0
  6
Continuous
 62
     7
370
    15
100
AcDbSpline
210
0.0
220
0.0
230
1.0
 70
     8
 71
     3
 72
     8
 73
     4
 74
     0
 42
0.00000001
 43
0.00000001
 12
1.0
 22
0.0
 32
0.0
 13
1.0
 23
0.0
 33
0.0
 40
0.0001085338104882
 40
0.0001085338104882
 40
0.0001085338104882
 40
0.0001085338104882
 40
0.0003707418624266
 40
0.0003707418624266
 40
0.0003707418624266
 40
0.0003707418624266
 10
85.53951401035715
 20
79.24296051106207
 30
0.0
 10
85.55431264012819
 20
79.30576608977312
 30
0.0
 10
85.56919668932528
 20
79.36857888803812
 30
0.0
 10
85.58416872056199
 20
79.43139891517446
 30
0.0
  0
SPLINE
  5
12F
330
1F
100
AcDbEntity
  8
0
  6
Continuous
 62
     7
370
    15
100
AcDbSpline
210
0.0
220
0.0
230
1.0
 70
     8
 71
     3
 72
     8
 73
     4
 74
     0
 42
0.00000001
 43
0.00000001
 12
1.0
 22
0.0
 32
0.0
 13
1.0
 23
0.0
 33
0.0
 40
0.0
 40
0.0
 40
0.0
 40
0.0
 40
1.0
 40
1.0
 40
1.0
 40
1.0
 10
85.50884256984747
 20
79.19301692965897
 30
0.0
 10
85.52333982121311
 20
79.20637712928949
 30
0.0
 10
85.53477395090175
 20
79.22284363660631
 30
0.0
 10
85.53951401035715
 20
79.24296051106207
 30
0.0
  0
SPLINE
  5
130
330
1F
100
AcDbEntity
  8
0
  6
Continuous
 62
     7
370
    15
100
AcDbSpline
210
0.0
220
0.0
230
1.0
 70
     8
 71
     3
 72
     8
 73
     4
 74
     0
 42
0.00000001
 43
0.00000001
 12
1.0
 22
0.0
 32
0.0
 13
1.0
 23
0.0
 33
0.0
 40
0.0
 40
0.0
 40
0.0
 40
0.0
 40
1.0
 40
1.0
 40
1.0
 40
1.0
 10
85.43155024958094
 20
79.23338981862736
 30
0.0
 10
85.45534909322232
 20
79.21504650414838
 30
0.0
 10
85.48187057935982
 20
79.20153978937091
 30
0.0
 10
85.50884256984841
 20
79.19301692965823
 30
0.0
  0
ARC
  5
131
330
1F
100
AcDbEntity
  8
0
  6
Continuous
 62
     7
370
    15
100
AcDbCircle
 10
44.3222833492
 20
99.0329936351
 30
0.0
 40
11.99999999999996
100
AcDbArc
 50
283.6237757499
 51
324.0
  0
SPLINE
  5
132
330
1F
100
AcDbEntity
  8
0
  6
Continuous
 62
     7
370
    15
100
AcDbSpline
210
0.0
220
0.0
230
1.0
 70
     8
 71
     3
 72
     8
 73
     4
 74
     0
 42
0.00000001
 43
0.00000001
 12
1.0
 22
0.0
 32
0.0
 13
1.0
 23
0.0
 33
0.0
 40
0.0
 40
0.0
 40
0.0
 40
0.0
 40
1.0
 40
1.0
 40
1.0
 40
1.0
 10
47.06179724088086
 20
87.36518869115531
 30
0.0
 10
47.08971617495707
 20
87.36202548772101
 30
0.0
 10
47.11966867517233
 20
87.36356624656682
 30
0.0
 10
47.14882842230252
 20
87.37063354160158
 30
0.0
  0
SPLINE
  5
133
330
1F
100
AcDbEntity
  8
0
  6
Continuous
 62
     7
370
    15
100
AcDbSpline
210
0.0
220
0.0
230
1.0
 70
     8
 71
     3
 72
     8
 73
     4
 74
     0
 42
0.00000001
 43
0.00000001
 12
1.0
 22
0.0
 32
0.0
 13
1.0
 23
0.0
 33
0.0
 40
0.0
 40
0.0
 40
0.0
 40
0.0
 40
1.0
 40
1.0
 40
1.0
 40
1.0
 10
47.05409137036827
 20
87.42328962183603
 30
0.0
 10
47.05021874462231
 20
87.40287531310459
 30
0.0
 10
47.05391180434327
 20
87.38346568009861
 30
0.0
 10
47.06179724088273
 20
87.36518869115595
 30
0.0
  0
SPLINE
  5
134
330
1F
100
AcDbEntity
  8
0
  6
Continuous
 62
     7
370
    15
100
AcDbSpline
210
0.0
220
0.0
230
1.0
 70
     8
 71
     3
 72
     8
 73
     4
 74
     0
 42
0.00000001
 43
0.00000001
 12
1.0
 22
0.0
 32
0.0
 13
1.0
 23
0.0
 33
0.0
 40
0.0001085338104882
 40
0.0001085338104882
 40
0.0001085338104882
 40
0.0001085338104882
 40
0.0003707418624266
 40
0.0003707418624266
 40
0.0003707418624266
 40
0.0003707418624266
 10
47.05409137036827
 20
87.42328962183603
 30
0.0
 10
47.06611747961296
 20
87.48668451797731
 30
0.0
 10
47.07806849078616
 20
87.55012075271992
 30
0.0
 10
47.08994206661355
 20
87.61359937688455
 30
0.0
  0
SPLINE
  5
135
330
1F
100
AcDbEntity
  8
0
  6
Continuous
 62
     7
370
    15
100
AcDbSpline
210
0.0
220
0.0
230
1.0
 70
     8
 71
     3
 72
     8
 73
     4
 74
     0
 42
0.00000001
 43
0.00000001
 12
1.0
 22
0.0
 32
0.0
 13
1.0
 23
0.0
 33
0.0
 40
0.0001085338104882
 40
0.0001085338104882
 40
0.0001085338104882
 40
0.0001085338104882
 40
0.0003707418624265
 40
0.0003707418624265
 40
0.0003707418624265
 40
0.0003707418624265
 10
87.75813258549275
 20
79.71454244705012
 30
0.0
 10
87.7190680342347
 20
79.76589905320103
 30
0.0
 10
87.67992251199087
 20
79.81722751153202
 30
0.0
 10
87.64069367390753
 20
79.86852678824619
 30
0.0
  0
ARC
  5
136
330
1F
100
AcDbEntity
  8
0
  6
Continuous
 62
     7
370
    15
100
AcDbCircle
 10
76.0631767956
 20
129.2803027423
 30
0.0
 40
50.92677669529662
100
AcDbArc
 50
280.7239708372
 51
283.2760291628
  0
ARC
  5
137
330
1F
100
AcDbEntity
  8
0
  6
Continuous
 62
     7
370
    15
100
AcDbCircle
 10
76.0631767956
 20
129.2803027423
 30
0.0
 40
50.92677669529662
100
AcDbArc
 50
232.7239708372
 51
235.2760291628
  0
SPLINE
  5
138
330
1F
100
AcDbEntity
  8
0
  6
Continuous
 62
     7
370
    15
100
AcDbSpline
210
0.0
220
0.0
230
1.0
 70
     8
 71
     3
 72
     8
 73
     4
 74
     0
 42
0.00000001
 43
0.00000001
 12
1.0
 22
0.0
 32
0.0
 13
1.0
 23
0.0
 33
0.0
 40
0.0001085338104882
 40
0.0001085338104882
 40
0.0001085338104882
 40
0.0001085338104882
 40
0.0003707418624266
 40
0.0003707418624266
 40
0.0003707418624266
 40
0.0003707418624266
 10
45.21909210239064
 20
88.75649462888049
 30
0.0
 10
45.27566795933285
 20
88.78752223870764
 30
0.0
 10
45.33230633820155
 20
88.81849120035481
 30
0.0
 10
45.38900896064411
 20
88.8493996156636
 30
0.0
  0
LINE
  5
139
330
1F
100
AcDbEntity
  8
0
  6
Continuous
 62
     7
370
    15
100
AcDbLine
 10
88.7957394046
 20
87.8957845958
 30
0.0
 11
89.0402758417
 21
87.9477635713
 31
0.0
  0
ARC
  5
13A
330
1F
100
AcDbEntity
  8
0
  6
Continuous
 62
     7
370
    15
100
AcDbCircle
 10
77.3025047651
 20
85.452821738
 30
0.0
 40
11.99999999999998
100
AcDbArc
 50
331.6237757499
 51
12.0
  0
SPLINE
  5
13B
330
1F
100
AcDbEntity
  8
0
  6
Continuous
 62
     7
370
    15
100
AcDbSpline
210
0.0
220
0.0
230
1.0
 70
     8
 71
     3
 72
     8
 73
     4
 74
     0
 42
0.00000001
 43
0.00000001
 12
1.0
 22
0.0
 32
0.0
 13
1.0
 23
0.0
 33
0.0
 40
0.0
 40
0.0
 40
0.0
 40
0.0
 40
1.0
 40
1.0
 40
1.0
 40
1.0
 10
87.80646622529214
 20
79.68139191387095
 30
0.0
 10
87.82749835684359
 20
79.70002312903048
 30
0.0
 10
87.846395484511
 20
79.72331314347632
 30
0.0
 10
87.8606551400543
 20
79.74971200208026
 30
0.0
  0
SPLINE
  5
13C
330
1F
100
AcDbEntity
  8
0
  6
Continuous
 62
     7
370
    15
100
AcDbSpline
210
0.0
220
0.0
230
1.0
 70
     8
 71
     3
 72
     8
 73
     4
 74
     0
 42
0.00000001
 43
0.00000001
 12
1.0
 22
0.0
 32
0.0
 13
1.0
 23
0.0
 33
0.0
 40
0.0
 40
0.0
 40
0.0
 40
0.0
 40
1.0
 40
1.0
 40
1.0
 40
1.0
 10
87.75813258549275
 20
79.71454244705012
 30
0.0
 10
87.77071208097861
 20
79.69800468648613
 30
0.0
 10
87.78760738860183
 20
79.68776158520545
 30
0.0
 10
87.80646622529292
 20
79.68139191387277
 30
0.0
  0
ARC
  5
13D
330
1F
100
AcDbEntity
  8
0
  6
Continuous
 62
     7
370
    15
100
AcDbCircle
 10
57.1047518603
 20
89.7459866489
 30
0.0
 40
12.00000000000001
100
AcDbArc
 50
144.0
 51
184.3762242501
  0
LINE
  5
13E
330
1F
100
AcDbEntity
  8
0
  6
Continuous
 62
     7
370
    15
100
AcDbLine
 10
47.3965482709
 20
96.7994109483
 30
0.0
 11
47.5988017318
 21
96.6524631472
 31
0.0
  0
SPLINE
  5
13F
330
1F
100
AcDbEntity
  8
0
  6
Continuous
 62
     7
370
    15
100
AcDbSpline
210
0.0
220
0.0
230
1.0
 70
     8
 71
     3
 72
     8
 73
     4
 74
     0
 42
0.00000001
 43
0.00000001
 12
1.0
 22
0.0
 32
0.0
 13
1.0
 23
0.0
 33
0.0
 40
0.0
 40
0.0
 40
0.0
 40
0.0
 40
1.0
 40
1.0
 40
1.0
 40
1.0
 10
45.16145358871898
 20
88.74586917227721
 30
0.0
 10
45.18108270653858
 20
88.74403533342102
 30
0.0
 10
45.20097063237651
 20
88.74655636313462
 30
0.0
 10
45.21909210239065
 20
88.75649462888049
 30
0.0
  0
SPLINE
  5
140
330
1F
100
AcDbEntity
  8
0
  6
Continuous
 62
     7
370
    15
100
AcDbSpline
210
0.0
220
0.0
230
1.0
 70
     8
 71
     3
 72
     8
 73
     4
 74
     0
 42
0.00000001
 43
0.00000001
 12
1.0
 22
0.0
 32
0.0
 13
1.0
 23
0.0
 33
0.0
 40
0.0
 40
0.0
 40
0.0
 40
0.0
 40
1.0
 40
1.0
 40
1.0
 40
1.0
 10
45.13973783511857
 20
88.83032329580831
 30
0.0
 10
45.1420306305578
 20
88.80036323516391
 30
0.0
 10
45.14973952346248
 20
88.77161617372789
 30
0.0
 10
45.16145358871906
 20
88.745869172276
 30
0.0
  0
LINE
  5
141
330
1F
100
AcDbEntity
  8
0
  6
Continuous
 62
     7
370
    15
100
AcDbLine
 10
88.1439579574
 20
90.9621716233
 30
0.0
 11
88.3884953258
 21
91.0141505988
 31
0.0
  0
LINE
  5
142
330
1F
100
AcDbEntity
  8
0
  6
Continuous
 62
     7
370
    15
100
AcDbLine
 10
88.3884953258
 20
91.0141505988
 30
0.0
 11
89.0402758417
 21
87.9477635713
 31
0.0
  0
LINE
  5
143
330
1F
100
AcDbEntity
  8
0
  6
Continuous
 62
     7
370
    15
100
AcDbLine
 10
47.3965482709
 20
96.7994109483
 30
0.0
 11
49.2391904739
 21
99.3355904462
 31
0.0
  0
LINE
  5
144
330
1F
100
AcDbEntity
  8
0
  6
Continuous
 62
     7
370
    15
100
AcDbLine
 10
49.2391904739
 20
99.3355904462
 30
0.0
 11
49.4414457974
 21
99.1886445077
 31
0.0
  0
LINE
  5
145
330
1F
100
AcDbEntity
  8
0
  6
Continuous
 62
     7
370
    15
100
AcDbLine
 10
89.8537656215
 20
94.1394121142
 30
0.0
 11
89.9450939072
 21
93.9066895039
 31
0.0
  0
ARC
  5
146
330
1F
100
AcDbEntity
  8
0
  6
Continuous
 62
     7
370
    15
100
AcDbCircle
 10
90.872990212
 20
91.5422446766
 30
0.0
 40
2.539999999999999
100
AcDbArc
 50
111.4268835638
 51
192.0
  0
ARC
  5
147
330
1F
100
AcDbEntity
  8
0
  6
Continuous
 62
     7
370
    15
100
AcDbCircle
 10
47.1842879666
 20
100.8285650097
 30
0.0
 40
2.540000000000006
100
AcDbArc
 50
324.0
 51
44.5731164362
  0
LINE
  5
148
330
1F
100
AcDbEntity
  8
0
  6
Continuous
 62
     7
370
    15
100
AcDbLine
 10
48.9936714915
 20
102.6111841889
 30
0.0
 11
49.1717589942
 21
102.786639774
 31
0.0
  0
LINE
  5
149
330
1F
100
AcDbEntity
  8
0
  6
Continuous
 62
     7
370
    15
100
AcDbLine
 10
92.9502418188
 20
95.5180526467
 30
0.0
 11
93.0620768962
 21
95.294460723
 31
0.0
  0
ARC
  5
14A
330
1F
100
AcDbEntity
  8
0
  6
Continuous
 62
     7
370
    15
100
AcDbCircle
 10
76.0631767956
 20
129.2803027423
 30
0.0
 40
37.99999999999999
100
AcDbArc
 50
291.4268835638
 51
296.5731164362
  0
ARC
  5
14B
330
1F
100
AcDbEntity
  8
0
  6
Continuous
 62
     7
370
    15
100
AcDbCircle
 10
76.0631767956
 20
129.2803027423
 30
0.0
 40
37.99999999999999
100
AcDbArc
 50
219.4268835638
 51
224.5731164362
  0
LINE
  5
14C
330
1F
100
AcDbEntity
  8
0
  6
Continuous
 62
     7
370
    15
100
AcDbLine
 10
46.7106217441
 20
105.1467676403
 30
0.0
 11
46.9037296173
 21
105.3055413754
 31
0.0
  0
LINE
  5
14D
330
1F
100
AcDbEntity
  8
0
  6
Continuous
 62
     7
370
    15
100
AcDbLine
 10
96.4554773567
 20
94.6626961918
 30
0.0
 11
96.2532238958
 21
94.515752116
 31
0.0
  0
ARC
  5
14E
330
1F
100
AcDbEntity
  8
0
  6
Continuous
 62
     7
370
    15
100
AcDbCircle
 10
94.1983199393
 20
93.0227768593
 30
0.0
 40
2.540000000000014
100
AcDbArc
 50
36.0
 51
116.5731164362
  0
ARC
  5
14F
330
1F
100
AcDbEntity
  8
0
  6
Continuous
 62
     7
370
    15
100
AcDbCircle
 10
44.7486347891
 20
103.5336319104
 30
0.0
 40
2.540000000000008
100
AcDbArc
 50
39.4268835638
 51
120.0
  0
LINE
  5
150
330
1F
100
AcDbEntity
  8
0
  6
Continuous
 62
     7
370
    15
100
AcDbLine
 10
43.4786362496
 20
105.7333369495
 30
0.0
 11
43.3536341337
 21
105.9498433711
 31
0.0
  0
LINE
  5
151
330
1F
100
AcDbEntity
  8
0
  6
Continuous
 62
     7
370
    15
100
AcDbLine
 10
98.2981214223
 20
92.1265185566
 30
0.0
 11
98.0958660987
 21
91.9795707555
 31
0.0
  0
LINE
  5
152
330
1F
100
AcDbEntity
  8
0
  6
Continuous
 62
     7
370
    15
100
AcDbLine
 10
98.0958660987
 20
91.9795707555
 30
0.0
 11
96.2532238958
 21
94.515752116
 31
0.0
  0
LINE
  5
153
330
1F
100
AcDbEntity
  8
0
  6
Continuous
 62
     7
370
    15
100
AcDbLine
 10
43.4786362496
 20
105.7333369495
 30
0.0
 11
40.7637378124
 21
104.1658912541
 31
0.0
  0
LINE
  5
154
330
1F
100
AcDbEntity
  8
0
  6
Continuous
 62
     7
370
    15
100
AcDbLine
 10
40.7637378124
 20
104.1658912541
 30
0.0
 11
40.6387394217
 21
104.3823976757
 31
0.0
  0
ARC
  5
155
330
1F
100
AcDbEntity
  8
0
  6
Continuous
 62
     7
370
    15
100
AcDbCircle
 10
107.8040702419
 20
99.0329936351
 30
0.0
 40
11.99999999999999
100
AcDbArc
 50
216.0
 51
256.3762242501
  0
SPLINE
  5
156
330
1F
100
AcDbEntity
  8
0
  6
Continuous
 62
     7
370
    15
100
AcDbSpline
210
0.0
220
0.0
230
1.0
 70
     8
 71
     3
 72
     8
 73
     4
 74
     0
 42
0.00000001
 43
0.00000001
 12
1.0
 22
0.0
 32
0.0
 13
1.0
 23
0.0
 33
0.0
 40
0.0001085338104882
 40
0.0001085338104882
 40
0.0001085338104882
 40
0.0001085338104882
 40
0.0003707418624266
 40
0.0003707418624266
 40
0.0003707418624266
 40
0.0003707418624266
 10
105.0722622207915
 20
87.42328962183562
 30
0.0
 10
105.0602361115468
 20
87.48668451797693
 30
0.0
 10
105.0482851003736
 20
87.55012075271952
 30
0.0
 10
105.0364115245462
 20
87.61359937688415
 30
0.0
  0
SPLINE
  5
157
330
1F
100
AcDbEntity
  8
0
  6
Continuous
 62
     7
370
    15
100
AcDbSpline
210
0.0
220
0.0
230
1.0
 70
     8
 71
     3
 72
     8
 73
     4
 74
     0
 42
0.00000001
 43
0.00000001
 12
1.0
 22
0.0
 32
0.0
 13
1.0
 23
0.0
 33
0.0
 40
0.0
 40
0.0
 40
0.0
 40
0.0
 40
1.0
 40
1.0
 40
1.0
 40
1.0
 10
105.0645563502776
 20
87.3651886911552
 30
0.0
 10
105.0723661656625
 20
87.38329040419515
 30
0.0
 10
105.0761142309924
 20
87.40298398668372
 30
0.0
 10
105.0722622207915
 20
87.42328962183562
 30
0.0
  0
SPLINE
  5
158
330
1F
100
AcDbEntity
  8
0
  6
Continuous
 62
     7
370
    15
100
AcDbSpline
210
0.0
220
0.0
230
1.0
 70
     8
 71
     3
 72
     8
 73
     4
 74
     0
 42
0.00000001
 43
0.00000001
 12
1.0
 22
0.0
 32
0.0
 13
1.0
 23
0.0
 33
0.0
 40
0.0
 40
0.0
 40
0.0
 40
0.0
 40
1.0
 40
1.0
 40
1.0
 40
1.0
 10
104.9775251688572
 20
87.37063354160342
 30
0.0
 10
105.006727392517
 20
87.36355595175482
 30
0.0
 10
105.0364496515354
 20
87.36200421406316
 30
0.0
 10
105.0645563502788
 20
87.36518869115491
 30
0.0
  0
ARC
  5
159
330
1F
100
AcDbEntity
  8
0
  6
Continuous
 62
     7
370
    15
100
AcDbCircle
 10
34.7637387978
 20
114.5581953501
 30
0.0
 40
11.99999999999997
100
AcDbArc
 50
259.6237757499
 51
300.0
  0
SPLINE
  5
15A
330
1F
100
AcDbEntity
  8
0
  6
Continuous
 62
     7
370
    15
100
AcDbSpline
210
0.0
220
0.0
230
1.0
 70
     8
 71
     3
 72
     8
 73
     4
 74
     0
 42
0.00000001
 43
0.00000001
 12
1.0
 22
0.0
 32
0.0
 13
1.0
 23
0.0
 33
0.0
 40
0.0
 40
0.0
 40
0.0
 40
0.0
 40
1.0
 40
1.0
 40
1.0
 40
1.0
 10
32.52068545472013
 20
102.7848644589494
 30
0.0
 10
32.54490407938143
 20
102.770619075296
 30
0.0
 10
32.57289373297886
 20
102.7598438491516
 30
0.0
 10
32.6024070153737
 20
102.7544398067678
 30
0.0
  0
SPLINE
  5
15B
330
1F
100
AcDbEntity
  8
0
  6
Continuous
 62
     7
370
    15
100
AcDbSpline
210
0.0
220
0.0
230
1.0
 70
     8
 71
     3
 72
     8
 73
     4
 74
     0
 42
0.00000001
 43
0.00000001
 12
1.0
 22
0.0
 32
0.0
 13
1.0
 23
0.0
 33
0.0
 40
0.0
 40
0.0
 40
0.0
 40
0.0
 40
1.0
 40
1.0
 40
1.0
 40
1.0
 10
32.53727756922082
 20
102.8410765601619
 30
0.0
 10
32.52543650215731
 20
102.8240022999451
 30
0.0
 10
32.52091567111803
 20
102.8047686151644
 30
0.0
 10
32.52068545472211
 20
102.7848644589493
 30
0.0
  0
SPLINE
  5
15C
330
1F
100
AcDbEntity
  8
0
  6
Continuous
 62
     7
370
    15
100
AcDbSpline
210
0.0
220
0.0
230
1.0
 70
     8
 71
     3
 72
     8
 73
     4
 74
     0
 42
0.00000001
 43
0.00000001
 12
1.0
 22
0.0
 32
0.0
 13
1.0
 23
0.0
 33
0.0
 40
0.0001085338104882
 40
0.0001085338104882
 40
0.0001085338104882
 40
0.0001085338104882
 40
0.0003707418624266
 40
0.0003707418624266
 40
0.0003707418624266
 40
0.0003707418624266
 10
32.53727756922082
 20
102.8410765601619
 30
0.0
 10
32.57404899393907
 20
102.894099220266
 30
0.0
 10
32.61076862707915
 20
102.9471901901991
 30
0.0
 10
32.64743476084203
 20
103.0003513805888
 30
0.0
  0
SPLINE
  5
15D
330
1F
100
AcDbEntity
  8
0
  6
Continuous
 62
     7
370
    15
100
AcDbSpline
210
0.0
220
0.0
230
1.0
 70
     8
 71
     3
 72
     8
 73
     4
 74
     0
 42
0.00000001
 43
0.00000001
 12
1.0
 22
0.0
 32
0.0
 13
1.0
 23
0.0
 33
0.0
 40
0.0001085338104882
 40
0.0001085338104882
 40
0.0001085338104882
 40
0.0001085338104882
 40
0.0003707418624266
 40
0.0003707418624266
 40
0.0003707418624266
 40
0.0003707418624266
 10
106.9072614887691
 20
88.75649462888008
 30
0.0
 10
106.8506856318269
 20
88.78752223870721
 30
0.0
 10
106.7940472529582
 20
88.8184912003544
 30
0.0
 10
106.7373446305157
 20
88.84939961566319
 30
0.0
  0
ARC
  5
15E
330
1F
100
AcDbEntity
  8
0
  6
Continuous
 62
     7
370
    15
100
AcDbCircle
 10
76.0631767956
 20
129.2803027423
 30
0.0
 40
50.92677669529664
100
AcDbArc
 50
304.7239708372
 51
307.2760291628
  0
ARC
  5
15F
330
1F
100
AcDbEntity
  8
0
  6
Continuous
 62
     7
370
    15
100
AcDbCircle
 10
76.0631767956
 20
129.2803027423
 30
0.0
 40
50.92677669529662
100
AcDbArc
 50
208.7239708372
 51
211.2760291628
  0
SPLINE
  5
160
330
1F
100
AcDbEntity
  8
0
  6
Continuous
 62
     7
370
    15
100
AcDbSpline
210
0.0
220
0.0
230
1.0
 70
     8
 71
     3
 72
     8
 73
     4
 74
     0
 42
0.00000001
 43
0.00000001
 12
1.0
 22
0.0
 32
0.0
 13
1.0
 23
0.0
 33
0.0
 40
0.0001085338104882
 40
0.0001085338104882
 40
0.0001085338104882
 40
0.0001085338104882
 40
0.0003707418624266
 40
0.0003707418624266
 40
0.0003707418624266
 40
0.0003707418624266
 10
31.40318565227949
 20
104.8053813807575
 30
0.0
 10
31.46749033526503
 20
104.8107150386448
 30
0.0
 10
31.5318282805087
 20
104.8159696887952
 30
0.0
 10
31.59620028876301
 20
104.8211428968975
 30
0.0
  0
LINE
  5
161
330
1F
100
AcDbEntity
  8
0
  6
Continuous
 62
     7
370
    15
100
AcDbLine
 10
104.5275518594
 20
96.6524631472
 30
0.0
 11
104.7298053202
 21
96.7994109483
 31
0.0
  0
ARC
  5
162
330
1F
100
AcDbEntity
  8
0
  6
Continuous
 62
     7
370
    15
100
AcDbCircle
 10
95.0216017308
 20
89.7459866489
 30
0.0
 40
11.99999999999999
100
AcDbArc
 50
355.6237757499
 51
36.0
  0
SPLINE
  5
163
330
1F
100
AcDbEntity
  8
0
  6
Continuous
 62
     7
370
    15
100
AcDbSpline
210
0.0
220
0.0
230
1.0
 70
     8
 71
     3
 72
     8
 73
     4
 74
     0
 42
0.00000001
 43
0.00000001
 12
1.0
 22
0.0
 32
0.0
 13
1.0
 23
0.0
 33
0.0
 40
0.0
 40
0.0
 40
0.0
 40
0.0
 40
1.0
 40
1.0
 40
1.0
 40
1.0
 10
106.9649000024407
 20
88.74586917227546
 30
0.0
 10
106.9765358127736
 20
88.77144417283877
 30
0.0
 10
106.9843262956238
 20
88.80040681401543
 30
0.0
 10
106.9866157560434
 20
88.83032329580712
 30
0.0
  0
SPLINE
  5
164
330
1F
100
AcDbEntity
  8
0
  6
Continuous
 62
     7
370
    15
100
AcDbSpline
210
0.0
220
0.0
230
1.0
 70
     8
 71
     3
 72
     8
 73
     4
 74
     0
 42
0.00000001
 43
0.00000001
 12
1.0
 22
0.0
 32
0.0
 13
1.0
 23
0.0
 33
0.0
 40
0.0
 40
0.0
 40
0.0
 40
0.0
 40
1.0
 40
1.0
 40
1.0
 40
1.0
 10
106.9072614887691
 20
88.75649462888008
 30
0.0
 10
106.9254799429455
 20
88.74650317460278
 30
0.0
 10
106.9450808191097
 20
88.74401757666203
 30
0.0
 10
106.9649000024407
 20
88.74586917227745
 30
0.0
  0
ARC
  5
165
330
1F
100
AcDbEntity
  8
0
  6
Continuous
 62
     7
370
    15
100
AcDbCircle
 10
42.6637387978
 20
100.8749939703
 30
0.0
 40
11.99999999999999
100
AcDbArc
 50
120.0
 51
160.3762242501
  0
LINE
  5
166
330
1F
100
AcDbEntity
  8
0
  6
Continuous
 62
     7
370
    15
100
AcDbLine
 10
36.6637391892
 20
111.2672985287
 30
0.0
 11
36.7887375799
 21
111.0507921071
 31
0.0
  0
SPLINE
  5
167
330
1F
100
AcDbEntity
  8
0
  6
Continuous
 62
     7
370
    15
100
AcDbSpline
210
0.0
220
0.0
230
1.0
 70
     8
 71
     3
 72
     8
 73
     4
 74
     0
 42
0.00000001
 43
0.00000001
 12
1.0
 22
0.0
 32
0.0
 13
1.0
 23
0.0
 33
0.0
 40
0.0
 40
0.0
 40
0.0
 40
0.0
 40
1.0
 40
1.0
 40
1.0
 40
1.0
 10
31.3462084873795
 20
104.8191182387049
 30
0.0
 10
31.36339468934081
 20
104.8094590620593
 30
0.0
 10
31.38258860881479
 20
104.8036729891096
 30
0.0
 10
31.40318565227949
 20
104.8053813807575
 30
0.0
  0
SPLINE
  5
168
330
1F
100
AcDbEntity
  8
0
  6
Continuous
 62
     7
370
    15
100
AcDbSpline
210
0.0
220
0.0
230
1.0
 70
     8
 71
     3
 72
     8
 73
     4
 74
     0
 42
0.00000001
 43
0.00000001
 12
1.0
 22
0.0
 32
0.0
 13
1.0
 23
0.0
 33
0.0
 40
0.0
 40
0.0
 40
0.0
 40
0.0
 40
1.0
 40
1.0
 40
1.0
 40
1.0
 10
31.36072074601751
 20
104.9051035123572
 30
0.0
 10
31.35062946438347
 20
104.8768010711246
 30
0.0
 10
31.34597940521322
 20
104.8474038345073
 30
0.0
 10
31.34620848737908
 20
104.8191182387038
 30
0.0
  0
LINE
  5
169
330
1F
100
AcDbEntity
  8
0
  6
Continuous
 62
     7
370
    15
100
AcDbLine
 10
102.6849077937
 20
99.1886445077
 30
0.0
 11
102.8871631173
 21
99.3355904462
 31
0.0
  0
LINE
  5
16A
330
1F
100
AcDbEntity
  8
0
  6
Continuous
 62
     7
370
    15
100
AcDbLine
 10
102.8871631173
 20
99.3355904462
 30
0.0
 11
104.7298053202
 21
96.7994109483
 31
0.0
  0
LINE
  5
16B
330
1F
100
AcDbEntity
  8
0
  6
Continuous
 62
     7
370
    15
100
AcDbLine
 10
36.6637391892
 20
111.2672985287
 30
0.0
 11
39.3786339012
 21
112.8347442241
 31
0.0
  0
LINE
  5
16C
330
1F
100
AcDbEntity
  8
0
  6
Continuous
 62
     7
370
    15
100
AcDbLine
 10
39.3786339012
 20
112.8347442241
 30
0.0
 11
39.5036360172
 21
112.6182378025
 31
0.0
  0
LINE
  5
16D
330
1F
100
AcDbEntity
  8
0
  6
Continuous
 62
     7
370
    15
100
AcDbLine
 10
102.954594597
 20
102.786639774
 30
0.0
 11
103.1326820997
 21
102.6111841889
 31
0.0
  0
ARC
  5
16E
330
1F
100
AcDbEntity
  8
0
  6
Continuous
 62
     7
370
    15
100
AcDbCircle
 10
104.9420656246
 20
100.8285650097
 30
0.0
 40
2.539999999999989
100
AcDbArc
 50
135.4268835638
 51
216.0
  0
ARC
  5
16F
330
1F
100
AcDbEntity
  8
0
  6
Continuous
 62
     7
370
    15
100
AcDbCircle
 10
38.1086347891
 20
115.0344492727
 30
0.0
 40
2.540000000000008
100
AcDbArc
 50
300.0
 51
20.5731164362
  0
LINE
  5
170
330
1F
100
AcDbEntity
  8
0
  6
Continuous
 62
     7
370
    15
100
AcDbLine
 10
40.4866432694
 20
115.9270117746
 30
0.0
 11
40.7206995336
 21
116.0148615705
 31
0.0
  0
LINE
  5
171
330
1F
100
AcDbEntity
  8
0
  6
Continuous
 62
     7
370
    15
100
AcDbLine
 10
105.2226239738
 20
105.3055413754
 30
0.0
 11
105.415731847
 21
105.1467676403
 31
0.0
  0
ARC
  5
172
330
1F
100
AcDbEntity
  8
0
  6
Continuous
 62
     7
370
    15
100
AcDbCircle
 10
76.0631767956
 20
129.2803027423
 30
0.0
 40
38.0
100
AcDbArc
 50
315.4268835638
 51
320.5731164362
  0
ARC
  5
173
330
1F
100
AcDbEntity
  8
0
  6
Continuous
 62
     7
370
    15
100
AcDbCircle
 10
76.0631767956
 20
129.2803027423
 30
0.0
 40
38.0
100
AcDbArc
 50
195.4268835638
 51
200.5731164362
  0
LINE
  5
174
330
1F
100
AcDbEntity
  8
0
  6
Continuous
 62
     7
370
    15
100
AcDbLine
 10
39.4322892574
 20
119.1719817685
 30
0.0
 11
39.6732820121
 21
119.2384837882
 31
0.0
  0
LINE
  5
175
330
1F
100
AcDbEntity
  8
0
  6
Continuous
 62
     7
370
    15
100
AcDbLine
 10
108.7727194575
 20
105.9498433711
 30
0.0
 11
108.6477173415
 21
105.7333369495
 31
0.0
  0
ARC
  5
176
330
1F
100
AcDbEntity
  8
0
  6
Continuous
 62
     7
370
    15
100
AcDbCircle
 10
107.3777188021
 20
103.5336319104
 30
0.0
 40
2.540000000000017
100
AcDbArc
 50
60.0
 51
140.5731164362
  0
ARC
  5
177
330
1F
100
AcDbEntity
  8
0
  6
Continuous
 62
     7
370
    15
100
AcDbCircle
 10
36.9838047229
 20
118.4963202496
 30
0.0
 40
2.539999999999996
100
AcDbArc
 50
15.4268835638
 51
96.0
  0
LINE
  5
178
330
1F
100
AcDbEntity
  8
0
  6
Continuous
 62
     7
370
    15
100
AcDbLine
 10
36.7183035162
 20
121.0224061029
 30
0.0
 11
36.6921706048
 21
121.271036634
 31
0.0
  0
LINE
  5
179
330
1F
100
AcDbEntity
  8
0
  6
Continuous
 62
     7
370
    15
100
AcDbLine
 10
111.4876141695
 20
104.3823976757
 30
0.0
 11
111.3626157788
 21
104.1658912541
 31
0.0
  0
LINE
  5
17A
330
1F
100
AcDbEntity
  8
0
  6
Continuous
 62
     7
370
    15
100
AcDbLine
 10
111.3626157788
 20
104.1658912541
 30
0.0
 11
108.6477173415
 21
105.7333369495
 31
0.0
  0
LINE
  5
17B
330
1F
100
AcDbEntity
  8
0
  6
Continuous
 62
     7
370
    15
100
AcDbLine
 10
36.7183035162
 20
121.0224061029
 30
0.0
 11
33.6005819884
 21
120.694720255
 31
0.0
  0
LINE
  5
17C
330
1F
100
AcDbEntity
  8
0
  6
Continuous
 62
     7
370
    15
100
AcDbLine
 10
33.6005819884
 20
120.694720255
 30
0.0
 11
33.5744528023
 21
120.9433507861
 31
0.0
  0
ARC
  5
17D
330
1F
100
AcDbEntity
  8
0
  6
Continuous
 62
     7
370
    15
100
AcDbCircle
 10
117.3626147934
 20
114.5581953501
 30
0.0
 40
12.00000000000001
100
AcDbArc
 50
240.0
 51
280.3762242501
  0
SPLINE
  5
17E
330
1F
100
AcDbEntity
  8
0
  6
Continuous
 62
     7
370
    15
100
AcDbSpline
210
0.0
220
0.0
230
1.0
 70
     8
 71
     3
 72
     8
 73
     4
 74
     0
 42
0.00000001
 43
0.00000001
 12
1.0
 22
0.0
 32
0.0
 13
1.0
 23
0.0
 33
0.0
 40
0.0001085338104882
 40
0.0001085338104882
 40
0.0001085338104882
 40
0.0001085338104882
 40
0.0003707418624266
 40
0.0003707418624266
 40
0.0003707418624266
 40
0.0003707418624266
 10
119.5890760219392
 20
102.8410765601613
 30
0.0
 10
119.5523045972209
 20
102.8940992202654
 30
0.0
 10
119.5155849640808
 20
102.9471901901985
 30
0.0
 10
119.478918830318
 20
103.0003513805882
 30
0.0
  0
SPLINE
  5
17F
330
1F
100
AcDbEntity
  8
0
  6
Continuous
 62
     7
370
    15
100
AcDbSpline
210
0.0
220
0.0
230
1.0
 70
     8
 71
     3
 72
     8
 73
     4
 74
     0
 42
0.00000001
 43
0.00000001
 12
1.0
 22
0.0
 32
0.0
 13
1.0
 23
0.0
 33
0.0
 40
0.0
 40
0.0
 40
0.0
 40
0.0
 40
1.0
 40
1.0
 40
1.0
 40
1.0
 10
119.6056681364385
 20
102.7848644589486
 30
0.0
 10
119.6054401278126
 20
102.8045777347644
 30
0.0
 10
119.6008540542382
 20
102.8240931931019
 30
0.0
 10
119.5890760219392
 20
102.8410765601613
 30
0.0
  0
SPLINE
  5
180
330
1F
100
AcDbEntity
  8
0
  6
Continuous
 62
     7
370
    15
100
AcDbSpline
210
0.0
220
0.0
230
1.0
 70
     8
 71
     3
 72
     8
 73
     4
 74
     0
 42
0.00000001
 43
0.00000001
 12
1.0
 22
0.0
 32
0.0
 13
1.0
 23
0.0
 33
0.0
 40
0.0
 40
0.0
 40
0.0
 40
0.0
 40
1.0
 40
1.0
 40
1.0
 40
1.0
 10
119.5239465757853
 20
102.7544398067692
 30
0.0
 10
119.5535028496988
 20
102.7598517211337
 30
0.0
 10
119.5812866329956
 20
102.7705232700718
 30
0.0
 10
119.6056681364397
 20
102.7848644589488
 30
0.0
  0
ARC
  5
181
330
1F
100
AcDbEntity
  8
0
  6
Continuous
 62
     7
370
    15
100
AcDbCircle
 10
32.3462422698
 20
132.6289831793
 30
0.0
 40
11.99999999999998
100
AcDbArc
 50
235.6237757499
 51
276.0
  0
SPLINE
  5
182
330
1F
100
AcDbEntity
  8
0
  6
Continuous
 62
     7
370
    15
100
AcDbSpline
210
0.0
220
0.0
230
1.0
 70
     8
 71
     3
 72
     8
 73
     4
 74
     0
 42
0.00000001
 43
0.00000001
 12
1.0
 22
0.0
 32
0.0
 13
1.0
 23
0.0
 33
0.0
 40
0.0
 40
0.0
 40
0.0
 40
0.0
 40
1.0
 40
1.0
 40
1.0
 40
1.0
 10
25.50846599250959
 20
122.7858422094324
 30
0.0
 10
25.52479668753276
 20
122.7629778018088
 30
0.0
 10
25.54598382912733
 20
122.7417497251644
 30
0.0
 10
25.57074753214101
 20
122.7248087533843
 30
0.0
  0
SPLINE
  5
183
330
1F
100
AcDbEntity
  8
0
  6
Continuous
 62
     7
370
    15
100
AcDbSpline
210
0.0
220
0.0
230
1.0
 70
     8
 71
     3
 72
     8
 73
     4
 74
     0
 42
0.00000001
 43
0.00000001
 12
1.0
 22
0.0
 32
0.0
 13
1.0
 23
0.0
 33
0.0
 40
0.0
 40
0.0
 40
0.0
 40
0.0
 40
1.0
 40
1.0
 40
1.0
 40
1.0
 10
25.54648716469176
 20
122.830445898206
 30
0.0
 10
25.52872508437869
 20
122.8196639812103
 30
0.0
 10
25.51677205533629
 20
122.803931923486
 30
0.0
 10
25.50846599251131
 20
122.7858422094314
 30
0.0
  0
SPLINE
  5
184
330
1F
100
AcDbEntity
  8
0
  6
Continuous
 62
     7
370
    15
100
AcDbSpline
210
0.0
220
0.0
230
1.0
 70
     8
 71
     3
 72
     8
 73
     4
 74
     0
 42
0.00000001
 43
0.00000001
 12
1.0
 22
0.0
 32
0.0
 13
1.0
 23
0.0
 33
0.0
 40
0.0001085338104882
 40
0.0001085338104882
 40
0.0001085338104882
 40
0.0001085338104882
 40
0.0003707418624266
 40
0.0003707418624266
 40
0.0003707418624266
 40
0.0003707418624266
 10
25.54648716469175
 20
122.830445898206
 30
0.0
 10
25.60164579149187
 20
122.8639282226453
 30
0.0
 10
25.65678488844152
 20
122.8974940167511
 30
0.0
 10
25.71190367251092
 20
122.9311457205932
 30
0.0
  0
SPLINE
  5
185
330
1F
100
AcDbEntity
  8
0
  6
Continuous
 62
     7
370
    15
100
AcDbSpline
210
0.0
220
0.0
230
1.0
 70
     8
 71
     3
 72
     8
 73
     4
 74
     0
 42
0.00000001
 43
0.00000001
 12
1.0
 22
0.0
 32
0.0
 13
1.0
 23
0.0
 33
0.0
 40
0.0001085338104882
 40
0.0001085338104882
 40
0.0001085338104882
 40
0.0001085338104882
 40
0.0003707418624266
 40
0.0003707418624266
 40
0.0003707418624266
 40
0.0003707418624266
 10
120.7231679388805
 20
104.8053813807569
 30
0.0
 10
120.658863255895
 20
104.8107150386441
 30
0.0
 10
120.5945253106513
 20
104.8159696887945
 30
0.0
 10
120.530153302397
 20
104.8211428968969
 30
0.0
  0
ARC
  5
186
330
1F
100
AcDbEntity
  8
0
  6
Continuous
 62
     7
370
    15
100
AcDbCircle
 10
76.0631767956
 20
129.2803027423
 30
0.0
 40
50.92677669529665
100
AcDbArc
 50
328.7239708372
 51
331.2760291628
  0
ARC
  5
187
330
1F
100
AcDbEntity
  8
0
  6
Continuous
 62
     7
370
    15
100
AcDbCircle
 10
76.0631767956
 20
129.2803027423
 30
0.0
 40
50.92677669529665
100
AcDbArc
 50
184.7239708372
 51
187.2760291628
  0
SPLINE
  5
188
330
1F
100
AcDbEntity
  8
0
  6
Continuous
 62
     7
370
    15
100
AcDbSpline
210
0.0
220
0.0
230
1.0
 70
     8
 71
     3
 72
     8
 73
     4
 74
     0
 42
0.00000001
 43
0.00000001
 12
1.0
 22
0.0
 32
0.0
 13
1.0
 23
0.0
 33
0.0
 40
0.0001085338104882
 40
0.0001085338104882
 40
0.0001085338104882
 40
0.0001085338104882
 40
0.0003707418624266
 40
0.0003707418624266
 40
0.0003707418624266
 40
0.0003707418624266
 10
25.30939739412748
 20
125.0862043837227
 30
0.0
 10
25.37031203927847
 20
125.0649218517667
 30
0.0
 10
25.43122493567259
 20
125.0435536136723
 30
0.0
 10
25.49213582471014
 20
125.0220971198902
 30
0.0
  0
LINE
  5
189
330
1F
100
AcDbEntity
  8
0
  6
Continuous
 62
     7
370
    15
100
AcDbLine
 10
115.3376160112
 20
111.0507921071
 30
0.0
 11
115.4626144019
 21
111.2672985287
 31
0.0
  0
ARC
  5
18A
330
1F
100
AcDbEntity
  8
0
  6
Continuous
 62
     7
370
    15
100
AcDbCircle
 10
109.4626147934
 20
100.8749939703
 30
0.0
 40
11.99999999999996
100
AcDbArc
 50
19.6237757499
 51
60.0
  0
SPLINE
  5
18B
330
1F
100
AcDbEntity
  8
0
  6
Continuous
 62
     7
370
    15
100
AcDbSpline
210
0.0
220
0.0
230
1.0
 70
     8
 71
     3
 72
     8
 73
     4
 74
     0
 42
0.00000001
 43
0.00000001
 12
1.0
 22
0.0
 32
0.0
 13
1.0
 23
0.0
 33
0.0
 40
0.0
 40
0.0
 40
0.0
 40
0.0
 40
1.0
 40
1.0
 40
1.0
 40
1.0
 10
120.7801451037809
 20
104.819118238703
 30
0.0
 10
120.7803726555808
 20
104.8472148747311
 30
0.0
 10
120.7757094483546
 20
104.8768422388618
 30
0.0
 10
120.7656328451448
 20
104.9051035123567
 30
0.0
  0
SPLINE
  5
18C
330
1F
100
AcDbEntity
  8
0
  6
Continuous
 62
     7
370
    15
100
AcDbSpline
210
0.0
220
0.0
230
1.0
 70
     8
 71
     3
 72
     8
 73
     4
 74
     0
 42
0.00000001
 43
0.00000001
 12
1.0
 22
0.0
 32
0.0
 13
1.0
 23
0.0
 33
0.0
 40
0.0
 40
0.0
 40
0.0
 40
0.0
 40
1.0
 40
1.0
 40
1.0
 40
1.0
 10
120.7231679388805
 20
104.8053813807569
 30
0.0
 10
120.7438752155108
 20
104.8036638459803
 30
0.0
 10
120.7627924906589
 20
104.8093655338444
 30
0.0
 10
120.7801451037801
 20
104.8191182387048
 30
0.0
  0
ARC
  5
18D
330
1F
100
AcDbEntity
  8
0
  6
Continuous
 62
     7
370
    15
100
AcDbCircle
 10
33.9977919894
 20
116.9155372325
 30
0.0
 40
11.99999999999999
100
AcDbArc
 50
96.0
 51
136.3762242501
  0
LINE
  5
18E
330
1F
100
AcDbEntity
  8
0
  6
Continuous
 62
     7
370
    15
100
AcDbLine
 10
32.7434485701
 20
128.8497999881
 30
0.0
 11
32.7695814816
 21
128.6011695152
 31
0.0
  0
SPLINE
  5
18F
330
1F
100
AcDbEntity
  8
0
  6
Continuous
 62
     7
370
    15
100
AcDbSpline
210
0.0
220
0.0
230
1.0
 70
     8
 71
     3
 72
     8
 73
     4
 74
     0
 42
0.00000001
 43
0.00000001
 12
1.0
 22
0.0
 32
0.0
 13
1.0
 23
0.0
 33
0.0
 40
0.0
 40
0.0
 40
0.0
 40
0.0
 40
1.0
 40
1.0
 40
1.0
 40
1.0
 10
25.26293344743168
 20
125.1219283286862
 30
0.0
 10
25.27470508308386
 20
125.1061139736441
 30
0.0
 10
25.28988619314554
 20
125.0930212626091
 30
0.0
 10
25.30939739412749
 20
125.0862043837227
 30
0.0
  0
SPLINE
  5
190
330
1F
100
AcDbEntity
  8
0
  6
Continuous
 62
     7
370
    15
100
AcDbSpline
210
0.0
220
0.0
230
1.0
 70
     8
 71
     3
 72
     8
 73
     4
 74
     0
 42
0.00000001
 43
0.00000001
 12
1.0
 22
0.0
 32
0.0
 13
1.0
 23
0.0
 33
0.0
 40
0.0
 40
0.0
 40
0.0
 40
0.0
 40
1.0
 40
1.0
 40
1.0
 40
1.0
 10
25.31116441694987
 20
125.1945771174936
 30
0.0
 10
25.2904339325135
 20
125.1728260448815
 30
0.0
 10
25.2742289587433
 20
125.1478616823595
 30
0.0
 10
25.26293344743084
 20
125.1219283286854
 30
0.0
  0
LINE
  5
191
330
1F
100
AcDbEntity
  8
0
  6
Continuous
 62
     7
370
    15
100
AcDbLine
 10
112.622717574
 20
112.6182378025
 30
0.0
 11
112.7477196899
 21
112.8347442241
 31
0.0
  0
LINE
  5
192
330
1F
100
AcDbEntity
  8
0
  6
Continuous
 62
     7
370
    15
100
AcDbLine
 10
112.7477196899
 20
112.8347442241
 30
0.0
 11
115.4626144019
 21
111.2672985287
 31
0.0
  0
LINE
  5
193
330
1F
100
AcDbEntity
  8
0
  6
Continuous
 62
     7
370
    15
100
AcDbLine
 10
32.7434485701
 20
128.8497999881
 30
0.0
 11
35.8611700979
 21
129.1774854067
 31
0.0
  0
LINE
  5
194
330
1F
100
AcDbEntity
  8
0
  6
Continuous
 62
     7
370
    15
100
AcDbLine
 10
35.8611700979
 20
129.1774854067
 30
0.0
 11
35.8872992841
 21
128.9288549265
 31
0.0
  0
LINE
  5
195
330
1F
100
AcDbEntity
  8
0
  6
Continuous
 62
     7
370
    15
100
AcDbLine
 10
111.4056540576
 20
116.0148615705
 30
0.0
 11
111.6397103218
 21
115.9270117746
 31
0.0
  0
ARC
  5
196
330
1F
100
AcDbEntity
  8
0
  6
Continuous
 62
     7
370
    15
100
AcDbCircle
 10
114.0177188021
 20
115.0344492727
 30
0.0
 40
2.540000000000018
100
AcDbArc
 50
159.4268835638
 51
240.0
  0
ARC
  5
197
330
1F
100
AcDbEntity
  8
0
  6
Continuous
 62
     7
370
    15
100
AcDbCircle
 10
35.5956667307
 20
131.7035710201
 30
0.0
 40
2.540000000000024
100
AcDbArc
 50
276.0
 51
356.5731164362
  0
LINE
  5
198
330
1F
100
AcDbEntity
  8
0
  6
Continuous
 62
     7
370
    15
100
AcDbLine
 10
38.1311235872
 20
131.5517430881
 30
0.0
 11
38.380677059
 21
131.5367995517
 31
0.0
  0
LINE
  5
199
330
1F
100
AcDbEntity
  8
0
  6
Continuous
 62
     7
370
    15
100
AcDbLine
 10
112.4530715791
 20
119.2384837882
 30
0.0
 11
112.6940643338
 21
119.1719817685
 31
0.0
  0
ARC
  5
19A
330
1F
100
AcDbEntity
  8
0
  6
Continuous
 62
     7
370
    15
100
AcDbCircle
 10
76.0631767956
 20
129.2803027423
 30
0.0
 40
38.00000000000001
100
AcDbArc
 50
339.4268835638
 51
344.5731164362
  0
ARC
  5
19B
330
1F
100
AcDbEntity
  8
0
  6
Continuous
 62
     7
370
    15
100
AcDbCircle
 10
76.0631767956
 20
129.2803027423
 30
0.0
 40
38.0
100
AcDbArc
 50
171.4268835638
 51
176.5731164362
  0
LINE
  5
19C
330
1F
100
AcDbEntity
  8
0
  6
Continuous
 62
     7
370
    15
100
AcDbLine
 10
38.4877717045
 20
134.9450159574
 30
0.0
 11
38.7349782434
 21
134.9077481532
 31
0.0
  0
LINE
  5
19D
330
1F
100
AcDbEntity
  8
0
  6
Continuous
 62
     7
370
    15
100
AcDbLine
 10
115.4341829864
 20
121.271036634
 30
0.0
 11
115.4080500749
 21
121.0224061029
 31
0.0
  0
ARC
  5
19E
330
1F
100
AcDbEntity
  8
0
  6
Continuous
 62
     7
370
    15
100
AcDbCircle
 10
115.1425488683
 20
118.4963202496
 30
0.0
 40
2.539999999999989
100
AcDbArc
 50
84.0
 51
164.5731164362
  0
ARC
  5
19F
330
1F
100
AcDbEntity
  8
0
  6
Continuous
 62
     7
370
    15
100
AcDbCircle
 10
35.976153113
 20
135.3236571312
 30
0.0
 40
2.540000000000009
100
AcDbArc
 50
351.4268835638
 51
72.0
  0
LINE
  5
1A0
330
1F
100
AcDbEntity
  8
0
  6
Continuous
 62
     7
370
    15
100
AcDbLine
 10
36.7610549477
 20
137.7393408434
 30
0.0
 11
36.8383100179
 21
137.9771047028
 31
0.0
  0
LINE
  5
1A1
330
1F
100
AcDbEntity
  8
0
  6
Continuous
 62
     7
370
    15
100
AcDbLine
 10
118.5519007889
 20
120.9433507861
 30
0.0
 11
118.5257716027
 21
120.694720255
 31
0.0
  0
LINE
  5
1A2
330
1F
100
AcDbEntity
  8
0
  6
Continuous
 62
     7
370
    15
100
AcDbLine
 10
118.5257716027
 20
120.694720255
 30
0.0
 11
115.4080500749
 21
121.0224061029
 31
0.0
  0
LINE
  5
1A3
330
1F
100
AcDbEntity
  8
0
  6
Continuous
 62
     7
370
    15
100
AcDbLine
 10
36.7610549477
 20
137.7393408434
 30
0.0
 11
33.7795970884
 21
138.7080755772
 31
0.0
  0
LINE
  5
1A4
330
1F
100
AcDbEntity
  8
0
  6
Continuous
 62
     7
370
    15
100
AcDbLine
 10
33.7795970884
 20
138.7080755772
 30
0.0
 11
33.8568521586
 21
138.9458394365
 31
0.0
  0
ARC
  5
1A5
330
1F
100
AcDbEntity
  8
0
  6
Continuous
 62
     7
370
    15
100
AcDbCircle
 10
119.7801113213
 20
132.6289831793
 30
0.0
 40
12.00000000000002
100
AcDbArc
 50
264.0
 51
304.3762242501
  0
SPLINE
  5
1A6
330
1F
100
AcDbEntity
  8
0
  6
Continuous
 62
     7
370
    15
100
AcDbSpline
210
0.0
220
0.0
230
1.0
 70
     8
 71
     3
 72
     8
 73
     4
 74
     0
 42
0.00000001
 43
0.00000001
 12
1.0
 22
0.0
 32
0.0
 13
1.0
 23
0.0
 33
0.0
 40
0.0001085338104882
 40
0.0001085338104882
 40
0.0001085338104882
 40
0.0001085338104882
 40
0.0003707418624266
 40
0.0003707418624266
 40
0.0003707418624266
 40
0.0003707418624266
 10
126.5798664264685
 20
122.8304458982053
 30
0.0
 10
126.5247077996683
 20
122.8639282226446
 30
0.0
 10
126.4695687027187
 20
122.8974940167505
 30
0.0
 10
126.4144499186493
 20
122.9311457205925
 30
0.0
  0
SPLINE
  5
1A7
330
1F
100
AcDbEntity
  8
0
  6
Continuous
 62
     7
370
    15
100
AcDbSpline
210
0.0
220
0.0
230
1.0
 70
     8
 71
     3
 72
     8
 73
     4
 74
     0
 42
0.00000001
 43
0.00000001
 12
1.0
 22
0.0
 32
0.0
 13
1.0
 23
0.0
 33
0.0
 40
0.0
 40
0.0
 40
0.0
 40
0.0
 40
1.0
 40
1.0
 40
1.0
 40
1.0
 10
126.6178875986496
 20
122.785842209431
 30
0.0
 10
126.6096611907757
 20
122.8037584435447
 30
0.0
 10
126.597533952081
 20
122.8197213776921
 30
0.0
 10
126.5798664264685
 20
122.8304458982053
 30
0.0
  0
SPLINE
  5
1A8
330
1F
100
AcDbEntity
  8
0
  6
Continuous
 62
     7
370
    15
100
AcDbSpline
210
0.0
220
0.0
230
1.0
 70
     8
 71
     3
 72
     8
 73
     4
 74
     0
 42
0.00000001
 43
0.00000001
 12
1.0
 22
0.0
 32
0.0
 13
1.0
 23
0.0
 33
0.0
 40
0.0
 40
0.0
 40
0.0
 40
0.0
 40
1.0
 40
1.0
 40
1.0
 40
1.0
 10
126.5556060590175
 20
122.7248087533851
 30
0.0
 10
126.5804058349148
 20
122.7417744028034
 30
0.0
 10
126.6014470739502
 20
122.7628240306119
 30
0.0
 10
126.6178875986506
 20
122.7858422094316
 30
0.0
  0
ARC
  5
1A9
330
1F
100
AcDbEntity
  8
0
  6
Continuous
 62
     7
370
    15
100
AcDbCircle
 10
37.4878008772
 20
150.1207537392
 30
0.0
 40
11.99999999999999
100
AcDbArc
 50
211.6237757499
 51
252.0
  0
SPLINE
  5
1AA
330
1F
100
AcDbEntity
  8
0
  6
Continuous
 62
     7
370
    15
100
AcDbSpline
210
0.0
220
0.0
230
1.0
 70
     8
 71
     3
 72
     8
 73
     4
 74
     0
 42
0.00000001
 43
0.00000001
 12
1.0
 22
0.0
 32
0.0
 13
1.0
 23
0.0
 33
0.0
 40
0.0
 40
0.0
 40
0.0
 40
0.0
 40
1.0
 40
1.0
 40
1.0
 40
1.0
 10
27.23761530327933
 20
143.9097711863671
 30
0.0
 10
27.24323434313515
 20
143.8822412185681
 30
0.0
 10
27.25395552346604
 20
143.8542308187266
 30
0.0
 10
27.26968777787632
 20
143.8286821654749
 30
0.0
  0
SPLINE
  5
1AB
330
1F
100
AcDbEntity
  8
0
  6
Continuous
 62
     7
370
    15
100
AcDbSpline
210
0.0
220
0.0
230
1.0
 70
     8
 71
     3
 72
     8
 73
     4
 74
     0
 42
0.00000001
 43
0.00000001
 12
1.0
 22
0.0
 32
0.0
 13
1.0
 23
0.0
 33
0.0
 40
0.0
 40
0.0
 40
0.0
 40
0.0
 40
1.0
 40
1.0
 40
1.0
 40
1.0
 10
27.2904913270612
 20
143.9350540797012
 30
0.0
 10
27.26987945854815
 20
143.9324287973256
 30
0.0
 10
27.25256101881392
 20
143.9229185823595
 30
0.0
 10
27.23761530328052
 20
143.9097711863656
 30
0.0
  0
SPLINE
  5
1AC
330
1F
100
AcDbEntity
  8
0
  6
Continuous
 62
     7
370
    15
100
AcDbSpline
210
0.0
220
0.0
230
1.0
 70
     8
 71
     3
 72
     8
 73
     4
 74
     0
 42
0.00000001
 43
0.00000001
 12
1.0
 22
0.0
 32
0.0
 13
1.0
 23
0.0
 33
0.0
 40
0.0001085338104882
 40
0.0001085338104882
 40
0.0001085338104882
 40
0.0001085338104882
 40
0.0003707418624266
 40
0.0003707418624266
 40
0.0003707418624266
 40
0.0003707418624266
 10
27.2904913270612
 20
143.9350540797012
 30
0.0
 10
27.35449972826905
 20
143.9432066704026
 30
0.0
 10
27.41852423824271
 20
143.9514434579447
 30
0.0
 10
27.4825651341146
 20
143.9597669899287
 30
0.0
  0
SPLINE
  5
1AD
330
1F
100
AcDbEntity
  8
0
  6
Continuous
 62
     7
370
    15
100
AcDbSpline
210
0.0
220
0.0
230
1.0
 70
     8
 71
     3
 72
     8
 73
     4
 74
     0
 42
0.00000001
 43
0.00000001
 12
1.0
 22
0.0
 32
0.0
 13
1.0
 23
0.0
 33
0.0
 40
0.0001085338104882
 40
0.0001085338104882
 40
0.0001085338104882
 40
0.0001085338104882
 40
0.0003707418624265
 40
0.0003707418624265
 40
0.0003707418624265
 40
0.0003707418624265
 10
126.8169561970328
 20
125.086204383722
 30
0.0
 10
126.7560415518818
 20
125.064921851766
 30
0.0
 10
126.6951286554877
 20
125.0435536136716
 30
0.0
 10
126.6342177664501
 20
125.0220971198895
 30
0.0
  0
ARC
  5
1AE
330
1F
100
AcDbEntity
  8
0
  6
Continuous
 62
     7
370
    15
100
AcDbCircle
 10
76.0631767956
 20
129.2803027423
 30
0.0
 40
50.92677669529663
100
AcDbArc
 50
352.7239708372
 51
355.2760291628
  0
ARC
  5
1AF
330
1F
100
AcDbEntity
  8
0
  6
Continuous
 62
     7
370
    15
100
AcDbCircle
 10
76.0631767956
 20
129.2803027423
 30
0.0
 40
50.92677669529662
100
AcDbArc
 50
160.7239708372
 51
163.2760291628
  0
SPLINE
  5
1B0
330
1F
100
AcDbEntity
  8
0
  6
Continuous
 62
     7
370
    15
100
AcDbSpline
210
0.0
220
0.0
230
1.0
 70
     8
 71
     3
 72
     8
 73
     4
 74
     0
 42
0.00000001
 43
0.00000001
 12
1.0
 22
0.0
 32
0.0
 13
1.0
 23
0.0
 33
0.0
 40
0.0001085338104882
 40
0.0001085338104882
 40
0.0001085338104882
 40
0.0001085338104882
 40
0.0003707418624266
 40
0.0003707418624266
 40
0.0003707418624266
 40
0.0003707418624266
 10
27.99139867809751
 20
146.0922250950706
 30
0.0
 10
28.03839058987514
 20
146.0480063163922
 30
0.0
 10
28.08534604425687
 20
146.0037099525439
 30
0.0
 10
28.13226376800501
 20
145.9593337795784
 30
0.0
  0
LINE
  5
1B1
330
1F
100
AcDbEntity
  8
0
  6
Continuous
 62
     7
370
    15
100
AcDbLine
 10
119.3567721096
 20
128.6011695152
 30
0.0
 11
119.382905021
 21
128.8497999881
 31
0.0
  0
ARC
  5
1B2
330
1F
100
AcDbEntity
  8
0
  6
Continuous
 62
     7
370
    15
100
AcDbCircle
 10
118.1285616017
 20
116.9155372325
 30
0.0
 40
11.99999999999998
100
AcDbArc
 50
43.6237757499
 51
84.0
  0
SPLINE
  5
1B3
330
1F
100
AcDbEntity
  8
0
  6
Continuous
 62
     7
370
    15
100
AcDbSpline
210
0.0
220
0.0
230
1.0
 70
     8
 71
     3
 72
     8
 73
     4
 74
     0
 42
0.00000001
 43
0.00000001
 12
1.0
 22
0.0
 32
0.0
 13
1.0
 23
0.0
 33
0.0
 40
0.0
 40
0.0
 40
0.0
 40
0.0
 40
1.0
 40
1.0
 40
1.0
 40
1.0
 10
126.8634201437295
 20
125.1219283286846
 30
0.0
 10
126.8522000912228
 20
125.1476884365583
 30
0.0
 10
126.8358895048136
 20
125.1728576832287
 30
0.0
 10
126.8151891742124
 20
125.194577117494
 30
0.0
  0
SPLINE
  5
1B4
330
1F
100
AcDbEntity
  8
0
  6
Continuous
 62
     7
370
    15
100
AcDbSpline
210
0.0
220
0.0
230
1.0
 70
     8
 71
     3
 72
     8
 73
     4
 74
     0
 42
0.00000001
 43
0.00000001
 12
1.0
 22
0.0
 32
0.0
 13
1.0
 23
0.0
 33
0.0
 40
0.0
 40
0.0
 40
0.0
 40
0.0
 40
1.0
 40
1.0
 40
1.0
 40
1.0
 10
126.8169561970328
 20
125.086204383722
 30
0.0
 10
126.8365718198679
 20
125.0930577458124
 30
0.0
 10
126.8515345252687
 20
125.1059608458514
 30
0.0
 10
126.863420143728
 20
125.1219283286859
 30
0.0
  0
ARC
  5
1B5
330
1F
100
AcDbEntity
  8
0
  6
Continuous
 62
     7
370
    15
100
AcDbCircle
 10
32.6053323661
 20
135.0940607818
 30
0.0
 40
12.00000000000001
100
AcDbArc
 50
72.0
 51
112.3762242501
  0
LINE
  5
1B6
330
1F
100
AcDbEntity
  8
0
  6
Continuous
 62
     7
370
    15
100
AcDbLine
 10
36.3135358242
 20
146.506739849
 30
0.0
 11
36.2362807539
 21
146.2689750584
 31
0.0
  0
SPLINE
  5
1B7
330
1F
100
AcDbEntity
  8
0
  6
Continuous
 62
     7
370
    15
100
AcDbSpline
210
0.0
220
0.0
230
1.0
 70
     8
 71
     3
 72
     8
 73
     4
 74
     0
 42
0.00000001
 43
0.00000001
 12
1.0
 22
0.0
 32
0.0
 13
1.0
 23
0.0
 33
0.0
 40
0.0
 40
0.0
 40
0.0
 40
0.0
 40
1.0
 40
1.0
 40
1.0
 40
1.0
 10
27.96348198810126
 20
146.1437591324242
 30
0.0
 10
27.96780363469809
 20
146.1245240446413
 30
0.0
 10
27.97634698350176
 20
146.1063885442023
 30
0.0
 10
27.99139867809748
 20
146.0922250950706
 30
0.0
  0
SPLINE
  5
1B8
330
1F
100
AcDbEntity
  8
0
  6
Continuous
 62
     7
370
    15
100
AcDbSpline
210
0.0
220
0.0
230
1.0
 70
     8
 71
     3
 72
     8
 73
     4
 74
     0
 42
0.00000001
 43
0.00000001
 12
1.0
 22
0.0
 32
0.0
 13
1.0
 23
0.0
 33
0.0
 40
0.0
 40
0.0
 40
0.0
 40
0.0
 40
1.0
 40
1.0
 40
1.0
 40
1.0
 10
28.03709209570535
 20
146.1905098008083
 30
0.0
 10
28.00930689755624
 20
146.1790710548737
 30
0.0
 10
27.98434899636854
 20
146.1628561315212
 30
0.0
 10
27.96348198810015
 20
146.1437591324238
 30
0.0
  0
LINE
  5
1B9
330
1F
100
AcDbEntity
  8
0
  6
Continuous
 62
     7
370
    15
100
AcDbLine
 10
116.2390543071
 20
128.9288549265
 30
0.0
 11
116.2651834932
 21
129.1774854067
 31
0.0
  0
LINE
  5
1BA
330
1F
100
AcDbEntity
  8
0
  6
Continuous
 62
     7
370
    15
100
AcDbLine
 10
116.2651834932
 20
129.1774854067
 30
0.0
 11
119.382905021
 21
128.8497999881
 31
0.0
  0
LINE
  5
1BB
330
1F
100
AcDbEntity
  8
0
  6
Continuous
 62
     7
370
    15
100
AcDbLine
 10
36.3135358242
 20
146.506739849
 30
0.0
 11
39.2949974087
 21
145.5380041839
 31
0.0
  0
LINE
  5
1BC
330
1F
100
AcDbEntity
  8
0
  6
Continuous
 62
     7
370
    15
100
AcDbLine
 10
39.2949974087
 20
145.5380041839
 30
0.0
 11
39.2177423385
 21
145.3002393933
 31
0.0
  0
LINE
  5
1BD
330
1F
100
AcDbEntity
  8
0
  6
Continuous
 62
     7
370
    15
100
AcDbLine
 10
113.7456765321
 20
131.5367995517
 30
0.0
 11
113.9952300039
 21
131.5517430881
 31
0.0
  0
ARC
  5
1BE
330
1F
100
AcDbEntity
  8
0
  6
Continuous
 62
     7
370
    15
100
AcDbCircle
 10
116.5306868605
 20
131.7035710201
 30
0.0
 40
2.540000000000014
100
AcDbArc
 50
183.4268835638
 51
264.0
  0
ARC
  5
1BF
330
1F
100
AcDbEntity
  8
0
  6
Continuous
 62
     7
370
    15
100
AcDbCircle
 10
40.0798987983
 20
147.9536876676
 30
0.0
 40
2.540000000000009
100
AcDbArc
 50
252.0
 51
332.5731164362
  0
LINE
  5
1C0
330
1F
100
AcDbEntity
  8
0
  6
Continuous
 62
     7
370
    15
100
AcDbLine
 10
42.3344021586
 20
146.7837226333
 30
0.0
 11
42.5563028005
 21
146.6685683222
 31
0.0
  0
LINE
  5
1C1
330
1F
100
AcDbEntity
  8
0
  6
Continuous
 62
     7
370
    15
100
AcDbLine
 10
113.3913753477
 20
134.9077481532
 30
0.0
 11
113.6385818866
 21
134.9450159574
 31
0.0
  0
ARC
  5
1C2
330
1F
100
AcDbEntity
  8
0
  6
Continuous
 62
     7
370
    15
100
AcDbCircle
 10
76.0631767956
 20
129.2803027423
 30
0.0
 40
38.00000000000001
100
AcDbArc
 50
3.4268835638
 51
8.5731164362
  0
ARC
  5
1C3
330
1F
100
AcDbEntity
  8
0
  6
Continuous
 62
     7
370
    15
100
AcDbCircle
 10
76.0631767956
 20
129.2803027423
 30
0.0
 40
38.0
100
AcDbArc
 50
147.4268835638
 51
152.5731164362
  0
ARC
  5
1C4
330
1F
100
AcDbEntity
  8
0
  6
Continuous
 62
     7
370
    15
100
AcDbCircle
 10
116.1502004782
 20
135.3236571312
 30
0.0
 40
2.540000000000002
100
AcDbArc
 50
108.0
 51
188.5731164362
  0
LINE
  5
1C5
330
1F
100
AcDbEntity
  8
0
  6
Continuous
 62
     7
370
    15
100
AcDbLine
 10
90.0875275877
 20
170.2450924309
 30
0.0
 11
89.8591412154
 21
170.3467779549
 31
0.0
  0
ARC
  5
1C6
330
1F
100
AcDbEntity
  8
0
  6
Continuous
 62
     7
370
    15
100
AcDbCircle
 10
100.8216863861
 20
165.4659383987
 30
0.0
 40
11.99999999999999
100
AcDbArc
 50
115.6237757499
 51
156.0
  0
SPLINE
  5
1C7
330
1F
100
AcDbEntity
  8
0
  6
Continuous
 62
     7
370
    15
100
AcDbSpline
210
0.0
220
0.0
230
1.0
 70
     8
 71
     3
 72
     8
 73
     4
 74
     0
 42
0.00000001
 43
0.00000001
 12
1.0
 22
0.0
 32
0.0
 13
1.0
 23
0.0
 33
0.0
 40
0.0
 40
0.0
 40
0.0
 40
0.0
 40
1.0
 40
1.0
 40
1.0
 40
1.0
 10
95.71616439178997
 20
176.3091968451449
 30
0.0
 10
95.68819788643385
 20
176.3064862522052
 30
0.0
 10
95.6592202619891
 20
176.2987516876729
 30
0.0
 10
95.6321670985559
 20
176.2857761776613
 30
0.0
  0
SPLINE
  5
1C8
330
1F
100
AcDbEntity
  8
0
  6
Continuous
 62
     7
370
    15
100
AcDbSpline
210
0.0
220
0.0
230
1.0
 70
     8
 71
     3
 72
     8
 73
     4
 74
     0
 42
0.00000001
 43
0.00000001
 12
1.0
 22
0.0
 32
0.0
 13
1.0
 23
0.0
 33
0.0
 40
0.0
 40
0.0
 40
0.0
 40
0.0
 40
1.0
 40
1.0
 40
1.0
 40
1.0
 10
95.73578173327934
 20
176.2539676997667
 30
0.0
 10
95.73532535941608
 20
176.2747410710397
 30
0.0
 10
95.72767751229422
 20
176.2929587267047
 30
0.0
 10
95.71616439178825
 20
176.3091968451439
 30
0.0
  0
SPLINE
  5
1C9
330
1F
100
AcDbEntity
  8
0
  6
Continuous
 62
     7
370
    15
100
AcDbSpline
210
0.0
220
0.0
230
1.0
 70
     8
 71
     3
 72
     8
 73
     4
 74
     0
 42
0.00000001
 43
0.00000001
 12
1.0
 22
0.0
 32
0.0
 13
1.0
 23
0.0
 33
0.0
 40
0.0001085338104882
 40
0.0001085338104882
 40
0.0001085338104882
 40
0.0001085338104882
 40
0.0003707418624266
 40
0.0003707418624266
 40
0.0003707418624266
 40
0.0003707418624266
 10
95.73578173327934
 20
176.2539676997667
 30
0.0
 10
95.73719896342143
 20
176.1894577655003
 30
0.0
 10
95.73869824534049
 20
176.1249230097472
 30
0.0
 10
95.74028208371364
 20
176.0603628905964
 30
0.0
  0
ARC
  5
1CA
330
1F
100
AcDbEntity
  8
0
  6
Continuous
 62
     7
370
    15
100
AcDbCircle
 10
68.1631767956
 20
172.4077189065
 30
0.0
 40
12.0
100
AcDbArc
 50
0.0
 51
40.3762242501
  0
LINE
  5
1CB
330
1F
100
AcDbEntity
  8
0
  6
Continuous
 62
     7
370
    15
100
AcDbLine
 10
80.1631768157
 20
172.4077203067
 30
0.0
 11
79.9131767747
 21
172.4077203067
 31
0.0
  0
SPLINE
  5
1CC
330
1F
100
AcDbEntity
  8
0
  6
Continuous
 62
     7
370
    15
100
AcDbSpline
210
0.0
220
0.0
230
1.0
 70
     8
 71
     3
 72
     8
 73
     4
 74
     0
 42
0.00000001
 43
0.00000001
 12
1.0
 22
0.0
 32
0.0
 13
1.0
 23
0.0
 33
0.0
 40
0.0001085338104882
 40
0.0001085338104882
 40
0.0001085338104882
 40
0.0001085338104882
 40
0.0003707418624266
 40
0.0003707418624266
 40
0.0003707418624266
 40
0.0003707418624266
 10
77.19726871252152
 20
180.1944502859339
 30
0.0
 10
77.16973545425422
 20
180.1360939679425
 30
0.0
 10
77.14211714215062
 20
180.077748347859
 30
0.0
 10
77.1144112676592
 20
180.0194139493669
 30
0.0
  0
SPLINE
  5
1CD
330
1F
100
AcDbEntity
  8
0
  6
Continuous
 62
     7
370
    15
100
AcDbSpline
210
0.0
220
0.0
230
1.0
 70
     8
 71
     3
 72
     8
 73
     4
 74
     0
 42
0.00000001
 43
0.00000001
 12
1.0
 22
0.0
 32
0.0
 13
1.0
 23
0.0
 33
0.0
 40
0.0
 40
0.0
 40
0.0
 40
0.0
 40
1.0
 40
1.0
 40
1.0
 40
1.0
 10
77.23765376292212
 20
180.2369255291992
 30
0.0
 10
77.22069556958674
 20
180.226871430029
 30
0.0
 10
77.20608772368722
 20
180.2131420446411
 30
0.0
 10
77.19726871252152
 20
180.1944502859339
 30
0.0
  0
SPLINE
  5
1CE
330
1F
100
AcDbEntity
  8
0
  6
Continuous
 62
     7
370
    15
100
AcDbSpline
210
0.0
220
0.0
230
1.0
 70
     8
 71
     3
 72
     8
 73
     4
 74
     0
 42
0.00000001
 43
0.00000001
 12
1.0
 22
0.0
 32
0.0
 13
1.0
 23
0.0
 33
0.0
 40
0.0
 40
0.0
 40
0.0
 40
0.0
 40
1.0
 40
1.0
 40
1.0
 40
1.0
 10
77.3048630649374
 20
180.1813649077262
 30
0.0
 10
77.28539807265786
 20
180.2042554345944
 30
0.0
 10
77.26226434853132
 20
180.2229811222736
 30
0.0
 10
77.23765376292135
 20
180.2369255292001
 30
0.0
  0
LINE
  5
1CF
330
1F
100
AcDbEntity
  8
0
  6
Continuous
 62
     7
370
    15
100
AcDbLine
 10
88.8124519882
 20
167.3812270852
 30
0.0
 11
88.5840656159
 21
167.4829126091
 31
0.0
  0
LINE
  5
1D0
330
1F
100
AcDbEntity
  8
0
  6
Continuous
 62
     7
370
    15
100
AcDbLine
 10
88.5840656159
 20
167.4829126091
 30
0.0
 11
89.8591412154
 21
170.3467779549
 31
0.0
  0
LINE
  5
1D1
330
1F
100
AcDbEntity
  8
0
  6
Continuous
 62
     7
370
    15
100
AcDbLine
 10
80.1631768157
 20
172.4077203067
 30
0.0
 11
80.1631768157
 21
169.2728251906
 31
0.0
  0
LINE
  5
1D2
330
1F
100
AcDbEntity
  8
0
  6
Continuous
 62
     7
370
    15
100
AcDbLine
 10
80.1631768157
 20
169.2728251906
 30
0.0
 11
79.9131767747
 21
169.2728251906
 31
0.0
  0
LINE
  5
1D3
330
1F
100
AcDbEntity
  8
0
  6
Continuous
 62
     7
370
    15
100
AcDbLine
 10
85.5616537777
 20
165.8157855959
 30
0.0
 11
85.624557167
 21
166.0577432008
 31
0.0
  0
ARC
  5
1D4
330
1F
100
AcDbEntity
  8
0
  6
Continuous
 62
     7
370
    15
100
AcDbCircle
 10
86.2636600393
 20
168.5160229675
 30
0.0
 40
2.540000000000038
100
AcDbArc
 50
255.4268835638
 51
336.0
  0
LINE
  5
1D5
330
1F
100
AcDbEntity
  8
0
  6
Continuous
 62
     7
370
    15
100
AcDbLine
 10
95.8467518834
 20
164.2493569048
 30
0.0
 11
96.0751382557
 21
164.1476713808
 31
0.0
  0
ARC
  5
1D6
330
1F
100
AcDbEntity
  8
0
  6
Continuous
 62
     7
370
    15
100
AcDbCircle
 10
98.3955437168
 20
163.1145603475
 30
0.0
 40
2.540000000000023
100
AcDbArc
 50
156.0
 51
236.5731164362
  0
ARC
  5
1D7
330
1F
100
AcDbEntity
  8
0
  6
Continuous
 62
     7
370
    15
100
AcDbCircle
 10
69.4231767956
 20
169.2728270437
 30
0.0
 40
2.540000000000006
100
AcDbArc
 50
279.4268835638
 51
0.0
  0
LINE
  5
1D8
330
1F
100
AcDbEntity
  8
0
  6
Continuous
 62
     7
370
    15
100
AcDbLine
 10
71.9631767755
 20
169.2728251906
 30
0.0
 11
72.2131768164
 21
169.2728251906
 31
0.0
  0
LINE
  5
1D9
330
1F
100
AcDbEntity
  8
0
  6
Continuous
 62
     7
370
    15
100
AcDbLine
 10
97.1218274829
 20
167.1132222505
 30
0.0
 11
97.3502138552
 21
167.0115367265
 31
0.0
  0
LINE
  5
1DA
330
1F
100
AcDbEntity
  8
0
  6
Continuous
 62
     7
370
    15
100
AcDbLine
 10
97.3502138552
 20
167.0115367265
 30
0.0
 11
96.0751382557
 21
164.1476713808
 31
0.0
  0
LINE
  5
1DB
330
1F
100
AcDbEntity
  8
0
  6
Continuous
 62
     7
370
    15
100
AcDbLine
 10
71.9631767755
 20
169.2728251906
 30
0.0
 11
71.9631767755
 21
172.4077203067
 31
0.0
  0
LINE
  5
1DC
330
1F
100
AcDbEntity
  8
0
  6
Continuous
 62
     7
370
    15
100
AcDbLine
 10
71.9631767755
 20
172.4077203067
 30
0.0
 11
72.2131768164
 21
172.4077203067
 31
0.0
  0
ARC
  5
1DD
330
1F
100
AcDbEntity
  8
0
  6
Continuous
 62
     7
370
    15
100
AcDbCircle
 10
86.3876681554
 20
171.8923773592
 30
0.0
 40
12.0
100
AcDbArc
 50
336.0
 51
16.3762242501
  0
SPLINE
  5
1DE
330
1F
100
AcDbEntity
  8
0
  6
Continuous
 62
     7
370
    15
100
AcDbSpline
210
0.0
220
0.0
230
1.0
 70
     8
 71
     3
 72
     8
 73
     4
 74
     0
 42
0.00000001
 43
0.00000001
 12
1.0
 22
0.0
 32
0.0
 13
1.0
 23
0.0
 33
0.0
 40
0.0001085338104882
 40
0.0001085338104882
 40
0.0001085338104882
 40
0.0001085338104882
 40
0.0003707418624266
 40
0.0003707418624266
 40
0.0003707418624266
 40
0.0003707418624266
 10
97.80787077182129
 20
175.3314142212944
 30
0.0
 10
97.75898223591498
 20
175.2893018571092
 30
0.0
 10
97.71002035069405
 20
175.247233860461
 30
0.0
 10
97.66098303748389
 20
175.2052117300784
 30
0.0
  0
SPLINE
  5
1DF
330
1F
100
AcDbEntity
  8
0
  6
Continuous
 62
     7
370
    15
100
AcDbSpline
210
0.0
220
0.0
230
1.0
 70
     8
 71
     3
 72
     8
 73
     4
 74
     0
 42
0.00000001
 43
0.00000001
 12
1.0
 22
0.0
 32
0.0
 13
1.0
 23
0.0
 33
0.0
 40
0.0
 40
0.0
 40
0.0
 40
0.0
 40
1.0
 40
1.0
 40
1.0
 40
1.0
 10
97.862040589031
 20
175.3537912070113
 30
0.0
 10
97.84245913799396
 20
175.3515038490135
 30
0.0
 10
97.82352996260235
 20
175.3449029775599
 30
0.0
 10
97.80787077182127
 20
175.3314142212944
 30
0.0
  0
SPLINE
  5
1E0
330
1F
100
AcDbEntity
  8
0
  6
Continuous
 62
     7
370
    15
100
AcDbSpline
210
0.0
220
0.0
230
1.0
 70
     8
 71
     3
 72
     8
 73
     4
 74
     0
 42
0.00000001
 43
0.00000001
 12
1.0
 22
0.0
 32
0.0
 13
1.0
 23
0.0
 33
0.0
 40
0.0
 40
0.0
 40
0.0
 40
0.0
 40
1.0
 40
1.0
 40
1.0
 40
1.0
 10
97.90084080093322
 20
175.2756975677557
 30
0.0
 10
97.89236906170979
 20
175.3045262302164
 30
0.0
 10
97.87885177646157
 20
175.3310423304301
 30
0.0
 10
97.86204058903067
 20
175.3537912070124
 30
0.0
  0
ARC
  5
1E1
330
1F
100
AcDbEntity
  8
0
  6
Continuous
 62
     7
370
    15
100
AcDbCircle
 10
83.9631767956
 20
172.4077189065
 30
0.0
 40
11.99999999999999
100
AcDbArc
 50
139.6237757499
 51
180.0
  0
SPLINE
  5
1E2
330
1F
100
AcDbEntity
  8
0
  6
Continuous
 62
     7
370
    15
100
AcDbSpline
210
0.0
220
0.0
230
1.0
 70
     8
 71
     3
 72
     8
 73
     4
 74
     0
 42
0.00000001
 43
0.00000001
 12
1.0
 22
0.0
 32
0.0
 13
1.0
 23
0.0
 33
0.0
 40
0.0
 40
0.0
 40
0.0
 40
0.0
 40
1.0
 40
1.0
 40
1.0
 40
1.0
 10
74.8886998282391
 20
180.2369255292002
 30
0.0
 10
74.86425365177793
 20
180.2230742768255
 30
0.0
 10
74.84092720540667
 20
180.2042221388392
 30
0.0
 10
74.8214905262217
 20
180.1813649077282
 30
0.0
  0
SPLINE
  5
1E3
330
1F
100
AcDbEntity
  8
0
  6
Continuous
 62
     7
370
    15
100
AcDbSpline
210
0.0
220
0.0
230
1.0
 70
     8
 71
     3
 72
     8
 73
     4
 74
     0
 42
0.00000001
 43
0.00000001
 12
1.0
 22
0.0
 32
0.0
 13
1.0
 23
0.0
 33
0.0
 40
0.0
 40
0.0
 40
0.0
 40
0.0
 40
1.0
 40
1.0
 40
1.0
 40
1.0
 10
74.92908487863883
 20
180.1944502859339
 30
0.0
 10
74.92021866907209
 20
180.2132420809272
 30
0.0
 10
74.90582222496327
 20
180.2267740778438
 30
0.0
 10
74.88869982823795
 20
180.2369255291986
 30
0.0
  0
SPLINE
  5
1E4
330
1F
100
AcDbEntity
  8
0
  6
Continuous
 62
     7
370
    15
100
AcDbSpline
210
0.0
220
0.0
230
1.0
 70
     8
 71
     3
 72
     8
 73
     4
 74
     0
 42
0.00000001
 43
0.00000001
 12
1.0
 22
0.0
 32
0.0
 13
1.0
 23
0.0
 33
0.0
 40
0.0001085338104882
 40
0.0001085338104882
 40
0.0001085338104882
 40
0.0001085338104882
 40
0.0003707418624266
 40
0.0003707418624266
 40
0.0003707418624266
 40
0.0003707418624266
 10
74.92908487863883
 20
180.1944502859339
 30
0.0
 10
74.95661813690613
 20
180.1360939679425
 30
0.0
 10
74.98423644900971
 20
180.077748347859
 30
0.0
 10
75.01194232350116
 20
180.0194139493669
 30
0.0
  0
ARC
  5
1E5
330
1F
100
AcDbEntity
  8
0
  6
Continuous
 62
     7
370
    15
100
AcDbCircle
 10
76.0631767956
 20
129.2803027423
 30
0.0
 40
50.92677669529664
100
AcDbArc
 50
64.7239708372
 51
67.2760291628
  0
ARC
  5
1E6
330
1F
100
AcDbEntity
  8
0
  6
Continuous
 62
     7
370
    15
100
AcDbCircle
 10
76.0631767956
 20
129.2803027423
 30
0.0
 40
50.92677669529667
100
AcDbArc
 50
88.7239708372
 51
91.2760291628
  0
LINE
  5
1E7
330
1F
100
AcDbEntity
  8
0
  6
Continuous
 62
     7
370
    15
100
AcDbLine
 10
82.287152942
 20
166.7671278806
 30
0.0
 11
82.246205948
 21
166.5205062123
 31
0.0
  0
ARC
  5
1E8
330
1F
100
AcDbEntity
  8
0
  6
Continuous
 62
     7
370
    15
100
AcDbCircle
 10
76.0631767956
 20
129.2803027423
 30
0.0
 40
38.00000000000001
100
AcDbArc
 50
75.4268835638
 51
80.5731164362
  0
ARC
  5
1E9
330
1F
100
AcDbEntity
  8
0
  6
Continuous
 62
     7
370
    15
100
AcDbCircle
 10
82.7031767956
 20
169.2728270437
 30
0.0
 40
2.540000000000006
100
AcDbArc
 50
180.0
 51
260.5731164362
  0
SPLINE
  5
1EA
330
1F
100
AcDbEntity
  8
0
  6
Continuous
 62
     7
370
    15
100
AcDbSpline
210
0.0
220
0.0
230
1.0
 70
     8
 71
     3
 72
     8
 73
     4
 74
     0
 42
0.00000001
 43
0.00000001
 12
1.0
 22
0.0
 32
0.0
 13
1.0
 23
0.0
 33
0.0
 40
0.0
 40
0.0
 40
0.0
 40
0.0
 40
1.0
 40
1.0
 40
1.0
 40
1.0
 10
120.7492024477507
 20
104.7006544247521
 30
0.0
 10
120.768616414472
 20
104.7359491939737
 30
0.0
 10
120.7797986443026
 20
104.7763396455385
 30
0.0
 10
120.7801451037811
 20
104.8191182387043
 30
0.0
  0
ARC
  5
1EB
330
1F
100
AcDbEntity
  8
0
  6
Continuous
 62
     7
370
    15
100
AcDbCircle
 10
76.0631767956
 20
129.2803027423
 30
0.0
 40
51.0
100
AcDbArc
 50
328.8130914957
 51
331.1869085043
  0
SPLINE
  5
1EC
330
1F
100
AcDbEntity
  8
0
  6
Continuous
 62
     7
370
    15
100
AcDbSpline
210
0.0
220
0.0
230
1.0
 70
     8
 71
     3
 72
     8
 73
     4
 74
     0
 42
0.00000001
 43
0.00000001
 12
1.0
 22
0.0
 32
0.0
 13
1.0
 23
0.0
 33
0.0
 40
0.0
 40
0.0
 40
0.0
 40
0.0
 40
1.0
 40
1.0
 40
1.0
 40
1.0
 10
119.6927894807354
 20
102.870893492107
 30
0.0
 10
119.6719302973353
 20
102.8364331191371
 30
0.0
 10
119.6425422551193
 20
102.8065537982407
 30
0.0
 10
119.6056681364387
 20
102.7848644589481
 30
0.0
  0
SPLINE
  5
1ED
330
1F
100
AcDbEntity
  8
0
  6
Continuous
 62
     7
370
    15
100
AcDbSpline
210
0.0
220
0.0
230
1.0
 70
     8
 71
     3
 72
     8
 73
     4
 74
     0
 42
0.00000001
 43
0.00000001
 12
1.0
 22
0.0
 32
0.0
 13
1.0
 23
0.0
 33
0.0
 40
0.0
 40
0.0
 40
0.0
 40
0.0
 40
1.0
 40
1.0
 40
1.0
 40
1.0
 10
126.883336194878
 20
125.0011207375132
 30
0.0
 10
126.8867160600398
 20
125.041260485268
 30
0.0
 10
126.880503258626
 20
125.0827072214496
 30
0.0
 10
126.8634201437291
 20
125.1219283286858
 30
0.0
  0
ARC
  5
1EE
330
1F
100
AcDbEntity
  8
0
  6
Continuous
 62
     7
370
    15
100
AcDbCircle
 10
76.0631767956
 20
129.2803027423
 30
0.0
 40
51.0
100
AcDbArc
 50
352.8130914958
 51
355.1869085043
  0
SPLINE
  5
1EF
330
1F
100
AcDbEntity
  8
0
  6
Continuous
 62
     7
370
    15
100
AcDbSpline
210
0.0
220
0.0
230
1.0
 70
     8
 71
     3
 72
     8
 73
     4
 74
     0
 42
0.00000001
 43
0.00000001
 12
1.0
 22
0.0
 32
0.0
 13
1.0
 23
0.0
 33
0.0
 40
0.0
 40
0.0
 40
0.0
 40
0.0
 40
1.0
 40
1.0
 40
1.0
 40
1.0
 10
126.6624857468418
 20
122.8998690850177
 30
0.0
 10
126.6574462310168
 20
122.8599037735849
 30
0.0
 10
126.6427519332207
 20
122.8206544620691
 30
0.0
 10
126.6178875986499
 20
122.7858422094305
 30
0.0
  0
SPLINE
  5
1F0
330
1F
100
AcDbEntity
  8
0
  6
Continuous
 62
     7
370
    15
100
AcDbSpline
210
0.0
220
0.0
230
1.0
 70
     8
 71
     3
 72
     8
 73
     4
 74
     0
 42
0.00000001
 43
0.00000001
 12
1.0
 22
0.0
 32
0.0
 13
1.0
 23
0.0
 33
0.0
 40
0.0
 40
0.0
 40
0.0
 40
0.0
 40
1.0
 40
1.0
 40
1.0
 40
1.0
 10
113.2485528338076
 20
164.1837095802365
 30
0.0
 10
113.2209847591828
 20
164.2130800433071
 30
0.0
 10
113.1860266560893
 20
164.236196311787
 30
0.0
 10
113.1454488581677
 20
164.2497451266153
 30
0.0
  0
ARC
  5
1F1
330
1F
100
AcDbEntity
  8
0
  6
Continuous
 62
     7
370
    15
100
AcDbCircle
 10
76.0631767956
 20
129.2803027423
 30
0.0
 40
51.00000000000002
100
AcDbArc
 50
40.8130914957
 51
43.1869085043
  0
SPLINE
  5
1F2
330
1F
100
AcDbEntity
  8
0
  6
Continuous
 62
     7
370
    15
100
AcDbSpline
210
0.0
220
0.0
230
1.0
 70
     8
 71
     3
 72
     8
 73
     4
 74
     0
 42
0.00000001
 43
0.00000001
 12
1.0
 22
0.0
 32
0.0
 13
1.0
 23
0.0
 33
0.0
 40
0.0
 40
0.0
 40
0.0
 40
0.0
 40
1.0
 40
1.0
 40
1.0
 40
1.0
 10
114.6623093321763
 20
162.6135739202271
 30
0.0
 10
114.6886372522969
 20
162.5830868170346
 30
0.0
 10
114.7079727706487
 20
162.5459039100616
 30
0.0
 10
114.7172058287922
 20
162.5041321647696
 30
0.0
  0
SPLINE
  5
1F3
330
1F
100
AcDbEntity
  8
0
  6
Continuous
 62
     7
370
    15
100
AcDbSpline
210
0.0
220
0.0
230
1.0
 70
     8
 71
     3
 72
     8
 73
     4
 74
     0
 42
0.00000001
 43
0.00000001
 12
1.0
 22
0.0
 32
0.0
 13
1.0
 23
0.0
 33
0.0
 40
0.0
 40
0.0
 40
0.0
 40
0.0
 40
1.0
 40
1.0
 40
1.0
 40
1.0
 10
95.83721363685717
 20
176.2908065366471
 30
0.0
 10
95.80008290395062
 20
176.3064248436461
 30
0.0
 10
95.75874485422194
 20
176.3133238642121
 30
0.0
 10
95.71616439178864
 20
176.3091968451449
 30
0.0
  0
ARC
  5
1F4
330
1F
100
AcDbEntity
  8
0
  6
Continuous
 62
     7
370
    15
100
AcDbCircle
 10
76.0631767956
 20
129.2803027423
 30
0.0
 40
50.99999999999999
100
AcDbArc
 50
64.8130914957
 51
67.1869085043
  0
SPLINE
  5
1F5
330
1F
100
AcDbEntity
  8
0
  6
Continuous
 62
     7
370
    15
100
AcDbSpline
210
0.0
220
0.0
230
1.0
 70
     8
 71
     3
 72
     8
 73
     4
 74
     0
 42
0.00000001
 43
0.00000001
 12
1.0
 22
0.0
 32
0.0
 13
1.0
 23
0.0
 33
0.0
 40
0.0
 40
0.0
 40
0.0
 40
0.0
 40
1.0
 40
1.0
 40
1.0
 40
1.0
 10
97.76737617168044
 20
175.431442808836
 30
0.0
 10
97.80382814552505
 20
175.4142999840469
 30
0.0
 10
97.8366156712489
 20
175.3881961721062
 30
0.0
 10
97.86204058903151
 20
175.3537912070115
 30
0.0
  0
SPLINE
  5
1F6
330
1F
100
AcDbEntity
  8
0
  6
Continuous
 62
     7
370
    15
100
AcDbSpline
210
0.0
220
0.0
230
1.0
 70
     8
 71
     3
 72
     8
 73
     4
 74
     0
 42
0.00000001
 43
0.00000001
 12
1.0
 22
0.0
 32
0.0
 13
1.0
 23
0.0
 33
0.0
 40
0.0
 40
0.0
 40
0.0
 40
0.0
 40
1.0
 40
1.0
 40
1.0
 40
1.0
 10
54.35897741948055
 20
175.4314428088364
 30
0.0
 10
54.32252544563754
 20
175.414299984048
 30
0.0
 10
54.28973791991213
 20
175.3881961721066
 30
0.0
 10
54.26431300212953
 20
175.3537912070119
 30
0.0
  0
ARC
  5
1F7
330
1F
100
AcDbEntity
  8
0
  6
Continuous
 62
     7
370
    15
100
AcDbCircle
 10
76.0631767956
 20
129.2803027423
 30
0.0
 40
51.00000000000002
100
AcDbArc
 50
112.8130914957
 51
115.1869085042
  0
SPLINE
  5
1F8
330
1F
100
AcDbEntity
  8
0
  6
Continuous
 62
     7
370
    15
100
AcDbSpline
210
0.0
220
0.0
230
1.0
 70
     8
 71
     3
 72
     8
 73
     4
 74
     0
 42
0.00000001
 43
0.00000001
 12
1.0
 22
0.0
 32
0.0
 13
1.0
 23
0.0
 33
0.0
 40
0.0
 40
0.0
 40
0.0
 40
0.0
 40
1.0
 40
1.0
 40
1.0
 40
1.0
 10
56.28913995430379
 20
176.2908065366474
 30
0.0
 10
56.32627068719729
 20
176.3064248436409
 30
0.0
 10
56.367608736939
 20
176.3133238642124
 30
0.0
 10
56.41018919937235
 20
176.3091968451452
 30
0.0
  0
SPLINE
  5
1F9
330
1F
100
AcDbEntity
  8
0
  6
Continuous
 62
     7
370
    15
100
AcDbSpline
210
0.0
220
0.0
230
1.0
 70
     8
 71
     3
 72
     8
 73
     4
 74
     0
 42
0.00000001
 43
0.00000001
 12
1.0
 22
0.0
 32
0.0
 13
1.0
 23
0.0
 33
0.0
 40
0.0
 40
0.0
 40
0.0
 40
0.0
 40
1.0
 40
1.0
 40
1.0
 40
1.0
 10
124.2302026952126
 20
146.0414964940472
 30
0.0
 10
124.216964049421
 20
146.0795406932947
 30
0.0
 10
124.1944304665711
 20
146.1148771968712
 30
0.0
 10
124.1628716030596
 20
146.1437591324241
 30
0.0
  0
ARC
  5
1FA
330
1F
100
AcDbEntity
  8
0
  6
Continuous
 62
     7
370
    15
100
AcDbCircle
 10
76.0631767956
 20
129.2803027423
 30
0.0
 40
51.00000000000001
100
AcDbArc
 50
16.8130914957
 51
19.1869085043
  0
SPLINE
  5
1FB
330
1F
100
AcDbEntity
  8
0
  6
Continuous
 62
     7
370
    15
100
AcDbSpline
210
0.0
220
0.0
230
1.0
 70
     8
 71
     3
 72
     8
 73
     4
 74
     0
 42
0.00000001
 43
0.00000001
 12
1.0
 22
0.0
 32
0.0
 13
1.0
 23
0.0
 33
0.0
 40
0.0
 40
0.0
 40
0.0
 40
0.0
 40
1.0
 40
1.0
 40
1.0
 40
1.0
 10
124.8831018149842
 20
144.0320796216899
 30
0.0
 10
124.894753344808
 20
143.9935197372089
 30
0.0
 10
124.8972935690094
 20
143.951686997609
 30
0.0
 10
124.888738287881
 20
143.9097711863651
 30
0.0
  0
SPLINE
  5
1FC
330
1F
100
AcDbEntity
  8
0
  6
Continuous
 62
     7
370
    15
100
AcDbSpline
210
0.0
220
0.0
230
1.0
 70
     8
 71
     3
 72
     8
 73
     4
 74
     0
 42
0.00000001
 43
0.00000001
 12
1.0
 22
0.0
 32
0.0
 13
1.0
 23
0.0
 33
0.0
 40
0.0
 40
0.0
 40
0.0
 40
0.0
 40
1.0
 40
1.0
 40
1.0
 40
1.0
 10
106.8884489055646
 20
88.65023260518723
 30
0.0
 10
106.9205401226318
 20
88.6745796096374
 30
0.0
 10
106.9471838745788
 20
88.70692990057087
 30
0.0
 10
106.9649000024413
 20
88.74586917227661
 30
0.0
  0
ARC
  5
1FD
330
1F
100
AcDbEntity
  8
0
  6
Continuous
 62
     7
370
    15
100
AcDbCircle
 10
76.0631767956
 20
129.2803027423
 30
0.0
 40
50.99999999999999
100
AcDbArc
 50
304.8130914957
 51
307.1869085043
  0
SPLINE
  5
1FE
330
1F
100
AcDbEntity
  8
0
  6
Continuous
 62
     7
370
    15
100
AcDbSpline
210
0.0
220
0.0
230
1.0
 70
     8
 71
     3
 72
     8
 73
     4
 74
     0
 42
0.00000001
 43
0.00000001
 12
1.0
 22
0.0
 32
0.0
 13
1.0
 23
0.0
 33
0.0
 40
0.0
 40
0.0
 40
0.0
 40
0.0
 40
1.0
 40
1.0
 40
1.0
 40
1.0
 10
105.1791368187776
 20
87.4083446805029
 30
0.0
 10
105.1460647100959
 20
87.38534775753027
 30
0.0
 10
105.1070643829572
 20
87.37000483329618
 30
0.0
 10
105.0645563502776
 20
87.36518869115466
 30
0.0
  0
SPLINE
  5
1FF
330
1F
100
AcDbEntity
  8
0
  6
Continuous
 62
     7
370
    15
100
AcDbSpline
210
0.0
220
0.0
230
1.0
 70
     8
 71
     3
 72
     8
 73
     4
 74
     0
 42
0.00000001
 43
0.00000001
 12
1.0
 22
0.0
 32
0.0
 13
1.0
 23
0.0
 33
0.0
 40
0.0
 40
0.0
 40
0.0
 40
0.0
 40
1.0
 40
1.0
 40
1.0
 40
1.0
 10
75.0067638285648
 20
180.2693603099929
 30
0.0
 10
74.96649067843194
 20
180.2685259137508
 30
0.0
 10
74.92592040639687
 20
180.2580147830728
 30
0.0
 10
74.88869982823789
 20
180.2369255291997
 30
0.0
  0
ARC
  5
200
330
1F
100
AcDbEntity
  8
0
  6
Continuous
 62
     7
370
    15
100
AcDbCircle
 10
76.0631767956
 20
129.2803027423
 30
0.0
 40
51.00000000000001
100
AcDbArc
 50
88.8130914957
 51
91.1869085043
  0
SPLINE
  5
201
330
1F
100
AcDbEntity
  8
0
  6
Continuous
 62
     7
370
    15
100
AcDbSpline
210
0.0
220
0.0
230
1.0
 70
     8
 71
     3
 72
     8
 73
     4
 74
     0
 42
0.00000001
 43
0.00000001
 12
1.0
 22
0.0
 32
0.0
 13
1.0
 23
0.0
 33
0.0
 40
0.0
 40
0.0
 40
0.0
 40
0.0
 40
1.0
 40
1.0
 40
1.0
 40
1.0
 10
77.11958976259551
 20
180.2693603099929
 30
0.0
 10
77.1598629127284
 20
180.2685259137508
 30
0.0
 10
77.2004331847635
 20
180.2580147830728
 30
0.0
 10
77.23765376292248
 20
180.2369255291996
 30
0.0
  0
SPLINE
  5
202
330
1F
100
AcDbEntity
  8
0
  6
Continuous
 62
     7
370
    15
100
AcDbSpline
210
0.0
220
0.0
230
1.0
 70
     8
 71
     3
 72
     8
 73
     4
 74
     0
 42
0.00000001
 43
0.00000001
 12
1.0
 22
0.0
 32
0.0
 13
1.0
 23
0.0
 33
0.0
 40
0.0
 40
0.0
 40
0.0
 40
0.0
 40
1.0
 40
1.0
 40
1.0
 40
1.0
 10
87.69772577675643
 20
79.62511902492581
 30
0.0
 10
87.73694538120515
 20
79.63430844634811
 30
0.0
 10
87.77444370849994
 20
79.65302491745615
 30
0.0
 10
87.8064662252932
 20
79.68139191387175
 30
0.0
  0
ARC
  5
203
330
1F
100
AcDbEntity
  8
0
  6
Continuous
 62
     7
370
    15
100
AcDbCircle
 10
76.0631767956
 20
129.2803027423
 30
0.0
 40
50.99999999999998
100
AcDbArc
 50
280.8130914957
 51
283.1869085043
  0
SPLINE
  5
204
330
1F
100
AcDbEntity
  8
0
  6
Continuous
 62
     7
370
    15
100
AcDbSpline
210
0.0
220
0.0
230
1.0
 70
     8
 71
     3
 72
     8
 73
     4
 74
     0
 42
0.00000001
 43
0.00000001
 12
1.0
 22
0.0
 32
0.0
 13
1.0
 23
0.0
 33
0.0
 40
0.0
 40
0.0
 40
0.0
 40
0.0
 40
1.0
 40
1.0
 40
1.0
 40
1.0
 10
85.6310701586161
 20
79.18583781257787
 30
0.0
 10
85.59150359272068
 20
79.17828071652424
 30
0.0
 10
85.54963449150222
 20
79.18012711991939
 30
0.0
 10
85.5088425698472
 20
79.1930169296585
 30
0.0
  0
SPLINE
  5
205
330
1F
100
AcDbEntity
  8
0
  6
Continuous
 62
     7
370
    15
100
AcDbSpline
210
0.0
220
0.0
230
1.0
 70
     8
 71
     3
 72
     8
 73
     4
 74
     0
 42
0.00000001
 43
0.00000001
 12
1.0
 22
0.0
 32
0.0
 13
1.0
 23
0.0
 33
0.0
 40
0.0
 40
0.0
 40
0.0
 40
0.0
 40
1.0
 40
1.0
 40
1.0
 40
1.0
 10
46.94721677238217
 20
87.40834468050329
 30
0.0
 10
46.98028888105951
 20
87.38534775753371
 30
0.0
 10
47.01928920820257
 20
87.3700048332966
 30
0.0
 10
47.06179724088216
 20
87.36518869115505
 30
0.0
  0
ARC
  5
206
330
1F
100
AcDbEntity
  8
0
  6
Continuous
 62
     7
370
    15
100
AcDbCircle
 10
76.0631767956
 20
129.2803027423
 30
0.0
 40
50.99999999999998
100
AcDbArc
 50
232.8130914957
 51
235.1869085043
  0
SPLINE
  5
207
330
1F
100
AcDbEntity
  8
0
  6
Continuous
 62
     7
370
    15
100
AcDbSpline
210
0.0
220
0.0
230
1.0
 70
     8
 71
     3
 72
     8
 73
     4
 74
     0
 42
0.00000001
 43
0.00000001
 12
1.0
 22
0.0
 32
0.0
 13
1.0
 23
0.0
 33
0.0
 40
0.0
 40
0.0
 40
0.0
 40
0.0
 40
1.0
 40
1.0
 40
1.0
 40
1.0
 10
45.23790468559521
 20
88.65023260518764
 30
0.0
 10
45.20581346853977
 20
88.67457960962885
 30
0.0
 10
45.17916971658101
 20
88.7069299005713
 30
0.0
 10
45.16145358871844
 20
88.74586917227708
 30
0.0
  0
SPLINE
  5
208
330
1F
100
AcDbEntity
  8
0
  6
Continuous
 62
     7
370
    15
100
AcDbSpline
210
0.0
220
0.0
230
1.0
 70
     8
 71
     3
 72
     8
 73
     4
 74
     0
 42
0.00000001
 43
0.00000001
 12
1.0
 22
0.0
 32
0.0
 13
1.0
 23
0.0
 33
0.0
 40
0.0
 40
0.0
 40
0.0
 40
0.0
 40
1.0
 40
1.0
 40
1.0
 40
1.0
 10
32.43356411042461
 20
102.8708934921076
 30
0.0
 10
32.45442329383275
 20
102.8364331191244
 30
0.0
 10
32.48381133604068
 20
102.8065537982413
 30
0.0
 10
32.52068545472122
 20
102.7848644589487
 30
0.0
  0
ARC
  5
209
330
1F
100
AcDbEntity
  8
0
  6
Continuous
 62
     7
370
    15
100
AcDbCircle
 10
76.0631767956
 20
129.2803027423
 30
0.0
 40
50.99999999999999
100
AcDbArc
 50
208.8130914957
 51
211.1869085043
  0
SPLINE
  5
20A
330
1F
100
AcDbEntity
  8
0
  6
Continuous
 62
     7
370
    15
100
AcDbSpline
210
0.0
220
0.0
230
1.0
 70
     8
 71
     3
 72
     8
 73
     4
 74
     0
 42
0.00000001
 43
0.00000001
 12
1.0
 22
0.0
 32
0.0
 13
1.0
 23
0.0
 33
0.0
 40
0.0
 40
0.0
 40
0.0
 40
0.0
 40
1.0
 40
1.0
 40
1.0
 40
1.0
 10
31.37715114340926
 20
104.7006544247528
 30
0.0
 10
31.35773717668915
 20
104.7359491939723
 30
0.0
 10
31.34655494685739
 20
104.7763396455391
 30
0.0
 10
31.34620848737896
 20
104.819118238705
 30
0.0
  0
SPLINE
  5
20B
330
1F
100
AcDbEntity
  8
0
  6
Continuous
 62
     7
370
    15
100
AcDbSpline
210
0.0
220
0.0
230
1.0
 70
     8
 71
     3
 72
     8
 73
     4
 74
     0
 42
0.00000001
 43
0.00000001
 12
1.0
 22
0.0
 32
0.0
 13
1.0
 23
0.0
 33
0.0
 40
0.0
 40
0.0
 40
0.0
 40
0.0
 40
1.0
 40
1.0
 40
1.0
 40
1.0
 10
27.24325177617635
 20
144.0320796216905
 30
0.0
 10
27.23160024635673
 20
143.9935197372234
 30
0.0
 10
27.22906002215117
 20
143.9516869976097
 30
0.0
 10
27.23761530327949
 20
143.9097711863658
 30
0.0
  0
ARC
  5
20C
330
1F
100
AcDbEntity
  8
0
  6
Continuous
 62
     7
370
    15
100
AcDbCircle
 10
76.0631767956
 20
129.2803027423
 30
0.0
 40
51.0
100
AcDbArc
 50
160.8130914957
 51
163.1869085043
  0
SPLINE
  5
20D
330
1F
100
AcDbEntity
  8
0
  6
Continuous
 62
     7
370
    15
100
AcDbSpline
210
0.0
220
0.0
230
1.0
 70
     8
 71
     3
 72
     8
 73
     4
 74
     0
 42
0.00000001
 43
0.00000001
 12
1.0
 22
0.0
 32
0.0
 13
1.0
 23
0.0
 33
0.0
 40
0.0
 40
0.0
 40
0.0
 40
0.0
 40
1.0
 40
1.0
 40
1.0
 40
1.0
 10
27.89615089594799
 20
146.0414964940479
 30
0.0
 10
27.90938954173063
 20
146.0795406932697
 30
0.0
 10
27.93192312458947
 20
146.1148771968718
 30
0.0
 10
27.96348198810098
 20
146.1437591324247
 30
0.0
  0
SPLINE
  5
20E
330
1F
100
AcDbEntity
  8
0
  6
Continuous
 62
     7
370
    15
100
AcDbSpline
210
0.0
220
0.0
230
1.0
 70
     8
 71
     3
 72
     8
 73
     4
 74
     0
 42
0.00000001
 43
0.00000001
 12
1.0
 22
0.0
 32
0.0
 13
1.0
 23
0.0
 33
0.0
 40
0.0
 40
0.0
 40
0.0
 40
0.0
 40
1.0
 40
1.0
 40
1.0
 40
1.0
 10
37.46404425898446
 20
162.6135739202276
 30
0.0
 10
37.43771633886177
 20
162.5830868170327
 30
0.0
 10
37.41838082051206
 20
162.5459039100622
 30
0.0
 10
37.40914776236857
 20
162.5041321647702
 30
0.0
  0
ARC
  5
20F
330
1F
100
AcDbEntity
  8
0
  6
Continuous
 62
     7
370
    15
100
AcDbCircle
 10
76.0631767956
 20
129.2803027423
 30
0.0
 40
51.0
100
AcDbArc
 50
136.8130914957
 51
139.1869085042
  0
SPLINE
  5
210
330
1F
100
AcDbEntity
  8
0
  6
Continuous
 62
     7
370
    15
100
AcDbSpline
210
0.0
220
0.0
230
1.0
 70
     8
 71
     3
 72
     8
 73
     4
 74
     0
 42
0.00000001
 43
0.00000001
 12
1.0
 22
0.0
 32
0.0
 13
1.0
 23
0.0
 33
0.0
 40
0.0
 40
0.0
 40
0.0
 40
0.0
 40
1.0
 40
1.0
 40
1.0
 40
1.0
 10
38.87780075735316
 20
164.183709580237
 30
0.0
 10
38.90536883196642
 20
164.2130800432953
 30
0.0
 10
38.94032693507153
 20
164.2361963117875
 30
0.0
 10
38.98090473299315
 20
164.2497451266158
 30
0.0
  0
SPLINE
  5
211
330
1F
100
AcDbEntity
  8
0
  6
Continuous
 62
     7
370
    15
100
AcDbSpline
210
0.0
220
0.0
230
1.0
 70
     8
 71
     3
 72
     8
 73
     4
 74
     0
 42
0.00000001
 43
0.00000001
 12
1.0
 22
0.0
 32
0.0
 13
1.0
 23
0.0
 33
0.0
 40
0.0
 40
0.0
 40
0.0
 40
0.0
 40
1.0
 40
1.0
 40
1.0
 40
1.0
 10
66.49528343254357
 20
79.18583781257801
 30
0.0
 10
66.53484999845435
 20
79.17828071652144
 30
0.0
 10
66.57671909965742
 20
79.1801271199195
 30
0.0
 10
66.61751102131241
 20
79.1930169296586
 30
0.0
  0
ARC
  5
212
330
1F
100
AcDbEntity
  8
0
  6
Continuous
 62
     7
370
    15
100
AcDbCircle
 10
76.0631767956
 20
129.2803027423
 30
0.0
 40
50.99999999999999
100
AcDbArc
 50
256.8130914957
 51
259.1869085043
  0
SPLINE
  5
213
330
1F
100
AcDbEntity
  8
0
  6
Continuous
 62
     7
370
    15
100
AcDbSpline
210
0.0
220
0.0
230
1.0
 70
     8
 71
     3
 72
     8
 73
     4
 74
     0
 42
0.00000001
 43
0.00000001
 12
1.0
 22
0.0
 32
0.0
 13
1.0
 23
0.0
 33
0.0
 40
0.0
 40
0.0
 40
0.0
 40
0.0
 40
1.0
 40
1.0
 40
1.0
 40
1.0
 10
64.42862781440328
 20
79.62511902492597
 30
0.0
 10
64.38940820996247
 20
79.63430844634642
 30
0.0
 10
64.35190988265973
 20
79.65302491745635
 30
0.0
 10
64.31988736586644
 20
79.68139191387195
 30
0.0
  0
SPLINE
  5
214
330
1F
100
AcDbEntity
  8
0
  6
Continuous
 62
     7
370
    15
100
AcDbSpline
210
0.0
220
0.0
230
1.0
 70
     8
 71
     3
 72
     8
 73
     4
 74
     0
 42
0.00000001
 43
0.00000001
 12
1.0
 22
0.0
 32
0.0
 13
1.0
 23
0.0
 33
0.0
 40
0.0
 40
0.0
 40
0.0
 40
0.0
 40
1.0
 40
1.0
 40
1.0
 40
1.0
 10
25.46386784431849
 20
122.8998690850184
 30
0.0
 10
25.4689073601437
 20
122.8599037735831
 30
0.0
 10
25.4836016579395
 20
122.8206544620698
 30
0.0
 10
25.50846599251026
 20
122.7858422094312
 30
0.0
  0
ARC
  5
215
330
1F
100
AcDbEntity
  8
0
  6
Continuous
 62
     7
370
    15
100
AcDbCircle
 10
76.0631767956
 20
129.2803027423
 30
0.0
 40
51.00000000000001
100
AcDbArc
 50
184.8130914957
 51
187.1869085043
  0
SPLINE
  5
216
330
1F
100
AcDbEntity
  8
0
  6
Continuous
 62
     7
370
    15
100
AcDbSpline
210
0.0
220
0.0
230
1.0
 70
     8
 71
     3
 72
     8
 73
     4
 74
     0
 42
0.00000001
 43
0.00000001
 12
1.0
 22
0.0
 32
0.0
 13
1.0
 23
0.0
 33
0.0
 40
0.0
 40
0.0
 40
0.0
 40
0.0
 40
1.0
 40
1.0
 40
1.0
 40
1.0
 10
25.24301739628223
 20
125.0011207375139
 30
0.0
 10
25.23963753112105
 20
125.0412604852618
 30
0.0
 10
25.24585033253423
 20
125.0827072214503
 30
0.0
 10
25.26293344743123
 20
125.1219283286866
 30
0.0
  0
LINE
  5
217
330
1F
100
AcDbEntity
  8
0
  6
Continuous
 62
     7
370
    15
100
AcDbLine
 10
181.9582157229
 20
120.6289828511
 30
0.0
 11
182.2082162296
 21
120.8789833577
 31
0.0
  0
LINE
  5
218
330
1F
100
AcDbEntity
  8
0
  6
Continuous
 62
     7
370
    15
100
AcDbLine
 10
166.2082154696
 20
120.8789833577
 30
0.0
 11
166.4582154815
 21
120.6289828511
 31
0.0
  0
LINE
  5
219
330
1F
100
AcDbEntity
  8
0
  6
Continuous
 62
     7
370
    15
100
AcDbLine
 10
166.4582154815
 20
120.6289828511
 30
0.0
 11
181.9582157229
 21
120.6289828511
 31
0.0
  0
LINE
  5
21A
330
1F
100
AcDbEntity
  8
0
  6
Continuous
 62
     7
370
    15
100
AcDbLine
 10
166.4582154815
 20
147.0940616669
 30
0.0
 11
166.2082154696
 21
146.8440611602
 31
0.0
  0
LINE
  5
21B
330
1F
100
AcDbEntity
  8
0
  6
Continuous
 62
     7
370
    15
100
AcDbLine
 10
182.2082162296
 20
146.8440611602
 30
0.0
 11
181.9582157229
 21
147.0940616669
 31
0.0
  0
LINE
  5
21C
330
1F
100
AcDbEntity
  8
0
  6
Continuous
 62
     7
370
    15
100
AcDbLine
 10
181.9582157229
 20
147.0940616669
 30
0.0
 11
166.4582154815
 21
147.0940616669
 31
0.0
  0
LINE
  5
21D
330
1F
100
AcDbEntity
  8
0
  6
Continuous
 62
     7
370
    15
100
AcDbLine
 10
181.9582157229
 20
102.5581956597
 30
0.0
 11
182.2082162296
 21
102.8081961663
 31
0.0
  0
LINE
  5
21E
330
1F
100
AcDbEntity
  8
0
  6
Continuous
 62
     7
370
    15
100
AcDbLine
 10
166.2082154696
 20
102.8081961663
 30
0.0
 11
166.4582154815
 21
102.5581956597
 31
0.0
  0
LINE
  5
21F
330
1F
100
AcDbEntity
  8
0
  6
Continuous
 62
     7
370
    15
100
AcDbLine
 10
166.4582154815
 20
102.5581956597
 30
0.0
 11
181.9582157229
 21
102.5581956597
 31
0.0
  0
LINE
  5
220
330
1F
100
AcDbEntity
  8
0
  6
Continuous
 62
     7
370
    15
100
AcDbLine
 10
181.9591004794
 20
164.262615213
 30
0.0
 11
166.4576131777
 21
164.262615213
 31
0.0
  0
LINE
  5
221
330
1F
100
AcDbEntity
  8
0
  6
Continuous
 62
     7
370
    15
100
AcDbLine
 10
166.4507522262
 20
87.3636007996
 30
0.0
 11
181.9659531509
 21
87.3636007996
 31
0.0
  0
LINE
  5
222
330
1F
100
AcDbEntity
  8
0
  6
Continuous
 62
     7
370
    15
100
AcDbLine
 10
181.9513518756
 20
176.3103642257
 30
0.0
 11
166.46507994
 21
176.3103642257
 31
0.0
  0
LINE
  5
223
330
1F
100
AcDbEntity
  8
0
  6
Continuous
 62
     7
370
    15
100
AcDbLine
 10
166.5160919408
 20
79.1813992651
 30
0.0
 11
181.9005407785
 21
79.1813992651
 31
0.0
  0
ARC
  5
224
330
1F
100
AcDbEntity
  8
0
  6
Continuous
 62
     7
370
    15
100
AcDbCircle
 10
166.5617688602
 20
180.0303027423
 30
0.0
 40
0.250000000000002
100
AcDbArc
 50
90.0
 51
135.0
  0
ARC
  5
225
330
1F
100
AcDbEntity
  8
0
  6
Continuous
 62
     7
370
    15
100
AcDbCircle
 10
181.854662079
 20
180.0303027423
 30
0.0
 40
0.25
100
AcDbArc
 50
45.0
 51
90.0
  0
LINE
  5
226
330
1F
100
AcDbEntity
  8
0
  6
Continuous
 62
     7
370
    15
100
AcDbLine
 10
166.3849921649
 20
180.2070812078
 30
0.0
 11
166.2082154696
 21
180.030301282
 31
0.0
  0
LINE
  5
227
330
1F
100
AcDbEntity
  8
0
  6
Continuous
 62
     7
370
    15
100
AcDbLine
 10
182.2082162296
 20
180.030301282
 30
0.0
 11
182.0314381664
 21
180.2070812078
 31
0.0
  0
LINE
  5
228
330
1F
100
AcDbEntity
  8
0
  6
Continuous
 62
     7
370
    15
100
AcDbLine
 10
181.8546619659
 20
180.2803017886
 30
0.0
 11
166.5617688602
 21
180.2803017886
 31
0.0
  0
SPLINE
  5
229
330
1F
100
AcDbEntity
  8
0
  6
Continuous
 62
     7
370
    15
100
AcDbSpline
210
0.0
220
0.0
230
1.0
 70
     8
 71
     3
 72
     8
 73
     4
 74
     0
 42
0.00000001
 43
0.00000001
 12
1.0
 22
0.0
 32
0.0
 13
1.0
 23
0.0
 33
0.0
 40
0.0
 40
0.0
 40
0.0
 40
0.0
 40
1.0
 40
1.0
 40
1.0
 40
1.0
 10
166.4433149090007
 20
125.1219283286852
 30
0.0
 10
166.4527759859809
 20
125.1476884365589
 30
0.0
 10
166.4582154696153
 20
125.1728576832293
 30
0.0
 10
166.4582154696154
 20
125.1945771174946
 30
0.0
  0
LINE
  5
22A
330
1F
100
AcDbEntity
  8
0
  6
Continuous
 62
     7
370
    15
100
AcDbLine
 10
166.4582154815
 20
125.1945771033
 30
0.0
 11
181.9582157229
 21
125.1945771033
 31
0.0
  0
SPLINE
  5
22B
330
1F
100
AcDbEntity
  8
0
  6
Continuous
 62
     7
370
    15
100
AcDbSpline
210
0.0
220
0.0
230
1.0
 70
     8
 71
     3
 72
     8
 73
     4
 74
     0
 42
0.00000001
 43
0.00000001
 12
1.0
 22
0.0
 32
0.0
 13
1.0
 23
0.0
 33
0.0
 40
0.0
 40
0.0
 40
0.0
 40
0.0
 40
1.0
 40
1.0
 40
1.0
 40
1.0
 10
181.9582154696133
 20
125.1945771174936
 30
0.0
 10
181.9582154696133
 20
125.1728260448815
 30
0.0
 10
181.96359132417
 20
125.1478616823595
 30
0.0
 10
181.9731160302259
 20
125.1219283286854
 30
0.0
  0
SPLINE
  5
22C
330
1F
100
AcDbEntity
  8
0
  6
Continuous
 62
     7
370
    15
100
AcDbSpline
210
0.0
220
0.0
230
1.0
 70
     8
 71
     3
 72
     8
 73
     4
 74
     0
 42
0.00000001
 43
0.00000001
 12
1.0
 22
0.0
 32
0.0
 13
1.0
 23
0.0
 33
0.0
 40
0.0
 40
0.0
 40
0.0
 40
0.0
 40
1.0
 40
1.0
 40
1.0
 40
1.0
 10
181.85466207902
 20
125.0011207375139
 30
0.0
 10
181.8948450247058
 20
125.0412604852618
 30
0.0
 10
181.9355244144966
 20
125.0827072214503
 30
0.0
 10
181.9731160302244
 20
125.1219283286866
 30
0.0
  0
LINE
  5
22D
330
1F
100
AcDbEntity
  8
0
  6
Continuous
 62
     7
370
    15
100
AcDbLine
 10
181.8546619659
 20
125.0011209154
 30
0.0
 11
166.5617688602
 21
125.0011209154
 31
0.0
  0
SPLINE
  5
22E
330
1F
100
AcDbEntity
  8
0
  6
Continuous
 62
     7
370
    15
100
AcDbSpline
210
0.0
220
0.0
230
1.0
 70
     8
 71
     3
 72
     8
 73
     4
 74
     0
 42
0.00000001
 43
0.00000001
 12
1.0
 22
0.0
 32
0.0
 13
1.0
 23
0.0
 33
0.0
 40
0.0
 40
0.0
 40
0.0
 40
0.0
 40
1.0
 40
1.0
 40
1.0
 40
1.0
 10
166.5617688602066
 20
125.0011207375139
 30
0.0
 10
166.5215859145311
 20
125.041260485272
 30
0.0
 10
166.48090652473
 20
125.0827072214503
 30
0.0
 10
166.4433149090022
 20
125.1219283286865
 30
0.0
  0
SPLINE
  5
22F
330
1F
100
AcDbEntity
  8
0
  6
Continuous
 62
     7
370
    15
100
AcDbSpline
210
0.0
220
0.0
230
1.0
 70
     8
 71
     3
 72
     8
 73
     4
 74
     0
 42
0.00000001
 43
0.00000001
 12
1.0
 22
0.0
 32
0.0
 13
1.0
 23
0.0
 33
0.0
 40
0.0
 40
0.0
 40
0.0
 40
0.0
 40
1.0
 40
1.0
 40
1.0
 40
1.0
 10
166.3849921649099
 20
125.0862043837227
 30
0.0
 10
166.4039767420271
 20
125.0930577458131
 30
0.0
 10
166.4237193598709
 20
125.1059608458521
 30
0.0
 10
166.4433149090005
 20
125.1219283286866
 30
0.0
  0
LINE
  5
230
330
1F
100
AcDbEntity
  8
0
  6
Continuous
 62
     7
370
    15
100
AcDbLine
 10
166.5617688602
 20
125.0011209154
 30
0.0
 11
166.5617688602
 21
122.8998690599
 31
0.0
  0
SPLINE
  5
231
330
1F
100
AcDbEntity
  8
0
  6
Continuous
 62
     7
370
    15
100
AcDbSpline
210
0.0
220
0.0
230
1.0
 70
     8
 71
     3
 72
     8
 73
     4
 74
     0
 42
0.00000001
 43
0.00000001
 12
1.0
 22
0.0
 32
0.0
 13
1.0
 23
0.0
 33
0.0
 40
0.0
 40
0.0
 40
0.0
 40
0.0
 40
1.0
 40
1.0
 40
1.0
 40
1.0
 10
166.5617688602066
 20
122.8998690850184
 30
0.0
 10
166.5216159457542
 20
122.8599336421462
 30
0.0
 10
166.4810111878167
 20
122.8207513868161
 30
0.0
 10
166.4433149090027
 20
122.7858422094317
 30
0.0
  0
SPLINE
  5
232
330
1F
100
AcDbEntity
  8
0
  6
Continuous
 62
     7
370
    15
100
AcDbSpline
210
0.0
220
0.0
230
1.0
 70
     8
 71
     3
 72
     8
 73
     4
 74
     0
 42
0.00000001
 43
0.00000001
 12
1.0
 22
0.0
 32
0.0
 13
1.0
 23
0.0
 33
0.0
 40
0.0
 40
0.0
 40
0.0
 40
0.0
 40
1.0
 40
1.0
 40
1.0
 40
1.0
 10
166.4433149090056
 20
122.785842209427
 30
0.0
 10
166.4239072807389
 20
122.8037584435427
 30
0.0
 10
166.4038756794858
 20
122.8197213776919
 30
0.0
 10
166.3849921649099
 20
122.830445898206
 30
0.0
  0
LINE
  5
233
330
1F
100
AcDbEntity
  8
0
  6
Continuous
 62
     7
370
    15
100
AcDbLine
 10
166.3849921649
 20
122.8304459469
 30
0.0
 11
166.3849921649
 21
125.0862042175
 31
0.0
  0
SPLINE
  5
234
330
1F
100
AcDbEntity
  8
0
  6
Continuous
 62
     7
370
    15
100
AcDbSpline
210
0.0
220
0.0
230
1.0
 70
     8
 71
     3
 72
     8
 73
     4
 74
     0
 42
0.00000001
 43
0.00000001
 12
1.0
 22
0.0
 32
0.0
 13
1.0
 23
0.0
 33
0.0
 40
0.0
 40
0.0
 40
0.0
 40
0.0
 40
1.0
 40
1.0
 40
1.0
 40
1.0
 10
181.85466207902
 20
122.8998690850184
 30
0.0
 10
181.8948450247046
 20
122.8599037735831
 30
0.0
 10
181.9355244144966
 20
122.8206544620698
 30
0.0
 10
181.9731160302243
 20
122.7858422094312
 30
0.0
  0
LINE
  5
235
330
1F
100
AcDbEntity
  8
0
  6
Continuous
 62
     7
370
    15
100
AcDbLine
 10
181.8546619659
 20
122.8998690599
 30
0.0
 11
181.8546619659
 21
125.0011209154
 31
0.0
  0
SPLINE
  5
236
330
1F
100
AcDbEntity
  8
0
  6
Continuous
 62
     7
370
    15
100
AcDbSpline
210
0.0
220
0.0
230
1.0
 70
     8
 71
     3
 72
     8
 73
     4
 74
     0
 42
0.00000001
 43
0.00000001
 12
1.0
 22
0.0
 32
0.0
 13
1.0
 23
0.0
 33
0.0
 40
0.0
 40
0.0
 40
0.0
 40
0.0
 40
1.0
 40
1.0
 40
1.0
 40
1.0
 10
181.973116030226
 20
125.1219283286862
 30
0.0
 10
181.992523658491
 20
125.1061139736441
 30
0.0
 10
182.0125552597424
 20
125.0930212626091
 30
0.0
 10
182.0314387743167
 20
125.0862043837227
 30
0.0
  0
LINE
  5
237
330
1F
100
AcDbEntity
  8
0
  6
Continuous
 62
     7
370
    15
100
AcDbLine
 10
182.0314381664
 20
125.0862042175
 30
0.0
 11
182.0314381664
 21
122.8304459469
 31
0.0
  0
SPLINE
  5
238
330
1F
100
AcDbEntity
  8
0
  6
Continuous
 62
     7
370
    15
100
AcDbSpline
210
0.0
220
0.0
230
1.0
 70
     8
 71
     3
 72
     8
 73
     4
 74
     0
 42
0.00000001
 43
0.00000001
 12
1.0
 22
0.0
 32
0.0
 13
1.0
 23
0.0
 33
0.0
 40
0.0
 40
0.0
 40
0.0
 40
0.0
 40
1.0
 40
1.0
 40
1.0
 40
1.0
 10
182.0314387743167
 20
122.830445898206
 30
0.0
 10
182.0124541971995
 20
122.8196639812103
 30
0.0
 10
181.9927115793556
 20
122.803931923486
 30
0.0
 10
181.9731160302261
 20
122.7858422094314
 30
0.0
  0
LINE
  5
239
330
1F
100
AcDbEntity
  8
0
  6
Continuous
 62
     7
370
    15
100
AcDbLine
 10
166.5617688602
 20
122.8998690599
 30
0.0
 11
181.8546619659
 21
122.8998690599
 31
0.0
  0
LINE
  5
23A
330
1F
100
AcDbEntity
  8
0
  6
Continuous
 62
     7
370
    15
100
AcDbLine
 10
166.2082154696
 20
125.0220970938
 30
0.0
 11
166.2082154696
 21
128.6011695152
 31
0.0
  0
LINE
  5
23B
330
1F
100
AcDbEntity
  8
0
  6
Continuous
 62
     7
370
    15
100
AcDbLine
 10
166.2082154696
 20
128.6011695152
 30
0.0
 11
166.4582154815
 21
128.8497999881
 31
0.0
  0
LINE
  5
23C
330
1F
100
AcDbEntity
  8
0
  6
Continuous
 62
     7
370
    15
100
AcDbLine
 10
166.4582154815
 20
128.8497999881
 30
0.0
 11
166.4582154815
 21
125.1945771033
 31
0.0
  0
SPLINE
  5
23D
330
1F
100
AcDbEntity
  8
0
  6
Continuous
 62
     7
370
    15
100
AcDbSpline
210
0.0
220
0.0
230
1.0
 70
     8
 71
     3
 72
     8
 73
     4
 74
     0
 42
0.00000001
 43
0.00000001
 12
1.0
 22
0.0
 32
0.0
 13
1.0
 23
0.0
 33
0.0
 40
0.0001085338104882
 40
0.0001085338104882
 40
0.0001085338104882
 40
0.0001085338104882
 40
0.0003707418624266
 40
0.0003707418624266
 40
0.0003707418624266
 40
0.0003707418624266
 10
166.3849921649099
 20
125.0862043837227
 30
0.0
 10
166.3260371784608
 20
125.0649218517667
 30
0.0
 10
166.2671112509459
 20
125.0435536136723
 30
0.0
 10
166.2082154696133
 20
125.0220971198902
 30
0.0
  0
LINE
  5
23E
330
1F
100
AcDbEntity
  8
0
  6
Continuous
 62
     7
370
    15
100
AcDbLine
 10
181.9582157229
 20
125.1945771033
 30
0.0
 11
181.9582157229
 21
128.8497999881
 31
0.0
  0
LINE
  5
23F
330
1F
100
AcDbEntity
  8
0
  6
Continuous
 62
     7
370
    15
100
AcDbLine
 10
181.9582157229
 20
128.8497999881
 30
0.0
 11
182.2082162296
 21
128.6011695152
 31
0.0
  0
LINE
  5
240
330
1F
100
AcDbEntity
  8
0
  6
Continuous
 62
     7
370
    15
100
AcDbLine
 10
182.2082162296
 20
128.6011695152
 30
0.0
 11
182.2082162296
 21
125.0220970938
 31
0.0
  0
SPLINE
  5
241
330
1F
100
AcDbEntity
  8
0
  6
Continuous
 62
     7
370
    15
100
AcDbSpline
210
0.0
220
0.0
230
1.0
 70
     8
 71
     3
 72
     8
 73
     4
 74
     0
 42
0.00000001
 43
0.00000001
 12
1.0
 22
0.0
 32
0.0
 13
1.0
 23
0.0
 33
0.0
 40
0.0001085338104882
 40
0.0001085338104882
 40
0.0001085338104882
 40
0.0001085338104882
 40
0.0003707418624266
 40
0.0003707418624266
 40
0.0003707418624266
 40
0.0003707418624266
 10
182.0314387743167
 20
125.0862043837227
 30
0.0
 10
182.0903937607658
 20
125.0649218517667
 30
0.0
 10
182.1493196882807
 20
125.0435536136723
 30
0.0
 10
182.2082154696133
 20
125.0220971198902
 30
0.0
  0
LINE
  5
242
330
1F
100
AcDbEntity
  8
0
  6
Continuous
 62
     7
370
    15
100
AcDbLine
 10
166.2082154696
 20
122.931145666
 30
0.0
 11
166.2082154696
 21
125.0220970938
 31
0.0
  0
SPLINE
  5
243
330
1F
100
AcDbEntity
  8
0
  6
Continuous
 62
     7
370
    15
100
AcDbSpline
210
0.0
220
0.0
230
1.0
 70
     8
 71
     3
 72
     8
 73
     4
 74
     0
 42
0.00000001
 43
0.00000001
 12
1.0
 22
0.0
 32
0.0
 13
1.0
 23
0.0
 33
0.0
 40
0.0001085338104882
 40
0.0001085338104882
 40
0.0001085338104882
 40
0.0001085338104882
 40
0.0003707418624266
 40
0.0003707418624266
 40
0.0003707418624266
 40
0.0003707418624266
 10
166.3849921649099
 20
122.830445898206
 30
0.0
 10
166.3260371784608
 20
122.8639282226453
 30
0.0
 10
166.2671112509459
 20
122.8974940167512
 30
0.0
 10
166.2082154696133
 20
122.9311457205932
 30
0.0
  0
LINE
  5
244
330
1F
100
AcDbEntity
  8
0
  6
Continuous
 62
     7
370
    15
100
AcDbLine
 10
182.2082162296
 20
125.0220970938
 30
0.0
 11
182.2082162296
 21
122.931145666
 31
0.0
  0
SPLINE
  5
245
330
1F
100
AcDbEntity
  8
0
  6
Continuous
 62
     7
370
    15
100
AcDbSpline
210
0.0
220
0.0
230
1.0
 70
     8
 71
     3
 72
     8
 73
     4
 74
     0
 42
0.00000001
 43
0.00000001
 12
1.0
 22
0.0
 32
0.0
 13
1.0
 23
0.0
 33
0.0
 40
0.0001085338104882
 40
0.0001085338104882
 40
0.0001085338104882
 40
0.0001085338104882
 40
0.0003707418624266
 40
0.0003707418624266
 40
0.0003707418624266
 40
0.0003707418624266
 10
182.0314387743167
 20
122.830445898206
 30
0.0
 10
182.0903937607658
 20
122.8639282226453
 30
0.0
 10
182.1493196882807
 20
122.8974940167511
 30
0.0
 10
182.2082154696133
 20
122.9311457205932
 30
0.0
  0
LINE
  5
246
330
1F
100
AcDbEntity
  8
0
  6
Continuous
 62
     7
370
    15
100
AcDbLine
 10
181.9582157229
 20
128.8497999881
 30
0.0
 11
166.4582154815
 21
128.8497999881
 31
0.0
  0
SPLINE
  5
247
330
1F
100
AcDbEntity
  8
0
  6
Continuous
 62
     7
370
    15
100
AcDbSpline
210
0.0
220
0.0
230
1.0
 70
     8
 71
     3
 72
     8
 73
     4
 74
     0
 42
0.00000001
 43
0.00000001
 12
1.0
 22
0.0
 32
0.0
 13
1.0
 23
0.0
 33
0.0
 40
0.0
 40
0.0
 40
0.0
 40
0.0
 40
1.0
 40
1.0
 40
1.0
 40
1.0
 10
166.4582154696133
 20
122.7248087533857
 30
0.0
 10
166.4582154696133
 20
122.7417744028031
 30
0.0
 10
166.4528396150573
 20
122.7628240306102
 30
0.0
 10
166.4433149090023
 20
122.7858422094285
 30
0.0
  0
SPLINE
  5
248
330
1F
100
AcDbEntity
  8
0
  6
Continuous
 62
     7
370
    15
100
AcDbSpline
210
0.0
220
0.0
230
1.0
 70
     8
 71
     3
 72
     8
 73
     4
 74
     0
 42
0.00000001
 43
0.00000001
 12
1.0
 22
0.0
 32
0.0
 13
1.0
 23
0.0
 33
0.0
 40
0.0
 40
0.0
 40
0.0
 40
0.0
 40
1.0
 40
1.0
 40
1.0
 40
1.0
 10
181.9731160302259
 20
122.7858422094324
 30
0.0
 10
181.9636549532457
 20
122.7629778018088
 30
0.0
 10
181.9582154696112
 20
122.7417497251644
 30
0.0
 10
181.9582154696112
 20
122.7248087533843
 30
0.0
  0
LINE
  5
249
330
1F
100
AcDbEntity
  8
0
  6
Continuous
 62
     7
370
    15
100
AcDbLine
 10
181.9582157229
 20
122.7248088212
 30
0.0
 11
166.4582154815
 21
122.7248088212
 31
0.0
  0
LINE
  5
24A
330
1F
100
AcDbEntity
  8
0
  6
Continuous
 62
     7
370
    15
100
AcDbLine
 10
181.9582157229
 20
120.6289828511
 30
0.0
 11
181.9582157229
 21
122.7248088212
 31
0.0
  0
LINE
  5
24B
330
1F
100
AcDbEntity
  8
0
  6
Continuous
 62
     7
370
    15
100
AcDbLine
 10
182.2082162296
 20
122.931145666
 30
0.0
 11
182.2082162296
 21
120.8789833577
 31
0.0
  0
LINE
  5
24C
330
1F
100
AcDbEntity
  8
0
  6
Continuous
 62
     7
370
    15
100
AcDbLine
 10
166.4582154815
 20
122.7248088212
 30
0.0
 11
166.4582154815
 21
120.6289828511
 31
0.0
  0
LINE
  5
24D
330
1F
100
AcDbEntity
  8
0
  6
Continuous
 62
     7
370
    15
100
AcDbLine
 10
166.2082154696
 20
120.8789833577
 30
0.0
 11
166.2082154696
 21
122.931145666
 31
0.0
  0
LINE
  5
24E
330
1F
100
AcDbEntity
  8
0
  6
Continuous
 62
     7
370
    15
100
AcDbLine
 10
166.2082154696
 20
138.9458394365
 30
0.0
 11
166.4582154815
 21
138.7080755772
 31
0.0
  0
SPLINE
  5
24F
330
1F
100
AcDbEntity
  8
0
  6
Continuous
 62
     7
370
    15
100
AcDbSpline
210
0.0
220
0.0
230
1.0
 70
     8
 71
     3
 72
     8
 73
     4
 74
     0
 42
0.00000001
 43
0.00000001
 12
1.0
 22
0.0
 32
0.0
 13
1.0
 23
0.0
 33
0.0
 40
0.0001085338104882
 40
0.0001085338104882
 40
0.0001085338104882
 40
0.0001085338104882
 40
0.0003707418624266
 40
0.0003707418624266
 40
0.0003707418624266
 40
0.0003707418624266
 10
166.3849921649099
 20
143.9350540797012
 30
0.0
 10
166.3260371784608
 20
143.9432066704026
 30
0.0
 10
166.2671112509459
 20
143.9514434579447
 30
0.0
 10
166.2082154696133
 20
143.9597669899287
 30
0.0
  0
SPLINE
  5
250
330
1F
100
AcDbEntity
  8
0
  6
Continuous
 62
     7
370
    15
100
AcDbSpline
210
0.0
220
0.0
230
1.0
 70
     8
 71
     3
 72
     8
 73
     4
 74
     0
 42
0.00000001
 43
0.00000001
 12
1.0
 22
0.0
 32
0.0
 13
1.0
 23
0.0
 33
0.0
 40
0.0
 40
0.0
 40
0.0
 40
0.0
 40
1.0
 40
1.0
 40
1.0
 40
1.0
 10
166.4433149090056
 20
143.9097711863627
 30
0.0
 10
166.4239072807389
 20
143.9227924991339
 30
0.0
 10
166.4038756794858
 20
143.9324427727599
 30
0.0
 10
166.3849921649099
 20
143.9350540797012
 30
0.0
  0
SPLINE
  5
251
330
1F
100
AcDbEntity
  8
0
  6
Continuous
 62
     7
370
    15
100
AcDbSpline
210
0.0
220
0.0
230
1.0
 70
     8
 71
     3
 72
     8
 73
     4
 74
     0
 42
0.00000001
 43
0.00000001
 12
1.0
 22
0.0
 32
0.0
 13
1.0
 23
0.0
 33
0.0
 40
0.0
 40
0.0
 40
0.0
 40
0.0
 40
1.0
 40
1.0
 40
1.0
 40
1.0
 10
166.4582154696133
 20
143.8286821654754
 30
0.0
 10
166.4582154696133
 20
143.8542680350336
 30
0.0
 10
166.4528396150573
 20
143.8820560698329
 30
0.0
 10
166.4433149090023
 20
143.9097711863624
 30
0.0
  0
LINE
  5
252
330
1F
100
AcDbEntity
  8
0
  6
Continuous
 62
     7
370
    15
100
AcDbLine
 10
166.4582154815
 20
143.8286817388
 30
0.0
 11
166.4582154815
 21
138.7080755772
 31
0.0
  0
LINE
  5
253
330
1F
100
AcDbEntity
  8
0
  6
Continuous
 62
     7
370
    15
100
AcDbLine
 10
166.2082154696
 20
138.9458394365
 30
0.0
 11
166.2082154696
 21
143.9597672539
 31
0.0
  0
SPLINE
  5
254
330
1F
100
AcDbEntity
  8
0
  6
Continuous
 62
     7
370
    15
100
AcDbSpline
210
0.0
220
0.0
230
1.0
 70
     8
 71
     3
 72
     8
 73
     4
 74
     0
 42
0.00000001
 43
0.00000001
 12
1.0
 22
0.0
 32
0.0
 13
1.0
 23
0.0
 33
0.0
 40
0.0
 40
0.0
 40
0.0
 40
0.0
 40
1.0
 40
1.0
 40
1.0
 40
1.0
 10
166.5617688602066
 20
144.0320796216905
 30
0.0
 10
166.5216159457532
 20
143.9935485554171
 30
0.0
 10
166.4810111878167
 20
143.9518037001802
 30
0.0
 10
166.4433149090027
 20
143.9097711863663
 30
0.0
  0
LINE
  5
255
330
1F
100
AcDbEntity
  8
0
  6
Continuous
 62
     7
370
    15
100
AcDbLine
 10
166.5617688602
 20
144.0320797952
 30
0.0
 11
181.8546619659
 21
144.0320797952
 31
0.0
  0
SPLINE
  5
256
330
1F
100
AcDbEntity
  8
0
  6
Continuous
 62
     7
370
    15
100
AcDbSpline
210
0.0
220
0.0
230
1.0
 70
     8
 71
     3
 72
     8
 73
     4
 74
     0
 42
0.00000001
 43
0.00000001
 12
1.0
 22
0.0
 32
0.0
 13
1.0
 23
0.0
 33
0.0
 40
0.0
 40
0.0
 40
0.0
 40
0.0
 40
1.0
 40
1.0
 40
1.0
 40
1.0
 10
181.85466207902
 20
144.0320796216905
 30
0.0
 10
181.8948450247122
 20
143.9935197372234
 30
0.0
 10
181.9355244144966
 20
143.9516869976097
 30
0.0
 10
181.9731160302244
 20
143.9097711863658
 30
0.0
  0
SPLINE
  5
257
330
1F
100
AcDbEntity
  8
0
  6
Continuous
 62
     7
370
    15
100
AcDbSpline
210
0.0
220
0.0
230
1.0
 70
     8
 71
     3
 72
     8
 73
     4
 74
     0
 42
0.00000001
 43
0.00000001
 12
1.0
 22
0.0
 32
0.0
 13
1.0
 23
0.0
 33
0.0
 40
0.0
 40
0.0
 40
0.0
 40
0.0
 40
1.0
 40
1.0
 40
1.0
 40
1.0
 10
181.9731160302259
 20
143.9097711863671
 30
0.0
 10
181.9636549532457
 20
143.8822412185681
 30
0.0
 10
181.9582154696112
 20
143.8542308187266
 30
0.0
 10
181.9582154696112
 20
143.8286821654749
 30
0.0
  0
LINE
  5
258
330
1F
100
AcDbEntity
  8
0
  6
Continuous
 62
     7
370
    15
100
AcDbLine
 10
181.9582157229
 20
143.8286817388
 30
0.0
 11
166.4582154815
 21
143.8286817388
 31
0.0
  0
SPLINE
  5
259
330
1F
100
AcDbEntity
  8
0
  6
Continuous
 62
     7
370
    15
100
AcDbSpline
210
0.0
220
0.0
230
1.0
 70
     8
 71
     3
 72
     8
 73
     4
 74
     0
 42
0.00000001
 43
0.00000001
 12
1.0
 22
0.0
 32
0.0
 13
1.0
 23
0.0
 33
0.0
 40
0.0
 40
0.0
 40
0.0
 40
0.0
 40
1.0
 40
1.0
 40
1.0
 40
1.0
 10
166.3849921649099
 20
146.0922250950706
 30
0.0
 10
166.4039767420271
 20
146.1064643454617
 30
0.0
 10
166.4237193598709
 20
146.1243377944579
 30
0.0
 10
166.4433149090005
 20
146.1437591324243
 30
0.0
  0
SPLINE
  5
25A
330
1F
100
AcDbEntity
  8
0
  6
Continuous
 62
     7
370
    15
100
AcDbSpline
210
0.0
220
0.0
230
1.0
 70
     8
 71
     3
 72
     8
 73
     4
 74
     0
 42
0.00000001
 43
0.00000001
 12
1.0
 22
0.0
 32
0.0
 13
1.0
 23
0.0
 33
0.0
 40
0.0
 40
0.0
 40
0.0
 40
0.0
 40
1.0
 40
1.0
 40
1.0
 40
1.0
 10
166.5617688602066
 20
146.0414964940479
 30
0.0
 10
166.5215859145293
 20
146.0795406932916
 30
0.0
 10
166.48090652473
 20
146.1148771968718
 30
0.0
 10
166.4433149090022
 20
146.1437591324247
 30
0.0
  0
LINE
  5
25B
330
1F
100
AcDbEntity
  8
0
  6
Continuous
 62
     7
370
    15
100
AcDbLine
 10
166.5617688602
 20
146.0414957942
 30
0.0
 11
166.5617688602
 21
144.0320797952
 31
0.0
  0
LINE
  5
25C
330
1F
100
AcDbEntity
  8
0
  6
Continuous
 62
     7
370
    15
100
AcDbLine
 10
166.3849921649
 20
143.935053678
 30
0.0
 11
166.3849921649
 21
146.0922249349
 31
0.0
  0
LINE
  5
25D
330
1F
100
AcDbEntity
  8
0
  6
Continuous
 62
     7
370
    15
100
AcDbLine
 10
181.8546619659
 20
144.0320797952
 30
0.0
 11
181.8546619659
 21
146.0414957942
 31
0.0
  0
SPLINE
  5
25E
330
1F
100
AcDbEntity
  8
0
  6
Continuous
 62
     7
370
    15
100
AcDbSpline
210
0.0
220
0.0
230
1.0
 70
     8
 71
     3
 72
     8
 73
     4
 74
     0
 42
0.00000001
 43
0.00000001
 12
1.0
 22
0.0
 32
0.0
 13
1.0
 23
0.0
 33
0.0
 40
0.0
 40
0.0
 40
0.0
 40
0.0
 40
1.0
 40
1.0
 40
1.0
 40
1.0
 10
181.85466207902
 20
146.0414964940479
 30
0.0
 10
181.8948450247206
 20
146.0795406932697
 30
0.0
 10
181.9355244144966
 20
146.1148771968718
 30
0.0
 10
181.9731160302244
 20
146.1437591324247
 30
0.0
  0
SPLINE
  5
25F
330
1F
100
AcDbEntity
  8
0
  6
Continuous
 62
     7
370
    15
100
AcDbSpline
210
0.0
220
0.0
230
1.0
 70
     8
 71
     3
 72
     8
 73
     4
 74
     0
 42
0.00000001
 43
0.00000001
 12
1.0
 22
0.0
 32
0.0
 13
1.0
 23
0.0
 33
0.0
 40
0.0
 40
0.0
 40
0.0
 40
0.0
 40
1.0
 40
1.0
 40
1.0
 40
1.0
 10
181.973116030226
 20
146.1437591324242
 30
0.0
 10
181.992523658491
 20
146.1245240446413
 30
0.0
 10
182.0125552597424
 20
146.1063885442023
 30
0.0
 10
182.0314387743167
 20
146.0922250950706
 30
0.0
  0
LINE
  5
260
330
1F
100
AcDbEntity
  8
0
  6
Continuous
 62
     7
370
    15
100
AcDbLine
 10
182.0314381664
 20
146.0922249349
 30
0.0
 11
182.0314381664
 21
143.935053678
 31
0.0
  0
SPLINE
  5
261
330
1F
100
AcDbEntity
  8
0
  6
Continuous
 62
     7
370
    15
100
AcDbSpline
210
0.0
220
0.0
230
1.0
 70
     8
 71
     3
 72
     8
 73
     4
 74
     0
 42
0.00000001
 43
0.00000001
 12
1.0
 22
0.0
 32
0.0
 13
1.0
 23
0.0
 33
0.0
 40
0.0
 40
0.0
 40
0.0
 40
0.0
 40
1.0
 40
1.0
 40
1.0
 40
1.0
 10
182.0314387743167
 20
143.9350540797012
 30
0.0
 10
182.0124541971995
 20
143.9324287973256
 30
0.0
 10
181.9927115793556
 20
143.9229185823595
 30
0.0
 10
181.9731160302261
 20
143.9097711863656
 30
0.0
  0
LINE
  5
262
330
1F
100
AcDbEntity
  8
0
  6
Continuous
 62
     7
370
    15
100
AcDbLine
 10
181.9582157229
 20
138.7080755772
 30
0.0
 11
182.2082162296
 21
138.9458394365
 31
0.0
  0
LINE
  5
263
330
1F
100
AcDbEntity
  8
0
  6
Continuous
 62
     7
370
    15
100
AcDbLine
 10
181.9582157229
 20
138.7080755772
 30
0.0
 11
181.9582157229
 21
143.8286817388
 31
0.0
  0
SPLINE
  5
264
330
1F
100
AcDbEntity
  8
0
  6
Continuous
 62
     7
370
    15
100
AcDbSpline
210
0.0
220
0.0
230
1.0
 70
     8
 71
     3
 72
     8
 73
     4
 74
     0
 42
0.00000001
 43
0.00000001
 12
1.0
 22
0.0
 32
0.0
 13
1.0
 23
0.0
 33
0.0
 40
0.0001085338104882
 40
0.0001085338104882
 40
0.0001085338104882
 40
0.0001085338104882
 40
0.0003707418624266
 40
0.0003707418624266
 40
0.0003707418624266
 40
0.0003707418624266
 10
182.0314387743167
 20
143.9350540797012
 30
0.0
 10
182.0903937607658
 20
143.9432066704026
 30
0.0
 10
182.1493196882807
 20
143.9514434579447
 30
0.0
 10
182.2082154696133
 20
143.9597669899287
 30
0.0
  0
LINE
  5
265
330
1F
100
AcDbEntity
  8
0
  6
Continuous
 62
     7
370
    15
100
AcDbLine
 10
182.2082162296
 20
143.9597672539
 30
0.0
 11
182.2082162296
 21
138.9458394365
 31
0.0
  0
LINE
  5
266
330
1F
100
AcDbEntity
  8
0
  6
Continuous
 62
     7
370
    15
100
AcDbLine
 10
181.8546619659
 20
146.0414957942
 30
0.0
 11
166.5617688602
 21
146.0414957942
 31
0.0
  0
LINE
  5
267
330
1F
100
AcDbEntity
  8
0
  6
Continuous
 62
     7
370
    15
100
AcDbLine
 10
181.9582157229
 20
138.7080755772
 30
0.0
 11
166.4582154815
 21
138.7080755772
 31
0.0
  0
SPLINE
  5
268
330
1F
100
AcDbEntity
  8
0
  6
Continuous
 62
     7
370
    15
100
AcDbSpline
210
0.0
220
0.0
230
1.0
 70
     8
 71
     3
 72
     8
 73
     4
 74
     0
 42
0.00000001
 43
0.00000001
 12
1.0
 22
0.0
 32
0.0
 13
1.0
 23
0.0
 33
0.0
 40
0.0001085338104882
 40
0.0001085338104882
 40
0.0001085338104882
 40
0.0001085338104882
 40
0.0003707418624266
 40
0.0003707418624266
 40
0.0003707418624266
 40
0.0003707418624266
 10
166.3849921649099
 20
146.0922250950706
 30
0.0
 10
166.3260371784608
 20
146.0480063163922
 30
0.0
 10
166.2671112509459
 20
146.0037099525439
 30
0.0
 10
166.2082154696133
 20
145.9593337795784
 30
0.0
  0
LINE
  5
269
330
1F
100
AcDbEntity
  8
0
  6
Continuous
 62
     7
370
    15
100
AcDbLine
 10
166.2082154696
 20
143.9597672539
 30
0.0
 11
166.2082154696
 21
145.9593345167
 31
0.0
  0
SPLINE
  5
26A
330
1F
100
AcDbEntity
  8
0
  6
Continuous
 62
     7
370
    15
100
AcDbSpline
210
0.0
220
0.0
230
1.0
 70
     8
 71
     3
 72
     8
 73
     4
 74
     0
 42
0.00000001
 43
0.00000001
 12
1.0
 22
0.0
 32
0.0
 13
1.0
 23
0.0
 33
0.0
 40
0.0001085338104882
 40
0.0001085338104882
 40
0.0001085338104882
 40
0.0001085338104882
 40
0.0003707418624266
 40
0.0003707418624266
 40
0.0003707418624266
 40
0.0003707418624266
 10
182.0314387743167
 20
146.0922250950706
 30
0.0
 10
182.0903937607658
 20
146.0480063163922
 30
0.0
 10
182.1493196882807
 20
146.0037099525439
 30
0.0
 10
182.2082154696133
 20
145.9593337795784
 30
0.0
  0
LINE
  5
26B
330
1F
100
AcDbEntity
  8
0
  6
Continuous
 62
     7
370
    15
100
AcDbLine
 10
182.2082162296
 20
145.9593345167
 30
0.0
 11
182.2082162296
 21
143.9597672539
 31
0.0
  0
SPLINE
  5
26C
330
1F
100
AcDbEntity
  8
0
  6
Continuous
 62
     7
370
    15
100
AcDbSpline
210
0.0
220
0.0
230
1.0
 70
     8
 71
     3
 72
     8
 73
     4
 74
     0
 42
0.00000001
 43
0.00000001
 12
1.0
 22
0.0
 32
0.0
 13
1.0
 23
0.0
 33
0.0
 40
0.0
 40
0.0
 40
0.0
 40
0.0
 40
1.0
 40
1.0
 40
1.0
 40
1.0
 10
166.4433149090007
 20
146.1437591324237
 30
0.0
 10
166.4527759859808
 20
146.1627285554684
 30
0.0
 10
166.4582154696153
 20
146.1790876932737
 30
0.0
 10
166.4582154696154
 20
146.1905098008101
 30
0.0
  0
LINE
  5
26D
330
1F
100
AcDbEntity
  8
0
  6
Continuous
 62
     7
370
    15
100
AcDbLine
 10
166.4582154815
 20
146.1905092688
 30
0.0
 11
181.9582157229
 21
146.1905092688
 31
0.0
  0
SPLINE
  5
26E
330
1F
100
AcDbEntity
  8
0
  6
Continuous
 62
     7
370
    15
100
AcDbSpline
210
0.0
220
0.0
230
1.0
 70
     8
 71
     3
 72
     8
 73
     4
 74
     0
 42
0.00000001
 43
0.00000001
 12
1.0
 22
0.0
 32
0.0
 13
1.0
 23
0.0
 33
0.0
 40
0.0
 40
0.0
 40
0.0
 40
0.0
 40
1.0
 40
1.0
 40
1.0
 40
1.0
 10
181.9582154696133
 20
146.1905098008083
 30
0.0
 10
181.9582154696133
 20
146.1790710548737
 30
0.0
 10
181.96359132417
 20
146.1628561315212
 30
0.0
 10
181.9731160302259
 20
146.1437591324238
 30
0.0
  0
LINE
  5
26F
330
1F
100
AcDbEntity
  8
0
  6
Continuous
 62
     7
370
    15
100
AcDbLine
 10
166.4582154815
 20
147.0940616669
 30
0.0
 11
166.4582154815
 21
146.1905092688
 31
0.0
  0
LINE
  5
270
330
1F
100
AcDbEntity
  8
0
  6
Continuous
 62
     7
370
    15
100
AcDbLine
 10
166.2082154696
 20
145.9593345167
 30
0.0
 11
166.2082154696
 21
146.8440611602
 31
0.0
  0
LINE
  5
271
330
1F
100
AcDbEntity
  8
0
  6
Continuous
 62
     7
370
    15
100
AcDbLine
 10
181.9582157229
 20
146.1905092688
 30
0.0
 11
181.9582157229
 21
147.0940616669
 31
0.0
  0
LINE
  5
272
330
1F
100
AcDbEntity
  8
0
  6
Continuous
 62
     7
370
    15
100
AcDbLine
 10
182.2082162296
 20
146.8440611602
 30
0.0
 11
182.2082162296
 21
145.9593345167
 31
0.0
  0
SPLINE
  5
273
330
1F
100
AcDbEntity
  8
0
  6
Continuous
 62
     7
370
    15
100
AcDbSpline
210
0.0
220
0.0
230
1.0
 70
     8
 71
     3
 72
     8
 73
     4
 74
     0
 42
0.00000001
 43
0.00000001
 12
1.0
 22
0.0
 32
0.0
 13
1.0
 23
0.0
 33
0.0
 40
0.0
 40
0.0
 40
0.0
 40
0.0
 40
1.0
 40
1.0
 40
1.0
 40
1.0
 10
166.4433149090007
 20
104.8191182387036
 30
0.0
 10
166.4527759859808
 20
104.8472148747317
 30
0.0
 10
166.4582154696153
 20
104.8768422388624
 30
0.0
 10
166.4582154696154
 20
104.9051035123573
 30
0.0
  0
LINE
  5
274
330
1F
100
AcDbEntity
  8
0
  6
Continuous
 62
     7
370
    15
100
AcDbLine
 10
166.4582154815
 20
104.9051043333
 30
0.0
 11
181.9582157229
 21
104.9051043333
 31
0.0
  0
SPLINE
  5
275
330
1F
100
AcDbEntity
  8
0
  6
Continuous
 62
     7
370
    15
100
AcDbSpline
210
0.0
220
0.0
230
1.0
 70
     8
 71
     3
 72
     8
 73
     4
 74
     0
 42
0.00000001
 43
0.00000001
 12
1.0
 22
0.0
 32
0.0
 13
1.0
 23
0.0
 33
0.0
 40
0.0
 40
0.0
 40
0.0
 40
0.0
 40
1.0
 40
1.0
 40
1.0
 40
1.0
 10
181.9582154696133
 20
104.9051035123572
 30
0.0
 10
181.9582154696133
 20
104.8768010711246
 30
0.0
 10
181.96359132417
 20
104.8474038345073
 30
0.0
 10
181.9731160302259
 20
104.8191182387038
 30
0.0
  0
SPLINE
  5
276
330
1F
100
AcDbEntity
  8
0
  6
Continuous
 62
     7
370
    15
100
AcDbSpline
210
0.0
220
0.0
230
1.0
 70
     8
 71
     3
 72
     8
 73
     4
 74
     0
 42
0.00000001
 43
0.00000001
 12
1.0
 22
0.0
 32
0.0
 13
1.0
 23
0.0
 33
0.0
 40
0.0
 40
0.0
 40
0.0
 40
0.0
 40
1.0
 40
1.0
 40
1.0
 40
1.0
 10
181.85466207902
 20
104.7006544247528
 30
0.0
 10
181.8948450247022
 20
104.7359491939723
 30
0.0
 10
181.9355244144966
 20
104.7763396455391
 30
0.0
 10
181.9731160302244
 20
104.819118238705
 30
0.0
  0
LINE
  5
277
330
1F
100
AcDbEntity
  8
0
  6
Continuous
 62
     7
370
    15
100
AcDbLine
 10
181.8546619659
 20
104.7006548138
 30
0.0
 11
166.5617688602
 21
104.7006548138
 31
0.0
  0
SPLINE
  5
278
330
1F
100
AcDbEntity
  8
0
  6
Continuous
 62
     7
370
    15
100
AcDbSpline
210
0.0
220
0.0
230
1.0
 70
     8
 71
     3
 72
     8
 73
     4
 74
     0
 42
0.00000001
 43
0.00000001
 12
1.0
 22
0.0
 32
0.0
 13
1.0
 23
0.0
 33
0.0
 40
0.0
 40
0.0
 40
0.0
 40
0.0
 40
1.0
 40
1.0
 40
1.0
 40
1.0
 10
166.5617688602066
 20
104.7006544247528
 30
0.0
 10
166.5215859145244
 20
104.7359491939723
 30
0.0
 10
166.48090652473
 20
104.7763396455391
 30
0.0
 10
166.4433149090022
 20
104.8191182387049
 30
0.0
  0
SPLINE
  5
279
330
1F
100
AcDbEntity
  8
0
  6
Continuous
 62
     7
370
    15
100
AcDbSpline
210
0.0
220
0.0
230
1.0
 70
     8
 71
     3
 72
     8
 73
     4
 74
     0
 42
0.00000001
 43
0.00000001
 12
1.0
 22
0.0
 32
0.0
 13
1.0
 23
0.0
 33
0.0
 40
0.0
 40
0.0
 40
0.0
 40
0.0
 40
1.0
 40
1.0
 40
1.0
 40
1.0
 10
166.3849921649099
 20
104.8053813807575
 30
0.0
 10
166.4039767420271
 20
104.8036638459809
 30
0.0
 10
166.4237193598709
 20
104.809365533845
 30
0.0
 10
166.4433149090005
 20
104.8191182387054
 30
0.0
  0
LINE
  5
27A
330
1F
100
AcDbEntity
  8
0
  6
Continuous
 62
     7
370
    15
100
AcDbLine
 10
166.5617688602
 20
104.7006548138
 30
0.0
 11
166.5617688602
 21
102.870892802
 31
0.0
  0
SPLINE
  5
27B
330
1F
100
AcDbEntity
  8
0
  6
Continuous
 62
     7
370
    15
100
AcDbSpline
210
0.0
220
0.0
230
1.0
 70
     8
 71
     3
 72
     8
 73
     4
 74
     0
 42
0.00000001
 43
0.00000001
 12
1.0
 22
0.0
 32
0.0
 13
1.0
 23
0.0
 33
0.0
 40
0.0
 40
0.0
 40
0.0
 40
0.0
 40
1.0
 40
1.0
 40
1.0
 40
1.0
 10
166.5617688602066
 20
102.8708934921076
 30
0.0
 10
166.5216159457477
 20
102.8364588735178
 30
0.0
 10
166.4810111878167
 20
102.8066141859942
 30
0.0
 10
166.4433149090027
 20
102.784864458949
 30
0.0
  0
SPLINE
  5
27C
330
1F
100
AcDbEntity
  8
0
  6
Continuous
 62
     7
370
    15
100
AcDbSpline
210
0.0
220
0.0
230
1.0
 70
     8
 71
     3
 72
     8
 73
     4
 74
     0
 42
0.00000001
 43
0.00000001
 12
1.0
 22
0.0
 32
0.0
 13
1.0
 23
0.0
 33
0.0
 40
0.0
 40
0.0
 40
0.0
 40
0.0
 40
1.0
 40
1.0
 40
1.0
 40
1.0
 10
166.4433149090056
 20
102.7848644589442
 30
0.0
 10
166.4239072807389
 20
102.8045777347618
 30
0.0
 10
166.4038756794858
 20
102.8240931931011
 30
0.0
 10
166.3849921649099
 20
102.8410765601619
 30
0.0
  0
LINE
  5
27D
330
1F
100
AcDbEntity
  8
0
  6
Continuous
 62
     7
370
    15
100
AcDbLine
 10
166.3849921649
 20
102.8410774411
 30
0.0
 11
166.3849921649
 21
104.8053820373
 31
0.0
  0
LINE
  5
27E
330
1F
100
AcDbEntity
  8
0
  6
Continuous
 62
     7
370
    15
100
AcDbLine
 10
166.2082154696
 20
111.0507921071
 30
0.0
 11
166.4582154815
 21
111.2672985287
 31
0.0
  0
LINE
  5
27F
330
1F
100
AcDbEntity
  8
0
  6
Continuous
 62
     7
370
    15
100
AcDbLine
 10
166.4582154815
 20
111.2672985287
 30
0.0
 11
166.4582154815
 21
104.9051043333
 31
0.0
  0
SPLINE
  5
280
330
1F
100
AcDbEntity
  8
0
  6
Continuous
 62
     7
370
    15
100
AcDbSpline
210
0.0
220
0.0
230
1.0
 70
     8
 71
     3
 72
     8
 73
     4
 74
     0
 42
0.00000001
 43
0.00000001
 12
1.0
 22
0.0
 32
0.0
 13
1.0
 23
0.0
 33
0.0
 40
0.0001085338104882
 40
0.0001085338104882
 40
0.0001085338104882
 40
0.0001085338104882
 40
0.0003707418624266
 40
0.0003707418624266
 40
0.0003707418624266
 40
0.0003707418624266
 10
166.3849921649099
 20
104.8053813807575
 30
0.0
 10
166.3260371784608
 20
104.8107150386448
 30
0.0
 10
166.2671112509459
 20
104.8159696887952
 30
0.0
 10
166.2082154696133
 20
104.8211428968975
 30
0.0
  0
LINE
  5
281
330
1F
100
AcDbEntity
  8
0
  6
Continuous
 62
     7
370
    15
100
AcDbLine
 10
166.2082154696
 20
104.8211437406
 30
0.0
 11
166.2082154696
 21
111.0507921071
 31
0.0
  0
LINE
  5
282
330
1F
100
AcDbEntity
  8
0
  6
Continuous
 62
     7
370
    15
100
AcDbLine
 10
181.9582157229
 20
104.9051043333
 30
0.0
 11
181.9582157229
 21
111.2672985287
 31
0.0
  0
LINE
  5
283
330
1F
100
AcDbEntity
  8
0
  6
Continuous
 62
     7
370
    15
100
AcDbLine
 10
181.9582157229
 20
111.2672985287
 30
0.0
 11
182.2082162296
 21
111.0507921071
 31
0.0
  0
SPLINE
  5
284
330
1F
100
AcDbEntity
  8
0
  6
Continuous
 62
     7
370
    15
100
AcDbSpline
210
0.0
220
0.0
230
1.0
 70
     8
 71
     3
 72
     8
 73
     4
 74
     0
 42
0.00000001
 43
0.00000001
 12
1.0
 22
0.0
 32
0.0
 13
1.0
 23
0.0
 33
0.0
 40
0.0001085338104882
 40
0.0001085338104882
 40
0.0001085338104882
 40
0.0001085338104882
 40
0.0003707418624266
 40
0.0003707418624266
 40
0.0003707418624266
 40
0.0003707418624266
 10
182.0314387743167
 20
104.8053813807575
 30
0.0
 10
182.0903937607658
 20
104.8107150386448
 30
0.0
 10
182.1493196882807
 20
104.8159696887952
 30
0.0
 10
182.2082154696133
 20
104.8211428968975
 30
0.0
  0
SPLINE
  5
285
330
1F
100
AcDbEntity
  8
0
  6
Continuous
 62
     7
370
    15
100
AcDbSpline
210
0.0
220
0.0
230
1.0
 70
     8
 71
     3
 72
     8
 73
     4
 74
     0
 42
0.00000001
 43
0.00000001
 12
1.0
 22
0.0
 32
0.0
 13
1.0
 23
0.0
 33
0.0
 40
0.0
 40
0.0
 40
0.0
 40
0.0
 40
1.0
 40
1.0
 40
1.0
 40
1.0
 10
181.973116030226
 20
104.8191182387049
 30
0.0
 10
181.992523658491
 20
104.8094590620593
 30
0.0
 10
182.0125552597424
 20
104.8036729891096
 30
0.0
 10
182.0314387743167
 20
104.8053813807575
 30
0.0
  0
LINE
  5
286
330
1F
100
AcDbEntity
  8
0
  6
Continuous
 62
     7
370
    15
100
AcDbLine
 10
182.2082162296
 20
111.0507921071
 30
0.0
 11
182.2082162296
 21
104.8211437406
 31
0.0
  0
SPLINE
  5
287
330
1F
100
AcDbEntity
  8
0
  6
Continuous
 62
     7
370
    15
100
AcDbSpline
210
0.0
220
0.0
230
1.0
 70
     8
 71
     3
 72
     8
 73
     4
 74
     0
 42
0.00000001
 43
0.00000001
 12
1.0
 22
0.0
 32
0.0
 13
1.0
 23
0.0
 33
0.0
 40
0.0
 40
0.0
 40
0.0
 40
0.0
 40
1.0
 40
1.0
 40
1.0
 40
1.0
 10
181.85466207902
 20
102.8708934921076
 30
0.0
 10
181.8948450246956
 20
102.8364331191244
 30
0.0
 10
181.9355244144966
 20
102.8065537982413
 30
0.0
 10
181.9731160302243
 20
102.7848644589487
 30
0.0
  0
LINE
  5
288
330
1F
100
AcDbEntity
  8
0
  6
Continuous
 62
     7
370
    15
100
AcDbLine
 10
181.8546619659
 20
102.870892802
 30
0.0
 11
181.8546619659
 21
104.7006548138
 31
0.0
  0
LINE
  5
289
330
1F
100
AcDbEntity
  8
0
  6
Continuous
 62
     7
370
    15
100
AcDbLine
 10
182.0314381664
 20
104.8053820373
 30
0.0
 11
182.0314381664
 21
102.8410774411
 31
0.0
  0
SPLINE
  5
28A
330
1F
100
AcDbEntity
  8
0
  6
Continuous
 62
     7
370
    15
100
AcDbSpline
210
0.0
220
0.0
230
1.0
 70
     8
 71
     3
 72
     8
 73
     4
 74
     0
 42
0.00000001
 43
0.00000001
 12
1.0
 22
0.0
 32
0.0
 13
1.0
 23
0.0
 33
0.0
 40
0.0
 40
0.0
 40
0.0
 40
0.0
 40
1.0
 40
1.0
 40
1.0
 40
1.0
 10
182.0314387743167
 20
102.8410765601619
 30
0.0
 10
182.0124541971995
 20
102.8240022999451
 30
0.0
 10
181.9927115793556
 20
102.8047686151644
 30
0.0
 10
181.9731160302261
 20
102.7848644589493
 30
0.0
  0
LINE
  5
28B
330
1F
100
AcDbEntity
  8
0
  6
Continuous
 62
     7
370
    15
100
AcDbLine
 10
181.9582157229
 20
111.2672985287
 30
0.0
 11
166.4582154815
 21
111.2672985287
 31
0.0
  0
LINE
  5
28C
330
1F
100
AcDbEntity
  8
0
  6
Continuous
 62
     7
370
    15
100
AcDbLine
 10
166.5617688602
 20
102.870892802
 30
0.0
 11
181.8546619659
 21
102.870892802
 31
0.0
  0
SPLINE
  5
28D
330
1F
100
AcDbEntity
  8
0
  6
Continuous
 62
     7
370
    15
100
AcDbSpline
210
0.0
220
0.0
230
1.0
 70
     8
 71
     3
 72
     8
 73
     4
 74
     0
 42
0.00000001
 43
0.00000001
 12
1.0
 22
0.0
 32
0.0
 13
1.0
 23
0.0
 33
0.0
 40
0.0001085338104882
 40
0.0001085338104882
 40
0.0001085338104882
 40
0.0001085338104882
 40
0.0003707418624266
 40
0.0003707418624266
 40
0.0003707418624266
 40
0.0003707418624266
 10
166.3849921649099
 20
102.8410765601619
 30
0.0
 10
166.3260371784608
 20
102.894099220266
 30
0.0
 10
166.2671112509459
 20
102.9471901901992
 30
0.0
 10
166.2082154696133
 20
103.0003513805888
 30
0.0
  0
LINE
  5
28E
330
1F
100
AcDbEntity
  8
0
  6
Continuous
 62
     7
370
    15
100
AcDbLine
 10
166.2082154696
 20
103.0003522278
 30
0.0
 11
166.2082154696
 21
104.8211437406
 31
0.0
  0
SPLINE
  5
28F
330
1F
100
AcDbEntity
  8
0
  6
Continuous
 62
     7
370
    15
100
AcDbSpline
210
0.0
220
0.0
230
1.0
 70
     8
 71
     3
 72
     8
 73
     4
 74
     0
 42
0.00000001
 43
0.00000001
 12
1.0
 22
0.0
 32
0.0
 13
1.0
 23
0.0
 33
0.0
 40
0.0001085338104882
 40
0.0001085338104882
 40
0.0001085338104882
 40
0.0001085338104882
 40
0.0003707418624266
 40
0.0003707418624266
 40
0.0003707418624266
 40
0.0003707418624266
 10
182.0314387743167
 20
102.8410765601619
 30
0.0
 10
182.0903937607658
 20
102.894099220266
 30
0.0
 10
182.1493196882807
 20
102.9471901901991
 30
0.0
 10
182.2082154696133
 20
103.0003513805888
 30
0.0
  0
LINE
  5
290
330
1F
100
AcDbEntity
  8
0
  6
Continuous
 62
     7
370
    15
100
AcDbLine
 10
182.2082162296
 20
104.8211437406
 30
0.0
 11
182.2082162296
 21
103.0003522278
 31
0.0
  0
SPLINE
  5
291
330
1F
100
AcDbEntity
  8
0
  6
Continuous
 62
     7
370
    15
100
AcDbSpline
210
0.0
220
0.0
230
1.0
 70
     8
 71
     3
 72
     8
 73
     4
 74
     0
 42
0.00000001
 43
0.00000001
 12
1.0
 22
0.0
 32
0.0
 13
1.0
 23
0.0
 33
0.0
 40
0.0
 40
0.0
 40
0.0
 40
0.0
 40
1.0
 40
1.0
 40
1.0
 40
1.0
 10
166.4582154696133
 20
102.7544398067698
 30
0.0
 10
166.4582154696133
 20
102.759851721134
 30
0.0
 10
166.4528396150573
 20
102.7705232700712
 30
0.0
 10
166.4433149090023
 20
102.784864458947
 30
0.0
  0
SPLINE
  5
292
330
1F
100
AcDbEntity
  8
0
  6
Continuous
 62
     7
370
    15
100
AcDbSpline
210
0.0
220
0.0
230
1.0
 70
     8
 71
     3
 72
     8
 73
     4
 74
     0
 42
0.00000001
 43
0.00000001
 12
1.0
 22
0.0
 32
0.0
 13
1.0
 23
0.0
 33
0.0
 40
0.0
 40
0.0
 40
0.0
 40
0.0
 40
1.0
 40
1.0
 40
1.0
 40
1.0
 10
181.9731160302259
 20
102.7848644589494
 30
0.0
 10
181.9636549532457
 20
102.770619075296
 30
0.0
 10
181.9582154696112
 20
102.7598438491516
 30
0.0
 10
181.9582154696112
 20
102.7544398067678
 30
0.0
  0
LINE
  5
293
330
1F
100
AcDbEntity
  8
0
  6
Continuous
 62
     7
370
    15
100
AcDbLine
 10
181.9582157229
 20
102.7544402273
 30
0.0
 11
166.4582154815
 21
102.7544402273
 31
0.0
  0
LINE
  5
294
330
1F
100
AcDbEntity
  8
0
  6
Continuous
 62
     7
370
    15
100
AcDbLine
 10
181.9582157229
 20
102.5581956597
 30
0.0
 11
181.9582157229
 21
102.7544402273
 31
0.0
  0
LINE
  5
295
330
1F
100
AcDbEntity
  8
0
  6
Continuous
 62
     7
370
    15
100
AcDbLine
 10
182.2082162296
 20
103.0003522278
 30
0.0
 11
182.2082162296
 21
102.8081961663
 31
0.0
  0
LINE
  5
296
330
1F
100
AcDbEntity
  8
0
  6
Continuous
 62
     7
370
    15
100
AcDbLine
 10
166.4582154815
 20
102.7544402273
 30
0.0
 11
166.4582154815
 21
102.5581956597
 31
0.0
  0
LINE
  5
297
330
1F
100
AcDbEntity
  8
0
  6
Continuous
 62
     7
370
    15
100
AcDbLine
 10
166.2082154696
 20
102.8081961663
 30
0.0
 11
166.2082154696
 21
103.0003522278
 31
0.0
  0
LINE
  5
298
330
1F
100
AcDbEntity
  8
0
  6
Continuous
 62
     7
370
    15
100
AcDbLine
 10
181.9582157229
 20
128.8497999881
 30
0.0
 11
181.9582157229
 21
129.1774854067
 31
0.0
  0
LINE
  5
299
330
1F
100
AcDbEntity
  8
0
  6
Continuous
 62
     7
370
    15
100
AcDbLine
 10
166.4582154815
 20
129.1774854067
 30
0.0
 11
166.4582154815
 21
128.8497999881
 31
0.0
  0
LINE
  5
29A
330
1F
100
AcDbEntity
  8
0
  6
Continuous
 62
     7
370
    15
100
AcDbLine
 10
181.9582157229
 20
129.1774854067
 30
0.0
 11
166.4582154815
 21
129.1774854067
 31
0.0
  0
LINE
  5
29B
330
1F
100
AcDbEntity
  8
0
  6
Continuous
 62
     7
370
    15
100
AcDbLine
 10
166.2082154696
 20
128.9288549265
 30
0.0
 11
166.4582154815
 21
129.1774854067
 31
0.0
  0
LINE
  5
29C
330
1F
100
AcDbEntity
  8
0
  6
Continuous
 62
     7
370
    15
100
AcDbLine
 10
166.2082154696
 20
128.6011695152
 30
0.0
 11
166.2082154696
 21
128.9288549265
 31
0.0
  0
LINE
  5
29D
330
1F
100
AcDbEntity
  8
0
  6
Continuous
 62
     7
370
    15
100
AcDbLine
 10
181.9582157229
 20
129.1774854067
 30
0.0
 11
182.2082162296
 21
128.9288549265
 31
0.0
  0
LINE
  5
29E
330
1F
100
AcDbEntity
  8
0
  6
Continuous
 62
     7
370
    15
100
AcDbLine
 10
182.2082162296
 20
128.9288549265
 30
0.0
 11
182.2082162296
 21
128.6011695152
 31
0.0
  0
LINE
  5
29F
330
1F
100
AcDbEntity
  8
0
  6
Continuous
 62
     7
370
    15
100
AcDbLine
 10
181.9582157229
 20
137.7393408434
 30
0.0
 11
181.9582157229
 21
138.7080755772
 31
0.0
  0
LINE
  5
2A0
330
1F
100
AcDbEntity
  8
0
  6
Continuous
 62
     7
370
    15
100
AcDbLine
 10
181.9582157229
 20
137.7393408434
 30
0.0
 11
166.4582154815
 21
137.7393408434
 31
0.0
  0
LINE
  5
2A1
330
1F
100
AcDbEntity
  8
0
  6
Continuous
 62
     7
370
    15
100
AcDbLine
 10
166.4582154815
 20
138.7080755772
 30
0.0
 11
166.4582154815
 21
137.7393408434
 31
0.0
  0
LINE
  5
2A2
330
1F
100
AcDbEntity
  8
0
  6
Continuous
 62
     7
370
    15
100
AcDbLine
 10
166.2082154696
 20
137.9771047028
 30
0.0
 11
166.4582154815
 21
137.7393408434
 31
0.0
  0
LINE
  5
2A3
330
1F
100
AcDbEntity
  8
0
  6
Continuous
 62
     7
370
    15
100
AcDbLine
 10
166.2082154696
 20
137.9771047028
 30
0.0
 11
166.2082154696
 21
138.9458394365
 31
0.0
  0
LINE
  5
2A4
330
1F
100
AcDbEntity
  8
0
  6
Continuous
 62
     7
370
    15
100
AcDbLine
 10
181.9582157229
 20
137.7393408434
 30
0.0
 11
182.2082162296
 21
137.9771047028
 31
0.0
  0
LINE
  5
2A5
330
1F
100
AcDbEntity
  8
0
  6
Continuous
 62
     7
370
    15
100
AcDbLine
 10
182.2082162296
 20
138.9458394365
 30
0.0
 11
182.2082162296
 21
137.9771047028
 31
0.0
  0
LINE
  5
2A6
330
1F
100
AcDbEntity
  8
0
  6
Continuous
 62
     7
370
    15
100
AcDbLine
 10
166.2082154696
 20
131.5367995517
 30
0.0
 11
166.4582154815
 21
131.5517430881
 31
0.0
  0
LINE
  5
2A7
330
1F
100
AcDbEntity
  8
0
  6
Continuous
 62
     7
370
    15
100
AcDbLine
 10
166.4582154815
 20
131.5517430881
 30
0.0
 11
166.4582154815
 21
129.1774854067
 31
0.0
  0
LINE
  5
2A8
330
1F
100
AcDbEntity
  8
0
  6
Continuous
 62
     7
370
    15
100
AcDbLine
 10
166.2082154696
 20
128.9288549265
 30
0.0
 11
166.2082154696
 21
131.5367995517
 31
0.0
  0
LINE
  5
2A9
330
1F
100
AcDbEntity
  8
0
  6
Continuous
 62
     7
370
    15
100
AcDbLine
 10
181.9582157229
 20
129.1774854067
 30
0.0
 11
181.9582157229
 21
131.5517430881
 31
0.0
  0
LINE
  5
2AA
330
1F
100
AcDbEntity
  8
0
  6
Continuous
 62
     7
370
    15
100
AcDbLine
 10
181.9582157229
 20
131.5517430881
 30
0.0
 11
166.4582154815
 21
131.5517430881
 31
0.0
  0
LINE
  5
2AB
330
1F
100
AcDbEntity
  8
0
  6
Continuous
 62
     7
370
    15
100
AcDbLine
 10
181.9582157229
 20
131.5517430881
 30
0.0
 11
182.2082162296
 21
131.5367995517
 31
0.0
  0
LINE
  5
2AC
330
1F
100
AcDbEntity
  8
0
  6
Continuous
 62
     7
370
    15
100
AcDbLine
 10
182.2082162296
 20
131.5367995517
 30
0.0
 11
182.2082162296
 21
128.9288549265
 31
0.0
  0
LINE
  5
2AD
330
1F
100
AcDbEntity
  8
0
  6
Continuous
 62
     7
370
    15
100
AcDbLine
 10
181.9582157229
 20
111.2672985287
 30
0.0
 11
181.9582157229
 21
112.8347442241
 31
0.0
  0
LINE
  5
2AE
330
1F
100
AcDbEntity
  8
0
  6
Continuous
 62
     7
370
    15
100
AcDbLine
 10
166.4582154815
 20
112.8347442241
 30
0.0
 11
166.4582154815
 21
111.2672985287
 31
0.0
  0
LINE
  5
2AF
330
1F
100
AcDbEntity
  8
0
  6
Continuous
 62
     7
370
    15
100
AcDbLine
 10
181.9582157229
 20
112.8347442241
 30
0.0
 11
166.4582154815
 21
112.8347442241
 31
0.0
  0
LINE
  5
2B0
330
1F
100
AcDbEntity
  8
0
  6
Continuous
 62
     7
370
    15
100
AcDbLine
 10
166.2082154696
 20
112.6182378025
 30
0.0
 11
166.4582154815
 21
112.8347442241
 31
0.0
  0
LINE
  5
2B1
330
1F
100
AcDbEntity
  8
0
  6
Continuous
 62
     7
370
    15
100
AcDbLine
 10
166.2082154696
 20
111.0507921071
 30
0.0
 11
166.2082154696
 21
112.6182378025
 31
0.0
  0
LINE
  5
2B2
330
1F
100
AcDbEntity
  8
0
  6
Continuous
 62
     7
370
    15
100
AcDbLine
 10
181.9582157229
 20
112.8347442241
 30
0.0
 11
182.2082162296
 21
112.6182378025
 31
0.0
  0
LINE
  5
2B3
330
1F
100
AcDbEntity
  8
0
  6
Continuous
 62
     7
370
    15
100
AcDbLine
 10
182.2082162296
 20
112.6182378025
 30
0.0
 11
182.2082162296
 21
111.0507921071
 31
0.0
  0
LINE
  5
2B4
330
1F
100
AcDbEntity
  8
0
  6
Continuous
 62
     7
370
    15
100
AcDbLine
 10
166.4582154815
 20
120.6289828511
 30
0.0
 11
166.4582154815
 21
119.1719817685
 31
0.0
  0
LINE
  5
2B5
330
1F
100
AcDbEntity
  8
0
  6
Continuous
 62
     7
370
    15
100
AcDbLine
 10
166.2082154696
 20
119.2384837882
 30
0.0
 11
166.4582154815
 21
119.1719817685
 31
0.0
  0
LINE
  5
2B6
330
1F
100
AcDbEntity
  8
0
  6
Continuous
 62
     7
370
    15
100
AcDbLine
 10
166.2082154696
 20
119.2384837882
 30
0.0
 11
166.2082154696
 21
120.8789833577
 31
0.0
  0
LINE
  5
2B7
330
1F
100
AcDbEntity
  8
0
  6
Continuous
 62
     7
370
    15
100
AcDbLine
 10
181.9582157229
 20
119.1719817685
 30
0.0
 11
181.9582157229
 21
120.6289828511
 31
0.0
  0
LINE
  5
2B8
330
1F
100
AcDbEntity
  8
0
  6
Continuous
 62
     7
370
    15
100
AcDbLine
 10
181.9582157229
 20
119.1719817685
 30
0.0
 11
182.2082162296
 21
119.2384837882
 31
0.0
  0
LINE
  5
2B9
330
1F
100
AcDbEntity
  8
0
  6
Continuous
 62
     7
370
    15
100
AcDbLine
 10
182.2082162296
 20
120.8789833577
 30
0.0
 11
182.2082162296
 21
119.2384837882
 31
0.0
  0
LINE
  5
2BA
330
1F
100
AcDbEntity
  8
0
  6
Continuous
 62
     7
370
    15
100
AcDbLine
 10
181.9582157229
 20
119.1719817685
 30
0.0
 11
166.4582154815
 21
119.1719817685
 31
0.0
  0
LINE
  5
2BB
330
1F
100
AcDbEntity
  8
0
  6
Continuous
 62
     7
370
    15
100
AcDbLine
 10
181.9582157229
 20
134.9450159574
 30
0.0
 11
181.9582157229
 21
137.7393408434
 31
0.0
  0
LINE
  5
2BC
330
1F
100
AcDbEntity
  8
0
  6
Continuous
 62
     7
370
    15
100
AcDbLine
 10
181.9582157229
 20
134.9450159574
 30
0.0
 11
166.4582154815
 21
134.9450159574
 31
0.0
  0
LINE
  5
2BD
330
1F
100
AcDbEntity
  8
0
  6
Continuous
 62
     7
370
    15
100
AcDbLine
 10
166.4582154815
 20
137.7393408434
 30
0.0
 11
166.4582154815
 21
134.9450159574
 31
0.0
  0
LINE
  5
2BE
330
1F
100
AcDbEntity
  8
0
  6
Continuous
 62
     7
370
    15
100
AcDbLine
 10
166.2082154696
 20
134.9077481532
 30
0.0
 11
166.4582154815
 21
134.9450159574
 31
0.0
  0
LINE
  5
2BF
330
1F
100
AcDbEntity
  8
0
  6
Continuous
 62
     7
370
    15
100
AcDbLine
 10
166.2082154696
 20
134.9077481532
 30
0.0
 11
166.2082154696
 21
137.9771047028
 31
0.0
  0
LINE
  5
2C0
330
1F
100
AcDbEntity
  8
0
  6
Continuous
 62
     7
370
    15
100
AcDbLine
 10
181.9582157229
 20
134.9450159574
 30
0.0
 11
182.2082162296
 21
134.9077481532
 31
0.0
  0
LINE
  5
2C1
330
1F
100
AcDbEntity
  8
0
  6
Continuous
 62
     7
370
    15
100
AcDbLine
 10
182.2082162296
 20
137.9771047028
 30
0.0
 11
182.2082162296
 21
134.9077481532
 31
0.0
  0
SPLINE
  5
2C2
330
1F
100
AcDbEntity
  8
0
  6
Continuous
 62
     7
370
    15
100
AcDbSpline
210
0.0
220
0.0
230
1.0
 70
     8
 71
     3
 72
     8
 73
     4
 74
     0
 42
0.00000001
 43
0.00000001
 12
1.0
 22
0.0
 32
0.0
 13
1.0
 23
0.0
 33
0.0
 40
0.0
 40
0.0
 40
0.0
 40
0.0
 40
1.0
 40
1.0
 40
1.0
 40
1.0
 10
166.4582154696133
 20
162.4170086074176
 30
0.0
 10
166.4582154696133
 20
162.4467906678296
 30
0.0
 10
166.4528396150573
 20
162.4765123059579
 30
0.0
 10
166.4433149090023
 20
162.5041321647668
 30
0.0
  0
SPLINE
  5
2C3
330
1F
100
AcDbEntity
  8
0
  6
Continuous
 62
     7
370
    15
100
AcDbSpline
210
0.0
220
0.0
230
1.0
 70
     8
 71
     3
 72
     8
 73
     4
 74
     0
 42
0.00000001
 43
0.00000001
 12
1.0
 22
0.0
 32
0.0
 13
1.0
 23
0.0
 33
0.0
 40
0.0
 40
0.0
 40
0.0
 40
0.0
 40
1.0
 40
1.0
 40
1.0
 40
1.0
 10
166.5617688602066
 20
162.6135739202276
 30
0.0
 10
166.5216159457581
 20
162.5831096019508
 30
0.0
 10
166.4810111878167
 20
162.5460202115222
 30
0.0
 10
166.4433149090027
 20
162.5041321647706
 30
0.0
  0
LINE
  5
2C4
330
1F
100
AcDbEntity
  8
0
  6
Continuous
 62
     7
370
    15
100
AcDbLine
 10
166.5617688602
 20
162.6135744842
 30
0.0
 11
181.8546619659
 21
162.6135744842
 31
0.0
  0
SPLINE
  5
2C5
330
1F
100
AcDbEntity
  8
0
  6
Continuous
 62
     7
370
    15
100
AcDbSpline
210
0.0
220
0.0
230
1.0
 70
     8
 71
     3
 72
     8
 73
     4
 74
     0
 42
0.00000001
 43
0.00000001
 12
1.0
 22
0.0
 32
0.0
 13
1.0
 23
0.0
 33
0.0
 40
0.0
 40
0.0
 40
0.0
 40
0.0
 40
1.0
 40
1.0
 40
1.0
 40
1.0
 10
181.85466207902
 20
162.6135739202276
 30
0.0
 10
181.894845024688
 20
162.5830868170327
 30
0.0
 10
181.9355244144966
 20
162.5459039100622
 30
0.0
 10
181.9731160302244
 20
162.5041321647702
 30
0.0
  0
SPLINE
  5
2C6
330
1F
100
AcDbEntity
  8
0
  6
Continuous
 62
     7
370
    15
100
AcDbSpline
210
0.0
220
0.0
230
1.0
 70
     8
 71
     3
 72
     8
 73
     4
 74
     0
 42
0.00000001
 43
0.00000001
 12
1.0
 22
0.0
 32
0.0
 13
1.0
 23
0.0
 33
0.0
 40
0.0
 40
0.0
 40
0.0
 40
0.0
 40
1.0
 40
1.0
 40
1.0
 40
1.0
 10
181.9731160302259
 20
162.5041321647715
 30
0.0
 10
181.9636549532457
 20
162.4766968183313
 30
0.0
 10
181.9582154696112
 20
162.4467473478918
 30
0.0
 10
181.9582154696112
 20
162.417008607418
 30
0.0
  0
LINE
  5
2C7
330
1F
100
AcDbEntity
  8
0
  6
Continuous
 62
     7
370
    15
100
AcDbLine
 10
181.9582157229
 20
162.4170095416
 30
0.0
 11
166.4582154815
 21
162.4170095416
 31
0.0
  0
LINE
  5
2C8
330
1F
100
AcDbEntity
  8
0
  6
Continuous
 62
     7
370
    15
100
AcDbLine
 10
166.2082154696
 20
155.2770697267
 30
0.0
 11
166.4582154815
 21
155.0912839116
 31
0.0
  0
SPLINE
  5
2C9
330
1F
100
AcDbEntity
  8
0
  6
Continuous
 62
     7
370
    15
100
AcDbSpline
210
0.0
220
0.0
230
1.0
 70
     8
 71
     3
 72
     8
 73
     4
 74
     0
 42
0.00000001
 43
0.00000001
 12
1.0
 22
0.0
 32
0.0
 13
1.0
 23
0.0
 33
0.0
 40
0.0001085338104882
 40
0.0001085338104882
 40
0.0001085338104882
 40
0.0001085338104882
 40
0.0003707418624266
 40
0.0003707418624266
 40
0.0003707418624266
 40
0.0003707418624266
 10
166.3849921649099
 20
162.5057226207207
 30
0.0
 10
166.3260371784608
 20
162.4871358206881
 30
0.0
 10
166.2671112509459
 20
162.4686193862714
 30
0.0
 10
166.2082154696133
 20
162.4501755321004
 30
0.0
  0
SPLINE
  5
2CA
330
1F
100
AcDbEntity
  8
0
  6
Continuous
 62
     7
370
    15
100
AcDbSpline
210
0.0
220
0.0
230
1.0
 70
     8
 71
     3
 72
     8
 73
     4
 74
     0
 42
0.00000001
 43
0.00000001
 12
1.0
 22
0.0
 32
0.0
 13
1.0
 23
0.0
 33
0.0
 40
0.0
 40
0.0
 40
0.0
 40
0.0
 40
1.0
 40
1.0
 40
1.0
 40
1.0
 10
166.4433149090056
 20
162.5041321647686
 30
0.0
 10
166.4239072807389
 20
162.5100070529223
 30
0.0
 10
166.4038756794858
 20
162.5116760460452
 30
0.0
 10
166.38499216491
 20
162.5057226207206
 30
0.0
  0
LINE
  5
2CB
330
1F
100
AcDbEntity
  8
0
  6
Continuous
 62
     7
370
    15
100
AcDbLine
 10
166.4582154815
 20
162.4170095416
 30
0.0
 11
166.4582154815
 21
155.0912839116
 31
0.0
  0
LINE
  5
2CC
330
1F
100
AcDbEntity
  8
0
  6
Continuous
 62
     7
370
    15
100
AcDbLine
 10
166.2082154696
 20
155.2770697267
 30
0.0
 11
166.2082154696
 21
162.4501758011
 31
0.0
  0
SPLINE
  5
2CD
330
1F
100
AcDbEntity
  8
0
  6
Continuous
 62
     7
370
    15
100
AcDbSpline
210
0.0
220
0.0
230
1.0
 70
     8
 71
     3
 72
     8
 73
     4
 74
     0
 42
0.00000001
 43
0.00000001
 12
1.0
 22
0.0
 32
0.0
 13
1.0
 23
0.0
 33
0.0
 40
0.0
 40
0.0
 40
0.0
 40
0.0
 40
1.0
 40
1.0
 40
1.0
 40
1.0
 10
166.3849921649099
 20
164.191311700102
 30
0.0
 10
166.4039767420271
 20
164.2104747430416
 30
0.0
 10
166.4237193598709
 20
164.2302280592884
 30
0.0
 10
166.4433149090005
 20
164.249745126615
 30
0.0
  0
SPLINE
  5
2CE
330
1F
100
AcDbEntity
  8
0
  6
Continuous
 62
     7
370
    15
100
AcDbSpline
210
0.0
220
0.0
230
1.0
 70
     8
 71
     3
 72
     8
 73
     4
 74
     0
 42
0.00000001
 43
0.00000001
 12
1.0
 22
0.0
 32
0.0
 13
1.0
 23
0.0
 33
0.0
 40
0.0
 40
0.0
 40
0.0
 40
0.0
 40
1.0
 40
1.0
 40
1.0
 40
1.0
 10
166.5617688602066
 20
164.183709580237
 30
0.0
 10
166.5215859145276
 20
164.2130800432969
 30
0.0
 10
166.48090652473
 20
164.2361963117875
 30
0.0
 10
166.4433149090022
 20
164.2497451266158
 30
0.0
  0
LINE
  5
2CF
330
1F
100
AcDbEntity
  8
0
  6
Continuous
 62
     7
370
    15
100
AcDbLine
 10
166.5617688602
 20
164.1837098391
 30
0.0
 11
166.5617688602
 21
162.6135744842
 31
0.0
  0
LINE
  5
2D0
330
1F
100
AcDbEntity
  8
0
  6
Continuous
 62
     7
370
    15
100
AcDbLine
 10
166.3849921649
 20
162.5057236047
 30
0.0
 11
166.3849921649
 21
164.1913131566
 31
0.0
  0
LINE
  5
2D1
330
1F
100
AcDbEntity
  8
0
  6
Continuous
 62
     7
370
    15
100
AcDbLine
 10
181.8546619659
 20
162.6135744842
 30
0.0
 11
181.8546619659
 21
164.1837098391
 31
0.0
  0
SPLINE
  5
2D2
330
1F
100
AcDbEntity
  8
0
  6
Continuous
 62
     7
370
    15
100
AcDbSpline
210
0.0
220
0.0
230
1.0
 70
     8
 71
     3
 72
     8
 73
     4
 74
     0
 42
0.00000001
 43
0.00000001
 12
1.0
 22
0.0
 32
0.0
 13
1.0
 23
0.0
 33
0.0
 40
0.0
 40
0.0
 40
0.0
 40
0.0
 40
1.0
 40
1.0
 40
1.0
 40
1.0
 10
181.85466207902
 20
164.183709580237
 30
0.0
 10
181.8948450247013
 20
164.2130800432953
 30
0.0
 10
181.9355244144966
 20
164.2361963117875
 30
0.0
 10
181.9731160302244
 20
164.2497451266158
 30
0.0
  0
SPLINE
  5
2D3
330
1F
100
AcDbEntity
  8
0
  6
Continuous
 62
     7
370
    15
100
AcDbSpline
210
0.0
220
0.0
230
1.0
 70
     8
 71
     3
 72
     8
 73
     4
 74
     0
 42
0.00000001
 43
0.00000001
 12
1.0
 22
0.0
 32
0.0
 13
1.0
 23
0.0
 33
0.0
 40
0.0
 40
0.0
 40
0.0
 40
0.0
 40
1.0
 40
1.0
 40
1.0
 40
1.0
 10
181.973116030226
 20
164.2497451266152
 30
0.0
 10
181.992523658491
 20
164.2304152275144
 30
0.0
 10
182.0125552597424
 20
164.2103727304533
 30
0.0
 10
182.0314387743167
 20
164.191311700102
 30
0.0
  0
LINE
  5
2D4
330
1F
100
AcDbEntity
  8
0
  6
Continuous
 62
     7
370
    15
100
AcDbLine
 10
182.0314381664
 20
164.1913131566
 30
0.0
 11
182.0314381664
 21
162.5057236047
 31
0.0
  0
SPLINE
  5
2D5
330
1F
100
AcDbEntity
  8
0
  6
Continuous
 62
     7
370
    15
100
AcDbSpline
210
0.0
220
0.0
230
1.0
 70
     8
 71
     3
 72
     8
 73
     4
 74
     0
 42
0.00000001
 43
0.00000001
 12
1.0
 22
0.0
 32
0.0
 13
1.0
 23
0.0
 33
0.0
 40
0.0
 40
0.0
 40
0.0
 40
0.0
 40
1.0
 40
1.0
 40
1.0
 40
1.0
 10
182.0314387743167
 20
162.5057226207207
 30
0.0
 10
182.0124541971995
 20
162.5117079081379
 30
0.0
 10
181.9927115793556
 20
162.5100639384953
 30
0.0
 10
181.9731160302261
 20
162.5041321647695
 30
0.0
  0
LINE
  5
2D6
330
1F
100
AcDbEntity
  8
0
  6
Continuous
 62
     7
370
    15
100
AcDbLine
 10
181.9582157229
 20
155.0912839116
 30
0.0
 11
182.2082162296
 21
155.2770697267
 31
0.0
  0
LINE
  5
2D7
330
1F
100
AcDbEntity
  8
0
  6
Continuous
 62
     7
370
    15
100
AcDbLine
 10
181.9582157229
 20
155.0912839116
 30
0.0
 11
181.9582157229
 21
162.4170095416
 31
0.0
  0
SPLINE
  5
2D8
330
1F
100
AcDbEntity
  8
0
  6
Continuous
 62
     7
370
    15
100
AcDbSpline
210
0.0
220
0.0
230
1.0
 70
     8
 71
     3
 72
     8
 73
     4
 74
     0
 42
0.00000001
 43
0.00000001
 12
1.0
 22
0.0
 32
0.0
 13
1.0
 23
0.0
 33
0.0
 40
0.0001085338104882
 40
0.0001085338104882
 40
0.0001085338104882
 40
0.0001085338104882
 40
0.0003707418624266
 40
0.0003707418624266
 40
0.0003707418624266
 40
0.0003707418624266
 10
182.0314387743167
 20
162.5057226207207
 30
0.0
 10
182.0903937607658
 20
162.4871358206881
 30
0.0
 10
182.1493196882807
 20
162.4686193862714
 30
0.0
 10
182.2082154696133
 20
162.4501755321004
 30
0.0
  0
LINE
  5
2D9
330
1F
100
AcDbEntity
  8
0
  6
Continuous
 62
     7
370
    15
100
AcDbLine
 10
182.2082162296
 20
162.4501758011
 30
0.0
 11
182.2082162296
 21
155.2770697267
 31
0.0
  0
LINE
  5
2DA
330
1F
100
AcDbEntity
  8
0
  6
Continuous
 62
     7
370
    15
100
AcDbLine
 10
181.9582157229
 20
155.0912839116
 30
0.0
 11
166.4582154815
 21
155.0912839116
 31
0.0
  0
LINE
  5
2DB
330
1F
100
AcDbEntity
  8
0
  6
Continuous
 62
     7
370
    15
100
AcDbLine
 10
181.8546619659
 20
164.1837098391
 30
0.0
 11
166.5617688602
 21
164.1837098391
 31
0.0
  0
SPLINE
  5
2DC
330
1F
100
AcDbEntity
  8
0
  6
Continuous
 62
     7
370
    15
100
AcDbSpline
210
0.0
220
0.0
230
1.0
 70
     8
 71
     3
 72
     8
 73
     4
 74
     0
 42
0.00000001
 43
0.00000001
 12
1.0
 22
0.0
 32
0.0
 13
1.0
 23
0.0
 33
0.0
 40
0.0001085338104882
 40
0.0001085338104882
 40
0.0001085338104882
 40
0.0001085338104882
 40
0.0003707418624266
 40
0.0003707418624266
 40
0.0003707418624266
 40
0.0003707418624266
 10
166.3849921649099
 20
164.191311700102
 30
0.0
 10
166.3260371784608
 20
164.1318025032497
 30
0.0
 10
166.2671112509459
 20
164.0722372573766
 30
0.0
 10
166.2082154696133
 20
164.0126144486784
 30
0.0
  0
LINE
  5
2DD
330
1F
100
AcDbEntity
  8
0
  6
Continuous
 62
     7
370
    15
100
AcDbLine
 10
166.2082154696
 20
162.4501758011
 30
0.0
 11
166.2082154696
 21
164.0126147063
 31
0.0
  0
SPLINE
  5
2DE
330
1F
100
AcDbEntity
  8
0
  6
Continuous
 62
     7
370
    15
100
AcDbSpline
210
0.0
220
0.0
230
1.0
 70
     8
 71
     3
 72
     8
 73
     4
 74
     0
 42
0.00000001
 43
0.00000001
 12
1.0
 22
0.0
 32
0.0
 13
1.0
 23
0.0
 33
0.0
 40
0.0001085338104882
 40
0.0001085338104882
 40
0.0001085338104882
 40
0.0001085338104882
 40
0.0003707418624266
 40
0.0003707418624266
 40
0.0003707418624266
 40
0.0003707418624266
 10
182.0314387743167
 20
164.191311700102
 30
0.0
 10
182.0903937607658
 20
164.1318025032497
 30
0.0
 10
182.1493196882807
 20
164.0722372573766
 30
0.0
 10
182.2082154696133
 20
164.0126144486784
 30
0.0
  0
LINE
  5
2DF
330
1F
100
AcDbEntity
  8
0
  6
Continuous
 62
     7
370
    15
100
AcDbLine
 10
182.2082162296
 20
164.0126147063
 30
0.0
 11
182.2082162296
 21
162.4501758011
 31
0.0
  0
LINE
  5
2E0
330
1F
100
AcDbEntity
  8
0
  6
Continuous
 62
     7
370
    15
100
AcDbLine
 10
181.9582157229
 20
131.5517430881
 30
0.0
 11
181.9582157229
 21
134.9450159574
 31
0.0
  0
LINE
  5
2E1
330
1F
100
AcDbEntity
  8
0
  6
Continuous
 62
     7
370
    15
100
AcDbLine
 10
166.4582154815
 20
134.9450159574
 30
0.0
 11
166.4582154815
 21
131.5517430881
 31
0.0
  0
LINE
  5
2E2
330
1F
100
AcDbEntity
  8
0
  6
Continuous
 62
     7
370
    15
100
AcDbLine
 10
166.2082154696
 20
131.5367995517
 30
0.0
 11
166.2082154696
 21
134.9077481532
 31
0.0
  0
LINE
  5
2E3
330
1F
100
AcDbEntity
  8
0
  6
Continuous
 62
     7
370
    15
100
AcDbLine
 10
182.2082162296
 20
134.9077481532
 30
0.0
 11
182.2082162296
 21
131.5367995517
 31
0.0
  0
SPLINE
  5
2E4
330
1F
100
AcDbEntity
  8
0
  6
Continuous
 62
     7
370
    15
100
AcDbSpline
210
0.0
220
0.0
230
1.0
 70
     8
 71
     3
 72
     8
 73
     4
 74
     0
 42
0.00000001
 43
0.00000001
 12
1.0
 22
0.0
 32
0.0
 13
1.0
 23
0.0
 33
0.0
 40
0.0
 40
0.0
 40
0.0
 40
0.0
 40
1.0
 40
1.0
 40
1.0
 40
1.0
 10
166.4433149090007
 20
164.2497451266152
 30
0.0
 10
166.4527759859808
 20
164.2586438792547
 30
0.0
 10
166.4582154696153
 20
164.2633642646504
 30
0.0
 10
166.4582154696154
 20
164.2625140592981
 30
0.0
  0
SPLINE
  5
2E5
330
1F
100
AcDbEntity
  8
0
  6
Continuous
 62
     7
370
    15
100
AcDbSpline
210
0.0
220
0.0
230
1.0
 70
     8
 71
     3
 72
     8
 73
     4
 74
     0
 42
0.00000001
 43
0.00000001
 12
1.0
 22
0.0
 32
0.0
 13
1.0
 23
0.0
 33
0.0
 40
0.0
 40
0.0
 40
0.0
 40
0.0
 40
1.0
 40
1.0
 40
1.0
 40
1.0
 10
181.9582154696133
 20
164.262514059296
 30
0.0
 10
181.9582154696133
 20
164.2633655031286
 30
0.0
 10
181.96359132417
 20
164.2587037265012
 30
0.0
 10
181.9731160302259
 20
164.2497451266153
 30
0.0
  0
LINE
  5
2E6
330
1F
100
AcDbEntity
  8
0
  6
Continuous
 62
     7
370
    15
100
AcDbLine
 10
166.2082154696
 20
116.0148615705
 30
0.0
 11
166.4582154815
 21
115.9270117746
 31
0.0
  0
LINE
  5
2E7
330
1F
100
AcDbEntity
  8
0
  6
Continuous
 62
     7
370
    15
100
AcDbLine
 10
166.4582154815
 20
115.9270117746
 30
0.0
 11
166.4582154815
 21
112.8347442241
 31
0.0
  0
LINE
  5
2E8
330
1F
100
AcDbEntity
  8
0
  6
Continuous
 62
     7
370
    15
100
AcDbLine
 10
166.2082154696
 20
112.6182378025
 30
0.0
 11
166.2082154696
 21
116.0148615705
 31
0.0
  0
LINE
  5
2E9
330
1F
100
AcDbEntity
  8
0
  6
Continuous
 62
     7
370
    15
100
AcDbLine
 10
181.9582157229
 20
112.8347442241
 30
0.0
 11
181.9582157229
 21
115.9270117746
 31
0.0
  0
LINE
  5
2EA
330
1F
100
AcDbEntity
  8
0
  6
Continuous
 62
     7
370
    15
100
AcDbLine
 10
181.9582157229
 20
115.9270117746
 30
0.0
 11
166.4582154815
 21
115.9270117746
 31
0.0
  0
LINE
  5
2EB
330
1F
100
AcDbEntity
  8
0
  6
Continuous
 62
     7
370
    15
100
AcDbLine
 10
181.9582157229
 20
115.9270117746
 30
0.0
 11
182.2082162296
 21
116.0148615705
 31
0.0
  0
LINE
  5
2EC
330
1F
100
AcDbEntity
  8
0
  6
Continuous
 62
     7
370
    15
100
AcDbLine
 10
182.2082162296
 20
116.0148615705
 30
0.0
 11
182.2082162296
 21
112.6182378025
 31
0.0
  0
LINE
  5
2ED
330
1F
100
AcDbEntity
  8
0
  6
Continuous
 62
     7
370
    15
100
AcDbLine
 10
181.9582157229
 20
115.9270117746
 30
0.0
 11
181.9582157229
 21
119.1719817685
 31
0.0
  0
LINE
  5
2EE
330
1F
100
AcDbEntity
  8
0
  6
Continuous
 62
     7
370
    15
100
AcDbLine
 10
166.4582154815
 20
119.1719817685
 30
0.0
 11
166.4582154815
 21
115.9270117746
 31
0.0
  0
LINE
  5
2EF
330
1F
100
AcDbEntity
  8
0
  6
Continuous
 62
     7
370
    15
100
AcDbLine
 10
166.2082154696
 20
116.0148615705
 30
0.0
 11
166.2082154696
 21
119.2384837882
 31
0.0
  0
LINE
  5
2F0
330
1F
100
AcDbEntity
  8
0
  6
Continuous
 62
     7
370
    15
100
AcDbLine
 10
182.2082162296
 20
119.2384837882
 30
0.0
 11
182.2082162296
 21
116.0148615705
 31
0.0
  0
LINE
  5
2F1
330
1F
100
AcDbEntity
  8
0
  6
Continuous
 62
     7
370
    15
100
AcDbLine
 10
181.9582157229
 20
152.9936306866
 30
0.0
 11
181.9582157229
 21
155.0912839116
 31
0.0
  0
LINE
  5
2F2
330
1F
100
AcDbEntity
  8
0
  6
Continuous
 62
     7
370
    15
100
AcDbLine
 10
181.9582157229
 20
152.9936306866
 30
0.0
 11
166.4582154815
 21
152.9936306866
 31
0.0
  0
LINE
  5
2F3
330
1F
100
AcDbEntity
  8
0
  6
Continuous
 62
     7
370
    15
100
AcDbLine
 10
166.4582154815
 20
155.0912839116
 30
0.0
 11
166.4582154815
 21
152.9936306866
 31
0.0
  0
LINE
  5
2F4
330
1F
100
AcDbEntity
  8
0
  6
Continuous
 62
     7
370
    15
100
AcDbLine
 10
166.2082154696
 20
153.1794165017
 30
0.0
 11
166.4582154815
 21
152.9936306866
 31
0.0
  0
LINE
  5
2F5
330
1F
100
AcDbEntity
  8
0
  6
Continuous
 62
     7
370
    15
100
AcDbLine
 10
166.2082154696
 20
153.1794165017
 30
0.0
 11
166.2082154696
 21
155.2770697267
 31
0.0
  0
LINE
  5
2F6
330
1F
100
AcDbEntity
  8
0
  6
Continuous
 62
     7
370
    15
100
AcDbLine
 10
181.9582157229
 20
152.9936306866
 30
0.0
 11
182.2082162296
 21
153.1794165017
 31
0.0
  0
LINE
  5
2F7
330
1F
100
AcDbEntity
  8
0
  6
Continuous
 62
     7
370
    15
100
AcDbLine
 10
182.2082162296
 20
155.2770697267
 30
0.0
 11
182.2082162296
 21
153.1794165017
 31
0.0
  0
LINE
  5
2F8
330
1F
100
AcDbEntity
  8
0
  6
Continuous
 62
     7
370
    15
100
AcDbLine
 10
181.9582157229
 20
147.0940616669
 30
0.0
 11
181.9582157229
 21
149.7385688813
 31
0.0
  0
LINE
  5
2F9
330
1F
100
AcDbEntity
  8
0
  6
Continuous
 62
     7
370
    15
100
AcDbLine
 10
166.4582154815
 20
149.7385688813
 30
0.0
 11
166.4582154815
 21
147.0940616669
 31
0.0
  0
LINE
  5
2FA
330
1F
100
AcDbEntity
  8
0
  6
Continuous
 62
     7
370
    15
100
AcDbLine
 10
181.9582157229
 20
149.7385688813
 30
0.0
 11
166.4582154815
 21
149.7385688813
 31
0.0
  0
LINE
  5
2FB
330
1F
100
AcDbEntity
  8
0
  6
Continuous
 62
     7
370
    15
100
AcDbLine
 10
166.2082154696
 20
149.6039760055
 30
0.0
 11
166.4582154815
 21
149.7385688813
 31
0.0
  0
LINE
  5
2FC
330
1F
100
AcDbEntity
  8
0
  6
Continuous
 62
     7
370
    15
100
AcDbLine
 10
166.2082154696
 20
146.8440611602
 30
0.0
 11
166.2082154696
 21
149.6039760055
 31
0.0
  0
LINE
  5
2FD
330
1F
100
AcDbEntity
  8
0
  6
Continuous
 62
     7
370
    15
100
AcDbLine
 10
181.9582157229
 20
149.7385688813
 30
0.0
 11
182.2082162296
 21
149.6039760055
 31
0.0
  0
LINE
  5
2FE
330
1F
100
AcDbEntity
  8
0
  6
Continuous
 62
     7
370
    15
100
AcDbLine
 10
182.2082162296
 20
149.6039760055
 30
0.0
 11
182.2082162296
 21
146.8440611602
 31
0.0
  0
LINE
  5
2FF
330
1F
100
AcDbEntity
  8
0
  6
Continuous
 62
     7
370
    15
100
AcDbLine
 10
166.4582154815
 20
152.9936306866
 30
0.0
 11
166.4582154815
 21
149.7385688813
 31
0.0
  0
LINE
  5
300
330
1F
100
AcDbEntity
  8
0
  6
Continuous
 62
     7
370
    15
100
AcDbLine
 10
166.2082154696
 20
149.6039760055
 30
0.0
 11
166.2082154696
 21
153.1794165017
 31
0.0
  0
LINE
  5
301
330
1F
100
AcDbEntity
  8
0
  6
Continuous
 62
     7
370
    15
100
AcDbLine
 10
181.9582157229
 20
149.7385688813
 30
0.0
 11
181.9582157229
 21
152.9936306866
 31
0.0
  0
LINE
  5
302
330
1F
100
AcDbEntity
  8
0
  6
Continuous
 62
     7
370
    15
100
AcDbLine
 10
182.2082162296
 20
153.1794165017
 30
0.0
 11
182.2082162296
 21
149.6039760055
 31
0.0
  0
LINE
  5
303
330
1F
100
AcDbEntity
  8
0
  6
Continuous
 62
     7
370
    15
100
AcDbLine
 10
166.2082154696
 20
96.6524631472
 30
0.0
 11
166.4582154815
 21
96.7994109483
 31
0.0
  0
LINE
  5
304
330
1F
100
AcDbEntity
  8
0
  6
Continuous
 62
     7
370
    15
100
AcDbLine
 10
166.4582154815
 20
96.7994109483
 30
0.0
 11
166.4582154815
 21
88.8303220959
 31
0.0
  0
SPLINE
  5
305
330
1F
100
AcDbEntity
  8
0
  6
Continuous
 62
     7
370
    15
100
AcDbSpline
210
0.0
220
0.0
230
1.0
 70
     8
 71
     3
 72
     8
 73
     4
 74
     0
 42
0.00000001
 43
0.00000001
 12
1.0
 22
0.0
 32
0.0
 13
1.0
 23
0.0
 33
0.0
 40
0.0
 40
0.0
 40
0.0
 40
0.0
 40
1.0
 40
1.0
 40
1.0
 40
1.0
 10
166.4433149090007
 20
88.74586917227589
 30
0.0
 10
166.4527759859808
 20
88.7714441728392
 30
0.0
 10
166.4582154696153
 20
88.80040681401583
 30
0.0
 10
166.4582154696154
 20
88.83032329580747
 30
0.0
  0
SPLINE
  5
306
330
1F
100
AcDbEntity
  8
0
  6
Continuous
 62
     7
370
    15
100
AcDbSpline
210
0.0
220
0.0
230
1.0
 70
     8
 71
     3
 72
     8
 73
     4
 74
     0
 42
0.00000001
 43
0.00000001
 12
1.0
 22
0.0
 32
0.0
 13
1.0
 23
0.0
 33
0.0
 40
0.0
 40
0.0
 40
0.0
 40
0.0
 40
1.0
 40
1.0
 40
1.0
 40
1.0
 10
166.3849921649099
 20
88.75649462888049
 30
0.0
 10
166.4039767420271
 20
88.74650317460319
 30
0.0
 10
166.4237193598709
 20
88.74401757666244
 30
0.0
 10
166.4433149090005
 20
88.74586917227786
 30
0.0
  0
SPLINE
  5
307
330
1F
100
AcDbEntity
  8
0
  6
Continuous
 62
     7
370
    15
100
AcDbSpline
210
0.0
220
0.0
230
1.0
 70
     8
 71
     3
 72
     8
 73
     4
 74
     0
 42
0.00000001
 43
0.00000001
 12
1.0
 22
0.0
 32
0.0
 13
1.0
 23
0.0
 33
0.0
 40
0.0001085338104882
 40
0.0001085338104882
 40
0.0001085338104882
 40
0.0001085338104882
 40
0.0003707418624266
 40
0.0003707418624266
 40
0.0003707418624266
 40
0.0003707418624266
 10
166.3849921649099
 20
88.75649462888049
 30
0.0
 10
166.3260371784608
 20
88.78752223870764
 30
0.0
 10
166.2671112509459
 20
88.81849120035484
 30
0.0
 10
166.2082154696133
 20
88.84939961566361
 30
0.0
  0
LINE
  5
308
330
1F
100
AcDbEntity
  8
0
  6
Continuous
 62
     7
370
    15
100
AcDbLine
 10
166.2082154696
 20
88.8493993075
 30
0.0
 11
166.2082154696
 21
96.6524631472
 31
0.0
  0
LINE
  5
309
330
1F
100
AcDbEntity
  8
0
  6
Continuous
 62
     7
370
    15
100
AcDbLine
 10
181.9582157229
 20
96.7994109483
 30
0.0
 11
166.4582154815
 21
96.7994109483
 31
0.0
  0
LINE
  5
30A
330
1F
100
AcDbEntity
  8
0
  6
Continuous
 62
     7
370
    15
100
AcDbLine
 10
181.9582157229
 20
88.8303220959
 30
0.0
 11
181.9582157229
 21
96.7994109483
 31
0.0
  0
LINE
  5
30B
330
1F
100
AcDbEntity
  8
0
  6
Continuous
 62
     7
370
    15
100
AcDbLine
 10
166.4582154815
 20
88.8303220959
 30
0.0
 11
181.9582157229
 21
88.8303220959
 31
0.0
  0
LINE
  5
30C
330
1F
100
AcDbEntity
  8
0
  6
Continuous
 62
     7
370
    15
100
AcDbLine
 10
181.9582157229
 20
96.7994109483
 30
0.0
 11
182.2082162296
 21
96.6524631472
 31
0.0
  0
SPLINE
  5
30D
330
1F
100
AcDbEntity
  8
0
  6
Continuous
 62
     7
370
    15
100
AcDbSpline
210
0.0
220
0.0
230
1.0
 70
     8
 71
     3
 72
     8
 73
     4
 74
     0
 42
0.00000001
 43
0.00000001
 12
1.0
 22
0.0
 32
0.0
 13
1.0
 23
0.0
 33
0.0
 40
0.0001085338104882
 40
0.0001085338104882
 40
0.0001085338104882
 40
0.0001085338104882
 40
0.0003707418624266
 40
0.0003707418624266
 40
0.0003707418624266
 40
0.0003707418624266
 10
182.0314387743167
 20
88.75649462888049
 30
0.0
 10
182.0903937607658
 20
88.78752223870764
 30
0.0
 10
182.1493196882807
 20
88.81849120035481
 30
0.0
 10
182.2082154696133
 20
88.8493996156636
 30
0.0
  0
SPLINE
  5
30E
330
1F
100
AcDbEntity
  8
0
  6
Continuous
 62
     7
370
    15
100
AcDbSpline
210
0.0
220
0.0
230
1.0
 70
     8
 71
     3
 72
     8
 73
     4
 74
     0
 42
0.00000001
 43
0.00000001
 12
1.0
 22
0.0
 32
0.0
 13
1.0
 23
0.0
 33
0.0
 40
0.0
 40
0.0
 40
0.0
 40
0.0
 40
1.0
 40
1.0
 40
1.0
 40
1.0
 10
181.973116030226
 20
88.74586917227721
 30
0.0
 10
181.992523658491
 20
88.74403533342102
 30
0.0
 10
182.0125552597424
 20
88.74655636313462
 30
0.0
 10
182.0314387743167
 20
88.75649462888049
 30
0.0
  0
SPLINE
  5
30F
330
1F
100
AcDbEntity
  8
0
  6
Continuous
 62
     7
370
    15
100
AcDbSpline
210
0.0
220
0.0
230
1.0
 70
     8
 71
     3
 72
     8
 73
     4
 74
     0
 42
0.00000001
 43
0.00000001
 12
1.0
 22
0.0
 32
0.0
 13
1.0
 23
0.0
 33
0.0
 40
0.0
 40
0.0
 40
0.0
 40
0.0
 40
1.0
 40
1.0
 40
1.0
 40
1.0
 10
181.9582154696133
 20
88.83032329580831
 30
0.0
 10
181.9582154696133
 20
88.80036323516391
 30
0.0
 10
181.96359132417
 20
88.77161617372789
 30
0.0
 10
181.9731160302259
 20
88.745869172276
 30
0.0
  0
LINE
  5
310
330
1F
100
AcDbEntity
  8
0
  6
Continuous
 62
     7
370
    15
100
AcDbLine
 10
182.2082162296
 20
96.6524631472
 30
0.0
 11
182.2082162296
 21
88.8493993075
 31
0.0
  0
SPLINE
  5
311
330
1F
100
AcDbEntity
  8
0
  6
Continuous
 62
     7
370
    15
100
AcDbSpline
210
0.0
220
0.0
230
1.0
 70
     8
 71
     3
 72
     8
 73
     4
 74
     0
 42
0.00000001
 43
0.00000001
 12
1.0
 22
0.0
 32
0.0
 13
1.0
 23
0.0
 33
0.0
 40
0.0
 40
0.0
 40
0.0
 40
0.0
 40
1.0
 40
1.0
 40
1.0
 40
1.0
 10
181.85466207902
 20
88.65023260518764
 30
0.0
 10
181.894845024711
 20
88.67457960962885
 30
0.0
 10
181.9355244144966
 20
88.7069299005713
 30
0.0
 10
181.9731160302244
 20
88.74586917227708
 30
0.0
  0
LINE
  5
312
330
1F
100
AcDbEntity
  8
0
  6
Continuous
 62
     7
370
    15
100
AcDbLine
 10
181.8546619659
 20
88.6502341123
 30
0.0
 11
166.5617688602
 21
88.6502341123
 31
0.0
  0
SPLINE
  5
313
330
1F
100
AcDbEntity
  8
0
  6
Continuous
 62
     7
370
    15
100
AcDbSpline
210
0.0
220
0.0
230
1.0
 70
     8
 71
     3
 72
     8
 73
     4
 74
     0
 42
0.00000001
 43
0.00000001
 12
1.0
 22
0.0
 32
0.0
 13
1.0
 23
0.0
 33
0.0
 40
0.0
 40
0.0
 40
0.0
 40
0.0
 40
1.0
 40
1.0
 40
1.0
 40
1.0
 10
166.5617688602066
 20
88.65023260518764
 30
0.0
 10
166.521585914521
 20
88.67457960963208
 30
0.0
 10
166.48090652473
 20
88.70692990057128
 30
0.0
 10
166.4433149090023
 20
88.74586917227704
 30
0.0
  0
LINE
  5
314
330
1F
100
AcDbEntity
  8
0
  6
Continuous
 62
     7
370
    15
100
AcDbLine
 10
166.5617688602
 20
88.6502341123
 30
0.0
 11
166.5617688602
 21
87.4083452614
 31
0.0
  0
SPLINE
  5
315
330
1F
100
AcDbEntity
  8
0
  6
Continuous
 62
     7
370
    15
100
AcDbSpline
210
0.0
220
0.0
230
1.0
 70
     8
 71
     3
 72
     8
 73
     4
 74
     0
 42
0.00000001
 43
0.00000001
 12
1.0
 22
0.0
 32
0.0
 13
1.0
 23
0.0
 33
0.0
 40
0.0
 40
0.0
 40
0.0
 40
0.0
 40
1.0
 40
1.0
 40
1.0
 40
1.0
 10
166.5617688602066
 20
87.40834468050329
 30
0.0
 10
166.5216159457588
 20
87.38536494456598
 30
0.0
 10
166.4810111878167
 20
87.37001824246506
 30
0.0
 10
166.4433149090027
 20
87.3651886911552
 30
0.0
  0
SPLINE
  5
316
330
1F
100
AcDbEntity
  8
0
  6
Continuous
 62
     7
370
    15
100
AcDbSpline
210
0.0
220
0.0
230
1.0
 70
     8
 71
     3
 72
     8
 73
     4
 74
     0
 42
0.00000001
 43
0.00000001
 12
1.0
 22
0.0
 32
0.0
 13
1.0
 23
0.0
 33
0.0
 40
0.0
 40
0.0
 40
0.0
 40
0.0
 40
1.0
 40
1.0
 40
1.0
 40
1.0
 10
166.4433149090056
 20
87.36518869115098
 30
0.0
 10
166.4239072807389
 20
87.38329040419227
 30
0.0
 10
166.4038756794858
 20
87.40298398668239
 30
0.0
 10
166.38499216491
 20
87.42328962183602
 30
0.0
  0
LINE
  5
317
330
1F
100
AcDbEntity
  8
0
  6
Continuous
 62
     7
370
    15
100
AcDbLine
 10
166.3849921649
 20
87.4232911261
 30
0.0
 11
166.3849921649
 21
88.7564942928
 31
0.0
  0
SPLINE
  5
318
330
1F
100
AcDbEntity
  8
0
  6
Continuous
 62
     7
370
    15
100
AcDbSpline
210
0.0
220
0.0
230
1.0
 70
     8
 71
     3
 72
     8
 73
     4
 74
     0
 42
0.00000001
 43
0.00000001
 12
1.0
 22
0.0
 32
0.0
 13
1.0
 23
0.0
 33
0.0
 40
0.0
 40
0.0
 40
0.0
 40
0.0
 40
1.0
 40
1.0
 40
1.0
 40
1.0
 10
181.85466207902
 20
87.40834468050329
 30
0.0
 10
181.8948450246976
 20
87.38534775753371
 30
0.0
 10
181.9355244144966
 20
87.3700048332966
 30
0.0
 10
181.9731160302244
 20
87.36518869115505
 30
0.0
  0
LINE
  5
319
330
1F
100
AcDbEntity
  8
0
  6
Continuous
 62
     7
370
    15
100
AcDbLine
 10
181.8546619659
 20
87.4083452614
 30
0.0
 11
181.8546619659
 21
88.6502341123
 31
0.0
  0
LINE
  5
31A
330
1F
100
AcDbEntity
  8
0
  6
Continuous
 62
     7
370
    15
100
AcDbLine
 10
182.0314381664
 20
88.7564942928
 30
0.0
 11
182.0314381664
 21
87.4232911261
 31
0.0
  0
SPLINE
  5
31B
330
1F
100
AcDbEntity
  8
0
  6
Continuous
 62
     7
370
    15
100
AcDbSpline
210
0.0
220
0.0
230
1.0
 70
     8
 71
     3
 72
     8
 73
     4
 74
     0
 42
0.00000001
 43
0.00000001
 12
1.0
 22
0.0
 32
0.0
 13
1.0
 23
0.0
 33
0.0
 40
0.0
 40
0.0
 40
0.0
 40
0.0
 40
1.0
 40
1.0
 40
1.0
 40
1.0
 10
182.0314387743167
 20
87.42328962183603
 30
0.0
 10
182.0124541971995
 20
87.40287531310459
 30
0.0
 10
181.9927115793556
 20
87.38346568009861
 30
0.0
 10
181.9731160302261
 20
87.36518869115595
 30
0.0
  0
SPLINE
  5
31C
330
1F
100
AcDbEntity
  8
0
  6
Continuous
 62
     7
370
    15
100
AcDbSpline
210
0.0
220
0.0
230
1.0
 70
     8
 71
     3
 72
     8
 73
     4
 74
     0
 42
0.00000001
 43
0.00000001
 12
1.0
 22
0.0
 32
0.0
 13
1.0
 23
0.0
 33
0.0
 40
0.0001085338104882
 40
0.0001085338104882
 40
0.0001085338104882
 40
0.0001085338104882
 40
0.0003707418624266
 40
0.0003707418624266
 40
0.0003707418624266
 40
0.0003707418624266
 10
166.38499216491
 20
87.42328962183602
 30
0.0
 10
166.3260371784608
 20
87.48668451797732
 30
0.0
 10
166.2671112509459
 20
87.55012075271992
 30
0.0
 10
166.2082154696133
 20
87.61359937688458
 30
0.0
  0
LINE
  5
31D
330
1F
100
AcDbEntity
  8
0
  6
Continuous
 62
     7
370
    15
100
AcDbLine
 10
166.2082154696
 20
87.613597581
 30
0.0
 11
166.2082154696
 21
88.8493993075
 31
0.0
  0
SPLINE
  5
31E
330
1F
100
AcDbEntity
  8
0
  6
Continuous
 62
     7
370
    15
100
AcDbSpline
210
0.0
220
0.0
230
1.0
 70
     8
 71
     3
 72
     8
 73
     4
 74
     0
 42
0.00000001
 43
0.00000001
 12
1.0
 22
0.0
 32
0.0
 13
1.0
 23
0.0
 33
0.0
 40
0.0001085338104882
 40
0.0001085338104882
 40
0.0001085338104882
 40
0.0001085338104882
 40
0.0003707418624266
 40
0.0003707418624266
 40
0.0003707418624266
 40
0.0003707418624266
 10
182.0314387743167
 20
87.42328962183603
 30
0.0
 10
182.0903937607658
 20
87.48668451797731
 30
0.0
 10
182.1493196882807
 20
87.55012075271992
 30
0.0
 10
182.2082154696133
 20
87.61359937688455
 30
0.0
  0
LINE
  5
31F
330
1F
100
AcDbEntity
  8
0
  6
Continuous
 62
     7
370
    15
100
AcDbLine
 10
182.2082162296
 20
88.8493993075
 30
0.0
 11
182.2082162296
 21
87.613597581
 31
0.0
  0
LINE
  5
320
330
1F
100
AcDbEntity
  8
0
  6
Continuous
 62
     7
370
    15
100
AcDbLine
 10
166.5617688602
 20
87.4083452614
 30
0.0
 11
181.8546619659
 21
87.4083452614
 31
0.0
  0
SPLINE
  5
321
330
1F
100
AcDbEntity
  8
0
  6
Continuous
 62
     7
370
    15
100
AcDbSpline
210
0.0
220
0.0
230
1.0
 70
     8
 71
     3
 72
     9
 73
     5
 74
     0
 42
0.00000001
 43
0.00000001
 12
1.0
 22
0.0
 32
0.0
 13
1.0
 23
0.0
 33
0.0
 40
0.0
 40
0.0
 40
0.0
 40
0.0
 40
0.1706639931550003
 40
1.0
 40
1.0
 40
1.0
 40
1.0
 10
166.4507522261726
 20
87.36418567017874
 30
0.0
 10
166.450567159871
 20
87.36398259210364
 30
0.0
 10
166.449482770023
 20
87.36279266286691
 30
0.0
 10
166.4461111271813
 20
87.36410194142108
 30
0.0
 10
166.4433149023704
 20
87.36518777326903
 30
0.0
  0
LINE
  5
322
330
1F
100
AcDbEntity
  8
0
  6
Continuous
 62
     7
370
    15
100
AcDbLine
 10
181.9731168841
 20
87.3651877733
 30
0.0
 11
181.9659531509
 21
87.3644948693
 31
0.0
  0
LINE
  5
323
330
1F
100
AcDbEntity
  8
0
  6
Continuous
 62
     7
370
    15
100
AcDbLine
 10
166.2082154696
 20
99.1886445077
 30
0.0
 11
166.4582154815
 21
99.3355904462
 31
0.0
  0
LINE
  5
324
330
1F
100
AcDbEntity
  8
0
  6
Continuous
 62
     7
370
    15
100
AcDbLine
 10
166.4582154815
 20
99.3355904462
 30
0.0
 11
166.4582154815
 21
96.7994109483
 31
0.0
  0
LINE
  5
325
330
1F
100
AcDbEntity
  8
0
  6
Continuous
 62
     7
370
    15
100
AcDbLine
 10
166.2082154696
 20
96.6524631472
 30
0.0
 11
166.2082154696
 21
99.1886445077
 31
0.0
  0
LINE
  5
326
330
1F
100
AcDbEntity
  8
0
  6
Continuous
 62
     7
370
    15
100
AcDbLine
 10
181.9582157229
 20
96.7994109483
 30
0.0
 11
181.9582157229
 21
99.3355904462
 31
0.0
  0
LINE
  5
327
330
1F
100
AcDbEntity
  8
0
  6
Continuous
 62
     7
370
    15
100
AcDbLine
 10
181.9582157229
 20
99.3355904462
 30
0.0
 11
166.4582154815
 21
99.3355904462
 31
0.0
  0
LINE
  5
328
330
1F
100
AcDbEntity
  8
0
  6
Continuous
 62
     7
370
    15
100
AcDbLine
 10
181.9582157229
 20
99.3355904462
 30
0.0
 11
182.2082162296
 21
99.1886445077
 31
0.0
  0
LINE
  5
329
330
1F
100
AcDbEntity
  8
0
  6
Continuous
 62
     7
370
    15
100
AcDbLine
 10
182.2082162296
 20
99.1886445077
 30
0.0
 11
182.2082162296
 21
96.6524631472
 31
0.0
  0
LINE
  5
32A
330
1F
100
AcDbEntity
  8
0
  6
Continuous
 62
     7
370
    15
100
AcDbLine
 10
181.9582157229
 20
99.3355904462
 30
0.0
 11
181.9582157229
 21
102.5581956597
 31
0.0
  0
LINE
  5
32B
330
1F
100
AcDbEntity
  8
0
  6
Continuous
 62
     7
370
    15
100
AcDbLine
 10
166.4582154815
 20
102.5581956597
 30
0.0
 11
166.4582154815
 21
99.3355904462
 31
0.0
  0
LINE
  5
32C
330
1F
100
AcDbEntity
  8
0
  6
Continuous
 62
     7
370
    15
100
AcDbLine
 10
166.2082154696
 20
99.1886445077
 30
0.0
 11
166.2082154696
 21
102.786639774
 31
0.0
  0
LINE
  5
32D
330
1F
100
AcDbEntity
  8
0
  6
Continuous
 62
     7
370
    15
100
AcDbLine
 10
182.2082162296
 20
102.786639774
 30
0.0
 11
182.2082162296
 21
99.1886445077
 31
0.0
  0
LINE
  5
32E
330
1F
100
AcDbEntity
  8
0
  6
Continuous
 62
     7
370
    15
100
AcDbLine
 10
181.9582157229
 20
167.0115367265
 30
0.0
 11
166.4582154815
 21
167.0115367265
 31
0.0
  0
LINE
  5
32F
330
1F
100
AcDbEntity
  8
0
  6
Continuous
 62
     7
370
    15
100
AcDbLine
 10
166.4582154815
 20
175.2756983729
 30
0.0
 11
166.4582154815
 21
167.0115367265
 31
0.0
  0
LINE
  5
330
330
1F
100
AcDbEntity
  8
0
  6
Continuous
 62
     7
370
    15
100
AcDbLine
 10
181.9582157229
 20
175.2756983729
 30
0.0
 11
166.4582154815
 21
175.2756983729
 31
0.0
  0
LINE
  5
331
330
1F
100
AcDbEntity
  8
0
  6
Continuous
 62
     7
370
    15
100
AcDbLine
 10
181.9582157229
 20
167.0115367265
 30
0.0
 11
181.9582157229
 21
175.2756983729
 31
0.0
  0
LINE
  5
332
330
1F
100
AcDbEntity
  8
0
  6
Continuous
 62
     7
370
    15
100
AcDbLine
 10
166.2082154696
 20
167.1132222505
 30
0.0
 11
166.4582154815
 21
167.0115367265
 31
0.0
  0
SPLINE
  5
333
330
1F
100
AcDbEntity
  8
0
  6
Continuous
 62
     7
370
    15
100
AcDbSpline
210
0.0
220
0.0
230
1.0
 70
     8
 71
     3
 72
     8
 73
     4
 74
     0
 42
0.00000001
 43
0.00000001
 12
1.0
 22
0.0
 32
0.0
 13
1.0
 23
0.0
 33
0.0
 40
0.0001085338104882
 40
0.0001085338104882
 40
0.0001085338104882
 40
0.0001085338104882
 40
0.0003707418624266
 40
0.0003707418624266
 40
0.0003707418624266
 40
0.0003707418624266
 10
166.3849921649099
 20
175.3314142212948
 30
0.0
 10
166.3260371784608
 20
175.2893018571095
 30
0.0
 10
166.2671112509459
 20
175.2472338604613
 30
0.0
 10
166.2082154696133
 20
175.2052117300787
 30
0.0
  0
SPLINE
  5
334
330
1F
100
AcDbEntity
  8
0
  6
Continuous
 62
     7
370
    15
100
AcDbSpline
210
0.0
220
0.0
230
1.0
 70
     8
 71
     3
 72
     8
 73
     4
 74
     0
 42
0.00000001
 43
0.00000001
 12
1.0
 22
0.0
 32
0.0
 13
1.0
 23
0.0
 33
0.0
 40
0.0
 40
0.0
 40
0.0
 40
0.0
 40
1.0
 40
1.0
 40
1.0
 40
1.0
 10
166.4433149090056
 20
175.3537912070123
 30
0.0
 10
166.4239072807389
 20
175.351503849015
 30
0.0
 10
166.4038756794858
 20
175.3449029775614
 30
0.0
 10
166.3849921649099
 20
175.3314142212948
 30
0.0
  0
SPLINE
  5
335
330
1F
100
AcDbEntity
  8
0
  6
Continuous
 62
     7
370
    15
100
AcDbSpline
210
0.0
220
0.0
230
1.0
 70
     8
 71
     3
 72
     8
 73
     4
 74
     0
 42
0.00000001
 43
0.00000001
 12
1.0
 22
0.0
 32
0.0
 13
1.0
 23
0.0
 33
0.0
 40
0.0
 40
0.0
 40
0.0
 40
0.0
 40
1.0
 40
1.0
 40
1.0
 40
1.0
 10
166.4582154696133
 20
175.275697567756
 30
0.0
 10
166.4582154696133
 20
175.3045262302151
 30
0.0
 10
166.4528396150573
 20
175.3310423304275
 30
0.0
 10
166.4433149090023
 20
175.3537912070091
 30
0.0
  0
LINE
  5
336
330
1F
100
AcDbEntity
  8
0
  6
Continuous
 62
     7
370
    15
100
AcDbLine
 10
166.2082154696
 20
167.1132222505
 30
0.0
 11
166.2082154696
 21
175.2052121551
 31
0.0
  0
LINE
  5
337
330
1F
100
AcDbEntity
  8
0
  6
Continuous
 62
     7
370
    15
100
AcDbLine
 10
181.9582157229
 20
167.0115367265
 30
0.0
 11
182.2082162296
 21
167.1132222505
 31
0.0
  0
SPLINE
  5
338
330
1F
100
AcDbEntity
  8
0
  6
Continuous
 62
     7
370
    15
100
AcDbSpline
210
0.0
220
0.0
230
1.0
 70
     8
 71
     3
 72
     8
 73
     4
 74
     0
 42
0.00000001
 43
0.00000001
 12
1.0
 22
0.0
 32
0.0
 13
1.0
 23
0.0
 33
0.0
 40
0.0
 40
0.0
 40
0.0
 40
0.0
 40
1.0
 40
1.0
 40
1.0
 40
1.0
 10
181.9731160302259
 20
175.3537912070129
 30
0.0
 10
181.9636549532457
 20
175.3311943025736
 30
0.0
 10
181.9582154696112
 20
175.3044842970574
 30
0.0
 10
181.9582154696112
 20
175.2756975677573
 30
0.0
  0
SPLINE
  5
339
330
1F
100
AcDbEntity
  8
0
  6
Continuous
 62
     7
370
    15
100
AcDbSpline
210
0.0
220
0.0
230
1.0
 70
     8
 71
     3
 72
     8
 73
     4
 74
     0
 42
0.00000001
 43
0.00000001
 12
1.0
 22
0.0
 32
0.0
 13
1.0
 23
0.0
 33
0.0
 40
0.0
 40
0.0
 40
0.0
 40
0.0
 40
1.0
 40
1.0
 40
1.0
 40
1.0
 10
182.0314387743167
 20
175.3314142212948
 30
0.0
 10
182.0124541971995
 20
175.3449751679358
 30
0.0
 10
181.9927115793556
 20
175.3514817009028
 30
0.0
 10
181.9731160302261
 20
175.353791207011
 30
0.0
  0
SPLINE
  5
33A
330
1F
100
AcDbEntity
  8
0
  6
Continuous
 62
     7
370
    15
100
AcDbSpline
210
0.0
220
0.0
230
1.0
 70
     8
 71
     3
 72
     8
 73
     4
 74
     0
 42
0.00000001
 43
0.00000001
 12
1.0
 22
0.0
 32
0.0
 13
1.0
 23
0.0
 33
0.0
 40
0.0001085338104882
 40
0.0001085338104882
 40
0.0001085338104882
 40
0.0001085338104882
 40
0.0003707418624266
 40
0.0003707418624266
 40
0.0003707418624266
 40
0.0003707418624266
 10
182.0314387743167
 20
175.3314142212948
 30
0.0
 10
182.0903937607658
 20
175.2893018571095
 30
0.0
 10
182.1493196882807
 20
175.2472338604613
 30
0.0
 10
182.2082154696133
 20
175.2052117300788
 30
0.0
  0
LINE
  5
33B
330
1F
100
AcDbEntity
  8
0
  6
Continuous
 62
     7
370
    15
100
AcDbLine
 10
182.2082162296
 20
175.2052121551
 30
0.0
 11
182.2082162296
 21
167.1132222505
 31
0.0
  0
SPLINE
  5
33C
330
1F
100
AcDbEntity
  8
0
  6
Continuous
 62
     7
370
    15
100
AcDbSpline
210
0.0
220
0.0
230
1.0
 70
     8
 71
     3
 72
     8
 73
     4
 74
     0
 42
0.00000001
 43
0.00000001
 12
1.0
 22
0.0
 32
0.0
 13
1.0
 23
0.0
 33
0.0
 40
0.0
 40
0.0
 40
0.0
 40
0.0
 40
1.0
 40
1.0
 40
1.0
 40
1.0
 10
166.5617688602066
 20
175.4314428088364
 30
0.0
 10
166.5216159457581
 20
175.4143127959504
 30
0.0
 10
166.4810111878167
 20
175.3882919628772
 30
0.0
 10
166.4433149090027
 20
175.3537912070122
 30
0.0
  0
LINE
  5
33D
330
1F
100
AcDbEntity
  8
0
  6
Continuous
 62
     7
370
    15
100
AcDbLine
 10
166.5617688602
 20
175.4314415844
 30
0.0
 11
181.8546619659
 21
175.4314415844
 31
0.0
  0
SPLINE
  5
33E
330
1F
100
AcDbEntity
  8
0
  6
Continuous
 62
     7
370
    15
100
AcDbSpline
210
0.0
220
0.0
230
1.0
 70
     8
 71
     3
 72
     8
 73
     4
 74
     0
 42
0.00000001
 43
0.00000001
 12
1.0
 22
0.0
 32
0.0
 13
1.0
 23
0.0
 33
0.0
 40
0.0
 40
0.0
 40
0.0
 40
0.0
 40
1.0
 40
1.0
 40
1.0
 40
1.0
 10
181.85466207902
 20
175.4314428088364
 30
0.0
 10
181.8948450246934
 20
175.414299984048
 30
0.0
 10
181.9355244144965
 20
175.3881961721066
 30
0.0
 10
181.9731160302243
 20
175.3537912070119
 30
0.0
  0
SPLINE
  5
33F
330
1F
100
AcDbEntity
  8
0
  6
Continuous
 62
     7
370
    15
100
AcDbSpline
210
0.0
220
0.0
230
1.0
 70
     8
 71
     3
 72
     8
 73
     4
 74
     0
 42
0.00000001
 43
0.00000001
 12
1.0
 22
0.0
 32
0.0
 13
1.0
 23
0.0
 33
0.0
 40
0.0
 40
0.0
 40
0.0
 40
0.0
 40
1.0
 40
1.0
 40
1.0
 40
1.0
 10
166.3849921649099
 20
176.2539676997669
 30
0.0
 10
166.4039767420271
 20
176.27474107104
 30
0.0
 10
166.4237193598709
 20
176.292958726705
 30
0.0
 10
166.4433149090005
 20
176.3091968451442
 30
0.0
  0
SPLINE
  5
340
330
1F
100
AcDbEntity
  8
0
  6
Continuous
 62
     7
370
    15
100
AcDbSpline
210
0.0
220
0.0
230
1.0
 70
     8
 71
     3
 72
     8
 73
     4
 74
     0
 42
0.00000001
 43
0.00000001
 12
1.0
 22
0.0
 32
0.0
 13
1.0
 23
0.0
 33
0.0
 40
0.0
 40
0.0
 40
0.0
 40
0.0
 40
1.0
 40
1.0
 40
1.0
 40
1.0
 10
166.5617688602066
 20
176.2908065366474
 30
0.0
 10
166.5215859145169
 20
176.3064248436357
 30
0.0
 10
166.48090652473
 20
176.3133238642124
 30
0.0
 10
166.4433149090023
 20
176.3091968451452
 30
0.0
  0
LINE
  5
341
330
1F
100
AcDbEntity
  8
0
  6
Continuous
 62
     7
370
    15
100
AcDbLine
 10
166.5617688602
 20
176.2908064516
 30
0.0
 11
166.5617688602
 21
175.4314415844
 31
0.0
  0
LINE
  5
342
330
1F
100
AcDbEntity
  8
0
  6
Continuous
 62
     7
370
    15
100
AcDbLine
 10
166.3849921649
 20
175.3314138146
 30
0.0
 11
166.3849921649
 21
176.2539670558
 31
0.0
  0
LINE
  5
343
330
1F
100
AcDbEntity
  8
0
  6
Continuous
 62
     7
370
    15
100
AcDbLine
 10
181.8546619659
 20
175.4314415844
 30
0.0
 11
181.8546619659
 21
176.2908064516
 31
0.0
  0
SPLINE
  5
344
330
1F
100
AcDbEntity
  8
0
  6
Continuous
 62
     7
370
    15
100
AcDbSpline
210
0.0
220
0.0
230
1.0
 70
     8
 71
     3
 72
     8
 73
     4
 74
     0
 42
0.00000001
 43
0.00000001
 12
1.0
 22
0.0
 32
0.0
 13
1.0
 23
0.0
 33
0.0
 40
0.0
 40
0.0
 40
0.0
 40
0.0
 40
1.0
 40
1.0
 40
1.0
 40
1.0
 10
181.85466207902
 20
176.2908065366474
 30
0.0
 10
181.8948450246962
 20
176.3064248436409
 30
0.0
 10
181.9355244144966
 20
176.3133238642124
 30
0.0
 10
181.9731160302244
 20
176.3091968451452
 30
0.0
  0
SPLINE
  5
345
330
1F
100
AcDbEntity
  8
0
  6
Continuous
 62
     7
370
    15
100
AcDbSpline
210
0.0
220
0.0
230
1.0
 70
     8
 71
     3
 72
     8
 73
     4
 74
     0
 42
0.00000001
 43
0.00000001
 12
1.0
 22
0.0
 32
0.0
 13
1.0
 23
0.0
 33
0.0
 40
0.0
 40
0.0
 40
0.0
 40
0.0
 40
1.0
 40
1.0
 40
1.0
 40
1.0
 10
181.973116030226
 20
176.3091968451446
 30
0.0
 10
181.992523658491
 20
176.2931144498871
 30
0.0
 10
182.0125552597424
 20
176.2746304860261
 30
0.0
 10
182.0314387743167
 20
176.2539676997669
 30
0.0
  0
LINE
  5
346
330
1F
100
AcDbEntity
  8
0
  6
Continuous
 62
     7
370
    15
100
AcDbLine
 10
182.0314381664
 20
176.2539670558
 30
0.0
 11
182.0314381664
 21
175.3314138146
 31
0.0
  0
SPLINE
  5
347
330
1F
100
AcDbEntity
  8
0
  6
Continuous
 62
     7
370
    15
100
AcDbSpline
210
0.0
220
0.0
230
1.0
 70
     8
 71
     3
 72
     8
 73
     4
 74
     0
 42
0.00000001
 43
0.00000001
 12
1.0
 22
0.0
 32
0.0
 13
1.0
 23
0.0
 33
0.0
 40
0.0001085338104882
 40
0.0001085338104882
 40
0.0001085338104882
 40
0.0001085338104882
 40
0.0003707418624266
 40
0.0003707418624266
 40
0.0003707418624266
 40
0.0003707418624266
 10
166.3849921649099
 20
176.2539676997669
 30
0.0
 10
166.3260371784608
 20
176.1894577655005
 30
0.0
 10
166.2671112509459
 20
176.1249230097475
 30
0.0
 10
166.2082154696133
 20
176.0603628905966
 30
0.0
  0
LINE
  5
348
330
1F
100
AcDbEntity
  8
0
  6
Continuous
 62
     7
370
    15
100
AcDbLine
 10
166.2082154696
 20
175.2052121551
 30
0.0
 11
166.2082154696
 21
176.060363719
 31
0.0
  0
SPLINE
  5
349
330
1F
100
AcDbEntity
  8
0
  6
Continuous
 62
     7
370
    15
100
AcDbSpline
210
0.0
220
0.0
230
1.0
 70
     8
 71
     3
 72
     8
 73
     4
 74
     0
 42
0.00000001
 43
0.00000001
 12
1.0
 22
0.0
 32
0.0
 13
1.0
 23
0.0
 33
0.0
 40
0.0001085338104882
 40
0.0001085338104882
 40
0.0001085338104882
 40
0.0001085338104882
 40
0.0003707418624266
 40
0.0003707418624266
 40
0.0003707418624266
 40
0.0003707418624266
 10
182.0314387743167
 20
176.2539676997669
 30
0.0
 10
182.0903937607658
 20
176.1894577655006
 30
0.0
 10
182.1493196882807
 20
176.1249230097475
 30
0.0
 10
182.2082154696133
 20
176.0603628905967
 30
0.0
  0
LINE
  5
34A
330
1F
100
AcDbEntity
  8
0
  6
Continuous
 62
     7
370
    15
100
AcDbLine
 10
182.2082162296
 20
176.060363719
 30
0.0
 11
182.2082162296
 21
175.2052121551
 31
0.0
  0
LINE
  5
34B
330
1F
100
AcDbEntity
  8
0
  6
Continuous
 62
     7
370
    15
100
AcDbLine
 10
181.8546619659
 20
176.2908064516
 30
0.0
 11
166.5617688602
 21
176.2908064516
 31
0.0
  0
LINE
  5
34C
330
1F
100
AcDbEntity
  8
0
  6
Continuous
 62
     7
370
    15
100
AcDbLine
 10
166.4582154815
 20
167.0115367265
 30
0.0
 11
166.4582154815
 21
164.262615213
 31
0.0
  0
LINE
  5
34D
330
1F
100
AcDbEntity
  8
0
  6
Continuous
 62
     7
370
    15
100
AcDbLine
 10
166.2082154696
 20
164.2493569048
 30
0.0
 11
166.2082154696
 21
167.1132222505
 31
0.0
  0
LINE
  5
34E
330
1F
100
AcDbEntity
  8
0
  6
Continuous
 62
     7
370
    15
100
AcDbLine
 10
181.9582157229
 20
164.262615213
 30
0.0
 11
181.9582157229
 21
167.0115367265
 31
0.0
  0
LINE
  5
34F
330
1F
100
AcDbEntity
  8
0
  6
Continuous
 62
     7
370
    15
100
AcDbLine
 10
182.2082162296
 20
167.1132222505
 30
0.0
 11
182.2082162296
 21
164.2493569048
 31
0.0
  0
LINE
  5
350
330
1F
100
AcDbEntity
  8
0
  6
Continuous
 62
     7
370
    15
100
AcDbLine
 10
166.2082154696
 20
164.0171297582
 30
0.0
 11
166.2082154696
 21
164.2493569048
 31
0.0
  0
LINE
  5
351
330
1F
100
AcDbEntity
  8
0
  6
Continuous
 62
     7
370
    15
100
AcDbLine
 10
182.2082162296
 20
164.2493569048
 30
0.0
 11
182.2082162296
 21
164.0222669335
 31
0.0
  0
LINE
  5
352
330
1F
100
AcDbEntity
  8
0
  6
Continuous
 62
     7
370
    15
100
AcDbLine
 10
166.4582154815
 20
87.3679407628
 30
0.0
 11
166.4582154815
 21
79.7497109266
 31
0.0
  0
SPLINE
  5
353
330
1F
100
AcDbEntity
  8
0
  6
Continuous
 62
     7
370
    15
100
AcDbSpline
210
0.0
220
0.0
230
1.0
 70
     8
 71
     3
 72
     8
 73
     4
 74
     0
 42
0.00000001
 43
0.00000001
 12
1.0
 22
0.0
 32
0.0
 13
1.0
 23
0.0
 33
0.0
 40
0.0
 40
0.0
 40
0.0
 40
0.0
 40
1.0
 40
1.0
 40
1.0
 40
1.0
 10
166.4433149090007
 20
79.68139191387114
 30
0.0
 10
166.4527759859808
 20
79.70002312903065
 30
0.0
 10
166.4582154696153
 20
79.72331314347647
 30
0.0
 10
166.4582154696154
 20
79.74971200208039
 30
0.0
  0
SPLINE
  5
354
330
1F
100
AcDbEntity
  8
0
  6
Continuous
 62
     7
370
    15
100
AcDbSpline
210
0.0
220
0.0
230
1.0
 70
     8
 71
     3
 72
     8
 73
     4
 74
     0
 42
0.00000001
 43
0.00000001
 12
1.0
 22
0.0
 32
0.0
 13
1.0
 23
0.0
 33
0.0
 40
0.0
 40
0.0
 40
0.0
 40
0.0
 40
1.0
 40
1.0
 40
1.0
 40
1.0
 10
166.3849921649099
 20
79.71454244705029
 30
0.0
 10
166.4039767420271
 20
79.6980046864863
 30
0.0
 10
166.4237193598709
 20
79.68776158520564
 30
0.0
 10
166.4433149090005
 20
79.68139191387294
 30
0.0
  0
SPLINE
  5
355
330
1F
100
AcDbEntity
  8
0
  6
Continuous
 62
     7
370
    15
100
AcDbSpline
210
0.0
220
0.0
230
1.0
 70
     8
 71
     3
 72
     8
 73
     4
 74
     0
 42
0.00000001
 43
0.00000001
 12
1.0
 22
0.0
 32
0.0
 13
1.0
 23
0.0
 33
0.0
 40
0.0001085338104882
 40
0.0001085338104882
 40
0.0001085338104882
 40
0.0001085338104882
 40
0.0003707418624266
 40
0.0003707418624266
 40
0.0003707418624266
 40
0.0003707418624266
 10
166.3849921649099
 20
79.71454244705029
 30
0.0
 10
166.3260371784608
 20
79.7658990532012
 30
0.0
 10
166.2671112509459
 20
79.8172275115322
 30
0.0
 10
166.2082154696133
 20
79.86852678824636
 30
0.0
  0
LINE
  5
356
330
1F
100
AcDbEntity
  8
0
  6
Continuous
 62
     7
370
    15
100
AcDbLine
 10
166.2082154696
 20
79.8685253354
 30
0.0
 11
166.2082154696
 21
87.6140036376
 31
0.0
  0
LINE
  5
357
330
1F
100
AcDbEntity
  8
0
  6
Continuous
 62
     7
370
    15
100
AcDbLine
 10
181.9582157229
 20
79.7497109266
 30
0.0
 11
181.9582157229
 21
87.3443932028
 31
0.0
  0
LINE
  5
358
330
1F
100
AcDbEntity
  8
0
  6
Continuous
 62
     7
370
    15
100
AcDbLine
 10
166.4582154815
 20
79.7497109266
 30
0.0
 11
181.9582157229
 21
79.7497109266
 31
0.0
  0
SPLINE
  5
359
330
1F
100
AcDbEntity
  8
0
  6
Continuous
 62
     7
370
    15
100
AcDbSpline
210
0.0
220
0.0
230
1.0
 70
     8
 71
     3
 72
     8
 73
     4
 74
     0
 42
0.00000001
 43
0.00000001
 12
1.0
 22
0.0
 32
0.0
 13
1.0
 23
0.0
 33
0.0
 40
0.0001085338104882
 40
0.0001085338104882
 40
0.0001085338104882
 40
0.0001085338104882
 40
0.0003707418624266
 40
0.0003707418624266
 40
0.0003707418624266
 40
0.0003707418624266
 10
182.0314387743167
 20
79.71454244705029
 30
0.0
 10
182.0903937607657
 20
79.76589905320118
 30
0.0
 10
182.1493196882807
 20
79.81722751153218
 30
0.0
 10
182.2082154696133
 20
79.86852678824633
 30
0.0
  0
SPLINE
  5
35A
330
1F
100
AcDbEntity
  8
0
  6
Continuous
 62
     7
370
    15
100
AcDbSpline
210
0.0
220
0.0
230
1.0
 70
     8
 71
     3
 72
     8
 73
     4
 74
     0
 42
0.00000001
 43
0.00000001
 12
1.0
 22
0.0
 32
0.0
 13
1.0
 23
0.0
 33
0.0
 40
0.0
 40
0.0
 40
0.0
 40
0.0
 40
1.0
 40
1.0
 40
1.0
 40
1.0
 10
181.973116030226
 20
79.68139191387228
 30
0.0
 10
181.992523658491
 20
79.68770050020365
 30
0.0
 10
182.0125552597424
 20
79.69809272364014
 30
0.0
 10
182.0314387743167
 20
79.71454244705029
 30
0.0
  0
SPLINE
  5
35B
330
1F
100
AcDbEntity
  8
0
  6
Continuous
 62
     7
370
    15
100
AcDbSpline
210
0.0
220
0.0
230
1.0
 70
     8
 71
     3
 72
     8
 73
     4
 74
     0
 42
0.00000001
 43
0.00000001
 12
1.0
 22
0.0
 32
0.0
 13
1.0
 23
0.0
 33
0.0
 40
0.0
 40
0.0
 40
0.0
 40
0.0
 40
1.0
 40
1.0
 40
1.0
 40
1.0
 10
181.9582154696133
 20
79.74971200208203
 30
0.0
 10
181.9582154696133
 20
79.72327468868984
 30
0.0
 10
181.96359132417
 20
79.7001484305163
 30
0.0
 10
181.9731160302259
 20
79.68139191387122
 30
0.0
  0
LINE
  5
35C
330
1F
100
AcDbEntity
  8
0
  6
Continuous
 62
     7
370
    15
100
AcDbLine
 10
182.2082162296
 20
87.6171626838
 30
0.0
 11
182.2082162296
 21
79.8685253354
 31
0.0
  0
SPLINE
  5
35D
330
1F
100
AcDbEntity
  8
0
  6
Continuous
 62
     7
370
    15
100
AcDbSpline
210
0.0
220
0.0
230
1.0
 70
     8
 71
     3
 72
     8
 73
     4
 74
     0
 42
0.00000001
 43
0.00000001
 12
1.0
 22
0.0
 32
0.0
 13
1.0
 23
0.0
 33
0.0
 40
0.0
 40
0.0
 40
0.0
 40
0.0
 40
1.0
 40
1.0
 40
1.0
 40
1.0
 10
181.85466207902
 20
79.62511902492597
 30
0.0
 10
181.8948450246964
 20
79.63430844634642
 30
0.0
 10
181.9355244144966
 20
79.65302491745635
 30
0.0
 10
181.9731160302244
 20
79.68139191387195
 30
0.0
  0
LINE
  5
35E
330
1F
100
AcDbEntity
  8
0
  6
Continuous
 62
     7
370
    15
100
AcDbLine
 10
181.8546619659
 20
79.6251185925
 30
0.0
 11
166.5617688602
 21
79.6251185925
 31
0.0
  0
SPLINE
  5
35F
330
1F
100
AcDbEntity
  8
0
  6
Continuous
 62
     7
370
    15
100
AcDbSpline
210
0.0
220
0.0
230
1.0
 70
     8
 71
     3
 72
     8
 73
     4
 74
     0
 42
0.00000001
 43
0.00000001
 12
1.0
 22
0.0
 32
0.0
 13
1.0
 23
0.0
 33
0.0
 40
0.0
 40
0.0
 40
0.0
 40
0.0
 40
1.0
 40
1.0
 40
1.0
 40
1.0
 10
166.5617688602066
 20
79.62511902492597
 30
0.0
 10
166.5215859145254
 20
79.63430844634532
 30
0.0
 10
166.48090652473
 20
79.65302491745632
 30
0.0
 10
166.4433149090022
 20
79.68139191387192
 30
0.0
  0
SPLINE
  5
360
330
1F
100
AcDbEntity
  8
0
  6
Continuous
 62
     7
370
    15
100
AcDbSpline
210
0.0
220
0.0
230
1.0
 70
     8
 71
     3
 72
     8
 73
     4
 74
     0
 42
0.00000001
 43
0.00000001
 12
1.0
 22
0.0
 32
0.0
 13
1.0
 23
0.0
 33
0.0
 40
0.0
 40
0.0
 40
0.0
 40
0.0
 40
1.0
 40
1.0
 40
1.0
 40
1.0
 10
181.85466207902
 20
79.18583781257801
 30
0.0
 10
181.8948450246933
 20
79.17828071652144
 30
0.0
 10
181.9355244144966
 20
79.1801271199195
 30
0.0
 10
181.9731160302244
 20
79.1930169296586
 30
0.0
  0
LINE
  5
361
330
1F
100
AcDbEntity
  8
0
  6
Continuous
 62
     7
370
    15
100
AcDbLine
 10
181.8546619659
 20
79.1858360858
 30
0.0
 11
181.8546619659
 21
79.6251185925
 31
0.0
  0
LINE
  5
362
330
1F
100
AcDbEntity
  8
0
  6
Continuous
 62
     7
370
    15
100
AcDbLine
 10
182.0314381664
 20
79.7145441862
 30
0.0
 11
182.0314381664
 21
79.2429596873
 31
0.0
  0
SPLINE
  5
363
330
1F
100
AcDbEntity
  8
0
  6
Continuous
 62
     7
370
    15
100
AcDbSpline
210
0.0
220
0.0
230
1.0
 70
     8
 71
     3
 72
     8
 73
     4
 74
     0
 42
0.00000001
 43
0.00000001
 12
1.0
 22
0.0
 32
0.0
 13
1.0
 23
0.0
 33
0.0
 40
0.0
 40
0.0
 40
0.0
 40
0.0
 40
1.0
 40
1.0
 40
1.0
 40
1.0
 10
182.0314387743167
 20
79.2429605110622
 30
0.0
 10
182.0124541971995
 20
79.22273597325388
 30
0.0
 10
181.9927115793556
 20
79.20650649390035
 30
0.0
 10
181.9731160302261
 20
79.19301692965965
 30
0.0
  0
LINE
  5
364
330
1F
100
AcDbEntity
  8
0
  6
Continuous
 62
     7
370
    15
100
AcDbLine
 10
166.5617688602
 20
79.6251185925
 30
0.0
 11
166.5617688602
 21
79.1858360858
 31
0.0
  0
SPLINE
  5
365
330
1F
100
AcDbEntity
  8
0
  6
Continuous
 62
     7
370
    15
100
AcDbSpline
210
0.0
220
0.0
230
1.0
 70
     8
 71
     3
 72
     8
 73
     4
 74
     0
 42
0.00000001
 43
0.00000001
 12
1.0
 22
0.0
 32
0.0
 13
1.0
 23
0.0
 33
0.0
 40
0.0
 40
0.0
 40
0.0
 40
0.0
 40
1.0
 40
1.0
 40
1.0
 40
1.0
 10
166.5617688602066
 20
79.18583781257801
 30
0.0
 10
166.5216159457596
 20
79.17828636441047
 30
0.0
 10
166.4810111878167
 20
79.18009123193647
 30
0.0
 10
166.4433149090027
 20
79.19301692965855
 30
0.0
  0
SPLINE
  5
366
330
1F
100
AcDbEntity
  8
0
  6
Continuous
 62
     7
370
    15
100
AcDbSpline
210
0.0
220
0.0
230
1.0
 70
     8
 71
     3
 72
     8
 73
     4
 74
     0
 42
0.00000001
 43
0.00000001
 12
1.0
 22
0.0
 32
0.0
 13
1.0
 23
0.0
 33
0.0
 40
0.0
 40
0.0
 40
0.0
 40
0.0
 40
1.0
 40
1.0
 40
1.0
 40
1.0
 10
166.4433149090056
 20
79.19301692965568
 30
0.0
 10
166.4239072807389
 20
79.20637712928685
 30
0.0
 10
166.4038756794858
 20
79.22284363660472
 30
0.0
 10
166.3849921649099
 20
79.2429605110622
 30
0.0
  0
LINE
  5
367
330
1F
100
AcDbEntity
  8
0
  6
Continuous
 62
     7
370
    15
100
AcDbLine
 10
166.3849921649
 20
79.2429596873
 30
0.0
 11
166.3849921649
 21
79.7145441862
 31
0.0
  0
SPLINE
  5
368
330
1F
100
AcDbEntity
  8
0
  6
Continuous
 62
     7
370
    15
100
AcDbSpline
210
0.0
220
0.0
230
1.0
 70
     8
 71
     3
 72
     8
 73
     4
 74
     0
 42
0.00000001
 43
0.00000001
 12
1.0
 22
0.0
 32
0.0
 13
1.0
 23
0.0
 33
0.0
 40
0.0001085338104882
 40
0.0001085338104882
 40
0.0001085338104882
 40
0.0001085338104882
 40
0.0003707418624266
 40
0.0003707418624266
 40
0.0003707418624266
 40
0.0003707418624266
 10
166.3849921649099
 20
79.24296051106221
 30
0.0
 10
166.3260371784608
 20
79.30576608977327
 30
0.0
 10
166.2671112509459
 20
79.36857888803826
 30
0.0
 10
166.2082154696133
 20
79.43139891517461
 30
0.0
  0
LINE
  5
369
330
1F
100
AcDbEntity
  8
0
  6
Continuous
 62
     7
370
    15
100
AcDbLine
 10
166.2082154696
 20
79.4313997717
 30
0.0
 11
166.2082154696
 21
79.8685253354
 31
0.0
  0
SPLINE
  5
36A
330
1F
100
AcDbEntity
  8
0
  6
Continuous
 62
     7
370
    15
100
AcDbSpline
210
0.0
220
0.0
230
1.0
 70
     8
 71
     3
 72
     8
 73
     4
 74
     0
 42
0.00000001
 43
0.00000001
 12
1.0
 22
0.0
 32
0.0
 13
1.0
 23
0.0
 33
0.0
 40
0.0001085338104882
 40
0.0001085338104882
 40
0.0001085338104882
 40
0.0001085338104882
 40
0.0003707418624266
 40
0.0003707418624266
 40
0.0003707418624266
 40
0.0003707418624266
 10
182.0314387743167
 20
79.2429605110622
 30
0.0
 10
182.0903937607658
 20
79.30576608977324
 30
0.0
 10
182.1493196882807
 20
79.36857888803824
 30
0.0
 10
182.2082154696133
 20
79.43139891517458
 30
0.0
  0
LINE
  5
36B
330
1F
100
AcDbEntity
  8
0
  6
Continuous
 62
     7
370
    15
100
AcDbLine
 10
182.2082162296
 20
79.8685253354
 30
0.0
 11
182.2082162296
 21
79.4313997717
 31
0.0
  0
LINE
  5
36C
330
1F
100
AcDbEntity
  8
0
  6
Continuous
 62
     7
370
    15
100
AcDbLine
 10
166.5617688602
 20
79.1858360858
 30
0.0
 11
181.8546619659
 21
79.1858360858
 31
0.0
  0
SPLINE
  5
36D
330
1F
100
AcDbEntity
  8
0
  6
Continuous
 62
     7
370
    15
100
AcDbSpline
210
0.0
220
0.0
230
1.0
 70
     8
 71
     3
 72
     8
 73
     4
 74
     0
 42
0.00000001
 43
0.00000001
 12
1.0
 22
0.0
 32
0.0
 13
1.0
 23
0.0
 33
0.0
 40
0.0001085338104882
 40
0.0001085338104882
 40
0.0001085338104882
 40
0.0001085338104882
 40
0.0003707418624266
 40
0.0003707418624266
 40
0.0003707418624266
 40
0.0003707418624266
 10
166.3849921649099
 20
180.1944502859339
 30
0.0
 10
166.3260371784608
 20
180.1360939679425
 30
0.0
 10
166.2671112509459
 20
180.077748347859
 30
0.0
 10
166.2082154696133
 20
180.0194139493669
 30
0.0
  0
SPLINE
  5
36E
330
1F
100
AcDbEntity
  8
0
  6
Continuous
 62
     7
370
    15
100
AcDbSpline
210
0.0
220
0.0
230
1.0
 70
     8
 71
     3
 72
     8
 73
     4
 74
     0
 42
0.00000001
 43
0.00000001
 12
1.0
 22
0.0
 32
0.0
 13
1.0
 23
0.0
 33
0.0
 40
0.0
 40
0.0
 40
0.0
 40
0.0
 40
1.0
 40
1.0
 40
1.0
 40
1.0
 10
166.4433149090056
 20
180.2369255292018
 30
0.0
 10
166.4239072807389
 20
180.2268714300313
 30
0.0
 10
166.4038756794858
 20
180.2131420446427
 30
0.0
 10
166.3849921649099
 20
180.1944502859339
 30
0.0
  0
SPLINE
  5
36F
330
1F
100
AcDbEntity
  8
0
  6
Continuous
 62
     7
370
    15
100
AcDbSpline
210
0.0
220
0.0
230
1.0
 70
     8
 71
     3
 72
     8
 73
     4
 74
     0
 42
0.00000001
 43
0.00000001
 12
1.0
 22
0.0
 32
0.0
 13
1.0
 23
0.0
 33
0.0
 40
0.0
 40
0.0
 40
0.0
 40
0.0
 40
1.0
 40
1.0
 40
1.0
 40
1.0
 10
166.4582154696133
 20
180.1813649077262
 30
0.0
 10
166.4582154696133
 20
180.2042554345931
 30
0.0
 10
166.4528396150573
 20
180.2229811222715
 30
0.0
 10
166.4433149090023
 20
180.2369255291978
 30
0.0
  0
LINE
  5
370
330
1F
100
AcDbEntity
  8
0
  6
Continuous
 62
     7
370
    15
100
AcDbLine
 10
166.4582154815
 20
180.1813655289
 30
0.0
 11
166.4582154815
 21
176.3122194202
 31
0.0
  0
LINE
  5
371
330
1F
100
AcDbEntity
  8
0
  6
Continuous
 62
     7
370
    15
100
AcDbLine
 10
166.2082154696
 20
176.0831885727
 30
0.0
 11
166.2082154696
 21
180.0194122584
 31
0.0
  0
LINE
  5
372
330
1F
100
AcDbEntity
  8
0
  6
Continuous
 62
     7
370
    15
100
AcDbLine
 10
181.9582157229
 20
180.1813655289
 30
0.0
 11
166.4582154815
 21
180.1813655289
 31
0.0
  0
LINE
  5
373
330
1F
100
AcDbEntity
  8
0
  6
Continuous
 62
     7
370
    15
100
AcDbLine
 10
181.9582157229
 20
176.3333269151
 30
0.0
 11
181.9582157229
 21
180.1813655289
 31
0.0
  0
SPLINE
  5
374
330
1F
100
AcDbEntity
  8
0
  6
Continuous
 62
     7
370
    15
100
AcDbSpline
210
0.0
220
0.0
230
1.0
 70
     8
 71
     3
 72
     8
 73
     4
 74
     0
 42
0.00000001
 43
0.00000001
 12
1.0
 22
0.0
 32
0.0
 13
1.0
 23
0.0
 33
0.0
 40
0.0
 40
0.0
 40
0.0
 40
0.0
 40
1.0
 40
1.0
 40
1.0
 40
1.0
 10
181.9731160302259
 20
180.2369255292002
 30
0.0
 10
181.9636549532457
 20
180.2230742768255
 30
0.0
 10
181.9582154696112
 20
180.2042221388392
 30
0.0
 10
181.9582154696112
 20
180.1813649077282
 30
0.0
  0
SPLINE
  5
375
330
1F
100
AcDbEntity
  8
0
  6
Continuous
 62
     7
370
    15
100
AcDbSpline
210
0.0
220
0.0
230
1.0
 70
     8
 71
     3
 72
     8
 73
     4
 74
     0
 42
0.00000001
 43
0.00000001
 12
1.0
 22
0.0
 32
0.0
 13
1.0
 23
0.0
 33
0.0
 40
0.0
 40
0.0
 40
0.0
 40
0.0
 40
1.0
 40
1.0
 40
1.0
 40
1.0
 10
182.0314387743167
 20
180.1944502859339
 30
0.0
 10
182.0124541971995
 20
180.2132420809272
 30
0.0
 10
181.9927115793556
 20
180.2267740778438
 30
0.0
 10
181.9731160302261
 20
180.2369255291986
 30
0.0
  0
SPLINE
  5
376
330
1F
100
AcDbEntity
  8
0
  6
Continuous
 62
     7
370
    15
100
AcDbSpline
210
0.0
220
0.0
230
1.0
 70
     8
 71
     3
 72
     8
 73
     4
 74
     0
 42
0.00000001
 43
0.00000001
 12
1.0
 22
0.0
 32
0.0
 13
1.0
 23
0.0
 33
0.0
 40
0.0001085338104882
 40
0.0001085338104882
 40
0.0001085338104882
 40
0.0001085338104882
 40
0.0003707418624266
 40
0.0003707418624266
 40
0.0003707418624266
 40
0.0003707418624266
 10
182.0314387743167
 20
180.1944502859339
 30
0.0
 10
182.0903937607658
 20
180.1360939679425
 30
0.0
 10
182.1493196882807
 20
180.077748347859
 30
0.0
 10
182.2082154696133
 20
180.0194139493669
 30
0.0
  0
LINE
  5
377
330
1F
100
AcDbEntity
  8
0
  6
Continuous
 62
     7
370
    15
100
AcDbLine
 10
182.2082162296
 20
180.0194122584
 30
0.0
 11
182.2082162296
 21
176.0793589743
 31
0.0
  0
SPLINE
  5
378
330
1F
100
AcDbEntity
  8
0
  6
Continuous
 62
     7
370
    15
100
AcDbSpline
210
0.0
220
0.0
230
1.0
 70
     8
 71
     3
 72
     8
 73
     4
 74
     0
 42
0.00000001
 43
0.00000001
 12
1.0
 22
0.0
 32
0.0
 13
1.0
 23
0.0
 33
0.0
 40
0.0
 40
0.0
 40
0.0
 40
0.0
 40
1.0
 40
1.0
 40
1.0
 40
1.0
 10
166.5617688602066
 20
180.2693603099929
 30
0.0
 10
166.5216159457548
 20
180.2685265373473
 30
0.0
 10
166.4810111878167
 20
180.2580735000595
 30
0.0
 10
166.4433149090027
 20
180.2369255291998
 30
0.0
  0
LINE
  5
379
330
1F
100
AcDbEntity
  8
0
  6
Continuous
 62
     7
370
    15
100
AcDbLine
 10
166.5617688602
 20
180.269360611
 30
0.0
 11
181.8546619659
 21
180.269360611
 31
0.0
  0
SPLINE
  5
37A
330
1F
100
AcDbEntity
  8
0
  6
Continuous
 62
     7
370
    15
100
AcDbSpline
210
0.0
220
0.0
230
1.0
 70
     8
 71
     3
 72
     8
 73
     4
 74
     0
 42
0.00000001
 43
0.00000001
 12
1.0
 22
0.0
 32
0.0
 13
1.0
 23
0.0
 33
0.0
 40
0.0
 40
0.0
 40
0.0
 40
0.0
 40
1.0
 40
1.0
 40
1.0
 40
1.0
 10
181.85466207902
 20
180.2693603099929
 30
0.0
 10
181.8948450246941
 20
180.2685259137508
 30
0.0
 10
181.9355244144966
 20
180.2580147830728
 30
0.0
 10
181.9731160302244
 20
180.2369255291997
 30
0.0
  0
LINE
  5
37B
330
1F
100
AcDbEntity
  8
0
  6
Continuous
 62
     7
370
    15
100
AcDbLine
 10
166.2082154696
 20
180.0194122584
 30
0.0
 11
166.2082154696
 21
180.030301282
 31
0.0
  0
LINE
  5
37C
330
1F
100
AcDbEntity
  8
0
  6
Continuous
 62
     7
370
    15
100
AcDbLine
 10
182.2082162296
 20
180.030301282
 30
0.0
 11
182.2082162296
 21
180.0194122584
 31
0.0
  0
LINE
  5
37D
330
1F
100
AcDbEntity
  8
0
  6
Continuous
 62
     8
370
    15
100
AcDbLine
 10
166.2082154696
 20
102.786639774
 30
0.0
 11
166.2805059066
 21
102.7359050454
 31
0.0
  0
LINE
  5
37E
330
1F
100
AcDbEntity
  8
0
  6
Continuous
 62
     8
370
    15
100
AcDbLine
 10
182.1359251087
 20
102.7359050454
 30
0.0
 11
182.2082162296
 21
102.786639774
 31
0.0
  0
LINE
  5
37F
330
1F
100
AcDbEntity
  8
0
  6
Continuous
 62
     8
370
    15
100
AcDbLine
 10
166.2082154696
 20
164.2493569048
 30
0.0
 11
166.3752167267
 21
164.1814299615
 31
0.0
  0
LINE
  5
380
330
1F
100
AcDbEntity
  8
0
  6
Continuous
 62
     8
370
    15
100
AcDbLine
 10
182.0412133281
 20
164.1814299615
 30
0.0
 11
182.2082162296
 21
164.2493569048
 31
0.0
  0
LINE
  5
381
330
1F
100
AcDbEntity
  8
0
  6
Continuous
 62
     8
370
    15
100
AcDbLine
 10
166.5617688602
 20
180.2803017886
 30
0.0
 11
166.5617688602
 21
180.269360611
 31
0.0
  0
LINE
  5
382
330
1F
100
AcDbEntity
  8
0
  6
Continuous
 62
     8
370
    15
100
AcDbLine
 10
166.3849921649
 20
180.1944487484
 30
0.0
 11
166.3849921649
 21
180.2070812078
 31
0.0
  0
LINE
  5
383
330
1F
100
AcDbEntity
  8
0
  6
Continuous
 62
     8
370
    15
100
AcDbLine
 10
181.8546619659
 20
180.269360611
 30
0.0
 11
181.8546619659
 21
180.2803017886
 31
0.0
  0
LINE
  5
384
330
1F
100
AcDbEntity
  8
0
  6
Continuous
 62
     8
370
    15
100
AcDbLine
 10
182.0314381664
 20
180.2070812078
 30
0.0
 11
182.0314381664
 21
180.1944487484
 31
0.0
  0
ENDSEC
  0
SECTION
  2
OBJECTS
  0
DICTIONARY
  5
C
330
0
100
AcDbDictionary
281
     1
  3
ACAD_GROUP
350
D
  3
ACAD_LAYOUT
350
1A
  3
ACAD_MLINESTYLE
350
17
  3
ACAD_PLOTSETTINGS
350
19
  3
ACAD_PLOTSTYLENAME
350
E
  0
DICTIONARY
  5
D
102
{ACAD_REACTORS
330
C
102
}
330
C
100
AcDbDictionary
281
     1
  0
DICTIONARY
  5
1A
102
{ACAD_REACTORS
330
C
102
}
330
C
100
AcDbDictionary
281
     1
  3
Layout1
350
1E
  3
Layout2
350
26
  3
Model
350
22
  0
DICTIONARY
  5
17
102
{ACAD_REACTORS
330
C
102
}
330
C
100
AcDbDictionary
281
     1
  3
Standard
350
18
  0
DICTIONARY
  5
19
102
{ACAD_REACTORS
330
C
102
}
330
C
100
AcDbDictionary
281
     1
  0
ACDBDICTIONARYWDFLT
  5
E
102
{ACAD_REACTORS
330
C
102
}
330
C
100
AcDbDictionary
281
     1
  3
Normal
350
F
100
AcDbDictionaryWithDefault
340
F
  0
LAYOUT
  5
1E
102
{ACAD_REACTORS
330
1A
102
}
330
1A
100
AcDbPlotSettings
  1

  2
none_device
  4

  6

 40
0.0
 41
0.0
 42
0.0
 43
0.0
 44
0.0
 45
0.0
 46
0.0
 47
0.0
 48
0.0
 49
0.0
140
0.0
141
0.0
142
1.0
143
1.0
 70
   688
 72
     0
 73
     0
 74
     5
  7

 75
    16
147
1.0
148
0.0
149
0.0
100
AcDbLayout
  1
Layout1
 70
     1
 71
     1
 10
0.0
 20
0.0
 11
420.0
 21
297.0
 12
0.0
 22
0.0
 32
0.0
 14
1.0000000000E+20
 24
1.0000000000E+20
 34
1.0000000000E+20
 15
-1.0000000000E+20
 25
-1.0000000000E+20
 35
-1.0000000000E+20
146
0.0
 13
0.0
 23
0.0
 33
0.0
 16
1.0
 26
0.0
 36
0.0
 17
0.0
 27
1.0
 37
0.0
 76
     0
330
1B
  0
LAYOUT
  5
26
102
{ACAD_REACTORS
330
1A
102
}
330
1A
100
AcDbPlotSettings
  1

  2
none_device
  4

  6

 40
0.0
 41
0.0
 42
0.0
 43
0.0
 44
0.0
 45
0.0
 46
0.0
 47
0.0
 48
0.0
 49
0.0
140
0.0
141
0.0
142
1.0
143
1.0
 70
   688
 72
     0
 73
     0
 74
     5
  7

 75
    16
147
1.0
148
0.0
149
0.0
100
AcDbLayout
  1
Layout2
 70
     1
 71
     2
 10
0.0
 20
0.0
 11
0.0
 21
0.0
 12
0.0
 22
0.0
 32
0.0
 14
0.0
 24
0.0
 34
0.0
 15
0.0
 25
0.0
 35
0.0
146
0.0
 13
0.0
 23
0.0
 33
0.0
 16
1.0
 26
0.0
 36
0.0
 17
0.0
 27
1.0
 37
0.0
 76
     0
330
23
  0
LAYOUT
  5
22
102
{ACAD_REACTORS
330
1A
102
}
330
1A
100
AcDbPlotSettings
  1

  2
none_device
  4

  6

 40
0.0
 41
0.0
 42
0.0
 43
0.0
 44
0.0
 45
0.0
 46
0.0
 47
0.0
 48
0.0
 49
0.0
140
0.0
141
0.0
142
1.0
143
1.0
 70
  1712
 72
     0
 73
     0
 74
     0
  7

 75
     0
147
1.0
148
0.0
149
0.0
100
AcDbLayout
  1
Model
 70
     1
 71
     0
 10
0.0
 20
0.0
 11
279.4
 21
215.9
 12
0.0
 22
0.0
 32
0.0
 14
0.0
 24
0.0
 34
0.0
 15
279.4
 25
215.9
 35
0.0
146
0.0
 13
0.0
 23
0.0
 33
0.0
 16
1.0
 26
0.0
 36
0.0
 17
0.0
 27
1.0
 37
0.0
 76
     0
330
1F
331
29
  0
MLINESTYLE
  5
18
102
{ACAD_REACTORS
330
17
102
}
330
17
100
AcDbMlineStyle
  2
Standard
 70
     0
  3

 62
   256
 51
90.0
 52
90.0
 71
     2
 49
0.5
 62
   256
  6
BYLAYER
 49
-0.5
 62
   256
  6
BYLAYER
  0
ACDBPLACEHOLDER
  5
F
102
{ACAD_REACTORS
330
E
102
}
330
E
  0
ENDSEC
  0
EOF
