  0
SECTION
  2
HEADER
  9
$ACADVER
  1
AC1015
  9
$ACADMAINTVER
 70
     6
  9
$DWGCODEPAGE
  3
ANSI_1251
  9
$INSBASE
 10
0.0
 20
0.0
 30
0.0
  9
$EXTMIN
 10
0.0
 20
0.0
 30
0.0
  9
$EXTMAX
 10
279.4
 20
215.9
 30
0.0
  9
$LIMMIN
 10
0.0
 20
0.0
  9
$LIMMAX
 10
279.4
 20
215.9
  9
$ORTHOMODE
 70
     0
  9
$REGENMODE
 70
     1
  9
$FILLMODE
 70
     1
  9
$QTEXTMODE
 70
     0
  9
$MIRRTEXT
 70
     1
  9
$LTSCALE
 40
1.0
  9
$ATTMODE
 70
     1
  9
$TEXTSIZE
 40
3.5
  9
$TRACEWID
 40
1.0
  9
$TEXTSTYLE
  7
Standard
  9
$CLAYER
  8
0
  9
$CELTYPE
  6
ByLayer
  9
$CECOLOR
 62
   256
  9
$CELTSCALE
 40
1.0
  9
$DISPSILH
 70
     0
  9
$DIMSCALE
 40
1.0
  9
$DIMASZ
 40
3.5
  9
$DIMEXO
 40
0.01
  9
$DIMDLI
 40
3.75
  9
$DIMRND
 40
0.0
  9
$DIMDLE
 40
0.0
  9
$DIMEXE
 40
1.0
  9
$DIMTP
 40
0.0
  9
$DIMTM
 40
0.0
  9
$DIMTXT
 40
3.5
  9
$DIMCEN
 40
2.5
  9
$DIMTSZ
 40
0.0
  9
$DIMTOL
 70
     0
  9
$DIMLIM
 70
     0
  9
$DIMTIH
 70
     1
  9
$DIMTOH
 70
     1
  9
$DIMSE1
 70
     0
  9
$DIMSE2
 70
     0
  9
$DIMTAD
 70
     1
  9
$DIMZIN
 70
     0
  9
$DIMBLK
  1

  9
$DIMASO
 70
     1
  9
$DIMSHO
 70
     1
  9
$DIMPOST
  1

  9
$DIMAPOST
  1

  9
$DIMALT
 70
     0
  9
$DIMALTD
 70
     3
  9
$DIMALTF
 40
0.0393700787
  9
$DIMLFAC
 40
5.0
  9
$DIMTOFL
 70
     1
  9
$DIMTVP
 40
0.0
  9
$DIMTIX
 70
     0
  9
$DIMSOXD
 70
     0
  9
$DIMSAH
 70
     0
  9
$DIMBLK1
  1

  9
$DIMBLK2
  1

  9
$DIMSTYLE
  2
ISO-25
  9
$DIMCLRD
 70
     0
  9
$DIMCLRE
 70
     0
  9
$DIMCLRT
 70
     0
  9
$DIMTFAC
 40
1.0
  9
$DIMGAP
 40
3.0
  9
$DIMJUST
 70
     0
  9
$DIMSD1
 70
     0
  9
$DIMSD2
 70
     0
  9
$DIMTOLJ
 70
     0
  9
$DIMTZIN
 70
     0
  9
$DIMALTZ
 70
     0
  9
$DIMALTTZ
 70
     0
  9
$DIMUPT
 70
     0
  9
$DIMDEC
 70
     2
  9
$DIMTDEC
 70
     3
  9
$DIMALTU
 70
     2
  9
$DIMALTTD
 70
     3
  9
$DIMTXSTY
  7
Standard
  9
$DIMAUNIT
 70
     0
  9
$DIMADEC
 70
     2
  9
$DIMALTRND
 40
0.0
  9
$DIMAZIN
 70
     0
  9
$DIMDSEP
 70
    44
  9
$DIMATFIT
 70
     3
  9
$DIMFRAC
 70
     0
  9
$DIMLDRBLK
  1

  9
$DIMLUNIT
 70
     2
  9
$DIMLWD
 70
    -2
  9
$DIMLWE
 70
    -2
  9
$DIMTMOVE
 70
     0
  9
$LUNITS
 70
     2
  9
$LUPREC
 70
     2
  9
$SKETCHINC
 40
1.0
  9
$FILLETRAD
 40
10.0
  9
$AUNITS
 70
     0
  9
$AUPREC
 70
     2
  9
$MENU
  1
.
  9
$ELEVATION
 40
0.0
  9
$PELEVATION
 40
0.0
  9
$THICKNESS
 40
0.0
  9
$LIMCHECK
 70
     0
  9
$CHAMFERA
 40
10.0
  9
$CHAMFERB
 40
10.0
  9
$CHAMFERC
 40
20.0
  9
$CHAMFERD
 40
0.0
  9
$SKPOLY
 70
     0
  9
$TDCREATE
 40
2457408.66735713
  9
$TDUCREATE
 40
2457408.584023796
  9
$TDUPDATE
 40
2457408.667357489
  9
$TDUUPDATE
 40
2457408.584024155
  9
$TDINDWG
 40
0.0000000116
  9
$TDUSRTIMER
 40
0.0000000116
  9
$USRTIMER
 70
     1
  9
$ANGBASE
 50
0.0
  9
$ANGDIR
 70
     0
  9
$PDMODE
 70
     0
  9
$PDSIZE
 40
-1.0
  9
$PLINEWID
 40
0.0
  9
$SPLFRAME
 70
     0
  9
$SPLINETYPE
 70
     6
  9
$SPLINESEGS
 70
     8
  9
$HANDSEED
  5
6B
  9
$SURFTAB1
 70
     6
  9
$SURFTAB2
 70
     6
  9
$SURFTYPE
 70
     6
  9
$SURFU
 70
     6
  9
$SURFV
 70
     6
  9
$UCSBASE
  2

  9
$UCSNAME
  2

  9
$UCSORG
 10
0.0
 20
0.0
 30
0.0
  9
$UCSXDIR
 10
1.0
 20
0.0
 30
0.0
  9
$UCSYDIR
 10
0.0
 20
1.0
 30
0.0
  9
$UCSORTHOREF
  2

  9
$UCSORTHOVIEW
 70
     0
  9
$UCSORGTOP
 10
0.0
 20
0.0
 30
0.0
  9
$UCSORGBOTTOM
 10
0.0
 20
0.0
 30
0.0
  9
$UCSORGLEFT
 10
0.0
 20
0.0
 30
0.0
  9
$UCSORGRIGHT
 10
0.0
 20
0.0
 30
0.0
  9
$UCSORGFRONT
 10
0.0
 20
0.0
 30
0.0
  9
$UCSORGBACK
 10
0.0
 20
0.0
 30
0.0
  9
$PUCSBASE
  2

  9
$PUCSNAME
  2

  9
$PUCSORG
 10
0.0
 20
0.0
 30
0.0
  9
$PUCSXDIR
 10
1.0
 20
0.0
 30
0.0
  9
$PUCSYDIR
 10
0.0
 20
1.0
 30
0.0
  9
$PUCSORTHOREF
  2

  9
$PUCSORTHOVIEW
 70
     0
  9
$PUCSORGTOP
 10
0.0
 20
0.0
 30
0.0
  9
$PUCSORGBOTTOM
 10
0.0
 20
0.0
 30
0.0
  9
$PUCSORGLEFT
 10
0.0
 20
0.0
 30
0.0
  9
$PUCSORGRIGHT
 10
0.0
 20
0.0
 30
0.0
  9
$PUCSORGFRONT
 10
0.0
 20
0.0
 30
0.0
  9
$PUCSORGBACK
 10
0.0
 20
0.0
 30
0.0
  9
$USERI1
 70
     0
  9
$USERI2
 70
     0
  9
$USERI3
 70
     0
  9
$USERI4
 70
     0
  9
$USERI5
 70
     0
  9
$USERR1
 40
0.0
  9
$USERR2
 40
0.0
  9
$USERR3
 40
0.0
  9
$USERR4
 40
0.0
  9
$USERR5
 40
0.0
  9
$WORLDVIEW
 70
     1
  9
$SHADEDGE
 70
     3
  9
$SHADEDIF
 70
    70
  9
$TILEMODE
 70
     1
  9
$MAXACTVP
 70
    64
  9
$PINSBASE
 10
0.0
 20
0.0
 30
0.0
  9
$PLIMCHECK
 70
     0
  9
$PEXTMIN
 10
1.0000000000E+20
 20
1.0000000000E+20
 30
1.0000000000E+20
  9
$PEXTMAX
 10
-1.0000000000E+20
 20
-1.0000000000E+20
 30
-1.0000000000E+20
  9
$PLIMMIN
 10
0.0
 20
0.0
  9
$PLIMMAX
 10
420.0
 20
297.0
  9
$UNITMODE
 70
     0
  9
$VISRETAIN
 70
     1
  9
$PLINEGEN
 70
     0
  9
$PSLTSCALE
 70
     1
  9
$TREEDEPTH
 70
  3020
  9
$CMLSTYLE
  2
Standard
  9
$CMLJUST
 70
     0
  9
$CMLSCALE
 40
20.0
  9
$PROXYGRAPHICS
 70
     1
  9
$MEASUREMENT
 70
     1
  9
$CELWEIGHT
370
    -1
  9
$ENDCAPS
280
     0
  9
$JOINSTYLE
280
     0
  9
$LWDISPLAY
290
     1
  9
$INSUNITS
 70
     4
  9
$HYPERLINKBASE
  1

  9
$STYLESHEET
  1

  9
$XEDIT
290
     1
  9
$CEPSNTYPE
380
     0
  9
$PSTYLEMODE
290
     1
  9
$FINGERPRINTGUID
  2
{3DCA1DA0-09E8-47D3-9F4E-05C3489B51F6}
  9
$VERSIONGUID
  2
{FAEB1C32-E019-11D5-929B-00C0DF256EC4}
  9
$EXTNAMES
290
     1
  9
$PSVPSCALE
 40
0.0
  9
$OLESTARTUP
290
     0
  0
ENDSEC
  0
SECTION
  2
CLASSES
  0
CLASS
  1
ACDBDICTIONARYWDFLT
  2
AcDbDictionaryWithDefault
  3
ObjectDBX Classes
 90
        0
280
     0
281
     0
  0
CLASS
  1
VISUALSTYLE
  2
AcDbVisualStyle
  3
ObjectDBX Classes
 90
     4095
280
     0
281
     0
  0
CLASS
  1
MATERIAL
  2
AcDbMaterial
  3
ObjectDBX Classes
 90
     1153
280
     0
281
     0
  0
CLASS
  1
ACDBPLACEHOLDER
  2
AcDbPlaceHolder
  3
ObjectDBX Classes
 90
        0
280
     0
281
     0
  0
CLASS
  1
LAYOUT
  2
AcDbLayout
  3
ObjectDBX Classes
 90
        0
280
     0
281
     0
  0
ENDSEC
  0
SECTION
  2
TABLES
  0
TABLE
  2
VPORT
  5
8
330
0
100
AcDbSymbolTable
 70
     1
  0
VPORT
  5
29
330
8
100
AcDbSymbolTableRecord
100
AcDbViewportTableRecord
  2
*Active
 70
     0
 10
0.0
 20
0.0
 11
1.0
 21
1.0
 12
139.7
 22
107.95
 13
0.0
 23
0.0
 14
10.0
 24
10.0
 15
10.0
 25
10.0
 16
0.0
 26
0.0
 36
1.0
 17
0.0
 27
0.0
 37
0.0
 40
215.9
 41
1.2941176471
 42
50.0
 43
0.0
 44
0.0
 50
0.0
 51
0.0
 71
     0
 72
  2000
 73
     1
 74
     3
 75
     0
 76
     0
 77
     0
 78
     0
281
     0
 65
     1
110
0.0
120
0.0
130
0.0
111
1.0
121
0.0
131
0.0
112
0.0
122
1.0
132
0.0
 79
     0
146
0.0
  0
ENDTAB
  0
TABLE
  2
LTYPE
  5
5
330
0
100
AcDbSymbolTable
 70
     6
  0
LTYPE
  5
14
330
5
100
AcDbSymbolTableRecord
100
AcDbLinetypeTableRecord
  2
ByBlock
 70
     0
  3

 72
    65
 73
     0
 40
0.0
  0
LTYPE
  5
15
330
5
100
AcDbSymbolTableRecord
100
AcDbLinetypeTableRecord
  2
ByLayer
 70
     0
  3

 72
    65
 73
     0
 40
0.0
  0
LTYPE
  5
16
330
5
100
AcDbSymbolTableRecord
100
AcDbLinetypeTableRecord
  2
Continuous
 70
     0
  3
Solid line
 72
    65
 73
     0
 40
0.0
  0
LTYPE
  5
3F
330
5
100
AcDbSymbolTableRecord
100
AcDbLinetypeTableRecord
  2
HIDDEN
 70
     0
  3
Hidden __ __ __ __ __ __ __ __ __ __ __ __ __ __
 72
    65
 73
     2
 40
1.905
 49
1.27
 74
     0
 49
-0.635
 74
     0
  0
LTYPE
  5
40
330
5
100
AcDbSymbolTableRecord
100
AcDbLinetypeTableRecord
  2
PHANTOM
 70
     0
  3
Phantom ______  __  __  ______  __  __  ______
 72
    65
 73
     6
 40
12.7
 49
6.35
 74
     0
 49
-1.27
 74
     0
 49
1.27
 74
     0
 49
-1.27
 74
     0
 49
1.27
 74
     0
 49
-1.27
 74
     0
  0
LTYPE
  5
41
330
5
100
AcDbSymbolTableRecord
100
AcDbLinetypeTableRecord
  2
CENTER
 70
     0
  3
Center ____ _ ____ _ ____ _ ____ _ ____ _ ____
 72
    65
 73
     4
 40
10.16
 49
6.35
 74
     0
 49
-1.27
 74
     0
 49
1.27
 74
     0
 49
-1.27
 74
     0
  0
LTYPE
  5
42
330
5
100
AcDbSymbolTableRecord
100
AcDbLinetypeTableRecord
  2
CENTERX2
 70
     0
  3
Center (2x) ________  __  ________  __  _____
 72
    65
 73
     4
 40
20.32
 49
12.7
 74
     0
 49
-2.54
 74
     0
 49
2.54
 74
     0
 49
-2.54
 74
     0
  0
LTYPE
  5
43
330
5
100
AcDbSymbolTableRecord
100
AcDbLinetypeTableRecord
  2
DOT2
 70
     0
  3
Dot (.5x) ........................................
 72
    65
 73
     2
 40
0.635
 49
0.0
 74
     0
 49
-0.635
 74
     0
  0
ENDTAB
  0
TABLE
  2
LAYER
  5
2
330
0
100
AcDbSymbolTable
 70
     1
  0
LAYER
  5
10
330
2
100
AcDbSymbolTableRecord
100
AcDbLayerTableRecord
  2
0
 70
     0
 62
     7
  6
Continuous
370
    -3
390
F
  0
ENDTAB
  0
TABLE
  2
STYLE
  5
3
330
0
100
AcDbSymbolTable
 70
     1
  0
STYLE
  5
11
330
3
100
AcDbSymbolTableRecord
100
AcDbTextStyleTableRecord
  2
Standard
 70
     0
 40
0.0
 41
1.0
 50
0.0
 71
     0
 42
3.5
  3
txt
  4

  0
ENDTAB
  0
TABLE
  2
VIEW
  5
6
330
0
100
AcDbSymbolTable
 70
     0
  0
ENDTAB
  0
TABLE
  2
UCS
  5
7
330
0
100
AcDbSymbolTable
 70
     0
  0
ENDTAB
  0
TABLE
  2
APPID
  5
9
330
0
100
AcDbSymbolTable
 70
     1
  0
APPID
  5
12
330
9
100
AcDbSymbolTableRecord
100
AcDbRegAppTableRecord
  2
ACAD
 70
     0
  0
ENDTAB
  0
TABLE
  2
DIMSTYLE
  5
A
330
0
100
AcDbSymbolTable
 70
     1
100
AcDbDimStyleTable
  0
DIMSTYLE
105
27
330
A
100
AcDbSymbolTableRecord
100
AcDbDimStyleTableRecord
  2
ISO-25
 70
     0
 41
2.5
 42
0.625
 43
3.75
 44
1.25
 73
     0
 74
     0
 77
     1
 78
     8
140
2.5
141
2.5
143
0.0393700787
147
0.625
171
     3
172
     1
178
     0
271
     2
272
     2
274
     3
278
    44
283
     0
284
     8
340
11
  0
ENDTAB
  0
TABLE
  2
BLOCK_RECORD
  5
1
330
0
100
AcDbSymbolTable
 70
     1
  0
BLOCK_RECORD
  5
1F
330
1
100
AcDbSymbolTableRecord
100
AcDbBlockTableRecord
  2
*Model_Space
340
22
  0
BLOCK_RECORD
  5
1B
330
1
100
AcDbSymbolTableRecord
100
AcDbBlockTableRecord
  2
*Paper_Space
340
1E
  0
BLOCK_RECORD
  5
23
330
1
100
AcDbSymbolTableRecord
100
AcDbBlockTableRecord
  2
*Paper_Space0
340
26
  0
ENDTAB
  0
ENDSEC
  0
SECTION
  2
BLOCKS
  0
BLOCK
  5
20
330
1F
100
AcDbEntity
  8
0
100
AcDbBlockBegin
  2
*Model_Space
 70
     0
 10
0.0
 20
0.0
 30
0.0
  3
*Model_Space
  1

  0
ENDBLK
  5
21
330
1F
100
AcDbEntity
  8
0
100
AcDbBlockEnd
  0
BLOCK
  5
1C
330
1B
100
AcDbEntity
 67
     1
  8
0
100
AcDbBlockBegin
  2
*Paper_Space
 70
     0
 10
0.0
 20
0.0
 30
0.0
  3
*Paper_Space
  1

  0
ENDBLK
  5
1D
330
1B
100
AcDbEntity
 67
     1
  8
0
100
AcDbBlockEnd
  0
BLOCK
  5
24
330
23
100
AcDbEntity
  8
0
100
AcDbBlockBegin
  2
*Paper_Space0
 70
     0
 10
0.0
 20
0.0
 30
0.0
  3
*Paper_Space0
  1

  0
ENDBLK
  5
25
330
23
100
AcDbEntity
  8
0
100
AcDbBlockEnd
  0
ENDSEC
  0
SECTION
  2
ENTITIES
  0
CIRCLE
  5
44
330
1F
100
AcDbEntity
  8
0
  6
Continuous
 62
     7
370
    15
100
AcDbCircle
 10
49.2963480663
 20
149.1499226519
 30
0.0
 40
2.600000000000016
  0
CIRCLE
  5
45
330
1F
100
AcDbEntity
  8
0
  6
Continuous
 62
     7
370
    15
100
AcDbCircle
 10
49.2963480663
 20
149.1499226519
 30
0.0
 40
3.000000000000007
  0
CIRCLE
  5
46
330
1F
100
AcDbEntity
  8
0
  6
Continuous
 62
     7
370
    15
100
AcDbCircle
 10
49.2963480663
 20
149.1499226519
 30
0.0
 40
3.100000000000009
  0
CIRCLE
  5
47
330
1F
100
AcDbEntity
  8
0
  6
Continuous
 62
     7
370
    15
100
AcDbCircle
 10
49.2963480663
 20
149.1499226519
 30
0.0
 40
3.90000000000002
  0
CIRCLE
  5
48
330
1F
100
AcDbEntity
  8
0
  6
Continuous
 62
     7
370
    15
100
AcDbCircle
 10
49.2963480663
 20
149.1499226519
 30
0.0
 40
4.0
  0
LINE
  5
49
330
1F
100
AcDbEntity
  8
0
  6
Continuous
 62
     7
370
    15
100
AcDbLine
 10
75.8554861878
 20
153.1499226519
 30
0.0
 11
75.7554861878
 21
153.0499226519
 31
0.0
  0
LINE
  5
4A
330
1F
100
AcDbEntity
  8
0
  6
Continuous
 62
     7
370
    15
100
AcDbLine
 10
75.7554861878
 20
145.2499226519
 30
0.0
 11
75.8554861878
 21
145.1499226519
 31
0.0
  0
LINE
  5
4B
330
1F
100
AcDbEntity
  8
0
  6
Continuous
 62
     7
370
    15
100
AcDbLine
 10
75.8554861878
 20
145.1499226519
 30
0.0
 11
125.5554861878
 21
145.1499226519
 31
0.0
  0
LINE
  5
4C
330
1F
100
AcDbEntity
  8
0
  6
Continuous
 62
     7
370
    15
100
AcDbLine
 10
125.5554861878
 20
153.1499226519
 30
0.0
 11
75.8554861878
 21
153.1499226519
 31
0.0
  0
LINE
  5
4D
330
1F
100
AcDbEntity
  8
0
  6
Continuous
 62
     7
370
    15
100
AcDbLine
 10
125.5554861878
 20
145.1499226519
 30
0.0
 11
125.6554861878
 21
145.2499226519
 31
0.0
  0
LINE
  5
4E
330
1F
100
AcDbEntity
  8
0
  6
Continuous
 62
     7
370
    15
100
AcDbLine
 10
125.6554861878
 20
153.0499226519
 30
0.0
 11
125.5554861878
 21
153.1499226519
 31
0.0
  0
LINE
  5
4F
330
1F
100
AcDbEntity
  8
0
  6
Continuous
 62
     7
370
    15
100
AcDbLine
 10
125.6554861878
 20
146.0499226519
 30
0.0
 11
125.7554861878
 21
146.1499226519
 31
0.0
  0
LINE
  5
50
330
1F
100
AcDbEntity
  8
0
  6
Continuous
 62
     7
370
    15
100
AcDbLine
 10
125.7554861878
 20
152.1499226519
 30
0.0
 11
125.6554861878
 21
152.2499226519
 31
0.0
  0
LINE
  5
51
330
1F
100
AcDbEntity
  8
0
  6
Continuous
 62
     7
370
    15
100
AcDbLine
 10
125.7554861878
 20
146.1499226519
 30
0.0
 11
134.4554861878
 21
146.1499226519
 31
0.0
  0
LINE
  5
52
330
1F
100
AcDbEntity
  8
0
  6
Continuous
 62
     7
370
    15
100
AcDbLine
 10
134.4554861878
 20
152.1499226519
 30
0.0
 11
125.7554861878
 21
152.1499226519
 31
0.0
  0
LINE
  5
53
330
1F
100
AcDbEntity
  8
0
  6
Continuous
 62
     7
370
    15
100
AcDbLine
 10
134.4554861878
 20
146.1499226519
 30
0.0
 11
134.8554861878
 21
146.5499226519
 31
0.0
  0
LINE
  5
54
330
1F
100
AcDbEntity
  8
0
  6
Continuous
 62
     7
370
    15
100
AcDbLine
 10
134.8554861878
 20
151.7499226519
 30
0.0
 11
134.4554861878
 21
152.1499226519
 31
0.0
  0
LINE
  5
55
330
1F
100
AcDbEntity
  8
0
  6
Continuous
 62
     7
370
    15
100
AcDbLine
 10
75.7554861878
 20
151.2499226519
 30
0.0
 11
75.6554861878
 21
151.1499226519
 31
0.0
  0
LINE
  5
56
330
1F
100
AcDbEntity
  8
0
  6
Continuous
 62
     7
370
    15
100
AcDbLine
 10
75.6554861878
 20
147.1499226519
 30
0.0
 11
75.7554861878
 21
147.0499226519
 31
0.0
  0
LINE
  5
57
330
1F
100
AcDbEntity
  8
0
  6
Continuous
 62
     7
370
    15
100
AcDbLine
 10
75.6554861878
 20
151.1499226519
 30
0.0
 11
68.0554861878
 21
151.1499226519
 31
0.0
  0
LINE
  5
58
330
1F
100
AcDbEntity
  8
0
  6
Continuous
 62
     7
370
    15
100
AcDbLine
 10
68.0554861878
 20
147.1499226519
 30
0.0
 11
75.6554861878
 21
147.1499226519
 31
0.0
  0
LINE
  5
59
330
1F
100
AcDbEntity
  8
0
  6
Continuous
 62
     7
370
    15
100
AcDbLine
 10
68.0554861878
 20
151.1499226519
 30
0.0
 11
67.6554861878
 21
150.7499226519
 31
0.0
  0
LINE
  5
5A
330
1F
100
AcDbEntity
  8
0
  6
Continuous
 62
     7
370
    15
100
AcDbLine
 10
67.6554861878
 20
147.5499226519
 30
0.0
 11
68.0554861878
 21
147.1499226519
 31
0.0
  0
LINE
  5
5B
330
1F
100
AcDbEntity
  8
0
  6
Continuous
 62
     7
370
    15
100
AcDbLine
 10
75.8554861878
 20
153.1499226519
 30
0.0
 11
75.8554861878
 21
145.1499226519
 31
0.0
  0
LINE
  5
5C
330
1F
100
AcDbEntity
  8
0
  6
Continuous
 62
     7
370
    15
100
AcDbLine
 10
75.7554861878
 20
145.2499226519
 30
0.0
 11
75.7554861878
 21
153.0499226519
 31
0.0
  0
LINE
  5
5D
330
1F
100
AcDbEntity
  8
0
  6
Continuous
 62
     7
370
    15
100
AcDbLine
 10
125.5554861878
 20
145.1499226519
 30
0.0
 11
125.5554861878
 21
153.1499226519
 31
0.0
  0
LINE
  5
5E
330
1F
100
AcDbEntity
  8
0
  6
Continuous
 62
     7
370
    15
100
AcDbLine
 10
125.6554861878
 20
153.0499226519
 30
0.0
 11
125.6554861878
 21
145.2499226519
 31
0.0
  0
LINE
  5
5F
330
1F
100
AcDbEntity
  8
0
  6
Continuous
 62
     7
370
    15
100
AcDbLine
 10
125.7554861878
 20
152.1499226519
 30
0.0
 11
125.7554861878
 21
146.1499226519
 31
0.0
  0
LINE
  5
60
330
1F
100
AcDbEntity
  8
0
  6
Continuous
 62
     7
370
    15
100
AcDbLine
 10
134.4554861878
 20
146.1499226519
 30
0.0
 11
134.4554861878
 21
152.1499226519
 31
0.0
  0
SPLINE
  5
61
330
1F
100
AcDbEntity
  8
0
  6
Continuous
 62
     7
370
    15
100
AcDbSpline
210
0.0
220
0.0
230
1.0
 70
     8
 71
     3
 72
    40
 73
    36
 74
     0
 42
0.00000001
 43
0.00000001
 12
1.0
 22
0.0
 32
0.0
 13
1.0
 23
0.0
 33
0.0
 40
-0.0947581160899486
 40
-0.063186878976613
 40
-0.0313644595486182
 40
0.0
 40
0.0313678219818547
 40
0.0632399802339982
 40
0.0948293939035914
 40
0.1260912851989851
 40
0.1572274384207531
 40
0.188248174398631
 40
0.2194437329933474
 40
0.249910952488463
 40
0.2804001581135893
 40
0.3116934239113597
 40
0.3428128511971762
 40
0.3740162724687703
 40
0.4052555439192611
 40
0.4367718726293292
 40
0.4685149825922646
 40
0.4998919187105332
 40
0.5000057922383789
 40
0.5313998930045583
 40
0.5632505292856008
 40
0.5948430099169394
 40
0.6261053914347189
 40
0.657269160086
 40
0.6883406937730763
 40
0.7195619485488289
 40
0.7500462106764947
 40
0.7805038262401732
 40
0.8117695629234009
 40
0.8428354308519999
 40
0.8740038500161399
 40
0.9052418839100514
 40
0.936813121023387
 40
0.9686355404513818
 40
1.0
 40
1.031367821981855
 40
1.063239980233998
 40
1.094829393903591
 10
132.2868228316916
 20
149.3614574166938
 30
0.0
 10
132.3073782599764
 20
149.1499182838249
 30
0.0
 10
132.2869253383587
 20
148.9382488444788
 30
0.0
 10
132.2253765357128
 20
148.7353109284217
 30
0.0
 10
132.1288458533415
 20
148.5484586170911
 30
0.0
 10
131.9990948693647
 20
148.3862976770221
 30
0.0
 10
131.8415076792473
 20
148.2530914545299
 30
0.0
 10
131.6595811844427
 20
148.1540981601259
 30
0.0
 10
131.4623006002581
 20
148.0909645783922
 30
0.0
 10
131.256084653391
 20
148.0698596800722
 30
0.0
 10
131.0496469930136
 20
148.0909602967381
 30
0.0
 10
130.8518919888949
 20
148.1541927094746
 30
0.0
 10
130.6693422212551
 20
148.2532874239394
 30
0.0
 10
130.5114842435196
 20
148.386690849023
 30
0.0
 10
130.3817685582286
 20
148.5487912646077
 30
0.0
 10
130.2854046702597
 20
148.7352023876311
 30
0.0
 10
130.2241394574979
 20
148.9376919084415
 30
0.0
 10
130.2104361156173
 20
149.0793482651962
 30
0.0
 10
130.2103519104534
 20
149.2197725108743
 30
0.0
 10
130.2240241145548
 20
149.3617265267265
 30
0.0
 10
130.2854502545895
 20
149.5646370712169
 30
0.0
 10
130.3819566658016
 20
149.751491229364
 30
0.0
 10
130.5119009877256
 20
149.9135975301311
 30
0.0
 10
130.6698058311865
 20
150.0467160150038
 30
0.0
 10
130.8520357497365
 20
150.1456449242808
 30
0.0
 10
131.0495304573815
 20
150.2087592137747
 30
0.0
 10
131.2557481916476
 20
150.2299880174129
 30
0.0
 10
131.4621139206953
 20
150.2089972153501
 30
0.0
 10
131.6596083304297
 20
150.1457460865315
 30
0.0
 10
131.8418387636912
 20
150.0466219699094
 30
0.0
 10
131.999426447249
 20
149.9132185557011
 30
0.0
 10
132.1290064685186
 20
149.7509587302553
 30
0.0
 10
132.2253826154202
 20
149.5642546344065
 30
0.0
 10
132.2868228316916
 20
149.3614574166938
 30
0.0
 10
132.3073782599764
 20
149.1499182838249
 30
0.0
 10
132.2869253383587
 20
148.9382488444788
 30
0.0
  0
SPLINE
  5
62
330
1F
100
AcDbEntity
  8
0
  6
Continuous
 62
     7
370
    15
100
AcDbSpline
210
0.0
220
0.0
230
1.0
 70
     8
 71
     3
 72
    48
 73
    44
 74
     0
 42
0.00000001
 43
0.00000001
 12
1.0
 22
0.0
 32
0.0
 13
1.0
 23
0.0
 33
0.0
 40
-0.0462489776442437
 40
-0.02962511401019
 40
-0.0142151347816538
 40
0.0
 40
0.0298527636350994
 40
0.0624319752902093
 40
0.0907902198444187
 40
0.1249644415563326
 40
0.1492489064433885
 40
0.1701183088944814
 40
0.1875770540719993
 40
0.2203422457920721
 40
0.2500228413277548
 40
0.2796982295848254
 40
0.3124643831302734
 40
0.3399380707155112
 40
0.3750360463402809
 40
0.3966235168888266
 40
0.4169530134381242
 40
0.4360325880653548
 40
0.4538720555648779
 40
0.4704834998211779
 40
0.4858819675732439
 40
0.5000864330495445
 40
0.5001987192821693
 40
0.5351072733462487
 40
0.5765937244743525
 40
0.6248011140985417
 40
0.6433567394980123
 40
0.6599934616100389
 40
0.674713027024129
 40
0.6875182752273395
 40
0.7203177482532424
 40
0.7500198559911079
 40
0.7796708952201957
 40
0.8123905114471905
 40
0.839787012634196
 40
0.8748553530205216
 40
0.8964593050870633
 40
0.9168042192175212
 40
0.9358981753683238
 40
0.9537510223557563
 40
0.97037488598981
 40
0.9857848652183462
 40
1.0
 40
1.029852763635099
 40
1.062431975290209
 40
1.090790219844419
 10
132.2526659136762
 20
149.0573743896245
 30
0.0
 10
132.2583335115194
 20
149.1829090785236
 30
0.0
 10
132.2429505922671
 20
149.3449911107845
 30
0.0
 10
132.1875398108243
 20
149.528844758817
 30
0.0
 10
132.0947861373642
 20
149.7052744878525
 30
0.0
 10
131.9807605131828
 20
149.8464585644096
 30
0.0
 10
131.8556684852651
 20
149.9539166668813
 30
0.0
 10
131.7457080095491
 20
150.024269844295
 30
0.0
 10
131.6119593079902
 20
150.0887952972077
 30
0.0
 10
131.4501046421944
 20
150.137474485269
 30
0.0
 10
131.2554263020199
 20
150.1558461179187
 30
0.0
 10
131.0607337887323
 20
150.137444395759
 30
0.0
 10
130.8786772031068
 20
150.0826745802586
 30
0.0
 10
130.7018276930488
 20
149.9903513773267
 30
0.0
 10
130.5646179130361
 20
149.880205556656
 30
0.0
 10
130.4593090955529
 20
149.7596796775547
 30
0.0
 10
130.3887245023912
 20
149.6537208438259
 30
0.0
 10
130.335076823051
 20
149.5465771000416
 30
0.0
 10
130.2967142285884
 20
149.4409387421608
 30
0.0
 10
130.2717857167843
 20
149.338989957265
 30
0.0
 10
130.2583008512118
 20
149.2424123320202
 30
0.0
 10
130.2554755637047
 20
149.1796623278028
 30
0.0
 10
130.2555123800407
 20
149.0757788424141
 30
0.0
 10
130.2736621651785
 20
148.9138183046354
 30
0.0
 10
130.3649895086956
 20
148.6662779044072
 30
0.0
 10
130.5007728705162
 20
148.482230683292
 30
0.0
 10
130.6299479294418
 20
148.3671733212712
 30
0.0
 10
130.7145593061123
 20
148.3069497377129
 30
0.0
 10
130.7944041936207
 20
148.2611742630521
 30
0.0
 10
130.9086696513257
 20
148.2081210917515
 30
0.0
 10
131.0612517190138
 20
148.1622832016399
 30
0.0
 10
131.2559964035206
 20
148.1440002397209
 30
0.0
 10
131.4505791348634
 20
148.162482957081
 30
0.0
 10
131.6323189833437
 20
148.2172071730366
 30
0.0
 10
131.8088855807756
 20
148.3093497052195
 30
0.0
 10
131.9459949375078
 20
148.419304446082
 30
0.0
 10
132.0513692129886
 20
148.5397748656416
 30
0.0
 10
132.1220527703721
 20
148.6457815516006
 30
0.0
 10
132.1757777319239
 20
148.7529861105648
 30
0.0
 10
132.21419645191
 20
148.8586946697984
 30
0.0
 10
132.2391625840663
 20
148.9607111359809
 30
0.0
 10
132.2526659136762
 20
149.0573743896245
 30
0.0
 10
132.2583335115194
 20
149.1829090785236
 30
0.0
 10
132.2429505922671
 20
149.3449911107845
 30
0.0
  0
LINE
  5
63
330
1F
100
AcDbEntity
  8
0
  6
Continuous
 62
     7
370
    15
100
AcDbLine
 10
134.8554861878
 20
151.7499226519
 30
0.0
 11
134.8554861878
 21
146.5499226519
 31
0.0
  0
LINE
  5
64
330
1F
100
AcDbEntity
  8
0
  6
Continuous
 62
     7
370
    15
100
AcDbLine
 10
75.6554861878
 20
147.1499226519
 30
0.0
 11
75.6554861878
 21
151.1499226519
 31
0.0
  0
LINE
  5
65
330
1F
100
AcDbEntity
  8
0
  6
Continuous
 62
     7
370
    15
100
AcDbLine
 10
68.0554861878
 20
149.1499226519
 30
0.0
 11
68.0554861878
 21
147.1499226519
 31
0.0
  0
LINE
  5
66
330
1F
100
AcDbEntity
  8
0
  6
Continuous
 62
     7
370
    15
100
AcDbLine
 10
68.0554861878
 20
151.1499226519
 30
0.0
 11
68.0554861878
 21
149.1499226519
 31
0.0
  0
SPLINE
  5
67
330
1F
100
AcDbEntity
  8
0
  6
Continuous
 62
     7
370
    15
100
AcDbSpline
210
0.0
220
0.0
230
1.0
 70
     8
 71
     3
 72
    39
 73
    35
 74
     0
 42
0.00000001
 43
0.00000001
 12
1.0
 22
0.0
 32
0.0
 13
1.0
 23
0.0
 33
0.0
 40
-0.0949829971304861
 40
-0.0634108957387278
 40
-0.0313675129317076
 40
0.0
 40
0.0313915008467059
 40
0.0634335915838299
 40
0.0950078008678413
 40
0.1263920257896699
 40
0.1577744038786928
 40
0.1884754111620386
 40
0.2197041856521687
 40
0.2497045398053534
 40
0.2797138114896819
 40
0.3110619334731849
 40
0.3418638701327492
 40
0.373280799003992
 40
0.4046914263648331
 40
0.4361314780101051
 40
0.4681708588073479
 40
0.4996552436379166
 40
0.5311756754531127
 40
0.5633121943307536
 40
0.5948698608064568
 40
0.6263549947424123
 40
0.6577750798010572
 40
0.6885103392797322
 40
0.7197455841351328
 40
0.749783430402473
 40
0.7798419999968236
 40
0.8112676897684665
 40
0.8421415067945184
 40
0.8736075424602932
 40
0.9050170028695139
 40
0.9365891042612722
 40
0.9686324870682924
 40
1.0
 40
1.031391500846706
 40
1.06343359158383
 40
1.095007800867841
 10
69.14592417485557
 20
148.9385311110721
 30
0.0
 10
69.12542210165745
 20
149.1499757513243
 30
0.0
 10
69.14587950387721
 20
149.3614199441867
 30
0.0
 10
69.20662851665962
 20
149.5630185400474
 30
0.0
 10
69.30131340141577
 20
149.7472446131775
 30
0.0
 10
69.42781192882728
 20
149.9062251216801
 30
0.0
 10
69.58040487367475
 20
150.0365664258138
 30
0.0
 10
69.75733921493418
 20
150.1345316256952
 30
0.0
 10
69.9500979064441
 20
150.1975333063989
 30
0.0
 10
70.15356715825175
 20
150.2193316767846
 30
0.0
 10
70.35750657980077
 20
150.1986235469523
 30
0.0
 10
70.55100458410787
 20
150.1360165288205
 30
0.0
 10
70.72880220998184
 20
150.0383362014838
 30
0.0
 10
70.88164501018566
 20
149.9077683743259
 30
0.0
 10
71.00810192558673
 20
149.7490401723176
 30
0.0
 10
71.10340175035755
 20
149.5654568668107
 30
0.0
 10
71.16465498320063
 20
149.3641307111147
 30
0.0
 10
71.18555583229436
 20
149.1521994964946
 30
0.0
 10
71.16548462686164
 20
148.9399346555604
 30
0.0
 10
71.10477842539663
 20
148.7377995175577
 30
0.0
 10
71.00987075572449
 20
148.5532366824511
 30
0.0
 10
70.88342161594213
 20
148.3939031076573
 30
0.0
 10
70.7308194529112
 20
148.2630455962593
 30
0.0
 10
70.55373378133574
 20
148.1649744347749
 30
0.0
 10
70.36074160256527
 20
148.1020604353438
 30
0.0
 10
70.15701717774833
 20
148.0804983243281
 30
0.0
 10
69.95275365435941
 20
148.1015306880722
 30
0.0
 10
69.7589510651381
 20
148.1645311149825
 30
0.0
 10
69.58090020961272
 20
148.2626046280836
 30
0.0
 10
69.42792319530366
 20
148.3934473158907
 30
0.0
 10
69.3015395280708
 20
148.5527766975214
 30
0.0
 10
69.20678344477949
 20
148.7370145291912
 30
0.0
 10
69.14592417485557
 20
148.9385311110721
 30
0.0
 10
69.12542210165745
 20
149.1499757513243
 30
0.0
 10
69.14587950387721
 20
149.3614199441867
 30
0.0
  0
SPLINE
  5
68
330
1F
100
AcDbEntity
  8
0
  6
Continuous
 62
     7
370
    15
100
AcDbSpline
210
0.0
220
0.0
230
1.0
 70
     8
 71
     3
 72
    47
 73
    43
 74
     0
 42
0.00000001
 43
0.00000001
 12
1.0
 22
0.0
 32
0.0
 13
1.0
 23
0.0
 33
0.0
 40
-0.076010367289023
 40
-0.062364422158225
 40
-0.0298410234760519
 40
0.0
 40
0.0298356246219748
 40
0.0623471770838856
 40
0.0909743523755594
 40
0.1249051831162368
 40
0.1443727528783738
 40
0.1613295910748868
 40
0.1757782559131554
 40
0.1877235975756866
 40
0.2207229012558497
 40
0.2502353222918544
 40
0.2796778340871355
 40
0.3125237076112641
 40
0.3386612663928809
 40
0.3750691603726036
 40
0.3927965373867041
 40
0.4091486614721558
 40
0.4241326242234076
 40
0.4377577403949869
 40
0.4703495195058593
 40
0.5003402825527601
 40
0.5302736295900266
 40
0.5627958568158506
 40
0.5912417012250325
 40
0.6252270021361296
 40
0.6446595411976414
 40
0.6615831905499666
 40
0.6760005249447474
 40
0.6879164230872677
 40
0.7208281533251992
 40
0.7502912232844362
 40
0.7797107065870531
 40
0.8125455836312193
 40
0.8387574202941815
 40
0.8750336881421903
 40
0.8926969124974048
 40
0.9090131828366325
 40
0.923989632710977
 40
0.937635577841775
 40
0.9701589765239481
 40
1.0
 40
1.029835624621975
 40
1.062347177083886
 40
1.09097435237556
 10
69.16832987848662
 20
149.3471180288729
 30
0.0
 10
69.14933975275417
 20
149.1499392263217
 30
0.0
 10
69.16833199993708
 20
148.9527546922269
 30
0.0
 10
69.22476255364806
 20
148.7675853935681
 30
0.0
 10
69.31798155894035
 20
148.5920003131277
 30
0.0
 10
69.42506395104144
 20
148.4602036076475
 30
0.0
 10
69.53310342805756
 20
148.3645304054431
 30
0.0
 10
69.61885954700182
 20
148.3042322438204
 30
0.0
 10
69.69685119941826
 20
148.2600348949947
 30
0.0
 10
69.808876069715
 20
148.2081509500317
 30
0.0
 10
69.96019733689351
 20
148.1623644955715
 30
0.0
 10
70.1568690386233
 20
148.143922381107
 30
0.0
 10
70.353154361649
 20
148.1628898242556
 30
0.0
 10
70.53261665994381
 20
148.2176036855945
 30
0.0
 10
70.70828217615222
 20
148.3090517076542
 30
0.0
 10
70.83810868111637
 20
148.4125876608488
 30
0.0
 10
70.93474707834513
 20
148.5202884332388
 30
0.0
 10
70.99419710515737
 20
148.6024451252665
 30
0.0
 10
71.0413406970015
 20
148.6831011071843
 30
0.0
 10
71.09579246399193
 20
148.7988289142449
 30
0.0
 10
71.14296504848022
 20
148.9540997111193
 30
0.0
 10
71.16168182714634
 20
149.1520133611317
 30
0.0
 10
71.14213860499754
 20
149.3496979483843
 30
0.0
 10
71.08523097289783
 20
149.5345350740934
 30
0.0
 10
70.9917714981566
 20
149.709620771871
 30
0.0
 10
70.88467509916863
 20
149.8409524638097
 30
0.0
 10
70.77647525713503
 20
149.9364074324686
 30
0.0
 10
70.69078644291207
 20
149.9964456508374
 30
0.0
 10
70.61289731240065
 20
150.0404344151479
 30
0.0
 10
70.50108113408918
 20
150.0920481388545
 30
0.0
 10
70.35004821770754
 20
150.1375952466813
 30
0.0
 10
70.15370276448385
 20
150.1559075267124
 30
0.0
 10
69.95761245982035
 20
150.1369057745805
 30
0.0
 10
69.7780841714864
 20
150.0821454590445
 30
0.0
 10
69.60255399030135
 20
149.9906885313411
 30
0.0
 10
69.47295643188625
 20
149.8872950480152
 30
0.0
 10
69.37659556702417
 20
149.7799974646972
 30
0.0
 10
69.31721594225152
 20
149.6980665358577
 30
0.0
 10
69.27002525018712
 20
149.6174929016732
 30
0.0
 10
69.2155260265821
 20
149.5019154610683
 30
0.0
 10
69.16832987848662
 20
149.3471180288729
 30
0.0
 10
69.14933975275417
 20
149.1499392263217
 30
0.0
 10
69.16833199993708
 20
148.9527546922269
 30
0.0
  0
LINE
  5
69
330
1F
100
AcDbEntity
  8
0
  6
Continuous
 62
     7
370
    15
100
AcDbLine
 10
67.6554861878
 20
149.1499226519
 30
0.0
 11
67.6554861878
 21
150.7499226519
 31
0.0
  0
LINE
  5
6A
330
1F
100
AcDbEntity
  8
0
  6
Continuous
 62
     7
370
    15
100
AcDbLine
 10
67.6554861878
 20
147.5499226519
 30
0.0
 11
67.6554861878
 21
149.1499226519
 31
0.0
  0
ENDSEC
  0
SECTION
  2
OBJECTS
  0
DICTIONARY
  5
C
330
0
100
AcDbDictionary
281
     1
  3
ACAD_GROUP
350
D
  3
ACAD_LAYOUT
350
1A
  3
ACAD_MLINESTYLE
350
17
  3
ACAD_PLOTSETTINGS
350
19
  3
ACAD_PLOTSTYLENAME
350
E
  0
DICTIONARY
  5
D
102
{ACAD_REACTORS
330
C
102
}
330
C
100
AcDbDictionary
281
     1
  0
DICTIONARY
  5
1A
102
{ACAD_REACTORS
330
C
102
}
330
C
100
AcDbDictionary
281
     1
  3
Layout1
350
1E
  3
Layout2
350
26
  3
Model
350
22
  0
DICTIONARY
  5
17
102
{ACAD_REACTORS
330
C
102
}
330
C
100
AcDbDictionary
281
     1
  3
Standard
350
18
  0
DICTIONARY
  5
19
102
{ACAD_REACTORS
330
C
102
}
330
C
100
AcDbDictionary
281
     1
  0
ACDBDICTIONARYWDFLT
  5
E
102
{ACAD_REACTORS
330
C
102
}
330
C
100
AcDbDictionary
281
     1
  3
Normal
350
F
100
AcDbDictionaryWithDefault
340
F
  0
LAYOUT
  5
1E
102
{ACAD_REACTORS
330
1A
102
}
330
1A
100
AcDbPlotSettings
  1

  2
none_device
  4

  6

 40
0.0
 41
0.0
 42
0.0
 43
0.0
 44
0.0
 45
0.0
 46
0.0
 47
0.0
 48
0.0
 49
0.0
140
0.0
141
0.0
142
1.0
143
1.0
 70
   688
 72
     0
 73
     0
 74
     5
  7

 75
    16
147
1.0
148
0.0
149
0.0
100
AcDbLayout
  1
Layout1
 70
     1
 71
     1
 10
0.0
 20
0.0
 11
420.0
 21
297.0
 12
0.0
 22
0.0
 32
0.0
 14
1.0000000000E+20
 24
1.0000000000E+20
 34
1.0000000000E+20
 15
-1.0000000000E+20
 25
-1.0000000000E+20
 35
-1.0000000000E+20
146
0.0
 13
0.0
 23
0.0
 33
0.0
 16
1.0
 26
0.0
 36
0.0
 17
0.0
 27
1.0
 37
0.0
 76
     0
330
1B
  0
LAYOUT
  5
26
102
{ACAD_REACTORS
330
1A
102
}
330
1A
100
AcDbPlotSettings
  1

  2
none_device
  4

  6

 40
0.0
 41
0.0
 42
0.0
 43
0.0
 44
0.0
 45
0.0
 46
0.0
 47
0.0
 48
0.0
 49
0.0
140
0.0
141
0.0
142
1.0
143
1.0
 70
   688
 72
     0
 73
     0
 74
     5
  7

 75
    16
147
1.0
148
0.0
149
0.0
100
AcDbLayout
  1
Layout2
 70
     1
 71
     2
 10
0.0
 20
0.0
 11
0.0
 21
0.0
 12
0.0
 22
0.0
 32
0.0
 14
0.0
 24
0.0
 34
0.0
 15
0.0
 25
0.0
 35
0.0
146
0.0
 13
0.0
 23
0.0
 33
0.0
 16
1.0
 26
0.0
 36
0.0
 17
0.0
 27
1.0
 37
0.0
 76
     0
330
23
  0
LAYOUT
  5
22
102
{ACAD_REACTORS
330
1A
102
}
330
1A
100
AcDbPlotSettings
  1

  2
none_device
  4

  6

 40
0.0
 41
0.0
 42
0.0
 43
0.0
 44
0.0
 45
0.0
 46
0.0
 47
0.0
 48
0.0
 49
0.0
140
0.0
141
0.0
142
1.0
143
1.0
 70
  1712
 72
     0
 73
     0
 74
     0
  7

 75
     0
147
1.0
148
0.0
149
0.0
100
AcDbLayout
  1
Model
 70
     1
 71
     0
 10
0.0
 20
0.0
 11
279.4
 21
215.9
 12
0.0
 22
0.0
 32
0.0
 14
0.0
 24
0.0
 34
0.0
 15
279.4
 25
215.9
 35
0.0
146
0.0
 13
0.0
 23
0.0
 33
0.0
 16
1.0
 26
0.0
 36
0.0
 17
0.0
 27
1.0
 37
0.0
 76
     0
330
1F
331
29
  0
MLINESTYLE
  5
18
102
{ACAD_REACTORS
330
17
102
}
330
17
100
AcDbMlineStyle
  2
Standard
 70
     0
  3

 62
   256
 51
90.0
 52
90.0
 71
     2
 49
0.5
 62
   256
  6
BYLAYER
 49
-0.5
 62
   256
  6
BYLAYER
  0
ACDBPLACEHOLDER
  5
F
102
{ACAD_REACTORS
330
E
102
}
330
E
  0
ENDSEC
  0
EOF
