  0
SECTION
  2
HEADER
  9
$ACADVER
  1
AC1021
  9
$ACADMAINTVER
 70
     1
  9
$DWGCODEPAGE
  3
ANSI_1254
  9
$LASTSAVEDBY
  1
uretim
  9
$INSBASE
 10
0.0
 20
0.0
 30
0.0
  9
$EXTMIN
 10
843.2895542482402
 20
238.2606553211463
 30
-0.0015258207003583
  9
$EXTMAX
 10
3893.997764847613
 20
6238.564080977125
 30
0.0000000349246037
  9
$LIMMIN
 10
0.0
 20
0.0
  9
$LIMMAX
 10
420.0
 20
297.0
  9
$ORTHOMODE
 70
     0
  9
$REGENMODE
 70
     1
  9
$FILLMODE
 70
     1
  9
$QTEXTMODE
 70
     0
  9
$MIRRTEXT
 70
     0
  9
$LTSCALE
 40
1.0
  9
$ATTMODE
 70
     1
  9
$TEXTSIZE
 40
2.5
  9
$TRACEWID
 40
1.0
  9
$TEXTSTYLE
  7
Standard
  9
$CLAYER
  8
0
  9
$CELTYPE
  6
ByLayer
  9
$CECOLOR
 62
   256
  9
$CELTSCALE
 40
1.0
  9
$DISPSILH
 70
     0
  9
$DIMSCALE
 40
1.0
  9
$DIMASZ
 40
2.5
  9
$DIMEXO
 40
0.625
  9
$DIMDLI
 40
3.75
  9
$DIMRND
 40
0.0
  9
$DIMDLE
 40
0.0
  9
$DIMEXE
 40
1.25
  9
$DIMTP
 40
0.0
  9
$DIMTM
 40
0.0
  9
$DIMTXT
 40
2.5
  9
$DIMCEN
 40
2.5
  9
$DIMTSZ
 40
0.0
  9
$DIMTOL
 70
     0
  9
$DIMLIM
 70
     0
  9
$DIMTIH
 70
     0
  9
$DIMTOH
 70
     0
  9
$DIMSE1
 70
     0
  9
$DIMSE2
 70
     0
  9
$DIMTAD
 70
     1
  9
$DIMZIN
 70
     8
  9
$DIMBLK
  1

  9
$DIMASO
 70
     1
  9
$DIMSHO
 70
     1
  9
$DIMPOST
  1

  9
$DIMAPOST
  1

  9
$DIMALT
 70
     0
  9
$DIMALTD
 70
     3
  9
$DIMALTF
 40
0.03937007874016
  9
$DIMLFAC
 40
1.0
  9
$DIMTOFL
 70
     1
  9
$DIMTVP
 40
0.0
  9
$DIMTIX
 70
     0
  9
$DIMSOXD
 70
     0
  9
$DIMSAH
 70
     0
  9
$DIMBLK1
  1

  9
$DIMBLK2
  1

  9
$DIMSTYLE
  2
ISO-25
  9
$DIMCLRD
 70
     0
  9
$DIMCLRE
 70
     0
  9
$DIMCLRT
 70
     0
  9
$DIMTFAC
 40
1.0
  9
$DIMGAP
 40
0.625
  9
$DIMJUST
 70
     0
  9
$DIMSD1
 70
     0
  9
$DIMSD2
 70
     0
  9
$DIMTOLJ
 70
     0
  9
$DIMTZIN
 70
     8
  9
$DIMALTZ
 70
     0
  9
$DIMALTTZ
 70
     0
  9
$DIMUPT
 70
     0
  9
$DIMDEC
 70
     2
  9
$DIMTDEC
 70
     2
  9
$DIMALTU
 70
     2
  9
$DIMALTTD
 70
     3
  9
$DIMTXSTY
  7
Standard
  9
$DIMAUNIT
 70
     0
  9
$DIMADEC
 70
     0
  9
$DIMALTRND
 40
0.0
  9
$DIMAZIN
 70
     0
  9
$DIMDSEP
 70
    44
  9
$DIMATFIT
 70
     3
  9
$DIMFRAC
 70
     0
  9
$DIMLDRBLK
  1

  9
$DIMLUNIT
 70
     2
  9
$DIMLWD
 70
    -2
  9
$DIMLWE
 70
    -2
  9
$DIMTMOVE
 70
     0
  9
$DIMFXL
 40
1.0
  9
$DIMFXLON
 70
     0
  9
$DIMJOGANG
 40
0.7853981633974483
  9
$DIMTFILL
 70
     0
  9
$DIMTFILLCLR
 70
     0
  9
$DIMARCSYM
 70
     0
  9
$DIMLTYPE
  6

  9
$DIMLTEX1
  6

  9
$DIMLTEX2
  6

  9
$LUNITS
 70
     2
  9
$LUPREC
 70
     4
  9
$SKETCHINC
 40
1.0
  9
$FILLETRAD
 40
0.0
  9
$AUNITS
 70
     0
  9
$AUPREC
 70
     0
  9
$MENU
  1
.
  9
$ELEVATION
 40
0.0
  9
$PELEVATION
 40
0.0
  9
$THICKNESS
 40
0.0
  9
$LIMCHECK
 70
     0
  9
$CHAMFERA
 40
0.0
  9
$CHAMFERB
 40
0.0
  9
$CHAMFERC
 40
0.0
  9
$CHAMFERD
 40
0.0
  9
$SKPOLY
 70
     0
  9
$TDCREATE
 40
2457891.390025822
  9
$TDUCREATE
 40
2457891.265025822
  9
$TDUPDATE
 40
2457891.394258183
  9
$TDUUPDATE
 40
2457891.269258183
  9
$TDINDWG
 40
0.0042327083
  9
$TDUSRTIMER
 40
0.0042326852
  9
$USRTIMER
 70
     1
  9
$ANGBASE
 50
0.0
  9
$ANGDIR
 70
     0
  9
$PDMODE
 70
     0
  9
$PDSIZE
 40
0.0
  9
$PLINEWID
 40
0.0
  9
$SPLFRAME
 70
     0
  9
$SPLINETYPE
 70
     6
  9
$SPLINESEGS
 70
     8
  9
$HANDSEED
  5
41D6
  9
$SURFTAB1
 70
     6
  9
$SURFTAB2
 70
     6
  9
$SURFTYPE
 70
     6
  9
$SURFU
 70
     6
  9
$SURFV
 70
     6
  9
$UCSBASE
  2

  9
$UCSNAME
  2

  9
$UCSORG
 10
0.0
 20
0.0
 30
0.0
  9
$UCSXDIR
 10
1.0
 20
0.0
 30
0.0
  9
$UCSYDIR
 10
0.0
 20
1.0
 30
0.0
  9
$UCSORTHOREF
  2

  9
$UCSORTHOVIEW
 70
     0
  9
$UCSORGTOP
 10
0.0
 20
0.0
 30
0.0
  9
$UCSORGBOTTOM
 10
0.0
 20
0.0
 30
0.0
  9
$UCSORGLEFT
 10
0.0
 20
0.0
 30
0.0
  9
$UCSORGRIGHT
 10
0.0
 20
0.0
 30
0.0
  9
$UCSORGFRONT
 10
0.0
 20
0.0
 30
0.0
  9
$UCSORGBACK
 10
0.0
 20
0.0
 30
0.0
  9
$PUCSBASE
  2

  9
$PUCSNAME
  2

  9
$PUCSORG
 10
0.0
 20
0.0
 30
0.0
  9
$PUCSXDIR
 10
1.0
 20
0.0
 30
0.0
  9
$PUCSYDIR
 10
0.0
 20
1.0
 30
0.0
  9
$PUCSORTHOREF
  2

  9
$PUCSORTHOVIEW
 70
     0
  9
$PUCSORGTOP
 10
0.0
 20
0.0
 30
0.0
  9
$PUCSORGBOTTOM
 10
0.0
 20
0.0
 30
0.0
  9
$PUCSORGLEFT
 10
0.0
 20
0.0
 30
0.0
  9
$PUCSORGRIGHT
 10
0.0
 20
0.0
 30
0.0
  9
$PUCSORGFRONT
 10
0.0
 20
0.0
 30
0.0
  9
$PUCSORGBACK
 10
0.0
 20
0.0
 30
0.0
  9
$USERI1
 70
     0
  9
$USERI2
 70
     0
  9
$USERI3
 70
     0
  9
$USERI4
 70
     0
  9
$USERI5
 70
     0
  9
$USERR1
 40
0.0
  9
$USERR2
 40
0.0
  9
$USERR3
 40
0.0
  9
$USERR4
 40
0.0
  9
$USERR5
 40
0.0
  9
$WORLDVIEW
 70
     1
  9
$SHADEDGE
 70
     3
  9
$SHADEDIF
 70
    70
  9
$TILEMODE
 70
     1
  9
$MAXACTVP
 70
    64
  9
$PINSBASE
 10
0.0
 20
0.0
 30
0.0
  9
$PLIMCHECK
 70
     0
  9
$PEXTMIN
 10
0.0
 20
0.0
 30
0.0
  9
$PEXTMAX
 10
0.0
 20
0.0
 30
0.0
  9
$PLIMMIN
 10
0.0
 20
0.0
  9
$PLIMMAX
 10
12.0
 20
9.0
  9
$UNITMODE
 70
     0
  9
$VISRETAIN
 70
     1
  9
$PLINEGEN
 70
     0
  9
$PSLTSCALE
 70
     1
  9
$TREEDEPTH
 70
  3020
  9
$CMLSTYLE
  2
Standard
  9
$CMLJUST
 70
     0
  9
$CMLSCALE
 40
20.0
  9
$PROXYGRAPHICS
 70
     1
  9
$MEASUREMENT
 70
     1
  9
$CELWEIGHT
370
    -1
  9
$ENDCAPS
280
     0
  9
$JOINSTYLE
280
     0
  9
$LWDISPLAY
290
     0
  9
$INSUNITS
 70
     4
  9
$HYPERLINKBASE
  1

  9
$STYLESHEET
  1
monochrome.ctb
  9
$XEDIT
290
     1
  9
$CEPSNTYPE
380
     0
  9
$PSTYLEMODE
290
     1
  9
$FINGERPRINTGUID
  2
{38A44C38-576D-4AAD-A433-439A4DC2A99A}
  9
$VERSIONGUID
  2
{CFE80717-1992-41B1-989F-7106B20CB926}
  9
$EXTNAMES
290
     1
  9
$PSVPSCALE
 40
0.0
  9
$OLESTARTUP
290
     0
  9
$SORTENTS
280
   127
  9
$INDEXCTL
280
     0
  9
$HIDETEXT
280
     1
  9
$XCLIPFRAME
290
     0
  9
$HALOGAP
280
     0
  9
$OBSCOLOR
 70
   257
  9
$OBSLTYPE
280
     0
  9
$INTERSECTIONDISPLAY
280
     0
  9
$INTERSECTIONCOLOR
 70
   257
  9
$DIMASSOC
280
     2
  9
$PROJECTNAME
  1

  9
$CAMERADISPLAY
290
     0
  9
$LENSLENGTH
 40
50.0
  9
$CAMERAHEIGHT
 40
0.0
  9
$STEPSPERSEC
 40
2.0
  9
$STEPSIZE
 40
6.0
  9
$3DDWFPREC
 40
2.0
  9
$PSOLWIDTH
 40
5.0
  9
$PSOLHEIGHT
 40
80.0
  9
$LOFTANG1
 40
1.570796326794896
  9
$LOFTANG2
 40
1.570796326794896
  9
$LOFTMAG1
 40
0.0
  9
$LOFTMAG2
 40
0.0
  9
$LOFTPARAM
 70
     7
  9
$LOFTNORMALS
280
     1
  9
$LATITUDE
 40
37.795
  9
$LONGITUDE
 40
-122.394
  9
$NORTHDIRECTION
 40
0.0
  9
$TIMEZONE
 70
 -8000
  9
$LIGHTGLYPHDISPLAY
280
     1
  9
$TILEMODELIGHTSYNCH
280
     1
  9
$CMATERIAL
347
EC
  9
$SOLIDHIST
280
     1
  9
$SHOWHIST
280
     1
  9
$DWFFRAME
280
     2
  9
$DGNFRAME
280
     0
  9
$REALWORLDSCALE
290
     1
  9
$INTERFERECOLOR
 62
     1
  9
$INTERFEREOBJVS
345
F9
  9
$INTERFEREVPVS
346
F6
  9
$CSHADOW
280
     0
  9
$SHADOWPLANELOCATION
 40
0.0
  0
ENDSEC
  0
SECTION
  2
CLASSES
  0
CLASS
  1
ACDBDICTIONARYWDFLT
  2
AcDbDictionaryWithDefault
  3
ObjectDBX Classes
 90
        0
 91
        1
280
     0
281
     0
  0
CLASS
  1
DICTIONARYVAR
  2
AcDbDictionaryVar
  3
ObjectDBX Classes
 90
        0
 91
        3
280
     0
281
     0
  0
CLASS
  1
TABLESTYLE
  2
AcDbTableStyle
  3
ObjectDBX Classes
 90
     4095
 91
        1
280
     0
281
     0
  0
CLASS
  1
MATERIAL
  2
AcDbMaterial
  3
ObjectDBX Classes
 90
     1024
 91
        3
280
     0
281
     0
  0
CLASS
  1
VISUALSTYLE
  2
AcDbVisualStyle
  3
ObjectDBX Classes
 90
     4095
 91
       16
280
     0
281
     0
  0
CLASS
  1
SORTENTSTABLE
  2
AcDbSortentsTable
  3
ObjectDBX Classes
 90
        0
 91
        1
280
     0
281
     0
  0
ENDSEC
  0
SECTION
  2
TABLES
  0
TABLE
  2
VPORT
  5
8
330
0
100
AcDbSymbolTable
 70
     1
  0
VPORT
  5
EA
330
8
100
AcDbSymbolTableRecord
100
AcDbViewportTableRecord
  2
*Active
 70
     0
 10
0.0
 20
0.0
 11
1.0
 21
1.0
 12
3924.813479542353
 22
-242.8719126465253
 13
0.0
 23
0.0
 14
10.0
 24
10.0
 15
10.0
 25
10.0
 16
0.0
 26
0.0
 36
1.0
 17
0.0
 27
0.0
 37
0.0
 40
4428.604340640185
 41
1.739825581395348
 42
50.0
 43
0.0
 44
0.0
 50
0.0
 51
0.0
 71
     0
 72
  1000
 73
     1
 74
     3
 75
     0
 76
     0
 77
     0
 78
     0
281
     0
 65
     1
110
0.0
120
0.0
130
0.0
111
1.0
121
0.0
131
0.0
112
0.0
122
1.0
132
0.0
 79
     0
146
0.0
348
F5
 60
     2
 61
     5
292
     1
282
     1
141
0.0
142
0.0
 63
   250
421
  3355443
  0
ENDTAB
  0
TABLE
  2
LTYPE
  5
5
330
0
100
AcDbSymbolTable
 70
     1
  0
LTYPE
  5
14
330
5
100
AcDbSymbolTableRecord
100
AcDbLinetypeTableRecord
  2
ByBlock
 70
     0
  3

 72
    65
 73
     0
 40
0.0
  0
LTYPE
  5
15
330
5
100
AcDbSymbolTableRecord
100
AcDbLinetypeTableRecord
  2
ByLayer
 70
     0
  3

 72
    65
 73
     0
 40
0.0
  0
LTYPE
  5
16
330
5
100
AcDbSymbolTableRecord
100
AcDbLinetypeTableRecord
  2
Continuous
 70
     0
  3
Solid line
 72
    65
 73
     0
 40
0.0
  0
ENDTAB
  0
TABLE
  2
LAYER
  5
2
102
{ACAD_XDICTIONARY
360
110
102
}
330
0
100
AcDbSymbolTable
 70
     1
  0
LAYER
  5
10
330
2
100
AcDbSymbolTableRecord
100
AcDbLayerTableRecord
  2
0
 70
     0
 62
     7
  6
Continuous
370
    -3
390
F
347
EE
  0
ENDTAB
  0
TABLE
  2
STYLE
  5
3
330
0
100
AcDbSymbolTable
 70
     2
  0
STYLE
  5
11
330
3
100
AcDbSymbolTableRecord
100
AcDbTextStyleTableRecord
  2
Standard
 70
     0
 40
0.0
 41
1.0
 50
0.0
 71
     0
 42
2.5
  3
txt
  4

  0
ENDTAB
  0
TABLE
  2
VIEW
  5
6
330
0
100
AcDbSymbolTable
 70
     1
  0
ENDTAB
  0
TABLE
  2
UCS
  5
7
330
0
100
AcDbSymbolTable
 70
     0
  0
ENDTAB
  0
TABLE
  2
APPID
  5
9
330
0
100
AcDbSymbolTable
 70
     2
  0
APPID
  5
12
330
9
100
AcDbSymbolTableRecord
100
AcDbRegAppTableRecord
  2
ACAD
 70
     0
  0
APPID
  5
9E
330
9
100
AcDbSymbolTableRecord
100
AcDbRegAppTableRecord
  2
ACAD_PSEXT
 70
     0
  0
ENDTAB
  0
TABLE
  2
DIMSTYLE
  5
A
330
0
100
AcDbSymbolTable
 70
     3
100
AcDbDimStyleTable
 71
     1
340
27
  0
DIMSTYLE
105
27
330
A
100
AcDbSymbolTableRecord
100
AcDbDimStyleTableRecord
  2
ISO-25
 70
     0
 41
2.5
 42
0.625
 43
3.75
 44
1.25
 73
     0
 74
     0
 77
     1
 78
     8
140
2.5
141
2.5
143
0.03937007874016
147
0.625
171
     3
172
     1
271
     2
272
     2
274
     3
278
    44
283
     0
284
     8
340
11
  0
DIMSTYLE
105
10F
330
A
100
AcDbSymbolTableRecord
100
AcDbDimStyleTableRecord
  2
Standard
 70
     0
140
15.0
271
     1
272
     1
340
11
  0
ENDTAB
  0
TABLE
  2
BLOCK_RECORD
  5
1
330
0
100
AcDbSymbolTable
 70
     3
  0
BLOCK_RECORD
  5
1F
330
1
100
AcDbSymbolTableRecord
100
AcDbBlockTableRecord
  2
*Model_Space
340
22
 70
     0
280
     1
281
     0
  0
BLOCK_RECORD
  5
D2
330
1
100
AcDbSymbolTableRecord
100
AcDbBlockTableRecord
  2
*Paper_Space
340
D3
 70
     0
280
     1
281
     0
  0
BLOCK_RECORD
  5
D6
330
1
100
AcDbSymbolTableRecord
100
AcDbBlockTableRecord
  2
*Paper_Space0
340
D7
 70
     0
280
     1
281
     0
  0
ENDTAB
  0
ENDSEC
  0
SECTION
  2
BLOCKS
  0
BLOCK
  5
20
330
1F
100
AcDbEntity
  8
0
100
AcDbBlockBegin
  2
*Model_Space
 70
     0
 10
0.0
 20
0.0
 30
0.0
  3
*Model_Space
  1

  0
ENDBLK
  5
21
330
1F
100
AcDbEntity
  8
0
100
AcDbBlockEnd
  0
BLOCK
  5
D4
330
D2
100
AcDbEntity
 67
     1
  8
0
100
AcDbBlockBegin
  2
*Paper_Space
 70
     0
 10
0.0
 20
0.0
 30
0.0
  3
*Paper_Space
  1

  0
ENDBLK
  5
D5
330
D2
100
AcDbEntity
 67
     1
  8
0
100
AcDbBlockEnd
  0
BLOCK
  5
D8
330
D6
100
AcDbEntity
 67
     1
  8
0
100
AcDbBlockBegin
  2
*Paper_Space0
 70
     0
 10
0.0
 20
0.0
 30
0.0
  3
*Paper_Space0
  1

  0
ENDBLK
  5
D9
330
D6
100
AcDbEntity
 67
     1
  8
0
100
AcDbBlockEnd
  0
ENDSEC
  0
SECTION
  2
ENTITIES
  0
ELLIPSE
  5
390
330
1F
100
AcDbEntity
  8
0
  6
ByBlock
 62
     5
100
AcDbEllipse
 10
2176.002709942696
 20
5035.779274253306
 30
0.0
 11
175.786797471904
 21
142.3278419179469
 31
0.0
210
0.0
220
0.0
230
0.9999999999999998
 40
0.787189958554167
 41
0.0
 42
6.283185307179586
  0
ELLIPSE
  5
391
330
1F
100
AcDbEntity
  8
0
  6
ByBlock
 62
     5
100
AcDbEllipse
 10
2165.869004871843
 20
4489.140122858418
 30
0.0
 11
-166.4474134725626
 21
187.2914392304406
 31
0.0
210
0.0
220
0.0
230
1.0
 40
0.7913681152652145
 41
0.0
 42
6.283185307179586
  0
ELLIPSE
  5
392
330
1F
100
AcDbEntity
  8
0
  6
ByBlock
 62
     5
100
AcDbEllipse
 10
2707.126137010187
 20
4523.524280784424
 30
0.0
 11
143.395916184872
 21
159.9440500855386
 31
0.0
210
0.0
220
0.0
230
1.0
 40
0.8295556793284942
 41
0.0
 42
6.283185307179586
  0
ELLIPSE
  5
393
330
1F
100
AcDbEntity
  8
0
  6
ByBlock
 62
     5
100
AcDbEllipse
 10
2680.305704360858
 20
5010.558776991101
 30
0.0
 11
-158.0849154835855
 21
143.398974225929
 31
0.0
210
0.0
220
0.0
230
1.0
 40
0.7159394728025018
 41
0.0
 42
6.283185307179586
  0
ELLIPSE
  5
394
330
1F
100
AcDbEntity
  8
0
  6
ByBlock
 62
     5
100
AcDbEllipse
 10
2192.913125897991
 20
5397.277913122098
 30
0.0
 11
159.4966715325668
 21
42.79485911383887
 31
0.0
210
0.0
220
0.0
230
1.0
 40
0.5032807539241602
 41
0.0
 42
6.283185307179586
  0
ELLIPSE
  5
395
330
1F
100
AcDbEntity
  8
0
  6
ByBlock
 62
     5
100
AcDbEllipse
 10
2625.809134690529
 20
5390.64430413496
 30
0.0
 11
-135.3448442785307
 21
78.61182864850855
 31
0.0
210
0.0
220
0.0
230
1.0
 40
0.5240639687030934
 41
0.0
 42
6.283185307179586
  0
ELLIPSE
  5
396
330
1F
100
AcDbEntity
  8
0
  6
ByBlock
 62
     5
100
AcDbEllipse
 10
1812.787654619446
 20
5349.572599619578
 30
0.0
 11
93.09245809712756
 21
107.4612361611301
 31
0.0
210
0.0
220
0.0
230
1.0
 40
0.5860725063127729
 41
0.0
 42
6.283185307179586
  0
ELLIPSE
  5
397
330
1F
100
AcDbEntity
  8
0
  6
ByBlock
 62
     5
100
AcDbEllipse
 10
1752.563901105009
 20
4975.990944393277
 30
0.0
 11
93.49640295444357
 21
166.6615923977412
 31
0.0
210
0.0
220
0.0
230
1.0
 40
0.7397700349637164
 41
0.0
 42
6.283185307179586
  0
ELLIPSE
  5
398
330
1F
100
AcDbEntity
  8
0
  6
ByBlock
 62
     5
100
AcDbEllipse
 10
1731.790763474449
 20
4525.350407929725
 30
0.0
 11
-66.62051884965316
 21
188.4653387026397
 31
0.0
210
0.0
220
0.0
230
1.0
 40
0.643644602650443
 41
0.0
 42
6.283185307179586
  0
ELLIPSE
  5
399
330
1F
100
AcDbEntity
  8
0
  6
ByBlock
 62
     5
100
AcDbEllipse
 10
3078.103224581749
 20
4537.106299145813
 30
0.0
 11
39.63244042471729
 21
176.2843683607409
 31
0.0
210
0.0
220
0.0
230
1.0
 40
0.6349295917110701
 41
0.0
 42
6.283185307179586
  0
ELLIPSE
  5
39A
330
1F
100
AcDbEntity
  8
0
  6
ByBlock
 62
     5
100
AcDbEllipse
 10
3054.609757654501
 20
4965.743762628824
 30
0.0
 11
-61.03052039431095
 21
167.1825845825783
 31
0.0
210
0.0
220
0.0
230
1.0
 40
0.5643074375171539
 41
0.0
 42
6.283185307179586
  0
ELLIPSE
  5
39B
330
1F
100
AcDbEntity
  8
0
  6
ByBlock
 62
     5
100
AcDbEllipse
 10
2972.57569195339
 20
5310.232856466817
 30
0.0
 11
-101.5853655207028
 21
101.4064886616749
 31
0.0
210
0.0
220
0.0
230
1.0
 40
0.5330286989906147
 41
0.0
 42
6.283185307179586
  0
ELLIPSE
  5
39C
330
1F
100
AcDbEntity
  8
0
  6
ByBlock
 62
     5
100
AcDbEllipse
 10
2569.983012234182
 20
5602.678110105007
 30
0.0
 11
-133.8159354917684
 21
38.64286018968993
 31
0.0
210
0.0
220
0.0
230
1.0
 40
0.24148956889749
 41
0.0
 42
6.283185307179586
  0
ELLIPSE
  5
39D
330
1F
100
AcDbEntity
  8
0
  6
ByBlock
 62
     5
100
AcDbEllipse
 10
2235.132695441877
 20
5621.559199897744
 30
0.0
 11
-139.3708746167036
 21
-9.551473957031525
 31
0.0
210
0.0
220
0.0
230
1.0
 40
0.2117016608237568
 41
0.0
 42
6.283185307179586
  0
ELLIPSE
  5
39E
330
1F
100
AcDbEntity
  8
0
  6
ByBlock
 62
     5
100
AcDbEllipse
 10
1911.37471175175
 20
5560.593514857912
 30
0.0
 11
-109.400264763892
 21
-46.66001709932954
 31
0.0
210
0.0
220
0.0
230
1.0
 40
0.285301514062946
 41
0.0
 42
6.283185307179586
  0
ELLIPSE
  5
39F
330
1F
100
AcDbEntity
  8
0
  6
ByBlock
 62
     5
100
AcDbEllipse
 10
1659.340920473624
 20
5460.895940602804
 30
0.0
 11
74.84533920511282
 21
64.39614445059408
 31
0.0
210
0.0
220
0.0
230
1.0
 40
0.2625462790620994
 41
0.0
 42
6.283185307179586
  0
ELLIPSE
  5
3A0
330
1F
100
AcDbEntity
  8
0
  6
ByBlock
 62
     5
100
AcDbEllipse
 10
1552.342095519111
 20
5240.430670846535
 30
0.0
 11
74.96605590490734
 21
113.5559573330285
 31
0.0
210
0.0
220
0.0
230
1.0
 40
0.2956817006837765
 41
0.0
 42
6.283185307179586
  0
ELLIPSE
  5
3A1
330
1F
100
AcDbEntity
  8
0
  6
ByBlock
 62
     5
100
AcDbEllipse
 10
1483.030001993612
 20
4899.656631801017
 30
0.0
 11
39.40702929352044
 21
130.341422513746
 31
0.0
210
0.0
220
0.0
230
1.0
 40
0.303083427851667
 41
0.0
 42
6.283185307179586
  0
ELLIPSE
  5
3A2
330
1F
100
AcDbEntity
  8
0
  6
ByBlock
 62
     5
100
AcDbEllipse
 10
1465.725725638856
 20
4538.20037057781
 30
0.0
 11
-29.71569972530387
 21
148.6508804886266
 31
0.0
210
0.0
220
0.0
230
1.0
 40
0.4353428210098136
 41
0.0
 42
6.283185307179586
  0
ELLIPSE
  5
3A3
330
1F
100
AcDbEntity
  8
0
  6
ByBlock
 62
     5
100
AcDbEllipse
 10
1553.909492404012
 20
4131.834563469539
 30
0.0
 11
-77.07968669581056
 21
110.4481609810201
 31
0.0
210
0.0
220
0.0
230
1.0
 40
0.288709271801599
 41
0.0
 42
6.283185307179586
  0
ELLIPSE
  5
3A4
330
1F
100
AcDbEntity
  8
0
  6
ByBlock
 62
     5
100
AcDbEllipse
 10
1796.447325862596
 20
4111.064965659543
 30
0.0
 11
-113.863051363775
 21
140.2851911391979
 31
0.0
210
0.0
220
0.0
230
1.0
 40
0.5221968904904117
 41
0.0
 42
6.283185307179586
  0
ELLIPSE
  5
3A5
330
1F
100
AcDbEntity
  8
0
  6
ByBlock
 62
     5
100
AcDbEllipse
 10
2186.77838002387
 20
4044.442830204935
 30
0.0
 11
-193.7654564405059
 21
68.74798407760732
 31
0.0
210
0.0
220
0.0
230
1.0
 40
0.5440066373474553
 41
0.0
 42
6.283185307179586
  0
ELLIPSE
  5
3A6
330
1F
100
AcDbEntity
  8
0
  6
ByBlock
 62
     5
100
AcDbEllipse
 10
2653.757031804504
 20
4061.186933002429
 30
0.0
 11
169.9010411010616
 21
112.0639435303044
 31
0.0
210
0.0
220
0.0
230
1.0
 40
0.5568978722914443
 41
0.0
 42
6.283185307179586
  0
ELLIPSE
  5
3A7
330
1F
100
AcDbEntity
  8
0
  6
ByBlock
 62
     5
100
AcDbEllipse
 10
3005.266061156917
 20
4149.209998736501
 30
0.0
 11
93.3070178491236
 21
107.9901300104488
 31
0.0
210
0.0
220
0.0
230
1.0
 40
0.5354660243915223
 41
0.0
 42
6.283185307179586
  0
ELLIPSE
  5
3A8
330
1F
100
AcDbEntity
  8
0
  6
ByBlock
 62
     5
100
AcDbEllipse
 10
3192.376109141159
 20
4192.234664913014
 30
0.0
 11
58.89337321020297
 21
110.5486988179686
 31
0.0
210
0.0
220
0.0
230
1.0
 40
0.26144072729172
 41
0.0
 42
6.283185307179586
  0
ELLIPSE
  5
3A9
330
1F
100
AcDbEntity
  8
0
  6
ByBlock
 62
     5
100
AcDbEllipse
 10
3267.539196631697
 20
4565.605442830976
 30
0.0
 11
6.596877617299009
 21
145.8356704925868
 31
0.0
210
0.0
220
0.0
230
1.0
 40
0.3537604843124105
 41
0.0
 42
6.283185307179586
  0
ELLIPSE
  5
3AA
330
1F
100
AcDbEntity
  8
0
  6
ByBlock
 62
     5
100
AcDbEllipse
 10
3270.027277857038
 20
4916.224966497042
 30
0.0
 11
-33.71856409894305
 21
135.6879972475071
 31
0.0
210
0.0
220
0.0
230
1.0
 40
0.4138706767487877
 41
0.0
 42
6.283185307179586
  0
ELLIPSE
  5
3AB
330
1F
100
AcDbEntity
  8
0
  6
ByBlock
 62
     5
100
AcDbEllipse
 10
3188.576704814725
 20
5211.924272110966
 30
0.0
 11
-55.68498463513196
 21
103.9780069292153
 31
0.0
210
0.0
220
0.0
230
1.0
 40
0.2466823892092328
 41
0.0
 42
6.283185307179586
  0
ELLIPSE
  5
3AC
330
1F
100
AcDbEntity
  8
0
  6
ByBlock
 62
     5
100
AcDbEllipse
 10
3317.715708043733
 20
5119.657105774289
 30
0.0
 11
-36.68355822643557
 21
81.44348679137273
 31
0.0
210
0.0
220
0.0
230
1.0
 40
0.2622464683705516
 41
0.0
 42
6.283185307179586
  0
ELLIPSE
  5
3AD
330
1F
100
AcDbEntity
  8
0
  6
ByBlock
 62
     5
100
AcDbEllipse
 10
3227.426230799132
 20
5335.244960566107
 30
0.0
 11
-41.82198944428201
 21
61.01927375360131
 31
0.0
210
0.0
220
0.0
230
1.0
 40
0.2300144578896312
 41
0.0
 42
6.283185307179586
  0
ELLIPSE
  5
3AE
330
1F
100
AcDbEntity
  8
0
  6
ByBlock
 62
     5
100
AcDbEllipse
 10
3080.982040256583
 20
5435.358453199595
 30
0.0
 11
-72.76995001399703
 21
64.94209731654305
 31
0.0
210
0.0
220
0.0
230
1.0
 40
0.1970703003731511
 41
0.0
 42
6.283185307179586
  0
ELLIPSE
  5
3AF
330
1F
100
AcDbEntity
  8
0
  6
ByBlock
 62
     5
100
AcDbEllipse
 10
2868.044514933384
 20
5530.708870824319
 30
0.0
 11
-98.22260194996275
 21
63.80041340552248
 31
0.0
210
0.0
220
0.0
230
1.0
 40
0.2933697983545421
 41
0.0
 42
6.283185307179586
  0
ELLIPSE
  5
3B0
330
1F
100
AcDbEntity
  8
0
  6
ByBlock
 62
     5
100
AcDbEllipse
 10
3086.755343603728
 20
3961.523089908068
 30
0.0
 11
71.662405769415
 21
80.44453484471693
 31
0.0
210
0.0
220
0.0
230
1.0
 40
0.2213818372616044
 41
0.0
 42
6.283185307179586
  0
ELLIPSE
  5
3B1
330
1F
100
AcDbEntity
  8
0
  6
ByBlock
 62
     5
100
AcDbEllipse
 10
2872.004474752904
 20
3861.590754196102
 30
0.0
 11
86.10654669277844
 21
61.627463918536
 31
0.0
210
0.0
220
0.0
230
1.0
 40
0.1938181643525248
 41
0.0
 42
6.283185307179586
  0
ELLIPSE
  5
3B2
330
1F
100
AcDbEntity
  8
0
  6
ByBlock
 62
     5
100
AcDbEllipse
 10
2574.084294670117
 20
3796.518868197791
 30
0.0
 11
-132.5221949667867
 21
-35.58888368465236
 31
0.0
210
0.0
220
0.0
230
1.0
 40
0.3066089566439664
 41
0.0
 42
6.283185307179586
  0
ELLIPSE
  5
3B3
330
1F
100
AcDbEntity
  8
0
  6
ByBlock
 62
     5
100
AcDbEllipse
 10
2220.388646424865
 20
3778.133525978586
 30
0.0
 11
-152.4490334985025
 21
18.87151031397178
 31
0.0
210
0.0
220
0.0
230
1.0
 40
0.3811912700872099
 41
0.0
 42
6.283185307179586
  0
ELLIPSE
  5
3B4
330
1F
100
AcDbEntity
  8
0
  6
ByBlock
 62
     5
100
AcDbEllipse
 10
1909.056122702736
 20
3821.863022596568
 30
0.0
 11
-110.3522930954383
 21
56.91880487214257
 31
0.0
210
0.0
220
0.0
230
1.0
 40
0.4410821753335441
 41
0.0
 42
6.283185307179586
  0
ELLIPSE
  5
3B5
330
1F
100
AcDbEntity
  8
0
  6
ByBlock
 62
     5
100
AcDbEllipse
 10
1659.091432944843
 20
3923.814302605248
 30
0.0
 11
-74.59516695614526
 21
64.70912547863938
 31
0.0
210
0.0
220
0.0
230
1.0
 40
0.3344100027016175
 41
0.0
 42
6.283185307179586
  0
ELLIPSE
  5
3B6
330
1F
100
AcDbEntity
  8
0
  6
ByBlock
 62
     5
100
AcDbEllipse
 10
1394.062076623276
 20
4237.74718107158
 30
0.0
 11
-37.13809837626469
 21
96.05616626829206
 31
0.0
210
0.0
220
0.0
230
1.0
 40
0.235418918048738
 41
0.0
 42
6.283185307179586
  0
ELLIPSE
  5
3B7
330
1F
100
AcDbEntity
  8
0
  6
ByBlock
 62
     5
100
AcDbEllipse
 10
1329.219417944202
 20
4523.040859727077
 30
0.0
 11
-15.97581997002094
 21
102.8346712872428
 31
0.0
210
0.0
220
0.0
230
1.0
 40
0.2779866383458314
 41
0.0
 42
6.283185307179586
  0
ELLIPSE
  5
3B8
330
1F
100
AcDbEntity
  8
0
  6
ByBlock
 62
     5
100
AcDbEllipse
 10
1246.55556049182
 20
4553.722074241341
 30
0.0
 11
-9.471178008814845
 21
86.0054601739324
 31
0.0
210
0.0
220
0.0
230
1.0
 40
0.1158070064022628
 41
0.0
 42
6.283185307179586
  0
ELLIPSE
  5
3B9
330
1F
100
AcDbEntity
  8
0
  6
ByBlock
 62
     5
100
AcDbEllipse
 10
1198.140494503358
 20
4570.883668990827
 30
0.0
 11
-6.310163491336243
 21
66.01638199142479
 31
0.0
210
0.0
220
0.0
230
1.0
 40
0.1563784438136715
 41
0.0
 42
6.283185307179586
  0
ELLIPSE
  5
3BA
330
1F
100
AcDbEntity
  8
0
  6
ByBlock
 62
     5
100
AcDbEllipse
 10
1137.681591971603
 20
4580.695897199961
 30
0.0
 11
-6.827620038006105
 21
71.40253091989852
 31
0.0
210
0.0
220
0.0
230
1.0
 40
0.1913596888316371
 41
0.0
 42
6.283185307179586
  0
ELLIPSE
  5
3BB
330
1F
100
AcDbEntity
  8
0
  6
ByBlock
 62
     5
100
AcDbEllipse
 10
1137.291002807092
 20
4793.042418351108
 30
0.0
 11
6.352058858797629
 21
67.95741166781768
 31
0.0
210
0.0
220
0.0
230
1.0
 40
0.2257766941950733
 41
0.0
 42
6.283185307179586
  0
ELLIPSE
  5
3BC
330
1F
100
AcDbEntity
  8
0
  6
ByBlock
 62
     5
100
AcDbEllipse
 10
1195.796561689612
 20
4805.347645904299
 30
0.0
 11
3.497135179372295
 21
64.96402948880181
 31
0.0
210
0.0
220
0.0
230
1.0
 40
0.2412206404908487
 41
0.0
 42
6.283185307179586
  0
ELLIPSE
  5
3BD
330
1F
100
AcDbEntity
  8
0
  6
ByBlock
 62
     5
100
AcDbEllipse
 10
1247.107863106154
 20
4829.180017651586
 30
0.0
 11
7.692597480390325
 21
78.62566364372084
 31
0.0
210
0.0
220
0.0
230
1.0
 40
0.1346767944400496
 41
0.0
 42
6.283185307179586
  0
ELLIPSE
  5
3BE
330
1F
100
AcDbEntity
  8
0
  6
ByBlock
 62
     5
100
AcDbEllipse
 10
1334.389438031213
 20
4856.970099007196
 30
0.0
 11
-6.99095696012442
 21
-106.54372979578
 31
0.0
210
0.0
220
0.0
230
1.0
 40
0.2582621847288014
 41
0.0
 42
6.283185307179586
  0
ELLIPSE
  5
3BF
330
1F
100
AcDbEntity
  8
0
  6
ByBlock
 62
     5
100
AcDbEllipse
 10
1154.810159104062
 20
4974.268295159972
 30
0.0
 11
8.874677080819211
 21
62.83543232078608
 31
0.0
210
0.0
220
0.0
230
1.0
 40
0.4533515984904931
 41
0.0
 42
6.283185307179586
  0
ELLIPSE
  5
3C0
330
1F
100
AcDbEntity
  8
0
  6
ByBlock
 62
     5
100
AcDbEllipse
 10
1228.873457597918
 20
5009.023425259702
 30
0.0
 11
11.70593220075282
 21
68.46156299491612
 31
0.0
210
0.0
220
0.0
230
1.0
 40
0.1814528793316688
 41
0.0
 42
6.283185307179586
  0
ELLIPSE
  5
3C1
330
1F
100
AcDbEntity
  8
0
  6
ByBlock
 62
     5
100
AcDbEllipse
 10
1305.570150255168
 20
5073.114989158622
 30
0.0
 11
22.89143150087414
 21
81.32848384932042
 31
0.0
210
0.0
220
0.0
230
1.0
 40
0.1711010891326035
 41
0.0
 42
6.283185307179586
  0
ELLIPSE
  5
3C2
330
1F
100
AcDbEntity
  8
0
  6
ByBlock
 62
     5
100
AcDbEllipse
 10
1401.684648040246
 20
5146.93600824474
 30
0.0
 11
40.40312843172968
 21
93.2354699266585
 31
0.0
210
0.0
220
0.0
230
1.0
 40
0.2152231425778756
 41
0.0
 42
6.283185307179586
  0
ELLIPSE
  5
3C3
330
1F
100
AcDbEntity
  8
0
  6
ByBlock
 62
     5
100
AcDbEllipse
 10
1194.216665425382
 20
5152.24226109738
 30
0.0
 11
15.72940229960545
 21
62.26804442373676
 31
0.0
210
0.0
220
0.0
230
1.0
 40
0.4191595557325264
 41
0.0
 42
6.283185307179586
  0
ELLIPSE
  5
3C4
330
1F
100
AcDbEntity
  8
0
  6
ByBlock
 62
     5
100
AcDbEllipse
 10
1281.48689639564
 20
5195.71799587719
 30
0.0
 11
27.02116920037505
 21
65.1024082379419
 31
0.0
210
0.0
220
0.0
230
1.0
 40
0.2494666634441065
 41
0.0
 42
6.283185307179586
  0
ELLIPSE
  5
3C5
330
1F
100
AcDbEntity
  8
0
  6
ByBlock
 62
     5
100
AcDbEllipse
 10
1379.068179679948
 20
5267.639807112264
 30
0.0
 11
28.90500657930999
 21
62.9502865777954
 31
0.0
210
0.0
220
0.0
230
1.0
 40
0.2274102495028145
 41
0.0
 42
6.283185307179586
  0
ELLIPSE
  5
3C6
330
1F
100
AcDbEntity
  8
0
  6
ByBlock
 62
     5
100
AcDbEllipse
 10
1490.258275684843
 20
5359.032089786719
 30
0.0
 11
48.845400074197
 21
64.11152196626978
 31
0.0
210
0.0
220
0.0
230
1.0
 40
0.3096975138843974
 41
0.0
 42
6.283185307179586
  0
ELLIPSE
  5
3C7
330
1F
100
AcDbEntity
  8
0
  6
ByBlock
 62
     5
100
AcDbEllipse
 10
1223.18086614227
 20
5312.640221508062
 30
0.0
 11
-22.49760055482821
 21
-55.69898566819505
 31
0.0
210
0.0
220
0.0
230
1.0
 40
0.4598810787565704
 41
0.0
 42
6.283185307179586
  0
ELLIPSE
  5
3C8
330
1F
100
AcDbEntity
  8
0
  6
ByBlock
 62
     5
100
AcDbEllipse
 10
1343.962240028691
 20
5351.4023358997
 30
0.0
 11
34.72185118773055
 21
55.31143594805527
 31
0.0
210
0.0
220
0.0
230
1.0
 40
0.3331379983693433
 41
0.0
 42
6.283185307179586
  0
ELLIPSE
  5
3C9
330
1F
100
AcDbEntity
  8
0
  6
ByBlock
 62
     5
100
AcDbEllipse
 10
1452.578246874619
 20
5423.423764929765
 30
0.0
 11
40.47566994540448
 21
53.69204540293528
 31
0.0
210
0.0
220
0.0
230
1.0
 40
0.263716288386496
 41
0.0
 42
6.283185307179586
  0
ELLIPSE
  5
3CA
330
1F
100
AcDbEntity
  8
0
  6
ByBlock
 62
     5
100
AcDbEllipse
 10
1587.831858185063
 20
5516.75101501449
 30
0.0
 11
52.7305481544056
 21
46.95662945410395
 31
0.0
210
0.0
220
0.0
230
1.0
 40
0.1700638761474046
 41
0.0
 42
6.283185307179586
  0
ELLIPSE
  5
3CB
330
1F
100
AcDbEntity
  8
0
  6
ByBlock
 62
     5
100
AcDbEllipse
 10
1527.102220312344
 20
5560.986354063683
 30
0.0
 11
41.09488244849577
 21
47.45199678055303
 31
0.0
210
0.0
220
0.0
230
1.0
 40
0.3274123394475073
 41
0.0
 42
6.283185307179586
  0
ELLIPSE
  5
3CC
330
1F
100
AcDbEntity
  8
0
  6
ByBlock
 62
     5
100
AcDbEllipse
 10
1665.372163317225
 20
5627.806700957252
 30
0.0
 11
54.22637914187446
 21
33.05260813981018
 31
0.0
210
0.0
220
0.0
230
1.0
 40
0.3535473790547119
 41
0.0
 42
6.283185307179586
  0
ELLIPSE
  5
3CD
330
1F
100
AcDbEntity
  8
0
  6
ByBlock
 62
     5
100
AcDbEllipse
 10
1756.968224410289
 20
5606.625054883251
 30
0.0
 11
82.72372600859805
 21
44.83153089768316
 31
0.0
210
0.0
220
0.0
230
1.0
 40
0.1862402022967121
 41
0.0
 42
6.283185307179586
  0
ELLIPSE
  5
3CE
330
1F
100
AcDbEntity
  8
0
  6
ByBlock
 62
     5
100
AcDbEllipse
 10
1825.793895748561
 20
5697.766555318931
 30
0.0
 11
59.49521955473197
 21
25.88771971010214
 31
0.0
210
0.0
220
0.0
230
1.0
 40
0.35043873692175
 41
0.0
 42
6.283185307179586
  0
ELLIPSE
  5
3CF
330
1F
100
AcDbEntity
  8
0
  6
ByBlock
 62
     5
100
AcDbEllipse
 10
1981.43570131762
 20
5689.483740095186
 30
0.0
 11
96.42305820322732
 21
25.91513718338954
 31
0.0
210
0.0
220
0.0
230
1.0
 40
0.1847623395320464
 41
0.0
 42
6.283185307179586
  0
ELLIPSE
  5
3D0
330
1F
100
AcDbEntity
  8
0
  6
ByBlock
 62
     5
100
AcDbEllipse
 10
2250.421555089998
 20
5734.806379042449
 30
0.0
 11
102.6814337051417
 21
10.78364902161665
 31
0.0
210
0.0
220
0.0
230
1.0
 40
0.1904372857436904
 41
0.0
 42
6.283185307179586
  0
ELLIPSE
  5
3D1
330
1F
100
AcDbEntity
  8
0
  6
ByBlock
 62
     5
100
AcDbEllipse
 10
2257.761112378926
 20
5791.715822897774
 30
0.0
 11
83.40942128592866
 21
9.564993800412862
 31
0.0
210
0.0
220
0.0
230
1.0
 40
0.1441188546046541
 41
0.0
 42
6.283185307179586
  0
ELLIPSE
  5
3D2
330
1F
100
AcDbEntity
  8
0
  6
ByBlock
 62
     5
100
AcDbEllipse
 10
2262.720276678317
 20
5840.369876666409
 30
0.0
 11
64.8681452541645
 21
5.294266127426402
 31
0.0
210
0.0
220
0.0
230
1.0
 40
0.2520652065604509
 41
0.0
 42
6.283185307179586
  0
ELLIPSE
  5
3D3
330
1F
100
AcDbEntity
  8
0
  6
ByBlock
 62
     5
100
AcDbEllipse
 10
2276.294823733218
 20
5907.608994062983
 30
0.0
 11
58.62179284919005
 21
7.282026690386116
 31
0.0
210
0.0
220
0.0
230
1.0
 40
0.2456480515250224
 41
0.0
 42
6.283185307179586
  0
ELLIPSE
  5
3D4
330
1F
100
AcDbEntity
  8
0
  6
ByBlock
 62
     5
100
AcDbEllipse
 10
2451.869493177424
 20
5911.168546637551
 30
0.0
 11
57.06361775045691
 21
-5.650605200536229
 31
0.0
210
0.0
220
0.0
230
1.0
 40
0.2497416843977626
 41
0.0
 42
6.283185307179586
  0
ELLIPSE
  5
3D5
330
1F
100
AcDbEntity
  8
0
  6
ByBlock
 62
     5
100
AcDbEllipse
 10
2474.137115940817
 20
5843.938148340036
 30
0.0
 11
63.97727054756871
 21
-4.977616259089209
 31
0.0
210
0.0
220
0.0
230
1.0
 40
0.2029037836332285
 41
0.0
 42
6.283185307179586
  0
ELLIPSE
  5
3D6
330
1F
100
AcDbEntity
  8
0
  6
ByBlock
 62
     5
100
AcDbEllipse
 10
2493.047359163699
 20
5789.038944959064
 30
0.0
 11
76.4288297911009
 21
-7.935033030957633
 31
0.0
210
0.0
220
0.0
230
1.0
 40
0.1694492361698267
 41
0.0
 42
6.283185307179586
  0
ELLIPSE
  5
3D7
330
1F
100
AcDbEntity
  8
0
  6
ByBlock
 62
     5
100
AcDbEllipse
 10
2514.344738331042
 20
5721.697289365822
 30
0.0
 11
95.08189768447072
 21
-18.60021742049883
 31
0.0
210
0.0
220
0.0
230
1.0
 40
0.1940694864266513
 41
0.0
 42
6.283185307179586
  0
ELLIPSE
  5
3D8
330
1F
100
AcDbEntity
  8
0
  6
ByBlock
 62
     5
100
AcDbEllipse
 10
2626.431702830466
 20
5898.344446757523
 30
0.0
 11
-62.67374970749212
 21
12.49052332500803
 31
0.0
210
0.0
220
0.0
230
1.0
 40
0.2689116917033667
 41
0.0
 42
6.283185307179586
  0
ELLIPSE
  5
3D9
330
1F
100
AcDbEntity
  8
0
  6
ByBlock
 62
     5
100
AcDbEllipse
 10
2664.95942956675
 20
5817.850519715716
 30
0.0
 11
-59.75027827108376
 21
10.01633360372934
 31
0.0
210
0.0
220
0.0
230
1.0
 40
0.2371248649536689
 41
0.0
 42
6.283185307179586
  0
ELLIPSE
  5
3DA
330
1F
100
AcDbEntity
  8
0
  6
ByBlock
 62
     5
100
AcDbEllipse
 10
2709.800299391501
 20
5752.773878402257
 30
0.0
 11
-70.171917353324
 21
19.94360674022159
 31
0.0
210
0.0
220
0.0
230
1.0
 40
0.239007686230385
 41
0.0
 42
6.283185307179586
  0
ELLIPSE
  5
3DB
330
1F
100
AcDbEntity
  8
0
  6
ByBlock
 62
     5
100
AcDbEllipse
 10
2769.847568579965
 20
5664.668133517363
 30
0.0
 11
-90.13336662394808
 21
37.42957129581661
 31
0.0
210
0.0
220
0.0
230
1.0
 40
0.2146224192819104
 41
0.0
 42
6.283185307179586
  0
ELLIPSE
  5
3DC
330
1F
100
AcDbEntity
  8
0
  6
ByBlock
 62
     5
100
AcDbEllipse
 10
2845.752527257894
 20
5771.073576782397
 30
0.0
 11
-54.73177659154354
 21
26.16587490332721
 31
0.0
210
0.0
220
0.0
230
1.0
 40
0.2404801829457879
 41
0.0
 42
6.283185307179586
  0
ELLIPSE
  5
3DD
330
1F
100
AcDbEntity
  8
0
  6
ByBlock
 62
     5
100
AcDbEllipse
 10
2907.972427290691
 20
5680.051279908379
 30
0.0
 11
-55.93034839700488
 21
30.46571064418805
 31
0.0
210
0.0
220
0.0
230
1.0
 40
0.2223404434071661
 41
0.0
 42
6.283185307179586
  0
ELLIPSE
  5
3DE
330
1F
100
AcDbEntity
  8
0
  6
ByBlock
 62
     5
100
AcDbEllipse
 10
2979.006493326321
 20
5581.543146996575
 30
0.0
 11
-53.55921543963813
 21
40.46567557024149
 31
0.0
210
0.0
220
0.0
230
1.0
 40
0.1404265042974846
 41
0.0
 42
6.283185307179586
  0
ELLIPSE
  5
3DF
330
1F
100
AcDbEntity
  8
0
  6
ByBlock
 62
     5
100
AcDbEllipse
 10
3136.040840776463
 20
5493.033343261624
 30
0.0
 11
-40.87171258864092
 21
43.25274478523524
 31
0.0
210
0.0
220
0.0
230
1.0
 40
0.2802603606600431
 41
0.0
 42
6.283185307179586
  0
ELLIPSE
  5
3E0
330
1F
100
AcDbEntity
  8
0
  6
ByBlock
 62
     5
100
AcDbEllipse
 10
3066.776368029926
 20
5614.227405867247
 30
0.0
 11
-46.10823498043662
 21
36.86947536333633
 31
0.0
210
0.0
220
0.0
230
1.0
 40
0.3036051661616558
 41
0.0
 42
6.283185307179586
  0
ELLIPSE
  5
3E1
330
1F
100
AcDbEntity
  8
0
  6
ByBlock
 62
     5
100
AcDbEllipse
 10
3257.002465078783
 20
5421.609693795692
 30
0.0
 11
-36.59073121297522
 21
48.01920447308982
 31
0.0
210
0.0
220
0.0
230
1.0
 40
0.315319615189199
 41
0.0
 42
6.283185307179586
  0
ELLIPSE
  5
3E2
330
1F
100
AcDbEntity
  8
0
  6
ByBlock
 62
     5
100
AcDbEllipse
 10
3325.230927457365
 20
5270.577266018825
 30
0.0
 11
-23.28231874634612
 21
55.60847128493008
 31
0.0
210
0.0
220
0.0
230
1.0
 40
0.1985293418733813
 41
0.0
 42
6.283185307179586
  0
ELLIPSE
  5
3E3
330
1F
100
AcDbEntity
  8
0
  6
ByBlock
 62
     5
100
AcDbEllipse
 10
3400.101551354806
 20
5060.526576449258
 30
0.0
 11
-7.274923276907476
 21
68.71266836216633
 31
0.0
210
0.0
220
0.0
230
1.0
 40
0.2392518121463226
 41
0.0
 42
6.283185307179586
  0
ELLIPSE
  5
3E4
330
1F
100
AcDbEntity
  8
0
  6
ByBlock
 62
     5
100
AcDbEllipse
 10
3378.54324785946
 20
4862.392404588811
 30
0.0
 11
-10.84597511544354
 21
104.410412707092
 31
0.0
210
0.0
220
0.0
230
1.0
 40
0.2620748267208021
 41
0.0
 42
6.283185307179586
  0
ELLIPSE
  5
3E5
330
1F
100
AcDbEntity
  8
0
  6
ByBlock
 62
     5
100
AcDbEllipse
 10
3441.227959323646
 20
4845.310373522594
 30
0.0
 11
-7.261947981275177
 21
72.54215233585732
 31
0.0
210
0.0
220
0.0
230
1.0
 40
0.173713962708749
 41
0.0
 42
6.283185307179586
  0
ELLIPSE
  5
3E6
330
1F
100
AcDbEntity
  8
0
  6
ByBlock
 62
     5
100
AcDbEllipse
 10
3496.827842957472
 20
4821.128508289066
 30
0.0
 11
-1.447106912476637
 21
60.33498637062582
 31
0.0
210
0.0
220
0.0
230
1.0
 40
0.2611304814372043
 41
0.0
 42
6.283185307179586
  0
ELLIPSE
  5
3E7
330
1F
100
AcDbEntity
  8
0
  6
ByBlock
 62
     5
100
AcDbEllipse
 10
3567.234619928991
 20
4798.103542808037
 30
0.0
 11
-1.614294804223766
 21
67.3056386997152
 31
0.0
210
0.0
220
0.0
230
1.0
 40
0.2254746079722806
 41
0.0
 42
6.283185307179586
  0
ELLIPSE
  5
3E8
330
1F
100
AcDbEntity
  8
0
  6
ByBlock
 62
     5
100
AcDbEllipse
 10
3378.917028027908
 20
4554.216662796959
 30
0.0
 11
14.29005061731943
 21
100.5952595088894
 31
0.0
210
0.0
220
0.0
230
1.0
 40
0.2196972007090087
 41
0.0
 42
6.283185307179586
  0
ELLIPSE
  5
3E9
330
1F
100
AcDbEntity
  8
0
  6
ByBlock
 62
     5
100
AcDbEllipse
 10
3445.330317465328
 20
4579.302791969943
 30
0.0
 11
13.61550538010314
 21
79.97106533680515
 31
0.0
210
0.0
220
0.0
230
1.0
 40
0.1738378221284869
 41
0.0
 42
6.283185307179586
  0
ELLIPSE
  5
3EA
330
1F
100
AcDbEntity
  8
0
  6
ByBlock
 62
     5
100
AcDbEllipse
 10
3500.968113475408
 20
4597.766838750491
 30
0.0
 11
7.626385150532155
 21
68.89966473120022
 31
0.0
210
0.0
220
0.0
230
1.0
 40
0.236752385202036
 41
0.0
 42
6.283185307179586
  0
ELLIPSE
  5
3EB
330
1F
100
AcDbEntity
  8
0
  6
ByBlock
 62
     5
100
AcDbEllipse
 10
3570.884163009993
 20
4610.770220506902
 30
0.0
 11
9.573829461470916
 21
72.94843244106592
 31
0.0
210
0.0
220
0.0
230
1.0
 40
0.2393400326621644
 41
0.0
 42
6.283185307179586
  0
ELLIPSE
  5
3EC
330
1F
100
AcDbEntity
  8
0
  6
ByBlock
 62
     5
100
AcDbEllipse
 10
3666.933379076641
 20
4616.440050191759
 30
0.0
 11
11.2532092856702
 21
58.50629639872912
 31
0.0
210
0.0
220
0.0
230
1.0
 40
0.582618998663893
 41
0.0
 42
6.283185307179586
  0
ELLIPSE
  5
3ED
330
1F
100
AcDbEntity
  8
0
  6
ByBlock
 62
     5
100
AcDbEllipse
 10
3551.789652441295
 20
4425.500100031512
 30
0.0
 11
11.40260580935273
 21
70.3553498892873
 31
0.0
210
0.0
220
0.0
230
1.0
 40
0.3147535650954178
 41
0.0
 42
6.283185307179586
  0
ELLIPSE
  5
3EE
330
1F
100
AcDbEntity
  8
0
  6
ByBlock
 62
     5
100
AcDbEllipse
 10
3474.045034885378
 20
4392.332213294831
 30
0.0
 11
13.37231724155585
 21
66.1976577543928
 31
0.0
210
0.0
220
0.0
230
1.0
 40
0.1660896333182686
 41
0.0
 42
6.283185307179586
  0
ELLIPSE
  5
3EF
330
1F
100
AcDbEntity
  8
0
  6
ByBlock
 62
     5
100
AcDbEllipse
 10
3406.79228079907
 20
4350.538930935059
 30
0.0
 11
18.59828419661712
 21
82.20823510530138
 31
0.0
210
0.0
220
0.0
230
1.0
 40
0.2328911246664755
 41
0.0
 42
6.283185307179586
  0
ELLIPSE
  5
3F0
330
1F
100
AcDbEntity
  8
0
  6
ByBlock
 62
     5
100
AcDbEllipse
 10
3318.274002153297
 20
4279.268417759836
 30
0.0
 11
33.9498074881286
 21
85.37971722159609
 31
0.0
210
0.0
220
0.0
230
1.0
 40
0.2618220124889161
 41
0.0
 42
6.283185307179586
  0
ELLIPSE
  5
3F1
330
1F
100
AcDbEntity
  8
0
  6
ByBlock
 62
     5
100
AcDbEllipse
 10
3338.579979878822
 20
4146.441691376479
 30
0.0
 11
33.05012586314866
 21
66.82334176289181
 31
0.0
210
0.0
220
0.0
230
1.0
 40
0.2044652521129287
 41
0.0
 42
6.283185307179586
  0
ELLIPSE
  5
3F2
330
1F
100
AcDbEntity
  8
0
  6
ByBlock
 62
     5
100
AcDbEllipse
 10
3240.948191590055
 20
4075.298889004399
 30
0.0
 11
40.84489771434412
 21
69.31904852808836
 31
0.0
210
0.0
220
0.0
230
1.0
 40
0.2526031346795805
 41
0.0
 42
6.283185307179586
  0
ELLIPSE
  5
3F3
330
1F
100
AcDbEntity
  8
0
  6
ByBlock
 62
     5
100
AcDbEllipse
 10
1150.798813295813
 20
4400.459853313008
 30
0.0
 11
-12.47530808727308
 21
70.59233715175627
 31
0.0
210
0.0
220
0.0
230
1.0
 40
0.2136767104470379
 41
0.0
 42
6.283185307179586
  0
ELLIPSE
  5
3F4
330
1F
100
AcDbEntity
  8
0
  6
ByBlock
 62
     5
100
AcDbEllipse
 10
1228.864790871289
 20
4362.972777595216
 30
0.0
 11
-9.491598042125261
 21
70.26448871857816
 31
0.0
210
0.0
220
0.0
230
1.0
 40
0.1965483606582019
 41
0.0
 42
6.283185307179586
  0
ELLIPSE
  5
3F5
330
1F
100
AcDbEntity
  8
0
  6
ByBlock
 62
     5
100
AcDbEllipse
 10
1299.190804632963
 20
4301.968867331964
 30
0.0
 11
-24.93015539792243
 21
74.63083019096751
 31
0.0
210
0.0
220
0.0
230
1.0
 40
0.229002388987614
 41
0.0
 42
6.283185307179586
  0
ELLIPSE
  5
3F6
330
1F
100
AcDbEntity
  8
0
  6
ByBlock
 62
     5
100
AcDbEllipse
 10
1371.800435025901
 20
4113.040216286934
 30
0.0
 11
-31.32648130441236
 21
63.71345663275078
 31
0.0
210
0.0
220
0.0
230
1.0
 40
0.2094456000821935
 41
0.0
 42
6.283185307179586
  0
ELLIPSE
  5
3F7
330
1F
100
AcDbEntity
  8
0
  6
ByBlock
 62
     5
100
AcDbEllipse
 10
1486.104468826642
 20
4017.478254883443
 30
0.0
 11
-45.00194188796654
 21
62.64744693304742
 31
0.0
210
0.0
220
0.0
230
1.0
 40
0.2712117142286528
 41
0.0
 42
6.283185307179586
  0
ELLIPSE
  5
3F8
330
1F
100
AcDbEntity
  8
0
  6
ByBlock
 62
     5
100
AcDbEllipse
 10
1187.32565107217
 20
4218.92565478713
 30
0.0
 11
-14.04577531883017
 21
68.3351760641726
 31
0.0
210
0.0
220
0.0
230
1.0
 40
0.3145489794543486
 41
0.0
 42
6.283185307179586
  0
ELLIPSE
  5
3F9
330
1F
100
AcDbEntity
  8
0
  6
ByBlock
 62
     5
100
AcDbEllipse
 10
1222.115285092209
 20
4053.373104869534
 30
0.0
 11
-28.98705152913457
 21
51.40535391930097
 31
0.0
210
0.0
220
0.0
230
1.0
 40
0.4979992973882075
 41
0.0
 42
6.283185307179586
  0
ELLIPSE
  5
3FA
330
1F
100
AcDbEntity
  8
0
  6
ByBlock
 62
     5
100
AcDbEllipse
 10
1252.502223866963
 20
3898.872657790408
 30
0.0
 11
-36.25931500717012
 21
43.58366039324773
 31
0.0
210
0.0
220
0.0
230
1.0
 40
0.6510277591366296
 41
0.0
 42
6.283185307179586
  0
ELLIPSE
  5
3FB
330
1F
100
AcDbEntity
  8
0
  6
ByBlock
 62
     5
100
AcDbEllipse
 10
1429.928837791086
 20
3725.335714792762
 30
0.0
 11
-40.6322893950914
 21
32.32787582125639
 31
0.0
210
0.0
220
0.0
230
1.0
 40
0.5030912564952694
 41
0.0
 42
6.283185307179586
  0
ELLIPSE
  5
3FC
330
1F
100
AcDbEntity
  8
0
  6
ByBlock
 62
     5
100
AcDbEllipse
 10
1574.750885036309
 20
3689.425581992285
 30
0.0
 11
-47.10366806483726
 21
31.09920307398131
 31
0.0
210
0.0
220
0.0
230
1.0
 40
0.5007462617892142
 41
0.0
 42
6.283185307179586
  0
ELLIPSE
  5
3FD
330
1F
100
AcDbEntity
  8
0
  6
ByBlock
 62
     5
100
AcDbEllipse
 10
1725.303236725945
 20
3642.409412610599
 30
0.0
 11
-49.19097957025334
 21
30.0152417394502
 31
0.0
210
0.0
220
0.0
230
1.0
 40
0.363604351229517
 41
0.0
 42
6.283185307179586
  0
ELLIPSE
  5
3FE
330
1F
100
AcDbEntity
  8
0
  6
ByBlock
 62
     5
100
AcDbEllipse
 10
1881.775489641805
 20
3599.279940119695
 30
0.0
 11
-50.81075982798033
 21
14.87373391472851
 31
0.0
210
0.0
220
0.0
230
1.0
 40
0.488991052941188
 41
0.0
 42
6.283185307179586
  0
ELLIPSE
  5
3FF
330
1F
100
AcDbEntity
  8
0
  6
ByBlock
 62
     5
100
AcDbEllipse
 10
2067.334464256187
 20
3562.219339360747
 30
0.0
 11
-59.28143867419259
 21
12.76133145203804
 31
0.0
210
0.0
220
0.0
230
1.0
 40
0.2671436389336192
 41
0.0
 42
6.283185307179586
  0
ELLIPSE
  5
400
330
1F
100
AcDbEntity
  8
0
  6
ByBlock
 62
     5
100
AcDbEllipse
 10
2267.687922352082
 20
3538.817424728644
 30
0.0
 11
-63.91468415198963
 21
2.826546301675836
 31
0.0
210
0.0
220
0.0
230
1.0
 40
0.2924554808146212
 41
0.0
 42
6.283185307179586
  0
ELLIPSE
  5
401
330
1F
100
AcDbEntity
  8
0
  6
ByBlock
 62
     5
100
AcDbEllipse
 10
2264.720347472467
 20
3590.686720592825
 30
0.0
 11
-84.94775344639858
 21
6.996037268866644
 31
0.0
210
0.0
220
0.0
230
1.0
 40
0.1915962202456376
 41
0.0
 42
6.283185307179586
  0
ELLIPSE
  5
402
330
1F
100
AcDbEntity
  8
0
  6
ByBlock
 62
     5
100
AcDbEllipse
 10
2272.180794335859
 20
3643.508914052578
 30
0.0
 11
-88.02550815043861
 21
5.364698006086319
 31
0.0
210
0.0
220
0.0
230
1.0
 40
0.1979108697956614
 41
0.0
 42
6.283185307179586
  0
ELLIPSE
  5
403
330
1F
100
AcDbEntity
  8
0
  6
ByBlock
 62
     5
100
AcDbEllipse
 10
2521.213963968418
 20
3662.498494926725
 30
0.0
 11
-99.35189196846126
 21
-19.00725976237953
 31
0.0
210
0.0
220
0.0
230
1.0
 40
0.1582153631471375
 41
0.0
 42
6.283185307179586
  0
ELLIPSE
  5
404
330
1F
100
AcDbEntity
  8
0
  6
ByBlock
 62
     5
100
AcDbEllipse
 10
2784.291504606198
 20
3725.421635602535
 30
0.0
 11
-91.68968546807693
 21
-37.20120383114021
 31
0.0
210
0.0
220
0.0
230
1.0
 40
0.2153688337517072
 41
0.0
 42
6.283185307179586
  0
ELLIPSE
  5
405
330
1F
100
AcDbEntity
  8
0
  6
ByBlock
 62
     5
100
AcDbEllipse
 10
2717.984448356235
 20
3642.138448923901
 30
0.0
 11
-74.01962074663081
 21
-26.64621151596533
 31
0.0
210
0.0
220
0.0
230
1.0
 40
0.1767751041088455
 41
0.0
 42
6.283185307179586
  0
ELLIPSE
  5
406
330
1F
100
AcDbEntity
  8
0
  6
ByBlock
 62
     5
100
AcDbEllipse
 10
2503.603147538584
 20
3598.942795989585
 30
0.0
 11
77.11633952957384
 21
8.387812715549497
 31
0.0
210
0.0
220
0.0
230
1.0
 40
0.2065404786270756
 41
0.0
 42
6.283185307179586
  0
ELLIPSE
  5
407
330
1F
100
AcDbEntity
  8
0
  6
ByBlock
 62
     5
100
AcDbEllipse
 10
2486.472983930989
 20
3539.380788952702
 30
0.0
 11
64.96200106830335
 21
1.558083732990184
 31
0.0
210
0.0
220
0.0
230
1.0
 40
0.2566668180567195
 41
0.0
 42
6.283185307179586
  0
ELLIPSE
  5
408
330
1F
100
AcDbEntity
  8
0
  6
ByBlock
 62
     5
100
AcDbEllipse
 10
2470.247745227026
 20
3476.228557926309
 30
0.0
 11
60.48439272101223
 21
6.531235222674379
 31
0.0
210
0.0
220
0.0
230
1.0
 40
0.1949965895040869
 41
0.0
 42
6.283185307179586
  0
ELLIPSE
  5
409
330
1F
100
AcDbEntity
  8
0
  6
ByBlock
 62
     5
100
AcDbEllipse
 10
2642.995499906611
 20
3492.128524762905
 30
0.0
 11
-58.40731842514061
 21
-9.076256598190969
 31
0.0
210
0.0
220
0.0
230
1.0
 40
0.2509770058267414
 41
0.0
 42
6.283185307179586
  0
ELLIPSE
  5
40A
330
1F
100
AcDbEntity
  8
0
  6
ByBlock
 62
     5
100
AcDbEllipse
 10
2682.117304044878
 20
3568.797378520188
 30
0.0
 11
-65.98491920483915
 21
-13.35155108021606
 31
0.0
210
0.0
220
0.0
230
1.0
 40
0.2127573117786709
 41
0.0
 42
6.283185307179586
  0
ELLIPSE
  5
40B
330
1F
100
AcDbEntity
  8
0
  6
ByBlock
 62
     5
100
AcDbEllipse
 10
2860.803858293629
 20
3621.719057743039
 30
0.0
 11
-61.77425211811928
 21
-28.18352270562993
 31
0.0
210
0.0
220
0.0
230
1.0
 40
0.285261864073314
 41
0.0
 42
6.283185307179586
  0
ELLIPSE
  5
40C
330
1F
100
AcDbEntity
  8
0
  6
ByBlock
 62
     5
100
AcDbEllipse
 10
2914.264189641807
 20
3714.688560568082
 30
0.0
 11
-58.21215061492457
 21
-29.06322715312127
 31
0.0
210
0.0
220
0.0
230
1.0
 40
0.2866987177398145
 41
0.0
 42
6.283185307179586
  0
ELLIPSE
  5
40D
330
1F
100
AcDbEntity
  8
0
  6
ByBlock
 62
     5
100
AcDbEllipse
 10
3013.672231984529
 20
3663.667649017209
 30
0.0
 11
48.89465138340213
 21
31.51166964769549
 31
0.0
210
0.0
220
0.0
230
1.0
 40
0.3737653853337984
 41
0.0
 42
6.283185307179586
  0
ELLIPSE
  5
40E
330
1F
100
AcDbEntity
  8
0
  6
ByBlock
 62
     5
100
AcDbEllipse
 10
3159.935008183181
 20
3708.684130807511
 30
0.0
 11
47.31376010846475
 21
35.36211141899674
 31
0.0
210
0.0
220
0.0
230
1.0
 40
0.5424640587864768
 41
0.0
 42
6.283185307179586
  0
ELLIPSE
  5
40F
330
1F
100
AcDbEntity
  8
0
  6
ByBlock
 62
     5
100
AcDbEllipse
 10
3209.365787593736
 20
3842.663592515837
 30
0.0
 11
43.17631374526345
 21
46.99299899195842
 31
0.0
210
0.0
220
0.0
230
1.0
 40
0.3238680594074435
 41
0.0
 42
6.283185307179586
  0
ELLIPSE
  5
410
330
1F
100
AcDbEntity
  8
0
  6
ByBlock
 62
     5
100
AcDbEllipse
 10
1600.263234219951
 20
3845.191295089067
 30
0.0
 11
-35.3417101227165
 21
31.97944507271564
 31
0.0
210
0.0
220
0.0
230
1.0
 40
0.3364644009971787
 41
0.0
 42
6.283185307179586
  0
ELLIPSE
  5
411
330
1F
100
AcDbEntity
  8
0
  6
ByBlock
 62
     5
100
AcDbEllipse
 10
1751.554304541147
 20
3772.228394852578
 30
0.0
 11
-77.56056498354566
 21
41.11558893343704
 31
0.0
210
0.0
220
0.0
230
1.0
 40
0.2146579651138269
 41
0.0
 42
6.283185307179586
  0
ELLIPSE
  5
412
330
1F
100
AcDbEntity
  8
0
  6
ByBlock
 62
     5
100
AcDbEllipse
 10
2017.321153226193
 20
5756.75612410811
 30
0.0
 11
79.47304451848596
 21
18.74425741564697
 31
0.0
210
0.0
220
0.0
230
1.0
 40
0.2123786503961542
 41
0.0
 42
6.283185307179586
  0
ELLIPSE
  5
413
330
1F
100
AcDbEntity
  8
0
  6
ByBlock
 62
     5
100
AcDbEllipse
 10
2065.422680091521
 20
5820.859418685453
 30
0.0
 11
-66.37606708722294
 21
-10.06537187324763
 31
0.0
210
0.0
220
0.0
230
1.0
 40
0.2433425661782091
 41
0.0
 42
6.283185307179586
  0
ELLIPSE
  5
414
330
1F
100
AcDbEntity
  8
0
  6
ByBlock
 62
     5
100
AcDbEllipse
 10
2104.238657537267
 20
5892.16352398702
 30
0.0
 11
60.35280715436182
 21
14.05372557309019
 31
0.0
210
0.0
220
0.0
230
1.0
 40
0.2647695296777961
 41
0.0
 42
6.283185307179586
  0
ELLIPSE
  5
415
330
1F
100
AcDbEntity
  8
0
  6
ByBlock
 62
     5
100
AcDbEllipse
 10
1931.019244806347
 20
5870.991701904543
 30
0.0
 11
57.66919073305071
 21
16.13982499425913
 31
0.0
210
0.0
220
0.0
230
1.0
 40
0.4367027504589199
 41
0.0
 42
6.283185307179586
  0
ELLIPSE
  5
416
330
1F
100
AcDbEntity
  8
0
  6
ByBlock
 62
     5
100
AcDbEllipse
 10
1888.426094281313
 20
5778.13629665659
 30
0.0
 11
55.25437923880216
 21
18.61559959144753
 31
0.0
210
0.0
220
0.0
230
1.0
 40
0.2931100166787016
 41
0.0
 42
6.283185307179586
  0
ELLIPSE
  5
417
330
1F
100
AcDbEntity
  8
0
  6
ByBlock
 62
     5
100
AcDbEllipse
 10
1726.09133075981
 20
5729.393728536903
 30
0.0
 11
48.32254589206294
 21
26.90603132289562
 31
0.0
210
0.0
220
0.0
230
1.0
 40
0.3336610372565816
 41
0.0
 42
6.283185307179586
  0
ELLIPSE
  5
418
330
1F
100
AcDbEntity
  8
0
  6
ByBlock
 62
     5
100
AcDbEllipse
 10
1569.75846468458
 20
5686.925259836542
 30
0.0
 11
44.42881832588735
 21
38.1420391790337
 31
0.0
210
0.0
220
0.0
230
1.0
 40
0.4381051241821287
 41
0.0
 42
6.283185307179586
  0
ELLIPSE
  5
419
330
1F
100
AcDbEntity
  8
0
  6
ByBlock
 62
     5
100
AcDbEllipse
 10
1426.73388306849
 20
5635.390964580914
 30
0.0
 11
38.41879076350167
 21
33.95873156803083
 31
0.0
210
0.0
220
0.0
230
1.0
 40
0.6145698097229421
 41
0.0
 42
6.283185307179586
  0
ELLIPSE
  5
41A
330
1F
100
AcDbEntity
  8
0
  6
ByBlock
 62
     5
100
AcDbEllipse
 10
1392.850442144235
 20
5505.003880996472
 30
0.0
 11
35.52632031938336
 21
42.39424103086349
 31
0.0
210
0.0
220
0.0
230
1.0
 40
0.4988111287002814
 41
0.0
 42
6.283185307179586
  0
ELLIPSE
  5
41B
330
1F
100
AcDbEntity
  8
0
  6
ByBlock
 62
     5
100
AcDbEllipse
 10
1761.061858627975
 20
5837.801806074828
 30
0.0
 11
58.30545520579676
 21
19.57416926190929
 31
0.0
210
0.0
220
0.0
230
1.0
 40
0.4988034930708462
 41
0.0
 42
6.283185307179586
  0
ELLIPSE
  5
41C
330
1F
100
AcDbEntity
  8
0
  6
ByBlock
 62
     5
100
AcDbEllipse
 10
1614.812417814509
 20
5803.493609580826
 30
0.0
 11
43.75981183236503
 21
32.05029861015378
 31
0.0
210
0.0
220
0.0
230
1.0
 40
0.6394089668826796
 41
0.0
 42
6.283185307179586
  0
ELLIPSE
  5
41D
330
1F
100
AcDbEntity
  8
0
  6
ByBlock
 62
     5
100
AcDbEllipse
 10
1449.874591163855
 20
5795.537365135184
 30
0.0
 11
41.38645203949439
 21
39.91248876206889
 31
0.0
210
0.0
220
0.0
230
1.0
 40
0.7288905118975753
 41
0.0
 42
6.283185307179586
  0
ELLIPSE
  5
41E
330
1F
100
AcDbEntity
  8
0
  6
ByBlock
 62
     5
100
AcDbEllipse
 10
1299.869434383378
 20
5781.639264805353
 30
0.0
 11
31.14552979300119
 21
46.04316095617484
 31
0.0
210
0.0
220
0.0
230
1.0
 40
0.8567885400747204
 41
0.0
 42
6.283185307179586
  0
ELLIPSE
  5
41F
330
1F
100
AcDbEntity
  8
0
  6
ByBlock
 62
     5
100
AcDbEllipse
 10
1133.289909930202
 20
5778.13080791275
 30
0.0
 11
-54.04509918236442
 21
-1.296246859688713
 31
0.0
210
0.0
220
0.0
230
1.0
 40
0.9993830074401456
 41
0.0
 42
6.283185307179586
  0
ELLIPSE
  5
420
330
1F
100
AcDbEntity
  8
0
  6
ByBlock
 62
     5
100
AcDbEllipse
 10
1133.756837589027
 20
5610.672095017128
 30
0.0
 11
-60.62398226769546
 21
-1.454038346218214
 31
0.0
210
0.0
220
0.0
230
1.0
 40
0.8833829335843651
 41
0.0
 42
6.283185307179586
  0
ELLIPSE
  5
421
330
1F
100
AcDbEntity
  8
0
  6
ByBlock
 62
     5
100
AcDbEllipse
 10
1282.285951997591
 20
5627.766058474922
 30
0.0
 11
36.23288845258878
 21
47.4176146107529
 31
0.0
210
0.0
220
0.0
230
1.0
 40
0.6229628793910452
 41
0.0
 42
6.283185307179586
  0
ELLIPSE
  5
422
330
1F
100
AcDbEntity
  8
0
  6
ByBlock
 62
     5
100
AcDbEllipse
 10
1113.391871614397
 20
5446.351881424194
 30
0.0
 11
-1.257867689715928
 21
52.4449363490179
 31
0.0
210
0.0
220
0.0
230
1.0
 40
0.800494661949159
 41
0.0
 42
6.283185307179586
  0
ELLIPSE
  5
423
330
1F
100
AcDbEntity
  8
0
  6
ByBlock
 62
     5
100
AcDbEllipse
 10
1253.623342777923
 20
5470.705281890698
 30
0.0
 11
33.72807315290248
 21
46.60540899581969
 31
0.0
210
0.0
220
0.0
230
1.0
 40
0.7420520973800668
 41
0.0
 42
6.283185307179586
  0
ELLIPSE
  5
424
330
1F
100
AcDbEntity
  8
0
  6
ByBlock
 62
     5
100
AcDbEllipse
 10
1107.105926831108
 20
5282.079026853665
 30
0.0
 11
17.19035438228934
 21
55.07067782052971
 31
0.0
210
0.0
220
0.0
230
1.0
 40
0.663094195136171
 41
0.0
 42
6.283185307179586
  0
ELLIPSE
  5
425
330
1F
100
AcDbEntity
  8
0
  6
ByBlock
 62
     5
100
AcDbEllipse
 10
1080.57270548906
 20
5113.791603759461
 30
0.0
 11
8.071753653719278
 21
65.4132659387996
 31
0.0
210
0.0
220
0.0
230
1.0
 40
0.5555861364582478
 41
0.0
 42
6.283185307179586
  0
ELLIPSE
  5
426
330
1F
100
AcDbEntity
  8
0
  6
ByBlock
 62
     5
100
AcDbEllipse
 10
1062.77397413744
 20
4947.526144192296
 30
0.0
 11
7.790844485202788
 21
56.68898791337967
 31
0.0
210
0.0
220
0.0
230
1.0
 40
0.4644043068290619
 41
0.0
 42
6.283185307179586
  0
ELLIPSE
  5
427
330
1F
100
AcDbEntity
  8
0
  6
ByBlock
 62
     5
100
AcDbEllipse
 10
1050.090456720908
 20
4770.052138334635
 30
0.0
 11
7.571410002365947
 21
56.60084785786885
 31
0.0
210
0.0
220
0.0
230
1.0
 40
0.5193709653644851
 41
0.0
 42
6.283185307179586
  0
ELLIPSE
  5
428
330
1F
100
AcDbEntity
  8
0
  6
ByBlock
 62
     5
100
AcDbEllipse
 10
1052.913979727397
 20
4596.015656417371
 30
0.0
 11
-19.32865810873042
 21
60.82444720311685
 31
0.0
210
0.0
220
0.0
230
1.0
 40
0.5457660826089763
 41
0.0
 42
6.283185307179586
  0
ELLIPSE
  5
429
330
1F
100
AcDbEntity
  8
0
  6
ByBlock
 62
     5
100
AcDbEllipse
 10
1065.235506647064
 20
4427.402100958925
 30
0.0
 11
-6.992920970370197
 21
59.0729139380275
 31
0.0
210
0.0
220
0.0
230
1.0
 40
0.4864410977794586
 41
0.0
 42
6.283185307179586
  0
ELLIPSE
  5
42A
330
1F
100
AcDbEntity
  8
0
  6
ByBlock
 62
     5
100
AcDbEllipse
 10
1082.20792529083
 20
4254.93972461509
 30
0.0
 11
-9.898289932908568
 21
54.99531064375414
 31
0.0
210
0.0
220
0.0
230
1.0
 40
0.6469081118454192
 41
0.0
 42
6.283185307179586
  0
ELLIPSE
  5
42B
330
1F
100
AcDbEntity
  8
0
  6
ByBlock
 62
     5
100
AcDbEllipse
 10
1107.446433428472
 20
4080.542409684301
 30
0.0
 11
-20.90988146368782
 21
50.60762254379994
 31
0.0
210
0.0
220
0.0
230
1.0
 40
0.6544741423037904
 41
0.0
 42
6.283185307179586
  0
ELLIPSE
  5
42C
330
1F
100
AcDbEntity
  8
0
  6
ByBlock
 62
     5
100
AcDbEllipse
 10
1114.819443248126
 20
3908.968156046182
 30
0.0
 11
-24.35084345998474
 21
50.24430347206497
 31
0.0
210
0.0
220
0.0
230
1.0
 40
0.7645759310182016
 41
0.0
 42
6.283185307179586
  0
ELLIPSE
  5
42D
330
1F
100
AcDbEntity
  8
0
  6
ByBlock
 62
     5
100
AcDbEllipse
 10
1128.730383438641
 20
3750.82146231842
 30
0.0
 11
-23.86567799350622
 21
53.22537311194346
 31
0.0
210
0.0
220
0.0
230
1.0
 40
0.9046747017748979
 41
0.0
 42
6.283185307179586
  0
ELLIPSE
  5
42E
330
1F
100
AcDbEntity
  8
0
  6
ByBlock
 62
     5
100
AcDbEllipse
 10
1276.280394282076
 20
3746.15632811764
 30
0.0
 11
-36.98528167600112
 21
37.81997626086849
 31
0.0
210
0.0
220
0.0
230
1.0
 40
0.6430246471645854
 41
0.0
 42
6.283185307179586
  0
ELLIPSE
  5
42F
330
1F
100
AcDbEntity
  8
0
  6
ByBlock
 62
     5
100
AcDbEllipse
 10
1143.017461356242
 20
3585.836071064016
 30
0.0
 11
-12.95806731197608
 21
58.07562957217923
 31
0.0
210
0.0
220
0.0
230
1.0
 40
0.9908234455502094
 41
0.0
 42
6.283185307179586
  0
ELLIPSE
  5
430
330
1F
100
AcDbEntity
  8
0
  6
ByBlock
 62
     5
100
AcDbEllipse
 10
1304.540244785575
 20
3587.396967662783
 30
0.0
 11
-26.31956147872162
 21
52.45142721812907
 31
0.0
210
0.0
220
0.0
230
1.0
 40
0.9320288150237976
 41
0.0
 42
6.283185307179586
  0
ELLIPSE
  5
431
330
1F
100
AcDbEntity
  8
0
  6
ByBlock
 62
     5
100
AcDbEllipse
 10
1456.356646982939
 20
3573.842442144401
 30
0.0
 11
-42.17950821427407
 21
43.09931469749272
 31
0.0
210
0.0
220
0.0
230
1.0
 40
0.8176496398554487
 41
0.0
 42
6.283185307179586
  0
ELLIPSE
  5
432
330
1F
100
AcDbEntity
  8
0
  6
ByBlock
 62
     5
100
AcDbEllipse
 10
1612.445999595177
 20
3562.419595376848
 30
0.0
 11
-43.94440741905348
 21
31.56364760744759
 31
0.0
210
0.0
220
0.0
230
1.0
 40
0.8259952782055934
 41
0.0
 42
6.283185307179586
  0
ELLIPSE
  5
433
330
1F
100
AcDbEntity
  8
0
  6
ByBlock
 62
     5
100
AcDbEllipse
 10
1769.303184227698
 20
3535.176102323834
 30
0.0
 11
-59.81172168113783
 21
22.17984676012374
 31
0.0
210
0.0
220
0.0
230
1.0
 40
0.5256737042017222
 41
0.0
 42
6.283185307179586
  0
ELLIPSE
  5
434
330
1F
100
AcDbEntity
  8
0
  6
ByBlock
 62
     5
100
AcDbEllipse
 10
1935.385209537549
 20
3510.645408000918
 30
0.0
 11
-55.0953241040361
 21
19.58607543883143
 31
0.0
210
0.0
220
0.0
230
1.0
 40
0.5068840975536801
 41
0.0
 42
6.283185307179586
  0
ELLIPSE
  5
435
330
1F
100
AcDbEntity
  8
0
  6
ByBlock
 62
     5
100
AcDbEllipse
 10
2112.501103581425
 20
3486.749195171908
 30
0.0
 11
-54.3226996685231
 21
12.00550946542013
 31
0.0
210
0.0
220
0.0
230
1.0
 40
0.4465289080757805
 41
0.0
 42
6.283185307179586
  0
ELLIPSE
  5
436
330
1F
100
AcDbEntity
  8
0
  6
ByBlock
 62
     5
100
AcDbEllipse
 10
2285.197126704197
 20
3477.770842433198
 30
0.0
 11
-61.18131485340287
 21
6.758023852580771
 31
0.0
210
0.0
220
0.0
230
1.0
 40
0.271791102070574
 41
0.0
 42
6.283185307179586
  0
ELLIPSE
  5
437
330
1F
100
AcDbEntity
  8
0
  6
ByBlock
 62
     5
100
AcDbEllipse
 10
2809.181133802487
 20
3518.747741316504
 30
0.0
 11
-58.24476563376155
 21
-16.59946405075125
 31
0.0
210
0.0
220
0.0
230
1.0
 40
0.4036914055802646
 41
0.0
 42
6.283185307179586
  0
ELLIPSE
  5
438
330
1F
100
AcDbEntity
  8
0
  6
ByBlock
 62
     5
100
AcDbEllipse
 10
2986.444840966317
 20
3550.360863194685
 30
0.0
 11
-54.43882483893277
 21
-18.75951976026116
 31
0.0
210
0.0
220
0.0
230
1.0
 40
0.5335497573674105
 41
0.0
 42
6.283185307179586
  0
ELLIPSE
  5
439
330
1F
100
AcDbEntity
  8
0
  6
ByBlock
 62
     5
100
AcDbEllipse
 10
3136.089667793437
 20
3578.816447584419
 30
0.0
 11
-49.83037845516881
 21
-29.76111998944359
 31
0.0
210
0.0
220
0.0
230
1.0
 40
0.583659121444407
 41
0.0
 42
6.283185307179586
  0
ELLIPSE
  5
43A
330
1F
100
AcDbEntity
  8
0
  6
ByBlock
 62
     5
100
AcDbEllipse
 10
3303.542486951454
 20
3744.453614604689
 30
0.0
 11
38.80698693003083
 21
34.39758882405623
 31
0.0
210
0.0
220
0.0
230
1.0
 40
0.6132892139664903
 41
0.0
 42
6.283185307179586
  0
ELLIPSE
  5
43B
330
1F
100
AcDbEntity
  8
0
  6
ByBlock
 62
     5
100
AcDbEllipse
 10
3347.057028373151
 20
3897.161237020313
 30
0.0
 11
28.2139588404175
 21
47.77793677109111
 31
0.0
210
0.0
220
0.0
230
1.0
 40
0.5011419066638466
 41
0.0
 42
6.283185307179586
  0
ELLIPSE
  5
43C
330
1F
100
AcDbEntity
  8
0
  6
ByBlock
 62
     5
100
AcDbEllipse
 10
3265.513833895341
 20
3978.983909665185
 30
0.0
 11
38.05801108895597
 21
56.12164171954646
 31
0.0
210
0.0
220
0.0
230
1.0
 40
0.4521445295905262
 41
0.0
 42
6.283185307179586
  0
ELLIPSE
  5
43D
330
1F
100
AcDbEntity
  8
0
  6
ByBlock
 62
     5
100
AcDbEllipse
 10
2996.223883507876
 20
3820.850615318539
 30
0.0
 11
56.35626217957975
 21
40.18882259492386
 31
0.0
210
0.0
220
0.0
230
1.0
 40
0.2959493420973486
 41
0.0
 42
6.283185307179586
  0
ELLIPSE
  5
43E
330
1F
100
AcDbEntity
  8
0
  6
ByBlock
 62
     5
100
AcDbEllipse
 10
3070.153676498697
 20
3781.812256310035
 30
0.0
 11
56.62284942478345
 21
41.18077324233385
 31
0.0
210
0.0
220
0.0
230
1.0
 40
0.2471833078824756
 41
0.0
 42
6.283185307179586
  0
ELLIPSE
  5
43F
330
1F
100
AcDbEntity
  8
0
  6
ByBlock
 62
     5
100
AcDbEllipse
 10
3150.75733811161
 20
3915.212226783166
 30
0.0
 11
30.47639490935356
 21
48.14856774838944
 31
0.0
210
0.0
220
0.0
230
1.0
 40
0.1534937978389462
 41
0.0
 42
6.283185307179586
  0
ELLIPSE
  5
440
330
1F
100
AcDbEntity
  8
0
  6
ByBlock
 62
     5
100
AcDbEllipse
 10
3383.321776018828
 20
4052.857191510241
 30
0.0
 11
27.79329727093875
 21
61.28368379559106
 31
0.0
210
0.0
220
0.0
230
1.0
 40
0.2924656863940008
 41
0.0
 42
6.283185307179586
  0
ELLIPSE
  5
441
330
1F
100
AcDbEntity
  8
0
  6
ByBlock
 62
     5
100
AcDbEllipse
 10
3428.457352062615
 20
4211.863161049402
 30
0.0
 11
19.29801165412137
 21
60.54819315025397
 31
0.0
210
0.0
220
0.0
230
1.0
 40
0.3096884375760361
 41
0.0
 42
6.283185307179586
  0
ELLIPSE
  5
442
330
1F
100
AcDbEntity
  8
0
  6
ByBlock
 62
     5
100
AcDbEllipse
 10
3526.222395766295
 20
4253.631091013574
 30
0.0
 11
19.16082313396629
 21
61.38324530821042
 31
0.0
210
0.0
220
0.0
230
1.0
 40
0.396551351529931
 41
0.0
 42
6.283185307179586
  0
ELLIPSE
  5
443
330
1F
100
AcDbEntity
  8
0
  6
ByBlock
 62
     5
100
AcDbEllipse
 10
3499.320472027671
 20
4086.523111057915
 30
0.0
 11
18.15641587952719
 21
52.89195566926013
 31
0.0
210
0.0
220
0.0
230
1.0
 40
0.6185216205125914
 41
0.0
 42
6.283185307179586
  0
ELLIPSE
  5
444
330
1F
100
AcDbEntity
  8
0
  6
ByBlock
 62
     5
100
AcDbEllipse
 10
3472.185923605213
 20
3926.16865862983
 30
0.0
 11
42.75282329012799
 21
39.97760636080979
 31
0.0
210
0.0
220
0.0
230
1.0
 40
0.516855955450887
 41
0.0
 42
6.283185307179586
  0
ELLIPSE
  5
445
330
1F
100
AcDbEntity
  8
0
  6
ByBlock
 62
     5
100
AcDbEllipse
 10
3445.945537164575
 20
3771.436357838151
 30
0.0
 11
6.706405397262166
 21
55.02604228771082
 31
0.0
210
0.0
220
0.0
230
1.0
 40
0.8627009586948751
 41
0.0
 42
6.283185307179586
  0
ELLIPSE
  5
446
330
1F
100
AcDbEntity
  8
0
  6
ByBlock
 62
     5
100
AcDbEllipse
 10
3298.247433914309
 20
3591.49265156741
 30
0.0
 11
36.91925831386246
 21
46.1260839631575
 31
0.0
210
0.0
220
0.0
230
1.0
 40
0.7618694626145429
 41
0.0
 42
6.283185307179586
  0
ELLIPSE
  5
447
330
1F
100
AcDbEntity
  8
0
  6
ByBlock
 62
     5
100
AcDbEllipse
 10
3615.4601920125
 20
3939.286225766382
 30
0.0
 11
21.63517454471351
 21
56.01658667173869
 31
0.0
210
0.0
220
0.0
230
1.0
 40
0.8721361211276761
 41
0.0
 42
6.283185307179586
  0
ELLIPSE
  5
448
330
1F
100
AcDbEntity
  8
0
  6
ByBlock
 62
     5
100
AcDbEllipse
 10
3631.090036321753
 20
4113.124351443717
 30
0.0
 11
14.83614849690358
 21
61.63807674664642
 31
0.0
210
0.0
220
0.0
230
1.0
 40
0.5766148325946088
 41
0.0
 42
6.283185307179586
  0
ELLIPSE
  5
449
330
1F
100
AcDbEntity
  8
0
  6
ByBlock
 62
     5
100
AcDbEllipse
 10
3636.218117247788
 20
4274.605150791972
 30
0.0
 11
19.48236880660736
 21
55.56506160806415
 31
0.0
210
0.0
220
0.0
230
1.0
 40
0.7537759623632969
 41
0.0
 42
6.283185307179586
  0
ELLIPSE
  5
44A
330
1F
100
AcDbEntity
  8
0
  6
ByBlock
 62
     5
100
AcDbEllipse
 10
3656.962992686255
 20
4440.992575106664
 30
0.0
 11
16.8383921081854
 21
62.83930814258368
 31
0.0
210
0.0
220
0.0
230
1.0
 40
0.627359381342704
 41
0.0
 42
6.283185307179586
  0
ELLIPSE
  5
44B
330
1F
100
AcDbEntity
  8
0
  6
ByBlock
 62
     5
100
AcDbEllipse
 10
3658.770272024312
 20
4791.235836863296
 30
0.0
 11
-10.19015842447474
 21
60.46113418125358
 31
0.0
210
0.0
220
0.0
230
1.0
 40
0.5557672396786204
 41
0.0
 42
6.283185307179586
  0
ELLIPSE
  5
44C
330
1F
100
AcDbEntity
  8
0
  6
ByBlock
 62
     5
100
AcDbEllipse
 10
3651.842830977462
 20
4965.147173179563
 30
0.0
 11
-13.36302194001801
 21
59.3415014579379
 31
0.0
210
0.0
220
0.0
230
0.9999999999999998
 40
0.6150328248832578
 41
0.0
 42
6.283185307179586
  0
ELLIPSE
  5
44D
330
1F
100
AcDbEntity
  8
0
  6
ByBlock
 62
     5
100
AcDbEllipse
 10
3546.26488106986
 20
4982.844351853932
 30
0.0
 11
-9.453888842167213
 21
68.64082420688177
 31
0.0
210
0.0
220
0.0
230
1.0
 40
0.4185785861359359
 41
0.0
 42
6.283185307179586
  0
ELLIPSE
  5
44E
330
1F
100
AcDbEntity
  8
0
  6
ByBlock
 62
     5
100
AcDbEllipse
 10
3464.261991233071
 20
5019.212718481349
 30
0.0
 11
-11.77178444447868
 21
66.21051403251986
 31
0.0
210
0.0
220
0.0
230
1.0
 40
0.3431507989597611
 41
0.0
 42
6.283185307179586
  0
ELLIPSE
  5
44F
330
1F
100
AcDbEntity
  8
0
  6
ByBlock
 62
     5
100
AcDbEllipse
 10
3422.631894046543
 20
5194.590866220231
 30
0.0
 11
-26.69387801941815
 21
65.13981788051136
 31
0.0
210
0.0
220
0.0
230
1.0
 40
0.3092887415944461
 41
0.0
 42
6.283185307179586
  0
ELLIPSE
  5
450
330
1F
100
AcDbEntity
  8
0
  6
ByBlock
 62
     5
100
AcDbEllipse
 10
3517.389152212608
 20
5160.684544490166
 30
0.0
 11
-12.31974772324326
 21
64.58754678727295
 31
0.0
210
0.0
220
0.0
230
1.0
 40
0.4457915753321767
 41
0.0
 42
6.283185307179586
  0
ELLIPSE
  5
451
330
1F
100
AcDbEntity
  8
0
  6
ByBlock
 62
     5
100
AcDbEllipse
 10
3485.137183162559
 20
5323.101875876548
 30
0.0
 11
-24.31571737195044
 21
46.32450398535693
 31
0.0
210
0.0
220
0.0
230
1.0
 40
0.5621416285984115
 41
0.0
 42
6.283185307179586
  0
ELLIPSE
  5
452
330
1F
100
AcDbEntity
  8
0
  6
ByBlock
 62
     5
100
AcDbEllipse
 10
3371.342670724757
 20
5354.72594677363
 30
0.0
 11
-31.99648455138472
 21
55.15657003612511
 31
0.0
210
0.0
220
0.0
230
1.0
 40
0.3379293821952976
 41
0.0
 42
6.283185307179586
  0
ELLIPSE
  5
453
330
1F
100
AcDbEntity
  8
0
  6
ByBlock
 62
     5
100
AcDbEllipse
 10
3330.020646129241
 20
5506.492888265341
 30
0.0
 11
-36.4856566140821
 21
45.6291146970384
 31
0.0
210
0.0
220
0.0
230
1.0
 40
0.4816659737889888
 41
0.0
 42
6.283185307179586
  0
ELLIPSE
  5
454
330
1F
100
AcDbEntity
  8
0
  6
ByBlock
 62
     5
100
AcDbEllipse
 10
3193.550783632033
 20
5553.65387096204
 30
0.0
 11
-44.62624099911101
 21
43.468926197139
 31
0.0
210
0.0
220
0.0
230
1.0
 40
0.3661088760873021
 41
0.0
 42
6.283185307179586
  0
ELLIPSE
  5
455
330
1F
100
AcDbEntity
  8
0
  6
ByBlock
 62
     5
100
AcDbEllipse
 10
2999.120413742771
 20
5725.006365310288
 30
0.0
 11
-46.66370760008615
 21
30.91985141130785
 31
0.0
210
0.0
220
0.0
230
1.0
 40
0.2940075202159984
 41
0.0
 42
6.283185307179586
  0
ELLIPSE
  5
456
330
1F
100
AcDbEntity
  8
0
  6
ByBlock
 62
     5
100
AcDbEllipse
 10
3147.948246817062
 20
5685.279905122193
 30
0.0
 11
-41.5094766976443
 21
32.77531936925642
 31
0.0
210
0.0
220
0.0
230
1.0
 40
0.5053268855958529
 41
0.0
 42
6.283185307179586
  0
ELLIPSE
  5
457
330
1F
100
AcDbEntity
  8
0
  6
ByBlock
 62
     5
100
AcDbEllipse
 10
3299.531144497161
 20
5651.103713633469
 30
0.0
 11
-36.82876636694571
 21
30.28980447875684
 31
0.0
210
0.0
220
0.0
230
1.0
 40
0.6336226207555738
 41
0.0
 42
6.283185307179586
  0
ELLIPSE
  5
458
330
1F
100
AcDbEntity
  8
0
  6
ByBlock
 62
     5
100
AcDbEllipse
 10
2799.342293314957
 20
5876.35060141504
 30
0.0
 11
-57.68347243277668
 21
27.91979240952127
 31
0.0
210
0.0
220
0.0
230
1.0
 40
0.4314776731849365
 41
0.0
 42
6.283185307179586
  0
ELLIPSE
  5
459
330
1F
100
AcDbEntity
  8
0
  6
ByBlock
 62
     5
100
AcDbEllipse
 10
2975.601535310286
 20
5845.576926191522
 30
0.0
 11
-51.44178161526844
 21
22.37162835611217
 31
0.0
210
0.0
220
0.0
230
1.0
 40
0.5636554229644104
 41
0.0
 42
6.283185307179586
  0
ELLIPSE
  5
45A
330
1F
100
AcDbEntity
  8
0
  6
ByBlock
 62
     5
100
AcDbEllipse
 10
3123.562619131089
 20
5823.078337358626
 30
0.0
 11
-53.2259330853393
 21
28.84066772874415
 31
0.0
210
0.0
220
0.0
230
1.0
 40
0.5092936135679008
 41
0.0
 42
6.283185307179586
  0
ELLIPSE
  5
45B
330
1F
100
AcDbEntity
  8
0
  6
ByBlock
 62
     5
100
AcDbEllipse
 10
3286.832672814985
 20
5805.489125897776
 30
0.0
 11
-49.63365479138553
 21
34.38930675494168
 31
0.0
210
0.0
220
0.0
230
1.0
 40
0.7909085725835531
 41
0.0
 42
6.283185307179586
  0
ELLIPSE
  5
45C
330
1F
100
AcDbEntity
  8
0
  6
ByBlock
 62
     5
100
AcDbEllipse
 10
3440.827629759327
 20
5633.579294071689
 30
0.0
 11
-49.11478264832965
 21
36.69721989549752
 31
0.0
210
0.0
220
0.0
230
1.0
 40
0.9735725583460252
 41
0.0
 42
6.283185307179586
  0
ELLIPSE
  5
45D
330
1F
100
AcDbEntity
  8
0
  6
ByBlock
 62
     5
100
AcDbEllipse
 10
3615.184427312286
 20
5637.682288813715
 30
0.0
 11
-57.87735968250378
 21
-1.388161866117932
 31
0.0
210
0.0
220
0.0
230
1.0
 40
0.9225068958749464
 41
0.0
 42
6.283185307179586
  0
ELLIPSE
  5
45E
330
1F
100
AcDbEntity
  8
0
  6
ByBlock
 62
     5
100
AcDbEllipse
 10
3776.286754701011
 20
5635.915037917064
 30
0.0
 11
-60.11448889118819
 21
-1.441818381793664
 31
0.0
210
0.0
220
0.0
230
1.0
 40
0.9144679690204448
 41
0.0
 42
6.283185307179586
  0
ELLIPSE
  5
45F
330
1F
100
AcDbEntity
  8
0
  6
ByBlock
 62
     5
100
AcDbEllipse
 10
3465.18196591556
 20
5469.3710797723
 30
0.0
 11
-43.48481597231677
 21
51.91591146486532
 31
0.0
210
0.0
220
0.0
230
1.0
 40
0.6242787499696316
 41
0.0
 42
6.283185307179586
  0
ELLIPSE
  5
460
330
1F
100
AcDbEntity
  8
0
  6
ByBlock
 62
     5
100
AcDbEllipse
 10
3627.993764162065
 20
5297.55492785728
 30
0.0
 11
-10.33860964144525
 21
58.44366622439745
 31
0.0
210
0.0
220
0.0
230
1.0
 40
0.6993718852878064
 41
0.0
 42
6.283185307179586
  0
ELLIPSE
  5
461
330
1F
100
AcDbEntity
  8
0
  6
ByBlock
 62
     5
100
AcDbEllipse
 10
3607.947364480163
 20
5459.114027175602
 30
0.0
 11
-61.99829265175313
 21
-11.50933226114809
 31
0.0
210
0.0
220
0.0
230
1.0
 40
0.9766163213841533
 41
0.0
 42
6.283185307179586
  0
ELLIPSE
  5
462
330
1F
100
AcDbEntity
  8
0
  6
ByBlock
 62
     5
100
AcDbEllipse
 10
3634.674496210487
 20
5126.270469143438
 30
0.0
 11
-12.81831529950002
 21
55.08083121553022
 31
0.0
210
0.0
220
0.0
230
1.0
 40
0.653401047490125
 41
0.0
 42
6.283185307179586
  0
ELLIPSE
  5
463
330
1F
100
AcDbEntity
  8
0
  6
ByBlock
 62
     5
100
AcDbEllipse
 10
3609.994394848997
 20
3772.729461307156
 30
0.0
 11
4.041670187500457
 21
55.31134365476131
 31
0.0
210
0.0
220
0.0
230
1.0
 40
0.9323942028241368
 41
0.0
 42
6.283185307179586
  0
ELLIPSE
  5
464
330
1F
100
AcDbEntity
  8
0
  6
ByBlock
 62
     5
100
AcDbEllipse
 10
3449.106695295793
 20
3607.223353471492
 30
0.0
 11
-1.374300677097259
 21
57.29943786937965
 31
0.0
210
0.0
220
0.0
230
1.0
 40
0.9262071826883131
 41
0.0
 42
6.283185307179586
  0
ELLIPSE
  5
465
330
1F
100
AcDbEntity
  8
0
  6
ByBlock
 62
     5
100
AcDbEllipse
 10
3444.045722051539
 20
5804.114718105143
 30
0.0
 11
-1.43058403626297
 21
59.64608943940389
 31
0.0
210
0.0
220
0.0
230
1.0
 40
0.866676884580902
 41
0.0
 42
6.283185307179586
  0
ELLIPSE
  5
466
330
1F
100
AcDbEntity
  8
0
  6
ByBlock
 62
     5
100
AcDbEllipse
 10
3611.89464985786
 20
5804.851026375253
 30
0.0
 11
8.494570623735947
 21
57.53451153558422
 31
0.0
210
0.0
220
0.0
230
1.0
 40
0.9739455631618223
 41
0.0
 42
6.283185307179586
  0
ELLIPSE
  5
467
330
1F
100
AcDbEntity
  8
0
  6
ByBlock
 62
     5
100
AcDbEllipse
 10
3773.130575101882
 20
5806.838489211454
 30
0.0
 11
10.79920181119679
 21
59.46949376679923
 31
0.0
210
0.0
220
0.0
230
1.0
 40
0.9128836316034952
 41
0.0
 42
6.283185307179586
  0
ELLIPSE
  5
468
330
1F
100
AcDbEntity
  8
0
  6
ByBlock
 62
     5
100
AcDbEllipse
 10
3775.715026543171
 20
5470.495476583099
 30
0.0
 11
-1.412779902281657
 21
58.90377235706416
 31
0.0
210
0.0
220
0.0
230
1.0
 40
0.9386668593010877
 41
0.0
 42
6.283185307179586
  0
ELLIPSE
  5
469
330
1F
100
AcDbEntity
  8
0
  6
ByBlock
 62
     5
100
AcDbEllipse
 10
3769.238815106394
 20
5294.995938582051
 30
0.0
 11
-1.468008460866147
 21
61.20644557404272
 31
0.0
210
0.0
220
0.0
230
1.0
 40
0.9358912364485991
 41
0.0
 42
6.283185307179586
  0
ELLIPSE
  5
46A
330
1F
100
AcDbEntity
  8
0
  6
ByBlock
 62
     5
100
AcDbEllipse
 10
3771.568135354538
 20
5122.553194510003
 30
0.0
 11
-1.50458954490982
 21
62.73163986906572
 31
0.0
210
0.0
220
0.0
230
1.0
 40
0.8433785181149303
 41
0.0
 42
6.283185307179586
  0
ELLIPSE
  5
46B
330
1F
100
AcDbEntity
  8
0
  6
ByBlock
 62
     5
100
AcDbEllipse
 10
3791.189354701522
 20
4957.177623252481
 30
0.0
 11
-1.354952834966721
 21
56.49275815471423
 31
0.0
210
0.0
220
0.0
230
1.0
 40
0.7807017466900915
 41
0.0
 42
6.283185307179586
  0
ELLIPSE
  5
46C
330
1F
100
AcDbEntity
  8
0
  6
ByBlock
 62
     5
100
AcDbEllipse
 10
3783.863266057511
 20
4784.68717550838
 30
0.0
 11
-1.417143577292849
 21
59.08570934461923
 31
0.0
210
0.0
220
0.0
230
1.0
 40
0.7560225890073755
 41
0.0
 42
6.283185307179586
  0
ELLIPSE
  5
46D
330
1F
100
AcDbEntity
  8
0
  6
ByBlock
 62
     5
100
AcDbEllipse
 10
3790.615975327543
 20
4622.599412879539
 30
0.0
 11
-1.583967037938615
 21
66.04116725694225
 31
0.0
210
0.0
220
0.0
230
1.0
 40
0.6504019120242507
 41
0.0
 42
6.283185307179586
  0
ELLIPSE
  5
46E
330
1F
100
AcDbEntity
  8
0
  6
ByBlock
 62
     5
100
AcDbEllipse
 10
3794.887456268771
 20
4444.506320967028
 30
0.0
 11
-1.583967037938615
 21
66.04116725694225
 31
0.0
210
0.0
220
0.0
230
1.0
 40
0.6504019120242507
 41
0.0
 42
6.283185307179586
  0
ELLIPSE
  5
46F
330
1F
100
AcDbEntity
  8
0
  6
ByBlock
 62
     5
100
AcDbEllipse
 10
3798.785298349497
 20
4281.991549744248
 30
0.0
 11
-1.583967037938615
 21
66.04116725694225
 31
0.0
210
0.0
220
0.0
230
1.0
 40
0.6504019120242507
 41
0.0
 42
6.283185307179586
  0
ELLIPSE
  5
470
330
1F
100
AcDbEntity
  8
0
  6
ByBlock
 62
     5
100
AcDbEllipse
 10
3788.919418069244
 20
4114.617497457519
 30
0.0
 11
-1.583967037938615
 21
66.04116725694225
 31
0.0
210
0.0
220
0.0
230
1.0
 40
0.6504019120242507
 41
0.0
 42
6.283185307179586
  0
CIRCLE
  5
471
330
1F
100
AcDbEntity
  8
0
  6
ByBlock
 62
     5
100
AcDbCircle
 10
3770.407348152338
 20
3945.300741434341
 30
0.0
 40
57.39416208937502
  0
CIRCLE
  5
472
330
1F
100
AcDbEntity
  8
0
  6
ByBlock
 62
     5
100
AcDbCircle
 10
3777.510204285035
 20
3786.062719834911
 30
0.0
 40
50.58485555553546
  0
CIRCLE
  5
473
330
1F
100
AcDbEntity
  8
0
  6
ByBlock
 62
     5
100
AcDbCircle
 10
3615.060824391317
 20
3604.327000619664
 30
0.0
 40
58.11744919630732
  0
CIRCLE
  5
474
330
1F
100
AcDbEntity
  8
0
  6
ByBlock
 62
     5
100
AcDbCircle
 10
3774.467203073248
 20
3607.148507616106
 30
0.0
 40
59.01910611032223
  0
ELLIPSE
  5
475
330
1F
100
AcDbEntity
  8
0
  6
ByBlock
 62
     5
100
AcDbEllipse
 10
2453.048294296227
 20
6009.64039251769
 30
0.0
 11
-55.81782637395985
 21
5.209312181140325
 31
0.0
210
0.0
220
0.0
230
1.0
 40
0.4670801835699516
 41
0.0
 42
6.283185307179586
  0
ELLIPSE
  5
476
330
1F
100
AcDbEntity
  8
0
  6
ByBlock
 62
     5
100
AcDbEllipse
 10
2620.965937032511
 20
6007.505682039289
 30
0.0
 11
-53.04361922483995
 21
13.13682114580059
 31
0.0
210
0.0
220
0.0
230
1.0
 40
0.5469558034511981
 41
0.0
 42
6.283185307179586
  0
ELLIPSE
  5
477
330
1F
100
AcDbEntity
  8
0
  6
ByBlock
 62
     5
100
AcDbEllipse
 10
2780.690423195994
 20
5994.869099146759
 30
0.0
 11
-58.51418716476196
 21
17.94586664014739
 31
0.0
210
0.0
220
0.0
230
1.0
 40
0.5387740262044579
 41
0.0
 42
6.283185307179586
  0
ELLIPSE
  5
478
330
1F
100
AcDbEntity
  8
0
  6
ByBlock
 62
     5
100
AcDbEllipse
 10
2946.218257394067
 20
5980.724990129903
 30
0.0
 11
-54.88779429713202
 21
21.32634008884168
 31
0.0
210
0.0
220
0.0
230
1.0
 40
0.6693342010632496
 41
0.0
 42
6.283185307179586
  0
ELLIPSE
  5
479
330
1F
100
AcDbEntity
  8
0
  6
ByBlock
 62
     5
100
AcDbEllipse
 10
2286.206523950198
 20
6008.633561971877
 30
0.0
 11
-64.93531159320612
 21
-1.557443598198965
 31
0.0
210
0.0
220
0.0
230
1.0
 40
0.4996918462037831
 41
0.0
 42
6.283185307179586
  0
ELLIPSE
  5
47A
330
1F
100
AcDbEntity
  8
0
  6
ByBlock
 62
     5
100
AcDbEllipse
 10
2113.604698347657
 20
5999.98460092785
 30
0.0
 11
-57.00992612233625
 21
-12.18946070667893
 31
0.0
210
0.0
220
0.0
230
0.9999999999999998
 40
0.4330178241484633
 41
0.0
 42
6.283185307179586
  0
ELLIPSE
  5
47B
330
1F
100
AcDbEntity
  8
0
  6
ByBlock
 62
     5
100
AcDbEllipse
 10
1955.469812654367
 20
5986.58099370534
 30
0.0
 11
-55.85019655360542
 21
-13.2465958318813
 31
0.0
210
0.0
220
0.0
230
1.0
 40
0.5233922440918251
 41
0.0
 42
6.283185307179586
  0
ELLIPSE
  5
47C
330
1F
100
AcDbEntity
  8
0
  6
ByBlock
 62
     5
100
AcDbEllipse
 10
1791.993271502288
 20
5966.217024585087
 30
0.0
 11
-54.65199007044869
 21
7.761248627662036
 31
0.0
210
0.0
220
0.0
230
1.0
 40
0.6799886217572105
 41
0.0
 42
6.283185307179586
  0
ELLIPSE
  5
47D
330
1F
100
AcDbEntity
  8
0
  6
ByBlock
 62
     5
100
AcDbEllipse
 10
1623.82001930714
 20
5950.501852408576
 30
0.0
 11
-56.47217332387091
 21
-1.354459117261665
 31
0.0
210
0.0
220
0.0
230
1.0
 40
0.8844095126189946
 41
0.0
 42
6.283185307179586
  0
ELLIPSE
  5
47E
330
1F
100
AcDbEntity
  8
0
  6
ByBlock
 62
     5
100
AcDbEllipse
 10
1461.083200123467
 20
5949.256380058673
 30
0.0
 11
-53.29594447312175
 21
-1.278278728369349
 31
0.0
210
0.0
220
0.0
230
1.0
 40
0.8754924850346176
 41
0.0
 42
6.283185307179586
  0
ELLIPSE
  5
47F
330
1F
100
AcDbEntity
  8
0
  6
ByBlock
 62
     5
100
AcDbEllipse
 10
1296.422472805513
 20
5944.063996322018
 30
0.0
 11
-57.10739008371579
 21
-1.369694499241299
 31
0.0
210
0.0
220
0.0
230
1.0
 40
0.9018824682110972
 41
0.0
 42
6.283185307179586
  0
ELLIPSE
  5
480
330
1F
100
AcDbEntity
  8
0
  6
ByBlock
 62
     5
100
AcDbEllipse
 10
1133.257124315846
 20
5948.507407030416
 30
0.0
 11
-59.89314030969679
 21
-1.436509437819178
 31
0.0
210
0.0
220
0.0
230
1.0
 40
0.9528995575695587
 41
0.0
 42
6.283185307179586
  0
ELLIPSE
  5
481
330
1F
100
AcDbEntity
  8
0
  6
ByBlock
 62
     5
100
AcDbEllipse
 10
3108.837829305122
 20
5974.211933709293
 30
0.0
 11
-53.99034224296482
 21
-1.294933539668643
 31
0.0
210
0.0
220
0.0
230
1.0
 40
0.8534060143531576
 41
0.0
 42
6.283185307179586
  0
ELLIPSE
  5
482
330
1F
100
AcDbEntity
  8
0
  6
ByBlock
 62
     5
100
AcDbEllipse
 10
3279.447210894928
 20
5972.237840611006
 30
0.0
 11
-52.17048992276794
 21
-1.25128521834366
 31
0.0
210
0.0
220
0.0
230
1.0
 40
0.976141219006131
 41
0.0
 42
6.283185307179586
  0
ELLIPSE
  5
483
330
1F
100
AcDbEntity
  8
0
  6
ByBlock
 62
     5
100
AcDbEllipse
 10
3438.385138335872
 20
5976.049893737886
 30
0.0
 11
1.234872893896677
 21
-51.4862022842518
 31
0.0
210
0.0
220
0.0
230
1.0
 40
0.9425950658181211
 41
0.0
 42
6.283185307179586
  0
ELLIPSE
  5
484
330
1F
100
AcDbEntity
  8
0
  6
ByBlock
 62
     5
100
AcDbEllipse
 10
3602.903506522431
 20
5973.391614640604
 30
0.0
 11
-52.52902095573666
 21
-1.2598844203549
 31
0.0
210
0.0
220
0.0
230
1.0
 40
0.9907578631949419
 41
0.0
 42
6.283185307179586
  0
ELLIPSE
  5
485
330
1F
100
AcDbEntity
  8
0
  6
ByBlock
 62
     5
100
AcDbEllipse
 10
3775.470613022117
 20
5966.18476835835
 30
0.0
 11
-55.16118012109755
 21
3.299349114207242
 31
0.0
210
0.0
220
0.0
230
1.0
 40
0.9843322266017018
 41
0.0
 42
6.283185307179586
  0
ELLIPSE
  5
486
330
1F
100
AcDbEntity
  8
0
  6
ByBlock
 62
     5
100
AcDbEllipse
 10
951.1028984972663
 20
5941.105731573252
 30
0.0
 11
-58.1160056547842
 21
-1.393885680058989
 31
0.0
210
0.0
220
0.0
230
1.0
 40
0.8712568174635428
 41
0.0
 42
6.283185307179586
  0
ELLIPSE
  5
487
330
1F
100
AcDbEntity
  8
0
  6
ByBlock
 62
     5
100
AcDbEllipse
 10
956.4506594559507
 20
5780.304089496247
 30
0.0
 11
-53.64555483915471
 21
-1.28666397228491
 31
0.0
210
0.0
220
0.0
230
1.0
 40
0.9716224868542456
 41
0.0
 42
6.283185307179586
  0
ELLIPSE
  5
488
330
1F
100
AcDbEntity
  8
0
  6
ByBlock
 62
     5
100
AcDbEllipse
 10
956.5666387064856
 20
5608.614589883953
 30
0.0
 11
-55.22781281040969
 21
-1.324613702371186
 31
0.0
210
0.0
220
0.0
230
1.0
 40
0.9327567790388687
 41
0.0
 42
6.283185307179586
  0
ELLIPSE
  5
489
330
1F
100
AcDbEntity
  8
0
  6
ByBlock
 62
     5
100
AcDbEllipse
 10
954.9149815321735
 20
5443.446829616927
 30
0.0
 11
-57.11257567466033
 21
-1.36981887325632
 31
0.0
210
0.0
220
0.0
230
1.0
 40
0.9769882046439683
 41
0.0
 42
6.283185307179586
  0
ELLIPSE
  5
48A
330
1F
100
AcDbEntity
  8
0
  6
ByBlock
 62
     5
100
AcDbEllipse
 10
953.7889464258924
 20
5269.950460676287
 30
0.0
 11
-58.56744217037046
 21
-1.404713177362731
 31
0.0
210
0.0
220
0.0
230
1.0
 40
0.9369216438326999
 41
0.0
 42
6.283185307179586
  0
ELLIPSE
  5
48B
330
1F
100
AcDbEntity
  8
0
  6
ByBlock
 62
     5
100
AcDbEllipse
 10
949.7644270454921
 20
5094.158947455242
 30
0.0
 11
1.316106179248145
 21
-54.87310419334008
 31
0.0
210
0.0
220
0.0
230
1.0
 40
0.850524782558898
 41
0.0
 42
6.283185307179586
  0
ELLIPSE
  5
48C
330
1F
100
AcDbEntity
  8
0
  6
ByBlock
 62
     5
100
AcDbEllipse
 10
938.1301762974626
 20
4943.751332077624
 30
0.0
 11
1.036578901811572
 21
-43.21862702310125
 31
0.0
210
0.0
220
0.0
230
1.0
 40
0.9800373942513683
 41
0.0
 42
6.283185307179586
  0
ELLIPSE
  5
48D
330
1F
100
AcDbEntity
  8
0
  6
ByBlock
 62
     5
100
AcDbEllipse
 10
949.0279241412217
 20
4765.375922032125
 30
0.0
 11
-1.456698099183528
 21
60.73487674102558
 31
0.0
210
0.0
220
0.0
230
1.0
 40
0.4951511863299816
 41
0.0
 42
6.283185307179586
  0
ELLIPSE
  5
48E
330
1F
100
AcDbEntity
  8
0
  6
ByBlock
 62
     5
100
AcDbEllipse
 10
937.7457018939177
 20
4599.873466112083
 30
0.0
 11
-1.336816263835373
 21
55.73658059617642
 31
0.0
210
0.0
220
0.0
230
1.0
 40
0.6934974651342854
 41
0.0
 42
6.283185307179586
  0
ELLIPSE
  5
48F
330
1F
100
AcDbEntity
  8
0
  6
ByBlock
 62
     5
100
AcDbEllipse
 10
944.3006842176265
 20
4432.20267444322
 30
0.0
 11
-1.23654222147197
 21
51.55580243309707
 31
0.0
210
0.0
220
0.0
230
1.0
 40
0.6230266373554013
 41
0.0
 42
6.283185307179586
  0
ELLIPSE
  5
490
330
1F
100
AcDbEntity
  8
0
  6
ByBlock
 62
     5
100
AcDbEllipse
 10
954.8501560845771
 20
4259.908224106001
 30
0.0
 11
-1.381687280598798
 21
57.60741139762977
 31
0.0
210
0.0
220
0.0
230
1.0
 40
0.714727343901623
 41
0.0
 42
6.283185307179586
  0
ELLIPSE
  5
491
330
1F
100
AcDbEntity
  8
0
  6
ByBlock
 62
     5
100
AcDbEllipse
 10
959.3755021627593
 20
4092.978565960335
 30
0.0
 11
-1.275750308858978
 21
53.19052575430963
 31
0.0
210
0.0
220
0.0
230
1.0
 40
0.8186874711628814
 41
0.0
 42
6.283185307179586
  0
ELLIPSE
  5
492
330
1F
100
AcDbEntity
  8
0
  6
ByBlock
 62
     5
100
AcDbEllipse
 10
962.1372713562896
 20
3925.86913431736
 30
0.0
 11
-1.264943352003447
 21
52.73994564238791
 31
0.0
210
0.0
220
0.0
230
1.0
 40
0.7883655894576075
 41
0.0
 42
6.283185307179586
  0
ELLIPSE
  5
493
330
1F
100
AcDbEntity
  8
0
  6
ByBlock
 62
     5
100
AcDbEllipse
 10
962.8975999545664
 20
3765.033000910722
 30
0.0
 11
-1.333198447813412
 21
55.5857410980754
 31
0.0
210
0.0
220
0.0
230
1.0
 40
0.8653993185872353
 41
0.0
 42
6.283185307179586
  0
ELLIPSE
  5
494
330
1F
100
AcDbEntity
  8
0
  6
ByBlock
 62
     5
100
AcDbEllipse
 10
966.9722900480419
 20
3592.418753157139
 30
0.0
 11
-1.476721813534784
 21
61.5697359501525
 31
0.0
210
0.0
220
0.0
230
1.0
 40
0.8392279187968997
 41
0.0
 42
6.283185307179586
  0
ELLIPSE
  5
495
330
1F
100
AcDbEntity
  8
0
  6
ByBlock
 62
     5
100
AcDbEllipse
 10
959.17967668656
 20
3414.08237776684
 30
0.0
 11
-61.64093829972406
 21
-1.478429569157975
 31
0.0
210
0.0
220
0.0
230
1.0
 40
0.9723717943692678
 41
0.0
 42
6.283185307179586
  0
ELLIPSE
  5
496
330
1F
100
AcDbEntity
  8
0
  6
ByBlock
 62
     5
100
AcDbEllipse
 10
1143.402292495536
 20
3422.027170862935
 30
0.0
 11
-60.15785919916744
 21
4.659759718431356
 31
0.0
210
0.0
220
0.0
230
1.0
 40
0.9007983786299826
 41
0.0
 42
6.283185307179586
  0
ELLIPSE
  5
497
330
1F
100
AcDbEntity
  8
0
  6
ByBlock
 62
     5
100
AcDbEllipse
 10
1305.055257603134
 20
3428.955652078726
 30
0.0
 11
-51.87440355841621
 21
-1.244183723003768
 31
0.0
210
0.0
220
0.0
230
1.0
 40
0.9904389329562313
 41
0.0
 42
6.283185307179586
  0
ELLIPSE
  5
498
330
1F
100
AcDbEntity
  8
0
  6
ByBlock
 62
     5
100
AcDbEllipse
 10
1468.962045680572
 20
3415.51036025781
 30
0.0
 11
-7.280489645338139
 21
-52.8444214023311
 31
0.0
210
0.0
220
0.0
230
1.0
 40
0.9962757249591341
 41
0.0
 42
6.283185307179586
  0
ELLIPSE
  5
499
330
1F
100
AcDbEntity
  8
0
  6
ByBlock
 62
     5
100
AcDbEllipse
 10
1628.053189551677
 20
3420.670723027079
 30
0.0
 11
-60.06346702779884
 21
-1.440594645854709
 31
0.0
210
0.0
220
0.0
230
1.0
 40
0.8074246017140051
 41
0.0
 42
6.283185307179586
  0
ELLIPSE
  5
49A
330
1F
100
AcDbEntity
  8
0
  6
ByBlock
 62
     5
100
AcDbEllipse
 10
1794.179446205352
 20
3413.001599761337
 30
0.0
 11
-58.27052175992462
 21
-1.397591677810677
 31
0.0
210
0.0
220
0.0
230
1.0
 40
0.7687559188836073
 41
0.0
 42
6.283185307179586
  0
ELLIPSE
  5
49B
330
1F
100
AcDbEntity
  8
0
  6
ByBlock
 62
     5
100
AcDbEllipse
 10
1960.328866836441
 20
3394.483587579511
 30
0.0
 11
-57.48194061159125
 21
6.917136631506098
 31
0.0
210
0.0
220
0.0
230
1.0
 40
0.5972573448211881
 41
0.0
 42
6.283185307179586
  0
ELLIPSE
  5
49C
330
1F
100
AcDbEntity
  8
0
  6
ByBlock
 62
     5
100
AcDbEllipse
 10
2119.13441279778
 20
3382.095868328133
 30
0.0
 11
-59.5235010769741
 21
9.63343530829184
 31
0.0
210
0.0
220
0.0
230
1.0
 40
0.4471778727248449
 41
0.0
 42
6.283185307179586
  0
ELLIPSE
  5
49D
330
1F
100
AcDbEntity
  8
0
  6
ByBlock
 62
     5
100
AcDbEllipse
 10
2284.771479554475
 20
3371.732979053643
 30
0.0
 11
-57.93825725144682
 21
5.917694883382398
 31
0.0
210
0.0
220
0.0
230
1.0
 40
0.542139727353998
 41
0.0
 42
6.283185307179586
  0
ELLIPSE
  5
49E
330
1F
100
AcDbEntity
  8
0
  6
ByBlock
 62
     5
100
AcDbEllipse
 10
2466.223188297475
 20
3376.44000547444
 30
0.0
 11
-58.68265208034424
 21
3.518304878428964
 31
0.0
210
0.0
220
0.0
230
1.0
 40
0.5018569771869239
 41
0.0
 42
6.283185307179586
  0
ELLIPSE
  5
49F
330
1F
100
AcDbEntity
  8
0
  6
ByBlock
 62
     5
100
AcDbEllipse
 10
2637.717921004501
 20
3381.296534989558
 30
0.0
 11
-59.75700639237614
 21
-11.89284983321823
 31
0.0
210
0.0
220
0.0
230
1.0
 40
0.4606635956038791
 41
0.0
 42
6.283185307179586
  0
ELLIPSE
  5
4A0
330
1F
100
AcDbEntity
  8
0
  6
ByBlock
 62
     5
100
AcDbEllipse
 10
2803.097422523891
 20
3399.02573940078
 30
0.0
 11
-52.40218828441443
 21
-19.97405644044539
 31
0.0
210
0.0
220
0.0
230
1.0
 40
0.5495641887904527
 41
0.0
 42
6.283185307179586
  0
ELLIPSE
  5
4A1
330
1F
100
AcDbEntity
  8
0
  6
ByBlock
 62
     5
100
AcDbEllipse
 10
2967.323054123336
 20
3418.929286593453
 30
0.0
 11
-56.29546815850728
 21
-18.41592160271522
 31
0.0
210
0.0
220
0.0
230
0.9999999999999998
 40
0.5482004644616316
 41
0.0
 42
6.283185307179586
  0
ELLIPSE
  5
4A2
330
1F
100
AcDbEntity
  8
0
  6
ByBlock
 62
     5
100
AcDbEllipse
 10
3131.452489688732
 20
3424.443438715746
 30
0.0
 11
-55.14756307075718
 21
-1.322688949255933
 31
0.0
210
0.0
220
0.0
230
1.0
 40
0.8690287211796016
 41
0.0
 42
6.283185307179586
  0
ELLIPSE
  5
4A3
330
1F
100
AcDbEntity
  8
0
  6
ByBlock
 62
     5
100
AcDbEllipse
 10
3293.971959137067
 20
3430.259493900567
 30
0.0
 11
-58.50434477001066
 21
-1.403199815220589
 31
0.0
210
0.0
220
0.0
230
1.0
 40
0.7878051218105586
 41
0.0
 42
6.283185307179586
  0
ELLIPSE
  5
4A4
330
1F
100
AcDbEntity
  8
0
  6
ByBlock
 62
     5
100
AcDbEllipse
 10
3455.224937935638
 20
3433.780924311226
 30
0.0
 11
-55.44593399614684
 21
-1.329845238742121
 31
0.0
210
0.0
220
0.0
230
1.0
 40
0.9018818246837575
 41
0.0
 42
6.283185307179586
  0
ELLIPSE
  5
4A5
330
1F
100
AcDbEntity
  8
0
  6
ByBlock
 62
     5
100
AcDbEllipse
 10
3620.692091149919
 20
3445.863267402272
 30
0.0
 11
-60.17910933225891
 21
-1.443368273367126
 31
0.0
210
0.0
220
0.0
230
1.0
 40
0.7916812022881386
 41
0.0
 42
6.283185307179586
  0
ELLIPSE
  5
4A6
330
1F
100
AcDbEntity
  8
0
  6
ByBlock
 62
     5
100
AcDbEllipse
 10
3782.523515115144
 20
3440.278762550028
 30
0.0
 11
-58.15060043636224
 21
-1.39471541999213
 31
0.0
210
0.0
220
0.0
230
1.0
 40
0.9528995793884028
 41
0.0
 42
6.283185307179586
  0
ELLIPSE
  5
4A7
330
1F
100
AcDbEntity
  8
0
  6
ByBlock
 62
     5
100
AcDbEllipse
 10
1828.809265878591
 20
3681.33060969311
 30
0.0
 11
-58.41279653189912
 21
28.98114015233274
 31
0.0
210
0.0
220
0.0
230
1.0
 40
0.4120478866932406
 41
0.0
 42
6.283185307179586
  0
ELLIPSE
  5
4A8
330
1F
100
AcDbEntity
  8
0
  6
ByBlock
 62
     5
100
AcDbEllipse
 10
1982.104201851064
 20
3693.373788917509
 30
0.0
 11
-81.97152840878711
 21
26.46206153880186
 31
0.0
210
0.0
220
0.0
230
1.0
 40
0.108328126436719
 41
0.0
 42
6.283185307179586
  0
ELLIPSE
  5
4A9
330
1F
100
AcDbEntity
  8
0
  6
ByBlock
 62
     5
100
AcDbEllipse
 10
2030.619985986618
 20
3616.360133396239
 30
0.0
 11
-73.29731590197578
 21
16.8979401800716
 31
0.0
210
0.0
220
0.0
230
0.9999999999999998
 40
0.1889120242133433
 41
0.0
 42
6.283185307179586
  0
ELLIPSE
  5
4AA
330
1F
100
AcDbEntity
  8
0
  6
ByBlock
 62
     5
100
AcDbEllipse
 10
1279.572063761968
 20
4183.264950127529
 30
0.0
 11
-28.47504288806092
 21
60.20643564972388
 31
0.0
210
0.0
220
0.0
230
1.0
 40
0.2254174046171398
 41
0.0
 42
6.283185307179586
  0
ELLIPSE
  5
4AB
330
1F
100
AcDbEntity
  8
0
  6
ByBlock
 62
     5
100
AcDbEllipse
 10
1329.557365774076
 20
4025.061408755771
 30
0.0
 11
-34.73013831617629
 21
51.29292636375986
 31
0.0
210
0.0
220
0.0
230
1.0
 40
0.2225342427154847
 41
0.0
 42
6.283185307179586
  0
ELLIPSE
  5
4AC
330
1F
100
AcDbEntity
  8
0
  6
ByBlock
 62
     5
100
AcDbEllipse
 10
1388.794289200669
 20
3866.21514364687
 30
0.0
 11
-38.49145886813981
 21
48.63508930050395
 31
0.0
210
0.0
220
0.0
230
1.0
 40
0.4624911977082595
 41
0.0
 42
6.283185307179586
  0
ELLIPSE
  5
4AD
330
1F
100
AcDbEntity
  8
0
  6
ByBlock
 62
     5
100
AcDbEllipse
 10
1521.728914879583
 20
3792.668116035274
 30
0.0
 11
-34.83416517488429
 21
29.53896736108943
 31
0.0
210
0.0
220
0.0
230
1.0
 40
0.5543379548023035
 41
0.0
 42
6.283185307179586
  0
ELLIPSE
  5
4AE
330
1F
100
AcDbEntity
  8
0
  6
ByBlock
 62
     5
100
AcDbEllipse
 10
1669.517473028348
 20
3744.522938859126
 30
0.0
 11
-56.92604352097045
 21
39.13390617783545
 31
0.0
210
0.0
220
0.0
230
1.0
 40
0.3440493371588793
 41
0.0
 42
6.283185307179586
  0
ELLIPSE
  5
4AF
330
1F
100
AcDbEntity
  8
0
  6
ByBlock
 62
     5
100
AcDbEllipse
 10
1462.909391084657
 20
3922.115041587652
 30
0.0
 11
-35.71345807654689
 21
39.0647517562335
 31
0.0
210
0.0
220
0.0
230
1.0
 40
0.3282216244181646
 41
0.0
 42
6.283185307179586
  0
ELLIPSE
  5
4B0
330
1F
100
AcDbEntity
  8
0
  6
ByBlock
 62
     5
100
AcDbEllipse
 10
963.3544184171196
 20
3240.02268442765
 30
0.0
 11
-61.64093829972406
 21
-1.478429569157975
 31
0.0
210
0.0
220
0.0
230
1.0
 40
0.9723717943692678
 41
0.0
 42
6.283185307179586
  0
ELLIPSE
  5
4B1
330
1F
100
AcDbEntity
  8
0
  6
ByBlock
 62
     5
100
AcDbEllipse
 10
2176.002709942725
 20
2157.338566662712
 30
0.0
 11
175.786797471904
 21
142.3278419179469
 31
0.0
210
0.0
220
0.0
230
1.0
 40
0.7871899585541669
 41
0.0
 42
6.283185307179586
  0
ELLIPSE
  5
4B2
330
1F
100
AcDbEntity
  8
0
  6
ByBlock
 62
     5
100
AcDbEllipse
 10
2165.869004871872
 20
1610.699415267825
 30
0.0
 11
-166.4474134725626
 21
187.2914392304406
 31
0.0
210
0.0
220
0.0
230
1.0
 40
0.7913681152652145
 41
0.0
 42
6.283185307179586
  0
ELLIPSE
  5
4B3
330
1F
100
AcDbEntity
  8
0
  6
ByBlock
 62
     5
100
AcDbEllipse
 10
2707.12613701023
 20
1645.083573193832
 30
0.0
 11
143.395916184872
 21
159.9440500855386
 31
0.0
210
0.0
220
0.0
230
1.0
 40
0.8295556793284942
 41
0.0
 42
6.283185307179586
  0
ELLIPSE
  5
4B4
330
1F
100
AcDbEntity
  8
0
  6
ByBlock
 62
     5
100
AcDbEllipse
 10
2680.305704360887
 20
2132.118069400508
 30
0.0
 11
-158.0849154835855
 21
143.398974225929
 31
0.0
210
0.0
220
0.0
230
1.0
 40
0.7159394728025017
 41
0.0
 42
6.283185307179586
  0
ELLIPSE
  5
4B5
330
1F
100
AcDbEntity
  8
0
  6
ByBlock
 62
     5
100
AcDbEllipse
 10
2192.913125898021
 20
2518.837205531507
 30
0.0
 11
159.4966715325668
 21
42.79485911383887
 31
0.0
210
0.0
220
0.0
230
1.0
 40
0.5032807539241602
 41
0.0
 42
6.283185307179586
  0
ELLIPSE
  5
4B6
330
1F
100
AcDbEntity
  8
0
  6
ByBlock
 62
     5
100
AcDbEllipse
 10
2625.809134690558
 20
2512.203596544367
 30
0.0
 11
-135.3448442785307
 21
78.61182864850853
 31
0.0
210
0.0
220
0.0
230
1.0
 40
0.5240639687030935
 41
0.0
 42
6.283185307179586
  0
ELLIPSE
  5
4B7
330
1F
100
AcDbEntity
  8
0
  6
ByBlock
 62
     5
100
AcDbEllipse
 10
1812.787654619475
 20
2471.131892028984
 30
0.0
 11
93.09245809712756
 21
107.4612361611301
 31
0.0
210
0.0
220
0.0
230
1.0
 40
0.586072506312773
 41
0.0
 42
6.283185307179586
  0
ELLIPSE
  5
4B8
330
1F
100
AcDbEntity
  8
0
  6
ByBlock
 62
     5
100
AcDbEllipse
 10
1752.563901105038
 20
2097.550236802684
 30
0.0
 11
93.49640295444357
 21
166.6615923977412
 31
0.0
210
0.0
220
0.0
230
1.0
 40
0.7397700349637164
 41
0.0
 42
6.283185307179586
  0
ELLIPSE
  5
4B9
330
1F
100
AcDbEntity
  8
0
  6
ByBlock
 62
     5
100
AcDbEllipse
 10
1731.790763474478
 20
1646.909700339131
 30
0.0
 11
-66.62051884965316
 21
188.4653387026397
 31
0.0
210
0.0
220
0.0
230
1.0
 40
0.643644602650443
 41
0.0
 42
6.283185307179586
  0
ELLIPSE
  5
4BA
330
1F
100
AcDbEntity
  8
0
  6
ByBlock
 62
     5
100
AcDbEllipse
 10
3078.103224581778
 20
1658.665591555218
 30
0.0
 11
39.63244042471729
 21
176.2843683607409
 31
0.0
210
0.0
220
0.0
230
1.0
 40
0.6349295917110701
 41
0.0
 42
6.283185307179586
  0
ELLIPSE
  5
4BB
330
1F
100
AcDbEntity
  8
0
  6
ByBlock
 62
     5
100
AcDbEllipse
 10
3054.60975765453
 20
2087.30305503823
 30
0.0
 11
-61.03052039431095
 21
167.1825845825783
 31
0.0
210
0.0
220
0.0
230
1.0
 40
0.5643074375171539
 41
0.0
 42
6.283185307179586
  0
ELLIPSE
  5
4BC
330
1F
100
AcDbEntity
  8
0
  6
ByBlock
 62
     5
100
AcDbEllipse
 10
2972.575691953419
 20
2431.792148876222
 30
0.0
 11
-101.5853655207028
 21
101.4064886616749
 31
0.0
210
0.0
220
0.0
230
1.0
 40
0.5330286989906146
 41
0.0
 42
6.283185307179586
  0
ELLIPSE
  5
4BD
330
1F
100
AcDbEntity
  8
0
  6
ByBlock
 62
     5
100
AcDbEllipse
 10
2569.983012234211
 20
2724.237402514413
 30
0.0
 11
-133.8159354917684
 21
38.64286018968993
 31
0.0
210
0.0
220
0.0
230
1.0
 40
0.24148956889749
 41
0.0
 42
6.283185307179586
  0
ELLIPSE
  5
4BE
330
1F
100
AcDbEntity
  8
0
  6
ByBlock
 62
     5
100
AcDbEllipse
 10
2235.132695441906
 20
2743.118492307152
 30
0.0
 11
-139.3708746167036
 21
-9.551473957031523
 31
0.0
210
0.0
220
0.0
230
1.0
 40
0.2117016608237568
 41
0.0
 42
6.283185307179586
  0
ELLIPSE
  5
4BF
330
1F
100
AcDbEntity
  8
0
  6
ByBlock
 62
     5
100
AcDbEllipse
 10
1911.374711751778
 20
2682.152807267318
 30
0.0
 11
-109.400264763892
 21
-46.66001709932954
 31
0.0
210
0.0
220
0.0
230
1.0
 40
0.285301514062946
 41
0.0
 42
6.283185307179586
  0
ELLIPSE
  5
4C0
330
1F
100
AcDbEntity
  8
0
  6
ByBlock
 62
     5
100
AcDbEllipse
 10
1659.340920473653
 20
2582.455233012212
 30
0.0
 11
74.84533920511282
 21
64.39614445059408
 31
0.0
210
0.0
220
0.0
230
1.0
 40
0.2625462790620994
 41
0.0
 42
6.283185307179586
  0
ELLIPSE
  5
4C1
330
1F
100
AcDbEntity
  8
0
  6
ByBlock
 62
     5
100
AcDbEllipse
 10
1552.342095519155
 20
2361.989963255944
 30
0.0
 11
74.96605590490734
 21
113.5559573330285
 31
0.0
210
0.0
220
0.0
230
1.0
 40
0.2956817006837765
 41
0.0
 42
6.283185307179586
  0
ELLIPSE
  5
4C2
330
1F
100
AcDbEntity
  8
0
  6
ByBlock
 62
     5
100
AcDbEllipse
 10
1483.030001993641
 20
2021.215924210423
 30
0.0
 11
39.40702929352044
 21
130.341422513746
 31
0.0
210
0.0
220
0.0
230
1.0
 40
0.303083427851667
 41
0.0
 42
6.283185307179586
  0
ELLIPSE
  5
4C3
330
1F
100
AcDbEntity
  8
0
  6
ByBlock
 62
     5
100
AcDbEllipse
 10
1465.725725638899
 20
1659.759662987216
 30
0.0
 11
-29.71569972530386
 21
148.6508804886266
 31
0.0
210
0.0
220
0.0
230
1.0
 40
0.4353428210098136
 41
0.0
 42
6.283185307179586
  0
ELLIPSE
  5
4C4
330
1F
100
AcDbEntity
  8
0
  6
ByBlock
 62
     5
100
AcDbEllipse
 10
1553.909492404041
 20
1253.393855878944
 30
0.0
 11
-77.07968669581058
 21
110.4481609810201
 31
0.0
210
0.0
220
0.0
230
1.0
 40
0.288709271801599
 41
0.0
 42
6.283185307179586
  0
ELLIPSE
  5
4C5
330
1F
100
AcDbEntity
  8
0
  6
ByBlock
 62
     5
100
AcDbEllipse
 10
1796.447325862625
 20
1232.624258068951
 30
0.0
 11
-113.863051363775
 21
140.2851911391979
 31
0.0
210
0.0
220
0.0
230
1.0
 40
0.5221968904904117
 41
0.0
 42
6.283185307179586
  0
ELLIPSE
  5
4C6
330
1F
100
AcDbEntity
  8
0
  6
ByBlock
 62
     5
100
AcDbEllipse
 10
2186.778380023898
 20
1166.00212261434
 30
0.0
 11
-193.7654564405059
 21
68.74798407760732
 31
0.0
210
0.0
220
0.0
230
1.0
 40
0.5440066373474553
 41
0.0
 42
6.283185307179586
  0
ELLIPSE
  5
4C7
330
1F
100
AcDbEntity
  8
0
  6
ByBlock
 62
     5
100
AcDbEllipse
 10
2653.757031804534
 20
1182.746225411834
 30
0.0
 11
169.9010411010616
 21
112.0639435303044
 31
0.0
210
0.0
220
0.0
230
1.0
 40
0.5568978722914443
 41
0.0
 42
6.283185307179586
  0
ELLIPSE
  5
4C8
330
1F
100
AcDbEntity
  8
0
  6
ByBlock
 62
     5
100
AcDbEllipse
 10
3005.266061156945
 20
1270.769291145908
 30
0.0
 11
93.30701784912362
 21
107.9901300104489
 31
0.0
210
0.0
220
0.0
230
1.0
 40
0.5354660243915223
 41
0.0
 42
6.283185307179586
  0
ELLIPSE
  5
4C9
330
1F
100
AcDbEntity
  8
0
  6
ByBlock
 62
     5
100
AcDbEllipse
 10
3192.376109141188
 20
1313.793957322421
 30
0.0
 11
58.89337321020297
 21
110.5486988179686
 31
0.0
210
0.0
220
0.0
230
1.0
 40
0.26144072729172
 41
0.0
 42
6.283185307179586
  0
ELLIPSE
  5
4CA
330
1F
100
AcDbEntity
  8
0
  6
ByBlock
 62
     5
100
AcDbEllipse
 10
3267.539196631727
 20
1687.164735240381
 30
0.0
 11
6.596877617299009
 21
145.8356704925868
 31
0.0
210
0.0
220
0.0
230
1.0
 40
0.3537604843124105
 41
0.0
 42
6.283185307179586
  0
ELLIPSE
  5
4CB
330
1F
100
AcDbEntity
  8
0
  6
ByBlock
 62
     5
100
AcDbEllipse
 10
3270.027277857066
 20
2037.78425890645
 30
0.0
 11
-33.71856409894305
 21
135.6879972475071
 31
0.0
210
0.0
220
0.0
230
1.0
 40
0.4138706767487877
 41
0.0
 42
6.283185307179586
  0
ELLIPSE
  5
4CC
330
1F
100
AcDbEntity
  8
0
  6
ByBlock
 62
     5
100
AcDbEllipse
 10
3188.576704814755
 20
2333.483564520372
 30
0.0
 11
-55.68498463513197
 21
103.9780069292153
 31
0.0
210
0.0
220
0.0
230
1.0
 40
0.2466823892092328
 41
0.0
 42
6.283185307179586
  0
ELLIPSE
  5
4CD
330
1F
100
AcDbEntity
  8
0
  6
ByBlock
 62
     5
100
AcDbEllipse
 10
3317.715708043762
 20
2241.216398183695
 30
0.0
 11
-36.68355822643557
 21
81.44348679137273
 31
0.0
210
0.0
220
0.0
230
1.0
 40
0.2622464683705516
 41
0.0
 42
6.283185307179586
  0
ELLIPSE
  5
4CE
330
1F
100
AcDbEntity
  8
0
  6
ByBlock
 62
     5
100
AcDbEllipse
 10
3227.426230799161
 20
2456.804252975513
 30
0.0
 11
-41.82198944428201
 21
61.0192737536013
 31
0.0
210
0.0
220
0.0
230
1.0
 40
0.2300144578896312
 41
0.0
 42
6.283185307179586
  0
ELLIPSE
  5
4CF
330
1F
100
AcDbEntity
  8
0
  6
ByBlock
 62
     5
100
AcDbEllipse
 10
3080.982040256598
 20
2556.917745609002
 30
0.0
 11
-72.76995001399703
 21
64.94209731654305
 31
0.0
210
0.0
220
0.0
230
1.0
 40
0.1970703003731511
 41
0.0
 42
6.283185307179586
  0
ELLIPSE
  5
4D0
330
1F
100
AcDbEntity
  8
0
  6
ByBlock
 62
     5
100
AcDbEllipse
 10
2868.044514933428
 20
2652.268163233725
 30
0.0
 11
-98.22260194996275
 21
63.80041340552248
 31
0.0
210
0.0
220
0.0
230
1.0
 40
0.2933697983545421
 41
0.0
 42
6.283185307179586
  0
ELLIPSE
  5
4D1
330
1F
100
AcDbEntity
  8
0
  6
ByBlock
 62
     5
100
AcDbEllipse
 10
3086.755343603757
 20
1083.082382317476
 30
0.0
 11
71.662405769415
 21
80.44453484471693
 31
0.0
210
0.0
220
0.0
230
1.0
 40
0.2213818372616044
 41
0.0
 42
6.283185307179586
  0
ELLIPSE
  5
4D2
330
1F
100
AcDbEntity
  8
0
  6
ByBlock
 62
     5
100
AcDbEllipse
 10
2872.004474752933
 20
983.1500466055087
 30
0.0
 11
86.10654669277842
 21
61.62746391853598
 31
0.0
210
0.0
220
0.0
230
1.0
 40
0.1938181643525248
 41
0.0
 42
6.283185307179586
  0
ELLIPSE
  5
4D3
330
1F
100
AcDbEntity
  8
0
  6
ByBlock
 62
     5
100
AcDbEllipse
 10
2574.084294670146
 20
918.078160607196
 30
0.0
 11
-132.5221949667868
 21
-35.58888368465235
 31
0.0
210
0.0
220
0.0
230
1.0
 40
0.3066089566439662
 41
0.0
 42
6.283185307179586
  0
ELLIPSE
  5
4D4
330
1F
100
AcDbEntity
  8
0
  6
ByBlock
 62
     5
100
AcDbEllipse
 10
2220.388646424895
 20
899.6928183879917
 30
0.0
 11
-152.4490334985025
 21
18.87151031397178
 31
0.0
210
0.0
220
0.0
230
1.0
 40
0.3811912700872099
 41
0.0
 42
6.283185307179586
  0
ELLIPSE
  5
4D5
330
1F
100
AcDbEntity
  8
0
  6
ByBlock
 62
     5
100
AcDbEllipse
 10
1909.05612270278
 20
943.4223150059738
 30
0.0
 11
-110.3522930954384
 21
56.91880487214259
 31
0.0
210
0.0
220
0.0
230
1.0
 40
0.4410821753335441
 41
0.0
 42
6.283185307179586
  0
ELLIPSE
  5
4D6
330
1F
100
AcDbEntity
  8
0
  6
ByBlock
 62
     5
100
AcDbEllipse
 10
1659.091432944872
 20
1045.373595014657
 30
0.0
 11
-74.59516695614526
 21
64.70912547863938
 31
0.0
210
0.0
220
0.0
230
1.0
 40
0.3344100027016175
 41
0.0
 42
6.283185307179586
  0
ELLIPSE
  5
4D7
330
1F
100
AcDbEntity
  8
0
  6
ByBlock
 62
     5
100
AcDbEllipse
 10
1394.062076623305
 20
1359.306473480985
 30
0.0
 11
-37.13809837626467
 21
96.05616626829204
 31
0.0
210
0.0
220
0.0
230
1.0
 40
0.235418918048738
 41
0.0
 42
6.283185307179586
  0
ELLIPSE
  5
4D8
330
1F
100
AcDbEntity
  8
0
  6
ByBlock
 62
     5
100
AcDbEllipse
 10
1329.219417944231
 20
1644.600152136485
 30
0.0
 11
-15.97581997002094
 21
102.8346712872428
 31
0.0
210
0.0
220
0.0
230
1.0
 40
0.2779866383458314
 41
0.0
 42
6.283185307179586
  0
ELLIPSE
  5
4D9
330
1F
100
AcDbEntity
  8
0
  6
ByBlock
 62
     5
100
AcDbEllipse
 10
1246.555560491849
 20
1675.281366650746
 30
0.0
 11
-9.471178008814844
 21
86.00546017393236
 31
0.0
210
0.0
220
0.0
230
1.0
 40
0.1158070064022629
 41
0.0
 42
6.283185307179586
  0
ELLIPSE
  5
4DA
330
1F
100
AcDbEntity
  8
0
  6
ByBlock
 62
     5
100
AcDbEllipse
 10
1198.140494503387
 20
1692.442961400234
 30
0.0
 11
-6.310163491336243
 21
66.01638199142479
 31
0.0
210
0.0
220
0.0
230
1.0
 40
0.1563784438136715
 41
0.0
 42
6.283185307179586
  0
ELLIPSE
  5
4DB
330
1F
100
AcDbEntity
  8
0
  6
ByBlock
 62
     5
100
AcDbEllipse
 10
1137.681591971633
 20
1702.255189609368
 30
0.0
 11
-6.827620038006105
 21
71.40253091989852
 31
0.0
210
0.0
220
0.0
230
1.0
 40
0.1913596888316371
 41
0.0
 42
6.283185307179586
  0
ELLIPSE
  5
4DC
330
1F
100
AcDbEntity
  8
0
  6
ByBlock
 62
     5
100
AcDbEllipse
 10
1137.291002807121
 20
1914.601710760513
 30
0.0
 11
6.352058858797629
 21
67.95741166781768
 31
0.0
210
0.0
220
0.0
230
1.0
 40
0.2257766941950733
 41
0.0
 42
6.283185307179586
  0
ELLIPSE
  5
4DD
330
1F
100
AcDbEntity
  8
0
  6
ByBlock
 62
     5
100
AcDbEllipse
 10
1195.796561689641
 20
1926.906938313704
 30
0.0
 11
3.497135179372295
 21
64.96402948880181
 31
0.0
210
0.0
220
0.0
230
1.0
 40
0.2412206404908487
 41
0.0
 42
6.283185307179586
  0
ELLIPSE
  5
4DE
330
1F
100
AcDbEntity
  8
0
  6
ByBlock
 62
     5
100
AcDbEllipse
 10
1247.107863106184
 20
1950.739310060992
 30
0.0
 11
7.692597480390322
 21
78.62566364372084
 31
0.0
210
0.0
220
0.0
230
1.0
 40
0.1346767944400496
 41
0.0
 42
6.283185307179586
  0
ELLIPSE
  5
4DF
330
1F
100
AcDbEntity
  8
0
  6
ByBlock
 62
     5
100
AcDbEllipse
 10
1334.389438031242
 20
1978.529391416602
 30
0.0
 11
-6.99095696012442
 21
-106.54372979578
 31
0.0
210
0.0
220
0.0
230
1.0
 40
0.2582621847288014
 41
0.0
 42
6.283185307179586
  0
ELLIPSE
  5
4E0
330
1F
100
AcDbEntity
  8
0
  6
ByBlock
 62
     5
100
AcDbEllipse
 10
1154.810159104091
 20
2095.827587569381
 30
0.0
 11
8.874677080819211
 21
62.83543232078608
 31
0.0
210
0.0
220
0.0
230
1.0
 40
0.4533515984904931
 41
0.0
 42
6.283185307179586
  0
ELLIPSE
  5
4E1
330
1F
100
AcDbEntity
  8
0
  6
ByBlock
 62
     5
100
AcDbEllipse
 10
1228.873457597948
 20
2130.58271766911
 30
0.0
 11
11.70593220075282
 21
68.46156299491612
 31
0.0
210
0.0
220
0.0
230
1.0
 40
0.1814528793316688
 41
0.0
 42
6.283185307179586
  0
ELLIPSE
  5
4E2
330
1F
100
AcDbEntity
  8
0
  6
ByBlock
 62
     5
100
AcDbEllipse
 10
1305.570150255197
 20
2194.674281568028
 30
0.0
 11
22.89143150087414
 21
81.32848384932042
 31
0.0
210
0.0
220
0.0
230
1.0
 40
0.1711010891326035
 41
0.0
 42
6.283185307179586
  0
ELLIPSE
  5
4E3
330
1F
100
AcDbEntity
  8
0
  6
ByBlock
 62
     5
100
AcDbEllipse
 10
1401.684648040275
 20
2268.495300654147
 30
0.0
 11
40.40312843172968
 21
93.2354699266585
 31
0.0
210
0.0
220
0.0
230
1.0
 40
0.2152231425778756
 41
0.0
 42
6.283185307179586
  0
ELLIPSE
  5
4E4
330
1F
100
AcDbEntity
  8
0
  6
ByBlock
 62
     5
100
AcDbEllipse
 10
1194.216665425411
 20
2273.801553506786
 30
0.0
 11
15.72940229960545
 21
62.26804442373676
 31
0.0
210
0.0
220
0.0
230
1.0
 40
0.4191595557325264
 41
0.0
 42
6.283185307179586
  0
ELLIPSE
  5
4E5
330
1F
100
AcDbEntity
  8
0
  6
ByBlock
 62
     5
100
AcDbEllipse
 10
1281.48689639567
 20
2317.277288286598
 30
0.0
 11
27.02116920037505
 21
65.1024082379419
 31
0.0
210
0.0
220
0.0
230
1.0
 40
0.2494666634441065
 41
0.0
 42
6.283185307179586
  0
ELLIPSE
  5
4E6
330
1F
100
AcDbEntity
  8
0
  6
ByBlock
 62
     5
100
AcDbEllipse
 10
1379.068179679977
 20
2389.199099521671
 30
0.0
 11
28.90500657930999
 21
62.9502865777954
 31
0.0
210
0.0
220
0.0
230
1.0
 40
0.2274102495028145
 41
0.0
 42
6.283185307179586
  0
ELLIPSE
  5
4E7
330
1F
100
AcDbEntity
  8
0
  6
ByBlock
 62
     5
100
AcDbEllipse
 10
1490.258275684872
 20
2480.591382196126
 30
0.0
 11
48.845400074197
 21
64.11152196626978
 31
0.0
210
0.0
220
0.0
230
1.0
 40
0.3096975138843974
 41
0.0
 42
6.283185307179586
  0
ELLIPSE
  5
4E8
330
1F
100
AcDbEntity
  8
0
  6
ByBlock
 62
     5
100
AcDbEllipse
 10
1223.180866142299
 20
2434.199513917469
 30
0.0
 11
-22.49760055482821
 21
-55.69898566819507
 31
0.0
210
0.0
220
0.0
230
1.0
 40
0.4598810787565704
 41
0.0
 42
6.283185307179586
  0
ELLIPSE
  5
4E9
330
1F
100
AcDbEntity
  8
0
  6
ByBlock
 62
     5
100
AcDbEllipse
 10
1343.96224002872
 20
2472.961628309108
 30
0.0
 11
34.72185118773055
 21
55.31143594805527
 31
0.0
210
0.0
220
0.0
230
1.0
 40
0.3331379983693433
 41
0.0
 42
6.283185307179586
  0
ELLIPSE
  5
4EA
330
1F
100
AcDbEntity
  8
0
  6
ByBlock
 62
     5
100
AcDbEllipse
 10
1452.578246874648
 20
2544.983057339174
 30
0.0
 11
40.47566994540448
 21
53.69204540293528
 31
0.0
210
0.0
220
0.0
230
1.0
 40
0.263716288386496
 41
0.0
 42
6.283185307179586
  0
ELLIPSE
  5
4EB
330
1F
100
AcDbEntity
  8
0
  6
ByBlock
 62
     5
100
AcDbEllipse
 10
1587.831858185092
 20
2638.310307423898
 30
0.0
 11
52.7305481544056
 21
46.95662945410395
 31
0.0
210
0.0
220
0.0
230
1.0
 40
0.1700638761474046
 41
0.0
 42
6.283185307179586
  0
ELLIPSE
  5
4EC
330
1F
100
AcDbEntity
  8
0
  6
ByBlock
 62
     5
100
AcDbEllipse
 10
1527.102220312373
 20
2682.545646473092
 30
0.0
 11
41.09488244849577
 21
47.45199678055303
 31
0.0
210
0.0
220
0.0
230
1.0
 40
0.3274123394475072
 41
0.0
 42
6.283185307179586
  0
ELLIPSE
  5
4ED
330
1F
100
AcDbEntity
  8
0
  6
ByBlock
 62
     5
100
AcDbEllipse
 10
1665.372163317254
 20
2749.365993366659
 30
0.0
 11
54.22637914187446
 21
33.05260813981015
 31
0.0
210
0.0
220
0.0
230
1.0
 40
0.3535473790547117
 41
0.0
 42
6.283185307179586
  0
ELLIPSE
  5
4EE
330
1F
100
AcDbEntity
  8
0
  6
ByBlock
 62
     5
100
AcDbEllipse
 10
1756.968224410332
 20
2728.184347292657
 30
0.0
 11
82.72372600859801
 21
44.83153089768314
 31
0.0
210
0.0
220
0.0
230
1.0
 40
0.1862402022967122
 41
0.0
 42
6.283185307179586
  0
ELLIPSE
  5
4EF
330
1F
100
AcDbEntity
  8
0
  6
ByBlock
 62
     5
100
AcDbEllipse
 10
1825.79389574859
 20
2819.32584772834
 30
0.0
 11
59.49521955473196
 21
25.88771971010212
 31
0.0
210
0.0
220
0.0
230
1.0
 40
0.3504387369217499
 41
0.0
 42
6.283185307179586
  0
ELLIPSE
  5
4F0
330
1F
100
AcDbEntity
  8
0
  6
ByBlock
 62
     5
100
AcDbEllipse
 10
1981.43570131765
 20
2811.043032504594
 30
0.0
 11
96.42305820322732
 21
25.91513718338954
 31
0.0
210
0.0
220
0.0
230
1.0
 40
0.1847623395320464
 41
0.0
 42
6.283185307179586
  0
ELLIPSE
  5
4F1
330
1F
100
AcDbEntity
  8
0
  6
ByBlock
 62
     5
100
AcDbEllipse
 10
2250.421555090027
 20
2856.365671451857
 30
0.0
 11
102.6814337051417
 21
10.78364902161665
 31
0.0
210
0.0
220
0.0
230
1.0
 40
0.1904372857436904
 41
0.0
 42
6.283185307179586
  0
ELLIPSE
  5
4F2
330
1F
100
AcDbEntity
  8
0
  6
ByBlock
 62
     5
100
AcDbEllipse
 10
2257.761112378955
 20
2913.275115307181
 30
0.0
 11
83.40942128592866
 21
9.564993800412862
 31
0.0
210
0.0
220
0.0
230
1.0
 40
0.1441188546046541
 41
0.0
 42
6.283185307179586
  0
ELLIPSE
  5
4F3
330
1F
100
AcDbEntity
  8
0
  6
ByBlock
 62
     5
100
AcDbEllipse
 10
2262.720276678346
 20
2961.929169075818
 30
0.0
 11
64.8681452541645
 21
5.294266127426401
 31
0.0
210
0.0
220
0.0
230
1.0
 40
0.2520652065604509
 41
0.0
 42
6.283185307179586
  0
ELLIPSE
  5
4F4
330
1F
100
AcDbEntity
  8
0
  6
ByBlock
 62
     5
100
AcDbEllipse
 10
2276.294823733246
 20
3029.168286472391
 30
0.0
 11
58.62179284919003
 21
7.282026690386115
 31
0.0
210
0.0
220
0.0
230
1.0
 40
0.2456480515250224
 41
0.0
 42
6.283185307179586
  0
ELLIPSE
  5
4F5
330
1F
100
AcDbEntity
  8
0
  6
ByBlock
 62
     5
100
AcDbEllipse
 10
2451.869493177453
 20
3032.727839046958
 30
0.0
 11
57.06361775045691
 21
-5.650605200536229
 31
0.0
210
0.0
220
0.0
230
1.0
 40
0.2497416843977626
 41
0.0
 42
6.283185307179586
  0
ELLIPSE
  5
4F6
330
1F
100
AcDbEntity
  8
0
  6
ByBlock
 62
     5
100
AcDbEllipse
 10
2474.137115940846
 20
2965.497440749444
 30
0.0
 11
63.97727054756871
 21
-4.97761625908921
 31
0.0
210
0.0
220
0.0
230
1.0
 40
0.2029037836332285
 41
0.0
 42
6.283185307179586
  0
ELLIPSE
  5
4F7
330
1F
100
AcDbEntity
  8
0
  6
ByBlock
 62
     5
100
AcDbEllipse
 10
2493.047359163729
 20
2910.598237368471
 30
0.0
 11
76.4288297911009
 21
-7.935033030957633
 31
0.0
210
0.0
220
0.0
230
1.0
 40
0.1694492361698267
 41
0.0
 42
6.283185307179586
  0
ELLIPSE
  5
4F8
330
1F
100
AcDbEntity
  8
0
  6
ByBlock
 62
     5
100
AcDbEllipse
 10
2514.344738331072
 20
2843.256581775228
 30
0.0
 11
95.08189768447072
 21
-18.60021742049883
 31
0.0
210
0.0
220
0.0
230
1.0
 40
0.1940694864266513
 41
0.0
 42
6.283185307179586
  0
ELLIPSE
  5
4F9
330
1F
100
AcDbEntity
  8
0
  6
ByBlock
 62
     5
100
AcDbEllipse
 10
2626.431702830495
 20
3019.90373916693
 30
0.0
 11
-62.67374970749212
 21
12.49052332500803
 31
0.0
210
0.0
220
0.0
230
1.0
 40
0.2689116917033667
 41
0.0
 42
6.283185307179586
  0
ELLIPSE
  5
4FA
330
1F
100
AcDbEntity
  8
0
  6
ByBlock
 62
     5
100
AcDbEllipse
 10
2664.959429566779
 20
2939.409812125124
 30
0.0
 11
-59.75027827108376
 21
10.01633360372934
 31
0.0
210
0.0
220
0.0
230
1.0
 40
0.2371248649536689
 41
0.0
 42
6.283185307179586
  0
ELLIPSE
  5
4FB
330
1F
100
AcDbEntity
  8
0
  6
ByBlock
 62
     5
100
AcDbEllipse
 10
2709.80029939153
 20
2874.333170811663
 30
0.0
 11
-70.17191735332396
 21
19.9436067402216
 31
0.0
210
0.0
220
0.0
230
1.0
 40
0.239007686230385
 41
0.0
 42
6.283185307179586
  0
ELLIPSE
  5
4FC
330
1F
100
AcDbEntity
  8
0
  6
ByBlock
 62
     5
100
AcDbEllipse
 10
2769.84756857998
 20
2786.227425926769
 30
0.0
 11
-90.13336662394808
 21
37.42957129581661
 31
0.0
210
0.0
220
0.0
230
1.0
 40
0.2146224192819104
 41
0.0
 42
6.283185307179586
  0
ELLIPSE
  5
4FD
330
1F
100
AcDbEntity
  8
0
  6
ByBlock
 62
     5
100
AcDbEllipse
 10
2845.752527257923
 20
2892.632869191801
 30
0.0
 11
-54.73177659154355
 21
26.16587490332721
 31
0.0
210
0.0
220
0.0
230
1.0
 40
0.2404801829457879
 41
0.0
 42
6.283185307179586
  0
ELLIPSE
  5
4FE
330
1F
100
AcDbEntity
  8
0
  6
ByBlock
 62
     5
100
AcDbEllipse
 10
2907.97242729072
 20
2801.610572317787
 30
0.0
 11
-55.93034839700488
 21
30.46571064418803
 31
0.0
210
0.0
220
0.0
230
1.0
 40
0.222340443407166
 41
0.0
 42
6.283185307179586
  0
ELLIPSE
  5
4FF
330
1F
100
AcDbEntity
  8
0
  6
ByBlock
 62
     5
100
AcDbEllipse
 10
2979.00649332635
 20
2703.102439405983
 30
0.0
 11
-53.55921543963813
 21
40.46567557024149
 31
0.0
210
0.0
220
0.0
230
1.0
 40
0.1404265042974846
 41
0.0
 42
6.283185307179586
  0
ELLIPSE
  5
500
330
1F
100
AcDbEntity
  8
0
  6
ByBlock
 62
     5
100
AcDbEllipse
 10
3136.040840776493
 20
2614.592635671032
 30
0.0
 11
-40.87171258864092
 21
43.25274478523524
 31
0.0
210
0.0
220
0.0
230
1.0
 40
0.2802603606600433
 41
0.0
 42
6.283185307179586
  0
ELLIPSE
  5
501
330
1F
100
AcDbEntity
  8
0
  6
ByBlock
 62
     5
100
AcDbEllipse
 10
3066.776368029955
 20
2735.786698276654
 30
0.0
 11
-46.10823498043662
 21
36.86947536333633
 31
0.0
210
0.0
220
0.0
230
1.0
 40
0.3036051661616558
 41
0.0
 42
6.283185307179586
  0
ELLIPSE
  5
502
330
1F
100
AcDbEntity
  8
0
  6
ByBlock
 62
     5
100
AcDbEllipse
 10
3257.002465078812
 20
2543.168986205099
 30
0.0
 11
-36.59073121297522
 21
48.01920447308982
 31
0.0
210
0.0
220
0.0
230
1.0
 40
0.315319615189199
 41
0.0
 42
6.283185307179586
  0
ELLIPSE
  5
503
330
1F
100
AcDbEntity
  8
0
  6
ByBlock
 62
     5
100
AcDbEllipse
 10
3325.230927457394
 20
2392.136558428232
 30
0.0
 11
-23.28231874634612
 21
55.60847128493008
 31
0.0
210
0.0
220
0.0
230
1.0
 40
0.1985293418733813
 41
0.0
 42
6.283185307179586
  0
ELLIPSE
  5
504
330
1F
100
AcDbEntity
  8
0
  6
ByBlock
 62
     5
100
AcDbEllipse
 10
3400.101551354835
 20
2182.085868858665
 30
0.0
 11
-7.274923276907477
 21
68.71266836216633
 31
0.0
210
0.0
220
0.0
230
1.0
 40
0.2392518121463226
 41
0.0
 42
6.283185307179586
  0
ELLIPSE
  5
505
330
1F
100
AcDbEntity
  8
0
  6
ByBlock
 62
     5
100
AcDbEllipse
 10
3378.543247859489
 20
1983.951696998218
 30
0.0
 11
-10.84597511544354
 21
104.4104127070919
 31
0.0
210
0.0
220
0.0
230
1.0
 40
0.2620748267208021
 41
0.0
 42
6.283185307179586
  0
ELLIPSE
  5
506
330
1F
100
AcDbEntity
  8
0
  6
ByBlock
 62
     5
100
AcDbEllipse
 10
3441.227959323676
 20
1966.869665932002
 30
0.0
 11
-7.261947981275177
 21
72.54215233585732
 31
0.0
210
0.0
220
0.0
230
1.0
 40
0.173713962708749
 41
0.0
 42
6.283185307179586
  0
ELLIPSE
  5
507
330
1F
100
AcDbEntity
  8
0
  6
ByBlock
 62
     5
100
AcDbEllipse
 10
3496.827842957502
 20
1942.687800698472
 30
0.0
 11
-1.447106912476637
 21
60.33498637062582
 31
0.0
210
0.0
220
0.0
230
1.0
 40
0.2611304814372043
 41
0.0
 42
6.283185307179586
  0
ELLIPSE
  5
508
330
1F
100
AcDbEntity
  8
0
  6
ByBlock
 62
     5
100
AcDbEllipse
 10
3567.23461992902
 20
1919.662835217445
 30
0.0
 11
-1.614294804223766
 21
67.3056386997152
 31
0.0
210
0.0
220
0.0
230
1.0
 40
0.2254746079722806
 41
0.0
 42
6.283185307179586
  0
ELLIPSE
  5
509
330
1F
100
AcDbEntity
  8
0
  6
ByBlock
 62
     5
100
AcDbEllipse
 10
3378.917028027937
 20
1675.775955206367
 30
0.0
 11
14.29005061731943
 21
100.5952595088894
 31
0.0
210
0.0
220
0.0
230
1.0
 40
0.2196972007090087
 41
0.0
 42
6.283185307179586
  0
ELLIPSE
  5
50A
330
1F
100
AcDbEntity
  8
0
  6
ByBlock
 62
     5
100
AcDbEllipse
 10
3445.330317465356
 20
1700.86208437935
 30
0.0
 11
13.61550538010314
 21
79.97106533680515
 31
0.0
210
0.0
220
0.0
230
1.0
 40
0.173837822128487
 41
0.0
 42
6.283185307179586
  0
ELLIPSE
  5
50B
330
1F
100
AcDbEntity
  8
0
  6
ByBlock
 62
     5
100
AcDbEllipse
 10
3500.968113475451
 20
1719.326131159896
 30
0.0
 11
7.626385150532156
 21
68.89966473120022
 31
0.0
210
0.0
220
0.0
230
1.0
 40
0.236752385202036
 41
0.0
 42
6.283185307179586
  0
ELLIPSE
  5
50C
330
1F
100
AcDbEntity
  8
0
  6
ByBlock
 62
     5
100
AcDbEllipse
 10
3570.884163010023
 20
1732.32951291631
 30
0.0
 11
9.573829461470916
 21
72.94843244106592
 31
0.0
210
0.0
220
0.0
230
1.0
 40
0.2393400326621644
 41
0.0
 42
6.283185307179586
  0
ELLIPSE
  5
50D
330
1F
100
AcDbEntity
  8
0
  6
ByBlock
 62
     5
100
AcDbEllipse
 10
3666.933379076669
 20
1737.999342601165
 30
0.0
 11
11.25320928567019
 21
58.50629639872912
 31
0.0
210
0.0
220
0.0
230
1.0
 40
0.582618998663893
 41
0.0
 42
6.283185307179586
  0
ELLIPSE
  5
50E
330
1F
100
AcDbEntity
  8
0
  6
ByBlock
 62
     5
100
AcDbEllipse
 10
3551.789652441324
 20
1547.059392440919
 30
0.0
 11
11.40260580935273
 21
70.3553498892873
 31
0.0
210
0.0
220
0.0
230
1.0
 40
0.3147535650954178
 41
0.0
 42
6.283185307179586
  0
ELLIPSE
  5
50F
330
1F
100
AcDbEntity
  8
0
  6
ByBlock
 62
     5
100
AcDbEllipse
 10
3474.045034885408
 20
1513.891505704237
 30
0.0
 11
13.37231724155585
 21
66.1976577543928
 31
0.0
210
0.0
220
0.0
230
1.0
 40
0.1660896333182686
 41
0.0
 42
6.283185307179586
  0
ELLIPSE
  5
510
330
1F
100
AcDbEntity
  8
0
  6
ByBlock
 62
     5
100
AcDbEllipse
 10
3406.792280799099
 20
1472.098223344466
 30
0.0
 11
18.59828419661712
 21
82.20823510530138
 31
0.0
210
0.0
220
0.0
230
1.0
 40
0.2328911246664755
 41
0.0
 42
6.283185307179586
  0
ELLIPSE
  5
511
330
1F
100
AcDbEntity
  8
0
  6
ByBlock
 62
     5
100
AcDbEllipse
 10
3318.274002153326
 20
1400.827710169244
 30
0.0
 11
33.94980748812859
 21
85.37971722159607
 31
0.0
210
0.0
220
0.0
230
1.0
 40
0.2618220124889161
 41
0.0
 42
6.283185307179586
  0
ELLIPSE
  5
512
330
1F
100
AcDbEntity
  8
0
  6
ByBlock
 62
     5
100
AcDbEllipse
 10
3338.579979878851
 20
1268.000983785884
 30
0.0
 11
33.05012586314866
 21
66.82334176289178
 31
0.0
210
0.0
220
0.0
230
1.0
 40
0.2044652521129288
 41
0.0
 42
6.283185307179586
  0
ELLIPSE
  5
513
330
1F
100
AcDbEntity
  8
0
  6
ByBlock
 62
     5
100
AcDbEllipse
 10
3240.948191590084
 20
1196.858181413804
 30
0.0
 11
40.84489771434412
 21
69.31904852808836
 31
0.0
210
0.0
220
0.0
230
1.0
 40
0.2526031346795805
 41
0.0
 42
6.283185307179586
  0
ELLIPSE
  5
514
330
1F
100
AcDbEntity
  8
0
  6
ByBlock
 62
     5
100
AcDbEllipse
 10
1150.798813295828
 20
1522.019145722415
 30
0.0
 11
-12.47530808727308
 21
70.59233715175628
 31
0.0
210
0.0
220
0.0
230
1.0
 40
0.2136767104470379
 41
0.0
 42
6.283185307179586
  0
ELLIPSE
  5
515
330
1F
100
AcDbEntity
  8
0
  6
ByBlock
 62
     5
100
AcDbEllipse
 10
1228.864790871304
 20
1484.532070004624
 30
0.0
 11
-9.491598042125261
 21
70.26448871857816
 31
0.0
210
0.0
220
0.0
230
1.0
 40
0.1965483606582019
 41
0.0
 42
6.283185307179586
  0
ELLIPSE
  5
516
330
1F
100
AcDbEntity
  8
0
  6
ByBlock
 62
     5
100
AcDbEllipse
 10
1299.190804633007
 20
1423.528159741369
 30
0.0
 11
-24.93015539792243
 21
74.63083019096753
 31
0.0
210
0.0
220
0.0
230
1.0
 40
0.229002388987614
 41
0.0
 42
6.283185307179586
  0
ELLIPSE
  5
517
330
1F
100
AcDbEntity
  8
0
  6
ByBlock
 62
     5
100
AcDbEllipse
 10
1371.80043502593
 20
1234.599508696341
 30
0.0
 11
-31.32648130441236
 21
63.71345663275078
 31
0.0
210
0.0
220
0.0
230
1.0
 40
0.2094456000821935
 41
0.0
 42
6.283185307179586
  0
ELLIPSE
  5
518
330
1F
100
AcDbEntity
  8
0
  6
ByBlock
 62
     5
100
AcDbEllipse
 10
1486.104468826671
 20
1139.037547292851
 30
0.0
 11
-45.00194188796654
 21
62.64744693304742
 31
0.0
210
0.0
220
0.0
230
1.0
 40
0.2712117142286528
 41
0.0
 42
6.283185307179586
  0
ELLIPSE
  5
519
330
1F
100
AcDbEntity
  8
0
  6
ByBlock
 62
     5
100
AcDbEllipse
 10
1187.325651072199
 20
1340.484947196538
 30
0.0
 11
-14.04577531883017
 21
68.3351760641726
 31
0.0
210
0.0
220
0.0
230
1.0
 40
0.3145489794543486
 41
0.0
 42
6.283185307179586
  0
ELLIPSE
  5
51A
330
1F
100
AcDbEntity
  8
0
  6
ByBlock
 62
     5
100
AcDbEllipse
 10
1222.115285092238
 20
1174.932397278944
 30
0.0
 11
-28.98705152913457
 21
51.40535391930094
 31
0.0
210
0.0
220
0.0
230
1.0
 40
0.4979992973882076
 41
0.0
 42
6.283185307179586
  0
ELLIPSE
  5
51B
330
1F
100
AcDbEntity
  8
0
  6
ByBlock
 62
     5
100
AcDbEllipse
 10
1252.502223866992
 20
1020.431950199814
 30
0.0
 11
-36.25931500717012
 21
43.58366039324774
 31
0.0
210
0.0
220
0.0
230
1.0
 40
0.6510277591366295
 41
0.0
 42
6.283185307179586
  0
ELLIPSE
  5
51C
330
1F
100
AcDbEntity
  8
0
  6
ByBlock
 62
     5
100
AcDbEllipse
 10
1429.928837791115
 20
846.8950072021689
 30
0.0
 11
-40.6322893950914
 21
32.32787582125639
 31
0.0
210
0.0
220
0.0
230
0.9999999999999998
 40
0.5030912564952694
 41
0.0
 42
6.283185307179586
  0
ELLIPSE
  5
51D
330
1F
100
AcDbEntity
  8
0
  6
ByBlock
 62
     5
100
AcDbEllipse
 10
1574.750885036338
 20
810.9848744016906
 30
0.0
 11
-47.10366806483726
 21
31.09920307398131
 31
0.0
210
0.0
220
0.0
230
1.0
 40
0.5007462617892142
 41
0.0
 42
6.283185307179586
  0
ELLIPSE
  5
51E
330
1F
100
AcDbEntity
  8
0
  6
ByBlock
 62
     5
100
AcDbEllipse
 10
1725.303236725974
 20
763.9687050200064
 30
0.0
 11
-49.19097957025333
 21
30.01524173945021
 31
0.0
210
0.0
220
0.0
230
1.0
 40
0.3636043512295169
 41
0.0
 42
6.283185307179586
  0
ELLIPSE
  5
51F
330
1F
100
AcDbEntity
  8
0
  6
ByBlock
 62
     5
100
AcDbEllipse
 10
1881.775489641835
 20
720.8392325291024
 30
0.0
 11
-50.81075982798033
 21
14.87373391472851
 31
0.0
210
0.0
220
0.0
230
1.0
 40
0.488991052941188
 41
0.0
 42
6.283185307179586
  0
ELLIPSE
  5
520
330
1F
100
AcDbEntity
  8
0
  6
ByBlock
 62
     5
100
AcDbEllipse
 10
2067.334464256216
 20
683.7786317701532
 30
0.0
 11
-59.28143867419258
 21
12.76133145203802
 31
0.0
210
0.0
220
0.0
230
1.0
 40
0.2671436389336192
 41
0.0
 42
6.283185307179586
  0
ELLIPSE
  5
521
330
1F
100
AcDbEntity
  8
0
  6
ByBlock
 62
     5
100
AcDbEllipse
 10
2267.687922352111
 20
660.3767171380493
 30
0.0
 11
-63.91468415198962
 21
2.826546301675831
 31
0.0
210
0.0
220
0.0
230
1.0
 40
0.2924554808146212
 41
0.0
 42
6.283185307179586
  0
ELLIPSE
  5
522
330
1F
100
AcDbEntity
  8
0
  6
ByBlock
 62
     5
100
AcDbEllipse
 10
2264.720347472511
 20
712.2460130022316
 30
0.0
 11
-84.94775344639858
 21
6.996037268866644
 31
0.0
210
0.0
220
0.0
230
1.0
 40
0.1915962202456376
 41
0.0
 42
6.283185307179586
  0
ELLIPSE
  5
523
330
1F
100
AcDbEntity
  8
0
  6
ByBlock
 62
     5
100
AcDbEllipse
 10
2272.180794335888
 20
765.0682064619818
 30
0.0
 11
-88.02550815043861
 21
5.36469800608632
 31
0.0
210
0.0
220
0.0
230
1.0
 40
0.1979108697956614
 41
0.0
 42
6.283185307179586
  0
ELLIPSE
  5
524
330
1F
100
AcDbEntity
  8
0
  6
ByBlock
 62
     5
100
AcDbEllipse
 10
2521.213963968448
 20
784.057787336131
 30
0.0
 11
-99.35189196846124
 21
-19.00725976237953
 31
0.0
210
0.0
220
0.0
230
1.0
 40
0.1582153631471375
 41
0.0
 42
6.283185307179586
  0
ELLIPSE
  5
525
330
1F
100
AcDbEntity
  8
0
  6
ByBlock
 62
     5
100
AcDbEllipse
 10
2784.291504606242
 20
846.9809280119443
 30
0.0
 11
-91.68968546807693
 21
-37.20120383114021
 31
0.0
210
0.0
220
0.0
230
1.0
 40
0.2153688337517072
 41
0.0
 42
6.283185307179586
  0
ELLIPSE
  5
526
330
1F
100
AcDbEntity
  8
0
  6
ByBlock
 62
     5
100
AcDbEllipse
 10
2717.984448356264
 20
763.6977413333084
 30
0.0
 11
-74.01962074663081
 21
-26.64621151596533
 31
0.0
210
0.0
220
0.0
230
1.0
 40
0.1767751041088455
 41
0.0
 42
6.283185307179586
  0
ELLIPSE
  5
527
330
1F
100
AcDbEntity
  8
0
  6
ByBlock
 62
     5
100
AcDbEllipse
 10
2503.603147538612
 20
720.5020883989909
 30
0.0
 11
77.11633952957384
 21
8.387812715549497
 31
0.0
210
0.0
220
0.0
230
1.0
 40
0.2065404786270756
 41
0.0
 42
6.283185307179586
  0
ELLIPSE
  5
528
330
1F
100
AcDbEntity
  8
0
  6
ByBlock
 62
     5
100
AcDbEllipse
 10
2486.472983931018
 20
660.9400813621098
 30
0.0
 11
64.96200106830335
 21
1.558083732990184
 31
0.0
210
0.0
220
0.0
230
1.0
 40
0.2566668180567195
 41
0.0
 42
6.283185307179586
  0
ELLIPSE
  5
529
330
1F
100
AcDbEntity
  8
0
  6
ByBlock
 62
     5
100
AcDbEllipse
 10
2470.247745227055
 20
597.7878503357155
 30
0.0
 11
60.48439272101227
 21
6.531235222674377
 31
0.0
210
0.0
220
0.0
230
1.0
 40
0.1949965895040869
 41
0.0
 42
6.283185307179586
  0
ELLIPSE
  5
52A
330
1F
100
AcDbEntity
  8
0
  6
ByBlock
 62
     5
100
AcDbEllipse
 10
2642.99549990664
 20
613.6878171723117
 30
0.0
 11
-58.40731842514063
 21
-9.076256598190969
 31
0.0
210
0.0
220
0.0
230
1.0
 40
0.2509770058267414
 41
0.0
 42
6.283185307179586
  0
ELLIPSE
  5
52B
330
1F
100
AcDbEntity
  8
0
  6
ByBlock
 62
     5
100
AcDbEllipse
 10
2682.117304044908
 20
690.3566709295962
 30
0.0
 11
-65.98491920483915
 21
-13.35155108021606
 31
0.0
210
0.0
220
0.0
230
0.9999999999999998
 40
0.2127573117786709
 41
0.0
 42
6.283185307179586
  0
ELLIPSE
  5
52C
330
1F
100
AcDbEntity
  8
0
  6
ByBlock
 62
     5
100
AcDbEllipse
 10
2860.803858293658
 20
743.2783501524461
 30
0.0
 11
-61.77425211811925
 21
-28.18352270562993
 31
0.0
210
0.0
220
0.0
230
1.0
 40
0.2852618640733141
 41
0.0
 42
6.283185307179586
  0
ELLIPSE
  5
52D
330
1F
100
AcDbEntity
  8
0
  6
ByBlock
 62
     5
100
AcDbEllipse
 10
2914.264189641837
 20
836.2478529774884
 30
0.0
 11
-58.21215061492457
 21
-29.06322715312127
 31
0.0
210
0.0
220
0.0
230
1.0
 40
0.2866987177398145
 41
0.0
 42
6.283185307179586
  0
ELLIPSE
  5
52E
330
1F
100
AcDbEntity
  8
0
  6
ByBlock
 62
     5
100
AcDbEllipse
 10
3013.672231984559
 20
785.2269414266165
 30
0.0
 11
48.89465138340213
 21
31.51166964769549
 31
0.0
210
0.0
220
0.0
230
1.0
 40
0.3737653853337984
 41
0.0
 42
6.283185307179586
  0
ELLIPSE
  5
52F
330
1F
100
AcDbEntity
  8
0
  6
ByBlock
 62
     5
100
AcDbEllipse
 10
3159.93500818321
 20
830.2434232169169
 30
0.0
 11
47.31376010846473
 21
35.36211141899674
 31
0.0
210
0.0
220
0.0
230
1.0
 40
0.5424640587864769
 41
0.0
 42
6.283185307179586
  0
ELLIPSE
  5
530
330
1F
100
AcDbEntity
  8
0
  6
ByBlock
 62
     5
100
AcDbEllipse
 10
3209.365787593765
 20
964.2228849252438
 30
0.0
 11
43.17631374526345
 21
46.99299899195842
 31
0.0
210
0.0
220
0.0
230
1.0
 40
0.3238680594074435
 41
0.0
 42
6.283185307179586
  0
ELLIPSE
  5
531
330
1F
100
AcDbEntity
  8
0
  6
ByBlock
 62
     5
100
AcDbEllipse
 10
1600.26323421998
 20
966.7505874984749
 30
0.0
 11
-35.3417101227165
 21
31.97944507271564
 31
0.0
210
0.0
220
0.0
230
1.0
 40
0.3364644009971787
 41
0.0
 42
6.283185307179586
  0
ELLIPSE
  5
532
330
1F
100
AcDbEntity
  8
0
  6
ByBlock
 62
     5
100
AcDbEllipse
 10
1751.554304541176
 20
893.787687261984
 30
0.0
 11
-77.56056498354566
 21
41.11558893343704
 31
0.0
210
0.0
220
0.0
230
1.0
 40
0.2146579651138269
 41
0.0
 42
6.283185307179586
  0
ELLIPSE
  5
533
330
1F
100
AcDbEntity
  8
0
  6
ByBlock
 62
     5
100
AcDbEllipse
 10
2017.321153226222
 20
2878.315416517518
 30
0.0
 11
79.47304451848596
 21
18.74425741564697
 31
0.0
210
0.0
220
0.0
230
1.0
 40
0.2123786503961542
 41
0.0
 42
6.283185307179586
  0
ELLIPSE
  5
534
330
1F
100
AcDbEntity
  8
0
  6
ByBlock
 62
     5
100
AcDbEllipse
 10
2065.42268009155
 20
2942.418711094859
 30
0.0
 11
-66.37606708722294
 21
-10.06537187324763
 31
0.0
210
0.0
220
0.0
230
1.0
 40
0.2433425661782091
 41
0.0
 42
6.283185307179586
  0
ELLIPSE
  5
535
330
1F
100
AcDbEntity
  8
0
  6
ByBlock
 62
     5
100
AcDbEllipse
 10
2104.238657537296
 20
3013.722816396426
 30
0.0
 11
60.35280715436182
 21
14.05372557309018
 31
0.0
210
0.0
220
0.0
230
1.0
 40
0.2647695296777961
 41
0.0
 42
6.283185307179586
  0
ELLIPSE
  5
536
330
1F
100
AcDbEntity
  8
0
  6
ByBlock
 62
     5
100
AcDbEllipse
 10
1931.019244806376
 20
2992.550994313948
 30
0.0
 11
57.66919073305071
 21
16.13982499425913
 31
0.0
210
0.0
220
0.0
230
1.0
 40
0.4367027504589199
 41
0.0
 42
6.283185307179586
  0
ELLIPSE
  5
537
330
1F
100
AcDbEntity
  8
0
  6
ByBlock
 62
     5
100
AcDbEllipse
 10
1888.426094281342
 20
2899.695589065997
 30
0.0
 11
55.25437923880216
 21
18.61559959144753
 31
0.0
210
0.0
220
0.0
230
1.0
 40
0.2931100166787016
 41
0.0
 42
6.283185307179586
  0
ELLIPSE
  5
538
330
1F
100
AcDbEntity
  8
0
  6
ByBlock
 62
     5
100
AcDbEllipse
 10
1726.091330759839
 20
2850.95302094631
 30
0.0
 11
48.32254589206294
 21
26.90603132289562
 31
0.0
210
0.0
220
0.0
230
1.0
 40
0.3336610372565818
 41
0.0
 42
6.283185307179586
  0
ELLIPSE
  5
539
330
1F
100
AcDbEntity
  8
0
  6
ByBlock
 62
     5
100
AcDbEllipse
 10
1569.758464684623
 20
2808.484552245948
 30
0.0
 11
44.42881832588734
 21
38.1420391790337
 31
0.0
210
0.0
220
0.0
230
1.0
 40
0.4381051241821288
 41
0.0
 42
6.283185307179586
  0
ELLIPSE
  5
53A
330
1F
100
AcDbEntity
  8
0
  6
ByBlock
 62
     5
100
AcDbEllipse
 10
1426.733883068519
 20
2756.95025699032
 30
0.0
 11
38.41879076350167
 21
33.95873156803083
 31
0.0
210
0.0
220
0.0
230
1.0
 40
0.6145698097229421
 41
0.0
 42
6.283185307179586
  0
ELLIPSE
  5
53B
330
1F
100
AcDbEntity
  8
0
  6
ByBlock
 62
     5
100
AcDbEllipse
 10
1392.850442144264
 20
2626.563173405879
 30
0.0
 11
35.52632031938336
 21
42.39424103086349
 31
0.0
210
0.0
220
0.0
230
1.0
 40
0.4988111287002814
 41
0.0
 42
6.283185307179586
  0
ELLIPSE
  5
53C
330
1F
100
AcDbEntity
  8
0
  6
ByBlock
 62
     5
100
AcDbEllipse
 10
1761.061858628004
 20
2959.361098484233
 30
0.0
 11
58.30545520579676
 21
19.57416926190929
 31
0.0
210
0.0
220
0.0
230
1.0
 40
0.4988034930708462
 41
0.0
 42
6.283185307179586
  0
ELLIPSE
  5
53D
330
1F
100
AcDbEntity
  8
0
  6
ByBlock
 62
     5
100
AcDbEllipse
 10
1614.812417814538
 20
2925.052901990234
 30
0.0
 11
43.75981183236503
 21
32.05029861015378
 31
0.0
210
0.0
220
0.0
230
1.0
 40
0.6394089668826796
 41
0.0
 42
6.283185307179586
  0
ELLIPSE
  5
53E
330
1F
100
AcDbEntity
  8
0
  6
ByBlock
 62
     5
100
AcDbEllipse
 10
1449.874591163884
 20
2917.096657544591
 30
0.0
 11
41.38645203949439
 21
39.91248876206889
 31
0.0
210
0.0
220
0.0
230
1.0
 40
0.7288905118975753
 41
0.0
 42
6.283185307179586
  0
ELLIPSE
  5
53F
330
1F
100
AcDbEntity
  8
0
  6
ByBlock
 62
     5
100
AcDbEllipse
 10
1299.869434383407
 20
2903.19855721476
 30
0.0
 11
31.14552979300118
 21
46.04316095617483
 31
0.0
210
0.0
220
0.0
230
1.0
 40
0.8567885400747206
 41
0.0
 42
6.283185307179586
  0
ELLIPSE
  5
540
330
1F
100
AcDbEntity
  8
0
  6
ByBlock
 62
     5
100
AcDbEllipse
 10
1133.289909930231
 20
2899.690100322158
 30
0.0
 11
-54.04509918236442
 21
-1.296246859688713
 31
0.0
210
0.0
220
0.0
230
1.0
 40
0.9993830074401456
 41
0.0
 42
6.283185307179586
  0
ELLIPSE
  5
541
330
1F
100
AcDbEntity
  8
0
  6
ByBlock
 62
     5
100
AcDbEllipse
 10
1133.756837589056
 20
2732.231387426534
 30
0.0
 11
-60.62398226769546
 21
-1.454038346218214
 31
0.0
210
0.0
220
0.0
230
1.0
 40
0.8833829335843651
 41
0.0
 42
6.283185307179586
  0
ELLIPSE
  5
542
330
1F
100
AcDbEntity
  8
0
  6
ByBlock
 62
     5
100
AcDbEllipse
 10
1282.28595199762
 20
2749.325350884328
 30
0.0
 11
36.23288845258878
 21
47.4176146107529
 31
0.0
210
0.0
220
0.0
230
1.0
 40
0.6229628793910452
 41
0.0
 42
6.283185307179586
  0
ELLIPSE
  5
543
330
1F
100
AcDbEntity
  8
0
  6
ByBlock
 62
     5
100
AcDbEllipse
 10
1113.391871614441
 20
2567.911173833602
 30
0.0
 11
-1.257867689715928
 21
52.4449363490179
 31
0.0
210
0.0
220
0.0
230
1.0
 40
0.800494661949159
 41
0.0
 42
6.283185307179586
  0
ELLIPSE
  5
544
330
1F
100
AcDbEntity
  8
0
  6
ByBlock
 62
     5
100
AcDbEllipse
 10
1253.623342777952
 20
2592.264574300106
 30
0.0
 11
33.72807315290248
 21
46.60540899581969
 31
0.0
210
0.0
220
0.0
230
1.0
 40
0.742052097380067
 41
0.0
 42
6.283185307179586
  0
ELLIPSE
  5
545
330
1F
100
AcDbEntity
  8
0
  6
ByBlock
 62
     5
100
AcDbEllipse
 10
1107.105926831137
 20
2403.638319263071
 30
0.0
 11
17.19035438228934
 21
55.07067782052971
 31
0.0
210
0.0
220
0.0
230
1.0
 40
0.663094195136171
 41
0.0
 42
6.283185307179586
  0
ELLIPSE
  5
546
330
1F
100
AcDbEntity
  8
0
  6
ByBlock
 62
     5
100
AcDbEllipse
 10
1080.572705489089
 20
2235.350896168867
 30
0.0
 11
8.07175365371928
 21
65.41326593879961
 31
0.0
210
0.0
220
0.0
230
1.0
 40
0.5555861364582478
 41
0.0
 42
6.283185307179586
  0
ELLIPSE
  5
547
330
1F
100
AcDbEntity
  8
0
  6
ByBlock
 62
     5
100
AcDbEllipse
 10
1062.773974137469
 20
2069.085436601701
 30
0.0
 11
7.790844485202788
 21
56.68898791337967
 31
0.0
210
0.0
220
0.0
230
1.0
 40
0.4644043068290619
 41
0.0
 42
6.283185307179586
  0
ELLIPSE
  5
548
330
1F
100
AcDbEntity
  8
0
  6
ByBlock
 62
     5
100
AcDbEllipse
 10
1050.090456720937
 20
1891.611430744043
 30
0.0
 11
7.571410002365947
 21
56.60084785786885
 31
0.0
210
0.0
220
0.0
230
1.0
 40
0.5193709653644851
 41
0.0
 42
6.283185307179586
  0
ELLIPSE
  5
549
330
1F
100
AcDbEntity
  8
0
  6
ByBlock
 62
     5
100
AcDbEllipse
 10
1052.913979727426
 20
1717.574948826777
 30
0.0
 11
-19.32865810873042
 21
60.82444720311685
 31
0.0
210
0.0
220
0.0
230
1.0
 40
0.5457660826089763
 41
0.0
 42
6.283185307179586
  0
ELLIPSE
  5
54A
330
1F
100
AcDbEntity
  8
0
  6
ByBlock
 62
     5
100
AcDbEllipse
 10
1065.235506647093
 20
1548.961393368332
 30
0.0
 11
-6.992920970370199
 21
59.07291393802752
 31
0.0
210
0.0
220
0.0
230
1.0
 40
0.4864410977794586
 41
0.0
 42
6.283185307179586
  0
ELLIPSE
  5
54B
330
1F
100
AcDbEntity
  8
0
  6
ByBlock
 62
     5
100
AcDbEllipse
 10
1082.20792529086
 20
1376.499017024497
 30
0.0
 11
-9.898289932908568
 21
54.99531064375414
 31
0.0
210
0.0
220
0.0
230
1.0
 40
0.6469081118454192
 41
0.0
 42
6.283185307179586
  0
ELLIPSE
  5
54C
330
1F
100
AcDbEntity
  8
0
  6
ByBlock
 62
     5
100
AcDbEllipse
 10
1107.446433428501
 20
1202.101702093709
 30
0.0
 11
-20.90988146368782
 21
50.60762254379994
 31
0.0
210
0.0
220
0.0
230
1.0
 40
0.6544741423037906
 41
0.0
 42
6.283185307179586
  0
ELLIPSE
  5
54D
330
1F
100
AcDbEntity
  8
0
  6
ByBlock
 62
     5
100
AcDbEllipse
 10
1114.819443248155
 20
1030.52744845559
 30
0.0
 11
-24.35084345998474
 21
50.24430347206497
 31
0.0
210
0.0
220
0.0
230
1.0
 40
0.7645759310182016
 41
0.0
 42
6.283185307179586
  0
ELLIPSE
  5
54E
330
1F
100
AcDbEntity
  8
0
  6
ByBlock
 62
     5
100
AcDbEllipse
 10
1128.73038343867
 20
872.3807547278251
 30
0.0
 11
-23.86567799350621
 21
53.22537311194345
 31
0.0
210
0.0
220
0.0
230
1.0
 40
0.9046747017748977
 41
0.0
 42
6.283185307179586
  0
ELLIPSE
  5
54F
330
1F
100
AcDbEntity
  8
0
  6
ByBlock
 62
     5
100
AcDbEllipse
 10
1276.280394282105
 20
867.7156205270444
 30
0.0
 11
-36.98528167600112
 21
37.81997626086849
 31
0.0
210
0.0
220
0.0
230
1.0
 40
0.6430246471645852
 41
0.0
 42
6.283185307179586
  0
ELLIPSE
  5
550
330
1F
100
AcDbEntity
  8
0
  6
ByBlock
 62
     5
100
AcDbEllipse
 10
1143.017461356271
 20
707.3953634734225
 30
0.0
 11
-12.95806731197608
 21
58.07562957217923
 31
0.0
210
0.0
220
0.0
230
1.0
 40
0.9908234455502093
 41
0.0
 42
6.283185307179586
  0
ELLIPSE
  5
551
330
1F
100
AcDbEntity
  8
0
  6
ByBlock
 62
     5
100
AcDbEllipse
 10
1304.540244785604
 20
708.9562600721904
 30
0.0
 11
-26.31956147872161
 21
52.45142721812908
 31
0.0
210
0.0
220
0.0
230
1.0
 40
0.9320288150237974
 41
0.0
 42
6.283185307179586
  0
ELLIPSE
  5
552
330
1F
100
AcDbEntity
  8
0
  6
ByBlock
 62
     5
100
AcDbEllipse
 10
1456.356646982968
 20
695.4017345538079
 30
0.0
 11
-42.17950821427411
 21
43.09931469749271
 31
0.0
210
0.0
220
0.0
230
1.0
 40
0.8176496398554487
 41
0.0
 42
6.283185307179586
  0
ELLIPSE
  5
553
330
1F
100
AcDbEntity
  8
0
  6
ByBlock
 62
     5
100
AcDbEllipse
 10
1612.445999595206
 20
683.9788877862563
 30
0.0
 11
-43.94440741905348
 21
31.56364760744759
 31
0.0
210
0.0
220
0.0
230
1.0
 40
0.8259952782055933
 41
0.0
 42
6.283185307179586
  0
ELLIPSE
  5
554
330
1F
100
AcDbEntity
  8
0
  6
ByBlock
 62
     5
100
AcDbEllipse
 10
1769.303184227728
 20
656.7353947332401
 30
0.0
 11
-59.81172168113783
 21
22.17984676012374
 31
0.0
210
0.0
220
0.0
230
1.0
 40
0.5256737042017222
 41
0.0
 42
6.283185307179586
  0
ELLIPSE
  5
555
330
1F
100
AcDbEntity
  8
0
  6
ByBlock
 62
     5
100
AcDbEllipse
 10
1935.385209537578
 20
632.2047004103254
 30
0.0
 11
-55.0953241040361
 21
19.58607543883143
 31
0.0
210
0.0
220
0.0
230
1.0
 40
0.5068840975536801
 41
0.0
 42
6.283185307179586
  0
ELLIPSE
  5
556
330
1F
100
AcDbEntity
  8
0
  6
ByBlock
 62
     5
100
AcDbEllipse
 10
2112.501103581454
 20
608.3084875813137
 30
0.0
 11
-54.32269966852308
 21
12.00550946542012
 31
0.0
210
0.0
220
0.0
230
1.0
 40
0.4465289080757806
 41
0.0
 42
6.283185307179586
  0
ELLIPSE
  5
557
330
1F
100
AcDbEntity
  8
0
  6
ByBlock
 62
     5
100
AcDbEllipse
 10
2285.197126704211
 20
599.3301348426046
 30
0.0
 11
-61.18131485340287
 21
6.758023852580773
 31
0.0
210
0.0
220
0.0
230
1.0
 40
0.271791102070574
 41
0.0
 42
6.283185307179586
  0
ELLIPSE
  5
558
330
1F
100
AcDbEntity
  8
0
  6
ByBlock
 62
     5
100
AcDbEllipse
 10
2809.181133802501
 20
640.3070337259111
 30
0.0
 11
-58.24476563376155
 21
-16.59946405075125
 31
0.0
210
0.0
220
0.0
230
1.0
 40
0.4036914055802646
 41
0.0
 42
6.283185307179586
  0
ELLIPSE
  5
559
330
1F
100
AcDbEntity
  8
0
  6
ByBlock
 62
     5
100
AcDbEllipse
 10
2986.444840966346
 20
671.9201556040919
 30
0.0
 11
-54.43882483893277
 21
-18.75951976026116
 31
0.0
210
0.0
220
0.0
230
1.0
 40
0.5335497573674105
 41
0.0
 42
6.283185307179586
  0
ELLIPSE
  5
55A
330
1F
100
AcDbEntity
  8
0
  6
ByBlock
 62
     5
100
AcDbEllipse
 10
3136.089667793481
 20
700.3757399938235
 30
0.0
 11
-49.83037845516881
 21
-29.76111998944359
 31
0.0
210
0.0
220
0.0
230
1.0
 40
0.583659121444407
 41
0.0
 42
6.283185307179586
  0
ELLIPSE
  5
55B
330
1F
100
AcDbEntity
  8
0
  6
ByBlock
 62
     5
100
AcDbEllipse
 10
3303.542486951484
 20
866.0129070140946
 30
0.0
 11
38.80698693003082
 21
34.39758882405623
 31
0.0
210
0.0
220
0.0
230
1.0
 40
0.6132892139664904
 41
0.0
 42
6.283185307179586
  0
ELLIPSE
  5
55C
330
1F
100
AcDbEntity
  8
0
  6
ByBlock
 62
     5
100
AcDbEllipse
 10
3347.057028373181
 20
1018.720529429719
 30
0.0
 11
28.2139588404175
 21
47.77793677109111
 31
0.0
210
0.0
220
0.0
230
1.0
 40
0.5011419066638466
 41
0.0
 42
6.283185307179586
  0
ELLIPSE
  5
55D
330
1F
100
AcDbEntity
  8
0
  6
ByBlock
 62
     5
100
AcDbEllipse
 10
3265.513833895371
 20
1100.543202074591
 30
0.0
 11
38.05801108895597
 21
56.12164171954646
 31
0.0
210
0.0
220
0.0
230
1.0
 40
0.4521445295905262
 41
0.0
 42
6.283185307179586
  0
ELLIPSE
  5
55E
330
1F
100
AcDbEntity
  8
0
  6
ByBlock
 62
     5
100
AcDbEllipse
 10
2996.223883507905
 20
942.4099077279466
 30
0.0
 11
56.35626217957977
 21
40.18882259492387
 31
0.0
210
0.0
220
0.0
230
1.0
 40
0.2959493420973487
 41
0.0
 42
6.283185307179586
  0
ELLIPSE
  5
55F
330
1F
100
AcDbEntity
  8
0
  6
ByBlock
 62
     5
100
AcDbEllipse
 10
3070.153676498726
 20
903.3715487194401
 30
0.0
 11
56.62284942478345
 21
41.18077324233385
 31
0.0
210
0.0
220
0.0
230
1.0
 40
0.2471833078824756
 41
0.0
 42
6.283185307179586
  0
ELLIPSE
  5
560
330
1F
100
AcDbEntity
  8
0
  6
ByBlock
 62
     5
100
AcDbEllipse
 10
3150.757338111639
 20
1036.771519192572
 30
0.0
 11
30.47639490935355
 21
48.14856774838947
 31
0.0
210
0.0
220
0.0
230
1.0
 40
0.1534937978389462
 41
0.0
 42
6.283185307179586
  0
ELLIPSE
  5
561
330
1F
100
AcDbEntity
  8
0
  6
ByBlock
 62
     5
100
AcDbEllipse
 10
3383.321776018858
 20
1174.41648391965
 30
0.0
 11
27.79329727093876
 21
61.28368379559106
 31
0.0
210
0.0
220
0.0
230
1.0
 40
0.2924656863940008
 41
0.0
 42
6.283185307179586
  0
ELLIPSE
  5
562
330
1F
100
AcDbEntity
  8
0
  6
ByBlock
 62
     5
100
AcDbEllipse
 10
3428.457352062645
 20
1333.422453458809
 30
0.0
 11
19.29801165412137
 21
60.54819315025397
 31
0.0
210
0.0
220
0.0
230
1.0
 40
0.3096884375760361
 41
0.0
 42
6.283185307179586
  0
ELLIPSE
  5
563
330
1F
100
AcDbEntity
  8
0
  6
ByBlock
 62
     5
100
AcDbEllipse
 10
3526.222395766324
 20
1375.190383422981
 30
0.0
 11
19.16082313396629
 21
61.38324530821042
 31
0.0
210
0.0
220
0.0
230
1.0
 40
0.396551351529931
 41
0.0
 42
6.283185307179586
  0
ELLIPSE
  5
564
330
1F
100
AcDbEntity
  8
0
  6
ByBlock
 62
     5
100
AcDbEllipse
 10
3499.3204720277
 20
1208.08240346732
 30
0.0
 11
18.15641587952719
 21
52.89195566926013
 31
0.0
210
0.0
220
0.0
230
1.0
 40
0.6185216205125914
 41
0.0
 42
6.283185307179586
  0
ELLIPSE
  5
565
330
1F
100
AcDbEntity
  8
0
  6
ByBlock
 62
     5
100
AcDbEllipse
 10
3472.185923605256
 20
1047.727951039236
 30
0.0
 11
42.75282329012799
 21
39.97760636080979
 31
0.0
210
0.0
220
0.0
230
1.0
 40
0.516855955450887
 41
0.0
 42
6.283185307179586
  0
ELLIPSE
  5
566
330
1F
100
AcDbEntity
  8
0
  6
ByBlock
 62
     5
100
AcDbEllipse
 10
3445.945537164604
 20
892.995650247558
 30
0.0
 11
6.706405397262165
 21
55.02604228771082
 31
0.0
210
0.0
220
0.0
230
1.0
 40
0.8627009586948751
 41
0.0
 42
6.283185307179586
  0
ELLIPSE
  5
567
330
1F
100
AcDbEntity
  8
0
  6
ByBlock
 62
     5
100
AcDbEllipse
 10
3298.247433914338
 20
713.0519439768184
 30
0.0
 11
36.9192583138625
 21
46.12608396315748
 31
0.0
210
0.0
220
0.0
230
1.0
 40
0.7618694626145429
 41
0.0
 42
6.283185307179586
  0
ELLIPSE
  5
568
330
1F
100
AcDbEntity
  8
0
  6
ByBlock
 62
     5
100
AcDbEllipse
 10
3615.460192012529
 20
1060.845518175789
 30
0.0
 11
21.63517454471351
 21
56.01658667173869
 31
0.0
210
0.0
220
0.0
230
1.0
 40
0.8721361211276761
 41
0.0
 42
6.283185307179586
  0
ELLIPSE
  5
569
330
1F
100
AcDbEntity
  8
0
  6
ByBlock
 62
     5
100
AcDbEllipse
 10
3631.090036321767
 20
1234.683643853123
 30
0.0
 11
14.83614849690357
 21
61.63807674664644
 31
0.0
210
0.0
220
0.0
230
0.9999999999999998
 40
0.5766148325946087
 41
0.0
 42
6.283185307179586
  0
ELLIPSE
  5
56A
330
1F
100
AcDbEntity
  8
0
  6
ByBlock
 62
     5
100
AcDbEllipse
 10
3636.218117247817
 20
1396.164443201378
 30
0.0
 11
19.48236880660736
 21
55.56506160806413
 31
0.0
210
0.0
220
0.0
230
1.0
 40
0.7537759623632971
 41
0.0
 42
6.283185307179586
  0
ELLIPSE
  5
56B
330
1F
100
AcDbEntity
  8
0
  6
ByBlock
 62
     5
100
AcDbEllipse
 10
3656.962992686299
 20
1562.55186751607
 30
0.0
 11
16.8383921081854
 21
62.83930814258368
 31
0.0
210
0.0
220
0.0
230
1.0
 40
0.627359381342704
 41
0.0
 42
6.283185307179586
  0
ELLIPSE
  5
56C
330
1F
100
AcDbEntity
  8
0
  6
ByBlock
 62
     5
100
AcDbEllipse
 10
3658.770272024341
 20
1912.795129272701
 30
0.0
 11
-10.19015842447474
 21
60.46113418125358
 31
0.0
210
0.0
220
0.0
230
1.0
 40
0.5557672396786204
 41
0.0
 42
6.283185307179586
  0
ELLIPSE
  5
56D
330
1F
100
AcDbEntity
  8
0
  6
ByBlock
 62
     5
100
AcDbEllipse
 10
3651.842830977491
 20
2086.706465588971
 30
0.0
 11
-13.36302194001801
 21
59.3415014579379
 31
0.0
210
0.0
220
0.0
230
1.0
 40
0.6150328248832576
 41
0.0
 42
6.283185307179586
  0
ELLIPSE
  5
56E
330
1F
100
AcDbEntity
  8
0
  6
ByBlock
 62
     5
100
AcDbEllipse
 10
3546.26488106989
 20
2104.40364426334
 30
0.0
 11
-9.453888842167213
 21
68.64082420688177
 31
0.0
210
0.0
220
0.0
230
1.0
 40
0.4185785861359359
 41
0.0
 42
6.283185307179586
  0
ELLIPSE
  5
56F
330
1F
100
AcDbEntity
  8
0
  6
ByBlock
 62
     5
100
AcDbEllipse
 10
3464.2619912331
 20
2140.772010890756
 30
0.0
 11
-11.77178444447868
 21
66.21051403251986
 31
0.0
210
0.0
220
0.0
230
1.0
 40
0.3431507989597611
 41
0.0
 42
6.283185307179586
  0
ELLIPSE
  5
570
330
1F
100
AcDbEntity
  8
0
  6
ByBlock
 62
     5
100
AcDbEllipse
 10
3422.631894046587
 20
2316.150158629638
 30
0.0
 11
-26.69387801941815
 21
65.13981788051136
 31
0.0
210
0.0
220
0.0
230
1.0
 40
0.3092887415944459
 41
0.0
 42
6.283185307179586
  0
ELLIPSE
  5
571
330
1F
100
AcDbEntity
  8
0
  6
ByBlock
 62
     5
100
AcDbEllipse
 10
3517.389152212637
 20
2282.243836899574
 30
0.0
 11
-12.31974772324325
 21
64.58754678727297
 31
0.0
210
0.0
220
0.0
230
1.0
 40
0.4457915753321766
 41
0.0
 42
6.283185307179586
  0
ELLIPSE
  5
572
330
1F
100
AcDbEntity
  8
0
  6
ByBlock
 62
     5
100
AcDbEllipse
 10
3485.137183162589
 20
2444.661168285954
 30
0.0
 11
-24.31571737195044
 21
46.32450398535691
 31
0.0
210
0.0
220
0.0
230
1.0
 40
0.5621416285984113
 41
0.0
 42
6.283185307179586
  0
ELLIPSE
  5
573
330
1F
100
AcDbEntity
  8
0
  6
ByBlock
 62
     5
100
AcDbEllipse
 10
3371.342670724772
 20
2476.285239183035
 30
0.0
 11
-31.99648455138472
 21
55.15657003612511
 31
0.0
210
0.0
220
0.0
230
1.0
 40
0.3379293821952976
 41
0.0
 42
6.283185307179586
  0
ELLIPSE
  5
574
330
1F
100
AcDbEntity
  8
0
  6
ByBlock
 62
     5
100
AcDbEllipse
 10
3330.02064612927
 20
2628.052180674748
 30
0.0
 11
-36.4856566140821
 21
45.6291146970384
 31
0.0
210
0.0
220
0.0
230
1.0
 40
0.4816659737889888
 41
0.0
 42
6.283185307179586
  0
ELLIPSE
  5
575
330
1F
100
AcDbEntity
  8
0
  6
ByBlock
 62
     5
100
AcDbEllipse
 10
3193.550783632062
 20
2675.213163371448
 30
0.0
 11
-44.62624099911102
 21
43.46892619713901
 31
0.0
210
0.0
220
0.0
230
1.0
 40
0.3661088760873021
 41
0.0
 42
6.283185307179586
  0
ELLIPSE
  5
576
330
1F
100
AcDbEntity
  8
0
  6
ByBlock
 62
     5
100
AcDbEllipse
 10
2999.120413742801
 20
2846.565657719695
 30
0.0
 11
-46.66370760008615
 21
30.91985141130786
 31
0.0
210
0.0
220
0.0
230
1.0
 40
0.2940075202159984
 41
0.0
 42
6.283185307179586
  0
ELLIPSE
  5
577
330
1F
100
AcDbEntity
  8
0
  6
ByBlock
 62
     5
100
AcDbEllipse
 10
3147.948246817091
 20
2806.839197531601
 30
0.0
 11
-41.5094766976443
 21
32.77531936925642
 31
0.0
210
0.0
220
0.0
230
1.0
 40
0.5053268855958529
 41
0.0
 42
6.283185307179586
  0
ELLIPSE
  5
578
330
1F
100
AcDbEntity
  8
0
  6
ByBlock
 62
     5
100
AcDbEllipse
 10
3299.53114449719
 20
2772.663006042876
 30
0.0
 11
-36.82876636694571
 21
30.28980447875684
 31
0.0
210
0.0
220
0.0
230
1.0
 40
0.6336226207555738
 41
0.0
 42
6.283185307179586
  0
ELLIPSE
  5
579
330
1F
100
AcDbEntity
  8
0
  6
ByBlock
 62
     5
100
AcDbEllipse
 10
2799.342293314986
 20
2997.909893824445
 30
0.0
 11
-57.68347243277669
 21
27.91979240952128
 31
0.0
210
0.0
220
0.0
230
1.0
 40
0.4314776731849364
 41
0.0
 42
6.283185307179586
  0
ELLIPSE
  5
57A
330
1F
100
AcDbEntity
  8
0
  6
ByBlock
 62
     5
100
AcDbEllipse
 10
2975.60153531033
 20
2967.136218600928
 30
0.0
 11
-51.44178161526845
 21
22.37162835611218
 31
0.0
210
0.0
220
0.0
230
1.0
 40
0.5636554229644104
 41
0.0
 42
6.283185307179586
  0
ELLIPSE
  5
57B
330
1F
100
AcDbEntity
  8
0
  6
ByBlock
 62
     5
100
AcDbEllipse
 10
3123.562619131118
 20
2944.637629768033
 30
0.0
 11
-53.2259330853393
 21
28.84066772874415
 31
0.0
210
0.0
220
0.0
230
1.0
 40
0.5092936135679008
 41
0.0
 42
6.283185307179586
  0
ELLIPSE
  5
57C
330
1F
100
AcDbEntity
  8
0
  6
ByBlock
 62
     5
100
AcDbEllipse
 10
3286.832672815015
 20
2927.048418307183
 30
0.0
 11
-49.63365479138552
 21
34.38930675494168
 31
0.0
210
0.0
220
0.0
230
1.0
 40
0.7909085725835531
 41
0.0
 42
6.283185307179586
  0
ELLIPSE
  5
57D
330
1F
100
AcDbEntity
  8
0
  6
ByBlock
 62
     5
100
AcDbEllipse
 10
3440.827629759356
 20
2755.138586481098
 30
0.0
 11
-49.11478264832964
 21
36.69721989549753
 31
0.0
210
0.0
220
0.0
230
1.0
 40
0.9735725583460251
 41
0.0
 42
6.283185307179586
  0
ELLIPSE
  5
57E
330
1F
100
AcDbEntity
  8
0
  6
ByBlock
 62
     5
100
AcDbEllipse
 10
3615.184427312315
 20
2759.241581223121
 30
0.0
 11
-57.87735968250378
 21
-1.388161866117931
 31
0.0
210
0.0
220
0.0
230
1.0
 40
0.9225068958749464
 41
0.0
 42
6.283185307179586
  0
ELLIPSE
  5
57F
330
1F
100
AcDbEntity
  8
0
  6
ByBlock
 62
     5
100
AcDbEllipse
 10
3776.286754701055
 20
2757.474330326472
 30
0.0
 11
-60.11448889118819
 21
-1.441818381793664
 31
0.0
210
0.0
220
0.0
230
1.0
 40
0.9144679690204448
 41
0.0
 42
6.283185307179586
  0
ELLIPSE
  5
580
330
1F
100
AcDbEntity
  8
0
  6
ByBlock
 62
     5
100
AcDbEllipse
 10
3465.181965915589
 20
2590.930372181706
 30
0.0
 11
-43.48481597231677
 21
51.91591146486532
 31
0.0
210
0.0
220
0.0
230
1.0
 40
0.6242787499696316
 41
0.0
 42
6.283185307179586
  0
ELLIPSE
  5
581
330
1F
100
AcDbEntity
  8
0
  6
ByBlock
 62
     5
100
AcDbEllipse
 10
3627.993764162094
 20
2419.114220266687
 30
0.0
 11
-10.33860964144525
 21
58.44366622439745
 31
0.0
210
0.0
220
0.0
230
1.0
 40
0.6993718852878064
 41
0.0
 42
6.283185307179586
  0
ELLIPSE
  5
582
330
1F
100
AcDbEntity
  8
0
  6
ByBlock
 62
     5
100
AcDbEllipse
 10
3607.947364480192
 20
2580.67331958501
 30
0.0
 11
-61.99829265175313
 21
-11.50933226114809
 31
0.0
210
0.0
220
0.0
230
1.0
 40
0.9766163213841533
 41
0.0
 42
6.283185307179586
  0
ELLIPSE
  5
583
330
1F
100
AcDbEntity
  8
0
  6
ByBlock
 62
     5
100
AcDbEllipse
 10
3634.674496210516
 20
2247.829761552846
 30
0.0
 11
-12.81831529950001
 21
55.08083121553021
 31
0.0
210
0.0
220
0.0
230
1.0
 40
0.6534010474901251
 41
0.0
 42
6.283185307179586
  0
ELLIPSE
  5
584
330
1F
100
AcDbEntity
  8
0
  6
ByBlock
 62
     5
100
AcDbEllipse
 10
3609.994394849027
 20
894.2887537165622
 30
0.0
 11
4.041670187500457
 21
55.31134365476131
 31
0.0
210
0.0
220
0.0
230
1.0
 40
0.9323942028241368
 41
0.0
 42
6.283185307179586
  0
ELLIPSE
  5
585
330
1F
100
AcDbEntity
  8
0
  6
ByBlock
 62
     5
100
AcDbEllipse
 10
3449.106695295822
 20
728.7826458808977
 30
0.0
 11
-1.374300677097259
 21
57.29943786937965
 31
0.0
210
0.0
220
0.0
230
1.0
 40
0.9262071826883133
 41
0.0
 42
6.283185307179586
  0
ELLIPSE
  5
586
330
1F
100
AcDbEntity
  8
0
  6
ByBlock
 62
     5
100
AcDbEllipse
 10
3444.045722051568
 20
2925.67401051455
 30
0.0
 11
-1.43058403626297
 21
59.64608943940389
 31
0.0
210
0.0
220
0.0
230
1.0
 40
0.866676884580902
 41
0.0
 42
6.283185307179586
  0
ELLIPSE
  5
587
330
1F
100
AcDbEntity
  8
0
  6
ByBlock
 62
     5
100
AcDbEllipse
 10
3611.894649857904
 20
2926.410318784658
 30
0.0
 11
8.494570623735947
 21
57.53451153558422
 31
0.0
210
0.0
220
0.0
230
1.0
 40
0.9739455631618223
 41
0.0
 42
6.283185307179586
  0
ELLIPSE
  5
588
330
1F
100
AcDbEntity
  8
0
  6
ByBlock
 62
     5
100
AcDbEllipse
 10
3773.130575101911
 20
2928.397781620862
 30
0.0
 11
10.79920181119679
 21
59.46949376679923
 31
0.0
210
0.0
220
0.0
230
1.0
 40
0.9128836316034952
 41
0.0
 42
6.283185307179586
  0
ELLIPSE
  5
589
330
1F
100
AcDbEntity
  8
0
  6
ByBlock
 62
     5
100
AcDbEllipse
 10
3775.7150265432
 20
2592.054768992506
 30
0.0
 11
-1.412779902281657
 21
58.90377235706414
 31
0.0
210
0.0
220
0.0
230
1.0
 40
0.9386668593010877
 41
0.0
 42
6.283185307179586
  0
ELLIPSE
  5
58A
330
1F
100
AcDbEntity
  8
0
  6
ByBlock
 62
     5
100
AcDbEllipse
 10
3769.238815106424
 20
2416.555230991457
 30
0.0
 11
-1.468008460866147
 21
61.20644557404272
 31
0.0
210
0.0
220
0.0
230
1.0
 40
0.9358912364485991
 41
0.0
 42
6.283185307179586
  0
ELLIPSE
  5
58B
330
1F
100
AcDbEntity
  8
0
  6
ByBlock
 62
     5
100
AcDbEllipse
 10
3771.568135354567
 20
2244.11248691941
 30
0.0
 11
-1.50458954490982
 21
62.73163986906572
 31
0.0
210
0.0
220
0.0
230
1.0
 40
0.8433785181149303
 41
0.0
 42
6.283185307179586
  0
ELLIPSE
  5
58C
330
1F
100
AcDbEntity
  8
0
  6
ByBlock
 62
     5
100
AcDbEllipse
 10
3791.189354701551
 20
2078.736915661888
 30
0.0
 11
-1.354952834966721
 21
56.49275815471424
 31
0.0
210
0.0
220
0.0
230
1.0
 40
0.7807017466900915
 41
0.0
 42
6.283185307179586
  0
ELLIPSE
  5
58D
330
1F
100
AcDbEntity
  8
0
  6
ByBlock
 62
     5
100
AcDbEllipse
 10
3783.863266057539
 20
1906.246467917785
 30
0.0
 11
-1.417143577292849
 21
59.08570934461923
 31
0.0
210
0.0
220
0.0
230
1.0
 40
0.7560225890073755
 41
0.0
 42
6.283185307179586
  0
ELLIPSE
  5
58E
330
1F
100
AcDbEntity
  8
0
  6
ByBlock
 62
     5
100
AcDbEllipse
 10
3790.615975327572
 20
1744.158705288947
 30
0.0
 11
-1.583967037938615
 21
66.04116725694225
 31
0.0
210
0.0
220
0.0
230
1.0
 40
0.6504019120242507
 41
0.0
 42
6.283185307179586
  0
ELLIPSE
  5
58F
330
1F
100
AcDbEntity
  8
0
  6
ByBlock
 62
     5
100
AcDbEllipse
 10
3794.887456268801
 20
1566.065613376436
 30
0.0
 11
-1.583967037938615
 21
66.04116725694225
 31
0.0
210
0.0
220
0.0
230
1.0
 40
0.6504019120242507
 41
0.0
 42
6.283185307179586
  0
ELLIPSE
  5
590
330
1F
100
AcDbEntity
  8
0
  6
ByBlock
 62
     5
100
AcDbEllipse
 10
3798.785298349526
 20
1403.550842153656
 30
0.0
 11
-1.583967037938615
 21
66.04116725694225
 31
0.0
210
0.0
220
0.0
230
1.0
 40
0.6504019120242507
 41
0.0
 42
6.283185307179586
  0
ELLIPSE
  5
591
330
1F
100
AcDbEntity
  8
0
  6
ByBlock
 62
     5
100
AcDbEllipse
 10
3788.919418069273
 20
1236.176789866927
 30
0.0
 11
-1.583967037938615
 21
66.04116725694225
 31
0.0
210
0.0
220
0.0
230
1.0
 40
0.6504019120242507
 41
0.0
 42
6.283185307179586
  0
CIRCLE
  5
592
330
1F
100
AcDbEntity
  8
0
  6
ByBlock
 62
     5
100
AcDbCircle
 10
3770.407348152382
 20
1066.860033843747
 30
0.0
 40
57.39416208937502
  0
CIRCLE
  5
593
330
1F
100
AcDbEntity
  8
0
  6
ByBlock
 62
     5
100
AcDbCircle
 10
3777.510204285064
 20
907.6220122443185
 30
0.0
 40
50.58485555553546
  0
CIRCLE
  5
594
330
1F
100
AcDbEntity
  8
0
  6
ByBlock
 62
     5
100
AcDbCircle
 10
3615.060824391346
 20
725.8862930290722
 30
0.0
 40
58.11744919630732
  0
CIRCLE
  5
595
330
1F
100
AcDbEntity
  8
0
  6
ByBlock
 62
     5
100
AcDbCircle
 10
3774.467203073277
 20
728.7078000255093
 30
0.0
 40
59.01910611032223
  0
ELLIPSE
  5
596
330
1F
100
AcDbEntity
  8
0
  6
ByBlock
 62
     5
100
AcDbEllipse
 10
2453.048294296257
 20
3131.199684927097
 30
0.0
 11
-55.81782637395985
 21
5.209312181140325
 31
0.0
210
0.0
220
0.0
230
1.0
 40
0.4670801835699516
 41
0.0
 42
6.283185307179586
  0
ELLIPSE
  5
597
330
1F
100
AcDbEntity
  8
0
  6
ByBlock
 62
     5
100
AcDbEllipse
 10
2620.96593703254
 20
3129.064974448693
 30
0.0
 11
-53.04361922483995
 21
13.13682114580059
 31
0.0
210
0.0
220
0.0
230
1.0
 40
0.546955803451198
 41
0.0
 42
6.283185307179586
  0
ELLIPSE
  5
598
330
1F
100
AcDbEntity
  8
0
  6
ByBlock
 62
     5
100
AcDbEllipse
 10
2780.690423196022
 20
3116.428391556165
 30
0.0
 11
-58.51418716476197
 21
17.94586664014739
 31
0.0
210
0.0
220
0.0
230
1.0
 40
0.5387740262044574
 41
0.0
 42
6.283185307179586
  0
ELLIPSE
  5
599
330
1F
100
AcDbEntity
  8
0
  6
ByBlock
 62
     5
100
AcDbEllipse
 10
2946.218257394097
 20
3102.28428253931
 30
0.0
 11
-54.88779429713202
 21
21.32634008884168
 31
0.0
210
0.0
220
0.0
230
1.0
 40
0.6693342010632496
 41
0.0
 42
6.283185307179586
  0
ELLIPSE
  5
59A
330
1F
100
AcDbEntity
  8
0
  6
ByBlock
 62
     5
100
AcDbEllipse
 10
2286.206523950227
 20
3130.192854381284
 30
0.0
 11
-64.93531159320612
 21
-1.557443598198964
 31
0.0
210
0.0
220
0.0
230
1.0
 40
0.4996918462037831
 41
0.0
 42
6.283185307179586
  0
ELLIPSE
  5
59B
330
1F
100
AcDbEntity
  8
0
  6
ByBlock
 62
     5
100
AcDbEllipse
 10
2113.604698347685
 20
3121.543893337258
 30
0.0
 11
-57.00992612233625
 21
-12.18946070667893
 31
0.0
210
0.0
220
0.0
230
0.9999999999999998
 40
0.4330178241484633
 41
0.0
 42
6.283185307179586
  0
ELLIPSE
  5
59C
330
1F
100
AcDbEntity
  8
0
  6
ByBlock
 62
     5
100
AcDbEllipse
 10
1955.469812654396
 20
3108.140286114748
 30
0.0
 11
-55.85019655360542
 21
-13.2465958318813
 31
0.0
210
0.0
220
0.0
230
1.0
 40
0.5233922440918251
 41
0.0
 42
6.283185307179586
  0
ELLIPSE
  5
59D
330
1F
100
AcDbEntity
  8
0
  6
ByBlock
 62
     5
100
AcDbEllipse
 10
1791.993271502318
 20
3087.776316994491
 30
0.0
 11
-54.65199007044869
 21
7.761248627662036
 31
0.0
210
0.0
220
0.0
230
1.0
 40
0.6799886217572105
 41
0.0
 42
6.283185307179586
  0
ELLIPSE
  5
59E
330
1F
100
AcDbEntity
  8
0
  6
ByBlock
 62
     5
100
AcDbEllipse
 10
1623.820019307169
 20
3072.061144817981
 30
0.0
 11
-56.47217332387093
 21
-1.354459117261665
 31
0.0
210
0.0
220
0.0
230
1.0
 40
0.8844095126189944
 41
0.0
 42
6.283185307179586
  0
ELLIPSE
  5
59F
330
1F
100
AcDbEntity
  8
0
  6
ByBlock
 62
     5
100
AcDbEllipse
 10
1461.083200123496
 20
3070.815672468081
 30
0.0
 11
-53.29594447312175
 21
-1.278278728369349
 31
0.0
210
0.0
220
0.0
230
1.0
 40
0.8754924850346176
 41
0.0
 42
6.283185307179586
  0
ELLIPSE
  5
5A0
330
1F
100
AcDbEntity
  8
0
  6
ByBlock
 62
     5
100
AcDbEllipse
 10
1296.422472805542
 20
3065.623288731425
 30
0.0
 11
-57.1073900837158
 21
-1.369694499241299
 31
0.0
210
0.0
220
0.0
230
1.0
 40
0.901882468211097
 41
0.0
 42
6.283185307179586
  0
ELLIPSE
  5
5A1
330
1F
100
AcDbEntity
  8
0
  6
ByBlock
 62
     5
100
AcDbEllipse
 10
1133.257124315875
 20
3070.066699439822
 30
0.0
 11
-59.89314030969679
 21
-1.436509437819178
 31
0.0
210
0.0
220
0.0
230
1.0
 40
0.9528995575695587
 41
0.0
 42
6.283185307179586
  0
ELLIPSE
  5
5A2
330
1F
100
AcDbEntity
  8
0
  6
ByBlock
 62
     5
100
AcDbEllipse
 10
3108.837829305151
 20
3095.771226118698
 30
0.0
 11
-53.99034224296482
 21
-1.294933539668643
 31
0.0
210
0.0
220
0.0
230
1.0
 40
0.8534060143531576
 41
0.0
 42
6.283185307179586
  0
ELLIPSE
  5
5A3
330
1F
100
AcDbEntity
  8
0
  6
ByBlock
 62
     5
100
AcDbEllipse
 10
3279.447210894957
 20
3093.797133020411
 30
0.0
 11
-52.17048992276794
 21
-1.25128521834366
 31
0.0
210
0.0
220
0.0
230
1.0
 40
0.9761412190061308
 41
0.0
 42
6.283185307179586
  0
ELLIPSE
  5
5A4
330
1F
100
AcDbEntity
  8
0
  6
ByBlock
 62
     5
100
AcDbEllipse
 10
3438.385138335901
 20
3097.609186147291
 30
0.0
 11
1.234872893896677
 21
-51.4862022842518
 31
0.0
210
0.0
220
0.0
230
0.9999999999999998
 40
0.9425950658181211
 41
0.0
 42
6.283185307179586
  0
ELLIPSE
  5
5A5
330
1F
100
AcDbEntity
  8
0
  6
ByBlock
 62
     5
100
AcDbEllipse
 10
3602.903506522461
 20
3094.950907050011
 30
0.0
 11
-52.52902095573667
 21
-1.2598844203549
 31
0.0
210
0.0
220
0.0
230
1.0
 40
0.9907578631949419
 41
0.0
 42
6.283185307179586
  0
ELLIPSE
  5
5A6
330
1F
100
AcDbEntity
  8
0
  6
ByBlock
 62
     5
100
AcDbEllipse
 10
3775.470613022161
 20
3087.744060767755
 30
0.0
 11
-55.16118012109755
 21
3.299349114207242
 31
0.0
210
0.0
220
0.0
230
1.0
 40
0.9843322266017018
 41
0.0
 42
6.283185307179586
  0
ELLIPSE
  5
5A7
330
1F
100
AcDbEntity
  8
0
  6
ByBlock
 62
     5
100
AcDbEllipse
 10
951.1028984972954
 20
3062.665023982657
 30
0.0
 11
-58.1160056547842
 21
-1.393885680058989
 31
0.0
210
0.0
220
0.0
230
1.0
 40
0.8712568174635427
 41
0.0
 42
6.283185307179586
  0
ELLIPSE
  5
5A8
330
1F
100
AcDbEntity
  8
0
  6
ByBlock
 62
     5
100
AcDbEllipse
 10
956.4506594559798
 20
2901.863381905654
 30
0.0
 11
-53.64555483915471
 21
-1.286663972284911
 31
0.0
210
0.0
220
0.0
230
1.0
 40
0.9716224868542456
 41
0.0
 42
6.283185307179586
  0
ELLIPSE
  5
5A9
330
1F
100
AcDbEntity
  8
0
  6
ByBlock
 62
     5
100
AcDbEllipse
 10
956.5666387065148
 20
2730.173882293359
 30
0.0
 11
-55.22781281040968
 21
-1.324613702371186
 31
0.0
210
0.0
220
0.0
230
1.0
 40
0.9327567790388686
 41
0.0
 42
6.283185307179586
  0
ELLIPSE
  5
5AA
330
1F
100
AcDbEntity
  8
0
  6
ByBlock
 62
     5
100
AcDbEllipse
 10
954.9149815322024
 20
2565.006122026333
 30
0.0
 11
-57.11257567466031
 21
-1.36981887325632
 31
0.0
210
0.0
220
0.0
230
0.9999999999999998
 40
0.9769882046439681
 41
0.0
 42
6.283185307179586
  0
ELLIPSE
  5
5AB
330
1F
100
AcDbEntity
  8
0
  6
ByBlock
 62
     5
100
AcDbEllipse
 10
953.7889464259215
 20
2391.509753085695
 30
0.0
 11
-58.56744217037045
 21
-1.404713177362731
 31
0.0
210
0.0
220
0.0
230
1.0
 40
0.9369216438326999
 41
0.0
 42
6.283185307179586
  0
ELLIPSE
  5
5AC
330
1F
100
AcDbEntity
  8
0
  6
ByBlock
 62
     5
100
AcDbEllipse
 10
949.7644270455211
 20
2215.71823986465
 30
0.0
 11
1.316106179248145
 21
-54.87310419334008
 31
0.0
210
0.0
220
0.0
230
1.0
 40
0.850524782558898
 41
0.0
 42
6.283185307179586
  0
ELLIPSE
  5
5AD
330
1F
100
AcDbEntity
  8
0
  6
ByBlock
 62
     5
100
AcDbEllipse
 10
938.1301762974917
 20
2065.310624487033
 30
0.0
 11
1.036578901811572
 21
-43.21862702310125
 31
0.0
210
0.0
220
0.0
230
1.0
 40
0.9800373942513683
 41
0.0
 42
6.283185307179586
  0
ELLIPSE
  5
5AE
330
1F
100
AcDbEntity
  8
0
  6
ByBlock
 62
     5
100
AcDbEllipse
 10
949.0279241412508
 20
1886.93521444153
 30
0.0
 11
-1.456698099183528
 21
60.73487674102558
 31
0.0
210
0.0
220
0.0
230
1.0
 40
0.4951511863299816
 41
0.0
 42
6.283185307179586
  0
ELLIPSE
  5
5AF
330
1F
100
AcDbEntity
  8
0
  6
ByBlock
 62
     5
100
AcDbEllipse
 10
937.7457018939466
 20
1721.432758521489
 30
0.0
 11
-1.336816263835373
 21
55.73658059617642
 31
0.0
210
0.0
220
0.0
230
1.0
 40
0.6934974651342854
 41
0.0
 42
6.283185307179586
  0
ELLIPSE
  5
5B0
330
1F
100
AcDbEntity
  8
0
  6
ByBlock
 62
     5
100
AcDbEllipse
 10
944.3006842176556
 20
1553.761966852627
 30
0.0
 11
-1.23654222147197
 21
51.55580243309707
 31
0.0
210
0.0
220
0.0
230
1.0
 40
0.6230266373554013
 41
0.0
 42
6.283185307179586
  0
ELLIPSE
  5
5B1
330
1F
100
AcDbEntity
  8
0
  6
ByBlock
 62
     5
100
AcDbEllipse
 10
954.8501560846061
 20
1381.467516515408
 30
0.0
 11
-1.381687280598798
 21
57.60741139762978
 31
0.0
210
0.0
220
0.0
230
1.0
 40
0.714727343901623
 41
0.0
 42
6.283185307179586
  0
ELLIPSE
  5
5B2
330
1F
100
AcDbEntity
  8
0
  6
ByBlock
 62
     5
100
AcDbEllipse
 10
959.3755021627885
 20
1214.537858369741
 30
0.0
 11
-1.275750308858978
 21
53.19052575430963
 31
0.0
210
0.0
220
0.0
230
1.0
 40
0.8186874711628814
 41
0.0
 42
6.283185307179586
  0
ELLIPSE
  5
5B3
330
1F
100
AcDbEntity
  8
0
  6
ByBlock
 62
     5
100
AcDbEllipse
 10
962.1372713563188
 20
1047.428426726766
 30
0.0
 11
-1.264943352003447
 21
52.73994564238792
 31
0.0
210
0.0
220
0.0
230
1.0
 40
0.7883655894576075
 41
0.0
 42
6.283185307179586
  0
ELLIPSE
  5
5B4
330
1F
100
AcDbEntity
  8
0
  6
ByBlock
 62
     5
100
AcDbEllipse
 10
962.8975999545955
 20
886.5922933201284
 30
0.0
 11
-1.333198447813412
 21
55.58574109807541
 31
0.0
210
0.0
220
0.0
230
1.0
 40
0.8653993185872353
 41
0.0
 42
6.283185307179586
  0
ELLIPSE
  5
5B5
330
1F
100
AcDbEntity
  8
0
  6
ByBlock
 62
     5
100
AcDbEllipse
 10
966.972290048071
 20
713.9780455665447
 30
0.0
 11
-1.476721813534784
 21
61.5697359501525
 31
0.0
210
0.0
220
0.0
230
1.0
 40
0.8392279187968997
 41
0.0
 42
6.283185307179586
  0
ELLIPSE
  5
5B6
330
1F
100
AcDbEntity
  8
0
  6
ByBlock
 62
     5
100
AcDbEllipse
 10
959.1796766865892
 20
535.6416701762466
 30
0.0
 11
-61.64093829972406
 21
-1.478429569157975
 31
0.0
210
0.0
220
0.0
230
1.0
 40
0.9723717943692678
 41
0.0
 42
6.283185307179586
  0
ELLIPSE
  5
5B7
330
1F
100
AcDbEntity
  8
0
  6
ByBlock
 62
     5
100
AcDbEllipse
 10
1143.402292495565
 20
543.5864632723405
 30
0.0
 11
-60.15785919916744
 21
4.659759718431356
 31
0.0
210
0.0
220
0.0
230
1.0
 40
0.9007983786299826
 41
0.0
 42
6.283185307179586
  0
ELLIPSE
  5
5B8
330
1F
100
AcDbEntity
  8
0
  6
ByBlock
 62
     5
100
AcDbEllipse
 10
1305.055257603163
 20
550.5149444881317
 30
0.0
 11
-51.87440355841621
 21
-1.244183723003768
 31
0.0
210
0.0
220
0.0
230
1.0
 40
0.9904389329562313
 41
0.0
 42
6.283185307179586
  0
ELLIPSE
  5
5B9
330
1F
100
AcDbEntity
  8
0
  6
ByBlock
 62
     5
100
AcDbEllipse
 10
1468.962045680601
 20
537.0696526672166
 30
0.0
 11
-7.280489645338139
 21
-52.8444214023311
 31
0.0
210
0.0
220
0.0
230
1.0
 40
0.9962757249591341
 41
0.0
 42
6.283185307179586
  0
ELLIPSE
  5
5BA
330
1F
100
AcDbEntity
  8
0
  6
ByBlock
 62
     5
100
AcDbEllipse
 10
1628.05318955172
 20
542.2300154364863
 30
0.0
 11
-60.06346702779884
 21
-1.440594645854709
 31
0.0
210
0.0
220
0.0
230
1.0
 40
0.8074246017140051
 41
0.0
 42
6.283185307179586
  0
ELLIPSE
  5
5BB
330
1F
100
AcDbEntity
  8
0
  6
ByBlock
 62
     5
100
AcDbEllipse
 10
1794.179446205381
 20
534.5608921707446
 30
0.0
 11
-58.2705217599246
 21
-1.397591677810677
 31
0.0
210
0.0
220
0.0
230
1.0
 40
0.7687559188836071
 41
0.0
 42
6.283185307179586
  0
ELLIPSE
  5
5BC
330
1F
100
AcDbEntity
  8
0
  6
ByBlock
 62
     5
100
AcDbEllipse
 10
1960.328866836456
 20
516.0428799889175
 30
0.0
 11
-57.48194061159123
 21
6.917136631506096
 31
0.0
210
0.0
220
0.0
230
1.0
 40
0.5972573448211881
 41
0.0
 42
6.283185307179586
  0
ELLIPSE
  5
5BD
330
1F
100
AcDbEntity
  8
0
  6
ByBlock
 62
     5
100
AcDbEllipse
 10
2119.134412797809
 20
503.6551607375392
 30
0.0
 11
-59.5235010769741
 21
9.63343530829184
 31
0.0
210
0.0
220
0.0
230
1.0
 40
0.4471778727248449
 41
0.0
 42
6.283185307179586
  0
ELLIPSE
  5
5BE
330
1F
100
AcDbEntity
  8
0
  6
ByBlock
 62
     5
100
AcDbEllipse
 10
2284.771479554505
 20
493.2922714630467
 30
0.0
 11
-57.93825725144682
 21
5.917694883382398
 31
0.0
210
0.0
220
0.0
230
1.0
 40
0.542139727353998
 41
0.0
 42
6.283185307179586
  0
ELLIPSE
  5
5BF
330
1F
100
AcDbEntity
  8
0
  6
ByBlock
 62
     5
100
AcDbEllipse
 10
2466.223188297504
 20
497.9992978838463
 30
0.0
 11
-58.68265208034424
 21
3.518304878428964
 31
0.0
210
0.0
220
0.0
230
1.0
 40
0.5018569771869239
 41
0.0
 42
6.283185307179586
  0
ELLIPSE
  5
5C0
330
1F
100
AcDbEntity
  8
0
  6
ByBlock
 62
     5
100
AcDbEllipse
 10
2637.71792100453
 20
502.8558273989651
 30
0.0
 11
-59.75700639237612
 21
-11.89284983321823
 31
0.0
210
0.0
220
0.0
230
1.0
 40
0.4606635956038791
 41
0.0
 42
6.283185307179586
  0
ELLIPSE
  5
5C1
330
1F
100
AcDbEntity
  8
0
  6
ByBlock
 62
     5
100
AcDbEllipse
 10
2803.09742252392
 20
520.5850318101863
 30
0.0
 11
-52.40218828441443
 21
-19.97405644044539
 31
0.0
210
0.0
220
0.0
230
1.0
 40
0.5495641887904527
 41
0.0
 42
6.283185307179586
  0
ELLIPSE
  5
5C2
330
1F
100
AcDbEntity
  8
0
  6
ByBlock
 62
     5
100
AcDbEllipse
 10
2967.323054123366
 20
540.4885790028608
 30
0.0
 11
-56.29546815850728
 21
-18.41592160271522
 31
0.0
210
0.0
220
0.0
230
0.9999999999999998
 40
0.5482004644616316
 41
0.0
 42
6.283185307179586
  0
ELLIPSE
  5
5C3
330
1F
100
AcDbEntity
  8
0
  6
ByBlock
 62
     5
100
AcDbEllipse
 10
3131.452489688761
 20
546.0027311251528
 30
0.0
 11
-55.1475630707572
 21
-1.322688949255933
 31
0.0
210
0.0
220
0.0
230
1.0
 40
0.8690287211796016
 41
0.0
 42
6.283185307179586
  0
ELLIPSE
  5
5C4
330
1F
100
AcDbEntity
  8
0
  6
ByBlock
 62
     5
100
AcDbEllipse
 10
3293.971959137097
 20
551.8187863099733
 30
0.0
 11
-58.50434477001066
 21
-1.403199815220589
 31
0.0
210
0.0
220
0.0
230
1.0
 40
0.7878051218105586
 41
0.0
 42
6.283185307179586
  0
ELLIPSE
  5
5C5
330
1F
100
AcDbEntity
  8
0
  6
ByBlock
 62
     5
100
AcDbEllipse
 10
3455.224937935681
 20
555.340216720632
 30
0.0
 11
-55.44593399614684
 21
-1.329845238742121
 31
0.0
210
0.0
220
0.0
230
1.0
 40
0.9018818246837575
 41
0.0
 42
6.283185307179586
  0
ELLIPSE
  5
5C6
330
1F
100
AcDbEntity
  8
0
  6
ByBlock
 62
     5
100
AcDbEllipse
 10
3620.692091149948
 20
567.422559811679
 30
0.0
 11
-60.17910933225891
 21
-1.443368273367126
 31
0.0
210
0.0
220
0.0
230
1.0
 40
0.7916812022881386
 41
0.0
 42
6.283185307179586
  0
ELLIPSE
  5
5C7
330
1F
100
AcDbEntity
  8
0
  6
ByBlock
 62
     5
100
AcDbEllipse
 10
3782.523515115173
 20
561.8380549594339
 30
0.0
 11
-58.15060043636224
 21
-1.39471541999213
 31
0.0
210
0.0
220
0.0
230
1.0
 40
0.9528995793884028
 41
0.0
 42
6.283185307179586
  0
ELLIPSE
  5
5C8
330
1F
100
AcDbEntity
  8
0
  6
ByBlock
 62
     5
100
AcDbEllipse
 10
1828.80926587862
 20
802.8899021025171
 30
0.0
 11
-58.41279653189912
 21
28.98114015233273
 31
0.0
210
0.0
220
0.0
230
1.0
 40
0.4120478866932406
 41
0.0
 42
6.283185307179586
  0
ELLIPSE
  5
5C9
330
1F
100
AcDbEntity
  8
0
  6
ByBlock
 62
     5
100
AcDbEllipse
 10
1982.104201851093
 20
814.9330813269136
 30
0.0
 11
-81.97152840878711
 21
26.46206153880186
 31
0.0
210
0.0
220
0.0
230
1.0
 40
0.108328126436719
 41
0.0
 42
6.283185307179586
  0
ELLIPSE
  5
5CA
330
1F
100
AcDbEntity
  8
0
  6
ByBlock
 62
     5
100
AcDbEllipse
 10
2030.619985986648
 20
737.9194258056443
 30
0.0
 11
-73.29731590197578
 21
16.8979401800716
 31
0.0
210
0.0
220
0.0
230
0.9999999999999998
 40
0.1889120242133433
 41
0.0
 42
6.283185307179586
  0
ELLIPSE
  5
5CB
330
1F
100
AcDbEntity
  8
0
  6
ByBlock
 62
     5
100
AcDbEllipse
 10
1279.572063761997
 20
1304.824242536937
 30
0.0
 11
-28.47504288806092
 21
60.20643564972388
 31
0.0
210
0.0
220
0.0
230
1.0
 40
0.2254174046171397
 41
0.0
 42
6.283185307179586
  0
ELLIPSE
  5
5CC
330
1F
100
AcDbEntity
  8
0
  6
ByBlock
 62
     5
100
AcDbEllipse
 10
1329.557365774105
 20
1146.620701165177
 30
0.0
 11
-34.73013831617629
 21
51.29292636375986
 31
0.0
210
0.0
220
0.0
230
1.0
 40
0.2225342427154847
 41
0.0
 42
6.283185307179586
  0
ELLIPSE
  5
5CD
330
1F
100
AcDbEntity
  8
0
  6
ByBlock
 62
     5
100
AcDbEllipse
 10
1388.794289200699
 20
987.7744360562756
 30
0.0
 11
-38.49145886813981
 21
48.63508930050395
 31
0.0
210
0.0
220
0.0
230
1.0
 40
0.4624911977082595
 41
0.0
 42
6.283185307179586
  0
ELLIPSE
  5
5CE
330
1F
100
AcDbEntity
  8
0
  6
ByBlock
 62
     5
100
AcDbEllipse
 10
1521.728914879612
 20
914.2274084446814
 30
0.0
 11
-34.83416517488429
 21
29.53896736108943
 31
0.0
210
0.0
220
0.0
230
1.0
 40
0.5543379548023035
 41
0.0
 42
6.283185307179586
  0
ELLIPSE
  5
5CF
330
1F
100
AcDbEntity
  8
0
  6
ByBlock
 62
     5
100
AcDbEllipse
 10
1669.517473028377
 20
866.0822312685327
 30
0.0
 11
-56.92604352097044
 21
39.13390617783545
 31
0.0
210
0.0
220
0.0
230
1.0
 40
0.344049337158879
 41
0.0
 42
6.283185307179586
  0
ELLIPSE
  5
5D0
330
1F
100
AcDbEntity
  8
0
  6
ByBlock
 62
     5
100
AcDbEllipse
 10
1462.909391084687
 20
1043.674333997058
 30
0.0
 11
-35.71345807654689
 21
39.0647517562335
 31
0.0
210
0.0
220
0.0
230
1.0
 40
0.3282216244181646
 41
0.0
 42
6.283185307179586
  0
ELLIPSE
  5
5D1
330
1F
100
AcDbEntity
  8
0
  6
ByBlock
 62
     5
100
AcDbEllipse
 10
963.3544184171196
 20
3240.02268442765
 30
0.0
 11
-61.64093829972406
 21
-1.478429569157975
 31
0.0
210
0.0
220
0.0
230
1.0
 40
0.9723717943692678
 41
0.0
 42
6.283185307179586
  0
ELLIPSE
  5
5D2
330
1F
100
AcDbEntity
  8
0
  6
ByBlock
 62
     5
100
AcDbEllipse
 10
1128.812474894367
 20
3238.034068118316
 30
0.0
 11
-61.64093829972406
 21
-1.478429569157975
 31
0.0
210
0.0
220
0.0
230
1.0
 40
0.9723717943692678
 41
0.0
 42
6.283185307179586
  0
ELLIPSE
  5
5D3
330
1F
100
AcDbEntity
  8
0
  6
ByBlock
 62
     5
100
AcDbEllipse
 10
1294.23475959513
 20
3237.533877627651
 30
0.0
 11
-61.64093829972406
 21
-1.478429569157975
 31
0.0
210
0.0
220
0.0
230
1.0
 40
0.9723717943692678
 41
0.0
 42
6.283185307179586
  0
ELLIPSE
  5
5D4
330
1F
100
AcDbEntity
  8
0
  6
ByBlock
 62
     5
100
AcDbEllipse
 10
1456.571388617392
 20
3241.4274470496
 30
0.0
 11
-61.64093829972406
 21
-1.478429569157975
 31
0.0
210
0.0
220
0.0
230
1.0
 40
0.9723717943692678
 41
0.0
 42
6.283185307179586
  0
ELLIPSE
  5
5D5
330
1F
100
AcDbEntity
  8
0
  6
ByBlock
 62
     5
100
AcDbEllipse
 10
1626.534591732489
 20
3242.173422972328
 30
0.0
 11
-61.64093829972406
 21
-1.478429569157975
 31
0.0
210
0.0
220
0.0
230
1.0
 40
0.9723717943692678
 41
0.0
 42
6.283185307179586
  0
ELLIPSE
  5
5D6
330
1F
100
AcDbEntity
  8
0
  6
ByBlock
 62
     5
100
AcDbEllipse
 10
1794.634412986998
 20
3242.005436290937
 30
0.0
 11
-61.64093829972406
 21
-1.478429569157975
 31
0.0
210
0.0
220
0.0
230
1.0
 40
0.9723717943692678
 41
0.0
 42
6.283185307179586
  0
ELLIPSE
  5
5D7
330
1F
100
AcDbEntity
  8
0
  6
ByBlock
 62
     5
100
AcDbEllipse
 10
1950.084000637319
 20
3243.633910526831
 30
0.0
 11
-61.64093829972406
 21
-1.478429569157975
 31
0.0
210
0.0
220
0.0
230
1.0
 40
0.9723717943692678
 41
0.0
 42
6.283185307179586
  0
ELLIPSE
  5
5D8
330
1F
100
AcDbEntity
  8
0
  6
ByBlock
 62
     5
100
AcDbEllipse
 10
2113.732175433936
 20
3253.858633055668
 30
0.0
 11
-61.64093829972406
 21
-1.478429569157975
 31
0.0
210
0.0
220
0.0
230
1.0
 40
0.9723717943692678
 41
0.0
 42
6.283185307179586
  0
ELLIPSE
  5
5D9
330
1F
100
AcDbEntity
  8
0
  6
ByBlock
 62
     5
100
AcDbEllipse
 10
2288.2326912414
 20
3249.644338761417
 30
0.0
 11
-61.64093829972406
 21
-1.478429569157975
 31
0.0
210
0.0
220
0.0
230
1.0
 40
0.9723717943692678
 41
0.0
 42
6.283185307179586
  0
ELLIPSE
  5
5DA
330
1F
100
AcDbEntity
  8
0
  6
ByBlock
 62
     5
100
AcDbEllipse
 10
2454.182192992362
 20
3251.524690319901
 30
0.0
 11
-61.64093829972406
 21
-1.478429569157975
 31
0.0
210
0.0
220
0.0
230
1.0
 40
0.9723717943692678
 41
0.0
 42
6.283185307179586
  0
ELLIPSE
  5
5DB
330
1F
100
AcDbEntity
  8
0
  6
ByBlock
 62
     5
100
AcDbEllipse
 10
2615.931802228691
 20
3253.304267677454
 30
0.0
 11
-61.64093829972406
 21
-1.478429569157975
 31
0.0
210
0.0
220
0.0
230
1.0
 40
0.9723717943692678
 41
0.0
 42
6.283185307179586
  0
ELLIPSE
  5
5DC
330
1F
100
AcDbEntity
  8
0
  6
ByBlock
 62
     5
100
AcDbEllipse
 10
2778.026987346414
 20
3258.826104067028
 30
0.0
 11
-61.64093829972406
 21
-1.478429569157975
 31
0.0
210
0.0
220
0.0
230
1.0
 40
0.9723717943692678
 41
0.0
 42
6.283185307179586
  0
ELLIPSE
  5
5DD
330
1F
100
AcDbEntity
  8
0
  6
ByBlock
 62
     5
100
AcDbEllipse
 10
2947.215061907206
 20
3254.962552426255
 30
0.0
 11
-61.64093829972406
 21
-1.478429569157975
 31
0.0
210
0.0
220
0.0
230
1.0
 40
0.9723717943692678
 41
0.0
 42
6.283185307179586
  0
ELLIPSE
  5
5DE
330
1F
100
AcDbEntity
  8
0
  6
ByBlock
 62
     5
100
AcDbEllipse
 10
3113.572590898986
 20
3258.952561285589
 30
0.0
 11
-61.64093829972406
 21
-1.478429569157975
 31
0.0
210
0.0
220
0.0
230
1.0
 40
0.9723717943692678
 41
0.0
 42
6.283185307179586
  0
ELLIPSE
  5
5DF
330
1F
100
AcDbEntity
  8
0
  6
ByBlock
 62
     5
100
AcDbEllipse
 10
3282.444194291283
 20
3268.283807813558
 30
0.0
 11
-61.64093829972406
 21
-1.478429569157975
 31
0.0
210
0.0
220
0.0
230
1.0
 40
0.9723717943692678
 41
0.0
 42
6.283185307179586
  0
ELLIPSE
  5
5E0
330
1F
100
AcDbEntity
  8
0
  6
ByBlock
 62
     5
100
AcDbEllipse
 10
3440.943247489982
 20
3269.444865368561
 30
0.0
 11
-61.64093829972406
 21
-1.478429569157975
 31
0.0
210
0.0
220
0.0
230
1.0
 40
0.9723717943692678
 41
0.0
 42
6.283185307179586
  0
ELLIPSE
  5
5E1
330
1F
100
AcDbEntity
  8
0
  6
ByBlock
 62
     5
100
AcDbEllipse
 10
3607.364143041225
 20
3270.795924670775
 30
0.0
 11
-61.64093829972406
 21
-1.478429569157975
 31
0.0
210
0.0
220
0.0
230
1.0
 40
0.9723717943692678
 41
0.0
 42
6.283185307179586
  0
ELLIPSE
  5
5E2
330
1F
100
AcDbEntity
  8
0
  6
ByBlock
 62
     5
100
AcDbEllipse
 10
3773.785039592288
 20
3272.146942287341
 30
0.0
 11
-61.64093829972406
 21
-1.478429569157975
 31
0.0
210
0.0
220
0.0
230
1.0
 40
0.9723717943692678
 41
0.0
 42
6.283185307179586
  0
ELLIPSE
  5
5E3
330
1F
100
AcDbEntity
  8
0
  6
ByBlock
 62
     5
100
AcDbEllipse
 10
963.3544184170904
 20
6118.463392018244
 30
0.0
 11
-61.65380978851327
 21
-0.7738003768230099
 31
0.0
210
0.0
220
0.0
230
0.9999999999999998
 40
0.9723717943692678
 41
0.0
 42
6.283185307179586
  0
ELLIPSE
  5
5E4
330
1F
100
AcDbEntity
  8
0
  6
ByBlock
 62
     5
100
AcDbEllipse
 10
1128.778937998097
 20
6114.583782573022
 30
0.0
 11
-61.65380978851327
 21
-0.7738003768230099
 31
0.0
210
0.0
220
0.0
230
0.9999999999999998
 40
0.9723717943692678
 41
0.0
 42
6.283185307179586
  0
ELLIPSE
  5
5E5
330
1F
100
AcDbEntity
  8
0
  6
ByBlock
 62
     5
100
AcDbEllipse
 10
1294.18470028363
 20
6112.192910579991
 30
0.0
 11
-61.65380978851327
 21
-0.7738003768230099
 31
0.0
210
0.0
220
0.0
230
0.9999999999999998
 40
0.9723717943692678
 41
0.0
 42
6.283185307179586
  0
ELLIPSE
  5
5E6
330
1F
100
AcDbEntity
  8
0
  6
ByBlock
 62
     5
100
AcDbEllipse
 10
1456.555227461214
 20
6114.230779375869
 30
0.0
 11
-61.65380978851327
 21
-0.7738003768230099
 31
0.0
210
0.0
220
0.0
230
0.9999999999999998
 40
0.9723717943692678
 41
0.0
 42
6.283185307179586
  0
ELLIPSE
  5
5E7
330
1F
100
AcDbEntity
  8
0
  6
ByBlock
 62
     5
100
AcDbEllipse
 10
1626.515854758095
 20
6113.034091415563
 30
0.0
 11
-61.65380978851327
 21
-0.7738003768230099
 31
0.0
210
0.0
220
0.0
230
0.9999999999999998
 40
0.9723717943692678
 41
0.0
 42
6.283185307179586
  0
ELLIPSE
  5
5E8
330
1F
100
AcDbEntity
  8
0
  6
ByBlock
 62
     5
100
AcDbEllipse
 10
1794.602775663924
 20
6110.944798301617
 30
0.0
 11
-61.65380978851327
 21
-0.7738003768230099
 31
0.0
210
0.0
220
0.0
230
0.9999999999999998
 40
0.9723717943692678
 41
0.0
 42
6.283185307179586
  0
ELLIPSE
  5
5E9
330
1F
100
AcDbEntity
  8
0
  6
ByBlock
 62
     5
100
AcDbEllipse
 10
1950.060822151282
 20
6110.796436147237
 30
0.0
 11
-61.65380978851327
 21
-0.7738003768230099
 31
0.0
210
0.0
220
0.0
230
0.9999999999999998
 40
0.9723717943692678
 41
0.0
 42
6.283185307179586
  0
ELLIPSE
  5
5EA
330
1F
100
AcDbEntity
  8
0
  6
ByBlock
 62
     5
100
AcDbEllipse
 10
2113.815172119169
 20
6119.150054025061
 30
0.0
 11
-61.65380978851327
 21
-0.7738003768230099
 31
0.0
210
0.0
220
0.0
230
0.9999999999999998
 40
0.9723717943692678
 41
0.0
 42
6.283185307179586
  0
ELLIPSE
  5
5EB
330
1F
100
AcDbEntity
  8
0
  6
ByBlock
 62
     5
100
AcDbEllipse
 10
2288.256121716638
 20
6112.941560085221
 30
0.0
 11
-61.65380978851327
 21
-0.7738003768230099
 31
0.0
210
0.0
220
0.0
230
0.9999999999999998
 40
0.9723717943692678
 41
0.0
 42
6.283185307179586
  0
ELLIPSE
  5
5EC
330
1F
100
AcDbEntity
  8
0
  6
ByBlock
 62
     5
100
AcDbEllipse
 10
2454.216275310058
 20
6112.925048752138
 30
0.0
 11
-61.65380978851327
 21
-0.7738003768230099
 31
0.0
210
0.0
220
0.0
230
0.9999999999999998
 40
0.9723717943692678
 41
0.0
 42
6.283185307179586
  0
ELLIPSE
  5
5ED
330
1F
100
AcDbEntity
  8
0
  6
ByBlock
 62
     5
100
AcDbEllipse
 10
2615.975658915909
 20
6112.855772984364
 30
0.0
 11
-61.65380978851327
 21
-0.7738003768230099
 31
0.0
210
0.0
220
0.0
230
0.9999999999999998
 40
0.9723717943692678
 41
0.0
 42
6.283185307179586
  0
ELLIPSE
  5
5EE
330
1F
100
AcDbEntity
  8
0
  6
ByBlock
 62
     5
100
AcDbEllipse
 10
2778.123368436006
 20
6116.524562001593
 30
0.0
 11
-61.65380978851327
 21
-0.7738003768230099
 31
0.0
210
0.0
220
0.0
230
0.9999999999999998
 40
0.9723717943692678
 41
0.0
 42
6.283185307179586
  0
ELLIPSE
  5
5EF
330
1F
100
AcDbEntity
  8
0
  6
ByBlock
 62
     5
100
AcDbEllipse
 10
2947.256232652785
 20
6110.727506999667
 30
0.0
 11
-61.65380978851327
 21
-0.7738003768230099
 31
0.0
210
0.0
220
0.0
230
0.9999999999999998
 40
0.9723717943692678
 41
0.0
 42
6.283185307179586
  0
ELLIPSE
  5
5F0
330
1F
100
AcDbEntity
  8
0
  6
ByBlock
 62
     5
100
AcDbEllipse
 10
3113.648499419957
 20
6112.815851566962
 30
0.0
 11
-61.65380978851327
 21
-0.7738003768230099
 31
0.0
210
0.0
220
0.0
230
0.9999999999999998
 40
0.9723717943692678
 41
0.0
 42
6.283185307179586
  0
ELLIPSE
  5
5F1
330
1F
100
AcDbEntity
  8
0
  6
ByBlock
 62
     5
100
AcDbEllipse
 10
3282.615724694887
 20
6120.216349991919
 30
0.0
 11
-61.65380978851327
 21
-0.7738003768230099
 31
0.0
210
0.0
220
0.0
230
0.9999999999999998
 40
0.9723717943692678
 41
0.0
 42
6.283185307179586
  0
ELLIPSE
  5
5F2
330
1F
100
AcDbEntity
  8
0
  6
ByBlock
 62
     5
100
AcDbEllipse
 10
3441.117695142778
 20
6119.565747450078
 30
0.0
 11
-61.65380978851327
 21
-0.7738003768230099
 31
0.0
210
0.0
220
0.0
230
0.9999999999999998
 40
0.9723717943692678
 41
0.0
 42
6.283185307179586
  0
ELLIPSE
  5
5F3
330
1F
100
AcDbEntity
  8
0
  6
ByBlock
 62
     5
100
AcDbEllipse
 10
3607.543162134535
 20
6119.014590581315
 30
0.0
 11
-61.65380978851327
 21
-0.7738003768230099
 31
0.0
210
0.0
220
0.0
230
0.9999999999999998
 40
0.9723717943692678
 41
0.0
 42
6.283185307179586
  0
ELLIPSE
  5
5F4
330
1F
100
AcDbEntity
  8
0
  6
ByBlock
 62
     5
100
AcDbEllipse
 10
3773.968629649594
 20
6118.463392018195
 30
0.0
 11
-61.65380978851327
 21
-0.7738003768230099
 31
0.0
210
0.0
220
0.0
230
0.9999999999999998
 40
0.9723717943692678
 41
0.0
 42
6.283185307179586
  0
ELLIPSE
  5
5F5
330
1F
100
AcDbEntity
  8
0
  6
ByBlock
 62
     5
100
AcDbEllipse
 10
963.3544184170904
 20
358.2840097312535
 30
0.0
 11
-61.6538097885133
 21
0.7738003768230096
 31
0.0
210
0.0
220
0.0
230
-1.0
 40
0.9723717943692678
 41
0.0
 42
6.283185307179586
  0
ELLIPSE
  5
5F6
330
1F
100
AcDbEntity
  8
0
  6
ByBlock
 62
     5
100
AcDbEllipse
 10
1128.778937998097
 20
362.1636191764746
 30
0.0
 11
-61.6538097885133
 21
0.7738003768230096
 31
0.0
210
0.0
220
0.0
230
-1.0
 40
0.9723717943692678
 41
0.0
 42
6.283185307179586
  0
ELLIPSE
  5
5F7
330
1F
100
AcDbEntity
  8
0
  6
ByBlock
 62
     5
100
AcDbEllipse
 10
1294.18470028363
 20
364.5544911695072
 30
0.0
 11
-61.6538097885133
 21
0.7738003768230096
 31
0.0
210
0.0
220
0.0
230
-1.0
 40
0.9723717943692678
 41
0.0
 42
6.283185307179586
  0
ELLIPSE
  5
5F8
330
1F
100
AcDbEntity
  8
0
  6
ByBlock
 62
     5
100
AcDbEllipse
 10
1456.555227461214
 20
362.5166223736294
 30
0.0
 11
-61.6538097885133
 21
0.7738003768230096
 31
0.0
210
0.0
220
0.0
230
-1.0
 40
0.9723717943692678
 41
0.0
 42
6.283185307179586
  0
ELLIPSE
  5
5F9
330
1F
100
AcDbEntity
  8
0
  6
ByBlock
 62
     5
100
AcDbEllipse
 10
1626.515854758095
 20
363.7133103339345
 30
0.0
 11
-61.6538097885133
 21
0.7738003768230096
 31
0.0
210
0.0
220
0.0
230
-1.0
 40
0.9723717943692678
 41
0.0
 42
6.283185307179586
  0
ELLIPSE
  5
5FA
330
1F
100
AcDbEntity
  8
0
  6
ByBlock
 62
     5
100
AcDbEllipse
 10
1794.602775663924
 20
365.8026034478803
 30
0.0
 11
-61.6538097885133
 21
0.7738003768230096
 31
0.0
210
0.0
220
0.0
230
-1.0
 40
0.9723717943692678
 41
0.0
 42
6.283185307179586
  0
ELLIPSE
  5
5FB
330
1F
100
AcDbEntity
  8
0
  6
ByBlock
 62
     5
100
AcDbEllipse
 10
1950.060822151282
 20
365.950965602261
 30
0.0
 11
-61.6538097885133
 21
0.7738003768230096
 31
0.0
210
0.0
220
0.0
230
-1.0
 40
0.9723717943692678
 41
0.0
 42
6.283185307179586
  0
ELLIPSE
  5
5FC
330
1F
100
AcDbEntity
  8
0
  6
ByBlock
 62
     5
100
AcDbEllipse
 10
2113.815172119169
 20
357.5973477244361
 30
0.0
 11
-61.6538097885133
 21
0.7738003768230096
 31
0.0
210
0.0
220
0.0
230
-1.0
 40
0.9723717943692678
 41
0.0
 42
6.283185307179586
  0
ELLIPSE
  5
5FD
330
1F
100
AcDbEntity
  8
0
  6
ByBlock
 62
     5
100
AcDbEllipse
 10
2288.256121716638
 20
363.8058416642775
 30
0.0
 11
-61.6538097885133
 21
0.7738003768230096
 31
0.0
210
0.0
220
0.0
230
-1.0
 40
0.9723717943692678
 41
0.0
 42
6.283185307179586
  0
ELLIPSE
  5
5FE
330
1F
100
AcDbEntity
  8
0
  6
ByBlock
 62
     5
100
AcDbEllipse
 10
2454.216275310058
 20
363.8223529973591
 30
0.0
 11
-61.6538097885133
 21
0.7738003768230096
 31
0.0
210
0.0
220
0.0
230
-1.0
 40
0.9723717943692678
 41
0.0
 42
6.283185307179586
  0
ELLIPSE
  5
5FF
330
1F
100
AcDbEntity
  8
0
  6
ByBlock
 62
     5
100
AcDbEllipse
 10
2615.975658915909
 20
363.8916287651339
 30
0.0
 11
-61.6538097885133
 21
0.7738003768230096
 31
0.0
210
0.0
220
0.0
230
-1.0
 40
0.9723717943692678
 41
0.0
 42
6.283185307179586
  0
ELLIPSE
  5
600
330
1F
100
AcDbEntity
  8
0
  6
ByBlock
 62
     5
100
AcDbEllipse
 10
2778.123368436006
 20
360.2228397479041
 30
0.0
 11
-61.6538097885133
 21
0.7738003768230096
 31
0.0
210
0.0
220
0.0
230
-1.0
 40
0.9723717943692678
 41
0.0
 42
6.283185307179586
  0
ELLIPSE
  5
601
330
1F
100
AcDbEntity
  8
0
  6
ByBlock
 62
     5
100
AcDbEllipse
 10
2947.256232652785
 20
366.0198947498304
 30
0.0
 11
-61.6538097885133
 21
0.7738003768230096
 31
0.0
210
0.0
220
0.0
230
-1.0
 40
0.9723717943692678
 41
0.0
 42
6.283185307179586
  0
ELLIPSE
  5
602
330
1F
100
AcDbEntity
  8
0
  6
ByBlock
 62
     5
100
AcDbEllipse
 10
3113.648499419957
 20
363.9315501825358
 30
0.0
 11
-61.6538097885133
 21
0.7738003768230096
 31
0.0
210
0.0
220
0.0
230
-1.0
 40
0.9723717943692678
 41
0.0
 42
6.283185307179586
  0
ELLIPSE
  5
603
330
1F
100
AcDbEntity
  8
0
  6
ByBlock
 62
     5
100
AcDbEllipse
 10
3282.615724694887
 20
356.5310517575792
 30
0.0
 11
-61.6538097885133
 21
0.7738003768230096
 31
0.0
210
0.0
220
0.0
230
-1.0
 40
0.9723717943692678
 41
0.0
 42
6.283185307179586
  0
ELLIPSE
  5
604
330
1F
100
AcDbEntity
  8
0
  6
ByBlock
 62
     5
100
AcDbEllipse
 10
3441.117695142778
 20
357.1816542994195
 30
0.0
 11
-61.6538097885133
 21
0.7738003768230096
 31
0.0
210
0.0
220
0.0
230
-1.0
 40
0.9723717943692678
 41
0.0
 42
6.283185307179586
  0
ELLIPSE
  5
605
330
1F
100
AcDbEntity
  8
0
  6
ByBlock
 62
     5
100
AcDbEllipse
 10
3607.543162134535
 20
357.7328111681822
 30
0.0
 11
-61.6538097885133
 21
0.7738003768230096
 31
0.0
210
0.0
220
0.0
230
-1.0
 40
0.9723717943692678
 41
0.0
 42
6.283185307179586
  0
ELLIPSE
  5
606
330
1F
100
AcDbEntity
  8
0
  6
ByBlock
 62
     5
100
AcDbEllipse
 10
3773.968629649594
 20
358.2840097313035
 30
0.0
 11
-61.6538097885133
 21
0.7738003768230096
 31
0.0
210
0.0
220
0.0
230
-1.0
 40
0.9723717943692678
 41
0.0
 42
6.283185307179586
  0
LWPOLYLINE
  5
607
330
1F
100
AcDbEntity
  8
0
  6
ByBlock
 62
     5
100
AcDbPolyline
 90
        4
 70
     1
 43
0.0
 10
843.4441240396273
 20
6238.37368639571
 10
3893.878924027058
 20
6238.37368639571
 10
3893.878924027058
 20
238.3737153538384
 10
843.4441240396273
 20
238.3737153538384
  0
ENDSEC
  0
SECTION
  2
OBJECTS
  0
DICTIONARY
  5
C
330
0
100
AcDbDictionary
281
     1
  3
ACAD_COLOR
350
6B
  3
ACAD_GROUP
350
D
  3
ACAD_LAYOUT
350
1A
  3
ACAD_MATERIAL
350
6A
  3
ACAD_MLINESTYLE
350
17
  3
ACAD_PLOTSETTINGS
350
19
  3
ACAD_PLOTSTYLENAME
350
E
  3
ACAD_TABLESTYLE
350
7E
  3
ACAD_VISUALSTYLE
350
EF
  3
AcDbVariableDictionary
350
5E
  0
DICTIONARY
  5
110
330
2
100
AcDbDictionary
280
     1
281
     1
  3
ACAD_LAYERSTATES
360
111
  0
DICTIONARY
  5
6B
102
{ACAD_REACTORS
330
C
102
}
330
C
100
AcDbDictionary
281
     1
  0
DICTIONARY
  5
D
102
{ACAD_REACTORS
330
C
102
}
330
C
100
AcDbDictionary
281
     1
  0
DICTIONARY
  5
1A
102
{ACAD_REACTORS
330
C
102
}
330
C
100
AcDbDictionary
281
     1
  3
Layout1
350
D3
  3
Layout2
350
D7
  3
Model
350
22
  0
DICTIONARY
  5
6A
102
{ACAD_REACTORS
330
C
102
}
330
C
100
AcDbDictionary
281
     1
  3
ByBlock
350
ED
  3
ByLayer
350
EC
  3
Global
350
EE
  0
DICTIONARY
  5
17
102
{ACAD_REACTORS
330
C
102
}
330
C
100
AcDbDictionary
281
     1
  3
Standard
350
18
  0
DICTIONARY
  5
19
102
{ACAD_REACTORS
330
C
102
}
330
C
100
AcDbDictionary
281
     1
  0
ACDBDICTIONARYWDFLT
  5
E
102
{ACAD_REACTORS
330
C
102
}
330
C
100
AcDbDictionary
281
     1
  3
Normal
350
F
100
AcDbDictionaryWithDefault
340
F
  0
DICTIONARY
  5
7E
102
{ACAD_REACTORS
330
C
102
}
330
C
100
AcDbDictionary
281
     1
  3
Standard
350
7F
  0
DICTIONARY
  5
EF
102
{ACAD_REACTORS
330
C
102
}
330
C
100
AcDbDictionary
281
     1
  3
2dWireframe
350
F5
  3
3D Hidden
350
F7
  3
3dWireframe
350
F6
  3
Basic
350
F4
  3
Brighten
350
FB
  3
ColorChange
350
FF
  3
Conceptual
350
F8
  3
Dim
350
FA
  3
Facepattern
350
FE
  3
Flat
350
F0
  3
FlatWithEdges
350
F1
  3
Gouraud
350
F2
  3
GouraudWithEdges
350
F3
  3
Linepattern
350
FD
  3
Realistic
350
F9
  3
Thicken
350
FC
  0
DICTIONARY
  5
5E
102
{ACAD_REACTORS
330
C
102
}
330
C
100
AcDbDictionary
281
     1
  3
CTABLESTYLE
350
84
  3
DIMASSOC
350
5F
  3
HIDETEXT
350
63
  0
DICTIONARY
  5
111
102
{ACAD_REACTORS
330
110
102
}
330
110
100
AcDbDictionary
281
     1
  0
LAYOUT
  5
D3
102
{ACAD_REACTORS
330
1A
102
}
330
1A
100
AcDbPlotSettings
  1

  2
C:\Documents and Settings\basas\Application Data\Autodesk\AutoCAD 2005\R16.1\enu\plotters\Default Windows System Printer.pc3
  4

  6

 40
0.0
 41
0.0
 42
0.0
 43
0.0
 44
0.0
 45
0.0
 46
0.0
 47
0.0
 48
0.0
 49
0.0
140
0.0
141
0.0
142
1.0
143
1.0
 70
   688
 72
     0
 73
     0
 74
     5
  7
monochrome.ctb
 75
    16
147
1.0
 76
     0
 77
     2
 78
   300
148
0.0
149
0.0
100
AcDbLayout
  1
Layout1
 70
     1
 71
     1
 10
0.0
 20
0.0
 11
12.0
 21
9.0
 12
0.0
 22
0.0
 32
0.0
 14
0.0
 24
0.0
 34
0.0
 15
0.0
 25
0.0
 35
0.0
146
0.0
 13
0.0
 23
0.0
 33
0.0
 16
1.0
 26
0.0
 36
0.0
 17
0.0
 27
1.0
 37
0.0
 76
     0
330
D2
  0
LAYOUT
  5
D7
102
{ACAD_REACTORS
330
1A
102
}
330
1A
100
AcDbPlotSettings
  1

  2
C:\Documents and Settings\basas\Application Data\Autodesk\AutoCAD 2005\R16.1\enu\plotters\Default Windows System Printer.pc3
  4

  6

 40
0.0
 41
0.0
 42
0.0
 43
0.0
 44
0.0
 45
0.0
 46
0.0
 47
0.0
 48
0.0
 49
0.0
140
0.0
141
0.0
142
1.0
143
1.0
 70
   688
 72
     0
 73
     0
 74
     5
  7
monochrome.ctb
 75
    16
147
1.0
 76
     0
 77
     2
 78
   300
148
0.0
149
0.0
100
AcDbLayout
  1
Layout2
 70
     1
 71
     2
 10
0.0
 20
0.0
 11
12.0
 21
9.0
 12
0.0
 22
0.0
 32
0.0
 14
0.0
 24
0.0
 34
0.0
 15
0.0
 25
0.0
 35
0.0
146
0.0
 13
0.0
 23
0.0
 33
0.0
 16
1.0
 26
0.0
 36
0.0
 17
0.0
 27
1.0
 37
0.0
 76
     0
330
D6
  0
LAYOUT
  5
22
102
{ACAD_REACTORS
330
1A
102
}
330
1A
100
AcDbPlotSettings
  1

  2
PublishToWeb JPG.pc3
  4
User-1
  6

 40
88.58267974853516
 41
236.2204742431641
 42
88.582763671875
 43
236.220458984375
 44
2480.31494140625
 45
3507.8740234375
 46
379.9588509846736
 47
-0.0000000000002274
 48
843.4441240396273
 49
238.3737153538384
140
3893.878924027058
141
6238.37368639571
142
1.0
143
1.976653674361456
 70
 11956
 72
     2
 73
     0
 74
     4
  7
monochrome.ctb
 75
     0
147
0.5059055174766732
 76
     0
 77
     2
 78
   300
148
-843.4441240396273
149
-238.3737153538384
100
AcDbLayout
  1
Model
 70
     1
 71
     0
 10
0.0
 20
0.0
 11
12.0
 21
9.0
 12
0.0
 22
0.0
 32
0.0
 14
0.0
 24
0.0
 34
0.0
 15
0.0
 25
0.0
 35
0.0
146
0.0
 13
0.0
 23
0.0
 33
0.0
 16
1.0
 26
0.0
 36
0.0
 17
0.0
 27
1.0
 37
0.0
 76
     0
330
1F
331
EA
1001
ACAD_PSEXT
1000
PublishToWeb JPG.pc3
1000
Independent JPEG Group JFIF (JPEG Compression)
1000
File
1000

1070
     0
  0
MATERIAL
  5
ED
102
{ACAD_REACTORS
330
6A
102
}
330
6A
100
AcDbMaterial
  1
ByBlock
  0
MATERIAL
  5
EC
102
{ACAD_REACTORS
330
6A
102
}
330
6A
100
AcDbMaterial
  1
ByLayer
  0
MATERIAL
  5
EE
102
{ACAD_REACTORS
330
6A
102
}
330
6A
100
AcDbMaterial
  1
Global
  0
MLINESTYLE
  5
18
102
{ACAD_REACTORS
330
17
102
}
330
17
100
AcDbMlineStyle
  2
STANDARD
 70
     0
  3

 62
   256
 51
90.0
 52
90.0
 71
     2
 49
0.5
 62
   256
  6
BYLAYER
 49
-0.5
 62
   256
  6
BYLAYER
  0
ACDBPLACEHOLDER
  5
F
102
{ACAD_REACTORS
330
E
102
}
330
E
  0
TABLESTYLE
  5
7F
102
{ACAD_REACTORS
330
7E
102
}
330
7E
100
AcDbTableStyle
  3
Standard
 70
     0
 71
     0
 40
1.5
 41
1.5
280
     0
281
     0
  7
Standard
140
4.5
170
     2
 62
     0
 63
     7
283
     0
 90
      512
 91
        0
  1

274
    -2
284
     1
 64
     0
275
    -2
285
     1
 65
     0
276
    -2
286
     1
 66
     0
277
    -2
287
     1
 67
     0
278
    -2
288
     1
 68
     0
279
    -2
289
     1
 69
     0
  7
Standard
140
6.0
170
     5
 62
     0
 63
     7
283
     0
 90
      512
 91
        0
  1

274
    -2
284
     1
 64
     0
275
    -2
285
     1
 65
     0
276
    -2
286
     1
 66
     0
277
    -2
287
     1
 67
     0
278
    -2
288
     1
 68
     0
279
    -2
289
     1
 69
     0
  7
Standard
140
4.5
170
     5
 62
     0
 63
     7
283
     0
 90
      512
 91
        0
  1

274
    -2
284
     1
 64
     0
275
    -2
285
     1
 65
     0
276
    -2
286
     1
 66
     0
277
    -2
287
     1
 67
     0
278
    -2
288
     1
 68
     0
279
    -2
289
     1
 69
     0
  0
VISUALSTYLE
  5
F5
102
{ACAD_REACTORS
330
EF
102
}
330
EF
100
AcDbVisualStyle
  2
2dWireframe
 70
     4
 71
     0
 72
     2
 73
     1
 90
        0
 40
-0.6
 41
-30.0
 62
     5
 63
     7
421
 16777215
 74
     1
 91
        4
 64
     7
 65
   257
 75
     1
175
     1
 42
1.0
 92
        0
 66
   257
 43
1.0
 76
     1
 77
     6
 78
     2
 67
     7
 79
     5
170
     0
171
     0
290
     0
174
     0
 93
        1
 44
0.0
173
     0
291
     0
 45
0.0
  0
VISUALSTYLE
  5
F7
102
{ACAD_REACTORS
330
EF
102
}
330
EF
100
AcDbVisualStyle
  2
3D Hidden
 70
     6
 71
     1
 72
     2
 73
     2
 90
        0
 40
-0.6
 41
-30.0
 62
     5
 63
     7
421
 16777215
 74
     2
 91
        2
 64
     7
 65
   257
 75
     2
175
     1
 42
40.0
 92
        0
 66
   257
 43
1.0
 76
     1
 77
     6
 78
     2
 67
     7
 79
     3
170
     0
171
     0
290
     0
174
     0
 93
        1
 44
0.0
173
     0
291
     0
 45
0.0
  0
VISUALSTYLE
  5
F6
102
{ACAD_REACTORS
330
EF
102
}
330
EF
100
AcDbVisualStyle
  2
3dWireframe
 70
     5
 71
     0
 72
     2
 73
     1
 90
        0
 40
-0.6
 41
-30.0
 62
     5
 63
     7
421
 16777215
 74
     1
 91
        4
 64
     7
 65
   257
 75
     1
175
     1
 42
1.0
 92
        0
 66
   257
 43
1.0
 76
     1
 77
     6
 78
     2
 67
     7
 79
     5
170
     0
171
     0
290
     0
174
     0
 93
        1
 44
0.0
173
     0
291
     0
 45
0.0
  0
VISUALSTYLE
  5
F4
102
{ACAD_REACTORS
330
EF
102
}
330
EF
100
AcDbVisualStyle
  2
Basic
 70
     7
 71
     1
 72
     0
 73
     1
 90
        0
 40
-0.6
 41
-30.0
 62
     5
 63
     7
421
 16777215
 74
     0
 91
        4
 64
     7
 65
   257
 75
     1
175
     1
 42
1.0
 92
        8
 66
     7
 43
1.0
 76
     1
 77
     6
 78
     2
 67
     7
 79
     5
170
     0
171
     0
290
     0
174
     0
 93
        1
 44
0.0
173
     0
291
     1
 45
0.0
  0
VISUALSTYLE
  5
FB
102
{ACAD_REACTORS
330
EF
102
}
330
EF
100
AcDbVisualStyle
  2
Brighten
 70
    12
 71
     2
 72
     2
 73
     1
 90
        0
 40
-0.6
 41
-30.0
 62
     5
 63
     7
421
 16777215
 74
     1
 91
        4
 64
     7
 65
   257
 75
     1
175
     1
 42
1.0
 92
        8
 66
     7
 43
1.0
 76
     1
 77
     6
 78
     2
 67
     7
 79
     5
170
     0
171
     0
290
     0
174
     0
 93
        1
 44
50.0
173
     0
291
     1
 45
0.0
  0
VISUALSTYLE
  5
FF
102
{ACAD_REACTORS
330
EF
102
}
330
EF
100
AcDbVisualStyle
  2
ColorChange
 70
    16
 71
     2
 72
     2
 73
     3
 90
        0
 40
-0.6
 41
-30.0
 62
     5
 63
     8
421
  8421504
 74
     1
 91
        4
 64
     7
 65
   257
 75
     1
175
     1
 42
1.0
 92
        8
 66
     8
424
  8421504
 43
1.0
 76
     1
 77
     6
 78
     2
 67
     7
 79
     5
170
     0
171
     0
290
     0
174
     0
 93
        1
 44
0.0
173
     0
291
     1
 45
0.0
  0
VISUALSTYLE
  5
F8
102
{ACAD_REACTORS
330
EF
102
}
330
EF
100
AcDbVisualStyle
  2
Conceptual
 70
     9
 71
     3
 72
     2
 73
     1
 90
        0
 40
-0.6
 41
-30.0
 62
     5
 63
     7
421
 16777215
 74
     2
 91
        2
 64
     7
 65
   257
 75
     1
175
     1
 42
40.0
 92
        8
 66
     7
 43
1.0
 76
     1
 77
     6
 78
     2
 67
     7
 79
     3
170
     0
171
     0
290
     0
174
     0
 93
        1
 44
0.0
173
     0
291
     0
 45
0.0
  0
VISUALSTYLE
  5
FA
102
{ACAD_REACTORS
330
EF
102
}
330
EF
100
AcDbVisualStyle
  2
Dim
 70
    11
 71
     2
 72
     2
 73
     1
 90
        0
 40
-0.6
 41
-30.0
 62
     5
 63
     7
421
 16777215
 74
     1
 91
        4
 64
     7
 65
   257
 75
     1
175
     1
 42
1.0
 92
        8
 66
     7
 43
1.0
 76
     1
 77
     6
 78
     2
 67
     7
 79
     5
170
     0
171
     0
290
     0
174
     0
 93
        1
 44
-50.0
173
     0
291
     1
 45
0.0
  0
VISUALSTYLE
  5
FE
102
{ACAD_REACTORS
330
EF
102
}
330
EF
100
AcDbVisualStyle
  2
Facepattern
 70
    15
 71
     2
 72
     2
 73
     1
 90
        0
 40
-0.6
 41
-30.0
 62
     5
 63
     7
421
 16777215
 74
     1
 91
        4
 64
     7
 65
   257
 75
     1
175
     1
 42
1.0
 92
        8
 66
     7
 43
1.0
 76
     1
 77
     6
 78
     2
 67
     7
 79
     5
170
     0
171
     0
290
     0
174
     0
 93
        1
 44
0.0
173
     0
291
     1
 45
0.0
  0
VISUALSTYLE
  5
F0
102
{ACAD_REACTORS
330
EF
102
}
330
EF
100
AcDbVisualStyle
  2
Flat
 70
     0
 71
     2
 72
     1
 73
     1
 90
        2
 40
-0.6
 41
30.0
 62
     5
 63
     7
421
 16777215
 74
     0
 91
        4
 64
     7
 65
   257
 75
     1
175
     1
 42
1.0
 92
        8
 66
     7
 43
1.0
 76
     1
 77
     6
 78
     2
 67
     7
 79
     5
170
     0
171
     0
290
     0
174
     0
 93
        1
 44
0.0
173
     0
291
     1
 45
0.0
  0
VISUALSTYLE
  5
F1
102
{ACAD_REACTORS
330
EF
102
}
330
EF
100
AcDbVisualStyle
  2
FlatWithEdges
 70
     1
 71
     2
 72
     1
 73
     1
 90
        2
 40
-0.6
 41
30.0
 62
     5
 63
     7
421
 16777215
 74
     1
 91
        4
 64
     7
 65
   257
 75
     1
175
     1
 42
1.0
 92
        0
 66
   257
 43
1.0
 76
     1
 77
     6
 78
     2
 67
     7
 79
     5
170
     0
171
     0
290
     0
174
     0
 93
        1
 44
0.0
173
     0
291
     1
 45
0.0
  0
VISUALSTYLE
  5
F2
102
{ACAD_REACTORS
330
EF
102
}
330
EF
100
AcDbVisualStyle
  2
Gouraud
 70
     2
 71
     2
 72
     2
 73
     1
 90
        2
 40
-0.6
 41
30.0
 62
     5
 63
     7
421
 16777215
 74
     0
 91
        4
 64
     7
 65
   257
 75
     1
175
     1
 42
1.0
 92
        0
 66
     7
 43
1.0
 76
     1
 77
     6
 78
     2
 67
     7
 79
     5
170
     0
171
     0
290
     0
174
     0
 93
        1
 44
0.0
173
     0
291
     1
 45
0.0
  0
VISUALSTYLE
  5
F3
102
{ACAD_REACTORS
330
EF
102
}
330
EF
100
AcDbVisualStyle
  2
GouraudWithEdges
 70
     3
 71
     2
 72
     2
 73
     1
 90
        2
 40
-0.6
 41
30.0
 62
     5
 63
     7
421
 16777215
 74
     1
 91
        4
 64
     7
 65
   257
 75
     1
175
     1
 42
1.0
 92
        0
 66
   257
 43
1.0
 76
     1
 77
     6
 78
     2
 67
     7
 79
     5
170
     0
171
     0
290
     0
174
     0
 93
        1
 44
0.0
173
     0
291
     1
 45
0.0
  0
VISUALSTYLE
  5
FD
102
{ACAD_REACTORS
330
EF
102
}
330
EF
100
AcDbVisualStyle
  2
Linepattern
 70
    14
 71
     2
 72
     2
 73
     1
 90
        0
 40
-0.6
 41
-30.0
 62
     5
 63
     7
421
 16777215
 74
     1
 91
        4
 64
     7
 65
   257
 75
     7
175
     7
 42
1.0
 92
        8
 66
     7
 43
1.0
 76
     1
 77
     6
 78
     2
 67
     7
 79
     5
170
     0
171
     0
290
     0
174
     0
 93
        1
 44
0.0
173
     0
291
     1
 45
0.0
  0
VISUALSTYLE
  5
F9
102
{ACAD_REACTORS
330
EF
102
}
330
EF
100
AcDbVisualStyle
  2
Realistic
 70
     8
 71
     2
 72
     2
 73
     1
 90
        0
 40
-0.6
 41
-30.0
 62
     5
 63
     7
421
 16777215
 74
     1
 91
        0
 64
     7
 65
   257
 75
     1
175
     1
 42
1.0
 92
        8
 66
     8
424
  7895160
 43
1.0
 76
     1
 77
     6
 78
     2
 67
     7
 79
     5
170
     0
171
     0
290
     0
174
     0
 93
       13
 44
0.0
173
     0
291
     0
 45
0.0
  0
VISUALSTYLE
  5
FC
102
{ACAD_REACTORS
330
EF
102
}
330
EF
100
AcDbVisualStyle
  2
Thicken
 70
    13
 71
     2
 72
     2
 73
     1
 90
        0
 40
-0.6
 41
-30.0
 62
     5
 63
     7
421
 16777215
 74
     1
 91
        4
 64
     7
 65
   257
 75
     1
175
     1
 42
1.0
 92
       12
 66
     7
 43
1.0
 76
     1
 77
     6
 78
     2
 67
     7
 79
     5
170
     0
171
     0
290
     0
174
     0
 93
        1
 44
0.0
173
     0
291
     1
 45
0.0
  0
DICTIONARYVAR
  5
84
102
{ACAD_REACTORS
330
5E
102
}
330
5E
100
DictionaryVariables
280
     0
  1
STANDARD
  0
DICTIONARYVAR
  5
5F
102
{ACAD_REACTORS
330
5E
102
}
330
5E
100
DictionaryVariables
280
     0
  1
2
  0
DICTIONARYVAR
  5
63
102
{ACAD_REACTORS
330
5E
102
}
330
5E
100
DictionaryVariables
280
     0
  1
1
  0
ENDSEC
  0
EOF
