  0
SECTION
  2
HEADER
  9
$ACADVER
  1
AC1021
  9
$ACADMAINTVER
 70
     1
  9
$DWGCODEPAGE
  3
ANSI_1254
  9
$LASTSAVEDBY
  1
uretim
  9
$INSBASE
 10
0.0
 20
0.0
 30
0.0
  9
$EXTMIN
 10
724.4433803722349
 20
326.5890226182473
 30
-0.0015258207003583
  9
$EXTMAX
 10
4951.874172143323
 20
6326.925930789013
 30
0.0000000349246037
  9
$LIMMIN
 10
0.0
 20
0.0
  9
$LIMMAX
 10
420.0
 20
297.0
  9
$ORTHOMODE
 70
     0
  9
$REGENMODE
 70
     1
  9
$FILLMODE
 70
     1
  9
$QTEXTMODE
 70
     0
  9
$MIRRTEXT
 70
     0
  9
$LTSCALE
 40
1.0
  9
$ATTMODE
 70
     1
  9
$TEXTSIZE
 40
2.5
  9
$TRACEWID
 40
1.0
  9
$TEXTSTYLE
  7
Standard
  9
$CLAYER
  8
0
  9
$CELTYPE
  6
ByLayer
  9
$CECOLOR
 62
     2
  9
$CELTSCALE
 40
1.0
  9
$DISPSILH
 70
     0
  9
$DIMSCALE
 40
1.0
  9
$DIMASZ
 40
2.5
  9
$DIMEXO
 40
0.625
  9
$DIMDLI
 40
3.75
  9
$DIMRND
 40
0.0
  9
$DIMDLE
 40
0.0
  9
$DIMEXE
 40
1.25
  9
$DIMTP
 40
0.0
  9
$DIMTM
 40
0.0
  9
$DIMTXT
 40
2.5
  9
$DIMCEN
 40
2.5
  9
$DIMTSZ
 40
0.0
  9
$DIMTOL
 70
     0
  9
$DIMLIM
 70
     0
  9
$DIMTIH
 70
     0
  9
$DIMTOH
 70
     0
  9
$DIMSE1
 70
     0
  9
$DIMSE2
 70
     0
  9
$DIMTAD
 70
     1
  9
$DIMZIN
 70
     8
  9
$DIMBLK
  1

  9
$DIMASO
 70
     1
  9
$DIMSHO
 70
     1
  9
$DIMPOST
  1

  9
$DIMAPOST
  1

  9
$DIMALT
 70
     0
  9
$DIMALTD
 70
     3
  9
$DIMALTF
 40
0.03937007874016
  9
$DIMLFAC
 40
1.0
  9
$DIMTOFL
 70
     1
  9
$DIMTVP
 40
0.0
  9
$DIMTIX
 70
     0
  9
$DIMSOXD
 70
     0
  9
$DIMSAH
 70
     0
  9
$DIMBLK1
  1

  9
$DIMBLK2
  1

  9
$DIMSTYLE
  2
ISO-25
  9
$DIMCLRD
 70
     0
  9
$DIMCLRE
 70
     0
  9
$DIMCLRT
 70
     0
  9
$DIMTFAC
 40
1.0
  9
$DIMGAP
 40
0.625
  9
$DIMJUST
 70
     0
  9
$DIMSD1
 70
     0
  9
$DIMSD2
 70
     0
  9
$DIMTOLJ
 70
     0
  9
$DIMTZIN
 70
     8
  9
$DIMALTZ
 70
     0
  9
$DIMALTTZ
 70
     0
  9
$DIMUPT
 70
     0
  9
$DIMDEC
 70
     2
  9
$DIMTDEC
 70
     2
  9
$DIMALTU
 70
     2
  9
$DIMALTTD
 70
     3
  9
$DIMTXSTY
  7
Standard
  9
$DIMAUNIT
 70
     0
  9
$DIMADEC
 70
     0
  9
$DIMALTRND
 40
0.0
  9
$DIMAZIN
 70
     0
  9
$DIMDSEP
 70
    44
  9
$DIMATFIT
 70
     3
  9
$DIMFRAC
 70
     0
  9
$DIMLDRBLK
  1

  9
$DIMLUNIT
 70
     2
  9
$DIMLWD
 70
    -2
  9
$DIMLWE
 70
    -2
  9
$DIMTMOVE
 70
     0
  9
$DIMFXL
 40
1.0
  9
$DIMFXLON
 70
     0
  9
$DIMJOGANG
 40
0.7853981633974483
  9
$DIMTFILL
 70
     0
  9
$DIMTFILLCLR
 70
     0
  9
$DIMARCSYM
 70
     0
  9
$DIMLTYPE
  6

  9
$DIMLTEX1
  6

  9
$DIMLTEX2
  6

  9
$LUNITS
 70
     2
  9
$LUPREC
 70
     4
  9
$SKETCHINC
 40
1.0
  9
$FILLETRAD
 40
0.0
  9
$AUNITS
 70
     0
  9
$AUPREC
 70
     0
  9
$MENU
  1
.
  9
$ELEVATION
 40
0.0
  9
$PELEVATION
 40
0.0
  9
$THICKNESS
 40
0.0
  9
$LIMCHECK
 70
     0
  9
$CHAMFERA
 40
0.0
  9
$CHAMFERB
 40
0.0
  9
$CHAMFERC
 40
0.0
  9
$CHAMFERD
 40
0.0
  9
$SKPOLY
 70
     0
  9
$TDCREATE
 40
2457891.388593600
  9
$TDUCREATE
 40
2457891.263593600
  9
$TDUPDATE
 40
2457891.389851250
  9
$TDUUPDATE
 40
2457891.264851250
  9
$TDINDWG
 40
0.0012579745
  9
$TDUSRTIMER
 40
0.0012579398
  9
$USRTIMER
 70
     1
  9
$ANGBASE
 50
0.0
  9
$ANGDIR
 70
     0
  9
$PDMODE
 70
     0
  9
$PDSIZE
 40
0.0
  9
$PLINEWID
 40
0.0
  9
$SPLFRAME
 70
     0
  9
$SPLINETYPE
 70
     6
  9
$SPLINESEGS
 70
     8
  9
$HANDSEED
  5
207
  9
$SURFTAB1
 70
     6
  9
$SURFTAB2
 70
     6
  9
$SURFTYPE
 70
     6
  9
$SURFU
 70
     6
  9
$SURFV
 70
     6
  9
$UCSBASE
  2

  9
$UCSNAME
  2

  9
$UCSORG
 10
0.0
 20
0.0
 30
0.0
  9
$UCSXDIR
 10
1.0
 20
0.0
 30
0.0
  9
$UCSYDIR
 10
0.0
 20
1.0
 30
0.0
  9
$UCSORTHOREF
  2

  9
$UCSORTHOVIEW
 70
     0
  9
$UCSORGTOP
 10
0.0
 20
0.0
 30
0.0
  9
$UCSORGBOTTOM
 10
0.0
 20
0.0
 30
0.0
  9
$UCSORGLEFT
 10
0.0
 20
0.0
 30
0.0
  9
$UCSORGRIGHT
 10
0.0
 20
0.0
 30
0.0
  9
$UCSORGFRONT
 10
0.0
 20
0.0
 30
0.0
  9
$UCSORGBACK
 10
0.0
 20
0.0
 30
0.0
  9
$PUCSBASE
  2

  9
$PUCSNAME
  2

  9
$PUCSORG
 10
0.0
 20
0.0
 30
0.0
  9
$PUCSXDIR
 10
1.0
 20
0.0
 30
0.0
  9
$PUCSYDIR
 10
0.0
 20
1.0
 30
0.0
  9
$PUCSORTHOREF
  2

  9
$PUCSORTHOVIEW
 70
     0
  9
$PUCSORGTOP
 10
0.0
 20
0.0
 30
0.0
  9
$PUCSORGBOTTOM
 10
0.0
 20
0.0
 30
0.0
  9
$PUCSORGLEFT
 10
0.0
 20
0.0
 30
0.0
  9
$PUCSORGRIGHT
 10
0.0
 20
0.0
 30
0.0
  9
$PUCSORGFRONT
 10
0.0
 20
0.0
 30
0.0
  9
$PUCSORGBACK
 10
0.0
 20
0.0
 30
0.0
  9
$USERI1
 70
     0
  9
$USERI2
 70
     0
  9
$USERI3
 70
     0
  9
$USERI4
 70
     0
  9
$USERI5
 70
     0
  9
$USERR1
 40
0.0
  9
$USERR2
 40
0.0
  9
$USERR3
 40
0.0
  9
$USERR4
 40
0.0
  9
$USERR5
 40
0.0
  9
$WORLDVIEW
 70
     1
  9
$SHADEDGE
 70
     3
  9
$SHADEDIF
 70
    70
  9
$TILEMODE
 70
     1
  9
$MAXACTVP
 70
    64
  9
$PINSBASE
 10
0.0
 20
0.0
 30
0.0
  9
$PLIMCHECK
 70
     0
  9
$PEXTMIN
 10
0.0
 20
0.0
 30
0.0
  9
$PEXTMAX
 10
0.0
 20
0.0
 30
0.0
  9
$PLIMMIN
 10
0.0
 20
0.0
  9
$PLIMMAX
 10
12.0
 20
9.0
  9
$UNITMODE
 70
     0
  9
$VISRETAIN
 70
     1
  9
$PLINEGEN
 70
     0
  9
$PSLTSCALE
 70
     1
  9
$TREEDEPTH
 70
  3020
  9
$CMLSTYLE
  2
Standard
  9
$CMLJUST
 70
     0
  9
$CMLSCALE
 40
20.0
  9
$PROXYGRAPHICS
 70
     1
  9
$MEASUREMENT
 70
     1
  9
$CELWEIGHT
370
    -1
  9
$ENDCAPS
280
     0
  9
$JOINSTYLE
280
     0
  9
$LWDISPLAY
290
     0
  9
$INSUNITS
 70
     4
  9
$HYPERLINKBASE
  1

  9
$STYLESHEET
  1

  9
$XEDIT
290
     1
  9
$CEPSNTYPE
380
     0
  9
$PSTYLEMODE
290
     1
  9
$FINGERPRINTGUID
  2
{9F83C6B5-163F-4679-A220-B8F34389E92B}
  9
$VERSIONGUID
  2
{92DEB9C7-983B-408F-AE1F-7ECCA3E3EA33}
  9
$EXTNAMES
290
     1
  9
$PSVPSCALE
 40
0.0
  9
$OLESTARTUP
290
     0
  9
$SORTENTS
280
   127
  9
$INDEXCTL
280
     0
  9
$HIDETEXT
280
     1
  9
$XCLIPFRAME
290
     0
  9
$HALOGAP
280
     0
  9
$OBSCOLOR
 70
   257
  9
$OBSLTYPE
280
     0
  9
$INTERSECTIONDISPLAY
280
     0
  9
$INTERSECTIONCOLOR
 70
   257
  9
$DIMASSOC
280
     2
  9
$PROJECTNAME
  1

  9
$CAMERADISPLAY
290
     0
  9
$LENSLENGTH
 40
50.0
  9
$CAMERAHEIGHT
 40
0.0
  9
$STEPSPERSEC
 40
2.0
  9
$STEPSIZE
 40
6.0
  9
$3DDWFPREC
 40
2.0
  9
$PSOLWIDTH
 40
5.0
  9
$PSOLHEIGHT
 40
80.0
  9
$LOFTANG1
 40
1.570796326794896
  9
$LOFTANG2
 40
1.570796326794896
  9
$LOFTMAG1
 40
0.0
  9
$LOFTMAG2
 40
0.0
  9
$LOFTPARAM
 70
     7
  9
$LOFTNORMALS
280
     1
  9
$LATITUDE
 40
37.795
  9
$LONGITUDE
 40
-122.394
  9
$NORTHDIRECTION
 40
0.0
  9
$TIMEZONE
 70
 -8000
  9
$LIGHTGLYPHDISPLAY
280
     1
  9
$TILEMODELIGHTSYNCH
280
     1
  9
$CMATERIAL
347
EC
  9
$SOLIDHIST
280
     1
  9
$SHOWHIST
280
     1
  9
$DWFFRAME
280
     2
  9
$DGNFRAME
280
     0
  9
$REALWORLDSCALE
290
     1
  9
$INTERFERECOLOR
 62
     1
  9
$INTERFEREOBJVS
345
F9
  9
$INTERFEREVPVS
346
F6
  9
$CSHADOW
280
     0
  9
$SHADOWPLANELOCATION
 40
0.0
  0
ENDSEC
  0
SECTION
  2
CLASSES
  0
CLASS
  1
ACDBDICTIONARYWDFLT
  2
AcDbDictionaryWithDefault
  3
ObjectDBX Classes
 90
        0
 91
        1
280
     0
281
     0
  0
CLASS
  1
DICTIONARYVAR
  2
AcDbDictionaryVar
  3
ObjectDBX Classes
 90
        0
 91
        3
280
     0
281
     0
  0
CLASS
  1
TABLESTYLE
  2
AcDbTableStyle
  3
ObjectDBX Classes
 90
     4095
 91
        1
280
     0
281
     0
  0
CLASS
  1
MATERIAL
  2
AcDbMaterial
  3
ObjectDBX Classes
 90
     1024
 91
        3
280
     0
281
     0
  0
CLASS
  1
VISUALSTYLE
  2
AcDbVisualStyle
  3
ObjectDBX Classes
 90
     4095
 91
       16
280
     0
281
     0
  0
CLASS
  1
SORTENTSTABLE
  2
AcDbSortentsTable
  3
ObjectDBX Classes
 90
        0
 91
        4
280
     0
281
     0
  0
ENDSEC
  0
SECTION
  2
TABLES
  0
TABLE
  2
VPORT
  5
8
330
0
100
AcDbSymbolTable
 70
     1
  0
VPORT
  5
EA
330
8
100
AcDbSymbolTableRecord
100
AcDbViewportTableRecord
  2
*Active
 70
     0
 10
0.0
 20
0.0
 11
1.0
 21
1.0
 12
3795.344144803242
 22
3737.968762573307
 13
0.0
 23
0.0
 14
10.0
 24
10.0
 15
10.0
 25
10.0
 16
0.0
 26
0.0
 36
1.0
 17
0.0
 27
0.0
 37
0.0
 40
9939.436074992451
 41
1.589641434262948
 42
50.0
 43
0.0
 44
0.0
 50
0.0
 51
0.0
 71
     0
 72
  1000
 73
     1
 74
     3
 75
     0
 76
     0
 77
     0
 78
     0
281
     0
 65
     1
110
0.0
120
0.0
130
0.0
111
1.0
121
0.0
131
0.0
112
0.0
122
1.0
132
0.0
 79
     0
146
0.0
348
F5
 60
     2
 61
     5
292
     1
282
     1
141
0.0
142
0.0
 63
   250
421
  3355443
  0
ENDTAB
  0
TABLE
  2
LTYPE
  5
5
330
0
100
AcDbSymbolTable
 70
     1
  0
LTYPE
  5
14
330
5
100
AcDbSymbolTableRecord
100
AcDbLinetypeTableRecord
  2
ByBlock
 70
     0
  3

 72
    65
 73
     0
 40
0.0
  0
LTYPE
  5
15
330
5
100
AcDbSymbolTableRecord
100
AcDbLinetypeTableRecord
  2
ByLayer
 70
     0
  3

 72
    65
 73
     0
 40
0.0
  0
LTYPE
  5
16
330
5
100
AcDbSymbolTableRecord
100
AcDbLinetypeTableRecord
  2
Continuous
 70
     0
  3
Solid line
 72
    65
 73
     0
 40
0.0
  0
ENDTAB
  0
TABLE
  2
LAYER
  5
2
102
{ACAD_XDICTIONARY
360
110
102
}
330
0
100
AcDbSymbolTable
 70
     1
  0
LAYER
  5
10
330
2
100
AcDbSymbolTableRecord
100
AcDbLayerTableRecord
  2
0
 70
     0
 62
     7
  6
Continuous
370
    -3
390
F
347
EE
  0
ENDTAB
  0
TABLE
  2
STYLE
  5
3
330
0
100
AcDbSymbolTable
 70
     1
  0
STYLE
  5
11
330
3
100
AcDbSymbolTableRecord
100
AcDbTextStyleTableRecord
  2
Standard
 70
     0
 40
0.0
 41
1.0
 50
0.0
 71
     0
 42
2.5
  3
txt
  4

  0
ENDTAB
  0
TABLE
  2
VIEW
  5
6
330
0
100
AcDbSymbolTable
 70
     1
  0
ENDTAB
  0
TABLE
  2
UCS
  5
7
330
0
100
AcDbSymbolTable
 70
     0
  0
ENDTAB
  0
TABLE
  2
APPID
  5
9
330
0
100
AcDbSymbolTable
 70
     2
  0
APPID
  5
12
330
9
100
AcDbSymbolTableRecord
100
AcDbRegAppTableRecord
  2
ACAD
 70
     0
  0
APPID
  5
9E
330
9
100
AcDbSymbolTableRecord
100
AcDbRegAppTableRecord
  2
ACAD_PSEXT
 70
     0
  0
ENDTAB
  0
TABLE
  2
DIMSTYLE
  5
A
330
0
100
AcDbSymbolTable
 70
     2
100
AcDbDimStyleTable
 71
     1
340
27
  0
DIMSTYLE
105
27
330
A
100
AcDbSymbolTableRecord
100
AcDbDimStyleTableRecord
  2
ISO-25
 70
     0
 41
2.5
 42
0.625
 43
3.75
 44
1.25
 73
     0
 74
     0
 77
     1
 78
     8
140
2.5
141
2.5
143
0.03937007874016
147
0.625
171
     3
172
     1
271
     2
272
     2
274
     3
278
    44
283
     0
284
     8
340
11
  0
DIMSTYLE
105
10F
330
A
100
AcDbSymbolTableRecord
100
AcDbDimStyleTableRecord
  2
Standard
 70
     0
140
15.0
271
     1
272
     1
340
11
  0
ENDTAB
  0
TABLE
  2
BLOCK_RECORD
  5
1
330
0
100
AcDbSymbolTable
 70
     2
  0
BLOCK_RECORD
  5
1F
330
1
100
AcDbSymbolTableRecord
100
AcDbBlockTableRecord
  2
*Model_Space
340
22
 70
     0
280
     1
281
     0
  0
BLOCK_RECORD
  5
D2
330
1
100
AcDbSymbolTableRecord
100
AcDbBlockTableRecord
  2
*Paper_Space
340
D3
 70
     0
280
     1
281
     0
  0
BLOCK_RECORD
  5
D6
330
1
100
AcDbSymbolTableRecord
100
AcDbBlockTableRecord
  2
*Paper_Space0
340
D7
 70
     0
280
     1
281
     0
  0
ENDTAB
  0
ENDSEC
  0
SECTION
  2
BLOCKS
  0
BLOCK
  5
20
330
1F
100
AcDbEntity
  8
0
100
AcDbBlockBegin
  2
*Model_Space
 70
     0
 10
0.0
 20
0.0
 30
0.0
  3
*Model_Space
  1

  0
ENDBLK
  5
21
330
1F
100
AcDbEntity
  8
0
100
AcDbBlockEnd
  0
BLOCK
  5
D4
330
D2
100
AcDbEntity
 67
     1
  8
0
100
AcDbBlockBegin
  2
*Paper_Space
 70
     0
 10
0.0
 20
0.0
 30
0.0
  3
*Paper_Space
  1

  0
ENDBLK
  5
D5
330
D2
100
AcDbEntity
 67
     1
  8
0
100
AcDbBlockEnd
  0
BLOCK
  5
D8
330
D6
100
AcDbEntity
 67
     1
  8
0
100
AcDbBlockBegin
  2
*Paper_Space0
 70
     0
 10
0.0
 20
0.0
 30
0.0
  3
*Paper_Space0
  1

  0
ENDBLK
  5
D9
330
D6
100
AcDbEntity
 67
     1
  8
0
100
AcDbBlockEnd
  0
ENDSEC
  0
SECTION
  2
ENTITIES
  0
LWPOLYLINE
  5
149
330
1F
100
AcDbEntity
  8
0
 62
     0
100
AcDbPolyline
 90
       10
 70
     0
 43
0.0
 10
4764.528624178975
 20
479.8406351153407
 10
4764.528624178975
 20
2923.050378452843
 10
4302.1267850483
 20
2045.564238262674
 42
-0.1057804892573805
 10
4234.309038121153
 20
1734.304726137843
 42
-0.032633077582723
 10
4286.557299499009
 20
1674.718680494205
 42
-0.0313402378447724
 10
4302.908530523436
 20
1577.499288153183
 42
0.0799451552565405
 10
4325.829954230709
 20
1352.362764879681
 42
-0.0322376122902242
 10
4427.252376827254
 20
760.9003192646105
 42
0.0031046739604898
 10
4502.358879043621
 20
480.6936570378584
 10
4764.528624178975
 20
479.8406351153407
  0
LWPOLYLINE
  5
14A
330
1F
100
AcDbEntity
  8
0
 62
     0
100
AcDbPolyline
 90
        8
 70
     0
 43
0.0
 10
4759.052492894191
 20
3019.162589728307
 42
0.0041523979835712
 10
4626.059539399709
 20
2803.149299906152
 42
0.0062016126736934
 10
4389.627677333791
 20
2365.583923380562
 42
-0.129378558384455
 10
4409.656372094136
 20
2603.752421873058
 42
0.0212032409813984
 10
4522.620597673713
 20
3155.786365956157
 42
-0.0045358616010564
 10
4596.579561856301
 20
3403.89154737815
 42
-0.0792778801728256
 10
4757.241667299548
 20
3564.553652821413
 10
4757.241667299548
 20
3015.366309406442
  0
LWPOLYLINE
  5
14B
330
1F
100
AcDbEntity
  8
0
 62
     0
100
AcDbPolyline
 90
        5
 70
     0
 43
0.0
 10
4760.787539499363
 20
4444.221499051533
 10
4760.787539499363
 20
3682.354607632792
 42
-0.6065859147409021
 10
4647.459806868998
 20
3651.295278821165
 42
-0.118412830527966
 10
4673.04995394721
 20
3925.348125371436
 42
-0.0390746685564601
 10
4760.787539499363
 20
4444.221499051533
 42
3.535676720998137
  0
LWPOLYLINE
  5
14C
330
1F
100
AcDbEntity
  8
0
 62
     0
100
AcDbPolyline
 90
        9
 70
     0
 43
0.0
 10
4099.054583116335
 20
6166.267854810372
 10
4757.518495792424
 20
6166.267854810372
 10
4757.518495792424
 20
5746.739932620101
 42
-0.0482918635376997
 10
4530.71738006316
 20
5407.912339204518
 42
0.0516006669211226
 10
4288.965665564773
 20
5050.862202244609
 42
-0.0284042360674322
 10
3870.484572238073
 20
4492.206234574076
 42
-0.0584101170336819
 10
3900.332996867847
 20
4907.346272399442
 42
-0.0104072578081415
 10
3989.878303911671
 20
5373.850811184282
 42
-0.0111429560748184
 10
4099.054583116335
 20
6166.267854810372
 42
-0.6081172267686422
  0
LWPOLYLINE
  5
14D
330
1F
100
AcDbEntity
  8
0
 62
     0
100
AcDbPolyline
 90
       42
 70
     0
 43
0.0
 10
4775.393223645997
 20
5644.836759628297
 10
4775.393223645997
 20
5172.689918169895
 42
-0.0431879163472579
 10
4712.507531660626
 20
4961.837348913221
 42
-0.1099624478744749
 10
4610.645853791287
 20
4582.347222226546
 42
-0.0273501096458113
 10
4523.902309501037
 20
4139.066866948126
 42
-0.0226545143706393
 10
4317.092260363762
 20
3238.163488798977
 42
1.009637628267769
 10
4317.092260363762
 20
3238.163488798977
 42
-0.0849522395939541
 10
4264.618041575089
 20
3460.304046636017
 42
-0.0072197544336476
 10
4205.97043598899
 20
3818.197176993557
 42
-0.0452848614291165
 10
4159.669670307095
 20
4034.167161430108
 42
0.060551136748481
 10
4123.015368547191
 20
4399.067644497156
 10
4077.545158787182
 20
4380.887988639253
 42
-0.0119214096914757
 10
4127.89499648534
 20
3994.530786551735
 42
-0.0116730942393986
 10
4203.087842316966
 20
3385.301656179141
 42
-0.0196164921187761
 10
4245.0000991726
 20
3145.914157601094
 42
0.0201259581183029
 10
4245.0000991726
 20
2957.882363576073
 42
-0.0044551355279325
 10
4178.989254450733
 20
2447.221429144292
 42
0.0264684661992298
 10
4109.017993117001
 20
2087.910110843546
 42
-0.2652352541616737
 10
4023.319912875438
 20
2162.768146314634
 42
-0.060629646139977
 10
3942.341854320566
 20
2397.679793115254
 42
-0.1006284807556064
 10
3921.427334917611
 20
2493.81356242509
 42
0.0904121640182392
 10
3918.788195484393
 20
2542.035547179361
 42
0.1183475857226325
 10
3918.788195484393
 20
2599.382830948699
 42
0.0570309779846469
 10
3918.788195484393
 20
2778.697809083298
 42
0.0319492743319695
 10
3989.31068522252
 20
2705.18717074763
 42
-0.1231373632758836
 10
3976.634321734035
 20
2772.884378242861
 42
0.0353865397214145
 10
3969.046166361094
 20
2812.271015196051
 42
-0.1624743132981099
 10
3978.141960927652
 20
2834.831823118402
 42
-0.1434696758823664
 10
3983.880459699215
 20
2897.277977720353
 42
-0.0003760390646382
 10
3953.775914891116
 20
2972.591118151335
 42
0.1258679476472492
 10
3941.665765687026
 20
3019.132946982733
 42
0.0702409703918948
 10
3920.758208750357
 20
3075.829360110198
 42
-0.1056609852630654
 10
3920.758208750357
 20
3075.829360110198
 42
-0.0514027279088844
 10
3977.368344826001
 20
3043.331431890925
 42
0.0197902712958388
 10
3801.270145905454
 20
3207.649143656129
 42
0.0240165902717455
 10
3667.550850754214
 20
3320.080611251666
 42
-0.0057316695216226
 10
3726.961042306578
 20
3656.957439680651
 42
0.0954453962042228
 10
3834.314614139689
 20
4270.425571009902
 42
0.0607222015619745
 10
4123.717715625144
 20
4654.780364207386
 42
-0.1021578895156675
 10
4333.436219023616
 20
4987.928378550518
 42
-0.038782900102458
 10
4625.544106053322
 20
5399.684379606966
 42
0.0351503215076358
 10
4775.393223645997
 20
5644.836759628297
 42
0.4858337064234942
  0
LWPOLYLINE
  5
14E
330
1F
100
AcDbEntity
  8
0
 62
     0
100
AcDbPolyline
 90
       10
 70
     0
 43
0.0
 10
4359.782501854951
 20
454.937707588644
 10
4111.853187620424
 20
454.937707588644
 42
-0.0600359732498752
 10
4111.853187620424
 20
748.0258085407986
 42
0.0629942453313724
 10
4124.299922338995
 20
871.9329625124137
 42
0.0195633527328953
 10
4158.702652739844
 20
1113.431348854554
 42
-0.0767233566780101
 10
4166.683703937002
 20
1188.849344413158
 42
-0.011947263296835
 10
4219.130304942622
 20
1072.090687413247
 42
-0.0263003561286752
 10
4290.648361054266
 20
819.5106936769915
 42
-0.0143373398180208
 10
4316.871661557018
 20
657.4782648133787
 42
0.047492209418297
 10
4359.782501854951
 20
454.937707588644
 42
-5.355893394913413
  0
LWPOLYLINE
  5
14F
330
1F
100
AcDbEntity
  8
0
 62
     0
100
AcDbPolyline
 90
       21
 70
     0
 43
0.0
 10
4242.299635638267
 20
1307.37924426105
 10
4275.487159647879
 20
1358.398317105604
 10
4293.893647857144
 20
1342.0731060205
 10
4303.268112952256
 20
1270.816534148085
 10
4306.227840912953
 20
1218.920191564693
 10
4296.606508178887
 20
1148.555029763329
 10
4274.481481120939
 20
1109.35158186985
 10
4258.896429716859
 20
1098.623624118569
 10
4241.298852877593
 20
1111.364107305031
 10
4227.214391423989
 20
1169.664565616613
 10
4215.017125596776
 20
1196.254945285856
 10
4196.038224468374
 20
1237.014082459684
 10
4196.038224468374
 20
1260.13406238197
 10
4189.503025171306
 20
1273.204460976063
 10
4203.576635548047
 20
1293.813270649834
 10
4194.486788046214
 20
1311.400111253846
 10
4187.240354320052
 20
1327.736392481862
 10
4187.240354320052
 20
1346.582692154532
 10
4202.072295630368
 20
1346.582692154532
 10
4220.66182023405
 20
1327.967063493657
 10
4242.299635638267
 20
1307.37924426105
  0
LWPOLYLINE
  5
150
330
1F
100
AcDbEntity
  8
0
 62
     0
100
AcDbPolyline
 90
       25
 70
     0
 43
0.0
 10
4281.392856193025
 20
1459.96667971259
 10
4272.725547116849
 20
1515.260383188972
 10
4255.543206192046
 20
1541.11003318995
 10
4255.543206192046
 20
1590.988730920688
 10
4255.543206192046
 20
1630.655956657259
 10
4233.597792635689
 20
1652.601370213657
 10
4208.094158151321
 20
1665.889494660996
 10
4165.839156773308
 20
1692.722762445812
 10
4141.891853353608
 20
1728.020947982768
 10
4141.891853353608
 20
1760.475966236478
 10
4101.615517486369
 20
1800.752302103614
 10
4066.748917030304
 20
1835.618902559718
 10
4052.698444304539
 20
1807.355399455913
 10
4066.748917030304
 20
1758.071882978718
 10
4097.6994181059
 20
1727.121381903196
 10
4115.434746601054
 20
1688.353743391402
 10
4115.434746601054
 20
1657.100766766571
 10
4097.39833547002
 20
1639.064355635504
 10
4097.39833547002
 20
1607.817250289381
 10
4105.87454912726
 20
1552.523546812994
 10
4125.653052800934
 20
1524.268829482044
 10
4170.754127516603
 20
1492.181657567142
 10
4226.15384630034
 20
1472.05226279425
 10
4245.383064711483
 20
1452.823044383119
 10
4274.916556868836
 20
1459.299343707298
  0
LWPOLYLINE
  5
151
330
1F
100
AcDbEntity
  8
0
 62
     0
100
AcDbPolyline
 90
       51
 70
     1
 43
0.0
 10
3494.812709125592
 20
484.2341632754414
 10
3494.812709125592
 20
471.9140183440304
 10
3873.755860184337
 20
471.9140183440304
 10
3873.755860184337
 20
551.0826166887782
 10
3898.604576606554
 20
710.9721044876368
 10
3905.817887293192
 20
757.3862745972364
 10
3916.910040536389
 20
828.7589230073646
 10
3925.175472236198
 20
881.9429836430863
 10
3937.392993747682
 20
960.5568332863894
 10
3953.531102239754
 20
1079.559748240592
 10
3984.541409782035
 20
1280.080929429781
 10
4012.581088415597
 20
1461.393206713736
 10
4023.843348021286
 20
1534.218076183393
 10
4030.046819258382
 20
1574.33142811497
 10
3983.049177022086
 20
1643.150417545641
 10
3879.681354419928
 20
1767.55489280967
 10
3815.310796454392
 20
1863.721390366254
 10
3717.940268201538
 20
1966.731322711523
 10
3650.539718785807
 20
2068.179785082461
 10
3595.045188633509
 20
2123.674315234775
 10
3526.749137875234
 20
2191.970365993026
 10
3409.694269288872
 20
2235.008457572507
 10
3349.934545895102
 20
2175.24873417874
 10
3381.941565111413
 20
2100.57692935598
 10
3381.941565111413
 20
2023.758927532393
 10
3460.930039902294
 20
1889.327399315865
 10
3510.030972025724
 20
1757.029723947411
 10
3618.906989483996
 20
1577.787686325375
 10
3645.861929176277
 20
1533.411905255956
 10
3601.828399279521
 20
1447.623838779744
 10
3577.860434325371
 20
1400.92839156929
 10
3497.087235983246
 20
1204.493293925037
 10
3431.065292526345
 20
1043.932276461106
 10
3377.42359952351
 20
964.3966061169249
 10
3325.964983183501
 20
839.8524070623825
 10
3277.92250435219
 20
747.7523871826234
 10
3246.98549396465
 20
672.5687092313982
 10
3246.98549396465
 20
627.5332728966986
 10
3246.98549396465
 20
603.2522757539372
 10
3209.364983754832
 20
578.9712786111813
 10
3159.634904640279
 20
475.0017335455868
 10
3426.60692069914
 20
475.0017335455868
 10
3512.958354040532
 20
561.3531668869509
 10
3591.50138735738
 20
699.9913760104409
 10
3591.50138735738
 20
699.9913760104409
 10
3612.004322421697
 20
679.4884409460919
 10
3537.317289703427
 20
566.2975420550192
 10
3552.500389621378
 20
556.2792394225307
 10
3757.088253155251
 20
698.6128101728263
 10
3772.508096321154
 20
683.192967006953
 10
3627.282013420033
 20
579.1436775447818
  0
LWPOLYLINE
  5
152
330
1F
100
AcDbEntity
  8
0
 62
     0
100
AcDbPolyline
 90
       17
 70
     1
 43
0.0
 10
3184.814772496018
 20
727.6455314232443
 10
3245.435614177392
 20
815.7804004841581
 10
3306.059337583621
 20
956.2333305570446
 10
3350.313512917858
 20
1060.807041315946
 10
3393.853122269636
 20
1191.365349182995
 42
0.6551118970558588
 10
3401.275818145735
 20
1230.869655111732
 42
0.1490670341036679
 10
3346.954019746295
 20
1201.78870061397
 42
-0.0478510909614713
 10
3327.600990527036
 20
1148.851040588977
 42
-0.1789381472238583
 10
3326.752825624793
 20
1101.817215559163
 42
-0.210765054491738
 10
3309.169026384147
 20
1050.868851190755
 42
0.0288798852144832
 10
3276.608324652788
 20
974.1802989517436
 42
-0.1628827934819037
 10
3243.837374042388
 20
886.4552711654487
 42
0.0171758922096466
 10
3233.391362584679
 20
846.9922206606261
 42
-0.0380930904876407
 10
3221.959682297678
 20
834.757904557502
 42
-0.0412030099498285
 10
3212.67610752561
 20
800.2759570793132
 42
0.4184758205514651
 10
3200.654459596629
 20
782.2488960378123
 42
-0.1254331777316918
 10
3191.39499222716
 20
746.2868396671238
 42
0.3385493488774641
  0
LWPOLYLINE
  5
153
330
1F
100
AcDbEntity
  8
0
 62
     0
100
AcDbPolyline
 90
        7
 70
     0
 43
0.0
 10
4040.576050469494
 20
2102.352791932397
 42
-0.3052778205310955
 10
4068.321233506215
 20
2073.075256168207
 42
0.2987324757961911
 10
4097.740959767502
 20
2056.547611536944
 42
0.0121611050967193
 10
4091.126823609886
 20
1986.187105199531
 42
0.1324748250833983
 10
4075.06725116396
 20
1970.127532753644
 42
-0.09725518030381
 10
4052.859373821603
 20
2034.655017361021
 42
-0.2346913781103307
 10
4040.576050469494
 20
2102.352791932397
 42
-0.2642047551076256
  0
LWPOLYLINE
  5
154
330
1F
100
AcDbEntity
  8
0
 62
     0
100
AcDbPolyline
 90
       23
 70
     0
 43
0.0
 10
3964.859436606133
 20
1882.637838408978
 10
3967.367216561473
 20
1887.6481092628
 42
0.0254886393286363
 10
3933.96727605224
 20
1978.876109870418
 42
0.1288614529758338
 10
3883.078083584685
 20
2071.381237031495
 42
0.0701501328849173
 10
3841.064029140183
 20
2121.825087329233
 42
-0.0314465676429071
 10
3780.347314882459
 20
2226.074488242357
 42
-0.1429330949401026
 10
3780.347314882459
 20
2295.875084082087
 42
-0.1153231930560131
 10
3824.56937445667
 20
2378.881196113189
 42
0.3003619013749796
 10
3833.790660078306
 20
2432.976722511823
 42
0.1352334297541168
 10
3802.218710502336
 20
2479.166353145585
 42
-0.4567851162471462
 10
3796.258674250933
 20
2527.914924999777
 42
0.0348160299835572
 10
3845.870724494121
 20
2616.041158597607
 42
0.0480783442706971
 10
3847.217867076647
 20
2737.316712518963
 42
0.3404497905372758
 10
3822.681953165755
 20
2818.436317108644
 42
0.263032145875033
 10
3781.466293054418
 20
2785.976553475677
 42
0.1177123975138191
 10
3639.494382641295
 20
2650.648654880552
 42
0.1757989633215008
 10
3545.292511314113
 20
2537.347426308299
 42
0.150457670053285
 10
3558.449051444087
 20
2354.356671171865
 42
0.0007877026622754
 10
3658.480072091584
 20
2190.230918652474
 42
0.0861620684107072
 10
3725.618463248381
 20
2089.66608413987
 42
-0.134447099113
 10
3777.963565694186
 20
2009.112206283082
 42
0.0522624104926222
 10
3857.485721110267
 20
1922.244671850229
 42
0.1763433371382459
 10
3964.859436606133
 20
1882.637838408978
 42
0.0558273804408053
  0
LWPOLYLINE
  5
155
330
1F
100
AcDbEntity
  8
0
 62
     0
100
AcDbPolyline
 90
       24
 70
     0
 43
0.0
 10
3476.064416153723
 20
1295.104868852441
 10
3435.14237929277
 20
1349.171305040032
 42
-0.1337545691185504
 10
3421.997979966126
 20
1428.438824629253
 42
0.4142135623730966
 10
3421.997979966126
 20
1471.682283946906
 42
0.2149258741736993
 10
3384.12943583327
 20
1550.961928288701
 42
-0.0144670293760766
 10
3336.670121481311
 20
1627.845918053534
 42
0.093824079435031
 10
3284.176141503168
 20
1727.53934338317
 42
-0.0206055041278729
 10
3225.496561442519
 20
1880.69321448278
 42
-0.0889088657060749
 10
3166.022606423549
 20
1940.167169501777
 42
-0.2117311959933009
 10
3109.324013336346
 20
2019.330405765088
 42
-0.2888022185118302
 10
3126.628279582615
 20
2069.88328755594
 42
-0.0109201087552851
 10
3208.429988742358
 20
2089.703202878738
 42
-0.2651666347240447
 10
3249.826006832783
 20
2121.243244340436
 42
0.006099206136327
 10
3284.983886017074
 20
2005.018124003558
 42
0.0976978615480588
 10
3346.956165978236
 20
1915.609073807161
 42
-0.0525075987964387
 10
3429.195594840584
 20
1792.404506935549
 42
-0.0650761480238688
 10
3487.930452541233
 20
1677.088643670809
 42
0.2972968130938909
 10
3518.415318207484
 20
1634.737741617047
 42
-0.2664920706151154
 10
3518.415318207484
 20
1581.592695728867
 42
0.2351085241725911
 10
3512.738035870617
 20
1544.381235314138
 42
-0.2750377363324965
 10
3525.630492996151
 20
1505.010333492157
 42
0.1466372035185412
 10
3495.893515486637
 20
1417.627972511891
 42
-0.1101669004656157
 10
3476.064416153723
 20
1341.951939892747
 42
-0.033752510574859
 10
3476.064416153723
 20
1295.104868852441
 42
0.1560916541231601
  0
LWPOLYLINE
  5
156
330
1F
100
AcDbEntity
  8
0
 62
     0
100
AcDbPolyline
 90
       44
 70
     0
 43
0.0
 10
2491.58833127977
 20
475.0737243261246
 10
3009.507288921875
 20
475.0737243261246
 10
3044.58844584758
 20
475.0737243261246
 42
0.0042973640412676
 10
3090.312621376727
 20
633.0729879171685
 42
0.0633522616294711
 10
3166.519598309201
 20
772.5256428363281
 42
-0.0141141075140818
 10
3188.795477332332
 20
862.7597176544714
 42
-0.0002000634634804
 10
3234.519652861537
 20
963.5406407510581
 42
0.0003230467666646
 10
3258.224340601143
 20
1018.359481556139
 42
-0.1873161420870142
 10
3256.757538756839
 20
1056.722980801835
 42
0.2879266119207178
 10
3269.485045652796
 20
1090.655184056628
 42
0.3842035079080854
 10
3281.808345056273
 20
1124.323232950452
 42
0.2925882823020855
 10
3294.953181807726
 20
1159.633644709171
 42
-0.0876054795403499
 10
3314.670450222813
 20
1220.400375784318
 42
-0.1015119998801363
 10
3314.670450222813
 20
1297.59802374982
 42
0.1638985025858629
 10
3351.088316155673
 20
1460.354763299643
 42
0.2247756638088437
 10
3277.245629339264
 20
1612.084748809502
 42
0.0111631248868716
 10
3055.38810087684
 20
1847.532584712295
 42
0.0962111974936821
 10
2885.700656494085
 20
1978.968677418308
 42
0.3479518839707608
 10
2821.39721438663
 20
1995.621038206678
 42
-0.2907621495627863
 10
2779.752274836547
 20
2013.884732356139
 42
0.2625344369231374
 10
2737.641544202127
 20
2017.560662318561
 42
0.1572068523391846
 10
2648.207531604468
 20
2028.257224638428
 42
0.0211427790087487
 10
2615.680254796421
 20
1921.837524632345
 42
0.0878241608572113
 10
2611.298252767668
 20
1853.728924086186
 42
0.0765684848282368
 10
2596.811391851475
 20
1770.012096578622
 42
-0.1094891881290174
 10
2577.228145137447
 20
1694.808850495352
 42
0.1116013469821615
 10
2548.836379920266
 20
1613.929877812754
 42
-0.3168145962724659
 10
2524.001166582358
 20
1589.094664474884
 42
-0.1165990899655093
 10
2524.001166582358
 20
1535.888776904514
 42
-0.0713545818573356
 10
2524.001166582358
 20
1413.860866886423
 42
0.1119301285757634
 10
2524.001166582358
 20
1342.914411515301
 42
-0.0327276640501954
 10
2524.001166582358
 20
1246.427211871289
 42
0.1186963183712448
 10
2484.954934757395
 20
1169.805029900839
 42
-0.1507483150458234
 10
2484.954934757395
 20
1130.075011503133
 42
-0.1214154490417647
 10
2484.954934757395
 20
1004.896648894208
 42
0.0195569954524991
 10
2465.11677308068
 20
914.9409171065453
 42
0.0034461723146242
 10
2465.11677308068
 20
863.7353420106537
 42
0.204438969614682
 10
2491.416019734653
 20
837.4360953566956
 42
0.5391872201466088
 10
2508.038638021814
 20
798.6904131324154
 42
0.3862260707554087
 10
2493.504446930212
 20
784.1562220407795
 42
0.5496924166859564
 10
2468.432076112966
 20
784.1562220407795
 42
0.1782592987781594
 10
2474.808803670475
 20
743.3330319018186
 42
-0.1032311982108261
 10
2474.808803670475
 20
678.1406602016341
 42
-0.0277093909887257
 10
2491.58833127977
 20
475.0737243261246
 42
0.7137432491650414
  0
LWPOLYLINE
  5
157
330
1F
100
AcDbEntity
  8
0
 62
     0
100
AcDbPolyline
 90
       10
 70
     0
 43
0.0
 10
2759.571486187185
 20
2240.006744395716
 42
0.304504945101607
 10
2920.594533838698
 20
2149.875654125937
 42
0.3263679158128675
 10
3149.659864970442
 20
2204.598093920367
 42
-0.0513949755523419
 10
3268.404341215751
 20
2288.291260066923
 42
0.13199705108398
 10
3126.704044400034
 20
2333.356796727114
 42
0.1273419604780198
 10
3310.270323506458
 20
2446.020655326989
 42
0.2405626809702375
 10
3352.136332372861
 20
2555.465551865251
 42
-0.0241039392330822
 10
3100.940358901763
 20
2442.801693265375
 42
-0.1163287410062526
 10
2833.642088638403
 20
2384.86027445993
 42
0.127018650808149
 10
2759.571486187185
 20
2240.006744395716
 42
-1.21826730637808
  0
LWPOLYLINE
  5
158
330
1F
100
AcDbEntity
  8
0
 62
     0
100
AcDbPolyline
 90
       12
 70
     0
 43
0.0
 10
2856.429604740598
 20
2733.953655760257
 42
-0.0612554367237796
 10
2823.573984066275
 20
2618.148124358235
 42
0.3316630031836824
 10
2840.820646151918
 20
2510.947061577815
 42
0.3313703780928331
 10
2977.476607296517
 20
2450.489381324307
 42
0.0698632444215669
 10
3172.881018212664
 20
2512.713235282592
 42
4.317431706720718
 10
3172.881018212664
 20
2512.713235282592
 42
0.1709980250720238
 10
3317.941724268504
 20
2657.773941338521
 42
0.0334915367350981
 10
3250.696946528874
 20
2787.535316254596
 42
0.0527523994888194
 10
3100.286112708639
 20
2913.859627730309
 42
0.2845794461162181
 10
2928.320397050777
 20
2961.114384055627
 42
0.0030859137366248
 10
2856.429604740598
 20
2853.216050988342
 42
-0.0174774433149175
 10
2856.429604740598
 20
2733.953655760257
 42
-0.1790839311939461
  0
LWPOLYLINE
  5
159
330
1F
100
AcDbEntity
  8
0
 62
     0
100
AcDbPolyline
 90
       17
 70
     0
 43
0.0
 10
3468.153441753605
 20
2540.37777314972
 42
0.1334249450147144
 10
3559.717424067454
 20
2651.434710078042
 42
-0.0920386850261298
 10
3643.897197789647
 20
2754.320463737804
 42
-0.0235106768903133
 10
3734.039563929563
 20
2844.462829877761
 42
0.1174830712104149
 10
3806.943187351647
 20
2879.010392169154
 42
0.3323843457902332
 10
3883.424668080191
 20
2955.491872897648
 42
-0.0873972653353204
 10
3854.300896868942
 20
3019.197023862869
 42
-0.1227178839919583
 10
3779.216753386735
 20
3071.595805096804
 42
0.0480796872532711
 10
3724.074377096974
 20
3102.047241387363
 42
0.715855687546129
 10
3690.388949202042
 20
3135.732669282277
 42
0.2472242205400128
 10
3596.85554520415
 20
3112.671293808871
 42
0.1001691363833294
 10
3502.760991553561
 20
3048.326701678867
 42
0.1305308269244869
 10
3464.497285102046
 20
2967.882817208856
 42
0.0924573115690319
 10
3464.497285102046
 20
2908.140086934549
 42
-0.0924573115690322
 10
3464.497285102046
 20
2838.957080934802
 42
-0.0329414538574495
 10
3451.406799059029
 20
2738.477527544987
 42
0.1141358731263409
 10
3464.497285102046
 20
2538.486635626912
 42
-1.89808212207872
  0
LWPOLYLINE
  5
15A
330
1F
100
AcDbEntity
  8
0
 62
     0
100
AcDbPolyline
 90
       13
 70
     0
 43
0.0
 10
3341.825006185001
 20
2727.767853947244
 42
0.0581911582504636
 10
3341.825006185001
 20
2867.00903121501
 42
-0.1151803111389537
 10
3377.075341309555
 20
2948.447734450896
 42
-0.0521010049081581
 10
3309.171016017516
 20
3051.644529584884
 42
-0.291423681928326
 10
3272.838413563051
 20
3087.562780690747
 42
0.1813613537900405
 10
2885.804993039597
 20
3118.317566883437
 42
-0.0582411151819212
 10
3030.103392084962
 20
3040.759150960092
 42
-0.0918765511245887
 10
3125.054726131918
 20
2992.79991396492
 42
0.1226037276235428
 10
3243.82835427883
 20
2896.527680788791
 42
0.0708460277697451
 10
3303.72579642061
 20
2802.641163029466
 42
0.0180208649681997
 10
3311.655189635599
 20
2765.657926237173
 42
0.2134928012932823
 10
3317.338845412847
 20
2727.804074812919
 42
0.4442693684733309
 10
3340.923915829061
 20
2723.098891168233
 42
-0.0628960116953166
  0
LWPOLYLINE
  5
15B
330
1F
100
AcDbEntity
  8
0
 62
     0
100
AcDbPolyline
 90
       13
 70
     1
 43
0.0
 10
3162.188834400633
 20
3195.480222677299
 10
3162.188834400633
 20
3189.164919118574
 10
3162.188834400633
 20
3169.218222291207
 42
0.1468453447332561
 10
3199.606268888182
 20
3156.149506833461
 42
-0.2335106184825811
 10
3233.697690300778
 20
3155.089304976244
 42
0.214914683015998
 10
3276.104117825179
 20
3145.947070342818
 42
-0.0731592273898379
 10
3313.93939656149
 20
3129.743045424344
 42
-0.0978813952196044
 10
3340.643860956671
 20
3120.693081869417
 42
-0.1161746250450294
 10
3402.838540468615
 20
3088.945062926734
 42
0.4743829129774823
 10
3395.839870979386
 20
3123.507032174682
 42
-0.0486246683009346
 10
3379.780276483175
 20
3141.490182155151
 42
-0.2700575127529619
 10
3368.400422565307
 20
3156.751532536755
 42
0.1797303035568201
 10
3329.74423433033
 20
3195.407720771726
 42
0.0145293821426067
  0
LWPOLYLINE
  5
15C
330
1F
100
AcDbEntity
  8
0
 62
     0
100
AcDbPolyline
 90
       15
 70
     0
 43
0.0
 10
3459.917897249299
 20
3113.605057680216
 42
0.0141733039654636
 10
3525.968910053157
 20
3158.296690598336
 42
-0.0768603674475091
 10
3599.060938822356
 20
3195.405586136167
 42
-0.1126178589240471
 10
3717.860454548284
 20
3206.375620683086
 42
0.1969453059920581
 10
3633.224050433741
 20
3291.012024797598
 42
0.0722463901454122
 10
3527.129076097585
 20
3373.9921660394
 42
-0.0095490761779686
 10
3404.148817811412
 20
3400.664197948934
 42
-0.1491878142095353
 10
3278.848174284812
 20
3437.773093486768
 42
0.048940348753467
 10
3116.421393487795
 20
3421.537942154928
 42
0.518052806811572
 10
3092.642585385259
 20
3397.759134052367
 42
0.1400041465730362
 10
3169.790200865321
 20
3390.192136975906
 42
0.127776442227583
 10
3266.086055462674
 20
3340.362236343932
 42
0.008103614810821
 10
3351.695600855415
 20
3274.013629110641
 42
0.0541178397333514
 10
3403.195991980046
 20
3206.043900170058
 42
-0.219198658208775
 10
3459.917897249299
 20
3113.605057680216
 42
0.0950432971311348
  0
LWPOLYLINE
  5
15D
330
1F
100
AcDbEntity
  8
0
 62
     0
100
AcDbPolyline
 90
       12
 70
     0
 43
0.0
 10
3273.823532853525
 20
3241.122661647298
 42
-0.0637848070378358
 10
3140.811589087843
 20
3225.839757497261
 42
-0.0583657383704191
 10
3040.690628108411
 20
3211.543397069516
 42
-0.1211868803774718
 10
2933.418149035325
 20
3250.858392483164
 42
-0.0290717537884143
 10
2906.460326540243
 20
3295.390113395408
 42
0.3430878569605564
 10
2851.880972563888
 20
3314.691913915647
 42
-0.2631691186844667
 10
2841.689839288493
 20
3318.722954528528
 42
0.1873870809225815
 10
2795.839384945709
 20
3330.679739617192
 42
-0.488674725840116
 10
2810.583386900037
 20
3355.642584015656
 42
-0.1233521112244741
 10
2940.862160256732
 20
3376.029890585491
 42
-0.0401537939317052
 10
3185.704473954527
 20
3287.551027730812
 42
-0.0497439139050819
 10
3273.823532853525
 20
3241.122661647298
 42
0.6740932423041776
  0
LWPOLYLINE
  5
15E
330
1F
100
AcDbEntity
  8
0
 62
     0
100
AcDbPolyline
 90
       13
 70
     1
 43
0.0
 10
2408.159838825249
 20
483.7060362904576
 10
2459.724194415397
 20
483.7060362904576
 42
0.1531945146971219
 10
2444.059703744267
 20
551.4873016815563
 42
0.1261890982964462
 10
2444.968944186129
 20
622.2298493204362
 42
-0.035489309350764
 10
2444.675185519521
 20
718.4628517551664
 42
-0.1216866258311325
 10
2432.041971622518
 20
785.0749543038855
 42
0.3935453731238629
 10
2422.0064341227
 20
804.1674817891234
 42
-0.0792762936274977
 10
2420.901416964497
 20
925.9426456884375
 42
-0.0085803876579053
 10
2420.953989608114
 20
1146.65585767901
 42
2.185287630365641
 10
2417.923005855427
 20
1146.433204941375
 42
-0.0530570835921043
 10
2391.028886277595
 20
987.989323770671
 42
-0.0994263529123645
 10
2383.265278924041
 20
868.7977650600569
 42
-0.1016621810150683
 10
2400.854508716049
 20
704.8402062426649
 42
0.0659379993465719
  0
LWPOLYLINE
  5
15F
330
1F
100
AcDbEntity
  8
0
 62
     0
100
AcDbPolyline
 90
       15
 70
     0
 43
0.0
 10
2372.062261096336
 20
1241.247899270047
 42
0.4995564670700389
 10
2372.062261096336
 20
1206.649548712976
 42
-0.0032944237804875
 10
2419.13786861925
 20
1206.649548712976
 42
0.0758265406294307
 10
2458.587715874327
 20
1246.099395968014
 42
-0.0758265406294546
 10
2487.657074755832
 20
1275.168754849541
 42
0.1592704727027988
 10
2494.263493218593
 20
1324.597229544391
 42
0.701900867266541
 10
2467.596106600325
 20
1326.734654715659
 42
-0.3676242811952029
 10
2452.370921139972
 20
1333.975373556708
 42
-0.0378589292802455
 10
2478.66600797688
 20
1360.270460393551
 42
0.3844679606156496
 10
2453.752301548392
 20
1421.159396744178
 42
0.2427154858214072
 10
2387.292606269958
 20
1381.025287724784
 42
0.0131048190138314
 10
2362.740484391065
 20
1349.188066561471
 42
0.0615362086497932
 10
2385.908034267969
 20
1293.837409744175
 42
-0.4888103180139942
 10
2385.908034267969
 20
1266.158719128874
 42
0.2222682024046161
 10
2372.062261096336
 20
1241.247899270047
 42
-0.1538430686635617
  0
LWPOLYLINE
  5
160
330
1F
100
AcDbEntity
  8
0
 62
     0
100
AcDbPolyline
 90
       21
 70
     0
 43
0.0
 10
2407.813869720342
 20
1677.524660604209
 42
0.3080345513702869
 10
2487.445999945997
 20
1757.156790829918
 42
-0.0397353269592349
 10
2531.85753389764
 20
1978.961151885151
 42
-0.1032280230962164
 10
2662.17150531059
 20
2207.024368846976
 42
-0.0450359103419661
 10
2707.351940686366
 20
2332.49703551812
 42
0.1662024677172878
 10
2692.325041267689
 20
2398.713204710881
 42
-0.0495542671403724
 10
2616.454832726351
 20
2260.494296545361
 42
-0.4053160032650197
 10
2587.59586514837
 20
2307.413911013413
 42
-0.2632785575868526
 10
2638.10620219041
 20
2406.914849395871
 42
0.1206799417348802
 10
2674.286781312682
 20
2455.718017224777
 42
-0.0267621247796467
 10
2659.773954025255
 20
2529.543421500188
 42
-0.0032863195863619
 10
2590.097231508075
 20
2818.510715824745
 42
-0.0988668779677585
 10
2530.527043625148
 20
3023.07401244209
 42
0.3484235927820826
 10
2470.491580181249
 20
3124.834605673741
 42
0.0237148507745615
 10
2306.638835536566
 20
2871.674545895132
 42
0.0580120630394729
 10
2290.339054060244
 20
2675.421448703062
 42
0.1602481724498692
 10
2405.823478337511
 20
2449.369314189795
 42
-0.047024267022875
 10
2453.941999526304
 20
2295.461482974202
 42
-0.1999912585462084
 10
2453.941999526304
 20
2104.557656167553
 42
0.1403549781206528
 10
2423.645885300898
 20
1945.985832295162
 42
0.0925624111462801
 10
2407.813869720342
 20
1677.524660604209
 42
0.228383676034709
  0
LWPOLYLINE
  5
161
330
1F
100
AcDbEntity
  8
0
 62
     0
100
AcDbPolyline
 90
       14
 70
     0
 43
0.0
 10
2702.145273460907
 20
2528.396226043016
 42
0.2099665768665118
 10
2739.973622789507
 20
2620.007897164165
 42
-0.0961137401777731
 10
2765.692182598828
 20
2685.968313930907
 42
0.164046075286586
 10
2766.230103132682
 20
2732.384904135261
 42
0.0678415710978217
 10
2753.471625193505
 20
2775.137017325133
 42
0.103377455040136
 10
2753.471625193505
 20
2813.003178111751
 42
0.1674058382191433
 10
2704.589395572274
 20
2908.279326247384
 42
0.2695367244212336
 10
2620.896699945402
 20
2991.972021874273
 42
0.1688289936366922
 10
2615.159688252449
 20
2881.406562605422
 42
0.0850987395808231
 10
2645.930704081332
 20
2770.251064921884
 42
-0.0632552951942868
 10
2645.930704081332
 20
2704.290648155136
 42
-0.0941044659122523
 10
2669.149757836323
 20
2635.887263661467
 42
-0.2377442967689077
 10
2669.149757836323
 20
2568.705354556561
 42
0.3070944065015406
 10
2702.145273460907
 20
2528.396226043016
 42
115.8419065774197
  0
LWPOLYLINE
  5
162
330
1F
100
AcDbEntity
  8
0
 62
     0
100
AcDbPolyline
 90
        7
 70
     0
 43
0.0
 10
2757.185299294552
 20
2961.404801579456
 42
0.1563479272444493
 10
2730.505812126695
 20
3110.893408080249
 42
0.196422191827331
 10
2667.120297751989
 20
3252.853150302775
 42
0.4262811183416355
 10
2599.584388356033
 20
3291.271692003002
 42
0.3818856616036892
 10
2579.577019623032
 20
3190.529362687949
 42
0.2582926778640071
 10
2639.407969142095
 20
3093.581258036773
 42
-0.012178970741724
 10
2757.185299294552
 20
2961.404801579456
 42
-0.1173461688473191
  0
LWPOLYLINE
  5
163
330
1F
100
AcDbEntity
  8
0
 62
     0
100
AcDbPolyline
 90
        8
 70
     1
 43
0.0
 10
2553.297418343852
 20
3515.880873330693
 42
0.3797989135060767
 10
2551.277233209711
 20
3465.249184289231
 42
0.2150046620350727
 10
2567.63471072262
 20
3410.355101577581
 42
0.1054528381454206
 10
2601.731413633231
 20
3358.452121555774
 42
-0.1082233274749146
 10
2640.833972798329
 20
3314.901052549982
 42
0.2218154708989862
 10
2722.754691094061
 20
3343.687945720485
 42
0.0829444339633092
 10
2661.008546852757
 20
3405.434089961796
 42
-0.062655654781303
 10
2562.154437660781
 20
3512.271486246858
  0
LWPOLYLINE
  5
164
330
1F
100
AcDbEntity
  8
0
 62
     0
100
AcDbPolyline
 90
       53
 70
     0
 43
0.0
 10
2362.318354567414
 20
483.7060362904558
 10
2095.438759275031
 20
483.7060362904558
 42
-0.1675643389925622
 10
2127.308135806018
 20
515.5754128213756
 42
0.1695222942322678
 10
2171.035389457614
 20
559.3026664729495
 42
-0.1608406289391235
 10
2131.572769211506
 20
546.9522271485857
 42
0.1591695475853651
 10
2147.897877414262
 20
583.6666762727563
 42
0.0676864295909389
 10
2181.058242654561
 20
655.5658065138032
 42
-0.0965409825790127
 10
2213.243807974871
 20
733.2734788447942
 42
0.110649614274321
 10
2224.931972610316
 20
767.2389049441899
 42
0.1497210135184279
 10
2169.79070063915
 20
678.0445433650457
 42
-0.0494259167322849
 10
2137.707630518492
 20
622.0529124184722
 42
-0.1693192737461243
 10
2118.403323279886
 20
586.3207826630969
 42
-0.0417122572194234
 10
2095.438759275031
 20
547.4447893522901
 42
-0.0825023136872804
 10
2089.089378203865
 20
585.9634554332514
 42
0.1026348306669025
 10
2103.551428860769
 20
642.6806630123628
 42
0.0101100150941725
 10
2111.295362903405
 20
777.4440702880728
 42
0.1273600334848999
 10
2113.84969480937
 20
847.0869134828554
 42
0.0022443390172826
 10
2125.126456030895
 20
893.3029028520923
 42
-0.0157104827708671
 10
2136.630465748504
 20
918.5520374129556
 42
0.5411883742672455
 10
2143.839001152158
 20
925.7605728166399
 42
0.0399690306845831
 10
2136.172267492878
 20
1032.304572860383
 42
-0.0544060763161033
 10
2156.378289454168
 20
1074.212267619123
 42
0.1587366218737723
 10
2159.376084851118
 20
1105.755747317622
 42
-0.0778071858805091
 10
2180.628671610222
 20
1193.308286919215
 42
-0.0006632844686765
 10
2208.468431125645
 20
1340.173676746639
 42
0.1545970020181244
 10
2209.515703220753
 20
1388.338557466149
 42
-0.0245724526863233
 10
2212.097594219394
 20
1443.636689691326
 42
-0.6005987939516055
 10
2212.097594219394
 20
1470.090125201881
 42
0.3904916651968054
 10
2231.093436281563
 20
1480.123761910736
 42
0.3320698378468289
 10
2219.069369054126
 20
1496.548725618051
 42
-0.3450234752021368
 10
2238.563305745035
 20
1536.919842744846
 42
-0.0151596659238118
 10
2231.772331873787
 20
1617.501957419963
 42
0.0727806215762079
 10
2220.49166330173
 20
1713.740142727065
 42
-0.1806608760358577
 10
2238.563305745035
 20
1742.978144152112
 42
-0.0733889696895327
 10
2262.565175924293
 20
1834.948667949013
 42
-0.0027012935116078
 10
2286.776569619676
 20
1905.349166228756
 42
0.3469330024869863
 10
2286.776569619676
 20
1997.6412540236
 42
-0.3469330024870057
 10
2286.776569619676
 20
2053.452455412575
 42
-0.5496748790242315
 10
2333.980119702773
 20
2020.573933840307
 42
0.0196946998031204
 10
2355.867826045392
 20
1867.415140048513
 42
-0.0367542216519012
 10
2373.803081542387
 20
1611.387586607654
 42
-0.0331996465382959
 10
2375.35951916817
 20
1479.71521431419
 42
0.0720499050819976
 10
2350.325817426917
 20
1434.471488622246
 42
0.1642478347501259
 10
2324.009116347081
 20
1206.837026015382
 42
0.009959756763903
 10
2331.533071929607
 20
1066.692808780228
 42
-0.0243454095976373
 10
2335.088834129815
 20
999.5789331939395
 42
-0.0829784744883975
 10
2340.892794471251
 20
914.3097384369612
 42
0.1355079913899333
 10
2349.345383439812
 20
835.8283599401456
 42
0.0658008157571928
 10
2350.076350500824
 20
691.9458270461855
 42
0.1371524115085987
 10
2350.209016836732
 20
614.3388622145448
 42
-0.1061626607367737
 10
2354.57063523577
 20
585.4555876259382
 42
0.1383172575899752
 10
2358.812719736615
 20
522.1334757298008
 42
0.264452174607192
 10
2362.318354567414
 20
483.7060362904558
 42
-1.472930089408717
  0
LWPOLYLINE
  5
165
330
1F
100
AcDbEntity
  8
0
 62
     0
100
AcDbPolyline
 90
       11
 70
     0
 43
0.0
 10
1947.224019165983
 20
485.006784018371
 10
2022.386647340044
 20
485.006784018371
 42
0.0500909297249545
 10
2038.412459013419
 20
551.4659707496685
 42
0.0689043179222599
 10
2048.415452903736
 20
636.7071085580301
 42
-0.0305446810078272
 10
2059.967974715068
 20
749.398764172276
 42
0.0124297357720073
 10
2055.018632754585
 20
847.64278597265
 42
0.2749010865846462
 10
2019.495786225033
 20
892.4305050337334
 42
0.1174905165110887
 10
2008.188372910506
 20
814.4132010817029
 42
0.1347893665048322
 10
1996.368817577039
 20
701.7215285180591
 42
-0.0251904991709445
 10
1971.472826019412
 20
543.1727183332022
 42
-0.0448274688425368
 10
1947.224019165983
 20
485.006784018371
 42
0.4219979934538842
  0
LWPOLYLINE
  5
166
330
1F
100
AcDbEntity
  8
0
 62
     0
100
AcDbPolyline
 90
       19
 70
     0
 43
0.0
 10
2059.370391536114
 20
1296.056726326735
 42
0.0720024958154306
 10
2067.719255202351
 20
1272.509523341216
 42
0.1562457945539441
 10
2106.625412206881
 20
1275.536092774713
 42
-0.1372153380780765
 10
2134.587885784003
 20
1282.999031802821
 42
0.2793920380371163
 10
2166.226348276966
 20
1294.636014577139
 42
0.0939842510417979
 10
2179.694851555937
 20
1340.541241413479
 42
0.0662321146429475
 10
2183.85207556609
 20
1356.750106283531
 42
0.107966926318221
 10
2179.295709789283
 20
1383.995941090945
 42
0.0285819581570582
 10
2175.993216287129
 20
1416.264817096837
 42
-0.1413210251114939
 10
2163.742973726086
 20
1436.949982289487
 42
0.1681337330506928
 10
2149.991752635588
 20
1457.12664161983
 42
0.1616668882064589
 10
2125.664599380007
 20
1475.838090139774
 42
0.0655580912596797
 10
2093.380783369782
 20
1476.585236597355
 42
0.1132685136075789
 10
2057.755988910521
 20
1432.019168727607
 42
0.240950850607446
 10
2034.22034099304
 20
1388.125302136124
 42
-0.0035739843324591
 10
2025.915380529378
 20
1350.072278310703
 42
0.106982708850851
 10
2024.76539301193
 20
1323.595249236732
 42
0.0753028443099105
 10
2042.000668817101
 20
1308.678456058376
 42
-0.2071192781520264
 10
2059.370391536114
 20
1296.056726326735
 42
-2.080219473367276
  0
LWPOLYLINE
  5
167
330
1F
100
AcDbEntity
  8
0
 62
     0
100
AcDbPolyline
 90
       20
 70
     0
 43
0.0
 10
2174.680372338061
 20
1470.096650720499
 42
0.4210742158088764
 10
2184.35332151184
 20
1511.993395540132
 42
0.211508924521694
 10
2184.35332151184
 20
1553.245571664971
 42
0.0577287810921182
 10
2184.35332151184
 20
1659.598846976354
 42
-0.1447579003793302
 10
2180.57111355536
 20
1739.524941396236
 42
-0.0744095793193721
 10
2214.538580387732
 20
1828.725509660589
 42
-0.1030030461461548
 10
2210.828494018194
 20
1886.478552845481
 42
-0.0893922961149987
 10
2214.538580387732
 20
1930.888249460537
 42
0.1951150746527682
 10
2196.013160376885
 20
2029.062899283019
 42
0.1722857192812489
 10
2077.080980006448
 20
2198.401748972734
 42
0.0949015450692612
 10
2065.389549221745
 20
2023.114115953464
 42
-0.0699499873699104
 10
2065.548532559321
 20
1889.90458571475
 42
0.0591691619443172
 10
2066.415045261692
 20
1802.143750250159
 42
-0.0141613918651912
 10
2075.967818720051
 20
1699.120506412082
 42
-0.0321421059431197
 10
2075.468592534209
 20
1641.343971360165
 42
0.2051767900461249
 10
2077.403871147212
 20
1595.662595236496
 42
0.2457134144966397
 10
2099.026490714651
 20
1549.617942643927
 42
-0.1692268391916722
 10
2122.489111570659
 20
1518.742771932348
 42
-0.2060050995229382
 10
2137.12057135186
 20
1487.427648495666
 42
0.1902589435487667
 10
2174.680372338061
 20
1470.096650720499
 42
-1.487111222498899
  0
LWPOLYLINE
  5
168
330
1F
100
AcDbEntity
  8
0
 62
     0
100
AcDbPolyline
 90
        7
 70
     0
 43
0.0
 10
2254.953790387389
 20
2155.282478510035
 42
-0.0748011497083502
 10
2254.953790387389
 20
2330.351702182154
 42
0.0278479801107107
 10
2161.649333112658
 20
2464.516907334419
 42
0.1041896596750165
 10
2032.332636164286
 20
2646.130785495305
 42
0.0931117593961258
 10
2053.612614091386
 20
2438.33834022754
 42
0.2271967551820119
 10
2115.812908406736
 20
2318.903522500928
 42
0.0685428862787993
 10
2254.953790387389
 20
2155.282478510035
 42
5.165967866109638
  0
LWPOLYLINE
  5
169
330
1F
100
AcDbEntity
  8
0
 62
     0
100
AcDbPolyline
 90
       25
 70
     0
 43
0.0
 10
2234.335462915961
 20
2469.59433490923
 42
0.4595471967437614
 10
2261.043566154683
 20
2511.070993339847
 42
-0.1887238902142515
 10
2264.39225150437
 20
2542.765678426364
 42
0.3510213592990341
 10
2274.861409014574
 20
2578.591078319072
 42
0.0128078567122898
 10
2273.889510992932
 20
2615.244856697926
 42
0.2269008682859138
 10
2274.86633770612
 20
2644.182032232748
 42
-0.0594256615167118
 10
2259.091096629871
 20
2654.615859861984
 42
-0.0640199638326308
 10
2259.310175159556
 20
2694.339832846234
 42
0.0976194039901874
 10
2253.060804435186
 20
2740.639345134669
 42
-0.0575555551470869
 10
2259.346617676218
 20
2794.157040222717
 42
-0.2041929076640849
 10
2274.622952442866
 20
2856.388073467895
 42
-0.1492650054455108
 10
2286.446564177185
 20
2892.077286313968
 42
0.0715898324518185
 10
2286.446564177185
 20
2932.589353017869
 42
0.220312260062035
 10
2275.89019768291
 20
2967.260041189117
 42
0.0762207031827969
 10
2214.070046056312
 20
2927.766472966107
 42
0.1146594951516088
 10
2184.642288038233
 20
2898.338714948079
 42
0.0591835174634149
 10
2149.429561878339
 20
2863.125988788214
 42
0.1048814653885822
 10
2149.429561878339
 20
2791.761685086994
 42
-0.0333382329711485
 10
2164.854021948197
 20
2750.285052850321
 42
-0.0430864793721147
 10
2188.97951429828
 20
2702.056409496329
 42
-0.1077525233042216
 10
2197.597307586478
 20
2644.728621114251
 42
-0.1754096029587282
 10
2206.040468046575
 20
2603.485926928119
 42
0.3021904965674441
 10
2211.483779870806
 20
2562.702910140821
 42
0.1685629748254261
 10
2216.194184164942
 20
2505.452682005935
 42
0.4986713492951534
 10
2234.335462915961
 20
2469.59433490923
 42
-1.978487878148686
  0
LWPOLYLINE
  5
16A
330
1F
100
AcDbEntity
  8
0
 62
     0
100
AcDbPolyline
 90
       16
 70
     0
 43
0.0
 10
1998.424172529968
 20
2585.000367965859
 42
0.234745533258301
 10
2017.154282620776
 20
2625.025436994726
 42
-0.0606724978835252
 10
2017.154282620776
 20
2655.36702665092
 42
0.1068917390424523
 10
2014.418642118358
 20
2682.480789849555
 42
-0.1042590216541806
 10
2014.570809246407
 20
2711.531227967576
 42
-0.2323439755633515
 10
2039.113703626575
 20
2776.733359081753
 42
0.1595663072868114
 10
2081.094950875052
 20
2853.555670681935
 42
0.1081146169903682
 10
2079.187739871809
 20
2913.649152806067
 42
-0.0072160531591986
 10
2061.569136077672
 20
2987.995527994286
 42
0.0379236740903191
 10
2023.41831123819
 20
3113.969452509415
 42
-0.0528878329396966
 10
1998.786909392121
 20
3364.2725842411
 42
0.178142767044904
 10
1961.839786087762
 20
3267.844320415208
 42
-0.0831035281174509
 10
1937.208384241693
 20
3111.917786206999
 42
-0.2242537918635853
 10
1925.054974386486
 20
3011.386189776262
 42
-0.0504069211952898
 10
1912.576982395624
 20
2793.909692689374
 42
0.0785713927941756
 10
1998.424172529968
 20
2585.000367965859
 42
-27.37392727541972
  0
LWPOLYLINE
  5
16B
330
1F
100
AcDbEntity
  8
0
 62
     0
100
AcDbPolyline
 90
       20
 70
     0
 43
0.0
 10
2441.408967403305
 20
3250.661045414312
 42
0.1859643152947683
 10
2482.263890409277
 20
3355.060805284302
 42
0.0931276215101301
 10
2462.709818936087
 20
3526.452449395738
 42
0.1431101796857188
 10
2419.223041212378
 20
3649.955237902772
 42
0.1301251617931556
 10
2391.485047851765
 20
3579.382223382734
 42
-0.043775472895247
 10
2294.756901832431
 20
3446.401420744145
 42
0.0595197221998381
 10
2228.761012187594
 20
3308.563476384321
 42
-0.1144105915273305
 10
2196.255567261385
 20
3193.370321452958
 42
0.0052959166043405
 10
2196.255567261385
 20
3040.764025911724
 42
0.2245539504537509
 10
2196.255567261385
 20
2992.520740147002
 42
1.293182625146865
 10
2222.141064452491
 20
2992.520740147002
 42
-0.0763709741707489
 10
2357.797792100132
 20
3244.567287931543
 42
-0.0613345295747468
 10
2357.797792100132
 20
3196.077517220498
 42
0.044716694232365
 10
2321.11228947186
 20
3112.361432916445
 42
-0.0166029688733264
 10
2303.699934388296
 20
3052.965633215316
 42
0.1605437948184807
 10
2303.699934388296
 20
2992.032930459924
 42
0.1188505993963925
 10
2335.468364709424
 20
3055.540261468146
 42
-0.0424591250463644
 10
2379.257217797934
 20
3129.346105487692
 42
-0.0895593946503449
 10
2427.339155291865
 20
3212.355660731466
 42
-0.0198980897206402
 10
2441.408967403305
 20
3250.661045414312
  0
LWPOLYLINE
  5
16C
330
1F
100
AcDbEntity
  8
0
 62
     0
100
AcDbPolyline
 90
       12
 70
     0
 43
0.0
 10
2048.996886716009
 20
3430.125294166315
 42
0.0466906529583651
 10
2048.996886716009
 20
3318.40865092954
 42
-0.0462517155921301
 10
2048.996886716009
 20
3249.250737657147
 42
0.1426168563389724
 10
2066.737889939471
 20
3116.254742535139
 42
0.0770448785648334
 10
2103.994070636184
 20
3226.198108630978
 42
-0.0614694585137622
 10
2158.056607503112
 20
3361.54225922728
 42
0.1048299304584539
 10
2192.699209965783
 20
3485.096990311208
 42
0.041692957732359
 10
2276.08203190008
 20
3605.680019252683
 42
-0.0651400112762698
 10
2196.247394182154
 20
3859.25906951009
 42
0.0733368942863461
 10
2132.379708650306
 20
3678.384513000905
 42
0.1097835274344871
 10
2070.286115226702
 20
3524.109139799757
 42
0.1662911365467825
 10
2048.996886716009
 20
3430.125294166315
 42
1.330242935825433
  0
LWPOLYLINE
  5
16D
330
1F
100
AcDbEntity
  8
0
 62
     0
100
AcDbPolyline
 90
       14
 70
     0
 43
0.0
 10
1983.790089386998
 20
3381.900291769556
 42
-0.3188911583418874
 10
1954.817591429065
 20
3434.192924435151
 42
0.0739817279051743
 10
1935.025145323964
 20
3488.336604040373
 42
-0.0118805712381144
 10
1935.025145323964
 20
3589.335369335899
 42
0.0251136136654457
 10
1966.253454214619
 20
3707.389399862639
 42
-0.1242755027044362
 10
2019.588874527213
 20
3827.338483143019
 42
-0.0709438765571183
 10
2050.680664245406
 20
3977.338062858711
 42
-0.2681098562772483
 10
2076.517862234748
 20
3879.571131693086
 42
0.0993531813668926
 10
2071.740389406233
 20
3785.089267739019
 42
-0.0592606803965542
 10
2023.603704602766
 20
3638.137476550663
 42
0.1502489969986649
 10
1996.665933731204
 20
3518.579390166536
 42
0.0214357953909682
 10
1988.309514694632
 20
3427.325581413616
 42
-0.1879621499131168
 10
1997.484473774576
 20
3400.959812277385
 42
-0.301863285109889
 10
1983.790089386998
 20
3381.900291769556
 42
0.7795937980650371
  0
LWPOLYLINE
  5
16E
330
1F
100
AcDbEntity
  8
0
 62
     0
100
AcDbPolyline
 90
        8
 70
     0
 43
0.0
 10
2337.68597984467
 20
3570.842423683429
 42
-0.1169236577097389
 10
2315.218883300625
 20
3683.316647963521
 42
-0.0983785100340795
 10
2315.218883300625
 20
3756.924753953331
 42
-0.2160273758151511
 10
2315.218883300625
 20
3805.580960939509
 42
-0.6212873138410343
 10
2336.679089342727
 20
3841.761205326899
 42
0.1185827878666683
 10
2360.153117459401
 20
3774.391080636484
 42
-0.2319280083634193
 10
2361.910616984725
 20
3678.326283879157
 42
-0.0981857170715912
 10
2337.68597984467
 20
3570.842423683429
 42
-2.017489494002115
  0
LWPOLYLINE
  5
16F
330
1F
100
AcDbEntity
  8
0
 62
     0
100
AcDbPolyline
 90
       15
 70
     0
 43
0.0
 10
2400.556672925263
 20
3729.57621449817
 42
-0.203072901518998
 10
2435.757328616706
 20
3764.776870189673
 42
-0.1763933008839203
 10
2461.48192397565
 20
3799.799067663627
 42
0.2063668728176023
 10
2461.795423288731
 20
3835.203506777592
 42
-0.0798489516533484
 10
2469.653075613623
 20
3865.621745803608
 42
0.0039112202190682
 10
2470.37571545628
 20
3901.651729914449
 42
0.2615913736910393
 10
2458.223743077327
 20
3934.51823173122
 42
0.3514440910680263
 10
2440.30399995072
 20
3903.056694108496
 42
0.0154105704871137
 10
2421.179047962435
 20
3883.93174212014
 42
-0.010465255101389
 10
2411.35968683685
 20
3860.067096415455
 42
0.1552775878243794
 10
2402.147057769255
 20
3840.854365606094
 42
-0.0314579875713373
 10
2398.691300342342
 20
3811.13763793987
 42
0.0435492108341624
 10
2393.309205203916
 20
3783.057737572239
 42
-0.1311964451059516
 10
2390.694764484145
 20
3769.797249150744
 42
0.1283807212723464
 10
2400.556672925263
 20
3729.57621449817
 42
-0.4469997807587468
  0
LWPOLYLINE
  5
170
330
1F
100
AcDbEntity
  8
0
 62
     0
100
AcDbPolyline
 90
      108
 70
     0
 43
0.0
 10
2247.098157344345
 20
3978.986368726646
 42
-0.2832569097408503
 10
2247.098157344345
 20
3954.419337238036
 42
0.0553706039886177
 10
2240.201034049754
 20
3947.52221394344
 42
-0.2359143340627836
 10
2198.620668984501
 20
3957.251758306726
 42
-0.1790197764250749
 10
2183.284514102171
 20
3972.587913189098
 42
-0.2580005596707222
 10
2148.353108944039
 20
3975.107360997509
 42
-0.178365364153851
 10
2144.379896158021
 20
3985.137157099642
 42
0.4002600049475322
 10
2128.949068919773
 20
3992.648580385063
 42
-0.4017549225786317
 10
2114.282170247886
 20
4009.830541450337
 42
-0.2031653875558421
 10
2100.03708924902
 20
4024.792245611739
 42
0.1633335174720307
 10
2096.439886555442
 20
4048.627455359299
 42
-0.6228544453209849
 10
2085.565290004149
 20
4059.502051910532
 42
-0.140671144913877
 10
2075.101373145025
 20
4096.962315127462
 42
-0.0312651913051649
 10
2064.841899845883
 20
4165.861825212252
 42
-0.0701514954408629
 10
2065.99873965538
 20
4205.828953252672
 42
-0.045482320985636
 10
2073.838529730233
 20
4246.550204736739
 42
-0.237478931621425
 10
2110.528547103593
 20
4225.72391613917
 42
-0.0789425384026317
 10
2149.283197143947
 20
4205.828953252672
 42
-0.019904739537744
 10
2172.299902461777
 20
4218.172688857937
 42
0.024691832372126
 10
2172.299902461777
 20
4245.350155711139
 42
-0.1218043173422909
 10
2182.450291849341
 20
4279.169226237578
 42
-0.1870627340135627
 10
2219.668523173214
 20
4283.07819983055
 42
-0.0611333613296837
 10
2255.195009242179
 20
4283.805213062509
 42
0.5949090531085764
 10
2257.11739656913
 20
4305.226902287873
 42
0.0062783503758144
 10
2243.32123462031
 20
4315.360140477308
 42
0.0341963468508568
 10
2230.956252612715
 20
4325.184931635629
 42
0.0190973143309996
 10
2207.64481474589
 20
4345.427365918289
 42
-0.1129141664512625
 10
2182.894595220702
 20
4356.497761862484
 42
0.0063278937822184
 10
2161.23815313612
 20
4373.773841981853
 42
0.0033502590773511
 10
2131.92152450736
 20
4391.885813747278
 42
0.188638366518049
 10
2107.61265011768
 20
4397.488142178941
 42
-0.0869325783813017
 10
2074.599003441941
 20
4408.511890478438
 42
0.0916401293227139
 10
2063.532605413132
 20
4425.070790717621
 42
-0.6321440232509623
 10
2071.416818675603
 20
4454.041890708568
 42
0.1282533325884865
 10
2098.980030826078
 20
4481.605102859121
 42
-0.2376093015194457
 10
2132.579272934777
 20
4523.238882027018
 42
-0.0515354686417312
 10
2155.038441312866
 20
4543.043941251491
 42
-0.3424775321893762
 10
2173.831266438606
 20
4568.666633901155
 42
0.350802599604177
 10
2186.630609190458
 20
4581.465976652904
 42
0.0882856293109087
 10
2209.038057791203
 20
4587.146430197292
 42
0.1718378950692178
 10
2234.686119000154
 20
4596.873999909794
 42
-0.0935631673569648
 10
2296.026398708596
 20
4607.418703790123
 42
-0.1211518295480061
 10
2346.82660377784
 20
4602.605279749584
 42
0.0497489835821562
 10
2414.285762096365
 20
4596.873999909794
 42
-0.0133637408117534
 10
2440.786909826932
 20
4590.556880782989
 42
0.1291657461846508
 10
2464.468797008291
 20
4582.143251091056
 42
0.0128788177687582
 10
2480.25672179602
 20
4580.017619233223
 42
-0.0447702973288691
 10
2494.067637316784
 20
4573.864450118266
 42
-0.0427879567001389
 10
2515.215692244313
 20
4561.813645157044
 42
-0.1697422056689612
 10
2528.463379655284
 20
4548.565957746101
 42
-0.003794478345258
 10
2530.213333664421
 20
4527.434495871597
 42
0.0182084678594783
 10
2534.739499722567
 20
4499.818437738771
 42
-0.2742613612772018
 10
2521.418073666299
 20
4475.020349532672
 42
-0.0587321856714152
 10
2510.704850723402
 20
4455.294586239534
 42
-0.0619928950136223
 10
2501.685157782882
 20
4446.274893298942
 42
0.1660011212932942
 10
2501.685157782882
 20
4432.187290467044
 42
-0.0824365072847251
 10
2519.162673441245
 20
4432.187290467044
 42
0.2947351116907612
 10
2536.078318876814
 20
4439.513996560168
 42
-0.2447243310859283
 10
2558.632485410391
 20
4449.218169143
 42
-0.3186501717472522
 10
2576.111950099136
 20
4446.840702653289
 42
-0.3359195533267375
 10
2594.163550347456
 20
4436.705075530443
 42
-0.1423018673592868
 10
2603.170030411408
 20
4419.782622341037
 42
-0.3228479217368194
 10
2587.391532989586
 20
4404.004124919176
 42
-0.0619680731905666
 10
2565.962587480334
 20
4404.004124919176
 42
0.2377933257255339
 10
2549.21437978688
 20
4403.846831438542
 42
-0.0413965389732382
 10
2521.205809316382
 20
4384.067098846228
 42
-0.0359602040011275
 10
2483.653560299444
 20
4365.855624405425
 42
0.0543957359920851
 10
2448.214226361498
 20
4360.73057109747
 42
-0.0197241674386591
 10
2408.522139494441
 20
4336.642993430057
 42
0.175873207490319
 10
2402.667011261993
 20
4325.36954208694
 42
0.1363824254518633
 10
2400.676337909844
 20
4308.800252967212
 42
0.2879554453122421
 10
2422.064914113976
 20
4285.242273135083
 42
0.0995840011004886
 10
2438.844756210473
 20
4279.801102577661
 42
0.0327225458902985
 10
2461.632943876454
 20
4277.911576744716
 42
0.0722400659035016
 10
2504.779368296632
 20
4285.322889254057
 42
-0.4701927857819419
 10
2537.235322969343
 20
4257.309626261931
 42
-0.0396709919888793
 10
2524.323172082443
 20
4222.893203004252
 42
-0.1976947989530651
 10
2511.411021195486
 20
4194.102556352509
 42
-0.103676674183099
 10
2510.195954010432
 20
4175.128293180228
 42
0.0603627580554318
 10
2509.4429108652
 20
4144.463474271653
 42
0.0970843563060935
 10
2504.277483734087
 20
4110.588532077787
 42
-0.2660193219633306
 10
2495.468875742302
 20
4067.325761477146
 42
-0.1488881894407626
 10
2470.993311651127
 20
4032.70396940897
 42
-0.0560721564107753
 10
2456.999300813669
 20
4010.085775171591
 42
0.2439508247172849
 10
2443.681494131003
 20
3985.459283446191
 42
-0.1945000289396147
 10
2434.359049988521
 20
3963.49509108046
 42
-0.128006024136512
 10
2403.728115153749
 20
3945.524400142105
 42
-0.1388540690060029
 10
2380.421943191398
 20
3945.524400142105
 42
-0.2886236679028781
 10
2360.961020178645
 20
3961.935453260229
 42
-0.8823052623841746
 10
2379.567932910536
 20
3984.316556110289
 42
0.0881354715507361
 10
2393.073869807547
 20
4007.423449617983
 42
0.0069054834545444
 10
2405.72575535301
 20
4034.712293090928
 42
0.2479419237050507
 10
2410.60598719762
 20
4059.338784816327
 42
0.0546335677152437
 10
2397.632846247248
 20
4093.283429076314
 42
0.2691959514789087
 10
2373.336828144052
 20
4111.919681757621
 42
0.0410226837232904
 10
2346.461566953588
 20
4119.013969048537
 42
0.0633390426293567
 10
2320.803478504199
 20
4122.596016114932
 42
0.448079361787343
 10
2305.452341140615
 20
4122.596016114932
 42
0.0034649685718226
 10
2287.580897215771
 20
4115.2675288341
 42
0.0168995306389659
 10
2278.532518522482
 20
4106.219150140812
 42
-0.0884325114566415
 10
2262.148410394921
 20
4101.755622224454
 42
-0.5372686544027045
 10
2246.797273031337
 20
4101.755622224454
 42
0.1597219942952275
 10
2238.548911137524
 20
4121.908949149778
 42
0.0563073394909039
 10
2210.058830206649
 20
4079.582285074685
 42
0.075290162135441
 10
2204.561838912446
 20
4041.554358963344
 42
0.2652749415617647
 10
2207.174677872931
 20
4018.548067011578
 42
-0.5262024727440609
 10
2220.323110882327
 20
4005.399634002193
 42
0.3354241314218935
 10
2246.928545838297
 20
3978.794199046241
 42
21.79732020770075
  0
LWPOLYLINE
  5
171
330
1F
100
AcDbEntity
  8
0
 62
     0
100
AcDbPolyline
 90
      158
 70
     1
 43
0.0
 10
1954.418917660735
 20
647.2332137993944
 42
0.0266893674658287
 10
1980.953209486458
 20
895.403163696994
 42
0.1173800754065949
 10
1966.730446813179
 20
916.6497766871779
 42
-0.8544425799387589
 10
1981.796841021062
 20
931.7161708950388
 42
-0.0198280308564032
 10
2000.415528904547
 20
993.1082509775697
 42
0.0672086299633025
 10
2012.902597531112
 20
1091.711790294159
 42
0.0880253287186927
 10
2000.415528904547
 20
1254.500638288014
 42
0.0002552493730918
 10
2000.415528904547
 20
1366.168298862769
 42
0.086075768873394
 10
2033.809826997825
 20
1581.258187775971
 42
-0.0332417187099662
 10
2033.809826997825
 20
1769.724140110757
 42
0.9646724685125441
 10
2020.65298608733
 20
1782.880981021279
 42
-0.3714984344249113
 10
2000.541517644149
 20
1768.85544438707
 42
-0.4632310416745494
 10
2000.541517644149
 20
1785.90790686704
 42
0.0937618429431073
 10
2020.553297873895
 20
1897.219329899817
 42
-0.0391534323821599
 10
2020.553297873895
 20
2043.642860960666
 42
-0.1572425442111243
 10
2009.877603258722
 20
2138.254994364832
 42
-0.206543112978281
 10
1978.505105303327
 20
2276.712399138647
 42
-0.1201229807495774
 10
1958.674052693433
 20
2348.920570170296
 42
-0.2491806036256757
 10
1920.50100857836
 20
2427.730661060769
 42
0.0143286100617473
 10
1876.205506720365
 20
2612.96849880469
 42
-0.1259717741437438
 10
1847.468878078466
 20
2747.747069915228
 42
0.0632498752453199
 10
1833.181965983548
 20
2811.822102118107
 42
-0.1836468963201511
 10
1815.341817970056
 20
2878.842694914396
 42
0.3394800585677971
 10
1797.10086050934
 20
2850.147813295991
 42
0.5383574976004982
 10
1787.952515275235
 20
2850.147813295991
 42
-0.2789301766396756
 10
1787.952515275235
 20
2880.845797657787
 42
-0.2233558591399647
 10
1806.103034944931
 20
2908.275931226419
 42
0.2068650071209452
 10
1816.011353333265
 20
2979.025650044854
 42
0.0728566754762269
 10
1793.297175158414
 20
3017.135392212913
 42
-0.0293652404753689
 10
1807.430236224568
 20
3063.085420251179
 42
0.0674566940206592
 10
1807.008479117317
 20
3138.638902291348
 42
-0.0282627402870945
 10
1859.689110043534
 20
3251.389289248282
 42
-0.0404745445669951
 10
1898.932868605846
 20
3324.089094281801
 42
0.7175613506639387
 10
1891.875845951395
 20
3353.009348533378
 42
-0.0269567198456095
 10
1856.246709520829
 20
3317.380212102875
 42
-0.4614244885942529
 10
1844.596620075655
 20
3329.030301548044
 42
-0.1202746779646256
 10
1889.45398020129
 20
3373.887661673638
 42
-0.2751738846182856
 10
1906.868517810729
 20
3424.811173021743
 42
0.1543114056332758
 10
1900.240520208626
 20
3435.280994380457
 42
0.2477354084828397
 10
1891.346251737227
 20
3438.426442031785
 42
-0.8153468038780747
 10
1877.502192432893
 20
3456.240963592929
 42
0.1555078251870163
 10
1903.527200379018
 20
3499.452177641423
 42
-0.5453300630844998
 10
1888.609766120225
 20
3514.369611900207
 42
0.4152485491297617
 10
1911.83315004608
 20
3589.687127714662
 42
0.0843386759348197
 10
1911.83315004608
 20
3633.392078164281
 42
-0.0239745651242994
 10
1933.692769129894
 20
3749.616095482736
 42
0.0776318868576202
 10
1981.265840033843
 20
3842.816061360205
 42
-0.0736485330407269
 10
2001.353831254429
 20
3975.958899692514
 42
-0.034261890804112
 10
2017.23876515312
 20
4031.691503510706
 42
0.369526735933094
 10
2006.026039751264
 20
4069.983896000843
 42
-0.2244542365115932
 10
1989.893202806782
 20
4046.827879505701
 42
-0.7650248369191902
 10
1980.975407000939
 20
4055.745675311571
 42
-0.0228032259600293
 10
2009.118338644929
 20
4100.012599080645
 42
0.0597890477933882
 10
2035.724627494829
 20
4149.600262463343
 42
-0.0303416710555121
 10
2035.724627494829
 20
4277.700375031405
 42
0.1070624888804003
 10
2005.753535326355
 20
4315.328158885286
 42
0.1252408852382902
 10
1998.096843640977
 20
4345.015597230061
 42
0.1585531832571571
 10
1980.78486048298
 20
4393.21988022273
 42
0.0490959122174143
 10
1930.357742104929
 20
4437.489126655206
 42
0.1910702657227825
 10
1880.162673463247
 20
4459.131867027176
 42
-0.2451031917364777
 10
1752.242723280174
 20
4587.051817210233
 10
1709.400640285707
 20
4669.882300483274
 42
0.030264517907487
 10
1690.633437641622
 20
4728.203662353037
 42
-0.1800593714059278
 10
1675.250303694297
 20
4762.585692409759
 42
-0.0055506521973483
 10
1732.483264156984
 20
4719.791609922251
 42
-0.0780330549493458
 10
1818.27242132179
 20
4719.791609922251
 42
0.4590551603555645
 10
1870.174349254305
 20
4719.791609922251
 42
0.077467295954338
 10
1787.734388523054
 20
4757.996043172247
 42
-0.0216385619539546
 10
1674.566812412016
 20
4816.426360552805
 42
0.3381584605454512
 10
1607.115909314266
 20
4839.648673902265
 42
0.0983692371383008
 10
1552.808967752865
 20
4833.255389405778
 42
-0.0930920404356717
 10
1441.486569880292
 20
4827.662957026685
 42
-0.0716161646284472
 10
1389.303060887224
 20
4842.013803047684
 42
-0.0343732935518306
 10
1336.545875660918
 20
4858.021965650929
 42
0.1713486526352502
 10
1303.572593823849
 20
4858.021965650929
 42
-0.0951942558129272
 10
1264.004704904119
 20
4858.021965650929
 42
0.3396110256302049
 10
1282.75380467567
 20
4876.771065422501
 42
-0.2903010105367361
 10
1317.29650808046
 20
4894.772844953902
 42
0.1233870450297355
 10
1367.627028054924
 20
4905.130189547523
 42
-0.0929805744008125
 10
1431.280324272887
 20
4905.130189547523
 42
-0.0246802429416844
 10
1491.232858438993
 20
4905.130189547523
 42
0.0827135011334257
 10
1395.012757594656
 20
4943.600386481408
 42
-0.0127830926885733
 10
1335.8003594106
 20
4958.39660801169
 42
-0.104679067759778
 10
1263.491256239026
 20
4972.68146715675
 42
0.1233964304949347
 10
1186.08503196623
 20
5011.219144020979
 42
-0.0176276399854971
 10
1101.928747268877
 20
5064.860326394218
 42
0.1348873010207398
 10
1037.201565189653
 20
5103.183324518302
 42
-0.0461195815874041
 10
1056.031664002238
 20
4979.312141309066
 42
0.0075739217525549
 10
1079.390675650228
 20
4829.303910441236
 42
-0.1176849141063147
 10
1092.379035999899
 20
4716.903623602162
 42
-0.1732188762260237
 10
1117.533084209793
 20
4591.903055187494
 42
-0.1437142717904649
 10
1148.133194909565
 20
4463.804315299261
 42
-0.1105282130909908
 10
1148.133194909565
 20
4394.143949929047
 42
0.0943683352438748
 10
1178.333379720413
 20
4285.009400217119
 42
-0.0269884588039509
 10
1178.333379720413
 20
4166.586794804113
 42
0.1682223212932352
 10
1224.795158276468
 20
4020.300022287872
 42
-0.110754837576494
 10
1268.693218488613
 20
3902.633452475905
 42
-0.1235796560527224
 10
1293.248803730606
 20
3792.184595785577
 42
-0.1491092204086583
 10
1293.248803730606
 20
3716.506671095067
 42
0.179713906977991
 10
1353.012289235269
 20
3751.814948169631
 10
1361.892688427487
 20
3772.724124685455
 10
1384.448592643387
 20
3762.594651576214
 42
-0.3739851960703431
 10
1319.51160225076
 20
3697.657661183585
 42
0.2177562962136696
 10
1328.896784385101
 20
3633.319389989352
 42
-0.1302877979376435
 10
1328.896784385101
 20
3513.46174974273
 42
0.1599780650805096
 10
1350.206212396925
 20
3410.974356818666
 42
-0.0156126289225226
 10
1365.18672731439
 20
3305.640102055472
 42
0.1224322255652452
 10
1365.18672731439
 20
3211.693320842758
 42
0.2892971184045123
 10
1426.446009526628
 20
3321.636189253792
 42
-0.117968702097454
 10
1442.245310912042
 20
3459.021738129244
 42
-0.0346474920432303
 10
1488.298189083015
 20
3635.905648350175
 42
0.0311091291306882
 10
1527.078395720647
 20
3910.99295242916
 42
-0.0416151317852794
 10
1380.178906324686
 20
4071.091951920013
 42
-0.008834271158462
 10
1204.767013320833
 20
4309.973672004602
 42
-0.1489951524628202
 10
1246.76773830179
 20
4293.862125972411
 42
-0.0386114388475337
 10
1376.998898745997
 20
4103.623224706087
 42
-0.0616316871564318
 10
1444.83896983242
 20
4035.783153619686
 42
-0.040712481931362
 10
1519.6914381048
 20
3950.476913987634
 42
0.284787509240881
 10
1546.974121133115
 20
3934.394596349001
 42
0.0302131683914113
 10
1557.869903558882
 20
3962.381455852727
 42
-0.007263476824475
 10
1573.153397397504
 20
4040.823914838667
 42
0.0895670689385885
 10
1591.85217050616
 20
4120.034327666934
 42
0.0439899910125037
 10
1613.222185181704
 20
4196.574713924145
 42
0.077328674725143
 10
1623.356269481667
 20
4259.637612404816
 42
-0.0342195429883892
 10
1634.761575629253
 20
4313.065333132472
 42
-0.1505716541618971
 10
1555.967013579228
 20
4435.003060103066
 42
-0.0502149549896644
 10
1494.031994320527
 20
4535.716285292336
 42
-0.0195208428556215
 10
1425.007805680058
 20
4670.928548828604
 42
-0.2275909560662566
 10
1448.242954646254
 20
4694.16369779484
 42
0.0281778957793578
 10
1480.952685482002
 20
4621.891482587439
 42
0.0274750311592591
 10
1566.612962633971
 20
4478.872036985618
 42
-0.0040483472503676
 10
1633.323606537497
 20
4345.454293285433
 42
-0.1820767379507759
 10
1668.141375747992
 20
4345.454293285433
 42
-0.2128647885825402
 10
1668.141375747992
 20
4429.417255444865
 42
0.0415349437504785
 10
1679.198155512818
 20
4513.380217604288
 42
-0.1075669106329963
 10
1668.666757429792
 20
4536.580161797185
 42
-0.639856438298382
 10
1663.213193761435
 20
4558.790097203817
 42
-0.7164505463163657
 10
1682.871492805442
 20
4549.996671222628
 42
-0.8616418654823222
 10
1690.575463829113
 20
4550.560721028602
 42
0.1110296105544057
 10
1725.05430479233
 20
4507.652310838349
 42
-0.0966451556886177
 10
1704.47235566391
 20
4393.386552243291
 42
-0.1420894790289839
 10
1677.253948358952
 20
4282.090243112111
 42
0.0215256794988542
 10
1677.253948358952
 20
4225.205472784997
 42
-0.1881317059124761
 10
1656.903104339743
 20
4143.888622132222
 42
-0.2507408144852338
 10
1631.972173515433
 20
4048.801540264005
 42
-0.1830984470697174
 10
1618.194579788734
 20
3918.958509327882
 42
0.1231015887005831
 10
1572.560828619479
 20
3639.529789073184
 42
0.0766145154607627
 10
1530.097698263667
 20
3379.56358304568
 42
0.1124645742406864
 10
1503.80046680583
 20
3244.796170552263
 42
-0.0095621845205649
 10
1458.220559389464
 20
3113.267271642671
 42
0.2882495479733778
 10
1447.56019450167
 20
2998.580497899655
 42
-0.0425357001931661
 10
1469.826619362243
 20
2901.766554546699
 42
0.1050076091650189
 10
1501.748900712077
 20
2728.234368104912
 42
-0.0688622984724708
 10
1523.021125932241
 20
2563.73104835848
 42
-0.0051899629135431
 10
1561.230024811887
 20
2304.000221048049
 42
-0.0295099320291475
 10
1638.364753579738
 20
1807.006363423956
 42
-0.0079409003180721
 10
1741.237740900501
 20
1301.821242625081
 42
-0.0853660830343671
 10
1848.583497157105
 20
948.6386995095454
 42
0.0234109285957793
  0
LWPOLYLINE
  5
172
330
1F
100
AcDbEntity
  8
0
 62
     0
100
AcDbPolyline
 90
      127
 70
     1
 43
0.0
 10
3535.427122308192
 20
3407.625881087703
 42
0.0720751455636239
 10
3586.931855019316
 20
3590.148743464828
 42
-0.0185105784270559
 10
3407.44577852388
 20
3933.354146980997
 42
-0.0303223155431214
 10
3281.025123231887
 20
4434.122053229033
 42
0.3493637057291931
 10
3320.043855156068
 20
4434.122053229033
 42
0.0332216948024964
 10
3427.735509267443
 20
4050.355993256
 42
0.0001071480121483
 10
3593.174814342131
 20
3675.950100892356
 42
-0.0037136797798107
 10
3643.118776419566
 20
3908.393761141802
 42
-0.0053022907798606
 10
3684.951922544295
 20
4329.009215814538
 42
-0.035396849085546
 10
3725.686918960902
 20
4561.255819076614
 42
-0.0082811330955463
 10
3816.804677345807
 20
5305.292815820301
 42
0.0797668128752128
 10
3867.674209840672
 20
5707.448879273747
 42
0.0056999692362648
 10
3942.657200955861
 20
6169.580780967266
 10
3034.224991376995
 20
6169.580780967266
 42
0.134231134255609
 10
3074.609202519543
 20
6044.762663918289
 42
-0.0462841742402241
 10
3112.617840423266
 20
5966.406173433286
 42
-0.0297339894879226
 10
3155.377583734069
 20
5840.560913536258
 42
0.0276566715847495
 10
3184.732027508452
 20
5846.839575497275
 42
-0.0112389502170922
 10
3179.170526222984
 20
5954.53398108028
 42
-0.1330032020285085
 10
3217.885170315643
 20
6104.123625683327
 42
-0.1449854593301881
 10
3262.276900940359
 20
5992.525012326264
 42
0.1606572251210877
 10
3303.185010567442
 20
5840.01820135742
 42
0.3092381191669086
 10
3353.862783731444
 20
5863.711324528895
 42
0.2300673026401628
 10
3408.627425066271
 20
5948.679714762683
 42
0.0375971324072637
 10
3450.755664528248
 20
6062.828779368809
 42
-0.3941133316193765
 10
3482.324014275702
 20
6107.972161904918
 42
-0.0537610972597181
 10
3482.324014275702
 20
5964.926320773614
 42
0.0424460802007536
 10
3482.324014275702
 20
5878.164903170461
 42
-0.0714812037826382
 10
3482.324014275702
 20
5757.224719899216
 42
0.1441086749434353
 10
3441.217763232317
 20
5639.420396173029
 42
-0.1388933457168358
 10
3405.053366277501
 20
5532.268570321576
 42
0.1375307464502343
 10
3405.053366277501
 20
5489.666044094696
 42
0.1784027458785286
 10
3424.351184679504
 20
5536.219301619961
 42
-0.4096927183928811
 10
3442.966268263367
 20
5542.713795573535
 42
-0.168111606188647
 10
3414.221466542239
 20
5460.859078620249
 42
-0.2074740909993133
 10
3410.661536091432
 20
5417.119028295172
 42
-0.0032867758964346
 10
3360.055390315031
 20
5303.530461551056
 42
-0.3620335981323064
 10
3326.900037041767
 20
5270.375108277838
 42
0.7887793179269741
 10
3349.846166860038
 20
5247.428978459622
 42
0.0632315875694614
 10
3232.499539498606
 20
5108.46054623037
 42
0.5505703513037212
 10
3296.277444371506
 20
5141.609680626398
 42
0.1061979586383025
 10
3390.668787939608
 20
5252.04342341513
 42
0.1239372479597436
 10
3432.762199405715
 20
5368.553766657955
 42
0.1698583836329605
 10
3487.611200060655
 20
5503.700257806324
 42
0.0820792562297894
 10
3537.357981468277
 20
5635.021831705278
 42
0.1577339556550533
 10
3589.013361689769
 20
5737.019188457604
 42
0.2391312548547445
 10
3608.789256282634
 20
5807.142348305173
 42
-0.3174794021581447
 10
3653.433818443172
 20
5807.142348305173
 42
0.0111998436676767
 10
3601.135927411861
 20
5628.647013279473
 42
-0.04898603819015
 10
3534.806871844764
 20
5452.701579430153
 42
0.0167868952130331
 10
3468.477857348294
 20
5306.080388921375
 42
0.0131208191411295
 10
3423.572432566102
 20
5188.572769071761
 42
-0.1463215376453042
 10
3383.373472794791
 20
5133.36516517788
 42
0.0147022755872593
 10
3285.590999557538
 20
5054.251277007129
 42
-0.1370972418771432
 10
3190.331748904678
 20
5009.735126525342
 42
0.1553808383387159
 10
3141.342065698717
 20
4984.667293156939
 42
0.0020705500715539
 10
3115.629662744253
 20
4958.954890202451
 42
0.0272919935907059
 10
3157.12357587078
 20
4948.919039177074
 42
-0.0050907251208597
 10
3234.821227913857
 20
4941.618631796604
 42
0.0295804945975458
 10
3295.910354009789
 20
4955.052008983384
 42
0.1322901129616332
 10
3368.606402564113
 20
4982.529370220273
 42
-0.1037936429541949
 10
3392.431133813359
 20
5029.546177277059
 42
0.0807505943777522
 10
3392.431133813533
 20
5078.394804923658
 42
0.3414029033887878
 10
3417.19096389403
 20
5075.169938381089
 42
0.1956891008202072
 10
3436.68876844006
 20
5085.064226558015
 42
0.1547825218378689
 10
3444.282791148074
 20
5120.442464985097
 42
-0.283868597897284
 10
3456.726078355353
 20
5156.247428838378
 42
0.0905373457077092
 10
3491.118477810308
 20
5216.771663341592
 42
0.0728176022228699
 10
3546.28934993131
 20
5335.448166585066
 42
0.1240590591074086
 10
3576.292994329433
 20
5365.451810983255
 42
-1.283258958032184
 10
3599.681981798279
 20
5365.451810983255
 42
0.02174373523411
 10
3563.279497706931
 20
5243.83403403601
 42
-0.0164990982167554
 10
3526.877013615583
 20
5123.761551118849
 42
-0.0190134367855556
 10
3459.517164370004
 20
4988.617207873293
 42
0.1260794876798676
 10
3407.687689971313
 20
4936.787733474506
 42
0.2059491876276928
 10
3337.076223662606
 20
4905.667951072294
 42
0.06254891254549
 10
3380.267374129285
 20
4896.091185798589
 42
0.17363088513889
 10
3382.150853684481
 20
4884.267308162215
 42
-0.1014233661853294
 10
3289.482740595954
 20
4882.279489581009
 42
0.0108790973080303
 10
3183.531952356122
 20
4882.279489581009
 42
-0.1318759139721139
 10
3088.080778089486
 20
4872.156083037931
 42
-0.0371742397161505
 10
2970.289621249383
 20
4820.513321947071
 42
0.0230319003900558
 10
3059.985469205614
 20
4787.385168894508
 42
-0.1944133142032379
 10
3136.54257894833
 20
4787.385168894508
 42
-0.0016668394045654
 10
3213.914162730117
 20
4792.676553701848
 42
-0.0880447247337013
 10
3059.628400106932
 20
4743.882880934765
 42
-0.0350846295564407
 10
2994.845174765115
 20
4739.957064259077
 42
0.00961552361443
 10
2994.845174765115
 20
4682.855906200432
 42
-0.2010692430839215
 10
2937.51779144003
 20
4585.710923872804
 42
-0.0560221448328469
 10
2828.514457316621
 20
4476.707589749411
 42
-0.2800153139441952
 10
2743.137653955509
 20
4441.238867305694
 42
0.2554284511509856
 10
2640.96348544241
 20
4393.911845454083
 42
-0.0939163958928557
 10
2592.36845107128
 20
4306.730434266514
 42
-0.1853276870613452
 10
2558.71052841518
 20
4273.072511610458
 42
0.0981931607077805
 10
2558.71052841518
 20
4199.651794274787
 42
0.1597480587693643
 10
2533.890069327684
 20
4115.036891219606
 42
0.1292011005877333
 10
2509.278751078312
 20
4016.63732408973
 42
-0.1258498822283147
 10
2509.278751078312
 20
3913.317775983973
 42
-0.0862635894028073
 10
2509.278751078312
 20
3751.553556220226
 42
0.094010601113015
 10
2540.302075856616
 20
3685.359513103139
 42
0.0241905919204882
 10
2566.637708465412
 20
3642.318552760249
 42
-0.2475783796874574
 10
2556.385231079901
 20
3632.066075374762
 42
0.8748110132724768
 10
2527.721487319347
 20
3641.376068380473
 42
0.1760566240848727
 10
2550.911266590253
 20
3585.869597155443
 42
0.0669636711841545
 10
2593.972263850871
 20
3514.58295501823
 42
-0.0926752729358972
 10
2657.218056089262
 20
3474.232007220264
 42
-0.1951619209079326
 10
2669.983546113089
 20
3465.815771040639
 42
0.2228400568563012
 10
2685.666558143235
 20
3470.036629776564
 42
-0.3962868796746786
 10
2739.547249008337
 20
3448.471920487204
 42
-0.3496007132190934
 10
2738.048425020202
 20
3434.670382508517
 42
0.4641665561590314
 10
2768.881801893719
 20
3429.123145419284
 42
-0.0836804605893848
 10
2798.35473066995
 20
3434.670382508517
 42
0.6515969179351666
 10
2812.300321794365
 20
3419.667238978024
 42
0.2020000638450099
 10
2846.939719916921
 20
3425.000485652903
 42
0.2380760703354471
 10
2878.967248388991
 20
3435.183814874523
 42
-0.0465908333589899
 10
2929.845611095096
 20
3424.716796267056
 42
0.0085872370712729
 10
3016.241136809887
 20
3435.183814874523
 42
-0.0869388604862372
 10
3166.112163466768
 20
3460.764027842819
 42
0.0851925782991084
 10
3284.388776569528
 20
3460.764027842819
 42
0.0192120626828193
 10
3355.678809075226
 20
3460.764027842819
 42
0.1672804864303123
 10
3382.412581532629
 20
3460.764027842819
 42
0.4081490966793084
 10
3396.586936551047
 20
3446.589672824332
 42
0.4348866368683579
 10
3421.159876871348
 20
3430.78692681873
 42
0.0663104676484613
 10
3440.557099151094
 20
3430.78692681873
 42
0.3847371934832366
 10
3441.897853778169
 20
3422.175922526845
 42
0.2574592824577444
 10
3465.040235590381
 20
3417.133337204339
 42
-0.0168961020652301
 10
3499.112611762848
 20
3417.133337204339
 42
0.5967348943614841
  0
LWPOLYLINE
  5
173
330
1F
100
AcDbEntity
  8
0
 62
     0
100
AcDbPolyline
 90
      130
 70
     0
 43
0.0
 10
2668.082561352657
 20
4748.80815308566
 42
-0.005240856605994
 10
2610.621528488718
 20
4712.331973674183
 42
-0.2126181396335359
 10
2527.131589953456
 20
4672.317378145208
 42
-0.1086115577040572
 10
2554.480889737973
 20
4764.447450685949
 42
0.0374675191632902
 10
2608.398939707218
 20
4890.012961320401
 42
-0.0390040347240331
 10
2644.156613026763
 20
5042.724766039537
 42
-0.0401443363402213
 10
2671.787534942693
 20
5158.070945950329
 42
-0.0631971847713465
 10
2734.834955459652
 20
5283.139660393651
 42
0.0799087982693127
 10
2796.57443687857
 20
5451.7171588932
 42
0.2793273515631973
 10
2796.574436878687
 20
5528.730031384536
 42
0.0345797328139493
 10
2687.173212806944
 20
5348.749185808647
 10
2659.74563217322
 20
5283.469782580583
 10
2644.091351605387
 20
5283.469782580583
 42
0.058783856217581
 10
2616.957221479056
 20
5414.90490719604
 42
0.0076178794474645
 10
2523.536667223746
 20
5627.062725393338
 42
0.3798234918325896
 10
2492.65210904078
 20
5657.947283576341
 42
0.3018453782418686
 10
2476.723351511307
 20
5602.051376452069
 42
-0.152533320924681
 10
2504.836456638778
 20
5541.942829428463
 42
0.0971127639515967
 10
2536.395650161332
 20
5471.343933552493
 42
-0.0880732829828889
 10
2549.402583976876
 20
5416.76651029224
 42
0.0652231465518911
 10
2549.402583976876
 20
5319.963516004917
 42
-0.0691636633106349
 10
2578.639813678357
 20
5203.132297034945
 42
-0.1471057989600597
 10
2578.639813678357
 20
5092.977126765256
 42
-0.0556937462101742
 10
2551.923126652971
 20
4987.829032311676
 42
-0.0411274752433616
 10
2525.206480698212
 20
4855.976664475171
 42
-0.0250608562608375
 10
2483.461677756411
 20
4727.462320988812
 42
-0.0044559481794179
 10
2468.076894352463
 20
4688.538249784053
 42
-0.348254750212732
 10
2412.266718025162
 20
4656.267361257631
 42
0.1829770747378509
 10
2237.087244223006
 20
4656.267361257631
 42
-0.2677188129171863
 10
2153.747694420646
 20
4739.606911060009
 42
-0.0555303483916211
 10
2093.55240749098
 20
4896.65456499365
 42
-0.092977753677648
 10
2024.375670415949
 20
5119.289486464127
 42
-0.1413857485933452
 10
2018.073076364485
 20
5263.347364500807
 42
0.0736278671447679
 10
2034.592306923022
 20
5407.405242537498
 42
-0.0264569558452644
 10
2106.654633807967
 20
5558.011211892657
 42
-0.098666408766968
 10
2103.067962190968
 20
5644.781761946002
 42
0.3719659665857272
 10
2034.261719957942
 20
5590.387654362437
 42
-0.0655341061712921
 10
1986.779875689203
 20
5463.218183160186
 42
-0.055541226195272
 10
1953.155663538567
 20
5342.765757188146
 42
0.0446615817484757
 10
1860.134399112913
 20
5502.914754026264
 42
-0.2151884971655503
 10
1812.274859729124
 20
5584.921683946932
 42
1.0
 10
1795.86840184314
 20
5568.515226061016
 42
-0.0692909308765282
 10
1845.092853061232
 20
5419.541050671571
 42
-0.1116893104311427
 10
1932.607474566513
 20
5271.928550620434
 42
0.000586266925266
 10
1949.016471232654
 20
5121.582503701231
 42
0.03346702909222
 10
1981.834464564762
 20
4979.437149774099
 42
0.0820964984109134
 10
2046.103041685379
 20
4807.222596940703
 42
-0.0848335745834354
 10
2046.103041685379
 20
4771.686251910432
 42
0.019570440816648
 10
1882.670971145405
 20
4922.801929083924
 42
0.046773170248062
 10
1849.532108265167
 20
5032.018413430503
 42
-0.0085570443999401
 10
1833.922512673091
 20
5171.139415401996
 42
-0.1338720873950502
 10
1833.922512673091
 20
5362.861693197704
 42
0.1346499706147683
 10
1789.613334255543
 20
5487.680517482977
 42
0.2106277052345276
 10
1756.278337562474
 20
5316.366624133213
 42
0.0729137077799643
 10
1772.532173698261
 20
5096.581517259824
 42
0.645625845662785
 10
1788.54672811217
 20
5064.313126710161
 42
0.2067406833187716
 10
1813.659601129259
 20
4910.290735639994
 42
0.0317430222020858
 10
1776.868628815416
 20
4888.839263395347
 42
-0.0572215288811854
 10
1637.880406227387
 20
5010.397571189795
 42
0.0212464424731474
 10
1552.490662104234
 20
5072.338845291973
 42
-0.2608658427123257
 10
1552.490662104234
 20
5175.013420089192
 42
-0.0617668930367771
 10
1568.468169473012
 20
5300.810273590815
 42
-0.0974063534568179
 10
1608.030308487726
 20
5378.321485731723
 42
0.0348106196656796
 10
1668.652624441444
 20
5515.108084045793
 42
-0.150507917035614
 10
1711.367148856766
 20
5661.489888165146
 42
0.4945627014022622
 10
1688.992872207268
 20
5734.680777127851
 42
-0.0631673422577412
 10
1617.501807414769
 20
5574.605850194826
 42
0.0474506711062141
 10
1543.481382428918
 20
5374.409316478457
 42
0.0552177225946533
 10
1512.309052970394
 20
5237.314572690578
 42
0.3235395738352631
 10
1462.433268337644
 20
5237.314572690578
 42
0.0012304743931444
 10
1445.2884891889
 20
5338.577739585275
 42
0.0111751701962678
 10
1445.2884891889
 20
5464.731930774226
 42
-0.1283412848323132
 10
1467.950384299288
 20
5616.777702259525
 42
-0.00958507731595
 10
1568.647114729817
 20
5822.360711322693
 42
-0.0702351489198797
 10
1639.335651278396
 20
5893.049247871273
 42
-0.0250699771713973
 10
1733.618295398325
 20
6057.924593336877
 42
-0.1778415811178974
 10
1716.030108425551
 20
6075.512780309658
 42
-0.0383553761924481
 10
1645.672006124298
 20
5985.561825689582
 42
-0.4235071570730381
 10
1550.370179292297
 20
5944.886989861725
 42
0.10956317948038
 10
1575.156376794347
 20
5993.234972792279
 42
-0.2042837217385233
 10
1616.341549699445
 20
6046.466946229408
 42
0.3338577351547476
 10
1638.354321609268
 20
6096.150138900019
 42
-0.114179809248024
 10
1638.354321609268
 20
6113.1843703999
 42
-0.1422129049277329
 10
1645.241943699674
 20
6130.206381226031
 42
0.6651559392412486
 10
1613.501178785012
 20
6128.799073876815
 42
-0.1550114581896347
 10
1545.347289743094
 20
6060.645184834864
 42
0.0891765958089435
 10
1478.260359945259
 20
5993.558255037011
 42
-0.1952991381777035
 10
1418.627542575838
 20
5933.92543766753
 42
0.1215866755991481
 10
1390.533253055781
 20
5894.578390753446
 42
-0.0912801656722069
 10
1363.480725253775
 20
5867.525862951345
 42
-0.1583894316577439
 10
1347.078062054893
 20
5997.180178888219
 42
0.0687429010203796
 10
1332.65310785374
 20
6172.536452420325
 10
2984.795351031545
 20
6172.536452420325
 42
-0.4331112805176391
 10
3010.791376877943
 20
6116.402767040176
 42
0.0923964520503935
 10
3041.795768040657
 20
5991.25083445921
 42
-0.0620458905037678
 10
3096.649656114652
 20
5844.644286361169
 42
0.031546511931178
 10
3173.968833619863
 20
5632.088058383478
 42
0.1054524785189534
 10
3198.146280468401
 20
5533.321671361115
 42
0.1709087527804255
 10
3229.835567454592
 20
5406.623248744984
 42
-0.7782191437642958
 10
3210.078154699196
 20
5393.550431099765
 42
0.8882187489843435
 10
3200.24819930144
 20
5368.137675970136
 42
-0.0306086099732815
 10
3208.237938683847
 20
5363.453030395333
 42
0.0551569428648598
 10
3206.901324822469
 20
5353.295422113764
 42
0.0572228255699644
 10
3196.289307587099
 20
5313.180150745111
 42
-0.0584837023815651
 10
3181.670625975373
 20
5250.836013893263
 42
0.0661129350740851
 10
3132.911103251291
 20
5398.26974032498
 42
-0.0648618109706248
 10
3076.527781525528
 20
5567.341256474599
 42
-0.1242884886723754
 10
2985.972733483609
 20
5768.860826298851
 42
0.1338924402312615
 10
2954.37183117065
 20
5737.259923985917
 42
-0.0250339542151286
 10
2954.37183117065
 20
5627.114013121803
 42
-0.1135324692313472
 10
3011.601538488426
 20
5531.477592008705
 42
-0.0009547249809608
 10
3056.024729307525
 20
5411.932078714297
 42
0.05337805629123
 10
3098.739376935077
 20
5290.678773121236
 42
-0.0471971451862279
 10
3098.739376935077
 20
5164.302090632164
 42
-0.2408631373181893
 10
3057.733313569758
 20
5056.711149622351
 42
-0.0555144953663671
 10
2855.311119519133
 20
4854.288955571667
 42
-1.173546739451275
 10
2836.690702449548
 20
4885.084301268975
 42
-0.2876552809303755
 10
2864.663168720685
 20
4962.782520807923
 42
-0.0651317192803199
 10
2874.252022429154
 20
5076.154764991231
 42
-0.041058539292113
 10
2886.874805200979
 20
5215.53588578605
 42
-0.0538944788000271
 10
2912.503569135111
 20
5280.432019329243
 42
0.2304476930665417
 10
2891.515224937542
 20
5328.236556650729
 42
0.0169005733959856
 10
2852.20111218085
 20
5252.297373633456
 42
0.0634418402755396
 10
2829.446232892998
 20
5153.197144885186
 42
-0.0605641453106745
 10
2793.688600644137
 20
5041.100191878429
 42
-0.0113560373187142
 10
2754.680259619683
 20
4935.501587904024
 42
-0.181153999494623
 10
2702.669124563475
 20
4812.032458605836
 42
-0.3821483485569705
 10
2679.707682411844
 20
4842.596110590073
 42
-0.0586655280038441
 10
2668.082561353006
 20
4832.259392425194
 42
-0.4279796829481738
 10
2668.082561353006
 20
4748.808153085906
  0
LWPOLYLINE
  5
174
330
1F
100
AcDbEntity
  8
0
 62
     0
100
AcDbPolyline
 90
       29
 70
     0
 43
0.0
 10
1290.666151771106
 20
6170.526303507908
 42
-0.1150537852626735
 10
1256.734032209223
 20
6061.068965911438
 42
-0.0260549551795012
 10
1248.457865417719
 20
5906.903712021062
 42
0.2813145385870319
 10
1235.544194913079
 20
5820.063398279938
 42
-0.0891921190005709
 10
1241.280094758857
 20
5693.669323016762
 42
0.0589511899099399
 10
1241.280094758857
 20
5579.158441560097
 42
-0.0684539587713567
 10
1266.570969634416
 20
5442.181125191389
 42
0.1118976957359596
 10
1335.289151788008
 20
5271.780476295078
 42
0.0178645961386922
 10
1286.608272396802
 20
5223.099596903901
 42
0.0247790580849849
 10
1240.979415799625
 20
5357.240369561044
 42
-0.0507080310391071
 10
1212.096328863949
 20
5470.313413432839
 42
-0.0108022322625846
 10
1193.475477764167
 20
5584.012099034374
 42
-0.0488904864559907
 10
1188.769950092671
 20
5763.822186788758
 42
-0.0691996172191863
 10
1183.213200857531
 20
5852.837147366102
 42
0.0830752185578623
 10
1142.659447359287
 20
5778.449426580934
 42
0.1586636563471346
 10
1125.742463715857
 20
5667.474757452174
 42
0.1246426045506105
 10
1125.742463715857
 20
5485.287832315918
 42
-0.084676513042292
 10
1178.982585062523
 20
5312.060936208822
 42
-0.0541021316967071
 10
1229.779545542452
 20
5189.607424426531
 42
-0.0399477718023332
 10
1291.022223938623
 20
5142.060190147316
 42
-0.0629977886026319
 10
1326.867123320017
 20
5092.51984664896
 42
-0.1041794902537233
 10
1170.018401070399
 20
5121.047172293522
 42
0.0737149769305955
 10
1040.134321729029
 20
5250.93125163497
 42
-0.0737149769305953
 10
975.9056389481584
 20
5315.159934415802
 42
-0.0607324510419365
 10
924.8051440580921
 20
5577.256622493262
 42
0.1272447941280022
 10
924.8051440580921
 20
5861.60837049801
 42
-0.0421092138842636
 10
889.1410466946135
 20
6070.675330333852
 42
-0.0195678192695791
 10
884.6362075603273
 20
6169.264614765253
 10
1290.572596284462
 20
6169.264614765253
  0
LWPOLYLINE
  5
175
330
1F
100
AcDbEntity
  8
0
 62
     0
100
AcDbPolyline
 90
        9
 70
     1
 43
0.0
 10
906.3812331949765
 20
5105.373197856465
 42
0.0734376677004527
 10
944.6497668034453
 20
4920.004023712874
 42
0.0954652419173208
 10
977.0308084284943
 20
4772.88564608761
 42
-0.1040950184205824
 10
976.9178227957628
 20
4605.17066154269
 42
0.0664558813633155
 10
990.0276063826341
 20
4459.279622139111
 42
0.006828733525934
 10
1024.130538941087
 20
4296.222055432671
 42
-0.2041766672920714
 10
1024.130538941087
 20
4152.046042740518
 42
0.1690711442694003
 10
966.0747752128109
 20
4280.525364933228
 42
-0.1760312033513765
 10
896.0465593530853
 20
4438.333881120552
  0
LWPOLYLINE
  5
176
330
1F
100
AcDbEntity
  8
0
 62
     0
100
AcDbPolyline
 90
       11
 70
     0
 43
0.0
 10
1216.582522866333
 20
2897.109237701572
 42
0.0709028714938529
 10
1192.918711883382
 20
3156.84038800782
 42
-0.0282973285975839
 10
1180.409177556651
 20
3283.768610032459
 42
0.041009857713155
 10
1150.451885160018
 20
3422.280445807177
 42
0.0548450674221671
 10
1136.195611844555
 20
3556.944732770973
 42
-0.0636840509918789
 10
1091.454533422034
 20
3799.340465022173
 42
0.063423810944562
 10
1006.721962366387
 20
3967.514891220496
 42
0.0360606890278422
 10
897.724504835979
 20
4176.860056860255
 10
897.724504835979
 20
3385.629836894687
 42
0.0347313790659904
 10
1059.858928816177
 20
3150.485136452719
 42
-0.0857733087997861
 10
1216.582522866333
 20
2897.109237701572
  0
LWPOLYLINE
  5
177
330
1F
100
AcDbEntity
  8
0
 62
     0
100
AcDbPolyline
 90
       37
 70
     1
 43
0.0
 10
1405.941191266424
 20
1753.233878098685
 42
-0.1147243597149393
 10
1363.871559764392
 20
1971.129923473068
 42
0.0154326539659869
 10
1301.915510166104
 20
2280.606966066312
 42
-0.0115709717693594
 10
1247.488883217814
 20
2654.267863170346
 42
0.0950734557386588
 10
1169.543048212322
 20
2786.640325124145
 42
0.0766134837003443
 10
899.8790763702881
 20
3229.124442874704
 10
899.8790763702881
 20
475.9797688991039
 10
1406.147818208689
 20
475.9797688991039
 42
0.0264851962390811
 10
1289.72140131357
 20
617.3632983651422
 42
-0.0287569004120566
 10
1011.922474244394
 20
895.1622254343492
 10
1032.824085413903
 20
916.0638366038821
 42
-0.0050870019872341
 10
1117.158296759723
 20
810.3862247641954
 42
-0.0227300911916957
 10
1187.488214133033
 20
740.5102684331886
 42
0.6002485923884721
 10
1187.488214133033
 20
778.5023998245305
 42
0.0617307633457723
 10
1167.827974771632
 20
847.9363448040931
 42
-0.129598058081055
 10
1140.303631451405
 20
998.5948591966971
 10
1146.937378958467
 20
995.1786459448758
 42
0.0253990194666824
 10
1154.70870409343
 20
911.5318446039546
 42
0.0155561775486872
 10
1180.151181835931
 20
846.4993868821457
 42
0.0751709520667945
 10
1211.005654032359
 20
767.6494397506285
 42
0.080484768313542
 10
1231.671633914829
 20
712.8031863696051
 42
-0.0475359566911415
 10
1345.688071683648
 20
583.1400553921812
 42
-0.1070115868758176
 10
1435.232084259815
 20
487.0674246076123
 42
0.1524499989713802
 10
1446.3197399683
 20
475.9797688991039
 10
1682.862282455916
 20
475.9797688991039
 42
0.0238646748180486
 10
1667.443131930677
 20
563.2072814156363
 42
0.0156673658847159
 10
1589.787009994284
 20
930.0794570027555
 42
-0.0593309476662429
 10
1538.168511306069
 20
1121.282806714329
 42
-0.1103336178185886
 10
1380.009694835538
 20
1440.787883726367
 42
-0.0165197470925929
 10
1260.045443553029
 20
1793.459776041845
 10
1276.255616719386
 20
1793.459776041845
 42
0.021771843910143
 10
1314.043252918362
 20
1664.654601273974
 42
0.053237615171402
 10
1377.992422817874
 20
1497.141362431137
 42
0.1901215879370722
 10
1377.992422817874
 20
1538.284964953918
 42
0.0945341687778343
 10
1377.992422817874
 20
1633.796912478836
 42
-0.080083927726459
 10
1384.239494387194
 20
1698.081730948547
 42
-0.3001946927948185
 10
1405.941191266424
 20
1739.594747537472
  0
LWPOLYLINE
  5
178
330
1F
100
AcDbEntity
  8
0
 62
     0
100
AcDbPolyline
 90
        9
 70
     1
 43
0.0
 10
1459.223631227057
 20
1702.545912202142
 42
-0.0264134065786567
 10
1479.299013727362
 20
1574.852512892483
 42
-1.373085903189917
 10
1479.299013727362
 20
1574.852512892483
 42
-0.0170397668060415
 10
1573.736479747534
 20
1216.441528999998
 42
-0.1649581955808223
 10
1518.841972701909
 20
1285.99070110803
 42
-0.0809430741188258
 10
1485.886433428753
 20
1355.084963113748
 42
-0.0542839541428554
 10
1465.791542322159
 20
1411.324445805083
 42
-0.0960739864109637
 10
1450.519466151966
 20
1492.470014304394
 42
0.0042818872880794
 10
1444.441600194917
 20
1611.555684842343
 42
-0.1533760748440791
  0
LWPOLYLINE
  5
179
330
1F
100
AcDbEntity
  8
0
 62
     0
100
AcDbPolyline
 90
        4
 70
     1
 43
0.0
 10
724.7802043045112
 20
6326.732839494511
 10
4951.723046019108
 20
6326.732839494511
 10
4951.723046019108
 20
326.7464409143248
 10
724.7802043045112
 20
326.7464409143248
  0
LWPOLYLINE
  5
181
330
1F
100
AcDbEntity
  8
0
 62
     0
100
AcDbPolyline
 90
      127
 70
     1
 43
0.0
 10
3942.65720095586
 20
6169.580780967266
 10
3034.224991376995
 20
6169.580780967266
 42
0.134231134255609
 10
3074.609202519543
 20
6044.762663918289
 42
-0.0462841742402241
 10
3112.617840423266
 20
5966.406173433286
 42
-0.0297339894879226
 10
3155.377583734069
 20
5840.560913536258
 42
0.0276566715847495
 10
3184.732027508452
 20
5846.839575497275
 42
-0.0112389502170922
 10
3179.170526222984
 20
5954.53398108028
 42
-0.1330032020285085
 10
3217.885170315643
 20
6104.123625683327
 42
-0.1449854593301881
 10
3262.276900940359
 20
5992.525012326264
 42
0.1606572251210877
 10
3303.185010567442
 20
5840.01820135742
 42
0.3092381191669086
 10
3353.862783731444
 20
5863.711324528895
 42
0.2300673026401628
 10
3408.627425066271
 20
5948.679714762683
 42
0.0375971324072637
 10
3450.755664528248
 20
6062.828779368809
 42
-0.3941133316193765
 10
3482.324014275702
 20
6107.972161904918
 42
-0.0537610972597181
 10
3482.324014275702
 20
5964.926320773614
 42
0.0424460802007536
 10
3482.324014275702
 20
5878.164903170461
 42
-0.0714812037826382
 10
3482.324014275702
 20
5757.224719899216
 42
0.1441086749434353
 10
3441.217763232317
 20
5639.420396173029
 42
-0.1388933457168358
 10
3405.053366277501
 20
5532.268570321576
 42
0.1375307464502343
 10
3405.053366277501
 20
5489.666044094696
 42
0.1784027458785285
 10
3424.351184679504
 20
5536.219301619961
 42
-0.4096927183928811
 10
3442.966268263367
 20
5542.713795573535
 42
-0.1681116061886469
 10
3414.221466542239
 20
5460.859078620249
 42
-0.2074740909993133
 10
3410.661536091432
 20
5417.119028295172
 42
-0.0032867758964346
 10
3360.055390315031
 20
5303.530461551056
 42
-0.3620335981323064
 10
3326.900037041767
 20
5270.375108277838
 42
0.788779317926974
 10
3349.846166860038
 20
5247.428978459622
 42
0.0632315875694614
 10
3232.499539498606
 20
5108.46054623037
 42
0.550570351303721
 10
3296.277444371506
 20
5141.609680626398
 42
0.1061979586383025
 10
3390.668787939608
 20
5252.04342341513
 42
0.1239372479597436
 10
3432.762199405715
 20
5368.553766657955
 42
0.1698583836329605
 10
3487.611200060655
 20
5503.700257806324
 42
0.0820792562297894
 10
3537.357981468277
 20
5635.021831705278
 42
0.1577339556550534
 10
3589.013361689769
 20
5737.019188457604
 42
0.2391312548547445
 10
3608.789256282634
 20
5807.142348305173
 42
-0.3174794021581447
 10
3653.433818443172
 20
5807.142348305173
 42
0.0111998436676767
 10
3601.135927411861
 20
5628.647013279473
 42
-0.04898603819015
 10
3534.806871844764
 20
5452.701579430153
 42
0.0167868952130331
 10
3468.477857348294
 20
5306.080388921375
 42
0.0131208191411295
 10
3423.572432566102
 20
5188.572769071761
 42
-0.1463215376453042
 10
3383.373472794791
 20
5133.36516517788
 42
0.0147022755872593
 10
3285.590999557538
 20
5054.251277007129
 42
-0.1370972418771432
 10
3190.331748904678
 20
5009.735126525342
 42
0.1553808383387159
 10
3141.342065698717
 20
4984.667293156939
 42
0.0020705500715539
 10
3115.629662744253
 20
4958.954890202451
 42
0.0272919935907059
 10
3157.12357587078
 20
4948.919039177074
 42
-0.0050907251208597
 10
3234.821227913857
 20
4941.618631796604
 42
0.0295804945975458
 10
3295.910354009789
 20
4955.052008983384
 42
0.1322901129616332
 10
3368.606402564113
 20
4982.529370220273
 42
-0.1037936429541949
 10
3392.431133813359
 20
5029.546177277059
 42
0.0807505943777522
 10
3392.431133813533
 20
5078.394804923658
 42
0.3414029033887878
 10
3417.19096389403
 20
5075.169938381089
 42
0.1956891008202072
 10
3436.68876844006
 20
5085.064226558015
 42
0.1547825218378689
 10
3444.282791148074
 20
5120.442464985097
 42
-0.283868597897284
 10
3456.726078355353
 20
5156.247428838378
 42
0.0905373457077092
 10
3491.118477810308
 20
5216.771663341592
 42
0.0728176022228699
 10
3546.28934993131
 20
5335.448166585066
 42
0.1240590591074086
 10
3576.292994329433
 20
5365.451810983255
 42
-1.404894576655587
 10
3598.997767674391
 20
5363.477444527134
 42
0.0213858388950915
 10
3563.279497706931
 20
5243.83403403601
 42
-0.0164990982167554
 10
3526.877013615583
 20
5123.761551118849
 42
-0.0190134367855556
 10
3459.517164370004
 20
4988.617207873293
 42
0.1260794876798675
 10
3407.687689971313
 20
4936.787733474506
 42
0.2059491876276928
 10
3337.076223662606
 20
4905.667951072294
 42
0.06254891254549
 10
3380.267374129285
 20
4896.091185798589
 42
0.17363088513889
 10
3382.150853684481
 20
4884.267308162215
 42
-0.1014233661853294
 10
3289.482740595954
 20
4882.279489581009
 42
0.0108790973080303
 10
3183.531952356122
 20
4882.279489581009
 42
-0.1318759139721139
 10
3088.080778089486
 20
4872.156083037931
 42
-0.0371742397161505
 10
2970.289621249383
 20
4820.513321947071
 42
0.0230319003900558
 10
3059.985469205614
 20
4787.385168894508
 42
-0.1944133142032379
 10
3136.54257894833
 20
4787.385168894508
 42
-0.0016668394045654
 10
3213.914162730117
 20
4792.676553701848
 42
-0.0880447247337013
 10
3059.628400106932
 20
4743.882880934765
 42
-0.0350846295564407
 10
2994.845174765115
 20
4739.957064259077
 42
0.00961552361443
 10
2994.845174765115
 20
4682.855906200432
 42
-0.2010692430839215
 10
2937.51779144003
 20
4585.710923872804
 42
-0.0560221448328469
 10
2828.514457316621
 20
4476.707589749411
 42
-0.2800153139441952
 10
2743.137653955509
 20
4441.238867305694
 42
0.2554284511509856
 10
2640.96348544241
 20
4393.911845454083
 42
-0.0939163958928557
 10
2592.36845107128
 20
4306.730434266514
 42
-0.1853276870613452
 10
2558.71052841518
 20
4273.072511610458
 42
0.0981931607077805
 10
2558.71052841518
 20
4199.651794274787
 42
0.1597480587693643
 10
2533.890069327684
 20
4115.036891219606
 42
0.1292011005877333
 10
2509.278751078312
 20
4016.63732408973
 42
-0.1258498822283147
 10
2509.278751078312
 20
3913.317775983973
 42
-0.0862635894028073
 10
2509.278751078312
 20
3751.553556220226
 42
0.094010601113015
 10
2540.302075856616
 20
3685.359513103139
 42
0.0241905919204882
 10
2566.637708465412
 20
3642.318552760249
 42
-0.2475783796874574
 10
2556.385231079901
 20
3632.066075374762
 42
0.8748110132724768
 10
2527.721487319347
 20
3641.376068380473
 42
0.1760566240848727
 10
2550.911266590253
 20
3585.869597155443
 42
0.0669636711841545
 10
2593.972263850871
 20
3514.58295501823
 42
-0.0926752729358972
 10
2657.218056089262
 20
3474.232007220264
 42
-0.1951619209079327
 10
2669.983546113089
 20
3465.815771040639
 42
0.2228400568563012
 10
2685.666558143235
 20
3470.036629776564
 42
-0.3962868796746786
 10
2739.547249008337
 20
3448.471920487204
 42
-0.3496007132190934
 10
2738.048425020202
 20
3434.670382508517
 42
0.4641665561590314
 10
2768.881801893719
 20
3429.123145419284
 42
-0.0836804605893848
 10
2798.35473066995
 20
3434.670382508517
 42
0.6515969179351665
 10
2812.300321794365
 20
3419.667238978024
 42
0.2020000638450099
 10
2846.939719916921
 20
3425.000485652903
 42
0.2380760703354469
 10
2878.967248388991
 20
3435.183814874523
 42
-0.0465908333589899
 10
2929.845611095096
 20
3424.716796267056
 42
0.0085872370712729
 10
3016.241136809887
 20
3435.183814874523
 42
-0.0869388604862372
 10
3166.112163466768
 20
3460.764027842819
 42
0.0851925782991084
 10
3284.388776569528
 20
3460.764027842819
 42
0.0192120626828193
 10
3355.678809075226
 20
3460.764027842819
 42
0.1672804864303123
 10
3382.412581532629
 20
3460.764027842819
 42
0.4081490966793085
 10
3396.586936551047
 20
3446.589672824332
 42
0.4348866368683579
 10
3421.159876871348
 20
3430.78692681873
 42
0.0663104676484613
 10
3440.557099151094
 20
3430.78692681873
 42
0.3563123551539744
 10
3441.414519491429
 20
3422.610000980859
 42
0.2645332509164118
 10
3465.040235590381
 20
3417.133337204339
 42
-0.0168961020652301
 10
3499.112611762848
 20
3417.133337204339
 42
0.5967348943614838
 10
3535.427122308192
 20
3407.625881087703
 42
0.0720751455636239
 10
3586.931855019316
 20
3590.148743464828
 42
-0.0185105784270559
 10
3407.44577852388
 20
3933.354146980997
 42
-0.0303223155431214
 10
3281.025123231887
 20
4434.122053229033
 42
0.3493637057291931
 10
3320.043855156068
 20
4434.122053229033
 42
0.0332216948024964
 10
3427.735509267443
 20
4050.355993256
 42
0.0001071480121483
 10
3593.174814342131
 20
3675.950100892356
 42
-0.0037136797798107
 10
3643.118776419566
 20
3908.393761141802
 42
-0.0053022907798606
 10
3684.951922544295
 20
4329.009215814538
 42
-0.035396849085546
 10
3725.686918960902
 20
4561.255819076614
 42
-0.0082811330955463
 10
3816.804677345807
 20
5305.292815820301
 42
0.0797668128752128
 10
3867.674209840672
 20
5707.448879273747
 42
0.0056999692362648
  0
ENDSEC
  0
SECTION
  2
OBJECTS
  0
DICTIONARY
  5
C
330
0
100
AcDbDictionary
281
     1
  3
ACAD_COLOR
350
6B
  3
ACAD_GROUP
350
D
  3
ACAD_LAYOUT
350
1A
  3
ACAD_MATERIAL
350
6A
  3
ACAD_MLINESTYLE
350
17
  3
ACAD_PLOTSETTINGS
350
19
  3
ACAD_PLOTSTYLENAME
350
E
  3
ACAD_TABLESTYLE
350
7E
  3
ACAD_VISUALSTYLE
350
EF
  3
AcDbVariableDictionary
350
5E
  0
DICTIONARY
  5
110
330
2
100
AcDbDictionary
280
     1
281
     1
  3
ACAD_LAYERSTATES
360
111
  0
DICTIONARY
  5
6B
102
{ACAD_REACTORS
330
C
102
}
330
C
100
AcDbDictionary
281
     1
  0
DICTIONARY
  5
D
102
{ACAD_REACTORS
330
C
102
}
330
C
100
AcDbDictionary
281
     1
  0
DICTIONARY
  5
1A
102
{ACAD_REACTORS
330
C
102
}
330
C
100
AcDbDictionary
281
     1
  3
Layout1
350
D3
  3
Layout2
350
D7
  3
Model
350
22
  0
DICTIONARY
  5
6A
102
{ACAD_REACTORS
330
C
102
}
330
C
100
AcDbDictionary
281
     1
  3
ByBlock
350
ED
  3
ByLayer
350
EC
  3
Global
350
EE
  0
DICTIONARY
  5
17
102
{ACAD_REACTORS
330
C
102
}
330
C
100
AcDbDictionary
281
     1
  3
Standard
350
18
  0
DICTIONARY
  5
19
102
{ACAD_REACTORS
330
C
102
}
330
C
100
AcDbDictionary
281
     1
  0
ACDBDICTIONARYWDFLT
  5
E
102
{ACAD_REACTORS
330
C
102
}
330
C
100
AcDbDictionary
281
     1
  3
Normal
350
F
100
AcDbDictionaryWithDefault
340
F
  0
DICTIONARY
  5
7E
102
{ACAD_REACTORS
330
C
102
}
330
C
100
AcDbDictionary
281
     1
  3
Standard
350
7F
  0
DICTIONARY
  5
EF
102
{ACAD_REACTORS
330
C
102
}
330
C
100
AcDbDictionary
281
     1
  3
2dWireframe
350
F5
  3
3D Hidden
350
F7
  3
3dWireframe
350
F6
  3
Basic
350
F4
  3
Brighten
350
FB
  3
ColorChange
350
FF
  3
Conceptual
350
F8
  3
Dim
350
FA
  3
Facepattern
350
FE
  3
Flat
350
F0
  3
FlatWithEdges
350
F1
  3
Gouraud
350
F2
  3
GouraudWithEdges
350
F3
  3
Linepattern
350
FD
  3
Realistic
350
F9
  3
Thicken
350
FC
  0
DICTIONARY
  5
5E
102
{ACAD_REACTORS
330
C
102
}
330
C
100
AcDbDictionary
281
     1
  3
CTABLESTYLE
350
84
  3
DIMASSOC
350
5F
  3
HIDETEXT
350
63
  0
DICTIONARY
  5
111
102
{ACAD_REACTORS
330
110
102
}
330
110
100
AcDbDictionary
281
     1
  0
LAYOUT
  5
D3
102
{ACAD_REACTORS
330
1A
102
}
330
1A
100
AcDbPlotSettings
  1

  2
C:\Documents and Settings\basas\Application Data\Autodesk\AutoCAD 2005\R16.1\enu\plotters\Default Windows System Printer.pc3
  4

  6

 40
0.0
 41
0.0
 42
0.0
 43
0.0
 44
0.0
 45
0.0
 46
0.0
 47
0.0
 48
0.0
 49
0.0
140
0.0
141
0.0
142
1.0
143
1.0
 70
   688
 72
     0
 73
     0
 74
     5
  7

 75
    16
147
1.0
 76
     0
 77
     2
 78
   300
148
0.0
149
0.0
100
AcDbLayout
  1
Layout1
 70
     1
 71
     1
 10
0.0
 20
0.0
 11
12.0
 21
9.0
 12
0.0
 22
0.0
 32
0.0
 14
0.0
 24
0.0
 34
0.0
 15
0.0
 25
0.0
 35
0.0
146
0.0
 13
0.0
 23
0.0
 33
0.0
 16
1.0
 26
0.0
 36
0.0
 17
0.0
 27
1.0
 37
0.0
 76
     0
330
D2
  0
LAYOUT
  5
D7
102
{ACAD_REACTORS
330
1A
102
}
330
1A
100
AcDbPlotSettings
  1

  2
C:\Documents and Settings\basas\Application Data\Autodesk\AutoCAD 2005\R16.1\enu\plotters\Default Windows System Printer.pc3
  4

  6

 40
0.0
 41
0.0
 42
0.0
 43
0.0
 44
0.0
 45
0.0
 46
0.0
 47
0.0
 48
0.0
 49
0.0
140
0.0
141
0.0
142
1.0
143
1.0
 70
   688
 72
     0
 73
     0
 74
     5
  7

 75
    16
147
1.0
 76
     0
 77
     2
 78
   300
148
0.0
149
0.0
100
AcDbLayout
  1
Layout2
 70
     1
 71
     2
 10
0.0
 20
0.0
 11
12.0
 21
9.0
 12
0.0
 22
0.0
 32
0.0
 14
0.0
 24
0.0
 34
0.0
 15
0.0
 25
0.0
 35
0.0
146
0.0
 13
0.0
 23
0.0
 33
0.0
 16
1.0
 26
0.0
 36
0.0
 17
0.0
 27
1.0
 37
0.0
 76
     0
330
D6
  0
LAYOUT
  5
22
102
{ACAD_REACTORS
330
1A
102
}
330
1A
100
AcDbPlotSettings
  1

  2
none_device
  4
ISO_A4_(210.00_x_297.00_MM)
  6

 40
7.5
 41
20.0
 42
7.5
 43
20.0
 44
210.0
 45
297.0
 46
11.54999923706054
 47
-13.65000009536743
 48
0.0
 49
0.0
140
0.0
141
0.0
142
1.0
143
8.704084754739808
 70
 11952
 72
     1
 73
     0
 74
     0
  7

 75
     0
147
0.1148885871608098
 76
     0
 77
     2
 78
   300
148
0.0
149
0.0
100
AcDbLayout
  1
Model
 70
     1
 71
     0
 10
0.0
 20
0.0
 11
12.0
 21
9.0
 12
0.0
 22
0.0
 32
0.0
 14
0.0
 24
0.0
 34
0.0
 15
0.0
 25
0.0
 35
0.0
146
0.0
 13
0.0
 23
0.0
 33
0.0
 16
1.0
 26
0.0
 36
0.0
 17
0.0
 27
1.0
 37
0.0
 76
     0
330
1F
331
EA
1001
ACAD_PSEXT
1000
None
1000
None
1000
Not applicable
1000
The layout will not be plotted unless a new plotter configuration name is selected.
1070
     0
  0
MATERIAL
  5
ED
102
{ACAD_REACTORS
330
6A
102
}
330
6A
100
AcDbMaterial
  1
ByBlock
  0
MATERIAL
  5
EC
102
{ACAD_REACTORS
330
6A
102
}
330
6A
100
AcDbMaterial
  1
ByLayer
  0
MATERIAL
  5
EE
102
{ACAD_REACTORS
330
6A
102
}
330
6A
100
AcDbMaterial
  1
Global
  0
MLINESTYLE
  5
18
102
{ACAD_REACTORS
330
17
102
}
330
17
100
AcDbMlineStyle
  2
STANDARD
 70
     0
  3

 62
   256
 51
90.0
 52
90.0
 71
     2
 49
0.5
 62
   256
  6
BYLAYER
 49
-0.5
 62
   256
  6
BYLAYER
  0
ACDBPLACEHOLDER
  5
F
102
{ACAD_REACTORS
330
E
102
}
330
E
  0
TABLESTYLE
  5
7F
102
{ACAD_REACTORS
330
7E
102
}
330
7E
100
AcDbTableStyle
  3
Standard
 70
     0
 71
     0
 40
1.5
 41
1.5
280
     0
281
     0
  7
Standard
140
4.5
170
     2
 62
     0
 63
     7
283
     0
 90
      512
 91
        0
  1

274
    -2
284
     1
 64
     0
275
    -2
285
     1
 65
     0
276
    -2
286
     1
 66
     0
277
    -2
287
     1
 67
     0
278
    -2
288
     1
 68
     0
279
    -2
289
     1
 69
     0
  7
Standard
140
6.0
170
     5
 62
     0
 63
     7
283
     0
 90
      512
 91
        0
  1

274
    -2
284
     1
 64
     0
275
    -2
285
     1
 65
     0
276
    -2
286
     1
 66
     0
277
    -2
287
     1
 67
     0
278
    -2
288
     1
 68
     0
279
    -2
289
     1
 69
     0
  7
Standard
140
4.5
170
     5
 62
     0
 63
     7
283
     0
 90
      512
 91
        0
  1

274
    -2
284
     1
 64
     0
275
    -2
285
     1
 65
     0
276
    -2
286
     1
 66
     0
277
    -2
287
     1
 67
     0
278
    -2
288
     1
 68
     0
279
    -2
289
     1
 69
     0
  0
VISUALSTYLE
  5
F5
102
{ACAD_REACTORS
330
EF
102
}
330
EF
100
AcDbVisualStyle
  2
2dWireframe
 70
     4
 71
     0
 72
     2
 73
     1
 90
        0
 40
-0.6
 41
-30.0
 62
     5
 63
     7
421
 16777215
 74
     1
 91
        4
 64
     7
 65
   257
 75
     1
175
     1
 42
1.0
 92
        0
 66
   257
 43
1.0
 76
     1
 77
     6
 78
     2
 67
     7
 79
     5
170
     0
171
     0
290
     0
174
     0
 93
        1
 44
0.0
173
     0
291
     0
 45
0.0
  0
VISUALSTYLE
  5
F7
102
{ACAD_REACTORS
330
EF
102
}
330
EF
100
AcDbVisualStyle
  2
3D Hidden
 70
     6
 71
     1
 72
     2
 73
     2
 90
        0
 40
-0.6
 41
-30.0
 62
     5
 63
     7
421
 16777215
 74
     2
 91
        2
 64
     7
 65
   257
 75
     2
175
     1
 42
40.0
 92
        0
 66
   257
 43
1.0
 76
     1
 77
     6
 78
     2
 67
     7
 79
     3
170
     0
171
     0
290
     0
174
     0
 93
        1
 44
0.0
173
     0
291
     0
 45
0.0
  0
VISUALSTYLE
  5
F6
102
{ACAD_REACTORS
330
EF
102
}
330
EF
100
AcDbVisualStyle
  2
3dWireframe
 70
     5
 71
     0
 72
     2
 73
     1
 90
        0
 40
-0.6
 41
-30.0
 62
     5
 63
     7
421
 16777215
 74
     1
 91
        4
 64
     7
 65
   257
 75
     1
175
     1
 42
1.0
 92
        0
 66
   257
 43
1.0
 76
     1
 77
     6
 78
     2
 67
     7
 79
     5
170
     0
171
     0
290
     0
174
     0
 93
        1
 44
0.0
173
     0
291
     0
 45
0.0
  0
VISUALSTYLE
  5
F4
102
{ACAD_REACTORS
330
EF
102
}
330
EF
100
AcDbVisualStyle
  2
Basic
 70
     7
 71
     1
 72
     0
 73
     1
 90
        0
 40
-0.6
 41
-30.0
 62
     5
 63
     7
421
 16777215
 74
     0
 91
        4
 64
     7
 65
   257
 75
     1
175
     1
 42
1.0
 92
        8
 66
     7
 43
1.0
 76
     1
 77
     6
 78
     2
 67
     7
 79
     5
170
     0
171
     0
290
     0
174
     0
 93
        1
 44
0.0
173
     0
291
     1
 45
0.0
  0
VISUALSTYLE
  5
FB
102
{ACAD_REACTORS
330
EF
102
}
330
EF
100
AcDbVisualStyle
  2
Brighten
 70
    12
 71
     2
 72
     2
 73
     1
 90
        0
 40
-0.6
 41
-30.0
 62
     5
 63
     7
421
 16777215
 74
     1
 91
        4
 64
     7
 65
   257
 75
     1
175
     1
 42
1.0
 92
        8
 66
     7
 43
1.0
 76
     1
 77
     6
 78
     2
 67
     7
 79
     5
170
     0
171
     0
290
     0
174
     0
 93
        1
 44
50.0
173
     0
291
     1
 45
0.0
  0
VISUALSTYLE
  5
FF
102
{ACAD_REACTORS
330
EF
102
}
330
EF
100
AcDbVisualStyle
  2
ColorChange
 70
    16
 71
     2
 72
     2
 73
     3
 90
        0
 40
-0.6
 41
-30.0
 62
     5
 63
     8
421
  8421504
 74
     1
 91
        4
 64
     7
 65
   257
 75
     1
175
     1
 42
1.0
 92
        8
 66
     8
424
  8421504
 43
1.0
 76
     1
 77
     6
 78
     2
 67
     7
 79
     5
170
     0
171
     0
290
     0
174
     0
 93
        1
 44
0.0
173
     0
291
     1
 45
0.0
  0
VISUALSTYLE
  5
F8
102
{ACAD_REACTORS
330
EF
102
}
330
EF
100
AcDbVisualStyle
  2
Conceptual
 70
     9
 71
     3
 72
     2
 73
     1
 90
        0
 40
-0.6
 41
-30.0
 62
     5
 63
     7
421
 16777215
 74
     2
 91
        2
 64
     7
 65
   257
 75
     1
175
     1
 42
40.0
 92
        8
 66
     7
 43
1.0
 76
     1
 77
     6
 78
     2
 67
     7
 79
     3
170
     0
171
     0
290
     0
174
     0
 93
        1
 44
0.0
173
     0
291
     0
 45
0.0
  0
VISUALSTYLE
  5
FA
102
{ACAD_REACTORS
330
EF
102
}
330
EF
100
AcDbVisualStyle
  2
Dim
 70
    11
 71
     2
 72
     2
 73
     1
 90
        0
 40
-0.6
 41
-30.0
 62
     5
 63
     7
421
 16777215
 74
     1
 91
        4
 64
     7
 65
   257
 75
     1
175
     1
 42
1.0
 92
        8
 66
     7
 43
1.0
 76
     1
 77
     6
 78
     2
 67
     7
 79
     5
170
     0
171
     0
290
     0
174
     0
 93
        1
 44
-50.0
173
     0
291
     1
 45
0.0
  0
VISUALSTYLE
  5
FE
102
{ACAD_REACTORS
330
EF
102
}
330
EF
100
AcDbVisualStyle
  2
Facepattern
 70
    15
 71
     2
 72
     2
 73
     1
 90
        0
 40
-0.6
 41
-30.0
 62
     5
 63
     7
421
 16777215
 74
     1
 91
        4
 64
     7
 65
   257
 75
     1
175
     1
 42
1.0
 92
        8
 66
     7
 43
1.0
 76
     1
 77
     6
 78
     2
 67
     7
 79
     5
170
     0
171
     0
290
     0
174
     0
 93
        1
 44
0.0
173
     0
291
     1
 45
0.0
  0
VISUALSTYLE
  5
F0
102
{ACAD_REACTORS
330
EF
102
}
330
EF
100
AcDbVisualStyle
  2
Flat
 70
     0
 71
     2
 72
     1
 73
     1
 90
        2
 40
-0.6
 41
30.0
 62
     5
 63
     7
421
 16777215
 74
     0
 91
        4
 64
     7
 65
   257
 75
     1
175
     1
 42
1.0
 92
        8
 66
     7
 43
1.0
 76
     1
 77
     6
 78
     2
 67
     7
 79
     5
170
     0
171
     0
290
     0
174
     0
 93
        1
 44
0.0
173
     0
291
     1
 45
0.0
  0
VISUALSTYLE
  5
F1
102
{ACAD_REACTORS
330
EF
102
}
330
EF
100
AcDbVisualStyle
  2
FlatWithEdges
 70
     1
 71
     2
 72
     1
 73
     1
 90
        2
 40
-0.6
 41
30.0
 62
     5
 63
     7
421
 16777215
 74
     1
 91
        4
 64
     7
 65
   257
 75
     1
175
     1
 42
1.0
 92
        0
 66
   257
 43
1.0
 76
     1
 77
     6
 78
     2
 67
     7
 79
     5
170
     0
171
     0
290
     0
174
     0
 93
        1
 44
0.0
173
     0
291
     1
 45
0.0
  0
VISUALSTYLE
  5
F2
102
{ACAD_REACTORS
330
EF
102
}
330
EF
100
AcDbVisualStyle
  2
Gouraud
 70
     2
 71
     2
 72
     2
 73
     1
 90
        2
 40
-0.6
 41
30.0
 62
     5
 63
     7
421
 16777215
 74
     0
 91
        4
 64
     7
 65
   257
 75
     1
175
     1
 42
1.0
 92
        0
 66
     7
 43
1.0
 76
     1
 77
     6
 78
     2
 67
     7
 79
     5
170
     0
171
     0
290
     0
174
     0
 93
        1
 44
0.0
173
     0
291
     1
 45
0.0
  0
VISUALSTYLE
  5
F3
102
{ACAD_REACTORS
330
EF
102
}
330
EF
100
AcDbVisualStyle
  2
GouraudWithEdges
 70
     3
 71
     2
 72
     2
 73
     1
 90
        2
 40
-0.6
 41
30.0
 62
     5
 63
     7
421
 16777215
 74
     1
 91
        4
 64
     7
 65
   257
 75
     1
175
     1
 42
1.0
 92
        0
 66
   257
 43
1.0
 76
     1
 77
     6
 78
     2
 67
     7
 79
     5
170
     0
171
     0
290
     0
174
     0
 93
        1
 44
0.0
173
     0
291
     1
 45
0.0
  0
VISUALSTYLE
  5
FD
102
{ACAD_REACTORS
330
EF
102
}
330
EF
100
AcDbVisualStyle
  2
Linepattern
 70
    14
 71
     2
 72
     2
 73
     1
 90
        0
 40
-0.6
 41
-30.0
 62
     5
 63
     7
421
 16777215
 74
     1
 91
        4
 64
     7
 65
   257
 75
     7
175
     7
 42
1.0
 92
        8
 66
     7
 43
1.0
 76
     1
 77
     6
 78
     2
 67
     7
 79
     5
170
     0
171
     0
290
     0
174
     0
 93
        1
 44
0.0
173
     0
291
     1
 45
0.0
  0
VISUALSTYLE
  5
F9
102
{ACAD_REACTORS
330
EF
102
}
330
EF
100
AcDbVisualStyle
  2
Realistic
 70
     8
 71
     2
 72
     2
 73
     1
 90
        0
 40
-0.6
 41
-30.0
 62
     5
 63
     7
421
 16777215
 74
     1
 91
        0
 64
     7
 65
   257
 75
     1
175
     1
 42
1.0
 92
        8
 66
     8
424
  7895160
 43
1.0
 76
     1
 77
     6
 78
     2
 67
     7
 79
     5
170
     0
171
     0
290
     0
174
     0
 93
       13
 44
0.0
173
     0
291
     0
 45
0.0
  0
VISUALSTYLE
  5
FC
102
{ACAD_REACTORS
330
EF
102
}
330
EF
100
AcDbVisualStyle
  2
Thicken
 70
    13
 71
     2
 72
     2
 73
     1
 90
        0
 40
-0.6
 41
-30.0
 62
     5
 63
     7
421
 16777215
 74
     1
 91
        4
 64
     7
 65
   257
 75
     1
175
     1
 42
1.0
 92
       12
 66
     7
 43
1.0
 76
     1
 77
     6
 78
     2
 67
     7
 79
     5
170
     0
171
     0
290
     0
174
     0
 93
        1
 44
0.0
173
     0
291
     1
 45
0.0
  0
DICTIONARYVAR
  5
84
102
{ACAD_REACTORS
330
5E
102
}
330
5E
100
DictionaryVariables
280
     0
  1
STANDARD
  0
DICTIONARYVAR
  5
5F
102
{ACAD_REACTORS
330
5E
102
}
330
5E
100
DictionaryVariables
280
     0
  1
2
  0
DICTIONARYVAR
  5
63
102
{ACAD_REACTORS
330
5E
102
}
330
5E
100
DictionaryVariables
280
     0
  1
1
  0
ENDSEC
  0
EOF
