  0
SECTION
  2
HEADER
  9
$ACADVER
  1
AC1021
  9
$ACADMAINTVER
 70
     1
  9
$DWGCODEPAGE
  3
ANSI_1254
  9
$LASTSAVEDBY
  1
uretim
  9
$INSBASE
 10
0.0
 20
0.0
 30
0.0
  9
$EXTMIN
 10
648.0548822914561
 20
611.7093918393274
 30
-0.0015258207003583
  9
$EXTMAX
 10
3609.128175930566
 20
6612.272663711499
 30
0.0000000349246037
  9
$LIMMIN
 10
0.0
 20
0.0
  9
$LIMMAX
 10
420.0
 20
297.0
  9
$ORTHOMODE
 70
     0
  9
$REGENMODE
 70
     1
  9
$FILLMODE
 70
     1
  9
$QTEXTMODE
 70
     0
  9
$MIRRTEXT
 70
     0
  9
$LTSCALE
 40
1.0
  9
$ATTMODE
 70
     1
  9
$TEXTSIZE
 40
2.5
  9
$TRACEWID
 40
1.0
  9
$TEXTSTYLE
  7
Standard
  9
$CLAYER
  8
0
  9
$CELTYPE
  6
ByLayer
  9
$CECOLOR
 62
   256
  9
$CELTSCALE
 40
1.0
  9
$DISPSILH
 70
     0
  9
$DIMSCALE
 40
1.0
  9
$DIMASZ
 40
2.5
  9
$DIMEXO
 40
0.625
  9
$DIMDLI
 40
3.75
  9
$DIMRND
 40
0.0
  9
$DIMDLE
 40
0.0
  9
$DIMEXE
 40
1.25
  9
$DIMTP
 40
0.0
  9
$DIMTM
 40
0.0
  9
$DIMTXT
 40
2.5
  9
$DIMCEN
 40
2.5
  9
$DIMTSZ
 40
0.0
  9
$DIMTOL
 70
     0
  9
$DIMLIM
 70
     0
  9
$DIMTIH
 70
     0
  9
$DIMTOH
 70
     0
  9
$DIMSE1
 70
     0
  9
$DIMSE2
 70
     0
  9
$DIMTAD
 70
     1
  9
$DIMZIN
 70
     8
  9
$DIMBLK
  1

  9
$DIMASO
 70
     1
  9
$DIMSHO
 70
     1
  9
$DIMPOST
  1

  9
$DIMAPOST
  1

  9
$DIMALT
 70
     0
  9
$DIMALTD
 70
     3
  9
$DIMALTF
 40
0.03937007874016
  9
$DIMLFAC
 40
1.0
  9
$DIMTOFL
 70
     1
  9
$DIMTVP
 40
0.0
  9
$DIMTIX
 70
     0
  9
$DIMSOXD
 70
     0
  9
$DIMSAH
 70
     0
  9
$DIMBLK1
  1

  9
$DIMBLK2
  1

  9
$DIMSTYLE
  2
ISO-25
  9
$DIMCLRD
 70
     0
  9
$DIMCLRE
 70
     0
  9
$DIMCLRT
 70
     0
  9
$DIMTFAC
 40
1.0
  9
$DIMGAP
 40
0.625
  9
$DIMJUST
 70
     0
  9
$DIMSD1
 70
     0
  9
$DIMSD2
 70
     0
  9
$DIMTOLJ
 70
     0
  9
$DIMTZIN
 70
     8
  9
$DIMALTZ
 70
     0
  9
$DIMALTTZ
 70
     0
  9
$DIMUPT
 70
     0
  9
$DIMDEC
 70
     2
  9
$DIMTDEC
 70
     2
  9
$DIMALTU
 70
     2
  9
$DIMALTTD
 70
     3
  9
$DIMTXSTY
  7
Standard
  9
$DIMAUNIT
 70
     0
  9
$DIMADEC
 70
     0
  9
$DIMALTRND
 40
0.0
  9
$DIMAZIN
 70
     0
  9
$DIMDSEP
 70
    44
  9
$DIMATFIT
 70
     3
  9
$DIMFRAC
 70
     0
  9
$DIMLDRBLK
  1

  9
$DIMLUNIT
 70
     2
  9
$DIMLWD
 70
    -2
  9
$DIMLWE
 70
    -2
  9
$DIMTMOVE
 70
     0
  9
$DIMFXL
 40
1.0
  9
$DIMFXLON
 70
     0
  9
$DIMJOGANG
 40
0.7853981633974483
  9
$DIMTFILL
 70
     0
  9
$DIMTFILLCLR
 70
     0
  9
$DIMARCSYM
 70
     0
  9
$DIMLTYPE
  6

  9
$DIMLTEX1
  6

  9
$DIMLTEX2
  6

  9
$LUNITS
 70
     2
  9
$LUPREC
 70
     4
  9
$SKETCHINC
 40
1.0
  9
$FILLETRAD
 40
0.0
  9
$AUNITS
 70
     0
  9
$AUPREC
 70
     0
  9
$MENU
  1
.
  9
$ELEVATION
 40
0.0
  9
$PELEVATION
 40
0.0
  9
$THICKNESS
 40
0.0
  9
$LIMCHECK
 70
     0
  9
$CHAMFERA
 40
0.0
  9
$CHAMFERB
 40
0.0
  9
$CHAMFERC
 40
0.0
  9
$CHAMFERD
 40
0.0
  9
$SKPOLY
 70
     0
  9
$TDCREATE
 40
2457891.424313206
  9
$TDUCREATE
 40
2457891.299313207
  9
$TDUPDATE
 40
2457891.429479039
  9
$TDUUPDATE
 40
2457891.304479039
  9
$TDINDWG
 40
0.0051662500
  9
$TDUSRTIMER
 40
0.0051662269
  9
$USRTIMER
 70
     1
  9
$ANGBASE
 50
0.0
  9
$ANGDIR
 70
     0
  9
$PDMODE
 70
     0
  9
$PDSIZE
 40
0.0
  9
$PLINEWID
 40
0.0
  9
$SPLFRAME
 70
     0
  9
$SPLINETYPE
 70
     6
  9
$SPLINESEGS
 70
     8
  9
$HANDSEED
  5
7841
  9
$SURFTAB1
 70
     6
  9
$SURFTAB2
 70
     6
  9
$SURFTYPE
 70
     6
  9
$SURFU
 70
     6
  9
$SURFV
 70
     6
  9
$UCSBASE
  2

  9
$UCSNAME
  2

  9
$UCSORG
 10
0.0
 20
0.0
 30
0.0
  9
$UCSXDIR
 10
1.0
 20
0.0
 30
0.0
  9
$UCSYDIR
 10
0.0
 20
1.0
 30
0.0
  9
$UCSORTHOREF
  2

  9
$UCSORTHOVIEW
 70
     0
  9
$UCSORGTOP
 10
0.0
 20
0.0
 30
0.0
  9
$UCSORGBOTTOM
 10
0.0
 20
0.0
 30
0.0
  9
$UCSORGLEFT
 10
0.0
 20
0.0
 30
0.0
  9
$UCSORGRIGHT
 10
0.0
 20
0.0
 30
0.0
  9
$UCSORGFRONT
 10
0.0
 20
0.0
 30
0.0
  9
$UCSORGBACK
 10
0.0
 20
0.0
 30
0.0
  9
$PUCSBASE
  2

  9
$PUCSNAME
  2

  9
$PUCSORG
 10
0.0
 20
0.0
 30
0.0
  9
$PUCSXDIR
 10
1.0
 20
0.0
 30
0.0
  9
$PUCSYDIR
 10
0.0
 20
1.0
 30
0.0
  9
$PUCSORTHOREF
  2

  9
$PUCSORTHOVIEW
 70
     0
  9
$PUCSORGTOP
 10
0.0
 20
0.0
 30
0.0
  9
$PUCSORGBOTTOM
 10
0.0
 20
0.0
 30
0.0
  9
$PUCSORGLEFT
 10
0.0
 20
0.0
 30
0.0
  9
$PUCSORGRIGHT
 10
0.0
 20
0.0
 30
0.0
  9
$PUCSORGFRONT
 10
0.0
 20
0.0
 30
0.0
  9
$PUCSORGBACK
 10
0.0
 20
0.0
 30
0.0
  9
$USERI1
 70
     0
  9
$USERI2
 70
     0
  9
$USERI3
 70
     0
  9
$USERI4
 70
     0
  9
$USERI5
 70
     0
  9
$USERR1
 40
0.0
  9
$USERR2
 40
0.0
  9
$USERR3
 40
0.0
  9
$USERR4
 40
0.0
  9
$USERR5
 40
0.0
  9
$WORLDVIEW
 70
     1
  9
$SHADEDGE
 70
     3
  9
$SHADEDIF
 70
    70
  9
$TILEMODE
 70
     1
  9
$MAXACTVP
 70
    64
  9
$PINSBASE
 10
0.0
 20
0.0
 30
0.0
  9
$PLIMCHECK
 70
     0
  9
$PEXTMIN
 10
0.0
 20
0.0
 30
0.0
  9
$PEXTMAX
 10
0.0
 20
0.0
 30
0.0
  9
$PLIMMIN
 10
0.0
 20
0.0
  9
$PLIMMAX
 10
12.0
 20
9.0
  9
$UNITMODE
 70
     0
  9
$VISRETAIN
 70
     1
  9
$PLINEGEN
 70
     0
  9
$PSLTSCALE
 70
     1
  9
$TREEDEPTH
 70
  3020
  9
$CMLSTYLE
  2
Standard
  9
$CMLJUST
 70
     0
  9
$CMLSCALE
 40
20.0
  9
$PROXYGRAPHICS
 70
     1
  9
$MEASUREMENT
 70
     1
  9
$CELWEIGHT
370
    -1
  9
$ENDCAPS
280
     0
  9
$JOINSTYLE
280
     0
  9
$LWDISPLAY
290
     1
  9
$INSUNITS
 70
     4
  9
$HYPERLINKBASE
  1

  9
$STYLESHEET
  1

  9
$XEDIT
290
     1
  9
$CEPSNTYPE
380
     0
  9
$PSTYLEMODE
290
     1
  9
$FINGERPRINTGUID
  2
{ACF74ABD-5CD1-4DE5-9CDE-82F8F50354E9}
  9
$VERSIONGUID
  2
{CA496B86-1609-4DBB-AF40-3F62C5769413}
  9
$EXTNAMES
290
     1
  9
$PSVPSCALE
 40
0.0
  9
$OLESTARTUP
290
     0
  9
$SORTENTS
280
   127
  9
$INDEXCTL
280
     0
  9
$HIDETEXT
280
     1
  9
$XCLIPFRAME
290
     0
  9
$HALOGAP
280
     0
  9
$OBSCOLOR
 70
   257
  9
$OBSLTYPE
280
     0
  9
$INTERSECTIONDISPLAY
280
     0
  9
$INTERSECTIONCOLOR
 70
   257
  9
$DIMASSOC
280
     2
  9
$PROJECTNAME
  1

  9
$CAMERADISPLAY
290
     0
  9
$LENSLENGTH
 40
50.0
  9
$CAMERAHEIGHT
 40
0.0
  9
$STEPSPERSEC
 40
2.0
  9
$STEPSIZE
 40
6.0
  9
$3DDWFPREC
 40
2.0
  9
$PSOLWIDTH
 40
5.0
  9
$PSOLHEIGHT
 40
80.0
  9
$LOFTANG1
 40
1.570796326794896
  9
$LOFTANG2
 40
1.570796326794896
  9
$LOFTMAG1
 40
0.0
  9
$LOFTMAG2
 40
0.0
  9
$LOFTPARAM
 70
     7
  9
$LOFTNORMALS
280
     1
  9
$LATITUDE
 40
37.795
  9
$LONGITUDE
 40
-122.394
  9
$NORTHDIRECTION
 40
0.0
  9
$TIMEZONE
 70
 -8000
  9
$LIGHTGLYPHDISPLAY
280
     1
  9
$TILEMODELIGHTSYNCH
280
     1
  9
$CMATERIAL
347
EC
  9
$SOLIDHIST
280
     1
  9
$SHOWHIST
280
     1
  9
$DWFFRAME
280
     2
  9
$DGNFRAME
280
     0
  9
$REALWORLDSCALE
290
     1
  9
$INTERFERECOLOR
 62
     1
  9
$INTERFEREOBJVS
345
F9
  9
$INTERFEREVPVS
346
F6
  9
$CSHADOW
280
     0
  9
$SHADOWPLANELOCATION
 40
0.0
  0
ENDSEC
  0
SECTION
  2
CLASSES
  0
CLASS
  1
ACDBDICTIONARYWDFLT
  2
AcDbDictionaryWithDefault
  3
ObjectDBX Classes
 90
        0
 91
        1
280
     0
281
     0
  0
CLASS
  1
DICTIONARYVAR
  2
AcDbDictionaryVar
  3
ObjectDBX Classes
 90
        0
 91
        3
280
     0
281
     0
  0
CLASS
  1
TABLESTYLE
  2
AcDbTableStyle
  3
ObjectDBX Classes
 90
     4095
 91
        1
280
     0
281
     0
  0
CLASS
  1
MATERIAL
  2
AcDbMaterial
  3
ObjectDBX Classes
 90
     1024
 91
        3
280
     0
281
     0
  0
CLASS
  1
VISUALSTYLE
  2
AcDbVisualStyle
  3
ObjectDBX Classes
 90
     4095
 91
       16
280
     0
281
     0
  0
CLASS
  1
SORTENTSTABLE
  2
AcDbSortentsTable
  3
ObjectDBX Classes
 90
        0
 91
        2
280
     0
281
     0
  0
ENDSEC
  0
SECTION
  2
TABLES
  0
TABLE
  2
VPORT
  5
8
330
0
100
AcDbSymbolTable
 70
     1
  0
VPORT
  5
EA
330
8
100
AcDbSymbolTableRecord
100
AcDbViewportTableRecord
  2
*Active
 70
     0
 10
0.0
 20
0.0
 11
1.0
 21
1.0
 12
1513.681242479963
 22
3493.54688062509
 13
0.0
 23
0.0
 14
10.0
 24
10.0
 15
10.0
 25
10.0
 16
0.0
 26
0.0
 36
1.0
 17
0.0
 27
0.0
 37
0.0
 40
10670.32652729022
 41
1.739825581395348
 42
50.0
 43
0.0
 44
0.0
 50
0.0
 51
0.0
 71
     0
 72
  1000
 73
     1
 74
     3
 75
     0
 76
     0
 77
     0
 78
     0
281
     0
 65
     1
110
0.0
120
0.0
130
0.0
111
1.0
121
0.0
131
0.0
112
0.0
122
1.0
132
0.0
 79
     0
146
0.0
348
F5
 60
     2
 61
     5
292
     1
282
     1
141
0.0
142
0.0
 63
   250
421
  3355443
  0
ENDTAB
  0
TABLE
  2
LTYPE
  5
5
330
0
100
AcDbSymbolTable
 70
     1
  0
LTYPE
  5
14
330
5
100
AcDbSymbolTableRecord
100
AcDbLinetypeTableRecord
  2
ByBlock
 70
     0
  3

 72
    65
 73
     0
 40
0.0
  0
LTYPE
  5
15
330
5
100
AcDbSymbolTableRecord
100
AcDbLinetypeTableRecord
  2
ByLayer
 70
     0
  3

 72
    65
 73
     0
 40
0.0
  0
LTYPE
  5
16
330
5
100
AcDbSymbolTableRecord
100
AcDbLinetypeTableRecord
  2
Continuous
 70
     0
  3
Solid line
 72
    65
 73
     0
 40
0.0
  0
ENDTAB
  0
TABLE
  2
LAYER
  5
2
102
{ACAD_XDICTIONARY
360
2D3
102
}
330
0
100
AcDbSymbolTable
 70
     1
  0
LAYER
  5
10
330
2
100
AcDbSymbolTableRecord
100
AcDbLayerTableRecord
  2
0
 70
     0
 62
     7
  6
Continuous
370
    -3
390
F
347
EE
  0
ENDTAB
  0
TABLE
  2
STYLE
  5
3
330
0
100
AcDbSymbolTable
 70
     1
  0
STYLE
  5
11
330
3
100
AcDbSymbolTableRecord
100
AcDbTextStyleTableRecord
  2
Standard
 70
     0
 40
0.0
 41
1.0
 50
0.0
 71
     0
 42
2.5
  3
txt
  4

  0
ENDTAB
  0
TABLE
  2
VIEW
  5
6
330
0
100
AcDbSymbolTable
 70
     1
  0
ENDTAB
  0
TABLE
  2
UCS
  5
7
330
0
100
AcDbSymbolTable
 70
     0
  0
ENDTAB
  0
TABLE
  2
APPID
  5
9
330
0
100
AcDbSymbolTable
 70
     2
  0
APPID
  5
12
330
9
100
AcDbSymbolTableRecord
100
AcDbRegAppTableRecord
  2
ACAD
 70
     0
  0
APPID
  5
9E
330
9
100
AcDbSymbolTableRecord
100
AcDbRegAppTableRecord
  2
ACAD_PSEXT
 70
     0
  0
ENDTAB
  0
TABLE
  2
DIMSTYLE
  5
A
330
0
100
AcDbSymbolTable
 70
     2
100
AcDbDimStyleTable
 71
     1
340
27
  0
DIMSTYLE
105
27
330
A
100
AcDbSymbolTableRecord
100
AcDbDimStyleTableRecord
  2
ISO-25
 70
     0
 41
2.5
 42
0.625
 43
3.75
 44
1.25
 73
     0
 74
     0
 77
     1
 78
     8
140
2.5
141
2.5
143
0.03937007874016
147
0.625
171
     3
172
     1
271
     2
272
     2
274
     3
278
    44
283
     0
284
     8
340
11
  0
DIMSTYLE
105
2D2
330
A
100
AcDbSymbolTableRecord
100
AcDbDimStyleTableRecord
  2
Standard
 70
     0
140
15.0
271
     1
272
     1
340
11
  0
ENDTAB
  0
TABLE
  2
BLOCK_RECORD
  5
1
330
0
100
AcDbSymbolTable
 70
     3
  0
BLOCK_RECORD
  5
1F
102
{ACAD_XDICTIONARY
360
61B9
102
}
330
1
100
AcDbSymbolTableRecord
100
AcDbBlockTableRecord
  2
*Model_Space
340
22
 70
     0
280
     1
281
     0
  0
BLOCK_RECORD
  5
D2
330
1
100
AcDbSymbolTableRecord
100
AcDbBlockTableRecord
  2
*Paper_Space
340
D3
 70
     0
280
     1
281
     0
  0
BLOCK_RECORD
  5
D6
330
1
100
AcDbSymbolTableRecord
100
AcDbBlockTableRecord
  2
*Paper_Space0
340
D7
 70
     0
280
     1
281
     0
  0
BLOCK_RECORD
  5
10F
330
1
100
AcDbSymbolTableRecord
100
AcDbBlockTableRecord
  2
g
340
0
310
2800000020000000200000000100080000000000000400000000000000000000000000000000000000000000000080000080000000808000800000008000800080800000C0C0C000C0DCC000F0CAA6000020400000206000002080000020A0000020C0000020E00000400000004020000040400000406000004080000040A0
310
000040C0000040E00000600000006020000060400000606000006080000060A0000060C0000060E00000800000008020000080400000806000008080000080A0000080C0000080E00000A0000000A0200000A0400000A0600000A0800000A0A00000A0C00000A0E00000C0000000C0200000C0400000C0600000C0800000C0
310
A00000C0C00000C0E00000E0000000E0200000E0400000E0600000E0800000E0A00000E0C00000E0E00040000000400020004000400040006000400080004000A0004000C0004000E00040200000402020004020400040206000402080004020A0004020C0004020E000404000004040200040404000404060004040800040
310
40A0004040C0004040E00040600000406020004060400040606000406080004060A0004060C0004060E00040800000408020004080400040806000408080004080A0004080C0004080E00040A0000040A0200040A0400040A0600040A0800040A0A00040A0C00040A0E00040C0000040C0200040C0400040C0600040C08000
310
40C0A00040C0C00040C0E00040E0000040E0200040E0400040E0600040E0800040E0A00040E0C00040E0E00080000000800020008000400080006000800080008000A0008000C0008000E00080200000802020008020400080206000802080008020A0008020C0008020E00080400000804020008040400080406000804080
310
008040A0008040C0008040E00080600000806020008060400080606000806080008060A0008060C0008060E00080800000808020008080400080806000808080008080A0008080C0008080E00080A0000080A0200080A0400080A0600080A0800080A0A00080A0C00080A0E00080C0000080C0200080C0400080C0600080C0
310
800080C0A00080C0C00080C0E00080E0000080E0200080E0400080E0600080E0800080E0A00080E0C00080E0E000C0000000C0002000C0004000C0006000C0008000C000A000C000C000C000E000C0200000C0202000C0204000C0206000C0208000C020A000C020C000C020E000C0400000C0402000C0404000C0406000C0
310
408000C040A000C040C000C040E000C0600000C0602000C0604000C0606000C0608000C060A000C060C000C060E000C0800000C0802000C0804000C0806000C0808000C080A000C080C000C080E000C0A00000C0A02000C0A04000C0A06000C0A08000C0A0A000C0A0C000C0A0E000C0C00000C0C02000C0C04000C0C06000
310
C0C08000C0C0A000F0FBFF00A4A0A000808080000000FF0000FF000000FFFF00FF000000FF00FF00FFFF0000FFFFFF000000000000000000000000000000000000000000000000000000000000000000000000000000000000FFFFFFFFFFFFFFFFFFFFFFFFFFFF000000000000000000000000000000000000FFFFFFFFFFFF
310
FFFFFFFFFFFFFFFF000000000000000000000000000000000000FFFFFFFFFFFFFFFFFFFFFFFFFFFF000000000000000000000000000000000000FFFFFFFFFFFFFFFFFFFFFFFFFFFF000000000000000000000000000000000000FFFFFFFFFFFFFFFFFFFFFFFFFFFF000000000000000000000000000000000000FFFFFFFFFF
310
FFFFFFFFFFFFFFFFFF000000000000000000000000000000000000FFFFFFFFFFFFFFFFFFFFFFFFFFFF000000000000000000000000000000000000FFFFFFFFFFFFFFFFFFFFFFFFFFFF000000000000000000000000000000000000FFFFFFFFFFFFFFFFFFFFFFFFFFFF000000000000000000000000000000000000FFFFFFFF
310
FFFFFFFFFFFFFFFFFFFF000000000000000000000000000000000000FFFFFFFFFFFFFFFFFFFFFFFFFFFF000000000000000000000000000000000000FFFFFFFFFFFFFFFFFFFFFFFFFFFF000000000000000000000000000000000000FFFFFFFFFFFFFFFFFFFFFFFFFFFF000000000000000000000000000000000000FFFFFF
310
FFFFFFFFFFFFFFFFFFFFFF000000000000000000000000000000000000FFFFFFFFFFFFFFFFFFFFFFFFFFFF000000000000000000000000000000000000FFFFFFFFFFFFFFFFFFFFFFFFFFFF000000000000000000000000000000000000FFFFFFFFFFFFFFFFFFFFFFFFFFFF000000000000000000000000000000000000FFFF
310
FFFFFFFFFFFFFFFFFFFFFFFF000000000000000000000000000000000000FFFFFFFFFFFFFFFFFFFFFFFFFFFF000000000000000000000000000000000000FFFFFFFFFFFFFFFFFFFFFFFFFFFF000000000000000000000000000000000000FFFFFFFFFFFFFFFFFFFFFFFFFFFF000000000000000000000000000000000000FF
310
FFFFFFFFFFFFFFFFFFFFFFFFFF000000000000000000000000000000000000FFFFFFFFFFFFFFFFFFFFFFFFFFFF000000000000000000000000000000000000FFFFFFFFFFFFFFFFFFFFFFFFFFFF000000000000000000000000000000000000FFFFFFFFFFFFFFFFFFFFFFFFFFFF000000000000000000000000000000000000
310
FFFFFFFFFFFFFFFFFFFFFFFFFFFF000000000000000000000000000000000000FFFFFFFFFFFFFFFFFFFFFFFFFFFF000000000000000000000000000000000000FFFFFFFFFFFFFFFFFFFFFFFFFFFF000000000000000000000000000000000000FFFFFFFFFFFFFFFFFFFFFFFFFFFF0000000000000000000000000000000000
310
00FFFFFFFFFFFFFFFFFFFFFFFFFFFF0000000000000000000000000000000000000000000000000000000000000000000000000000000000
102
{BLKREFS
331
2D6
102
}
 70
     0
280
     1
281
     0
  0
ENDTAB
  0
ENDSEC
  0
SECTION
  2
BLOCKS
  0
BLOCK
  5
20
330
1F
100
AcDbEntity
  8
0
100
AcDbBlockBegin
  2
*Model_Space
 70
     0
 10
0.0
 20
0.0
 30
0.0
  3
*Model_Space
  1

  0
ENDBLK
  5
21
330
1F
100
AcDbEntity
  8
0
100
AcDbBlockEnd
  0
BLOCK
  5
D4
330
D2
100
AcDbEntity
 67
     1
  8
0
100
AcDbBlockBegin
  2
*Paper_Space
 70
     0
 10
0.0
 20
0.0
 30
0.0
  3
*Paper_Space
  1

  0
ENDBLK
  5
D5
330
D2
100
AcDbEntity
 67
     1
  8
0
100
AcDbBlockEnd
  0
BLOCK
  5
D8
330
D6
100
AcDbEntity
 67
     1
  8
0
100
AcDbBlockBegin
  2
*Paper_Space0
 70
     0
 10
0.0
 20
0.0
 30
0.0
  3
*Paper_Space0
  1

  0
ENDBLK
  5
D9
330
D6
100
AcDbEntity
 67
     1
  8
0
100
AcDbBlockEnd
  0
BLOCK
  5
110
330
10F
100
AcDbEntity
  8
0
 62
     5
100
AcDbBlockBegin
  2
g
 70
     0
 10
0.0
 20
0.0
 30
0.0
  3
g
  1

  0
CIRCLE
  5
111
330
10F
100
AcDbEntity
  8
0
 62
     0
100
AcDbCircle
 10
1539.828054733429
 20
1117.527938040762
 30
0.0
 40
39.51924966126357
  0
ELLIPSE
  5
112
330
10F
100
AcDbEntity
  8
0
 62
     0
100
AcDbEllipse
 10
1474.490288342946
 20
2198.407413211346
 30
0.0
 11
-30.42603706014464
 21
0.0
 31
0.0
210
0.0
220
0.0
230
1.0
 40
0.3372402171875113
 41
6.009348737011023
 42
9.698614530937939
  0
ELLIPSE
  5
113
330
10F
100
AcDbEntity
  8
0
 62
     0
100
AcDbEllipse
 10
1351.831720427145
 20
2182.87404952114
 30
0.0
 11
-28.26679488046243
 21
-10.11396515030851
 31
0.0
210
0.0
220
0.0
230
1.0
 40
0.4689952453060453
 41
0.0
 42
6.283185307179584
  0
ELLIPSE
  5
114
330
10F
100
AcDbEntity
  8
0
 62
     0
100
AcDbEllipse
 10
1412.029527829577
 20
2160.204819195214
 30
0.0
 11
-30.18614888799537
 21
-9.416451186637837
 31
0.0
210
0.0
220
0.0
230
1.0
 40
0.4997640396812409
 41
0.0
 42
6.283185307179584
  0
ELLIPSE
  5
115
330
10F
100
AcDbEntity
  8
0
 62
     0
100
AcDbEllipse
 10
1474.321171592762
 20
2130.909195842257
 30
0.0
 11
-32.4544676019878
 21
-6.277632587808718
 31
0.0
210
0.0
220
0.0
230
1.0
 40
0.5310369267309467
 41
0.0
 42
6.283185307179584
  0
ELLIPSE
  5
116
330
10F
100
AcDbEntity
  8
0
 62
     0
100
AcDbEllipse
 10
1403.169136683174
 20
2080.32190106752
 30
0.0
 11
-30.18144897261939
 21
-13.57327198377746
 31
0.0
210
0.0
220
0.0
230
1.0
 40
0.6086522554516111
 41
0.0
 42
6.283185307179584
  0
ELLIPSE
  5
117
330
10F
100
AcDbEntity
  8
0
 62
     0
100
AcDbEllipse
 10
1342.338821727409
 20
2111.723676890981
 30
0.0
 11
-29.78965568577537
 21
-14.27805798441649
 31
0.0
210
0.0
220
0.0
230
1.0
 40
0.5613751132608095
 41
0.0
 42
6.283185307179584
  0
ELLIPSE
  5
118
330
10F
100
AcDbEntity
  8
0
 62
     0
100
AcDbEllipse
 10
1287.894937855544
 20
2132.999248414751
 30
0.0
 11
-27.52052691810872
 21
-15.66173876817708
 31
0.0
210
0.0
220
0.0
230
0.9999999999999998
 40
0.3840801736235547
 41
0.0
 42
6.283185307179584
  0
ELLIPSE
  5
119
330
10F
100
AcDbEntity
  8
0
 62
     0
100
AcDbEllipse
 10
1237.546508911712
 20
2147.603017592848
 30
0.0
 11
-24.42389223102677
 21
-15.82364819348806
 31
0.0
210
0.0
220
0.0
230
1.0
 40
0.4305391531601336
 41
0.0
 42
6.283185307179584
  0
ELLIPSE
  5
11A
330
10F
100
AcDbEntity
  8
0
 62
     0
100
AcDbEllipse
 10
1194.380593304909
 20
2153.076176193047
 30
0.0
 11
-22.41694816237614
 21
-16.02342061445038
 31
0.0
210
0.0
220
0.0
230
1.0
 40
0.3779979851668673
 41
0.0
 42
6.283185307179584
  0
ELLIPSE
  5
11B
330
10F
100
AcDbEntity
  8
0
 62
     0
100
AcDbEllipse
 10
1156.410999579163
 20
2155.452516529645
 30
0.0
 11
-20.88636778616046
 21
-15.15950723243758
 31
0.0
210
0.0
220
0.0
230
0.9999999999999998
 40
0.3620484457960908
 41
0.0
 42
6.283185307179584
  0
ELLIPSE
  5
11C
330
10F
100
AcDbEntity
  8
0
 62
     0
100
AcDbEllipse
 10
1123.739585968737
 20
2158.017969011142
 30
0.0
 11
-19.71952958070463
 21
-14.92628344142003
 31
0.0
210
0.0
220
0.0
230
0.9999999999999998
 40
0.3132060541742065
 41
0.0
 42
6.283185307179584
  0
ELLIPSE
  5
11D
330
10F
100
AcDbEntity
  8
0
 62
     0
100
AcDbEllipse
 10
1092.351698394478
 20
2162.33259877281
 30
0.0
 11
-17.26917335941397
 21
-14.80967269837363
 31
0.0
210
0.0
220
0.0
230
1.0
 40
0.351703405504709
 41
0.0
 42
6.283185307179584
  0
ELLIPSE
  5
11E
330
10F
100
AcDbEntity
  8
0
 62
     0
100
AcDbEllipse
 10
1058.012271209194
 20
2176.526367276041
 30
0.0
 11
-16.08965423127789
 21
-16.08965423127789
 31
0.0
210
0.0
220
0.0
230
0.9999999999999998
 40
0.5254634900290626
 41
0.0
 42
6.283185307179584
  0
ELLIPSE
  5
11F
330
10F
100
AcDbEntity
  8
0
 62
     0
100
AcDbEllipse
 10
1048.072404114523
 20
2103.587166443769
 30
0.0
 11
-15.0808053389707
 21
-22.73497138406114
 31
0.0
210
0.0
220
0.0
230
1.0
 40
0.2810715458434808
 41
0.0
 42
6.283185307179584
  0
ELLIPSE
  5
120
330
10F
100
AcDbEntity
  8
0
 62
     0
100
AcDbEllipse
 10
1076.572566636067
 20
2098.60590640253
 30
0.0
 11
-15.97542941848766
 21
-21.58545019068723
 31
0.0
210
0.0
220
0.0
230
1.0
 40
0.1951258246945301
 41
0.0
 42
6.283185307179584
  0
ELLIPSE
  5
121
330
10F
100
AcDbEntity
  8
0
 62
     0
100
AcDbEllipse
 10
1105.839557244659
 20
2096.945489462019
 30
0.0
 11
-17.63687356470898
 21
-20.69137917580726
 31
0.0
210
0.0
220
0.0
230
1.0
 40
0.3037436373290199
 41
0.0
 42
6.283185307179584
  0
ELLIPSE
  5
122
330
10F
100
AcDbEntity
  8
0
 62
     0
100
AcDbEllipse
 10
1138.998960020807
 20
2095.54320563218
 30
0.0
 11
-21.40148973977637
 21
-22.09903347985646
 31
0.0
210
0.0
220
0.0
230
1.0
 40
0.2954908278377448
 41
0.0
 42
6.283185307179584
  0
ELLIPSE
  5
123
330
10F
100
AcDbEntity
  8
0
 62
     0
100
AcDbEllipse
 10
1176.568094489463
 20
2087.382617943074
 30
0.0
 11
-22.33728620082914
 21
-20.73605091859239
 31
0.0
210
0.0
220
0.0
230
1.0
 40
0.3826752338158837
 41
0.0
 42
6.283185307179584
  0
ELLIPSE
  5
124
330
10F
100
AcDbEntity
  8
0
 62
     0
100
AcDbEllipse
 10
1222.369852568216
 20
2073.49215837662
 30
0.0
 11
-24.58707794465547
 21
-20.89923266225676
 31
0.0
210
0.0
220
0.0
230
1.0
 40
0.4144710327891679
 41
0.0
 42
6.283185307179584
  0
ELLIPSE
  5
125
330
10F
100
AcDbEntity
  8
0
 62
     0
100
AcDbEllipse
 10
1273.846790544174
 20
2051.520282974568
 30
0.0
 11
-26.5156633559373
 21
-20.23183023296224
 31
0.0
210
0.0
220
0.0
230
1.0
 40
0.5447945635724488
 41
0.0
 42
6.283185307179584
  0
ELLIPSE
  5
126
330
10F
100
AcDbEntity
  8
0
 62
     0
100
AcDbEllipse
 10
1332.547606726672
 20
2020.936432678415
 30
0.0
 11
-28.36117014364141
 21
-19.08012858096033
 31
0.0
210
0.0
220
0.0
230
1.0
 40
0.6609049286427032
 41
0.0
 42
6.283185307179584
  0
ELLIPSE
  5
127
330
10F
100
AcDbEntity
  8
0
 62
     0
100
AcDbEllipse
 10
1396.950306506445
 20
1979.302870876207
 30
0.0
 11
-29.02016885821378
 21
-18.64430883640123
 31
0.0
210
0.0
220
0.0
230
1.0
 40
0.7880072252956542
 41
0.0
 42
6.283185307179584
  0
ELLIPSE
  5
128
330
10F
100
AcDbEntity
  8
0
 62
     0
100
AcDbEllipse
 10
1467.02182204884
 20
1930.609216833
 30
0.0
 11
-31.43125351698556
 21
-15.93577124842758
 31
0.0
210
0.0
220
0.0
230
1.0
 40
0.825027248145369
 41
0.0
 42
6.283185307179584
  0
ELLIPSE
  5
129
330
10F
100
AcDbEntity
  8
0
 62
     0
100
AcDbEllipse
 10
1392.179379099032
 20
1860.825420141485
 30
0.0
 11
-27.76228382794173
 21
-22.15758547830683
 31
0.0
210
0.0
220
0.0
230
0.9999999999999998
 40
0.7814370002040994
 41
0.0
 42
6.283185307179584
  0
ELLIPSE
  5
12A
330
10F
100
AcDbEntity
  8
0
 62
     0
100
AcDbEllipse
 10
1322.09697595403
 20
1911.704965520149
 30
0.0
 11
-27.357176787645
 21
-22.41564483139607
 31
0.0
210
0.0
220
0.0
230
1.0
 40
0.7577332530563343
 41
0.0
 42
6.283185307179584
  0
ELLIPSE
  5
12B
330
10F
100
AcDbEntity
  8
0
 62
     0
100
AcDbEllipse
 10
1261.585252124213
 20
1951.830380808654
 30
0.0
 11
-24.31143855844612
 21
-24.31143855844612
 31
0.0
210
0.0
220
0.0
230
1.0
 40
0.6802716780200933
 41
0.0
 42
6.283185307179584
  0
ELLIPSE
  5
12C
330
10F
100
AcDbEntity
  8
0
 62
     0
100
AcDbEllipse
 10
1208.036314867199
 20
1982.598095040353
 30
0.0
 11
-22.99360726813026
 21
-22.99360726813026
 31
0.0
210
0.0
220
0.0
230
0.9999999999999998
 40
0.5741637720713002
 41
0.0
 42
6.283185307179584
  0
ELLIPSE
  5
12D
330
10F
100
AcDbEntity
  8
0
 62
     0
100
AcDbEllipse
 10
1161.153356491933
 20
2002.4476678731
 30
0.0
 11
-22.90408911584604
 21
-22.90408911584604
 31
0.0
210
0.0
220
0.0
230
1.0
 40
0.4186236573607289
 41
0.0
 42
6.283185307179584
  0
ELLIPSE
  5
12E
330
10F
100
AcDbEntity
  8
0
 62
     0
100
AcDbEllipse
 10
1121.144763491976
 20
2017.741159562481
 30
0.0
 11
-19.21616944602742
 21
-25.53539939923706
 31
0.0
210
0.0
220
0.0
230
1.0
 40
0.3766047139849467
 41
0.0
 42
6.283185307179584
  0
ELLIPSE
  5
12F
330
10F
100
AcDbEntity
  8
0
 62
     0
100
AcDbEllipse
 10
1087.991592514898
 20
2023.439138198773
 30
0.0
 11
-16.04866709297754
 21
-24.4802164629427
 31
0.0
210
0.0
220
0.0
230
1.0
 40
0.3241712871052219
 41
0.0
 42
6.283185307179584
  0
ELLIPSE
  5
130
330
10F
100
AcDbEntity
  8
0
 62
     0
100
AcDbEllipse
 10
1059.513650327051
 20
2023.572459644837
 30
0.0
 11
-13.31158395245028
 21
-25.14482762860148
 31
0.0
210
0.0
220
0.0
230
1.0
 40
0.2108018908727055
 41
0.0
 42
6.283185307179584
  0
ELLIPSE
  5
131
330
10F
100
AcDbEntity
  8
0
 62
     0
100
AcDbEllipse
 10
1034.060733279461
 20
2021.964359881855
 30
0.0
 11
15.35951593496879
 21
29.09197865874336
 31
0.0
210
0.0
220
0.0
230
1.0
 40
0.244560068360591
 41
3.503656402014906
 42
8.195138527442518
  0
ELLIPSE
  5
132
330
10F
100
AcDbEntity
  8
0
 62
     0
100
AcDbEllipse
 10
1017.851948250382
 20
2116.480665468168
 30
0.0
 11
-15.0808053389707
 21
-22.73497138406114
 31
0.0
210
0.0
220
0.0
230
1.0
 40
0.2810715458434808
 41
1.439775629419719
 42
4.041824827120143
  0
ELLIPSE
  5
133
330
10F
100
AcDbEntity
  8
0
 62
     0
100
AcDbEllipse
 10
1303.248887679133
 20
2198.291918051785
 30
0.0
 11
-24.42389223102677
 21
-15.82364819348806
 31
0.0
210
0.0
220
0.0
230
1.0
 40
0.4305391531601336
 41
5.146194802244943
 42
8.593233048848867
  0
ELLIPSE
  5
134
330
10F
100
AcDbEntity
  8
0
 62
     0
100
AcDbEllipse
 10
1260.082972072329
 20
2203.765076651984
 30
0.0
 11
-22.41694816237614
 21
-16.02342061445038
 31
0.0
210
0.0
220
0.0
230
1.0
 40
0.3779979851668673
 41
5.341809248425247
 42
8.197440628250657
  0
ELLIPSE
  5
135
330
10F
100
AcDbEntity
  8
0
 62
     0
100
AcDbEllipse
 10
1214.97878650166
 20
2202.610235692739
 30
0.0
 11
-20.88636778616046
 21
-15.15950723243758
 31
0.0
210
0.0
220
0.0
230
0.9999999999999998
 40
0.3620484457960908
 41
5.259486283433363
 42
8.232291883150136
  0
ELLIPSE
  5
136
330
10F
100
AcDbEntity
  8
0
 62
     0
100
AcDbEllipse
 10
1176.232884654794
 20
2203.531410315453
 30
0.0
 11
-19.71952958070463
 21
-14.92628344142003
 31
0.0
210
0.0
220
0.0
230
0.9999999999999998
 40
0.3132060541742065
 41
5.250666993789478
 42
8.100370512577223
  0
ELLIPSE
  5
137
330
10F
100
AcDbEntity
  8
0
 62
     0
100
AcDbEllipse
 10
1144.844997080517
 20
2207.846040077121
 30
0.0
 11
-17.26917335941397
 21
-14.80967269837363
 31
0.0
210
0.0
220
0.0
230
1.0
 40
0.351703405504709
 41
5.530968485444509
 42
7.813788647427747
  0
ELLIPSE
  5
138
330
10F
100
AcDbEntity
  8
0
 62
     0
100
AcDbEllipse
 10
1023.611614658527
 20
2198.45530760658
 30
0.0
 11
-16.08965423127789
 21
-16.08965423127789
 31
0.0
210
0.0
220
0.0
230
0.9999999999999998
 40
0.5254634900290626
 41
1.010185497955116
 42
2.205206665925253
  0
ELLIPSE
  5
139
330
10F
100
AcDbEntity
  8
0
 62
     0
100
AcDbEllipse
 10
1025.782846917784
 20
1939.539036213281
 30
0.0
 11
12.13246661655123
 21
29.56314672626579
 31
0.0
210
0.0
220
0.0
230
1.0
 40
0.2004963466959972
 41
3.990701529268593
 42
7.66677945586937
  0
ELLIPSE
  5
13A
330
10F
100
AcDbEntity
  8
0
 62
     0
100
AcDbEllipse
 10
1047.457701701342
 20
1939.675271083983
 30
0.0
 11
11.99614500966298
 21
28.60949802150898
 31
0.0
210
0.0
220
0.0
230
1.0
 40
0.2548630776677332
 41
0.0
 42
6.283185307179584
  0
ELLIPSE
  5
13B
330
10F
100
AcDbEntity
  8
0
 62
     0
100
AcDbEllipse
 10
1074.176387766945
 20
1935.315729867376
 30
0.0
 11
16.08574108414264
 21
29.15443980923796
 31
0.0
210
0.0
220
0.0
230
1.0
 40
0.2538269047843527
 41
0.0
 42
6.283185307179584
  0
ELLIPSE
  5
13C
330
10F
100
AcDbEntity
  8
0
 62
     0
100
AcDbEllipse
 10
1106.075230731619
 20
1923.190752617388
 30
0.0
 11
18.81213713040706
 21
28.74573519713441
 31
0.0
210
0.0
220
0.0
230
1.0
 40
0.3994236624772706
 41
0.0
 42
6.283185307179584
  0
ELLIPSE
  5
13D
330
10F
100
AcDbEntity
  8
0
 62
     0
100
AcDbEllipse
 10
1148.334383484287
 20
1904.526460085101
 30
0.0
 11
21.81117238028091
 21
28.33702597518186
 31
0.0
210
0.0
220
0.0
230
0.9999999999999998
 40
0.4670865194507213
 41
0.0
 42
6.283185307179584
  0
ELLIPSE
  5
13E
330
10F
100
AcDbEntity
  8
0
 62
     0
100
AcDbEllipse
 10
1197.126695310344
 20
1874.457331710845
 30
0.0
 11
22.9693526358261
 21
28.26570238977625
 31
0.0
210
0.0
220
0.0
230
0.9999999999999998
 40
0.6003268276440822
 41
0.0
 42
6.283185307179584
  0
ELLIPSE
  5
13F
330
10F
100
AcDbEntity
  8
0
 62
     0
100
AcDbEllipse
 10
1254.241975792156
 20
1835.430485149505
 30
0.0
 11
24.32329719929197
 21
26.42205086197707
 31
0.0
210
0.0
220
0.0
230
1.0
 40
0.6840588260764199
 41
0.0
 42
6.283185307179584
  0
ELLIPSE
  5
140
330
10F
100
AcDbEntity
  8
0
 62
     0
100
AcDbEllipse
 10
1317.94886352703
 20
1785.92172450172
 30
0.0
 11
26.63049848963351
 21
25.6825711369487
 31
0.0
210
0.0
220
0.0
230
1.0
 40
0.7995240369076479
 41
0.0
 42
6.283185307179584
  0
ELLIPSE
  5
141
330
10F
100
AcDbEntity
  8
0
 62
     0
100
AcDbEllipse
 10
1387.213537539033
 20
1729.738909596972
 30
0.0
 11
26.7154097593942
 21
25.77765157973423
 31
0.0
210
0.0
220
0.0
230
0.9999999999999998
 40
0.9072308990429279
 41
0.0
 42
6.283185307179584
  0
ELLIPSE
  5
142
330
10F
100
AcDbEntity
  8
0
 62
     0
100
AcDbEllipse
 10
1463.045669580214
 20
1663.763025748204
 30
0.0
 11
29.39327075805667
 21
23.78605846942339
 31
0.0
210
0.0
220
0.0
230
1.0
 40
0.9471721172373143
 41
0.0
 42
6.283185307179584
  0
ELLIPSE
  5
143
330
10F
100
AcDbEntity
  8
0
 62
     0
100
AcDbEllipse
 10
1384.23921694655
 20
1586.218707122456
 30
0.0
 11
26.80958050407134
 21
27.80137533833062
 31
0.0
210
0.0
220
0.0
230
1.0
 40
0.9592665141672039
 41
0.0
 42
6.283185307179584
  0
ELLIPSE
  5
144
330
10F
100
AcDbEntity
  8
0
 62
     0
100
AcDbEllipse
 10
1308.553351725659
 20
1505.291600548591
 30
0.0
 11
23.30008311428972
 21
29.1071312327625
 31
0.0
210
0.0
220
0.0
230
0.9999999999999998
 40
0.9348015168909629
 41
0.0
 42
6.283185307179584
  0
ELLIPSE
  5
145
330
10F
100
AcDbEntity
  8
0
 62
     0
100
AcDbEllipse
 10
1237.367154205929
 20
1420.854630926083
 30
0.0
 11
12.56928204496544
 21
35.20765802767482
 31
0.0
210
0.0
220
0.0
230
1.0
 40
0.8281510902799336
 41
0.0
 42
6.283185307179584
  0
ELLIPSE
  5
146
330
10F
100
AcDbEntity
  8
0
 62
     0
100
AcDbEllipse
 10
1171.104414794338
 20
1339.660321363422
 30
0.0
 11
4.747616308376212
 21
35.79479145936872
 31
0.0
210
0.0
220
0.0
230
1.0
 40
0.786297360742565
 41
0.0
 42
6.283185307179584
  0
ELLIPSE
  5
147
330
10F
100
AcDbEntity
  8
0
 62
     0
100
AcDbEllipse
 10
1114.531200576215
 20
1261.755782213569
 30
0.0
 11
3.238313876684649
 21
33.28784257290667
 31
0.0
210
0.0
220
0.0
230
1.0
 40
0.7146619888316316
 41
0.0
 42
6.283185307179584
  0
ELLIPSE
  5
148
330
10F
100
AcDbEntity
  8
0
 62
     0
100
AcDbEllipse
 10
1066.55494564364
 20
1188.159571161653
 30
0.0
 11
1.495014207729617
 21
32.19088518399145
 31
0.0
210
0.0
220
0.0
230
1.0
 40
0.6551736887166888
 41
0.0
 42
6.283185307179584
  0
ELLIPSE
  5
149
330
10F
100
AcDbEntity
  8
0
 62
     0
100
AcDbEllipse
 10
1113.822251225196
 20
1119.439817536418
 30
0.0
 11
0.0
 21
34.50147524275582
 31
0.0
210
0.0
220
0.0
230
1.0
 40
0.7343984306497921
 41
0.0
 42
6.283185307179584
  0
ELLIPSE
  5
14A
330
10F
100
AcDbEntity
  8
0
 62
     0
100
AcDbEllipse
 10
1172.622467409782
 20
1193.839725816368
 30
0.0
 11
0.0
 21
35.40741200924112
 31
0.0
210
0.0
220
0.0
230
1.0
 40
0.7731785972808104
 41
0.0
 42
6.283185307179584
  0
ELLIPSE
  5
14B
330
10F
100
AcDbEntity
  8
0
 62
     0
100
AcDbEllipse
 10
1236.01173791129
 20
1270.79100348879
 30
0.0
 11
2.474910472010954
 21
37.30686115064799
 31
0.0
210
0.0
220
0.0
230
1.0
 40
0.8550030881524246
 41
0.0
 42
6.283185307179584
  0
ELLIPSE
  5
14C
330
10F
100
AcDbEntity
  8
0
 62
     0
100
AcDbEllipse
 10
1305.057573116181
 20
1351.079791171386
 30
0.0
 11
5.275614907274009
 21
37.24516293018115
 31
0.0
210
0.0
220
0.0
230
1.0
 40
0.9599746624478688
 41
0.0
 42
6.283185307179584
  0
ELLIPSE
  5
14D
330
10F
100
AcDbEntity
  8
0
 62
     0
100
AcDbEllipse
 10
1384.073388533058
 20
1433.549028262567
 30
0.0
 11
17.60508497325729
 21
33.79609226665762
 31
0.0
210
0.0
220
0.0
230
1.0
 40
0.8982307229594015
 41
0.0
 42
6.283185307179584
  0
ELLIPSE
  5
14E
330
10F
100
AcDbEntity
  8
0
 62
     0
100
AcDbEllipse
 10
1461.743267689385
 20
1512.646317465809
 30
0.0
 11
-37.12902235478051
 21
1.889081697954351
 31
0.0
210
0.0
220
0.0
230
0.9999999999999998
 40
0.9939370144897022
 41
0.0
 42
6.283185307179584
  0
ELLIPSE
  5
14F
330
10F
100
AcDbEntity
  8
0
 62
     0
100
AcDbEllipse
 10
1461.853214429865
 20
1357.545657727839
 30
0.0
 11
0.0
 21
38.08156012286561
 31
0.0
210
0.0
220
0.0
230
1.0
 40
0.9839895141870108
 41
0.0
 42
6.283185307179584
  0
ELLIPSE
  5
150
330
10F
100
AcDbEntity
  8
0
 62
     0
100
AcDbEllipse
 10
1382.071376969455
 20
1277.437032168097
 30
0.0
 11
1.896395803160102
 21
38.4213659301948
 31
0.0
210
0.0
220
0.0
230
1.0
 40
0.9097684253863695
 41
0.0
 42
6.283185307179584
  0
ELLIPSE
  5
151
330
10F
100
AcDbEntity
  8
0
 62
     0
100
AcDbEllipse
 10
1304.204398119699
 20
1197.058790363551
 30
0.0
 11
2.044619584821534
 21
38.65350871159686
 31
0.0
210
0.0
220
0.0
230
0.9999999999999998
 40
0.9684076399980105
 41
0.0
 42
6.283185307179584
  0
ELLIPSE
  5
152
330
10F
100
AcDbEntity
  8
0
 62
     0
100
AcDbEllipse
 10
1461.018979450726
 20
1198.469985031715
 30
0.0
 11
0.0
 21
39.06348103220477
 31
0.0
210
0.0
220
0.0
230
1.0
 40
0.947444651313479
 41
0.0
 42
6.283185307179584
  0
ELLIPSE
  5
153
330
10F
100
AcDbEntity
  8
0
 62
     0
100
AcDbEllipse
 10
1233.177075384393
 20
1119.235407607252
 30
0.0
 11
0.0
 21
37.61877506594683
 31
0.0
210
0.0
220
0.0
230
1.0
 40
0.94563854561306
 41
0.0
 42
6.283185307179584
  0
ELLIPSE
  5
154
330
10F
100
AcDbEntity
  8
0
 62
     0
100
AcDbEllipse
 10
1380.849563388673
 20
1117.995226816388
 30
0.0
 11
0.0
 21
39.27234868545852
 31
0.0
210
0.0
220
0.0
230
1.0
 40
0.9795519212978291
 41
0.0
 42
6.283185307179584
  0
ELLIPSE
  5
155
330
10F
100
AcDbEntity
  8
0
 62
     0
100
AcDbEllipse
 10
1025.440295095819
 20
1252.673997001882
 30
0.0
 11
1.495014207729617
 21
32.19088518399145
 31
0.0
210
0.0
220
0.0
230
1.0
 40
0.6551736887166888
 41
3.059318546647753
 42
6.506993200271656
  0
ELLIPSE
  5
156
330
10F
100
AcDbEntity
  8
0
 62
     0
100
AcDbEllipse
 10
1027.377357999514
 20
1377.437276636129
 30
0.0
 11
1.495014207729617
 21
32.19088518399145
 31
0.0
210
0.0
220
0.0
230
1.0
 40
0.6551736887166888
 41
2.965810147589523
 42
6.600501599329887
  0
ELLIPSE
  5
157
330
10F
100
AcDbEntity
  8
0
 62
     0
100
AcDbEllipse
 10
1031.184713903353
 20
1493.825373041121
 30
0.0
 11
13.31028064827205
 21
35.2363289842047
 31
0.0
210
0.0
220
0.0
230
0.9999999999999998
 40
0.4811876829804269
 41
3.378066902041308
 42
7.377793676600674
  0
ELLIPSE
  5
158
330
10F
100
AcDbEntity
  8
0
 62
     0
100
AcDbEllipse
 10
1039.430302382408
 20
1612.268948299669
 30
0.0
 11
14.25147078353903
 21
35.54498373618375
 31
0.0
210
0.0
220
0.0
230
1.0
 40
0.4152679124103772
 41
2.914110852870212
 42
8.046363111785312
  0
ELLIPSE
  5
159
330
10F
100
AcDbEntity
  8
0
 62
     0
100
AcDbEllipse
 10
1025.386377776561
 20
1746.998251501712
 30
0.0
 11
12.032862095992
 21
31.65315550519224
 31
0.0
210
0.0
220
0.0
230
1.0
 40
0.3228313403197935
 41
3.806209022154714
 42
7.352071412405987
  0
ELLIPSE
  5
15A
330
10F
100
AcDbEntity
  8
0
 62
     0
100
AcDbEllipse
 10
1051.941657569364
 20
1730.549666808917
 30
0.0
 11
12.86271396292816
 21
31.23848344341775
 31
0.0
210
0.0
220
0.0
230
1.0
 40
0.2782702580544408
 41
0.0
 42
6.283185307179584
  0
ELLIPSE
  5
15B
330
10F
100
AcDbEntity
  8
0
 62
     0
100
AcDbEllipse
 10
1084.029283141733
 20
1706.637021882977
 30
0.0
 11
15.90550414169423
 21
31.92960354637491
 31
0.0
210
0.0
220
0.0
230
1.0
 40
0.4643558402465539
 41
0.0
 42
6.283185307179584
  0
ELLIPSE
  5
15C
330
10F
100
AcDbEntity
  8
0
 62
     0
100
AcDbEllipse
 10
1128.979626687193
 20
1669.040261151447
 30
0.0
 11
16.0438147912668
 21
31.37670976893435
 31
0.0
210
0.0
220
0.0
230
1.0
 40
0.5753939494386061
 41
0.0
 42
6.283185307179584
  0
ELLIPSE
  5
15D
330
10F
100
AcDbEntity
  8
0
 62
     0
100
AcDbEllipse
 10
1178.936186151013
 20
1624.385401938658
 30
0.0
 11
19.31335583606522
 21
31.70950169084431
 31
0.0
210
0.0
220
0.0
230
1.0
 40
0.7526282289544934
 41
0.0
 42
6.283185307179584
  0
ELLIPSE
  5
15E
330
10F
100
AcDbEntity
  8
0
 62
     0
100
AcDbEllipse
 10
1121.511352881092
 20
1538.289200106858
 30
0.0
 11
15.61194790856336
 21
31.7824894317781
 31
0.0
210
0.0
220
0.0
230
1.0
 40
0.6841394345716645
 41
0.0
 42
6.283185307179584
  0
ELLIPSE
  5
15F
330
10F
100
AcDbEntity
  8
0
 62
     0
100
AcDbEllipse
 10
1077.759355420867
 20
1582.977305551418
 30
0.0
 11
12.72084629549044
 21
31.78248712685384
 31
0.0
210
0.0
220
0.0
230
1.0
 40
0.4935221312573268
 41
0.0
 42
6.283185307179584
  0
ELLIPSE
  5
160
330
10F
100
AcDbEntity
  8
0
 62
     0
100
AcDbEllipse
 10
1071.635245381671
 20
1455.474284260584
 30
0.0
 11
8.278022707345106
 21
32.02418843038185
 31
0.0
210
0.0
220
0.0
230
1.0
 40
0.5598442547693111
 41
0.0
 42
6.283185307179584
  0
ELLIPSE
  5
161
330
10F
100
AcDbEntity
  8
0
 62
     0
100
AcDbEllipse
 10
1174.576473267773
 20
1484.69635516609
 30
0.0
 11
14.5532999905774
 21
34.02569963104991
 31
0.0
210
0.0
220
0.0
230
0.9999999999999998
 40
0.7310194254182731
 41
0.0
 42
6.283185307179584
  0
ELLIPSE
  5
162
330
10F
100
AcDbEntity
  8
0
 62
     0
100
AcDbEllipse
 10
1117.813878927131
 20
1402.346653767215
 30
0.0
 11
10.07328611643248
 21
33.38910943319605
 31
0.0
210
0.0
220
0.0
230
1.0
 40
0.6901520096124371
 41
0.0
 42
6.283185307179584
  0
ELLIPSE
  5
163
330
10F
100
AcDbEntity
  8
0
 62
     0
100
AcDbEllipse
 10
1065.939934447623
 20
1321.514141297054
 30
0.0
 11
6.510662038174756
 21
32.08959066460804
 31
0.0
210
0.0
220
0.0
230
1.0
 40
0.6433519553795857
 41
0.0
 42
6.283185307179584
  0
ELLIPSE
  5
164
330
10F
100
AcDbEntity
  8
0
 62
     0
100
AcDbEllipse
 10
1241.452567676543
 20
1567.407083812666
 30
0.0
 11
20.11691303993205
 21
31.73638402592044
 31
0.0
210
0.0
220
0.0
230
1.0
 40
0.7853428073352033
 41
0.0
 42
6.283185307179584
  0
ELLIPSE
  5
165
330
10F
100
AcDbEntity
  8
0
 62
     0
100
AcDbEllipse
 10
1246.204061816119
 20
1707.995546720153
 30
0.0
 11
22.68993224032243
 21
29.15476710852473
 31
0.0
210
0.0
220
0.0
230
1.0
 40
0.8140476902349892
 41
0.0
 42
6.283185307179584
  0
ELLIPSE
  5
166
330
10F
100
AcDbEntity
  8
0
 62
     0
100
AcDbEllipse
 10
1188.34078900029
 20
1754.542640660496
 30
0.0
 11
21.14070859910617
 21
29.26467052111788
 31
0.0
210
0.0
220
0.0
230
1.0
 40
0.6517585741059463
 41
0.0
 42
6.283185307179584
  0
ELLIPSE
  5
167
330
10F
100
AcDbEntity
  8
0
 62
     0
100
AcDbEllipse
 10
1136.16141418404
 20
1793.751023079725
 30
0.0
 11
19.5780428791035
 21
29.43869002003686
 31
0.0
210
0.0
220
0.0
230
1.0
 40
0.5677403822323596
 41
0.0
 42
6.283185307179584
  0
ELLIPSE
  5
168
330
10F
100
AcDbEntity
  8
0
 62
     0
100
AcDbEllipse
 10
1094.844241569476
 20
1821.485283624888
 30
0.0
 11
16.51729116367686
 21
28.49943556912093
 31
0.0
210
0.0
220
0.0
230
1.0
 40
0.4337608387177524
 41
0.0
 42
6.283185307179584
  0
ELLIPSE
  5
169
330
10F
100
AcDbEntity
  8
0
 62
     0
100
AcDbEllipse
 10
1061.24495959756
 20
1838.697812511929
 30
0.0
 11
13.41147720501215
 21
29.91030063307363
 31
0.0
210
0.0
220
0.0
230
1.0
 40
0.2976157912374005
 41
0.0
 42
6.283185307179584
  0
ELLIPSE
  5
16A
330
10F
100
AcDbEntity
  8
0
 62
     0
100
AcDbEllipse
 10
1032.445578487494
 20
1842.224971714426
 30
0.0
 11
15.38790390505613
 21
34.00180217327163
 31
0.0
210
0.0
220
0.0
230
0.9999999999999998
 40
0.2004781885708614
 41
3.642161334497195
 42
8.090198374780053
  0
ELLIPSE
  5
16B
330
10F
100
AcDbEntity
  8
0
 62
     0
100
AcDbEllipse
 10
1470.488097861912
 20
2039.357288298983
 30
0.0
 11
-33.59813907440287
 21
-4.874140977504449
 31
0.0
210
0.0
220
0.0
230
0.9999999999999998
 40
0.6795590206827351
 41
0.0
 42
6.283185307179584
  0
ELLIPSE
  5
16C
330
10F
100
AcDbEntity
  8
0
 62
     0
100
AcDbEllipse
 10
1541.328486676369
 20
2170.373911226086
 30
0.0
 11
-31.92014898036659
 21
0.0
 31
0.0
210
0.0
220
0.0
230
1.0
 40
0.5030449809720228
 41
0.0
 42
6.283185307179584
  0
ELLIPSE
  5
16D
330
10F
100
AcDbEntity
  8
0
 62
     0
100
AcDbEllipse
 10
1541.409740674101
 20
2088.671209064352
 30
0.0
 11
-34.58688577659648
 21
0.0
 31
0.0
210
0.0
220
0.0
230
1.0
 40
0.6791071082771328
 41
0.0
 42
6.283185307179584
  0
ELLIPSE
  5
16E
330
10F
100
AcDbEntity
  8
0
 62
     0
100
AcDbEllipse
 10
1540.172179168683
 20
1987.27715842837
 30
0.0
 11
-34.3319835403123
 21
0.0
 31
0.0
210
0.0
220
0.0
230
1.0
 40
0.78795292034164
 41
0.0
 42
6.283185307179584
  0
ELLIPSE
  5
16F
330
10F
100
AcDbEntity
  8
0
 62
     0
100
AcDbEllipse
 10
1539.916430787213
 20
1869.807494466332
 30
0.0
 11
-34.07402956716722
 21
0.0
 31
0.0
210
0.0
220
0.0
230
1.0
 40
0.8535288010029494
 41
0.0
 42
6.283185307179584
  0
ELLIPSE
  5
170
330
10F
100
AcDbEntity
  8
0
 62
     0
100
AcDbEllipse
 10
1541.250292435832
 20
1734.888200943136
 30
0.0
 11
-38.21362841026203
 21
0.0
 31
0.0
210
0.0
220
0.0
230
1.0
 40
0.9015312461323162
 41
0.0
 42
6.283185307179584
  0
ELLIPSE
  5
171
330
10F
100
AcDbEntity
  8
0
 62
     0
100
AcDbEllipse
 10
1541.885719390537
 20
1588.871723687768
 30
0.0
 11
-38.58475329792092
 21
0.0
 31
0.0
210
0.0
220
0.0
230
1.0
 40
0.9667154570683159
 41
0.0
 42
6.283185307179584
  0
ELLIPSE
  5
172
330
10F
100
AcDbEntity
  8
0
 62
     0
100
AcDbEllipse
 10
1541.681581854538
 20
1434.196529973261
 30
0.0
 11
0.0
 21
-40.26994600918643
 31
0.0
210
0.0
220
0.0
230
1.0
 40
0.9674682045404674
 41
0.0
 42
6.283185307179584
  0
ELLIPSE
  5
173
330
10F
100
AcDbEntity
  8
0
 62
     0
100
AcDbEllipse
 10
1541.6655692589
 20
1278.060682519503
 30
0.0
 11
0.0
 21
-39.08110269694754
 31
0.0
210
0.0
220
0.0
230
1.0
 40
0.9827856281975739
 41
0.0
 42
6.283185307179584
  0
ELLIPSE
  5
174
330
10F
100
AcDbEntity
  8
0
 62
     0
100
AcDbEllipse
 10
1311.567753934349
 20
1650.128027884865
 30
0.0
 11
-22.64498228175275
 21
-30.57593749015938
 31
0.0
210
0.0
220
0.0
230
1.0
 40
0.8582798329265973
 41
0.0
 42
6.283185307179584
  0
ELLIPSE
  5
175
330
10F
100
AcDbEntity
  8
0
 62
     0
100
AcDbEllipse
 10
1465.078407041105
 20
1802.356989035518
 30
0.0
 11
-37.79347923466386
 21
-5.941371754444041
 31
0.0
210
0.0
220
0.0
230
1.0
 40
0.7875876969600179
 41
0.0
 42
6.283185307179584
  0
ELLIPSE
  5
176
330
10F
100
AcDbEntity
  8
0
 62
     0
100
AcDbEllipse
 10
1034.453152152311
 20
1120.348983502205
 30
0.0
 11
0.0
 21
30.13114697923498
 31
0.0
210
0.0
220
0.0
230
1.0
 40
0.4974821035627393
 41
2.186619680855028
 42
7.238158279914351
  0
ELLIPSE
  5
177
330
10F
100
AcDbEntity
  8
0
 62
     0
100
AcDbEllipse
 10
1474.490288342946
 20
36.64846287017616
 30
0.0
 11
-30.42603706014464
 21
0.0
 31
0.0
210
0.0
220
0.0
230
-1.0
 40
0.3372402171875113
 41
6.009348737011023
 42
9.698614530937939
  0
ELLIPSE
  5
178
330
10F
100
AcDbEntity
  8
0
 62
     0
100
AcDbEllipse
 10
1351.831720427145
 20
52.1818265603826
 30
0.0
 11
-28.26679488046243
 21
10.11396515030851
 31
0.0
210
0.0
220
0.0
230
-1.0
 40
0.4689952453060453
 41
0.0
 42
6.283185307179584
  0
ELLIPSE
  5
179
330
10F
100
AcDbEntity
  8
0
 62
     0
100
AcDbEllipse
 10
1412.029527829577
 20
74.85105688630795
 30
0.0
 11
-30.18614888799537
 21
9.416451186637837
 31
0.0
210
0.0
220
0.0
230
-1.0
 40
0.4997640396812409
 41
0.0
 42
6.283185307179584
  0
ELLIPSE
  5
17A
330
10F
100
AcDbEntity
  8
0
 62
     0
100
AcDbEllipse
 10
1474.321171592762
 20
104.1466802392653
 30
0.0
 11
-32.4544676019878
 21
6.277632587808718
 31
0.0
210
0.0
220
0.0
230
-1.0
 40
0.5310369267309467
 41
0.0
 42
6.283185307179584
  0
ELLIPSE
  5
17B
330
10F
100
AcDbEntity
  8
0
 62
     0
100
AcDbEllipse
 10
1403.169136683174
 20
154.7339750140024
 30
0.0
 11
-30.18144897261939
 21
13.57327198377746
 31
0.0
210
0.0
220
0.0
230
-1.0
 40
0.6086522554516111
 41
0.0
 42
6.283185307179584
  0
ELLIPSE
  5
17C
330
10F
100
AcDbEntity
  8
0
 62
     0
100
AcDbEllipse
 10
1342.338821727409
 20
123.332199190542
 30
0.0
 11
-29.78965568577537
 21
14.27805798441649
 31
0.0
210
0.0
220
0.0
230
-1.0
 40
0.5613751132608095
 41
0.0
 42
6.283185307179584
  0
ELLIPSE
  5
17D
330
10F
100
AcDbEntity
  8
0
 62
     0
100
AcDbEllipse
 10
1287.894937855544
 20
102.0566276667716
 30
0.0
 11
-27.52052691810872
 21
15.66173876817708
 31
0.0
210
0.0
220
0.0
230
-0.9999999999999998
 40
0.3840801736235547
 41
0.0
 42
6.283185307179584
  0
ELLIPSE
  5
17E
330
10F
100
AcDbEntity
  8
0
 62
     0
100
AcDbEllipse
 10
1237.546508911712
 20
87.45285848867496
 30
0.0
 11
-24.42389223102677
 21
15.82364819348806
 31
0.0
210
0.0
220
0.0
230
-1.0
 40
0.4305391531601336
 41
0.0
 42
6.283185307179584
  0
ELLIPSE
  5
17F
330
10F
100
AcDbEntity
  8
0
 62
     0
100
AcDbEllipse
 10
1194.380593304909
 20
81.9796998884753
 30
0.0
 11
-22.41694816237614
 21
16.02342061445038
 31
0.0
210
0.0
220
0.0
230
-1.0
 40
0.3779979851668673
 41
0.0
 42
6.283185307179584
  0
ELLIPSE
  5
180
330
10F
100
AcDbEntity
  8
0
 62
     0
100
AcDbEllipse
 10
1156.410999579163
 20
79.60335955187719
 30
0.0
 11
-20.88636778616046
 21
15.15950723243758
 31
0.0
210
0.0
220
0.0
230
-0.9999999999999998
 40
0.3620484457960908
 41
0.0
 42
6.283185307179584
  0
ELLIPSE
  5
181
330
10F
100
AcDbEntity
  8
0
 62
     0
100
AcDbEllipse
 10
1123.739585968737
 20
77.03790707038018
 30
0.0
 11
-19.71952958070463
 21
14.92628344142003
 31
0.0
210
0.0
220
0.0
230
-0.9999999999999998
 40
0.3132060541742065
 41
0.0
 42
6.283185307179584
  0
ELLIPSE
  5
182
330
10F
100
AcDbEntity
  8
0
 62
     0
100
AcDbEllipse
 10
1092.351698394478
 20
72.72327730871137
 30
0.0
 11
-17.26917335941397
 21
14.80967269837363
 31
0.0
210
0.0
220
0.0
230
-1.0
 40
0.351703405504709
 41
0.0
 42
6.283185307179584
  0
ELLIPSE
  5
183
330
10F
100
AcDbEntity
  8
0
 62
     0
100
AcDbEllipse
 10
1058.012271209194
 20
58.52950880548059
 30
0.0
 11
-16.08965423127789
 21
16.08965423127789
 31
0.0
210
0.0
220
0.0
230
-0.9999999999999998
 40
0.5254634900290626
 41
0.0
 42
6.283185307179584
  0
ELLIPSE
  5
184
330
10F
100
AcDbEntity
  8
0
 62
     0
100
AcDbEllipse
 10
1048.072404114523
 20
131.4687096377537
 30
0.0
 11
-15.0808053389707
 21
22.73497138406114
 31
0.0
210
0.0
220
0.0
230
-1.0
 40
0.2810715458434808
 41
0.0
 42
6.283185307179584
  0
ELLIPSE
  5
185
330
10F
100
AcDbEntity
  8
0
 62
     0
100
AcDbEllipse
 10
1076.572566636067
 20
136.4499696789916
 30
0.0
 11
-15.97542941848766
 21
21.58545019068723
 31
0.0
210
0.0
220
0.0
230
-1.0
 40
0.1951258246945301
 41
0.0
 42
6.283185307179584
  0
ELLIPSE
  5
186
330
10F
100
AcDbEntity
  8
0
 62
     0
100
AcDbEllipse
 10
1105.839557244659
 20
138.1103866195046
 30
0.0
 11
-17.63687356470898
 21
20.69137917580726
 31
0.0
210
0.0
220
0.0
230
-1.0
 40
0.3037436373290199
 41
0.0
 42
6.283185307179584
  0
ELLIPSE
  5
187
330
10F
100
AcDbEntity
  8
0
 62
     0
100
AcDbEllipse
 10
1138.998960020807
 20
139.5126704493424
 30
0.0
 11
-21.40148973977637
 21
22.09903347985646
 31
0.0
210
0.0
220
0.0
230
-1.0
 40
0.2954908278377448
 41
0.0
 42
6.283185307179584
  0
ELLIPSE
  5
188
330
10F
100
AcDbEntity
  8
0
 62
     0
100
AcDbEllipse
 10
1176.568094489463
 20
147.6732581384482
 30
0.0
 11
-22.33728620082914
 21
20.73605091859239
 31
0.0
210
0.0
220
0.0
230
-1.0
 40
0.3826752338158837
 41
0.0
 42
6.283185307179584
  0
ELLIPSE
  5
189
330
10F
100
AcDbEntity
  8
0
 62
     0
100
AcDbEllipse
 10
1222.369852568216
 20
161.563717704904
 30
0.0
 11
-24.58707794465547
 21
20.89923266225676
 31
0.0
210
0.0
220
0.0
230
-1.0
 40
0.4144710327891679
 41
0.0
 42
6.283185307179584
  0
ELLIPSE
  5
18A
330
10F
100
AcDbEntity
  8
0
 62
     0
100
AcDbEllipse
 10
1273.846790544174
 20
183.5355931069538
 30
0.0
 11
-26.5156633559373
 21
20.23183023296224
 31
0.0
210
0.0
220
0.0
230
-1.0
 40
0.5447945635724488
 41
0.0
 42
6.283185307179584
  0
ELLIPSE
  5
18B
330
10F
100
AcDbEntity
  8
0
 62
     0
100
AcDbEllipse
 10
1332.547606726672
 20
214.1194434031076
 30
0.0
 11
-28.36117014364141
 21
19.08012858096033
 31
0.0
210
0.0
220
0.0
230
-1.0
 40
0.6609049286427032
 41
0.0
 42
6.283185307179584
  0
ELLIPSE
  5
18C
330
10F
100
AcDbEntity
  8
0
 62
     0
100
AcDbEllipse
 10
1396.950306506445
 20
255.7530052053154
 30
0.0
 11
-29.02016885821378
 21
18.64430883640123
 31
0.0
210
0.0
220
0.0
230
-1.0
 40
0.7880072252956542
 41
0.0
 42
6.283185307179584
  0
ELLIPSE
  5
18D
330
10F
100
AcDbEntity
  8
0
 62
     0
100
AcDbEllipse
 10
1467.02182204884
 20
304.4466592485225
 30
0.0
 11
-31.43125351698556
 21
15.93577124842758
 31
0.0
210
0.0
220
0.0
230
-1.0
 40
0.825027248145369
 41
0.0
 42
6.283185307179584
  0
ELLIPSE
  5
18E
330
10F
100
AcDbEntity
  8
0
 62
     0
100
AcDbEllipse
 10
1392.179379099032
 20
374.2304559400374
 30
0.0
 11
-27.76228382794173
 21
22.15758547830683
 31
0.0
210
0.0
220
0.0
230
-0.9999999999999998
 40
0.7814370002040994
 41
0.0
 42
6.283185307179584
  0
ELLIPSE
  5
18F
330
10F
100
AcDbEntity
  8
0
 62
     0
100
AcDbEllipse
 10
1322.09697595403
 20
323.3509105613741
 30
0.0
 11
-27.357176787645
 21
22.41564483139607
 31
0.0
210
0.0
220
0.0
230
-1.0
 40
0.7577332530563343
 41
0.0
 42
6.283185307179584
  0
ELLIPSE
  5
190
330
10F
100
AcDbEntity
  8
0
 62
     0
100
AcDbEllipse
 10
1261.585252124213
 20
283.2254952728687
 30
0.0
 11
-24.31143855844612
 21
24.31143855844612
 31
0.0
210
0.0
220
0.0
230
-1.0
 40
0.6802716780200933
 41
0.0
 42
6.283185307179584
  0
ELLIPSE
  5
191
330
10F
100
AcDbEntity
  8
0
 62
     0
100
AcDbEllipse
 10
1208.036314867199
 20
252.4577810411699
 30
0.0
 11
-22.99360726813026
 21
22.99360726813026
 31
0.0
210
0.0
220
0.0
230
-0.9999999999999998
 40
0.5741637720713002
 41
0.0
 42
6.283185307179584
  0
ELLIPSE
  5
192
330
10F
100
AcDbEntity
  8
0
 62
     0
100
AcDbEllipse
 10
1161.153356491933
 20
232.608208208423
 30
0.0
 11
-22.90408911584604
 21
22.90408911584604
 31
0.0
210
0.0
220
0.0
230
-1.0
 40
0.4186236573607289
 41
0.0
 42
6.283185307179584
  0
ELLIPSE
  5
193
330
10F
100
AcDbEntity
  8
0
 62
     0
100
AcDbEllipse
 10
1121.144763491976
 20
217.3147165190434
 30
0.0
 11
-19.21616944602742
 21
25.53539939923706
 31
0.0
210
0.0
220
0.0
230
-1.0
 40
0.3766047139849467
 41
0.0
 42
6.283185307179584
  0
ELLIPSE
  5
194
330
10F
100
AcDbEntity
  8
0
 62
     0
100
AcDbEllipse
 10
1087.991592514898
 20
211.6167378827508
 30
0.0
 11
-16.04866709297754
 21
24.4802164629427
 31
0.0
210
0.0
220
0.0
230
-1.0
 40
0.3241712871052219
 41
0.0
 42
6.283185307179584
  0
ELLIPSE
  5
195
330
10F
100
AcDbEntity
  8
0
 62
     0
100
AcDbEllipse
 10
1059.513650327051
 20
211.4834164366857
 30
0.0
 11
-13.31158395245028
 21
25.14482762860148
 31
0.0
210
0.0
220
0.0
230
-1.0
 40
0.2108018908727055
 41
0.0
 42
6.283185307179584
  0
ELLIPSE
  5
196
330
10F
100
AcDbEntity
  8
0
 62
     0
100
AcDbEllipse
 10
1034.060733279461
 20
213.0915161996667
 30
0.0
 11
15.35951593496879
 21
-29.09197865874336
 31
0.0
210
0.0
220
0.0
230
-1.0
 40
0.244560068360591
 41
3.503656402014906
 42
8.195138527442518
  0
ELLIPSE
  5
197
330
10F
100
AcDbEntity
  8
0
 62
     0
100
AcDbEllipse
 10
1017.851948250382
 20
118.5752106133542
 30
0.0
 11
-15.0808053389707
 21
22.73497138406114
 31
0.0
210
0.0
220
0.0
230
-1.0
 40
0.2810715458434808
 41
1.439775629419719
 42
4.041824827120143
  0
ELLIPSE
  5
198
330
10F
100
AcDbEntity
  8
0
 62
     0
100
AcDbEllipse
 10
1303.248887679133
 20
36.76395802973792
 30
0.0
 11
-24.42389223102677
 21
15.82364819348806
 31
0.0
210
0.0
220
0.0
230
-1.0
 40
0.4305391531601336
 41
5.146194802244943
 42
8.593233048848867
  0
ELLIPSE
  5
199
330
10F
100
AcDbEntity
  8
0
 62
     0
100
AcDbEllipse
 10
1260.082972072329
 20
31.29079942953803
 30
0.0
 11
-22.41694816237614
 21
16.02342061445038
 31
0.0
210
0.0
220
0.0
230
-1.0
 40
0.3779979851668673
 41
5.341809248425247
 42
8.197440628250657
  0
ELLIPSE
  5
19A
330
10F
100
AcDbEntity
  8
0
 62
     0
100
AcDbEllipse
 10
1214.97878650166
 20
32.4456403887836
 30
0.0
 11
-20.88636778616046
 21
15.15950723243758
 31
0.0
210
0.0
220
0.0
230
-0.9999999999999998
 40
0.3620484457960908
 41
5.259486283433363
 42
8.232291883150136
  0
ELLIPSE
  5
19B
330
10F
100
AcDbEntity
  8
0
 62
     0
100
AcDbEllipse
 10
1176.232884654794
 20
31.52446576607002
 30
0.0
 11
-19.71952958070463
 21
14.92628344142003
 31
0.0
210
0.0
220
0.0
230
-0.9999999999999998
 40
0.3132060541742065
 41
5.250666993789478
 42
8.100370512577223
  0
ELLIPSE
  5
19C
330
10F
100
AcDbEntity
  8
0
 62
     0
100
AcDbEllipse
 10
1144.844997080517
 20
27.20983600440189
 30
0.0
 11
-17.26917335941397
 21
14.80967269837363
 31
0.0
210
0.0
220
0.0
230
-1.0
 40
0.351703405504709
 41
5.530968485444509
 42
7.813788647427747
  0
ELLIPSE
  5
19D
330
10F
100
AcDbEntity
  8
0
 62
     0
100
AcDbEllipse
 10
1023.611614658527
 20
36.60056847494246
 30
0.0
 11
-16.08965423127789
 21
16.08965423127789
 31
0.0
210
0.0
220
0.0
230
-0.9999999999999998
 40
0.5254634900290626
 41
1.010185497955116
 42
2.205206665925253
  0
ELLIPSE
  5
19E
330
10F
100
AcDbEntity
  8
0
 62
     0
100
AcDbEllipse
 10
1025.782846917784
 20
295.5168398682415
 30
0.0
 11
12.13246661655123
 21
-29.56314672626579
 31
0.0
210
0.0
220
0.0
230
-1.0
 40
0.2004963466959972
 41
3.990701529268593
 42
7.66677945586937
  0
ELLIPSE
  5
19F
330
10F
100
AcDbEntity
  8
0
 62
     0
100
AcDbEllipse
 10
1047.457701701342
 20
295.3806049975407
 30
0.0
 11
11.99614500966298
 21
-28.60949802150898
 31
0.0
210
0.0
220
0.0
230
-1.0
 40
0.2548630776677332
 41
0.0
 42
6.283185307179584
  0
ELLIPSE
  5
1A0
330
10F
100
AcDbEntity
  8
0
 62
     0
100
AcDbEllipse
 10
1074.176387766945
 20
299.7401462141472
 30
0.0
 11
16.08574108414264
 21
-29.15443980923796
 31
0.0
210
0.0
220
0.0
230
-1.0
 40
0.2538269047843527
 41
0.0
 42
6.283185307179584
  0
ELLIPSE
  5
1A1
330
10F
100
AcDbEntity
  8
0
 62
     0
100
AcDbEllipse
 10
1106.075230731619
 20
311.8651234641358
 30
0.0
 11
18.81213713040706
 21
-28.74573519713441
 31
0.0
210
0.0
220
0.0
230
-1.0
 40
0.3994236624772706
 41
0.0
 42
6.283185307179584
  0
ELLIPSE
  5
1A2
330
10F
100
AcDbEntity
  8
0
 62
     0
100
AcDbEllipse
 10
1148.334383484287
 20
330.5294159964216
 30
0.0
 11
21.81117238028091
 21
-28.33702597518186
 31
0.0
210
0.0
220
0.0
230
-0.9999999999999998
 40
0.4670865194507213
 41
0.0
 42
6.283185307179584
  0
ELLIPSE
  5
1A3
330
10F
100
AcDbEntity
  8
0
 62
     0
100
AcDbEllipse
 10
1197.126695310344
 20
360.5985443706774
 30
0.0
 11
22.9693526358261
 21
-28.26570238977625
 31
0.0
210
0.0
220
0.0
230
-0.9999999999999998
 40
0.6003268276440823
 41
0.0
 42
6.283185307179584
  0
ELLIPSE
  5
1A4
330
10F
100
AcDbEntity
  8
0
 62
     0
100
AcDbEllipse
 10
1254.241975792156
 20
399.6253909320173
 30
0.0
 11
24.32329719929197
 21
-26.42205086197707
 31
0.0
210
0.0
220
0.0
230
-1.0
 40
0.6840588260764199
 41
0.0
 42
6.283185307179584
  0
ELLIPSE
  5
1A5
330
10F
100
AcDbEntity
  8
0
 62
     0
100
AcDbEllipse
 10
1317.94886352703
 20
449.1341515798018
 30
0.0
 11
26.63049848963351
 21
-25.6825711369487
 31
0.0
210
0.0
220
0.0
230
-1.0
 40
0.7995240369076479
 41
0.0
 42
6.283185307179584
  0
ELLIPSE
  5
1A6
330
10F
100
AcDbEntity
  8
0
 62
     0
100
AcDbEllipse
 10
1387.213537539033
 20
505.3169664845492
 30
0.0
 11
26.7154097593942
 21
-25.77765157973423
 31
0.0
210
0.0
220
0.0
230
-0.9999999999999998
 40
0.9072308990429279
 41
0.0
 42
6.283185307179584
  0
ELLIPSE
  5
1A7
330
10F
100
AcDbEntity
  8
0
 62
     0
100
AcDbEllipse
 10
1463.045669580214
 20
571.2928503333189
 30
0.0
 11
29.39327075805667
 21
-23.78605846942339
 31
0.0
210
0.0
220
0.0
230
-1.0
 40
0.9471721172373143
 41
0.0
 42
6.283185307179584
  0
ELLIPSE
  5
1A8
330
10F
100
AcDbEntity
  8
0
 62
     0
100
AcDbEllipse
 10
1384.23921694655
 20
648.8371689590669
 30
0.0
 11
26.80958050407134
 21
-27.80137533833062
 31
0.0
210
0.0
220
0.0
230
-1.0
 40
0.9592665141672039
 41
0.0
 42
6.283185307179584
  0
ELLIPSE
  5
1A9
330
10F
100
AcDbEntity
  8
0
 62
     0
100
AcDbEllipse
 10
1308.553351725659
 20
729.7642755329323
 30
0.0
 11
23.30008311428972
 21
-29.1071312327625
 31
0.0
210
0.0
220
0.0
230
-0.9999999999999998
 40
0.9348015168909629
 41
0.0
 42
6.283185307179584
  0
ELLIPSE
  5
1AA
330
10F
100
AcDbEntity
  8
0
 62
     0
100
AcDbEllipse
 10
1237.367154205929
 20
814.2012451554398
 30
0.0
 11
12.56928204496544
 21
-35.20765802767482
 31
0.0
210
0.0
220
0.0
230
-1.0
 40
0.8281510902799336
 41
0.0
 42
6.283185307179584
  0
ELLIPSE
  5
1AB
330
10F
100
AcDbEntity
  8
0
 62
     0
100
AcDbEllipse
 10
1171.104414794338
 20
895.3955547181015
 30
0.0
 11
4.747616308376212
 21
-35.79479145936872
 31
0.0
210
0.0
220
0.0
230
-1.0
 40
0.786297360742565
 41
0.0
 42
6.283185307179584
  0
ELLIPSE
  5
1AC
330
10F
100
AcDbEntity
  8
0
 62
     0
100
AcDbEllipse
 10
1114.531200576215
 20
973.3000938679545
 30
0.0
 11
3.238313876684649
 21
-33.28784257290667
 31
0.0
210
0.0
220
0.0
230
-1.0
 40
0.7146619888316316
 41
0.0
 42
6.283185307179584
  0
ELLIPSE
  5
1AD
330
10F
100
AcDbEntity
  8
0
 62
     0
100
AcDbEllipse
 10
1066.55494564364
 20
1046.89630491987
 30
0.0
 11
1.495014207729617
 21
-32.19088518399145
 31
0.0
210
0.0
220
0.0
230
-1.0
 40
0.6551736887166888
 41
0.0
 42
6.283185307179584
  0
ELLIPSE
  5
1AE
330
10F
100
AcDbEntity
  8
0
 62
     0
100
AcDbEllipse
 10
1172.622467409782
 20
1041.216150265155
 30
0.0
 11
0.0
 21
-35.40741200924112
 31
0.0
210
0.0
220
0.0
230
-1.0
 40
0.7731785972808104
 41
0.0
 42
6.283185307179584
  0
ELLIPSE
  5
1AF
330
10F
100
AcDbEntity
  8
0
 62
     0
100
AcDbEllipse
 10
1236.01173791129
 20
964.2648725927344
 30
0.0
 11
2.474910472010954
 21
-37.30686115064799
 31
0.0
210
0.0
220
0.0
230
-1.0
 40
0.8550030881524246
 41
0.0
 42
6.283185307179584
  0
ELLIPSE
  5
1B0
330
10F
100
AcDbEntity
  8
0
 62
     0
100
AcDbEllipse
 10
1305.057573116181
 20
883.9760849101374
 30
0.0
 11
5.275614907274009
 21
-37.24516293018115
 31
0.0
210
0.0
220
0.0
230
-1.0
 40
0.9599746624478688
 41
0.0
 42
6.283185307179584
  0
ELLIPSE
  5
1B1
330
10F
100
AcDbEntity
  8
0
 62
     0
100
AcDbEllipse
 10
1384.073388533058
 20
801.5068478189558
 30
0.0
 11
17.60508497325729
 21
-33.79609226665762
 31
0.0
210
0.0
220
0.0
230
-1.0
 40
0.8982307229594015
 41
0.0
 42
6.283185307179584
  0
ELLIPSE
  5
1B2
330
10F
100
AcDbEntity
  8
0
 62
     0
100
AcDbEllipse
 10
1461.743267689385
 20
722.4095586157152
 30
0.0
 11
-37.12902235478051
 21
-1.889081697954351
 31
0.0
210
0.0
220
0.0
230
-0.9999999999999998
 40
0.9939370144897022
 41
0.0
 42
6.283185307179584
  0
ELLIPSE
  5
1B3
330
10F
100
AcDbEntity
  8
0
 62
     0
100
AcDbEllipse
 10
1461.853214429865
 20
877.5102183536844
 30
0.0
 11
0.0
 21
-38.08156012286561
 31
0.0
210
0.0
220
0.0
230
-1.0
 40
0.9839895141870108
 41
0.0
 42
6.283185307179584
  0
ELLIPSE
  5
1B4
330
10F
100
AcDbEntity
  8
0
 62
     0
100
AcDbEllipse
 10
1382.071376969455
 20
957.6188439134265
 30
0.0
 11
1.896395803160102
 21
-38.4213659301948
 31
0.0
210
0.0
220
0.0
230
-1.0
 40
0.9097684253863695
 41
0.0
 42
6.283185307179584
  0
ELLIPSE
  5
1B5
330
10F
100
AcDbEntity
  8
0
 62
     0
100
AcDbEllipse
 10
1304.204398119699
 20
1037.997085717971
 30
0.0
 11
2.044619584821534
 21
-38.65350871159686
 31
0.0
210
0.0
220
0.0
230
-0.9999999999999998
 40
0.9684076399980105
 41
0.0
 42
6.283185307179584
  0
ELLIPSE
  5
1B6
330
10F
100
AcDbEntity
  8
0
 62
     0
100
AcDbEllipse
 10
1461.018979450726
 20
1036.585891049806
 30
0.0
 11
0.0
 21
-39.06348103220477
 31
0.0
210
0.0
220
0.0
230
-1.0
 40
0.947444651313479
 41
0.0
 42
6.283185307179584
  0
ELLIPSE
  5
1B7
330
10F
100
AcDbEntity
  8
0
 62
     0
100
AcDbEllipse
 10
1025.440295095819
 20
982.3818790796407
 30
0.0
 11
1.495014207729617
 21
-32.19088518399145
 31
0.0
210
0.0
220
0.0
230
-1.0
 40
0.6551736887166888
 41
3.059318546647753
 42
6.506993200271656
  0
ELLIPSE
  5
1B8
330
10F
100
AcDbEntity
  8
0
 62
     0
100
AcDbEllipse
 10
1027.377357999514
 20
857.6185994453938
 30
0.0
 11
1.495014207729617
 21
-32.19088518399145
 31
0.0
210
0.0
220
0.0
230
-1.0
 40
0.6551736887166888
 41
2.965810147589523
 42
6.600501599329887
  0
ELLIPSE
  5
1B9
330
10F
100
AcDbEntity
  8
0
 62
     0
100
AcDbEllipse
 10
1031.184713903353
 20
741.2305030404024
 30
0.0
 11
13.31028064827205
 21
-35.2363289842047
 31
0.0
210
0.0
220
0.0
230
-0.9999999999999998
 40
0.4811876829804269
 41
3.378066902041308
 42
7.377793676600674
  0
ELLIPSE
  5
1BA
330
10F
100
AcDbEntity
  8
0
 62
     0
100
AcDbEllipse
 10
1039.430302382408
 20
622.7869277818533
 30
0.0
 11
14.25147078353903
 21
-35.54498373618375
 31
0.0
210
0.0
220
0.0
230
-1.0
 40
0.4152679124103772
 41
2.914110852870212
 42
8.046363111785312
  0
ELLIPSE
  5
1BB
330
10F
100
AcDbEntity
  8
0
 62
     0
100
AcDbEllipse
 10
1025.386377776561
 20
488.0576245798108
 30
0.0
 11
12.032862095992
 21
-31.65315550519224
 31
0.0
210
0.0
220
0.0
230
-1.0
 40
0.3228313403197935
 41
3.806209022154714
 42
7.352071412405987
  0
ELLIPSE
  5
1BC
330
10F
100
AcDbEntity
  8
0
 62
     0
100
AcDbEllipse
 10
1051.941657569364
 20
504.5062092726062
 30
0.0
 11
12.86271396292816
 21
-31.23848344341775
 31
0.0
210
0.0
220
0.0
230
-1.0
 40
0.2782702580544408
 41
0.0
 42
6.283185307179584
  0
ELLIPSE
  5
1BD
330
10F
100
AcDbEntity
  8
0
 62
     0
100
AcDbEllipse
 10
1084.029283141733
 20
528.4188541985456
 30
0.0
 11
15.90550414169423
 21
-31.92960354637491
 31
0.0
210
0.0
220
0.0
230
-1.0
 40
0.4643558402465539
 41
0.0
 42
6.283185307179584
  0
ELLIPSE
  5
1BE
330
10F
100
AcDbEntity
  8
0
 62
     0
100
AcDbEllipse
 10
1128.979626687193
 20
566.0156149300753
 30
0.0
 11
16.0438147912668
 21
-31.37670976893435
 31
0.0
210
0.0
220
0.0
230
-1.0
 40
0.5753939494386061
 41
0.0
 42
6.283185307179584
  0
ELLIPSE
  5
1BF
330
10F
100
AcDbEntity
  8
0
 62
     0
100
AcDbEllipse
 10
1178.936186151013
 20
610.6704741428663
 30
0.0
 11
19.31335583606522
 21
-31.70950169084431
 31
0.0
210
0.0
220
0.0
230
-1.0
 40
0.7526282289544934
 41
0.0
 42
6.283185307179584
  0
ELLIPSE
  5
1C0
330
10F
100
AcDbEntity
  8
0
 62
     0
100
AcDbEllipse
 10
1121.511352881092
 20
696.766675974665
 30
0.0
 11
15.61194790856336
 21
-31.7824894317781
 31
0.0
210
0.0
220
0.0
230
-1.0
 40
0.6841394345716645
 41
0.0
 42
6.283185307179584
  0
ELLIPSE
  5
1C1
330
10F
100
AcDbEntity
  8
0
 62
     0
100
AcDbEllipse
 10
1077.759355420867
 20
652.0785705301047
 30
0.0
 11
12.72084629549044
 21
-31.78248712685384
 31
0.0
210
0.0
220
0.0
230
-1.0
 40
0.4935221312573268
 41
0.0
 42
6.283185307179584
  0
ELLIPSE
  5
1C2
330
10F
100
AcDbEntity
  8
0
 62
     0
100
AcDbEllipse
 10
1071.635245381671
 20
779.5815918209398
 30
0.0
 11
8.278022707345106
 21
-32.02418843038185
 31
0.0
210
0.0
220
0.0
230
-1.0
 40
0.5598442547693111
 41
0.0
 42
6.283185307179584
  0
ELLIPSE
  5
1C3
330
10F
100
AcDbEntity
  8
0
 62
     0
100
AcDbEllipse
 10
1174.576473267773
 20
750.3595209154325
 30
0.0
 11
14.5532999905774
 21
-34.02569963104991
 31
0.0
210
0.0
220
0.0
230
-0.9999999999999998
 40
0.7310194254182731
 41
0.0
 42
6.283185307179584
  0
ELLIPSE
  5
1C4
330
10F
100
AcDbEntity
  8
0
 62
     0
100
AcDbEllipse
 10
1117.813878927131
 20
832.7092223143079
 30
0.0
 11
10.07328611643248
 21
-33.38910943319605
 31
0.0
210
0.0
220
0.0
230
-1.0
 40
0.6901520096124371
 41
0.0
 42
6.283185307179584
  0
ELLIPSE
  5
1C5
330
10F
100
AcDbEntity
  8
0
 62
     0
100
AcDbEllipse
 10
1065.939934447623
 20
913.5417347844693
 30
0.0
 11
6.510662038174756
 21
-32.08959066460804
 31
0.0
210
0.0
220
0.0
230
-1.0
 40
0.6433519553795857
 41
0.0
 42
6.283185307179584
  0
ELLIPSE
  5
1C6
330
10F
100
AcDbEntity
  8
0
 62
     0
100
AcDbEllipse
 10
1241.452567676543
 20
667.6487922688572
 30
0.0
 11
20.11691303993205
 21
-31.73638402592044
 31
0.0
210
0.0
220
0.0
230
-1.0
 40
0.7853428073352033
 41
0.0
 42
6.283185307179584
  0
ELLIPSE
  5
1C7
330
10F
100
AcDbEntity
  8
0
 62
     0
100
AcDbEllipse
 10
1246.204061816119
 20
527.0603293613701
 30
0.0
 11
22.68993224032243
 21
-29.15476710852473
 31
0.0
210
0.0
220
0.0
230
-1.0
 40
0.8140476902349892
 41
0.0
 42
6.283185307179584
  0
ELLIPSE
  5
1C8
330
10F
100
AcDbEntity
  8
0
 62
     0
100
AcDbEllipse
 10
1188.34078900029
 20
480.513235421027
 30
0.0
 11
21.14070859910617
 21
-29.26467052111788
 31
0.0
210
0.0
220
0.0
230
-1.0
 40
0.6517585741059463
 41
0.0
 42
6.283185307179584
  0
ELLIPSE
  5
1C9
330
10F
100
AcDbEntity
  8
0
 62
     0
100
AcDbEllipse
 10
1136.16141418404
 20
441.3048530017969
 30
0.0
 11
19.5780428791035
 21
-29.43869002003686
 31
0.0
210
0.0
220
0.0
230
-1.0
 40
0.5677403822323596
 41
0.0
 42
6.283185307179584
  0
ELLIPSE
  5
1CA
330
10F
100
AcDbEntity
  8
0
 62
     0
100
AcDbEllipse
 10
1094.844241569476
 20
413.5705924566356
 30
0.0
 11
16.51729116367686
 21
-28.49943556912093
 31
0.0
210
0.0
220
0.0
230
-1.0
 40
0.4337608387177524
 41
0.0
 42
6.283185307179584
  0
ELLIPSE
  5
1CB
330
10F
100
AcDbEntity
  8
0
 62
     0
100
AcDbEllipse
 10
1061.24495959756
 20
396.3580635695927
 30
0.0
 11
13.41147720501215
 21
-29.91030063307363
 31
0.0
210
0.0
220
0.0
230
-1.0
 40
0.2976157912374005
 41
0.0
 42
6.283185307179584
  0
ELLIPSE
  5
1CC
330
10F
100
AcDbEntity
  8
0
 62
     0
100
AcDbEllipse
 10
1032.445578487494
 20
392.8309043670967
 30
0.0
 11
15.38790390505613
 21
-34.00180217327163
 31
0.0
210
0.0
220
0.0
230
-0.9999999999999998
 40
0.2004781885708614
 41
3.642161334497195
 42
8.090198374780053
  0
ELLIPSE
  5
1CD
330
10F
100
AcDbEntity
  8
0
 62
     0
100
AcDbEllipse
 10
1470.488097861912
 20
195.6985877825397
 30
0.0
 11
-33.59813907440287
 21
4.874140977504449
 31
0.0
210
0.0
220
0.0
230
-0.9999999999999998
 40
0.679559020682735
 41
0.0
 42
6.283185307179584
  0
ELLIPSE
  5
1CE
330
10F
100
AcDbEntity
  8
0
 62
     0
100
AcDbEllipse
 10
1541.328486676369
 20
64.68196485543666
 30
0.0
 11
-31.92014898036659
 21
0.0
 31
0.0
210
0.0
220
0.0
230
-1.0
 40
0.5030449809720228
 41
0.0
 42
6.283185307179584
  0
ELLIPSE
  5
1CF
330
10F
100
AcDbEntity
  8
0
 62
     0
100
AcDbEllipse
 10
1541.409740674101
 20
146.3846670171712
 30
0.0
 11
-34.58688577659648
 21
0.0
 31
0.0
210
0.0
220
0.0
230
-1.0
 40
0.6791071082771328
 41
0.0
 42
6.283185307179584
  0
ELLIPSE
  5
1D0
330
10F
100
AcDbEntity
  8
0
 62
     0
100
AcDbEllipse
 10
1540.172179168683
 20
247.7787176531521
 30
0.0
 11
-34.3319835403123
 21
0.0
 31
0.0
210
0.0
220
0.0
230
-1.0
 40
0.78795292034164
 41
0.0
 42
6.283185307179584
  0
ELLIPSE
  5
1D1
330
10F
100
AcDbEntity
  8
0
 62
     0
100
AcDbEllipse
 10
1539.916430787213
 20
365.2483816151891
 30
0.0
 11
-34.07402956716722
 21
0.0
 31
0.0
210
0.0
220
0.0
230
-1.0
 40
0.8535288010029494
 41
0.0
 42
6.283185307179584
  0
ELLIPSE
  5
1D2
330
10F
100
AcDbEntity
  8
0
 62
     0
100
AcDbEllipse
 10
1541.250292435832
 20
500.1676751383858
 30
0.0
 11
-38.21362841026203
 21
0.0
 31
0.0
210
0.0
220
0.0
230
-1.0
 40
0.9015312461323162
 41
0.0
 42
6.283185307179584
  0
ELLIPSE
  5
1D3
330
10F
100
AcDbEntity
  8
0
 62
     0
100
AcDbEllipse
 10
1541.885719390537
 20
646.1841523937543
 30
0.0
 11
-38.58475329792092
 21
0.0
 31
0.0
210
0.0
220
0.0
230
-1.0
 40
0.9667154570683159
 41
0.0
 42
6.283185307179584
  0
ELLIPSE
  5
1D4
330
10F
100
AcDbEntity
  8
0
 62
     0
100
AcDbEllipse
 10
1541.681581854538
 20
800.8593461082625
 30
0.0
 11
0.0
 21
40.26994600918643
 31
0.0
210
0.0
220
0.0
230
-1.0
 40
0.9674682045404674
 41
0.0
 42
6.283185307179584
  0
ELLIPSE
  5
1D5
330
10F
100
AcDbEntity
  8
0
 62
     0
100
AcDbEllipse
 10
1541.6655692589
 20
956.9951935620199
 30
0.0
 11
0.0
 21
39.08110269694754
 31
0.0
210
0.0
220
0.0
230
-1.0
 40
0.9827856281975739
 41
0.0
 42
6.283185307179584
  0
ELLIPSE
  5
1D6
330
10F
100
AcDbEntity
  8
0
 62
     0
100
AcDbEllipse
 10
1311.567753934349
 20
584.9278481966577
 30
0.0
 11
-22.64498228175275
 21
30.57593749015938
 31
0.0
210
0.0
220
0.0
230
-1.0
 40
0.8582798329265973
 41
0.0
 42
6.283185307179584
  0
ELLIPSE
  5
1D7
330
10F
100
AcDbEntity
  8
0
 62
     0
100
AcDbEllipse
 10
1465.078407041105
 20
432.6988870460051
 30
0.0
 11
-37.79347923466386
 21
5.941371754444041
 31
0.0
210
0.0
220
0.0
230
-1.0
 40
0.7875876969600179
 41
0.0
 42
6.283185307179584
  0
ELLIPSE
  5
1D8
330
10F
100
AcDbEntity
  8
0
 62
     0
100
AcDbEllipse
 10
1605.165821123915
 20
2198.407413211346
 30
0.0
 11
30.42603706014464
 21
0.0
 31
0.0
210
0.0
220
0.0
230
-1.0
 40
0.3372402171875113
 41
6.009348737011023
 42
9.698614530937939
  0
ELLIPSE
  5
1D9
330
10F
100
AcDbEntity
  8
0
 62
     0
100
AcDbEllipse
 10
1727.824389039708
 20
2182.87404952114
 30
0.0
 11
28.26679488046243
 21
-10.11396515030851
 31
0.0
210
0.0
220
0.0
230
-1.0
 40
0.4689952453060453
 41
0.0
 42
6.283185307179584
  0
ELLIPSE
  5
1DA
330
10F
100
AcDbEntity
  8
0
 62
     0
100
AcDbEllipse
 10
1667.626581637289
 20
2160.204819195214
 30
0.0
 11
30.18614888799537
 21
-9.416451186637837
 31
0.0
210
0.0
220
0.0
230
-1.0
 40
0.4997640396812409
 41
0.0
 42
6.283185307179584
  0
ELLIPSE
  5
1DB
330
10F
100
AcDbEntity
  8
0
 62
     0
100
AcDbEllipse
 10
1605.334937874095
 20
2130.909195842257
 30
0.0
 11
32.4544676019878
 21
-6.277632587808718
 31
0.0
210
0.0
220
0.0
230
-1.0
 40
0.5310369267309467
 41
0.0
 42
6.283185307179584
  0
ELLIPSE
  5
1DC
330
10F
100
AcDbEntity
  8
0
 62
     0
100
AcDbEllipse
 10
1676.486972783679
 20
2080.32190106752
 30
0.0
 11
30.18144897261939
 21
-13.57327198377746
 31
0.0
210
0.0
220
0.0
230
-1.0
 40
0.6086522554516111
 41
0.0
 42
6.283185307179584
  0
ELLIPSE
  5
1DD
330
10F
100
AcDbEntity
  8
0
 62
     0
100
AcDbEllipse
 10
1737.317287739438
 20
2111.723676890981
 30
0.0
 11
29.78965568577537
 21
-14.27805798441649
 31
0.0
210
0.0
220
0.0
230
-1.0
 40
0.5613751132608095
 41
0.0
 42
6.283185307179584
  0
ELLIPSE
  5
1DE
330
10F
100
AcDbEntity
  8
0
 62
     0
100
AcDbEllipse
 10
1791.761171611309
 20
2132.999248414751
 30
0.0
 11
27.52052691810872
 21
-15.66173876817708
 31
0.0
210
0.0
220
0.0
230
-0.9999999999999998
 40
0.3840801736235547
 41
0.0
 42
6.283185307179584
  0
ELLIPSE
  5
1DF
330
10F
100
AcDbEntity
  8
0
 62
     0
100
AcDbEllipse
 10
1842.109600555138
 20
2147.603017592848
 30
0.0
 11
24.42389223102677
 21
-15.82364819348806
 31
0.0
210
0.0
220
0.0
230
-1.0
 40
0.4305391531601336
 41
0.0
 42
6.283185307179584
  0
ELLIPSE
  5
1E0
330
10F
100
AcDbEntity
  8
0
 62
     0
100
AcDbEllipse
 10
1885.275516161944
 20
2153.076176193047
 30
0.0
 11
22.41694816237614
 21
-16.02342061445038
 31
0.0
210
0.0
220
0.0
230
-1.0
 40
0.3779979851668673
 41
0.0
 42
6.283185307179584
  0
ELLIPSE
  5
1E1
330
10F
100
AcDbEntity
  8
0
 62
     0
100
AcDbEllipse
 10
1923.245109887687
 20
2155.452516529645
 30
0.0
 11
20.88636778616046
 21
-15.15950723243758
 31
0.0
210
0.0
220
0.0
230
-0.9999999999999998
 40
0.3620484457960908
 41
0.0
 42
6.283185307179584
  0
ELLIPSE
  5
1E2
330
10F
100
AcDbEntity
  8
0
 62
     0
100
AcDbEllipse
 10
1955.916523498119
 20
2158.017969011142
 30
0.0
 11
19.71952958070463
 21
-14.92628344142003
 31
0.0
210
0.0
220
0.0
230
-0.9999999999999998
 40
0.3132060541742065
 41
0.0
 42
6.283185307179584
  0
ELLIPSE
  5
1E3
330
10F
100
AcDbEntity
  8
0
 62
     0
100
AcDbEllipse
 10
1987.304411072396
 20
2162.33259877281
 30
0.0
 11
17.26917335941397
 21
-14.80967269837363
 31
0.0
210
0.0
220
0.0
230
-1.0
 40
0.351703405504709
 41
0.0
 42
6.283185307179584
  0
ELLIPSE
  5
1E4
330
10F
100
AcDbEntity
  8
0
 62
     0
100
AcDbEllipse
 10
2021.64383825767
 20
2176.526367276041
 30
0.0
 11
16.08965423127789
 21
-16.08965423127789
 31
0.0
210
0.0
220
0.0
230
-0.9999999999999998
 40
0.5254634900290626
 41
0.0
 42
6.283185307179584
  0
ELLIPSE
  5
1E5
330
10F
100
AcDbEntity
  8
0
 62
     0
100
AcDbEllipse
 10
2031.58370535234
 20
2103.587166443769
 30
0.0
 11
15.0808053389707
 21
-22.73497138406114
 31
0.0
210
0.0
220
0.0
230
-1.0
 40
0.2810715458434808
 41
0.0
 42
6.283185307179584
  0
ELLIPSE
  5
1E6
330
10F
100
AcDbEntity
  8
0
 62
     0
100
AcDbEllipse
 10
2003.083542830783
 20
2098.60590640253
 30
0.0
 11
15.97542941848766
 21
-21.58545019068723
 31
0.0
210
0.0
220
0.0
230
-1.0
 40
0.1951258246945301
 41
0.0
 42
6.283185307179584
  0
ELLIPSE
  5
1E7
330
10F
100
AcDbEntity
  8
0
 62
     0
100
AcDbEllipse
 10
1973.81655222219
 20
2096.945489462019
 30
0.0
 11
17.63687356470898
 21
-20.69137917580726
 31
0.0
210
0.0
220
0.0
230
-1.0
 40
0.3037436373290199
 41
0.0
 42
6.283185307179584
  0
ELLIPSE
  5
1E8
330
10F
100
AcDbEntity
  8
0
 62
     0
100
AcDbEllipse
 10
1940.657149446051
 20
2095.54320563218
 30
0.0
 11
21.40148973977637
 21
-22.09903347985646
 31
0.0
210
0.0
220
0.0
230
-1.0
 40
0.2954908278377448
 41
0.0
 42
6.283185307179584
  0
ELLIPSE
  5
1E9
330
10F
100
AcDbEntity
  8
0
 62
     0
100
AcDbEllipse
 10
1903.0880149774
 20
2087.382617943074
 30
0.0
 11
22.33728620082914
 21
-20.73605091859239
 31
0.0
210
0.0
220
0.0
230
-1.0
 40
0.3826752338158837
 41
0.0
 42
6.283185307179584
  0
ELLIPSE
  5
1EA
330
10F
100
AcDbEntity
  8
0
 62
     0
100
AcDbEllipse
 10
1857.286256898644
 20
2073.49215837662
 30
0.0
 11
24.58707794465547
 21
-20.89923266225676
 31
0.0
210
0.0
220
0.0
230
-1.0
 40
0.4144710327891679
 41
0.0
 42
6.283185307179584
  0
ELLIPSE
  5
1EB
330
10F
100
AcDbEntity
  8
0
 62
     0
100
AcDbEllipse
 10
1805.809318922703
 20
2051.520282974568
 30
0.0
 11
26.5156633559373
 21
-20.23183023296224
 31
0.0
210
0.0
220
0.0
230
-1.0
 40
0.5447945635724488
 41
0.0
 42
6.283185307179584
  0
ELLIPSE
  5
1EC
330
10F
100
AcDbEntity
  8
0
 62
     0
100
AcDbEllipse
 10
1747.108502740181
 20
2020.936432678415
 30
0.0
 11
28.36117014364141
 21
-19.08012858096033
 31
0.0
210
0.0
220
0.0
230
-1.0
 40
0.6609049286427032
 41
0.0
 42
6.283185307179584
  0
ELLIPSE
  5
1ED
330
10F
100
AcDbEntity
  8
0
 62
     0
100
AcDbEllipse
 10
1682.705802960408
 20
1979.302870876207
 30
0.0
 11
29.02016885821378
 21
-18.64430883640123
 31
0.0
210
0.0
220
0.0
230
-1.0
 40
0.7880072252956542
 41
0.0
 42
6.283185307179584
  0
ELLIPSE
  5
1EE
330
10F
100
AcDbEntity
  8
0
 62
     0
100
AcDbEllipse
 10
1612.634287418005
 20
1930.609216833
 30
0.0
 11
31.43125351698556
 21
-15.93577124842758
 31
0.0
210
0.0
220
0.0
230
-1.0
 40
0.825027248145369
 41
0.0
 42
6.283185307179584
  0
ELLIPSE
  5
1EF
330
10F
100
AcDbEntity
  8
0
 62
     0
100
AcDbEllipse
 10
1687.476730367826
 20
1860.825420141485
 30
0.0
 11
27.76228382794173
 21
-22.15758547830683
 31
0.0
210
0.0
220
0.0
230
-0.9999999999999998
 40
0.7814370002040994
 41
0.0
 42
6.283185307179584
  0
ELLIPSE
  5
1F0
330
10F
100
AcDbEntity
  8
0
 62
     0
100
AcDbEllipse
 10
1757.559133512834
 20
1911.704965520149
 30
0.0
 11
27.357176787645
 21
-22.41564483139607
 31
0.0
210
0.0
220
0.0
230
-1.0
 40
0.7577332530563343
 41
0.0
 42
6.283185307179584
  0
ELLIPSE
  5
1F1
330
10F
100
AcDbEntity
  8
0
 62
     0
100
AcDbEllipse
 10
1818.070857342645
 20
1951.830380808654
 30
0.0
 11
24.31143855844612
 21
-24.31143855844612
 31
0.0
210
0.0
220
0.0
230
-1.0
 40
0.6802716780200933
 41
0.0
 42
6.283185307179584
  0
ELLIPSE
  5
1F2
330
10F
100
AcDbEntity
  8
0
 62
     0
100
AcDbEllipse
 10
1871.619794599659
 20
1982.598095040353
 30
0.0
 11
22.99360726813026
 21
-22.99360726813026
 31
0.0
210
0.0
220
0.0
230
-0.9999999999999998
 40
0.5741637720713002
 41
0.0
 42
6.283185307179584
  0
ELLIPSE
  5
1F3
330
10F
100
AcDbEntity
  8
0
 62
     0
100
AcDbEllipse
 10
1918.502752974911
 20
2002.4476678731
 30
0.0
 11
22.90408911584604
 21
-22.90408911584604
 31
0.0
210
0.0
220
0.0
230
-1.0
 40
0.4186236573607289
 41
0.0
 42
6.283185307179584
  0
ELLIPSE
  5
1F4
330
10F
100
AcDbEntity
  8
0
 62
     0
100
AcDbEllipse
 10
1958.511345974882
 20
2017.741159562481
 30
0.0
 11
19.21616944602742
 21
-25.53539939923706
 31
0.0
210
0.0
220
0.0
230
-1.0
 40
0.3766047139849467
 41
0.0
 42
6.283185307179584
  0
ELLIPSE
  5
1F5
330
10F
100
AcDbEntity
  8
0
 62
     0
100
AcDbEllipse
 10
1991.664516951957
 20
2023.439138198773
 30
0.0
 11
16.04866709297754
 21
-24.4802164629427
 31
0.0
210
0.0
220
0.0
230
-1.0
 40
0.3241712871052219
 41
0.0
 42
6.283185307179584
  0
ELLIPSE
  5
1F6
330
10F
100
AcDbEntity
  8
0
 62
     0
100
AcDbEllipse
 10
2020.142459139813
 20
2023.572459644837
 30
0.0
 11
13.31158395245028
 21
-25.14482762860148
 31
0.0
210
0.0
220
0.0
230
-1.0
 40
0.2108018908727055
 41
0.0
 42
6.283185307179584
  0
ELLIPSE
  5
1F7
330
10F
100
AcDbEntity
  8
0
 62
     0
100
AcDbEllipse
 10
2045.595376187394
 20
2021.964359881855
 30
0.0
 11
-15.35951593496879
 21
29.09197865874336
 31
0.0
210
0.0
220
0.0
230
-1.0
 40
0.244560068360591
 41
3.503656402014906
 42
8.195138527442518
  0
ELLIPSE
  5
1F8
330
10F
100
AcDbEntity
  8
0
 62
     0
100
AcDbEllipse
 10
2061.804161216476
 20
2116.480665468168
 30
0.0
 11
15.0808053389707
 21
-22.73497138406114
 31
0.0
210
0.0
220
0.0
230
-1.0
 40
0.2810715458434808
 41
1.439775629419719
 42
4.041824827120143
  0
ELLIPSE
  5
1F9
330
10F
100
AcDbEntity
  8
0
 62
     0
100
AcDbEllipse
 10
1776.40722178772
 20
2198.291918051785
 30
0.0
 11
24.42389223102677
 21
-15.82364819348806
 31
0.0
210
0.0
220
0.0
230
-1.0
 40
0.4305391531601336
 41
5.146194802244943
 42
8.593233048848867
  0
ELLIPSE
  5
1FA
330
10F
100
AcDbEntity
  8
0
 62
     0
100
AcDbEllipse
 10
1819.573137394526
 20
2203.765076651984
 30
0.0
 11
22.41694816237614
 21
-16.02342061445038
 31
0.0
210
0.0
220
0.0
230
-1.0
 40
0.3779979851668673
 41
5.341809248425247
 42
8.197440628250657
  0
ELLIPSE
  5
1FB
330
10F
100
AcDbEntity
  8
0
 62
     0
100
AcDbEllipse
 10
1864.677322965204
 20
2202.610235692739
 30
0.0
 11
20.88636778616046
 21
-15.15950723243758
 31
0.0
210
0.0
220
0.0
230
-0.9999999999999998
 40
0.3620484457960908
 41
5.259486283433363
 42
8.232291883150136
  0
ELLIPSE
  5
1FC
330
10F
100
AcDbEntity
  8
0
 62
     0
100
AcDbEllipse
 10
1903.423224812063
 20
2203.531410315453
 30
0.0
 11
19.71952958070463
 21
-14.92628344142003
 31
0.0
210
0.0
220
0.0
230
-0.9999999999999998
 40
0.3132060541742065
 41
5.250666993789478
 42
8.100370512577223
  0
ELLIPSE
  5
1FD
330
10F
100
AcDbEntity
  8
0
 62
     0
100
AcDbEllipse
 10
1934.811112386338
 20
2207.846040077121
 30
0.0
 11
17.26917335941397
 21
-14.80967269837363
 31
0.0
210
0.0
220
0.0
230
-1.0
 40
0.351703405504709
 41
5.530968485444509
 42
7.813788647427747
  0
ELLIPSE
  5
1FE
330
10F
100
AcDbEntity
  8
0
 62
     0
100
AcDbEllipse
 10
2056.044494808328
 20
2198.45530760658
 30
0.0
 11
16.08965423127789
 21
-16.08965423127789
 31
0.0
210
0.0
220
0.0
230
-0.9999999999999998
 40
0.5254634900290626
 41
1.010185497955116
 42
2.205206665925253
  0
ELLIPSE
  5
1FF
330
10F
100
AcDbEntity
  8
0
 62
     0
100
AcDbEllipse
 10
2053.873262549071
 20
1939.539036213281
 30
0.0
 11
-12.13246661655123
 21
29.56314672626579
 31
0.0
210
0.0
220
0.0
230
-1.0
 40
0.2004963466959972
 41
3.990701529268593
 42
7.66677945586937
  0
ELLIPSE
  5
200
330
10F
100
AcDbEntity
  8
0
 62
     0
100
AcDbEllipse
 10
2032.19840776551
 20
1939.675271083983
 30
0.0
 11
-11.99614500966298
 21
28.60949802150898
 31
0.0
210
0.0
220
0.0
230
-1.0
 40
0.2548630776677332
 41
0.0
 42
6.283185307179584
  0
ELLIPSE
  5
201
330
10F
100
AcDbEntity
  8
0
 62
     0
100
AcDbEllipse
 10
2005.479721699929
 20
1935.315729867376
 30
0.0
 11
-16.08574108414264
 21
29.15443980923796
 31
0.0
210
0.0
220
0.0
230
-1.0
 40
0.2538269047843527
 41
0.0
 42
6.283185307179584
  0
ELLIPSE
  5
202
330
10F
100
AcDbEntity
  8
0
 62
     0
100
AcDbEllipse
 10
1973.580878735242
 20
1923.190752617388
 30
0.0
 11
-18.81213713040706
 21
28.74573519713441
 31
0.0
210
0.0
220
0.0
230
-1.0
 40
0.3994236624772706
 41
0.0
 42
6.283185307179584
  0
ELLIPSE
  5
203
330
10F
100
AcDbEntity
  8
0
 62
     0
100
AcDbEllipse
 10
1931.32172598256
 20
1904.526460085101
 30
0.0
 11
-21.81117238028091
 21
28.33702597518186
 31
0.0
210
0.0
220
0.0
230
-0.9999999999999998
 40
0.4670865194507213
 41
0.0
 42
6.283185307179584
  0
ELLIPSE
  5
204
330
10F
100
AcDbEntity
  8
0
 62
     0
100
AcDbEllipse
 10
1882.529414156509
 20
1874.457331710845
 30
0.0
 11
-22.9693526358261
 21
28.26570238977625
 31
0.0
210
0.0
220
0.0
230
-0.9999999999999998
 40
0.6003268276440823
 41
0.0
 42
6.283185307179584
  0
ELLIPSE
  5
205
330
10F
100
AcDbEntity
  8
0
 62
     0
100
AcDbEllipse
 10
1825.414133674705
 20
1835.430485149505
 30
0.0
 11
-24.32329719929197
 21
26.42205086197707
 31
0.0
210
0.0
220
0.0
230
-1.0
 40
0.6840588260764199
 41
0.0
 42
6.283185307179584
  0
ELLIPSE
  5
206
330
10F
100
AcDbEntity
  8
0
 62
     0
100
AcDbEllipse
 10
1761.707245939836
 20
1785.92172450172
 30
0.0
 11
-26.63049848963351
 21
25.6825711369487
 31
0.0
210
0.0
220
0.0
230
-1.0
 40
0.7995240369076479
 41
0.0
 42
6.283185307179584
  0
ELLIPSE
  5
207
330
10F
100
AcDbEntity
  8
0
 62
     0
100
AcDbEllipse
 10
1692.442571927833
 20
1729.738909596972
 30
0.0
 11
-26.7154097593942
 21
25.77765157973423
 31
0.0
210
0.0
220
0.0
230
-0.9999999999999998
 40
0.9072308990429279
 41
0.0
 42
6.283185307179584
  0
ELLIPSE
  5
208
330
10F
100
AcDbEntity
  8
0
 62
     0
100
AcDbEllipse
 10
1616.610439886638
 20
1663.763025748204
 30
0.0
 11
-29.39327075805667
 21
23.78605846942339
 31
0.0
210
0.0
220
0.0
230
-1.0
 40
0.9471721172373143
 41
0.0
 42
6.283185307179584
  0
ELLIPSE
  5
209
330
10F
100
AcDbEntity
  8
0
 62
     0
100
AcDbEllipse
 10
1695.41689252031
 20
1586.218707122456
 30
0.0
 11
-26.80958050407134
 21
27.80137533833062
 31
0.0
210
0.0
220
0.0
230
-1.0
 40
0.9592665141672039
 41
0.0
 42
6.283185307179584
  0
ELLIPSE
  5
20A
330
10F
100
AcDbEntity
  8
0
 62
     0
100
AcDbEllipse
 10
1771.102757741188
 20
1505.291600548591
 30
0.0
 11
-23.30008311428972
 21
29.1071312327625
 31
0.0
210
0.0
220
0.0
230
-0.9999999999999998
 40
0.9348015168909629
 41
0.0
 42
6.283185307179584
  0
ELLIPSE
  5
20B
330
10F
100
AcDbEntity
  8
0
 62
     0
100
AcDbEllipse
 10
1842.288955260915
 20
1420.854630926083
 30
0.0
 11
-12.56928204496544
 21
35.20765802767482
 31
0.0
210
0.0
220
0.0
230
-1.0
 40
0.8281510902799336
 41
0.0
 42
6.283185307179584
  0
ELLIPSE
  5
20C
330
10F
100
AcDbEntity
  8
0
 62
     0
100
AcDbEllipse
 10
1908.55169467252
 20
1339.660321363422
 30
0.0
 11
-4.747616308376212
 21
35.79479145936872
 31
0.0
210
0.0
220
0.0
230
-1.0
 40
0.786297360742565
 41
0.0
 42
6.283185307179584
  0
ELLIPSE
  5
20D
330
10F
100
AcDbEntity
  8
0
 62
     0
100
AcDbEllipse
 10
1965.124908890641
 20
1261.755782213569
 30
0.0
 11
-3.238313876684649
 21
33.28784257290667
 31
0.0
210
0.0
220
0.0
230
-1.0
 40
0.7146619888316316
 41
0.0
 42
6.283185307179584
  0
ELLIPSE
  5
20E
330
10F
100
AcDbEntity
  8
0
 62
     0
100
AcDbEllipse
 10
2013.101163823196
 20
1188.159571161653
 30
0.0
 11
-1.495014207729617
 21
32.19088518399145
 31
0.0
210
0.0
220
0.0
230
-1.0
 40
0.6551736887166888
 41
0.0
 42
6.283185307179584
  0
ELLIPSE
  5
20F
330
10F
100
AcDbEntity
  8
0
 62
     0
100
AcDbEllipse
 10
1965.833858241662
 20
1119.439817536418
 30
0.0
 11
0.0
 21
34.50147524275582
 31
0.0
210
0.0
220
0.0
230
-1.0
 40
0.7343984306497921
 41
0.0
 42
6.283185307179584
  0
ELLIPSE
  5
210
330
10F
100
AcDbEntity
  8
0
 62
     0
100
AcDbEllipse
 10
1907.033642057097
 20
1193.839725816368
 30
0.0
 11
0.0
 21
35.40741200924112
 31
0.0
210
0.0
220
0.0
230
-1.0
 40
0.7731785972808104
 41
0.0
 42
6.283185307179584
  0
ELLIPSE
  5
211
330
10F
100
AcDbEntity
  8
0
 62
     0
100
AcDbEllipse
 10
1843.644371555566
 20
1270.79100348879
 30
0.0
 11
-2.474910472010954
 21
37.30686115064799
 31
0.0
210
0.0
220
0.0
230
-1.0
 40
0.8550030881524246
 41
0.0
 42
6.283185307179584
  0
ELLIPSE
  5
212
330
10F
100
AcDbEntity
  8
0
 62
     0
100
AcDbEllipse
 10
1774.598536350679
 20
1351.079791171386
 30
0.0
 11
-5.275614907274009
 21
37.24516293018115
 31
0.0
210
0.0
220
0.0
230
-1.0
 40
0.9599746624478688
 41
0.0
 42
6.283185307179584
  0
ELLIPSE
  5
213
330
10F
100
AcDbEntity
  8
0
 62
     0
100
AcDbEllipse
 10
1695.582720933794
 20
1433.549028262567
 30
0.0
 11
-17.60508497325729
 21
33.79609226665762
 31
0.0
210
0.0
220
0.0
230
-1.0
 40
0.8982307229594015
 41
0.0
 42
6.283185307179584
  0
ELLIPSE
  5
214
330
10F
100
AcDbEntity
  8
0
 62
     0
100
AcDbEllipse
 10
1617.912841777473
 20
1512.646317465809
 30
0.0
 11
37.12902235478051
 21
1.889081697954351
 31
0.0
210
0.0
220
0.0
230
-0.9999999999999998
 40
0.9939370144897022
 41
0.0
 42
6.283185307179584
  0
ELLIPSE
  5
215
330
10F
100
AcDbEntity
  8
0
 62
     0
100
AcDbEllipse
 10
1617.80289503699
 20
1357.545657727839
 30
0.0
 11
0.0
 21
38.08156012286561
 31
0.0
210
0.0
220
0.0
230
-1.0
 40
0.9839895141870108
 41
0.0
 42
6.283185307179584
  0
ELLIPSE
  5
216
330
10F
100
AcDbEntity
  8
0
 62
     0
100
AcDbEllipse
 10
1697.584732497406
 20
1277.437032168097
 30
0.0
 11
-1.896395803160102
 21
38.4213659301948
 31
0.0
210
0.0
220
0.0
230
-1.0
 40
0.9097684253863695
 41
0.0
 42
6.283185307179584
  0
ELLIPSE
  5
217
330
10F
100
AcDbEntity
  8
0
 62
     0
100
AcDbEllipse
 10
1775.451711347167
 20
1197.058790363551
 30
0.0
 11
-2.044619584821534
 21
38.65350871159686
 31
0.0
210
0.0
220
0.0
230
-0.9999999999999998
 40
0.9684076399980105
 41
0.0
 42
6.283185307179584
  0
ELLIPSE
  5
218
330
10F
100
AcDbEntity
  8
0
 62
     0
100
AcDbEllipse
 10
1618.637130016121
 20
1198.469985031715
 30
0.0
 11
0.0
 21
39.06348103220477
 31
0.0
210
0.0
220
0.0
230
-1.0
 40
0.947444651313479
 41
0.0
 42
6.283185307179584
  0
ELLIPSE
  5
219
330
10F
100
AcDbEntity
  8
0
 62
     0
100
AcDbEllipse
 10
1846.47903408246
 20
1119.235407607252
 30
0.0
 11
0.0
 21
37.61877506594683
 31
0.0
210
0.0
220
0.0
230
-1.0
 40
0.94563854561306
 41
0.0
 42
6.283185307179584
  0
ELLIPSE
  5
21A
330
10F
100
AcDbEntity
  8
0
 62
     0
100
AcDbEllipse
 10
1698.806546078188
 20
1117.995226816388
 30
0.0
 11
0.0
 21
39.27234868545852
 31
0.0
210
0.0
220
0.0
230
-1.0
 40
0.9795519212978291
 41
0.0
 42
6.283185307179584
  0
ELLIPSE
  5
21B
330
10F
100
AcDbEntity
  8
0
 62
     0
100
AcDbEllipse
 10
2054.215814371022
 20
1252.673997001882
 30
0.0
 11
-1.495014207729617
 21
32.19088518399145
 31
0.0
210
0.0
220
0.0
230
-1.0
 40
0.6551736887166888
 41
3.059318546647753
 42
6.506993200271656
  0
ELLIPSE
  5
21C
330
10F
100
AcDbEntity
  8
0
 62
     0
100
AcDbEllipse
 10
2052.278751467333
 20
1377.437276636129
 30
0.0
 11
-1.495014207729617
 21
32.19088518399145
 31
0.0
210
0.0
220
0.0
230
-1.0
 40
0.6551736887166888
 41
2.965810147589523
 42
6.600501599329887
  0
ELLIPSE
  5
21D
330
10F
100
AcDbEntity
  8
0
 62
     0
100
AcDbEllipse
 10
2048.471395563491
 20
1493.825373041121
 30
0.0
 11
-13.31028064827205
 21
35.2363289842047
 31
0.0
210
0.0
220
0.0
230
-0.9999999999999998
 40
0.4811876829804269
 41
3.378066902041308
 42
7.377793676600674
  0
ELLIPSE
  5
21E
330
10F
100
AcDbEntity
  8
0
 62
     0
100
AcDbEllipse
 10
2040.225807084453
 20
1612.268948299669
 30
0.0
 11
-14.25147078353903
 21
35.54498373618375
 31
0.0
210
0.0
220
0.0
230
-1.0
 40
0.4152679124103772
 41
2.914110852870212
 42
8.046363111785312
  0
ELLIPSE
  5
21F
330
10F
100
AcDbEntity
  8
0
 62
     0
100
AcDbEllipse
 10
2054.269731690284
 20
1746.998251501712
 30
0.0
 11
-12.032862095992
 21
31.65315550519224
 31
0.0
210
0.0
220
0.0
230
-1.0
 40
0.3228313403197935
 41
3.806209022154714
 42
7.352071412405987
  0
ELLIPSE
  5
220
330
10F
100
AcDbEntity
  8
0
 62
     0
100
AcDbEllipse
 10
2027.71445189751
 20
1730.549666808917
 30
0.0
 11
-12.86271396292816
 21
31.23848344341775
 31
0.0
210
0.0
220
0.0
230
-1.0
 40
0.2782702580544408
 41
0.0
 42
6.283185307179584
  0
ELLIPSE
  5
221
330
10F
100
AcDbEntity
  8
0
 62
     0
100
AcDbEllipse
 10
1995.626826325122
 20
1706.637021882977
 30
0.0
 11
-15.90550414169423
 21
31.92960354637491
 31
0.0
210
0.0
220
0.0
230
-1.0
 40
0.4643558402465539
 41
0.0
 42
6.283185307179584
  0
ELLIPSE
  5
222
330
10F
100
AcDbEntity
  8
0
 62
     0
100
AcDbEllipse
 10
1950.676482779662
 20
1669.040261151447
 30
0.0
 11
-16.0438147912668
 21
31.37670976893435
 31
0.0
210
0.0
220
0.0
230
-1.0
 40
0.5753939494386061
 41
0.0
 42
6.283185307179584
  0
ELLIPSE
  5
223
330
10F
100
AcDbEntity
  8
0
 62
     0
100
AcDbEllipse
 10
1900.71992331584
 20
1624.385401938658
 30
0.0
 11
-19.31335583606522
 21
31.70950169084431
 31
0.0
210
0.0
220
0.0
230
-1.0
 40
0.7526282289544934
 41
0.0
 42
6.283185307179584
  0
ELLIPSE
  5
224
330
10F
100
AcDbEntity
  8
0
 62
     0
100
AcDbEllipse
 10
1958.144756585753
 20
1538.289200106858
 30
0.0
 11
-15.61194790856336
 21
31.7824894317781
 31
0.0
210
0.0
220
0.0
230
-1.0
 40
0.6841394345716645
 41
0.0
 42
6.283185307179584
  0
ELLIPSE
  5
225
330
10F
100
AcDbEntity
  8
0
 62
     0
100
AcDbEllipse
 10
2001.89675404598
 20
1582.977305551418
 30
0.0
 11
-12.72084629549044
 21
31.78248712685384
 31
0.0
210
0.0
220
0.0
230
-1.0
 40
0.4935221312573268
 41
0.0
 42
6.283185307179584
  0
ELLIPSE
  5
226
330
10F
100
AcDbEntity
  8
0
 62
     0
100
AcDbEllipse
 10
2008.020864085192
 20
1455.474284260584
 30
0.0
 11
-8.278022707345106
 21
32.02418843038185
 31
0.0
210
0.0
220
0.0
230
-1.0
 40
0.5598442547693111
 41
0.0
 42
6.283185307179584
  0
ELLIPSE
  5
227
330
10F
100
AcDbEntity
  8
0
 62
     0
100
AcDbEllipse
 10
1905.079636199076
 20
1484.69635516609
 30
0.0
 11
-14.5532999905774
 21
34.02569963104991
 31
0.0
210
0.0
220
0.0
230
-0.9999999999999998
 40
0.7310194254182731
 41
0.0
 42
6.283185307179584
  0
ELLIPSE
  5
228
330
10F
100
AcDbEntity
  8
0
 62
     0
100
AcDbEllipse
 10
1961.842230539732
 20
1402.346653767215
 30
0.0
 11
-10.07328611643248
 21
33.38910943319605
 31
0.0
210
0.0
220
0.0
230
-1.0
 40
0.6901520096124371
 41
0.0
 42
6.283185307179584
  0
ELLIPSE
  5
229
330
10F
100
AcDbEntity
  8
0
 62
     0
100
AcDbEllipse
 10
2013.716175019233
 20
1321.514141297054
 30
0.0
 11
-6.510662038174756
 21
32.08959066460804
 31
0.0
210
0.0
220
0.0
230
-1.0
 40
0.6433519553795857
 41
0.0
 42
6.283185307179584
  0
ELLIPSE
  5
22A
330
10F
100
AcDbEntity
  8
0
 62
     0
100
AcDbEllipse
 10
1838.203541790309
 20
1567.407083812666
 30
0.0
 11
-20.11691303993205
 21
31.73638402592044
 31
0.0
210
0.0
220
0.0
230
-1.0
 40
0.7853428073352033
 41
0.0
 42
6.283185307179584
  0
ELLIPSE
  5
22B
330
10F
100
AcDbEntity
  8
0
 62
     0
100
AcDbEllipse
 10
1833.452047650725
 20
1707.995546720153
 30
0.0
 11
-22.68993224032243
 21
29.15476710852473
 31
0.0
210
0.0
220
0.0
230
-1.0
 40
0.8140476902349892
 41
0.0
 42
6.283185307179584
  0
ELLIPSE
  5
22C
330
10F
100
AcDbEntity
  8
0
 62
     0
100
AcDbEllipse
 10
1891.31532046657
 20
1754.542640660496
 30
0.0
 11
-21.14070859910617
 21
29.26467052111788
 31
0.0
210
0.0
220
0.0
230
-1.0
 40
0.6517585741059463
 41
0.0
 42
6.283185307179584
  0
ELLIPSE
  5
22D
330
10F
100
AcDbEntity
  8
0
 62
     0
100
AcDbEllipse
 10
1943.494695282813
 20
1793.751023079725
 30
0.0
 11
-19.5780428791035
 21
29.43869002003686
 31
0.0
210
0.0
220
0.0
230
-1.0
 40
0.5677403822323596
 41
0.0
 42
6.283185307179584
  0
ELLIPSE
  5
22E
330
10F
100
AcDbEntity
  8
0
 62
     0
100
AcDbEllipse
 10
1984.811867897379
 20
1821.485283624888
 30
0.0
 11
-16.51729116367686
 21
28.49943556912093
 31
0.0
210
0.0
220
0.0
230
-1.0
 40
0.4337608387177524
 41
0.0
 42
6.283185307179584
  0
ELLIPSE
  5
22F
330
10F
100
AcDbEntity
  8
0
 62
     0
100
AcDbEllipse
 10
2018.411149869304
 20
1838.697812511929
 30
0.0
 11
-13.41147720501215
 21
29.91030063307363
 31
0.0
210
0.0
220
0.0
230
-1.0
 40
0.2976157912374005
 41
0.0
 42
6.283185307179584
  0
ELLIPSE
  5
230
330
10F
100
AcDbEntity
  8
0
 62
     0
100
AcDbEllipse
 10
2047.210530979362
 20
1842.224971714426
 30
0.0
 11
-15.38790390505613
 21
34.00180217327163
 31
0.0
210
0.0
220
0.0
230
-0.9999999999999998
 40
0.2004781885708614
 41
3.642161334497195
 42
8.090198374780053
  0
ELLIPSE
  5
231
330
10F
100
AcDbEntity
  8
0
 62
     0
100
AcDbEllipse
 10
1609.168011604941
 20
2039.357288298983
 30
0.0
 11
33.59813907440287
 21
-4.874140977504449
 31
0.0
210
0.0
220
0.0
230
-0.9999999999999998
 40
0.679559020682735
 41
0.0
 42
6.283185307179584
  0
ELLIPSE
  5
232
330
10F
100
AcDbEntity
  8
0
 62
     0
100
AcDbEllipse
 10
1768.088355532517
 20
1650.128027884865
 30
0.0
 11
22.64498228175275
 21
-30.57593749015938
 31
0.0
210
0.0
220
0.0
230
-1.0
 40
0.8582798329265973
 41
0.0
 42
6.283185307179584
  0
ELLIPSE
  5
233
330
10F
100
AcDbEntity
  8
0
 62
     0
100
AcDbEllipse
 10
1614.577702425747
 20
1802.356989035518
 30
0.0
 11
37.79347923466386
 21
-5.941371754444041
 31
0.0
210
0.0
220
0.0
230
-1.0
 40
0.7875876969600179
 41
0.0
 42
6.283185307179584
  0
ELLIPSE
  5
234
330
10F
100
AcDbEntity
  8
0
 62
     0
100
AcDbEllipse
 10
2045.202957314544
 20
1120.348983502205
 30
0.0
 11
0.0
 21
30.13114697923498
 31
0.0
210
0.0
220
0.0
230
-1.0
 40
0.4974821035627393
 41
2.186619680855028
 42
7.238158279914356
  0
ELLIPSE
  5
235
330
10F
100
AcDbEntity
  8
0
 62
     0
100
AcDbEllipse
 10
1605.165821123915
 20
36.64846287017616
 30
0.0
 11
30.42603706014464
 21
0.0
 31
0.0
210
0.0
220
0.0
230
1.0
 40
0.3372402171875113
 41
6.009348737011023
 42
9.698614530937939
  0
ELLIPSE
  5
236
330
10F
100
AcDbEntity
  8
0
 62
     0
100
AcDbEllipse
 10
1727.824389039708
 20
52.1818265603826
 30
0.0
 11
28.26679488046243
 21
10.11396515030851
 31
0.0
210
0.0
220
0.0
230
1.0
 40
0.4689952453060453
 41
0.0
 42
6.283185307179584
  0
ELLIPSE
  5
237
330
10F
100
AcDbEntity
  8
0
 62
     0
100
AcDbEllipse
 10
1667.626581637289
 20
74.85105688630795
 30
0.0
 11
30.18614888799537
 21
9.416451186637837
 31
0.0
210
0.0
220
0.0
230
1.0
 40
0.4997640396812409
 41
0.0
 42
6.283185307179584
  0
ELLIPSE
  5
238
330
10F
100
AcDbEntity
  8
0
 62
     0
100
AcDbEllipse
 10
1605.334937874095
 20
104.1466802392653
 30
0.0
 11
32.4544676019878
 21
6.277632587808718
 31
0.0
210
0.0
220
0.0
230
1.0
 40
0.5310369267309467
 41
0.0
 42
6.283185307179584
  0
ELLIPSE
  5
239
330
10F
100
AcDbEntity
  8
0
 62
     0
100
AcDbEllipse
 10
1676.486972783679
 20
154.7339750140024
 30
0.0
 11
30.18144897261939
 21
13.57327198377746
 31
0.0
210
0.0
220
0.0
230
1.0
 40
0.6086522554516111
 41
0.0
 42
6.283185307179584
  0
ELLIPSE
  5
23A
330
10F
100
AcDbEntity
  8
0
 62
     0
100
AcDbEllipse
 10
1737.317287739438
 20
123.332199190542
 30
0.0
 11
29.78965568577537
 21
14.27805798441649
 31
0.0
210
0.0
220
0.0
230
1.0
 40
0.5613751132608095
 41
0.0
 42
6.283185307179584
  0
ELLIPSE
  5
23B
330
10F
100
AcDbEntity
  8
0
 62
     0
100
AcDbEllipse
 10
1791.761171611309
 20
102.0566276667716
 30
0.0
 11
27.52052691810872
 21
15.66173876817708
 31
0.0
210
0.0
220
0.0
230
0.9999999999999998
 40
0.3840801736235547
 41
0.0
 42
6.283185307179584
  0
ELLIPSE
  5
23C
330
10F
100
AcDbEntity
  8
0
 62
     0
100
AcDbEllipse
 10
1842.109600555138
 20
87.45285848867496
 30
0.0
 11
24.42389223102677
 21
15.82364819348806
 31
0.0
210
0.0
220
0.0
230
1.0
 40
0.4305391531601336
 41
0.0
 42
6.283185307179584
  0
ELLIPSE
  5
23D
330
10F
100
AcDbEntity
  8
0
 62
     0
100
AcDbEllipse
 10
1885.275516161944
 20
81.9796998884753
 30
0.0
 11
22.41694816237614
 21
16.02342061445038
 31
0.0
210
0.0
220
0.0
230
1.0
 40
0.3779979851668673
 41
0.0
 42
6.283185307179584
  0
ELLIPSE
  5
23E
330
10F
100
AcDbEntity
  8
0
 62
     0
100
AcDbEllipse
 10
1923.245109887687
 20
79.60335955187719
 30
0.0
 11
20.88636778616046
 21
15.15950723243758
 31
0.0
210
0.0
220
0.0
230
0.9999999999999998
 40
0.3620484457960908
 41
0.0
 42
6.283185307179584
  0
ELLIPSE
  5
23F
330
10F
100
AcDbEntity
  8
0
 62
     0
100
AcDbEllipse
 10
1955.916523498119
 20
77.03790707038018
 30
0.0
 11
19.71952958070463
 21
14.92628344142003
 31
0.0
210
0.0
220
0.0
230
0.9999999999999998
 40
0.3132060541742065
 41
0.0
 42
6.283185307179584
  0
ELLIPSE
  5
240
330
10F
100
AcDbEntity
  8
0
 62
     0
100
AcDbEllipse
 10
1987.304411072396
 20
72.72327730871137
 30
0.0
 11
17.26917335941397
 21
14.80967269837363
 31
0.0
210
0.0
220
0.0
230
1.0
 40
0.351703405504709
 41
0.0
 42
6.283185307179584
  0
ELLIPSE
  5
241
330
10F
100
AcDbEntity
  8
0
 62
     0
100
AcDbEllipse
 10
2021.64383825767
 20
58.52950880548059
 30
0.0
 11
16.08965423127789
 21
16.08965423127789
 31
0.0
210
0.0
220
0.0
230
0.9999999999999998
 40
0.5254634900290626
 41
0.0
 42
6.283185307179584
  0
ELLIPSE
  5
242
330
10F
100
AcDbEntity
  8
0
 62
     0
100
AcDbEllipse
 10
2031.58370535234
 20
131.4687096377537
 30
0.0
 11
15.0808053389707
 21
22.73497138406114
 31
0.0
210
0.0
220
0.0
230
1.0
 40
0.2810715458434808
 41
0.0
 42
6.283185307179584
  0
ELLIPSE
  5
243
330
10F
100
AcDbEntity
  8
0
 62
     0
100
AcDbEllipse
 10
2003.083542830783
 20
136.4499696789916
 30
0.0
 11
15.97542941848766
 21
21.58545019068723
 31
0.0
210
0.0
220
0.0
230
1.0
 40
0.1951258246945301
 41
0.0
 42
6.283185307179584
  0
ELLIPSE
  5
244
330
10F
100
AcDbEntity
  8
0
 62
     0
100
AcDbEllipse
 10
1973.81655222219
 20
138.1103866195046
 30
0.0
 11
17.63687356470898
 21
20.69137917580726
 31
0.0
210
0.0
220
0.0
230
1.0
 40
0.3037436373290199
 41
0.0
 42
6.283185307179584
  0
ELLIPSE
  5
245
330
10F
100
AcDbEntity
  8
0
 62
     0
100
AcDbEllipse
 10
1940.657149446051
 20
139.5126704493424
 30
0.0
 11
21.40148973977637
 21
22.09903347985646
 31
0.0
210
0.0
220
0.0
230
1.0
 40
0.2954908278377448
 41
0.0
 42
6.283185307179584
  0
ELLIPSE
  5
246
330
10F
100
AcDbEntity
  8
0
 62
     0
100
AcDbEllipse
 10
1903.0880149774
 20
147.6732581384482
 30
0.0
 11
22.33728620082914
 21
20.73605091859239
 31
0.0
210
0.0
220
0.0
230
1.0
 40
0.3826752338158837
 41
0.0
 42
6.283185307179584
  0
ELLIPSE
  5
247
330
10F
100
AcDbEntity
  8
0
 62
     0
100
AcDbEllipse
 10
1857.286256898644
 20
161.563717704904
 30
0.0
 11
24.58707794465547
 21
20.89923266225676
 31
0.0
210
0.0
220
0.0
230
1.0
 40
0.4144710327891679
 41
0.0
 42
6.283185307179584
  0
ELLIPSE
  5
248
330
10F
100
AcDbEntity
  8
0
 62
     0
100
AcDbEllipse
 10
1805.809318922703
 20
183.5355931069538
 30
0.0
 11
26.5156633559373
 21
20.23183023296224
 31
0.0
210
0.0
220
0.0
230
1.0
 40
0.5447945635724488
 41
0.0
 42
6.283185307179584
  0
ELLIPSE
  5
249
330
10F
100
AcDbEntity
  8
0
 62
     0
100
AcDbEllipse
 10
1747.108502740181
 20
214.1194434031076
 30
0.0
 11
28.36117014364141
 21
19.08012858096033
 31
0.0
210
0.0
220
0.0
230
1.0
 40
0.6609049286427028
 41
0.0
 42
6.283185307179584
  0
ELLIPSE
  5
24A
330
10F
100
AcDbEntity
  8
0
 62
     0
100
AcDbEllipse
 10
1682.705802960408
 20
255.7530052053154
 30
0.0
 11
29.02016885821378
 21
18.64430883640123
 31
0.0
210
0.0
220
0.0
230
1.0
 40
0.7880072252956542
 41
0.0
 42
6.283185307179584
  0
ELLIPSE
  5
24B
330
10F
100
AcDbEntity
  8
0
 62
     0
100
AcDbEllipse
 10
1612.634287418005
 20
304.4466592485225
 30
0.0
 11
31.43125351698556
 21
15.93577124842758
 31
0.0
210
0.0
220
0.0
230
1.0
 40
0.825027248145369
 41
0.0
 42
6.283185307179584
  0
ELLIPSE
  5
24C
330
10F
100
AcDbEntity
  8
0
 62
     0
100
AcDbEllipse
 10
1687.476730367826
 20
374.2304559400374
 30
0.0
 11
27.76228382794173
 21
22.15758547830683
 31
0.0
210
0.0
220
0.0
230
0.9999999999999998
 40
0.7814370002040994
 41
0.0
 42
6.283185307179584
  0
ELLIPSE
  5
24D
330
10F
100
AcDbEntity
  8
0
 62
     0
100
AcDbEllipse
 10
1757.559133512834
 20
323.3509105613741
 30
0.0
 11
27.357176787645
 21
22.41564483139607
 31
0.0
210
0.0
220
0.0
230
1.0
 40
0.7577332530563343
 41
0.0
 42
6.283185307179584
  0
ELLIPSE
  5
24E
330
10F
100
AcDbEntity
  8
0
 62
     0
100
AcDbEllipse
 10
1818.070857342645
 20
283.2254952728687
 30
0.0
 11
24.31143855844612
 21
24.31143855844612
 31
0.0
210
0.0
220
0.0
230
1.0
 40
0.680271678020093
 41
0.0
 42
6.283185307179584
  0
ELLIPSE
  5
24F
330
10F
100
AcDbEntity
  8
0
 62
     0
100
AcDbEllipse
 10
1871.619794599659
 20
252.4577810411699
 30
0.0
 11
22.99360726813026
 21
22.99360726813026
 31
0.0
210
0.0
220
0.0
230
0.9999999999999998
 40
0.5741637720713002
 41
0.0
 42
6.283185307179584
  0
ELLIPSE
  5
250
330
10F
100
AcDbEntity
  8
0
 62
     0
100
AcDbEllipse
 10
1918.502752974911
 20
232.608208208423
 30
0.0
 11
22.90408911584604
 21
22.90408911584604
 31
0.0
210
0.0
220
0.0
230
1.0
 40
0.4186236573607289
 41
0.0
 42
6.283185307179584
  0
ELLIPSE
  5
251
330
10F
100
AcDbEntity
  8
0
 62
     0
100
AcDbEllipse
 10
1958.511345974882
 20
217.3147165190434
 30
0.0
 11
19.21616944602742
 21
25.53539939923706
 31
0.0
210
0.0
220
0.0
230
1.0
 40
0.3766047139849467
 41
0.0
 42
6.283185307179584
  0
ELLIPSE
  5
252
330
10F
100
AcDbEntity
  8
0
 62
     0
100
AcDbEllipse
 10
1991.664516951957
 20
211.6167378827508
 30
0.0
 11
16.04866709297754
 21
24.4802164629427
 31
0.0
210
0.0
220
0.0
230
1.0
 40
0.3241712871052219
 41
0.0
 42
6.283185307179584
  0
ELLIPSE
  5
253
330
10F
100
AcDbEntity
  8
0
 62
     0
100
AcDbEllipse
 10
2020.142459139813
 20
211.4834164366857
 30
0.0
 11
13.31158395245028
 21
25.14482762860148
 31
0.0
210
0.0
220
0.0
230
1.0
 40
0.2108018908727055
 41
0.0
 42
6.283185307179584
  0
ELLIPSE
  5
254
330
10F
100
AcDbEntity
  8
0
 62
     0
100
AcDbEllipse
 10
2045.595376187394
 20
213.0915161996667
 30
0.0
 11
-15.35951593496879
 21
-29.09197865874336
 31
0.0
210
0.0
220
0.0
230
1.0
 40
0.244560068360591
 41
3.503656402014906
 42
8.195138527442518
  0
ELLIPSE
  5
255
330
10F
100
AcDbEntity
  8
0
 62
     0
100
AcDbEllipse
 10
2061.804161216476
 20
118.5752106133542
 30
0.0
 11
15.0808053389707
 21
22.73497138406114
 31
0.0
210
0.0
220
0.0
230
1.0
 40
0.2810715458434808
 41
1.439775629419719
 42
4.041824827120143
  0
ELLIPSE
  5
256
330
10F
100
AcDbEntity
  8
0
 62
     0
100
AcDbEllipse
 10
1776.40722178772
 20
36.76395802973792
 30
0.0
 11
24.42389223102677
 21
15.82364819348806
 31
0.0
210
0.0
220
0.0
230
1.0
 40
0.4305391531601336
 41
5.146194802244943
 42
8.593233048848867
  0
ELLIPSE
  5
257
330
10F
100
AcDbEntity
  8
0
 62
     0
100
AcDbEllipse
 10
1819.573137394526
 20
31.29079942953803
 30
0.0
 11
22.41694816237614
 21
16.02342061445038
 31
0.0
210
0.0
220
0.0
230
1.0
 40
0.3779979851668673
 41
5.341809248425247
 42
8.197440628250657
  0
ELLIPSE
  5
258
330
10F
100
AcDbEntity
  8
0
 62
     0
100
AcDbEllipse
 10
1864.677322965204
 20
32.4456403887836
 30
0.0
 11
20.88636778616046
 21
15.15950723243758
 31
0.0
210
0.0
220
0.0
230
0.9999999999999998
 40
0.3620484457960908
 41
5.259486283433363
 42
8.232291883150136
  0
ELLIPSE
  5
259
330
10F
100
AcDbEntity
  8
0
 62
     0
100
AcDbEllipse
 10
1903.423224812063
 20
31.52446576607002
 30
0.0
 11
19.71952958070463
 21
14.92628344142003
 31
0.0
210
0.0
220
0.0
230
0.9999999999999998
 40
0.3132060541742065
 41
5.250666993789478
 42
8.100370512577223
  0
ELLIPSE
  5
25A
330
10F
100
AcDbEntity
  8
0
 62
     0
100
AcDbEllipse
 10
1934.811112386338
 20
27.20983600440189
 30
0.0
 11
17.26917335941397
 21
14.80967269837363
 31
0.0
210
0.0
220
0.0
230
1.0
 40
0.351703405504709
 41
5.530968485444509
 42
7.813788647427747
  0
ELLIPSE
  5
25B
330
10F
100
AcDbEntity
  8
0
 62
     0
100
AcDbEllipse
 10
2056.044494808328
 20
36.60056847494246
 30
0.0
 11
16.08965423127789
 21
16.08965423127789
 31
0.0
210
0.0
220
0.0
230
0.9999999999999998
 40
0.5254634900290626
 41
1.010185497955116
 42
2.205206665925253
  0
ELLIPSE
  5
25C
330
10F
100
AcDbEntity
  8
0
 62
     0
100
AcDbEllipse
 10
2053.873262549071
 20
295.5168398682415
 30
0.0
 11
-12.13246661655123
 21
-29.56314672626579
 31
0.0
210
0.0
220
0.0
230
1.0
 40
0.2004963466959972
 41
3.990701529268593
 42
7.66677945586937
  0
ELLIPSE
  5
25D
330
10F
100
AcDbEntity
  8
0
 62
     0
100
AcDbEllipse
 10
2032.19840776551
 20
295.3806049975407
 30
0.0
 11
-11.99614500966298
 21
-28.60949802150898
 31
0.0
210
0.0
220
0.0
230
1.0
 40
0.2548630776677332
 41
0.0
 42
6.283185307179584
  0
ELLIPSE
  5
25E
330
10F
100
AcDbEntity
  8
0
 62
     0
100
AcDbEllipse
 10
2005.479721699929
 20
299.7401462141472
 30
0.0
 11
-16.08574108414264
 21
-29.15443980923796
 31
0.0
210
0.0
220
0.0
230
1.0
 40
0.2538269047843527
 41
0.0
 42
6.283185307179584
  0
ELLIPSE
  5
25F
330
10F
100
AcDbEntity
  8
0
 62
     0
100
AcDbEllipse
 10
1973.580878735242
 20
311.8651234641358
 30
0.0
 11
-18.81213713040706
 21
-28.74573519713441
 31
0.0
210
0.0
220
0.0
230
1.0
 40
0.3994236624772706
 41
0.0
 42
6.283185307179584
  0
ELLIPSE
  5
260
330
10F
100
AcDbEntity
  8
0
 62
     0
100
AcDbEllipse
 10
1931.32172598256
 20
330.5294159964216
 30
0.0
 11
-21.81117238028091
 21
-28.33702597518186
 31
0.0
210
0.0
220
0.0
230
0.9999999999999998
 40
0.4670865194507213
 41
0.0
 42
6.283185307179584
  0
ELLIPSE
  5
261
330
10F
100
AcDbEntity
  8
0
 62
     0
100
AcDbEllipse
 10
1882.529414156509
 20
360.5985443706774
 30
0.0
 11
-22.9693526358261
 21
-28.26570238977625
 31
0.0
210
0.0
220
0.0
230
0.9999999999999998
 40
0.6003268276440823
 41
0.0
 42
6.283185307179584
  0
ELLIPSE
  5
262
330
10F
100
AcDbEntity
  8
0
 62
     0
100
AcDbEllipse
 10
1825.414133674705
 20
399.6253909320173
 30
0.0
 11
-24.32329719929197
 21
-26.42205086197707
 31
0.0
210
0.0
220
0.0
230
1.0
 40
0.6840588260764199
 41
0.0
 42
6.283185307179584
  0
ELLIPSE
  5
263
330
10F
100
AcDbEntity
  8
0
 62
     0
100
AcDbEllipse
 10
1761.707245939836
 20
449.1341515798018
 30
0.0
 11
-26.63049848963351
 21
-25.6825711369487
 31
0.0
210
0.0
220
0.0
230
1.0
 40
0.7995240369076479
 41
0.0
 42
6.283185307179584
  0
ELLIPSE
  5
264
330
10F
100
AcDbEntity
  8
0
 62
     0
100
AcDbEllipse
 10
1692.442571927833
 20
505.3169664845492
 30
0.0
 11
-26.7154097593942
 21
-25.77765157973423
 31
0.0
210
0.0
220
0.0
230
0.9999999999999998
 40
0.9072308990429279
 41
0.0
 42
6.283185307179584
  0
ELLIPSE
  5
265
330
10F
100
AcDbEntity
  8
0
 62
     0
100
AcDbEllipse
 10
1616.610439886638
 20
571.2928503333189
 30
0.0
 11
-29.39327075805667
 21
-23.78605846942339
 31
0.0
210
0.0
220
0.0
230
1.0
 40
0.9471721172373143
 41
0.0
 42
6.283185307179584
  0
ELLIPSE
  5
266
330
10F
100
AcDbEntity
  8
0
 62
     0
100
AcDbEllipse
 10
1695.41689252031
 20
648.8371689590669
 30
0.0
 11
-26.80958050407134
 21
-27.80137533833062
 31
0.0
210
0.0
220
0.0
230
1.0
 40
0.9592665141672039
 41
0.0
 42
6.283185307179584
  0
ELLIPSE
  5
267
330
10F
100
AcDbEntity
  8
0
 62
     0
100
AcDbEllipse
 10
1771.102757741188
 20
729.7642755329323
 30
0.0
 11
-23.30008311428972
 21
-29.1071312327625
 31
0.0
210
0.0
220
0.0
230
0.9999999999999998
 40
0.9348015168909629
 41
0.0
 42
6.283185307179584
  0
ELLIPSE
  5
268
330
10F
100
AcDbEntity
  8
0
 62
     0
100
AcDbEllipse
 10
1842.288955260915
 20
814.2012451554398
 30
0.0
 11
-12.56928204496544
 21
-35.20765802767482
 31
0.0
210
0.0
220
0.0
230
1.0
 40
0.8281510902799336
 41
0.0
 42
6.283185307179584
  0
ELLIPSE
  5
269
330
10F
100
AcDbEntity
  8
0
 62
     0
100
AcDbEllipse
 10
1908.55169467252
 20
895.3955547181015
 30
0.0
 11
-4.747616308376212
 21
-35.79479145936872
 31
0.0
210
0.0
220
0.0
230
1.0
 40
0.786297360742565
 41
0.0
 42
6.283185307179584
  0
ELLIPSE
  5
26A
330
10F
100
AcDbEntity
  8
0
 62
     0
100
AcDbEllipse
 10
1965.124908890641
 20
973.3000938679545
 30
0.0
 11
-3.238313876684649
 21
-33.28784257290667
 31
0.0
210
0.0
220
0.0
230
1.0
 40
0.7146619888316316
 41
0.0
 42
6.283185307179584
  0
ELLIPSE
  5
26B
330
10F
100
AcDbEntity
  8
0
 62
     0
100
AcDbEllipse
 10
2013.101163823196
 20
1046.89630491987
 30
0.0
 11
-1.495014207729617
 21
-32.19088518399145
 31
0.0
210
0.0
220
0.0
230
1.0
 40
0.6551736887166888
 41
0.0
 42
6.283185307179584
  0
ELLIPSE
  5
26C
330
10F
100
AcDbEntity
  8
0
 62
     0
100
AcDbEllipse
 10
1907.033642057097
 20
1041.216150265155
 30
0.0
 11
0.0
 21
-35.40741200924112
 31
0.0
210
0.0
220
0.0
230
1.0
 40
0.7731785972808104
 41
0.0
 42
6.283185307179584
  0
ELLIPSE
  5
26D
330
10F
100
AcDbEntity
  8
0
 62
     0
100
AcDbEllipse
 10
1843.644371555566
 20
964.2648725927344
 30
0.0
 11
-2.474910472010954
 21
-37.30686115064799
 31
0.0
210
0.0
220
0.0
230
1.0
 40
0.8550030881524246
 41
0.0
 42
6.283185307179584
  0
ELLIPSE
  5
26E
330
10F
100
AcDbEntity
  8
0
 62
     0
100
AcDbEllipse
 10
1774.598536350679
 20
883.9760849101374
 30
0.0
 11
-5.275614907274009
 21
-37.24516293018115
 31
0.0
210
0.0
220
0.0
230
1.0
 40
0.9599746624478688
 41
0.0
 42
6.283185307179584
  0
ELLIPSE
  5
26F
330
10F
100
AcDbEntity
  8
0
 62
     0
100
AcDbEllipse
 10
1695.582720933794
 20
801.5068478189558
 30
0.0
 11
-17.60508497325729
 21
-33.79609226665762
 31
0.0
210
0.0
220
0.0
230
1.0
 40
0.8982307229594015
 41
0.0
 42
6.283185307179584
  0
ELLIPSE
  5
270
330
10F
100
AcDbEntity
  8
0
 62
     0
100
AcDbEllipse
 10
1617.912841777473
 20
722.4095586157152
 30
0.0
 11
37.12902235478051
 21
-1.889081697954351
 31
0.0
210
0.0
220
0.0
230
0.9999999999999998
 40
0.9939370144897022
 41
0.0
 42
6.283185307179584
  0
ELLIPSE
  5
271
330
10F
100
AcDbEntity
  8
0
 62
     0
100
AcDbEllipse
 10
1617.80289503699
 20
877.5102183536844
 30
0.0
 11
0.0
 21
-38.08156012286561
 31
0.0
210
0.0
220
0.0
230
1.0
 40
0.9839895141870108
 41
0.0
 42
6.283185307179584
  0
ELLIPSE
  5
272
330
10F
100
AcDbEntity
  8
0
 62
     0
100
AcDbEllipse
 10
1697.584732497406
 20
957.6188439134265
 30
0.0
 11
-1.896395803160102
 21
-38.4213659301948
 31
0.0
210
0.0
220
0.0
230
1.0
 40
0.9097684253863695
 41
0.0
 42
6.283185307179584
  0
ELLIPSE
  5
273
330
10F
100
AcDbEntity
  8
0
 62
     0
100
AcDbEllipse
 10
1775.451711347167
 20
1037.997085717971
 30
0.0
 11
-2.044619584821534
 21
-38.65350871159686
 31
0.0
210
0.0
220
0.0
230
0.9999999999999998
 40
0.9684076399980105
 41
0.0
 42
6.283185307179584
  0
ELLIPSE
  5
274
330
10F
100
AcDbEntity
  8
0
 62
     0
100
AcDbEllipse
 10
1618.637130016121
 20
1036.585891049806
 30
0.0
 11
0.0
 21
-39.06348103220477
 31
0.0
210
0.0
220
0.0
230
1.0
 40
0.947444651313479
 41
0.0
 42
6.283185307179584
  0
ELLIPSE
  5
275
330
10F
100
AcDbEntity
  8
0
 62
     0
100
AcDbEllipse
 10
2054.215814371022
 20
982.3818790796407
 30
0.0
 11
-1.495014207729617
 21
-32.19088518399145
 31
0.0
210
0.0
220
0.0
230
1.0
 40
0.6551736887166888
 41
3.059318546647753
 42
6.506993200271656
  0
ELLIPSE
  5
276
330
10F
100
AcDbEntity
  8
0
 62
     0
100
AcDbEllipse
 10
2052.278751467333
 20
857.6185994453938
 30
0.0
 11
-1.495014207729617
 21
-32.19088518399145
 31
0.0
210
0.0
220
0.0
230
1.0
 40
0.6551736887166888
 41
2.965810147589523
 42
6.600501599329887
  0
ELLIPSE
  5
277
330
10F
100
AcDbEntity
  8
0
 62
     0
100
AcDbEllipse
 10
2048.471395563491
 20
741.2305030404024
 30
0.0
 11
-13.31028064827205
 21
-35.2363289842047
 31
0.0
210
0.0
220
0.0
230
0.9999999999999998
 40
0.4811876829804269
 41
3.378066902041308
 42
7.377793676600674
  0
ELLIPSE
  5
278
330
10F
100
AcDbEntity
  8
0
 62
     0
100
AcDbEllipse
 10
2040.225807084453
 20
622.7869277818533
 30
0.0
 11
-14.25147078353903
 21
-35.54498373618375
 31
0.0
210
0.0
220
0.0
230
1.0
 40
0.4152679124103772
 41
2.914110852870212
 42
8.046363111785312
  0
ELLIPSE
  5
279
330
10F
100
AcDbEntity
  8
0
 62
     0
100
AcDbEllipse
 10
2054.269731690284
 20
488.0576245798108
 30
0.0
 11
-12.032862095992
 21
-31.65315550519224
 31
0.0
210
0.0
220
0.0
230
1.0
 40
0.3228313403197935
 41
3.806209022154714
 42
7.352071412405987
  0
ELLIPSE
  5
27A
330
10F
100
AcDbEntity
  8
0
 62
     0
100
AcDbEllipse
 10
2027.71445189751
 20
504.5062092726062
 30
0.0
 11
-12.86271396292816
 21
-31.23848344341775
 31
0.0
210
0.0
220
0.0
230
1.0
 40
0.2782702580544408
 41
0.0
 42
6.283185307179584
  0
ELLIPSE
  5
27B
330
10F
100
AcDbEntity
  8
0
 62
     0
100
AcDbEllipse
 10
1995.626826325122
 20
528.4188541985456
 30
0.0
 11
-15.90550414169423
 21
-31.92960354637491
 31
0.0
210
0.0
220
0.0
230
1.0
 40
0.4643558402465539
 41
0.0
 42
6.283185307179584
  0
ELLIPSE
  5
27C
330
10F
100
AcDbEntity
  8
0
 62
     0
100
AcDbEllipse
 10
1950.676482779662
 20
566.0156149300753
 30
0.0
 11
-16.0438147912668
 21
-31.37670976893435
 31
0.0
210
0.0
220
0.0
230
1.0
 40
0.5753939494386057
 41
0.0
 42
6.283185307179584
  0
ELLIPSE
  5
27D
330
10F
100
AcDbEntity
  8
0
 62
     0
100
AcDbEllipse
 10
1900.71992331584
 20
610.6704741428663
 30
0.0
 11
-19.31335583606522
 21
-31.70950169084431
 31
0.0
210
0.0
220
0.0
230
1.0
 40
0.7526282289544934
 41
0.0
 42
6.283185307179584
  0
ELLIPSE
  5
27E
330
10F
100
AcDbEntity
  8
0
 62
     0
100
AcDbEllipse
 10
1958.144756585753
 20
696.766675974665
 30
0.0
 11
-15.61194790856336
 21
-31.7824894317781
 31
0.0
210
0.0
220
0.0
230
1.0
 40
0.6841394345716645
 41
0.0
 42
6.283185307179584
  0
ELLIPSE
  5
27F
330
10F
100
AcDbEntity
  8
0
 62
     0
100
AcDbEllipse
 10
2001.89675404598
 20
652.0785705301047
 30
0.0
 11
-12.72084629549044
 21
-31.78248712685384
 31
0.0
210
0.0
220
0.0
230
1.0
 40
0.4935221312573268
 41
0.0
 42
6.283185307179584
  0
ELLIPSE
  5
280
330
10F
100
AcDbEntity
  8
0
 62
     0
100
AcDbEllipse
 10
2008.020864085192
 20
779.5815918209398
 30
0.0
 11
-8.278022707345106
 21
-32.02418843038185
 31
0.0
210
0.0
220
0.0
230
1.0
 40
0.5598442547693111
 41
0.0
 42
6.283185307179584
  0
ELLIPSE
  5
281
330
10F
100
AcDbEntity
  8
0
 62
     0
100
AcDbEllipse
 10
1905.079636199076
 20
750.3595209154325
 30
0.0
 11
-14.5532999905774
 21
-34.02569963104991
 31
0.0
210
0.0
220
0.0
230
0.9999999999999998
 40
0.7310194254182731
 41
0.0
 42
6.283185307179584
  0
ELLIPSE
  5
282
330
10F
100
AcDbEntity
  8
0
 62
     0
100
AcDbEllipse
 10
1961.842230539732
 20
832.7092223143079
 30
0.0
 11
-10.07328611643248
 21
-33.38910943319605
 31
0.0
210
0.0
220
0.0
230
1.0
 40
0.6901520096124371
 41
0.0
 42
6.283185307179584
  0
ELLIPSE
  5
283
330
10F
100
AcDbEntity
  8
0
 62
     0
100
AcDbEllipse
 10
2013.716175019233
 20
913.5417347844693
 30
0.0
 11
-6.510662038174756
 21
-32.08959066460804
 31
0.0
210
0.0
220
0.0
230
1.0
 40
0.6433519553795857
 41
0.0
 42
6.283185307179584
  0
ELLIPSE
  5
284
330
10F
100
AcDbEntity
  8
0
 62
     0
100
AcDbEllipse
 10
1838.203541790309
 20
667.6487922688572
 30
0.0
 11
-20.11691303993205
 21
-31.73638402592044
 31
0.0
210
0.0
220
0.0
230
1.0
 40
0.7853428073352033
 41
0.0
 42
6.283185307179584
  0
ELLIPSE
  5
285
330
10F
100
AcDbEntity
  8
0
 62
     0
100
AcDbEllipse
 10
1833.452047650725
 20
527.0603293613701
 30
0.0
 11
-22.68993224032243
 21
-29.15476710852473
 31
0.0
210
0.0
220
0.0
230
1.0
 40
0.8140476902349892
 41
0.0
 42
6.283185307179584
  0
ELLIPSE
  5
286
330
10F
100
AcDbEntity
  8
0
 62
     0
100
AcDbEllipse
 10
1891.31532046657
 20
480.513235421027
 30
0.0
 11
-21.14070859910617
 21
-29.26467052111788
 31
0.0
210
0.0
220
0.0
230
1.0
 40
0.6517585741059463
 41
0.0
 42
6.283185307179584
  0
ELLIPSE
  5
287
330
10F
100
AcDbEntity
  8
0
 62
     0
100
AcDbEllipse
 10
1943.494695282813
 20
441.3048530017969
 30
0.0
 11
-19.5780428791035
 21
-29.43869002003686
 31
0.0
210
0.0
220
0.0
230
1.0
 40
0.5677403822323596
 41
0.0
 42
6.283185307179584
  0
ELLIPSE
  5
288
330
10F
100
AcDbEntity
  8
0
 62
     0
100
AcDbEllipse
 10
1984.811867897379
 20
413.5705924566356
 30
0.0
 11
-16.51729116367686
 21
-28.49943556912093
 31
0.0
210
0.0
220
0.0
230
1.0
 40
0.4337608387177524
 41
0.0
 42
6.283185307179584
  0
ELLIPSE
  5
289
330
10F
100
AcDbEntity
  8
0
 62
     0
100
AcDbEllipse
 10
2018.411149869304
 20
396.3580635695927
 30
0.0
 11
-13.41147720501215
 21
-29.91030063307363
 31
0.0
210
0.0
220
0.0
230
1.0
 40
0.2976157912374005
 41
0.0
 42
6.283185307179584
  0
ELLIPSE
  5
28A
330
10F
100
AcDbEntity
  8
0
 62
     0
100
AcDbEllipse
 10
2047.210530979362
 20
392.8309043670967
 30
0.0
 11
-15.38790390505613
 21
-34.00180217327163
 31
0.0
210
0.0
220
0.0
230
0.9999999999999998
 40
0.2004781885708614
 41
3.642161334497195
 42
8.090198374780053
  0
ELLIPSE
  5
28B
330
10F
100
AcDbEntity
  8
0
 62
     0
100
AcDbEllipse
 10
1609.168011604941
 20
195.6985877825397
 30
0.0
 11
33.59813907440287
 21
4.874140977504449
 31
0.0
210
0.0
220
0.0
230
0.9999999999999998
 40
0.6795590206827349
 41
0.0
 42
6.283185307179584
  0
ELLIPSE
  5
28C
330
10F
100
AcDbEntity
  8
0
 62
     0
100
AcDbEllipse
 10
1768.088355532517
 20
584.9278481966577
 30
0.0
 11
22.64498228175275
 21
30.57593749015938
 31
0.0
210
0.0
220
0.0
230
1.0
 40
0.8582798329265973
 41
0.0
 42
6.283185307179584
  0
ELLIPSE
  5
28D
330
10F
100
AcDbEntity
  8
0
 62
     0
100
AcDbEllipse
 10
1614.577702425747
 20
432.6988870460051
 30
0.0
 11
37.79347923466386
 21
5.941371754444041
 31
0.0
210
0.0
220
0.0
230
1.0
 40
0.7875876969600179
 41
0.0
 42
6.283185307179584
  0
LWPOLYLINE
  5
28E
330
10F
100
AcDbEntity
  8
0
 62
     0
100
AcDbPolyline
 90
        2
 70
     0
 43
0.0
 10
1039.957451502281
 20
2201.182233514724
 10
1128.676629335617
 20
2201.182233514724
  0
LWPOLYLINE
  5
28F
330
10F
100
AcDbEntity
  8
0
 62
     0
100
AcDbPolyline
 90
        2
 70
     0
 43
0.0
 10
1149.355489990746
 20
2201.182233514724
 10
1162.109581698639
 20
2201.182233514724
  0
LWPOLYLINE
  5
290
330
10F
100
AcDbEntity
  8
0
 62
     0
100
AcDbPolyline
 90
        2
 70
     0
 43
0.0
 10
1185.576361777289
 20
2201.182233514724
 10
1199.426112737416
 20
2201.182233514724
  0
LWPOLYLINE
  5
291
330
10F
100
AcDbEntity
  8
0
 62
     0
100
AcDbPolyline
 90
        2
 70
     0
 43
0.0
 10
1227.793567956298
 20
2201.182233514724
 10
1241.990502167845
 20
2201.182233514724
  0
LWPOLYLINE
  5
292
330
10F
100
AcDbEntity
  8
0
 62
     0
100
AcDbPolyline
 90
        2
 70
     0
 43
0.0
 10
1273.334866459009
 20
2201.182233514724
 10
1286.801205356461
 20
2201.182233514724
  0
LWPOLYLINE
  5
293
330
10F
100
AcDbEntity
  8
0
 62
     0
100
AcDbPolyline
 90
        2
 70
     0
 43
0.0
 10
1324.738518864335
 20
2201.182233514724
 10
1445.197911062274
 20
2201.182233514724
  0
LWPOLYLINE
  5
294
330
10F
100
AcDbEntity
  8
0
 62
     0
100
AcDbPolyline
 90
        2
 70
     0
 43
0.0
 10
1503.782665623613
 20
2201.182233514724
 10
1575.873443843253
 20
2201.182233514724
  0
LWPOLYLINE
  5
295
330
10F
100
AcDbEntity
  8
0
 62
     0
100
AcDbPolyline
 90
        2
 70
     0
 43
0.0
 10
1634.458198404579
 20
2201.182233514724
 10
1754.917590602523
 20
2201.182233514724
  0
LWPOLYLINE
  5
296
330
10F
100
AcDbEntity
  8
0
 62
     0
100
AcDbPolyline
 90
        2
 70
     0
 43
0.0
 10
1792.854904110386
 20
2201.182233514724
 10
1806.321243007852
 20
2201.182233514724
  0
LWPOLYLINE
  5
297
330
10F
100
AcDbEntity
  8
0
 62
     0
100
AcDbPolyline
 90
        2
 70
     0
 43
0.0
 10
1837.665607299015
 20
2201.182233514724
 10
1851.862541510563
 20
2201.182233514724
  0
LWPOLYLINE
  5
298
330
10F
100
AcDbEntity
  8
0
 62
     0
100
AcDbPolyline
 90
        2
 70
     0
 43
0.0
 10
1880.229996729439
 20
2201.182233514724
 10
1894.079747689577
 20
2201.182233514724
  0
LWPOLYLINE
  5
299
330
10F
100
AcDbEntity
  8
0
 62
     0
100
AcDbPolyline
 90
        2
 70
     0
 43
0.0
 10
1917.546527768227
 20
2201.182233514724
 10
1930.300619476115
 20
2201.182233514724
  0
LWPOLYLINE
  5
29A
330
10F
100
AcDbEntity
  8
0
 62
     0
100
AcDbPolyline
 90
        2
 70
     0
 43
0.0
 10
1950.979480131235
 20
2201.182233514724
 10
2039.698657964569
 20
2201.182233514724
  0
LWPOLYLINE
  5
29B
330
10F
100
AcDbEntity
  8
0
 62
     0
100
AcDbPolyline
 90
        2
 70
     0
 43
0.0
 10
2057.439026587856
 20
2182.739984373505
 10
2057.439026587856
 20
2133.929781392687
  0
LWPOLYLINE
  5
29C
330
10F
100
AcDbEntity
  8
0
 62
     0
100
AcDbPolyline
 90
        2
 70
     0
 43
0.0
 10
2057.439026587856
 20
2109.307973874687
 10
2057.439026587856
 20
2015.770677995723
  0
LWPOLYLINE
  5
29D
330
10F
100
AcDbEntity
  8
0
 62
     0
100
AcDbPolyline
 90
        2
 70
     0
 43
0.0
 10
2057.439026587856
 20
1993.427968850313
 10
2057.439026587856
 20
1947.431069978932
  0
LWPOLYLINE
  5
29E
330
10F
100
AcDbEntity
  8
0
 62
     0
100
AcDbPolyline
 90
        2
 70
     0
 43
0.0
 10
2057.439026587856
 20
1918.182003646939
 10
2057.439026587856
 20
1837.266933497778
  0
LWPOLYLINE
  5
29F
330
10F
100
AcDbEntity
  8
0
 62
     0
100
AcDbPolyline
 90
        2
 70
     0
 43
0.0
 10
2057.439026587856
 20
1810.914320201122
 10
2057.439026587856
 20
1765.632097834548
  0
LWPOLYLINE
  5
2A0
330
10F
100
AcDbEntity
  8
0
 62
     0
100
AcDbPolyline
 90
        2
 70
     0
 43
0.0
 10
2057.439026587856
 20
1719.686515154858
 10
2057.439026587856
 20
1611.28185292286
  0
LWPOLYLINE
  5
2A1
330
10F
100
AcDbEntity
  8
0
 62
     0
100
AcDbPolyline
 90
        2
 70
     0
 43
0.0
 10
2057.439026587856
 20
1578.97439248046
 10
2057.439026587856
 20
1515.669722496782
  0
LWPOLYLINE
  5
2A2
330
10F
100
AcDbEntity
  8
0
 62
     0
100
AcDbPolyline
 90
        2
 70
     0
 43
0.0
 10
2057.439026587856
 20
1458.069189981266
 10
2057.439026587856
 20
1408.326690330245
  0
LWPOLYLINE
  5
2A3
330
10F
100
AcDbEntity
  8
0
 62
     0
100
AcDbPolyline
 90
        2
 70
     0
 43
0.0
 10
2057.439026587856
 20
1345.913745669223
 10
2057.439026587856
 20
1284.279414535475
  0
LWPOLYLINE
  5
2A4
330
10F
100
AcDbEntity
  8
0
 62
     0
100
AcDbPolyline
 90
        2
 70
     0
 43
0.0
 10
2057.439026587856
 20
1220.672496993459
 10
2057.439026587856
 20
1137.753662650799
  0
LWPOLYLINE
  5
2A5
330
10F
100
AcDbEntity
  8
0
 62
     0
100
AcDbPolyline
 90
        2
 70
     0
 43
0.0
 10
2057.439026587856
 20
1102.94430435361
 10
2057.439026587856
 20
1014.383379088064
  0
LWPOLYLINE
  5
2A6
330
10F
100
AcDbEntity
  8
0
 62
     0
100
AcDbPolyline
 90
        2
 70
     0
 43
0.0
 10
2057.439026587856
 20
950.7764615460489
 10
2057.439026587856
 20
889.142130412298
  0
LWPOLYLINE
  5
2A7
330
10F
100
AcDbEntity
  8
0
 62
     0
100
AcDbPolyline
 90
        2
 70
     0
 43
0.0
 10
2057.439026587856
 20
826.7291857512775
 10
2057.439026587856
 20
776.9866861002567
  0
LWPOLYLINE
  5
2A8
330
10F
100
AcDbEntity
  8
0
 62
     0
100
AcDbPolyline
 90
        2
 70
     0
 43
0.0
 10
2057.439026587856
 20
719.386153584741
 10
2057.439026587856
 20
656.0814836010633
  0
LWPOLYLINE
  5
2A9
330
10F
100
AcDbEntity
  8
0
 62
     0
100
AcDbPolyline
 90
        2
 70
     0
 43
0.0
 10
2057.439026587856
 20
623.7740231586633
 10
2057.439026587856
 20
515.3693609266658
  0
LWPOLYLINE
  5
2AA
330
10F
100
AcDbEntity
  8
0
 62
     0
100
AcDbPolyline
 90
        2
 70
     0
 43
0.0
 10
2057.439026587856
 20
469.4237782469751
 10
2057.439026587856
 20
424.1415558803998
  0
LWPOLYLINE
  5
2AB
330
10F
100
AcDbEntity
  8
0
 62
     0
100
AcDbPolyline
 90
        2
 70
     0
 43
0.0
 10
2057.439026587856
 20
397.788942583744
 10
2057.439026587856
 20
316.8738724345828
  0
LWPOLYLINE
  5
2AC
330
10F
100
AcDbEntity
  8
0
 62
     0
100
AcDbPolyline
 90
        2
 70
     0
 43
0.0
 10
2057.439026587856
 20
287.624806102591
 10
2057.439026587856
 20
241.6279072312101
  0
LWPOLYLINE
  5
2AD
330
10F
100
AcDbEntity
  8
0
 62
     0
100
AcDbPolyline
 90
        2
 70
     0
 43
0.0
 10
2057.439026587856
 20
219.2851980857987
 10
2057.439026587856
 20
125.7479022068364
  0
LWPOLYLINE
  5
2AE
330
10F
100
AcDbEntity
  8
0
 62
     0
100
AcDbPolyline
 90
        2
 70
     0
 43
0.0
 10
2057.439026587856
 20
101.1260946888364
 10
2057.439026587856
 20
52.31589170801789
  0
LWPOLYLINE
  5
2AF
330
10F
100
AcDbEntity
  8
0
 62
     0
100
AcDbPolyline
 90
        2
 70
     0
 43
0.0
 10
2039.698657964569
 20
33.87364256679706
 10
1950.979480131235
 20
33.87364256679706
  0
LWPOLYLINE
  5
2B0
330
10F
100
AcDbEntity
  8
0
 62
     0
100
AcDbPolyline
 90
        2
 70
     0
 43
0.0
 10
1930.300619476115
 20
33.87364256679706
 10
1917.546527768227
 20
33.87364256679706
  0
LWPOLYLINE
  5
2B1
330
10F
100
AcDbEntity
  8
0
 62
     0
100
AcDbPolyline
 90
        2
 70
     0
 43
0.0
 10
1894.079747689577
 20
33.87364256679706
 10
1880.229996729439
 20
33.87364256679706
  0
LWPOLYLINE
  5
2B2
330
10F
100
AcDbEntity
  8
0
 62
     0
100
AcDbPolyline
 90
        2
 70
     0
 43
0.0
 10
1851.862541510563
 20
33.87364256679706
 10
1837.665607299015
 20
33.87364256679706
  0
LWPOLYLINE
  5
2B3
330
10F
100
AcDbEntity
  8
0
 62
     0
100
AcDbPolyline
 90
        2
 70
     0
 43
0.0
 10
1806.321243007852
 20
33.87364256679706
 10
1792.854904110386
 20
33.87364256679706
  0
LWPOLYLINE
  5
2B4
330
10F
100
AcDbEntity
  8
0
 62
     0
100
AcDbPolyline
 90
        2
 70
     0
 43
0.0
 10
1754.917590602523
 20
33.87364256679706
 10
1634.458198404579
 20
33.87364256679706
  0
LWPOLYLINE
  5
2B5
330
10F
100
AcDbEntity
  8
0
 62
     0
100
AcDbPolyline
 90
        2
 70
     0
 43
0.0
 10
1575.873443843253
 20
33.87364256679706
 10
1503.782665623613
 20
33.87364256679706
  0
LWPOLYLINE
  5
2B6
330
10F
100
AcDbEntity
  8
0
 62
     0
100
AcDbPolyline
 90
        2
 70
     0
 43
0.0
 10
1445.197911062274
 20
33.87364256679706
 10
1324.738518864335
 20
33.87364256679706
  0
LWPOLYLINE
  5
2B7
330
10F
100
AcDbEntity
  8
0
 62
     0
100
AcDbPolyline
 90
        2
 70
     0
 43
0.0
 10
1286.801205356461
 20
33.87364256679706
 10
1273.334866459009
 20
33.87364256679706
  0
LWPOLYLINE
  5
2B8
330
10F
100
AcDbEntity
  8
0
 62
     0
100
AcDbPolyline
 90
        2
 70
     0
 43
0.0
 10
1241.990502167845
 20
33.87364256679706
 10
1227.793567956298
 20
33.87364256679706
  0
LWPOLYLINE
  5
2B9
330
10F
100
AcDbEntity
  8
0
 62
     0
100
AcDbPolyline
 90
        2
 70
     0
 43
0.0
 10
1199.426112737416
 20
33.87364256679706
 10
1185.576361777289
 20
33.87364256679706
  0
LWPOLYLINE
  5
2BA
330
10F
100
AcDbEntity
  8
0
 62
     0
100
AcDbPolyline
 90
        2
 70
     0
 43
0.0
 10
1162.109581698639
 20
33.87364256679706
 10
1149.355489990746
 20
33.87364256679706
  0
LWPOLYLINE
  5
2BB
330
10F
100
AcDbEntity
  8
0
 62
     0
100
AcDbPolyline
 90
        2
 70
     0
 43
0.0
 10
1128.676629335617
 20
33.87364256679706
 10
1039.957451502281
 20
33.87364256679706
  0
LWPOLYLINE
  5
2BC
330
10F
100
AcDbEntity
  8
0
 62
     0
100
AcDbPolyline
 90
        2
 70
     0
 43
0.0
 10
1022.217082879002
 20
52.31589170801834
 10
1022.217082879002
 20
101.1260946888371
  0
LWPOLYLINE
  5
2BD
330
10F
100
AcDbEntity
  8
0
 62
     0
100
AcDbPolyline
 90
        2
 70
     0
 43
0.0
 10
1022.217082879002
 20
125.747902206837
 10
1022.217082879002
 20
219.2851980857994
  0
LWPOLYLINE
  5
2BE
330
10F
100
AcDbEntity
  8
0
 62
     0
100
AcDbPolyline
 90
        2
 70
     0
 43
0.0
 10
1022.217082879002
 20
241.6279072312101
 10
1022.217082879002
 20
287.6248061025919
  0
LWPOLYLINE
  5
2BF
330
10F
100
AcDbEntity
  8
0
 62
     0
100
AcDbPolyline
 90
        2
 70
     0
 43
0.0
 10
1022.217082879002
 20
316.8738724345837
 10
1022.217082879002
 20
397.7889425837463
  0
LWPOLYLINE
  5
2C0
330
10F
100
AcDbEntity
  8
0
 62
     0
100
AcDbPolyline
 90
        2
 70
     0
 43
0.0
 10
1022.217082879002
 20
424.1415558803998
 10
1022.217082879002
 20
469.4237782469751
  0
LWPOLYLINE
  5
2C1
330
10F
100
AcDbEntity
  8
0
 62
     0
100
AcDbPolyline
 90
        2
 70
     0
 43
0.0
 10
1022.217082879002
 20
515.3693609266658
 10
1022.217082879002
 20
623.7740231586628
  0
LWPOLYLINE
  5
2C2
330
10F
100
AcDbEntity
  8
0
 62
     0
100
AcDbPolyline
 90
        2
 70
     0
 43
0.0
 10
1022.217082879002
 20
656.0814836010629
 10
1022.217082879002
 20
719.3861535847416
  0
LWPOLYLINE
  5
2C3
330
10F
100
AcDbEntity
  8
0
 62
     0
100
AcDbPolyline
 90
        2
 70
     0
 43
0.0
 10
1022.217082879002
 20
776.9866861002567
 10
1022.217082879002
 20
826.7291857512775
  0
LWPOLYLINE
  5
2C4
330
10F
100
AcDbEntity
  8
0
 62
     0
100
AcDbPolyline
 90
        2
 70
     0
 43
0.0
 10
1022.217082879002
 20
889.142130412298
 10
1022.217082879002
 20
950.7764615460489
  0
LWPOLYLINE
  5
2C5
330
10F
100
AcDbEntity
  8
0
 62
     0
100
AcDbPolyline
 90
        2
 70
     0
 43
0.0
 10
1022.217082879002
 20
1014.383379088064
 10
1022.217082879002
 20
1102.94430435361
  0
LWPOLYLINE
  5
2C6
330
10F
100
AcDbEntity
  8
0
 62
     0
100
AcDbPolyline
 90
        2
 70
     0
 43
0.0
 10
1022.217082879002
 20
1137.753662650799
 10
1022.217082879002
 20
1220.672496993459
  0
LWPOLYLINE
  5
2C7
330
10F
100
AcDbEntity
  8
0
 62
     0
100
AcDbPolyline
 90
        2
 70
     0
 43
0.0
 10
1022.217082879002
 20
1284.279414535474
 10
1022.217082879002
 20
1345.913745669223
  0
LWPOLYLINE
  5
2C8
330
10F
100
AcDbEntity
  8
0
 62
     0
100
AcDbPolyline
 90
        2
 70
     0
 43
0.0
 10
1022.217082879002
 20
1408.326690330245
 10
1022.217082879002
 20
1458.069189981266
  0
LWPOLYLINE
  5
2C9
330
10F
100
AcDbEntity
  8
0
 62
     0
100
AcDbPolyline
 90
        2
 70
     0
 43
0.0
 10
1022.217082879002
 20
1515.669722496782
 10
1022.217082879002
 20
1578.97439248046
  0
LWPOLYLINE
  5
2CA
330
10F
100
AcDbEntity
  8
0
 62
     0
100
AcDbPolyline
 90
        2
 70
     0
 43
0.0
 10
1022.217082879002
 20
1611.28185292286
 10
1022.217082879002
 20
1719.686515154858
  0
LWPOLYLINE
  5
2CB
330
10F
100
AcDbEntity
  8
0
 62
     0
100
AcDbPolyline
 90
        2
 70
     0
 43
0.0
 10
1022.217082879002
 20
1765.632097834548
 10
1022.217082879002
 20
1810.914320201122
  0
LWPOLYLINE
  5
2CC
330
10F
100
AcDbEntity
  8
0
 62
     0
100
AcDbPolyline
 90
        2
 70
     0
 43
0.0
 10
1022.217082879002
 20
1837.266933497776
 10
1022.217082879002
 20
1918.182003646938
  0
LWPOLYLINE
  5
2CD
330
10F
100
AcDbEntity
  8
0
 62
     0
100
AcDbPolyline
 90
        2
 70
     0
 43
0.0
 10
1022.217082879002
 20
1947.43106997893
 10
1022.217082879002
 20
1993.427968850312
  0
LWPOLYLINE
  5
2CE
330
10F
100
AcDbEntity
  8
0
 62
     0
100
AcDbPolyline
 90
        2
 70
     0
 43
0.0
 10
1022.217082879002
 20
2015.770677995723
 10
1022.217082879002
 20
2109.307973874687
  0
LWPOLYLINE
  5
2CF
330
10F
100
AcDbEntity
  8
0
 62
     0
100
AcDbPolyline
 90
        2
 70
     0
 43
0.0
 10
1022.217082879002
 20
2133.929781392687
 10
1022.217082879002
 20
2182.739984373505
  0
LWPOLYLINE
  5
2D0
330
10F
100
AcDbEntity
  8
0
 62
     0
100
AcDbPolyline
 90
        4
 70
     1
 43
0.0
 10
988.3434403122009
 20
2235.055876081522
 10
2091.31266915466
 20
2235.055876081522
 10
2091.31266915466
 20
-0.0000000000000568
 10
988.3434403122009
 20
-0.0000000000000568
  0
ENDBLK
  5
2D1
330
10F
100
AcDbEntity
  8
0
 62
     5
100
AcDbBlockEnd
  0
ENDSEC
  0
SECTION
  2
ENTITIES
  0
CIRCLE
  5
5FF9
330
1F
100
AcDbEntity
  8
0
 62
     0
100
AcDbCircle
 10
2128.559447884988
 20
3612.070896028548
 30
0.0
 40
106.0892919802811
  0
ELLIPSE
  5
5FFA
330
1F
100
AcDbEntity
  8
0
 62
     0
100
AcDbEllipse
 10
1953.160435116443
 20
6513.68818936657
 30
0.0
 11
-81.67859352452422
 21
0.0
 31
0.0
210
0.0
220
0.0
230
1.0
 40
0.3372402171875114
 41
6.009348737011023
 42
9.698614530937939
  0
ELLIPSE
  5
5FFB
330
1F
100
AcDbEntity
  8
0
 62
     0
100
AcDbEllipse
 10
1623.88392463002
 20
6471.988927105994
 30
0.0
 11
-75.88211520016527
 21
-27.15090521977184
 31
0.0
210
0.0
220
0.0
230
1.0
 40
0.4689952453060453
 41
0.0
 42
6.283185307179584
  0
ELLIPSE
  5
5FFC
330
1F
100
AcDbEntity
  8
0
 62
     0
100
AcDbEllipse
 10
1785.484734889056
 20
6411.133455010006
 30
0.0
 11
-81.03461453818468
 21
-25.27843134472471
 31
0.0
210
0.0
220
0.0
230
0.9999999999999998
 40
0.4997640396812409
 41
0.0
 42
6.283185307179584
  0
ELLIPSE
  5
5FFD
330
1F
100
AcDbEntity
  8
0
 62
     0
100
AcDbEllipse
 10
1952.706441772875
 20
6332.489453257045
 30
0.0
 11
-87.12390844977823
 21
-16.85228343810799
 31
0.0
210
0.0
220
0.0
230
1.0
 40
0.5310369267309467
 41
0.0
 42
6.283185307179584
  0
ELLIPSE
  5
5FFE
330
1F
100
AcDbEntity
  8
0
 62
     0
100
AcDbEllipse
 10
1761.699044840603
 20
6196.688031624534
 30
0.0
 11
-81.02199763126266
 21
-36.43740270772882
 31
0.0
210
0.0
220
0.0
230
0.9999999999999998
 40
0.6086522554516111
 41
0.0
 42
6.283185307179584
  0
ELLIPSE
  5
5FFF
330
1F
100
AcDbEntity
  8
0
 62
     0
100
AcDbEllipse
 10
1598.400270195087
 20
6280.985992557227
 30
0.0
 11
-79.97022987858058
 21
-38.32939834140853
 31
0.0
210
0.0
220
0.0
230
1.0
 40
0.5613751132608094
 41
0.0
 42
6.283185307179584
  0
ELLIPSE
  5
6000
330
1F
100
AcDbEntity
  8
0
 62
     0
100
AcDbEllipse
 10
1452.245848182255
 20
6338.100192315047
 30
0.0
 11
-73.8787613806398
 21
-42.04388472295962
 31
0.0
210
0.0
220
0.0
230
1.0
 40
0.3840801736235547
 41
0.0
 42
6.283185307179584
  0
ELLIPSE
  5
6001
330
1F
100
AcDbEntity
  8
0
 62
     0
100
AcDbEllipse
 10
1317.085661064474
 20
6377.303961253665
 30
0.0
 11
-65.56585604235563
 21
-42.47853002729628
 31
0.0
210
0.0
220
0.0
230
1.0
 40
0.4305391531601336
 41
0.0
 42
6.283185307179584
  0
ELLIPSE
  5
6002
330
1F
100
AcDbEntity
  8
0
 62
     0
100
AcDbEllipse
 10
1201.206906693917
 20
6391.99663699442
 30
0.0
 11
-60.1782214816755
 21
-43.01481841532843
 31
0.0
210
0.0
220
0.0
230
1.0
 40
0.3779979851668672
 41
0.0
 42
6.283185307179584
  0
ELLIPSE
  5
6003
330
1F
100
AcDbEntity
  8
0
 62
     0
100
AcDbEllipse
 10
1099.27766082841
 20
6398.375914586348
 30
0.0
 11
-56.06938364129526
 21
-40.69564586484693
 31
0.0
210
0.0
220
0.0
230
1.0
 40
0.3620484457960908
 41
0.0
 42
6.283185307179584
  0
ELLIPSE
  5
6004
330
1F
100
AcDbEntity
  8
0
 62
     0
100
AcDbEllipse
 10
1011.571361553136
 20
6405.262863091289
 30
0.0
 11
-52.9370104273957
 21
-40.06955738710284
 31
0.0
210
0.0
220
0.0
230
1.0
 40
0.3132060541742065
 41
0.0
 42
6.283185307179584
  0
ELLIPSE
  5
6005
330
1F
100
AcDbEntity
  8
0
 62
     0
100
AcDbEllipse
 10
927.3106835784297
 20
6416.845472085537
 30
0.0
 11
-46.35903744348531
 21
-39.75651624201216
 31
0.0
210
0.0
220
0.0
230
1.0
 40
0.351703405504709
 41
0.0
 42
6.283185307179584
  0
ELLIPSE
  5
6006
330
1F
100
AcDbEntity
  8
0
 62
     0
100
AcDbEllipse
 10
835.1266075061015
 20
6454.948595599944
 30
0.0
 11
-43.19262233556357
 21
-43.19262233556357
 31
0.0
210
0.0
220
0.0
230
1.0
 40
0.5254634900290626
 41
0.0
 42
6.283185307179584
  0
ELLIPSE
  5
6007
330
1F
100
AcDbEntity
  8
0
 62
     0
100
AcDbEllipse
 10
808.4430679275328
 20
6259.143557796097
 30
0.0
 11
-40.48437089816676
 21
-61.03195374408027
 31
0.0
210
0.0
220
0.0
230
1.0
 40
0.2810715458434808
 41
0.0
 42
6.283185307179584
  0
ELLIPSE
  5
6008
330
1F
100
AcDbEntity
  8
0
 62
     0
100
AcDbEllipse
 10
884.9516577704504
 20
6245.771382072258
 30
0.0
 11
-42.88598621217144
 21
-57.9460679905129
 31
0.0
210
0.0
220
0.0
230
1.0
 40
0.1951258246945301
 41
0.0
 42
6.283185307179584
  0
ELLIPSE
  5
6009
330
1F
100
AcDbEntity
  8
0
 62
     0
100
AcDbEllipse
 10
963.5187950180629
 20
6241.313998414401
 30
0.0
 11
-47.34612740028141
 21
-55.54593737665461
 31
0.0
210
0.0
220
0.0
230
1.0
 40
0.3037436373290199
 41
0.0
 42
6.283185307179584
  0
ELLIPSE
  5
600A
330
1F
100
AcDbEntity
  8
0
 62
     0
100
AcDbEllipse
 10
1052.535099557332
 20
6237.549572218608
 30
0.0
 11
-57.45222678257529
 21
-59.32478059229273
 31
0.0
210
0.0
220
0.0
230
1.0
 40
0.2954908278377448
 41
0.0
 42
6.283185307179584
  0
ELLIPSE
  5
600B
330
1F
100
AcDbEntity
  8
0
 62
     0
100
AcDbEllipse
 10
1153.389313902359
 20
6215.642502183094
 30
0.0
 11
-59.96436921548318
 21
-55.6658585189896
 31
0.0
210
0.0
220
0.0
230
0.9999999999999998
 40
0.3826752338158836
 41
0.0
 42
6.283185307179584
  0
ELLIPSE
  5
600C
330
1F
100
AcDbEntity
  8
0
 62
     0
100
AcDbEllipse
 10
1276.343978469025
 20
6178.35361048305
 30
0.0
 11
-66.00392753836216
 21
-56.10391935764031
 31
0.0
210
0.0
220
0.0
230
1.0
 40
0.4144710327891679
 41
0.0
 42
6.283185307179584
  0
ELLIPSE
  5
600D
330
1F
100
AcDbEntity
  8
0
 62
     0
100
AcDbEllipse
 10
1414.533644264608
 20
6119.370185320313
 30
0.0
 11
-71.18120854850587
 21
-54.3122797947268
 31
0.0
210
0.0
220
0.0
230
1.0
 40
0.5447945635724489
 41
0.0
 42
6.283185307179584
  0
ELLIPSE
  5
600E
330
1F
100
AcDbEntity
  8
0
 62
     0
100
AcDbEllipse
 10
1572.115786659634
 20
6037.267942697774
 30
0.0
 11
-76.13546527479801
 21
-51.22054060735137
 31
0.0
210
0.0
220
0.0
230
1.0
 40
0.6609049286427032
 41
0.0
 42
6.283185307179584
  0
ELLIPSE
  5
600F
330
1F
100
AcDbEntity
  8
0
 62
     0
100
AcDbEllipse
 10
1745.004616276049
 20
5925.50278693008
 30
0.0
 11
-77.90454509397851
 21
-50.05058397792119
 31
0.0
210
0.0
220
0.0
230
0.9999999999999998
 40
0.7880072252956542
 41
0.0
 42
6.283185307179584
  0
ELLIPSE
  5
6010
330
1F
100
AcDbEntity
  8
0
 62
     0
100
AcDbEllipse
 10
1933.111362623628
 20
5794.784837433176
 30
0.0
 11
-84.37709370120421
 21
-42.77952398885065
 31
0.0
210
0.0
220
0.0
230
1.0
 40
0.825027248145369
 41
0.0
 42
6.283185307179584
  0
ELLIPSE
  5
6011
330
1F
100
AcDbEntity
  8
0
 62
     0
100
AcDbEllipse
 10
1732.197077795937
 20
5607.450471367127
 30
0.0
 11
-74.52775698696744
 21
-59.48196323398946
 31
0.0
210
0.0
220
0.0
230
0.9999999999999998
 40
0.7814370002040993
 41
0.0
 42
6.283185307179584
  0
ELLIPSE
  5
6012
330
1F
100
AcDbEntity
  8
0
 62
     0
100
AcDbEllipse
 10
1544.061103716004
 20
5744.036438756886
 30
0.0
 11
-73.44024850819607
 21
-60.17472269407005
 31
0.0
210
0.0
220
0.0
230
1.0
 40
0.7577332530563343
 41
0.0
 42
6.283185307179584
  0
ELLIPSE
  5
6013
330
1F
100
AcDbEntity
  8
0
 62
     0
100
AcDbEllipse
 10
1381.617585869963
 20
5851.752980312198
 30
0.0
 11
-65.26397453886247
 21
-65.26397453886247
 31
0.0
210
0.0
220
0.0
230
1.0
 40
0.6802716780200933
 41
0.0
 42
6.283185307179584
  0
ELLIPSE
  5
6014
330
1F
100
AcDbEntity
  8
0
 62
     0
100
AcDbEllipse
 10
1237.865645016148
 20
5934.348805047505
 30
0.0
 11
-61.72626089962535
 21
-61.72626089962535
 31
0.0
210
0.0
220
0.0
230
1.0
 40
0.5741637720713002
 41
0.0
 42
6.283185307179584
  0
ELLIPSE
  5
6015
330
1F
100
AcDbEntity
  8
0
 62
     0
100
AcDbEllipse
 10
1112.008501912336
 20
5987.634916144932
 30
0.0
 11
-61.48594972275285
 21
-61.48594972275285
 31
0.0
210
0.0
220
0.0
230
1.0
 40
0.418623657360729
 41
0.0
 42
6.283185307179584
  0
ELLIPSE
  5
6016
330
1F
100
AcDbEntity
  8
0
 62
     0
100
AcDbEllipse
 10
1004.605569395299
 20
6028.690242831032
 30
0.0
 11
-51.58574184925399
 21
-68.54969327401289
 31
0.0
210
0.0
220
0.0
230
1.0
 40
0.3766047139849467
 41
0.0
 42
6.283185307179584
  0
ELLIPSE
  5
6017
330
1F
100
AcDbEntity
  8
0
 62
     0
100
AcDbEllipse
 10
915.6059940995433
 20
6043.986447197877
 30
0.0
 11
-43.08259250149907
 21
-65.71705825232957
 31
0.0
210
0.0
220
0.0
230
1.0
 40
0.3241712871052219
 41
0.0
 42
6.283185307179584
  0
ELLIPSE
  5
6018
330
1F
100
AcDbEntity
  8
0
 62
     0
100
AcDbEllipse
 10
839.1570546672369
 20
6044.344348168668
 30
0.0
 11
-35.73490207319814
 21
-67.5012046774587
 31
0.0
210
0.0
220
0.0
230
1.0
 40
0.2108018908727055
 41
0.0
 42
6.283185307179584
  0
ELLIPSE
  5
6019
330
1F
100
AcDbEntity
  8
0
 62
     0
100
AcDbEllipse
 10
770.8287849870962
 20
6040.027409796845
 30
0.0
 11
41.23256854995116
 21
78.09731826049173
 31
0.0
210
0.0
220
0.0
230
0.9999999999999998
 40
0.244560068360591
 41
3.503656402014906
 42
8.195138527442518
  0
ELLIPSE
  5
601A
330
1F
100
AcDbEntity
  8
0
 62
     0
100
AcDbEllipse
 10
727.3163564279821
 20
6293.756112294768
 30
0.0
 11
-40.48437089816676
 21
-61.03195374408027
 31
0.0
210
0.0
220
0.0
230
1.0
 40
0.2810715458434808
 41
1.439775629419719
 42
4.041824827120143
  0
ELLIPSE
  5
601B
330
1F
100
AcDbEntity
  8
0
 62
     0
100
AcDbEllipse
 10
1493.463474525041
 20
6513.37814300157
 30
0.0
 11
-65.56585604235563
 21
-42.47853002729628
 31
0.0
210
0.0
220
0.0
230
1.0
 40
0.4305391531601336
 41
5.146194802244943
 42
8.593233048848867
  0
ELLIPSE
  5
601C
330
1F
100
AcDbEntity
  8
0
 62
     0
100
AcDbEllipse
 10
1377.584720154482
 20
6528.070818742325
 30
0.0
 11
-60.1782214816755
 21
-43.01481841532843
 31
0.0
210
0.0
220
0.0
230
1.0
 40
0.3779979851668672
 41
5.341809248425247
 42
8.197440628250657
  0
ELLIPSE
  5
601D
330
1F
100
AcDbEntity
  8
0
 62
     0
100
AcDbEllipse
 10
1256.502686625142
 20
6524.97065209528
 30
0.0
 11
-56.06938364129526
 21
-40.69564586484693
 31
0.0
210
0.0
220
0.0
230
1.0
 40
0.3620484457960908
 41
5.259486283433363
 42
8.232291883150136
  0
ELLIPSE
  5
601E
330
1F
100
AcDbEntity
  8
0
 62
     0
100
AcDbEllipse
 10
1152.489444235559
 20
6527.443542252648
 30
0.0
 11
-52.9370104273957
 21
-40.06955738710284
 31
0.0
210
0.0
220
0.0
230
1.0
 40
0.3132060541742065
 41
5.250666993789478
 42
8.100370512577223
  0
ELLIPSE
  5
601F
330
1F
100
AcDbEntity
  8
0
 62
     0
100
AcDbEllipse
 10
1068.228766260803
 20
6539.026151246893
 30
0.0
 11
-46.35903744348531
 21
-39.75651624201216
 31
0.0
210
0.0
220
0.0
230
1.0
 40
0.351703405504709
 41
5.530968485444509
 42
7.813788647427747
  0
ELLIPSE
  5
6020
330
1F
100
AcDbEntity
  8
0
 62
     0
100
AcDbEllipse
 10
742.7781614096089
 20
6513.816761708497
 30
0.0
 11
-43.19262233556357
 21
-43.19262233556357
 31
0.0
210
0.0
220
0.0
230
1.0
 40
0.5254634900290626
 41
1.010185497955116
 42
2.205206665925253
  0
ELLIPSE
  5
6021
330
1F
100
AcDbEntity
  8
0
 62
     0
100
AcDbEllipse
 10
748.6068270620116
 20
5818.756907340526
 30
0.0
 11
32.56956557517706
 21
79.36216734329625
 31
0.0
210
0.0
220
0.0
230
0.9999999999999998
 40
0.2004963466959972
 41
3.990701529268593
 42
7.66677945586937
  0
ELLIPSE
  5
6022
330
1F
100
AcDbEntity
  8
0
 62
     0
100
AcDbEllipse
 10
806.7929013795364
 20
5819.122629389899
 30
0.0
 11
32.2036106828056
 21
76.80210062257788
 31
0.0
210
0.0
220
0.0
230
1.0
 40
0.2548630776677332
 41
0.0
 42
6.283185307179584
  0
ELLIPSE
  5
6023
330
1F
100
AcDbEntity
  8
0
 62
     0
100
AcDbEllipse
 10
878.5191237050995
 20
5807.419455746852
 30
0.0
 11
43.1821175053213
 21
78.26499500762242
 31
0.0
210
0.0
220
0.0
230
0.9999999999999998
 40
0.2538269047843527
 41
0.0
 42
6.283185307179584
  0
ELLIPSE
  5
6024
330
1F
100
AcDbEntity
  8
0
 62
     0
100
AcDbEllipse
 10
964.1514596962734
 20
5774.869995350868
 30
0.0
 11
50.50111846523938
 21
77.16782885951001
 31
0.0
210
0.0
220
0.0
230
1.0
 40
0.3994236624772705
 41
0.0
 42
6.283185307179584
  0
ELLIPSE
  5
6025
330
1F
100
AcDbEntity
  8
0
 62
     0
100
AcDbEllipse
 10
1077.596012253442
 20
5724.765765208968
 30
0.0
 11
58.55201844462044
 21
76.07065033627356
 31
0.0
210
0.0
220
0.0
230
0.9999999999999998
 40
0.4670865194507213
 41
0.0
 42
6.283185307179584
  0
ELLIPSE
  5
6026
330
1F
100
AcDbEntity
  8
0
 62
     0
100
AcDbEllipse
 10
1208.578808234543
 20
5644.045291843912
 30
0.0
 11
61.66114942128387
 21
75.87918241261526
 31
0.0
210
0.0
220
0.0
230
1.0
 40
0.6003268276440822
 41
0.0
 42
6.283185307179584
  0
ELLIPSE
  5
6027
330
1F
100
AcDbEntity
  8
0
 62
     0
100
AcDbEllipse
 10
1361.904585406621
 20
5539.277854319056
 30
0.0
 11
65.29580902008286
 21
70.92990612525965
 31
0.0
210
0.0
220
0.0
230
1.0
 40
0.6840588260764199
 41
0.0
 42
6.283185307179584
  0
ELLIPSE
  5
6028
330
1F
100
AcDbEntity
  8
0
 62
     0
100
AcDbEllipse
 10
1532.92550994317
 20
5406.37175390053
 30
0.0
 11
71.48948307630476
 21
68.94477530586228
 31
0.0
210
0.0
220
0.0
230
1.0
 40
0.7995240369076479
 41
0.0
 42
6.283185307179584
  0
ELLIPSE
  5
6029
330
1F
100
AcDbEntity
  8
0
 62
     0
100
AcDbEllipse
 10
1718.866292932808
 20
5255.549177414565
 30
0.0
 11
71.71742709263279
 21
69.20001843276243
 31
0.0
210
0.0
220
0.0
230
1.0
 40
0.9072308990429279
 41
0.0
 42
6.283185307179584
  0
ELLIPSE
  5
602A
330
1F
100
AcDbEntity
  8
0
 62
     0
100
AcDbEllipse
 10
1922.437394777128
 20
5078.437140488676
 30
0.0
 11
78.9061358815088
 21
63.85359346779696
 31
0.0
210
0.0
220
0.0
230
1.0
 40
0.9471721172373145
 41
0.0
 42
6.283185307179584
  0
ELLIPSE
  5
602B
330
1F
100
AcDbEntity
  8
0
 62
     0
100
AcDbEllipse
 10
1710.88173936756
 20
4870.269679552227
 30
0.0
 11
71.97022813803944
 21
74.63269801431853
 31
0.0
210
0.0
220
0.0
230
1.0
 40
0.9592665141672039
 41
0.0
 42
6.283185307179584
  0
ELLIPSE
  5
602C
330
1F
100
AcDbEntity
  8
0
 62
     0
100
AcDbEllipse
 10
1507.703290307336
 20
4653.021135816601
 30
0.0
 11
62.54899427150876
 21
78.13799529416894
 31
0.0
210
0.0
220
0.0
230
1.0
 40
0.9348015168909629
 41
0.0
 42
6.283185307179584
  0
ELLIPSE
  5
602D
330
1F
100
AcDbEntity
  8
0
 62
     0
100
AcDbEllipse
 10
1316.604183963748
 20
4426.350376604471
 30
0.0
 11
33.74219511454682
 21
94.51483883058259
 31
0.0
210
0.0
220
0.0
230
1.0
 40
0.8281510902799336
 41
0.0
 42
6.283185307179584
  0
ELLIPSE
  5
602E
330
1F
100
AcDbEntity
  8
0
 62
     0
100
AcDbEllipse
 10
1138.722084250197
 20
4208.384527349653
 30
0.0
 11
12.74495991363324
 21
96.09099654107209
 31
0.0
210
0.0
220
0.0
230
1.0
 40
0.7862973607425651
 41
0.0
 42
6.283185307179584
  0
ELLIPSE
  5
602F
330
1F
100
AcDbEntity
  8
0
 62
     0
100
AcDbEllipse
 10
986.8514821286089
 20
3999.250055635248
 30
0.0
 11
8.693242643322225
 21
89.36110073902183
 31
0.0
210
0.0
220
0.0
230
1.0
 40
0.7146619888316316
 41
0.0
 42
6.283185307179584
  0
ELLIPSE
  5
6030
330
1F
100
AcDbEntity
  8
0
 62
     0
100
AcDbEllipse
 10
858.0593881164796
 20
3801.68127612013
 30
0.0
 11
4.013360581437336
 21
86.41632234064491
 31
0.0
210
0.0
220
0.0
230
1.0
 40
0.6551736887166888
 41
0.0
 42
6.283185307179584
  0
ELLIPSE
  5
6031
330
1F
100
AcDbEntity
  8
0
 62
     0
100
AcDbEllipse
 10
984.9483099949233
 20
3617.203330064729
 30
0.0
 11
0.0
 21
92.61909353423014
 31
0.0
210
0.0
220
0.0
230
1.0
 40
0.7343984306497921
 41
0.0
 42
6.283185307179584
  0
ELLIPSE
  5
6032
330
1F
100
AcDbEntity
  8
0
 62
     0
100
AcDbEllipse
 10
1142.79729135918
 20
3816.929632068748
 30
0.0
 11
0.0
 21
95.05107771811854
 31
0.0
210
0.0
220
0.0
230
1.0
 40
0.7731785972808103
 41
0.0
 42
6.283185307179584
  0
ELLIPSE
  5
6033
330
1F
100
AcDbEntity
  8
0
 62
     0
100
AcDbEllipse
 10
1312.965573507593
 20
4023.505076572878
 30
0.0
 11
6.643888786876085
 21
100.1501425103817
 31
0.0
210
0.0
220
0.0
230
0.9999999999999998
 40
0.8550030881524248
 41
0.0
 42
6.283185307179584
  0
ELLIPSE
  5
6034
330
1F
100
AcDbEntity
  8
0
 62
     0
100
AcDbEllipse
 10
1498.318884460103
 20
4239.040055404999
 30
0.0
 11
14.16237036559719
 21
99.98451384632879
 31
0.0
210
0.0
220
0.0
230
1.0
 40
0.959974662447869
 41
0.0
 42
6.283185307179584
  0
ELLIPSE
  5
6035
330
1F
100
AcDbEntity
  8
0
 62
     0
100
AcDbEllipse
 10
1710.436573552712
 20
4460.428443295702
 30
0.0
 11
47.26079103410375
 21
90.72549532195049
 31
0.0
210
0.0
220
0.0
230
0.9999999999999998
 40
0.8982307229594017
 41
0.0
 42
6.283185307179584
  0
ELLIPSE
  5
6036
330
1F
100
AcDbEntity
  8
0
 62
     0
100
AcDbEllipse
 10
1918.941101308599
 20
4672.764848492095
 30
0.0
 11
-99.67273486469206
 21
5.071233425398911
 31
0.0
210
0.0
220
0.0
230
1.0
 40
0.9939370144897022
 41
0.0
 42
6.283185307179584
  0
ELLIPSE
  5
6037
330
1F
100
AcDbEntity
  8
0
 62
     0
100
AcDbEllipse
 10
1919.236252961352
 20
4256.397652294938
 30
0.0
 11
0.0
 21
102.2298192796747
 31
0.0
210
0.0
220
0.0
230
1.0
 40
0.9839895141870108
 41
0.0
 42
6.283185307179584
  0
ELLIPSE
  5
6038
330
1F
100
AcDbEntity
  8
0
 62
     0
100
AcDbEllipse
 10
1705.062180285141
 20
4041.34631807194
 30
0.0
 11
5.090868116072403
 21
103.1420268195278
 31
0.0
210
0.0
220
0.0
230
0.9999999999999998
 40
0.9097684253863695
 41
0.0
 42
6.283185307179584
  0
ELLIPSE
  5
6039
330
1F
100
AcDbEntity
  8
0
 62
     0
100
AcDbEllipse
 10
1496.02853906924
 20
3825.571199952164
 30
0.0
 11
5.48877435634484
 21
103.7652133306173
 31
0.0
210
0.0
220
0.0
230
0.9999999999999998
 40
0.9684076399980105
 41
0.0
 42
6.283185307179584
  0
ELLIPSE
  5
603A
330
1F
100
AcDbEntity
  8
0
 62
     0
100
AcDbEllipse
 10
1916.996751982951
 20
3829.359547263289
 30
0.0
 11
0.0
 21
104.8657826379196
 31
0.0
210
0.0
220
0.0
230
1.0
 40
0.947444651313479
 41
0.0
 42
6.283185307179584
  0
ELLIPSE
  5
603B
330
1F
100
AcDbEntity
  8
0
 62
     0
100
AcDbEllipse
 10
1305.355931546797
 20
3616.654592301618
 30
0.0
 11
0.0
 21
100.9874743604671
 31
0.0
210
0.0
220
0.0
230
1.0
 40
0.94563854561306
 41
0.0
 42
6.283185307179584
  0
ELLIPSE
  5
603C
330
1F
100
AcDbEntity
  8
0
 62
     0
100
AcDbEllipse
 10
1701.782225862217
 20
3613.325331165386
 30
0.0
 11
0.0
 21
105.4264871462593
 31
0.0
210
0.0
220
0.0
230
1.0
 40
0.9795519212978291
 41
0.0
 42
6.283185307179584
  0
ELLIPSE
  5
603D
330
1F
100
AcDbEntity
  8
0
 62
     0
100
AcDbEllipse
 10
747.6872478551622
 20
3974.870033967753
 30
0.0
 11
4.013360581437336
 21
86.41632234064491
 31
0.0
210
0.0
220
0.0
230
1.0
 40
0.6551736887166888
 41
3.059318546647753
 42
6.506993200271656
  0
ELLIPSE
  5
603E
330
1F
100
AcDbEntity
  8
0
 62
     0
100
AcDbEllipse
 10
752.887286664999
 20
4309.796635939877
 30
0.0
 11
4.013360581437336
 21
86.41632234064491
 31
0.0
210
0.0
220
0.0
230
1.0
 40
0.6551736887166888
 41
2.965810147589523
 42
6.600501599329887
  0
ELLIPSE
  5
603F
330
1F
100
AcDbEntity
  8
0
 62
     0
100
AcDbEllipse
 10
763.1081207045476
 20
4622.240086875161
 30
0.0
 11
35.73140335754213
 21
94.59180591636291
 31
0.0
210
0.0
220
0.0
230
1.0
 40
0.481187682980427
 41
3.378066902041308
 42
7.377793676600674
  0
ELLIPSE
  5
6040
330
1F
100
AcDbEntity
  8
0
 62
     0
100
AcDbEllipse
 10
785.2433750730301
 20
4940.201463836962
 30
0.0
 11
38.25802509062559
 21
95.42038855354553
 31
0.0
210
0.0
220
0.0
230
1.0
 40
0.4152679124103772
 41
2.914110852870212
 42
8.046363111785312
  0
ELLIPSE
  5
6041
330
1F
100
AcDbEntity
  8
0
 62
     0
100
AcDbEllipse
 10
747.5425069940715
 20
5301.881822351248
 30
0.0
 11
32.30217757680315
 21
84.97278883761614
 31
0.0
210
0.0
220
0.0
230
1.0
 40
0.3228313403197935
 41
3.806209022154714
 42
7.352071412405987
  0
ELLIPSE
  5
6042
330
1F
100
AcDbEntity
  8
0
 62
     0
100
AcDbEllipse
 10
818.8300657332792
 20
5257.725652406382
 30
0.0
 11
34.52991210532751
 21
83.85960309105628
 31
0.0
210
0.0
220
0.0
230
0.9999999999999998
 40
0.2782702580544408
 41
0.0
 42
6.283185307179584
  0
ELLIPSE
  5
6043
330
1F
100
AcDbEntity
  8
0
 62
     0
100
AcDbEllipse
 10
904.9691879959604
 20
5193.532238024441
 30
0.0
 11
42.6982720432506
 21
85.71491266865519
 31
0.0
210
0.0
220
0.0
230
1.0
 40
0.4643558402465539
 41
0.0
 42
6.283185307179584
  0
ELLIPSE
  5
6044
330
1F
100
AcDbEntity
  8
0
 62
     0
100
AcDbEllipse
 10
1025.638233129237
 20
5092.60386107022
 30
0.0
 11
43.06956651397706
 21
84.23067119413985
 31
0.0
210
0.0
220
0.0
230
0.9999999999999998
 40
0.5753939494386061
 41
0.0
 42
6.283185307179584
  0
ELLIPSE
  5
6045
330
1F
100
AcDbEntity
  8
0
 62
     0
100
AcDbEllipse
 10
1159.746447954032
 20
4972.728042628062
 30
0.0
 11
51.84663838442619
 21
85.12404998232042
 31
0.0
210
0.0
220
0.0
230
0.9999999999999998
 40
0.7526282289544934
 41
0.0
 42
6.283185307179584
  0
ELLIPSE
  5
6046
330
1F
100
AcDbEntity
  8
0
 62
     0
100
AcDbEllipse
 10
1005.589677369821
 20
4741.603080165021
 30
0.0
 11
41.9102213288217
 21
85.31998532586255
 31
0.0
210
0.0
220
0.0
230
0.9999999999999998
 40
0.6841394345716645
 41
0.0
 42
6.283185307179584
  0
ELLIPSE
  5
6047
330
1F
100
AcDbEntity
  8
0
 62
     0
100
AcDbEllipse
 10
888.1375882470869
 20
4861.568148003863
 30
0.0
 11
34.14906883217917
 21
85.31997913830117
 31
0.0
210
0.0
220
0.0
230
0.9999999999999998
 40
0.4935221312573268
 41
0.0
 42
6.283185307179584
  0
ELLIPSE
  5
6048
330
1F
100
AcDbEntity
  8
0
 62
     0
100
AcDbEllipse
 10
871.6974355711991
 20
4519.286718826069
 30
0.0
 11
22.22232394456987
 21
85.96882546969119
 31
0.0
210
0.0
220
0.0
230
1.0
 40
0.5598442547693111
 41
0.0
 42
6.283185307179584
  0
ELLIPSE
  5
6049
330
1F
100
AcDbEntity
  8
0
 62
     0
100
AcDbEllipse
 10
1148.042813472491
 20
4597.733269282758
 30
0.0
 11
39.06828457551294
 21
91.34187551465721
 31
0.0
210
0.0
220
0.0
230
1.0
 40
0.7310194254182731
 41
0.0
 42
6.283185307179584
  0
ELLIPSE
  5
604A
330
1F
100
AcDbEntity
  8
0
 62
     0
100
AcDbEllipse
 10
995.6638210528753
 20
4376.665774553534
 30
0.0
 11
27.0417024909918
 21
89.63295128277588
 31
0.0
210
0.0
220
0.0
230
1.0
 40
0.690152009612437
 41
0.0
 42
6.283185307179584
  0
ELLIPSE
  5
604B
330
1F
100
AcDbEntity
  8
0
 62
     0
100
AcDbEllipse
 10
856.4083926420035
 20
4159.671168369191
 30
0.0
 11
17.47785020903075
 21
86.14439754614654
 31
0.0
210
0.0
220
0.0
230
1.0
 40
0.6433519553795857
 41
0.0
 42
6.283185307179584
  0
ELLIPSE
  5
604C
330
1F
100
AcDbEntity
  8
0
 62
     0
100
AcDbEllipse
 10
1327.571462600341
 20
4819.769940436695
 30
0.0
 11
54.00378497892356
 21
85.19621551986096
 31
0.0
210
0.0
220
0.0
230
1.0
 40
0.7853428073352033
 41
0.0
 42
6.283185307179584
  0
ELLIPSE
  5
604D
330
1F
100
AcDbEntity
  8
0
 62
     0
100
AcDbEllipse
 10
1340.326832538706
 20
5197.179193352515
 30
0.0
 11
60.91104631512871
 21
78.26587364145016
 31
0.0
210
0.0
220
0.0
230
1.0
 40
0.8140476902349892
 41
0.0
 42
6.283185307179584
  0
ELLIPSE
  5
604E
330
1F
100
AcDbEntity
  8
0
 62
     0
100
AcDbEllipse
 10
1184.993072477209
 20
5322.134709517363
 30
0.0
 11
56.75216069294428
 21
78.56090898063709
 31
0.0
210
0.0
220
0.0
230
0.9999999999999998
 40
0.6517585741059463
 41
0.0
 42
6.283185307179584
  0
ELLIPSE
  5
604F
330
1F
100
AcDbEntity
  8
0
 62
     0
100
AcDbEllipse
 10
1044.917717360947
 20
5427.389479438393
 30
0.0
 11
52.5571898557465
 21
79.02806373659325
 31
0.0
210
0.0
220
0.0
230
1.0
 40
0.5677403822323596
 41
0.0
 42
6.283185307179584
  0
ELLIPSE
  5
6050
330
1F
100
AcDbEntity
  8
0
 62
     0
100
AcDbEllipse
 10
934.0019072968043
 20
5501.842008017574
 30
0.0
 11
44.34061223344098
 21
76.50663834159972
 31
0.0
210
0.0
220
0.0
230
0.9999999999999998
 40
0.4337608387177524
 41
0.0
 42
6.283185307179584
  0
ELLIPSE
  5
6051
330
1F
100
AcDbEntity
  8
0
 62
     0
100
AcDbEllipse
 10
843.8047485450697
 20
5548.048983566662
 30
0.0
 11
36.00306517165607
 21
80.2941008313334
 31
0.0
210
0.0
220
0.0
230
1.0
 40
0.2976157912374005
 41
0.0
 42
6.283185307179584
  0
ELLIPSE
  5
6052
330
1F
100
AcDbEntity
  8
0
 62
     0
100
AcDbEllipse
 10
766.4929074138358
 20
5557.517630509661
 30
0.0
 11
41.30877595958413
 21
91.27772287012179
 31
0.0
210
0.0
220
0.0
230
1.0
 40
0.2004781885708614
 41
3.642161334497195
 42
8.090198374780053
  0
ELLIPSE
  5
6053
330
1F
100
AcDbEntity
  8
0
 62
     0
100
AcDbEllipse
 10
1942.416568313746
 20
6086.718667273967
 30
0.0
 11
-90.19409064722745
 21
-13.08461495974134
 31
0.0
210
0.0
220
0.0
230
1.0
 40
0.6795590206827351
 41
0.0
 42
6.283185307179584
  0
ELLIPSE
  5
6054
330
1F
100
AcDbEntity
  8
0
 62
     0
100
AcDbEllipse
 10
2132.587352358265
 20
6438.432348154099
 30
0.0
 11
-85.68953191820062
 21
0.0
 31
0.0
210
0.0
220
0.0
230
1.0
 40
0.5030449809720228
 41
0.0
 42
6.283185307179584
  0
ELLIPSE
  5
6055
330
1F
100
AcDbEntity
  8
0
 62
     0
100
AcDbEllipse
 10
2132.805478440209
 20
6219.101720687499
 30
0.0
 11
-92.84837782329129
 21
0.0
 31
0.0
210
0.0
220
0.0
230
1.0
 40
0.6791071082771328
 41
0.0
 42
6.283185307179584
  0
ELLIPSE
  5
6056
330
1F
100
AcDbEntity
  8
0
 62
     0
100
AcDbEllipse
 10
2129.483248766892
 20
5946.909734878421
 30
0.0
 11
-92.16409363259003
 21
0.0
 31
0.0
210
0.0
220
0.0
230
1.0
 40
0.78795292034164
 41
0.0
 42
6.283185307179584
  0
ELLIPSE
  5
6057
330
1F
100
AcDbEntity
  8
0
 62
     0
100
AcDbEllipse
 10
2128.796693102303
 20
5631.562819496332
 30
0.0
 11
-91.47161706461295
 21
0.0
 31
0.0
210
0.0
220
0.0
230
1.0
 40
0.8535288010029496
 41
0.0
 42
6.283185307179584
  0
ELLIPSE
  5
6058
330
1F
100
AcDbEntity
  8
0
 62
     0
100
AcDbEllipse
 10
2132.377440184157
 20
5269.372432607847
 30
0.0
 11
-102.5843561502638
 21
0.0
 31
0.0
210
0.0
220
0.0
230
1.0
 40
0.901531246132316
 41
0.0
 42
6.283185307179584
  0
ELLIPSE
  5
6059
330
1F
100
AcDbEntity
  8
0
 62
     0
100
AcDbEllipse
 10
2134.083241693741
 20
4877.391693543849
 30
0.0
 11
-103.5806396552764
 21
0.0
 31
0.0
210
0.0
220
0.0
230
1.0
 40
0.9667154570683159
 41
0.0
 42
6.283185307179584
  0
ELLIPSE
  5
605A
330
1F
100
AcDbEntity
  8
0
 62
     0
100
AcDbEllipse
 10
2133.535235169165
 20
4462.166659446876
 30
0.0
 11
0.0
 21
-108.104533785881
 31
0.0
210
0.0
220
0.0
230
1.0
 40
0.9674682045404672
 41
0.0
 42
6.283185307179584
  0
ELLIPSE
  5
605B
330
1F
100
AcDbEntity
  8
0
 62
     0
100
AcDbEllipse
 10
2133.492249410364
 20
4043.020505329823
 30
0.0
 11
0.0
 21
-104.9130879372889
 31
0.0
210
0.0
220
0.0
230
1.0
 40
0.9827856281975739
 41
0.0
 42
6.283185307179584
  0
ELLIPSE
  5
605C
330
1F
100
AcDbEntity
  8
0
 62
     0
100
AcDbEllipse
 10
1515.795442835654
 20
5041.834034866149
 30
0.0
 11
-60.79037830346163
 21
-82.08100072162727
 31
0.0
210
0.0
220
0.0
230
0.9999999999999998
 40
0.8582798329265973
 41
0.0
 42
6.283185307179584
  0
ELLIPSE
  5
605D
330
1F
100
AcDbEntity
  8
0
 62
     0
100
AcDbEllipse
 10
1927.894271611991
 20
5450.492165923644
 30
0.0
 11
-101.4564671101791
 21
-15.94959236886623
 31
0.0
210
0.0
220
0.0
230
1.0
 40
0.7875876969600179
 41
0.0
 42
6.283185307179584
  0
ELLIPSE
  5
605E
330
1F
100
AcDbEntity
  8
0
 62
     0
100
AcDbEllipse
 10
771.8822321232947
 20
3619.643983023214
 30
0.0
 11
0.0
 21
80.88696210024702
 31
0.0
210
0.0
220
0.0
230
1.0
 40
0.4974821035627392
 41
2.186619680855028
 42
7.238158279914351
  0
ELLIPSE
  5
605F
330
1F
100
AcDbEntity
  8
0
 62
     0
100
AcDbEllipse
 10
1953.160435116443
 20
710.4536026905219
 30
0.0
 11
-81.67859352452422
 21
0.0
 31
0.0
210
0.0
220
0.0
230
-1.0
 40
0.3372402171875114
 41
6.009348737011023
 42
9.698614530937939
  0
ELLIPSE
  5
6060
330
1F
100
AcDbEntity
  8
0
 62
     0
100
AcDbEllipse
 10
1623.88392463002
 20
752.152864951098
 30
0.0
 11
-75.88211520016527
 21
27.15090521977184
 31
0.0
210
0.0
220
0.0
230
-1.0
 40
0.4689952453060453
 41
0.0
 42
6.283185307179584
  0
ELLIPSE
  5
6061
330
1F
100
AcDbEntity
  8
0
 62
     0
100
AcDbEllipse
 10
1785.484734889056
 20
813.0083370470842
 30
0.0
 11
-81.03461453818468
 21
25.27843134472471
 31
0.0
210
0.0
220
0.0
230
-0.9999999999999998
 40
0.4997640396812409
 41
0.0
 42
6.283185307179584
  0
ELLIPSE
  5
6062
330
1F
100
AcDbEntity
  8
0
 62
     0
100
AcDbEllipse
 10
1952.706441772875
 20
891.6523388000483
 30
0.0
 11
-87.12390844977823
 21
16.85228343810799
 31
0.0
210
0.0
220
0.0
230
-1.0
 40
0.5310369267309467
 41
0.0
 42
6.283185307179584
  0
ELLIPSE
  5
6063
330
1F
100
AcDbEntity
  8
0
 62
     0
100
AcDbEllipse
 10
1761.699044840603
 20
1027.453760432557
 30
0.0
 11
-81.02199763126266
 21
36.43740270772882
 31
0.0
210
0.0
220
0.0
230
-0.9999999999999998
 40
0.6086522554516111
 41
0.0
 42
6.283185307179584
  0
ELLIPSE
  5
6064
330
1F
100
AcDbEntity
  8
0
 62
     0
100
AcDbEllipse
 10
1598.400270195087
 20
943.1557994998668
 30
0.0
 11
-79.97022987858058
 21
38.32939834140853
 31
0.0
210
0.0
220
0.0
230
-1.0
 40
0.5613751132608094
 41
0.0
 42
6.283185307179584
  0
ELLIPSE
  5
6065
330
1F
100
AcDbEntity
  8
0
 62
     0
100
AcDbEllipse
 10
1452.245848182255
 20
886.0415997420453
 30
0.0
 11
-73.8787613806398
 21
42.04388472295962
 31
0.0
210
0.0
220
0.0
230
-1.0
 40
0.3840801736235547
 41
0.0
 42
6.283185307179584
  0
ELLIPSE
  5
6066
330
1F
100
AcDbEntity
  8
0
 62
     0
100
AcDbEllipse
 10
1317.085661064474
 20
846.8378308034274
 30
0.0
 11
-65.56585604235563
 21
42.47853002729628
 31
0.0
210
0.0
220
0.0
230
-1.0
 40
0.4305391531601336
 41
0.0
 42
6.283185307179584
  0
ELLIPSE
  5
6067
330
1F
100
AcDbEntity
  8
0
 62
     0
100
AcDbEllipse
 10
1201.206906693917
 20
832.1451550626704
 30
0.0
 11
-60.1782214816755
 21
43.01481841532843
 31
0.0
210
0.0
220
0.0
230
-1.0
 40
0.3779979851668672
 41
0.0
 42
6.283185307179584
  0
ELLIPSE
  5
6068
330
1F
100
AcDbEntity
  8
0
 62
     0
100
AcDbEllipse
 10
1099.27766082841
 20
825.7658774707433
 30
0.0
 11
-56.06938364129526
 21
40.69564586484693
 31
0.0
210
0.0
220
0.0
230
-1.0
 40
0.3620484457960908
 41
0.0
 42
6.283185307179584
  0
ELLIPSE
  5
6069
330
1F
100
AcDbEntity
  8
0
 62
     0
100
AcDbEllipse
 10
1011.571361553136
 20
818.8789289658011
 30
0.0
 11
-52.9370104273957
 21
40.06955738710284
 31
0.0
210
0.0
220
0.0
230
-1.0
 40
0.3132060541742065
 41
0.0
 42
6.283185307179584
  0
ELLIPSE
  5
606A
330
1F
100
AcDbEntity
  8
0
 62
     0
100
AcDbEllipse
 10
927.3106835784297
 20
807.2963199715529
 30
0.0
 11
-46.35903744348531
 21
39.75651624201216
 31
0.0
210
0.0
220
0.0
230
-1.0
 40
0.351703405504709
 41
0.0
 42
6.283185307179584
  0
ELLIPSE
  5
606B
330
1F
100
AcDbEntity
  8
0
 62
     0
100
AcDbEllipse
 10
835.1266075061015
 20
769.193196457147
 30
0.0
 11
-43.19262233556357
 21
43.19262233556357
 31
0.0
210
0.0
220
0.0
230
-1.0
 40
0.5254634900290626
 41
0.0
 42
6.283185307179584
  0
ELLIPSE
  5
606C
330
1F
100
AcDbEntity
  8
0
 62
     0
100
AcDbEllipse
 10
808.4430679275328
 20
964.9982342609943
 30
0.0
 11
-40.48437089816676
 21
61.03195374408027
 31
0.0
210
0.0
220
0.0
230
-1.0
 40
0.2810715458434808
 41
0.0
 42
6.283185307179584
  0
ELLIPSE
  5
606D
330
1F
100
AcDbEntity
  8
0
 62
     0
100
AcDbEllipse
 10
884.9516577704504
 20
978.3704099848309
 30
0.0
 11
-42.88598621217144
 21
57.9460679905129
 31
0.0
210
0.0
220
0.0
230
-1.0
 40
0.1951258246945301
 41
0.0
 42
6.283185307179584
  0
ELLIPSE
  5
606E
330
1F
100
AcDbEntity
  8
0
 62
     0
100
AcDbEllipse
 10
963.5187950180629
 20
982.827793642693
 30
0.0
 11
-47.34612740028141
 21
55.54593737665461
 31
0.0
210
0.0
220
0.0
230
-1.0
 40
0.3037436373290199
 41
0.0
 42
6.283185307179584
  0
ELLIPSE
  5
606F
330
1F
100
AcDbEntity
  8
0
 62
     0
100
AcDbEllipse
 10
1052.535099557332
 20
986.5922198384849
 30
0.0
 11
-57.45222678257529
 21
59.32478059229273
 31
0.0
210
0.0
220
0.0
230
-1.0
 40
0.2954908278377448
 41
0.0
 42
6.283185307179584
  0
ELLIPSE
  5
6070
330
1F
100
AcDbEntity
  8
0
 62
     0
100
AcDbEllipse
 10
1153.389313902359
 20
1008.499289873998
 30
0.0
 11
-59.96436921548318
 21
55.6658585189896
 31
0.0
210
0.0
220
0.0
230
-0.9999999999999998
 40
0.3826752338158836
 41
0.0
 42
6.283185307179584
  0
ELLIPSE
  5
6071
330
1F
100
AcDbEntity
  8
0
 62
     0
100
AcDbEllipse
 10
1276.343978469025
 20
1045.788181574046
 30
0.0
 11
-66.00392753836216
 21
56.10391935764031
 31
0.0
210
0.0
220
0.0
230
-1.0
 40
0.4144710327891679
 41
0.0
 42
6.283185307179584
  0
ELLIPSE
  5
6072
330
1F
100
AcDbEntity
  8
0
 62
     0
100
AcDbEllipse
 10
1414.533644264608
 20
1104.771606736777
 30
0.0
 11
-71.18120854850587
 21
54.3122797947268
 31
0.0
210
0.0
220
0.0
230
-1.0
 40
0.5447945635724489
 41
0.0
 42
6.283185307179584
  0
ELLIPSE
  5
6073
330
1F
100
AcDbEntity
  8
0
 62
     0
100
AcDbEllipse
 10
1572.115786659634
 20
1186.873849359318
 30
0.0
 11
-76.13546527479801
 21
51.22054060735137
 31
0.0
210
0.0
220
0.0
230
-1.0
 40
0.6609049286427032
 41
0.0
 42
6.283185307179584
  0
ELLIPSE
  5
6074
330
1F
100
AcDbEntity
  8
0
 62
     0
100
AcDbEllipse
 10
1745.004616276049
 20
1298.639005127013
 30
0.0
 11
-77.90454509397851
 21
50.05058397792119
 31
0.0
210
0.0
220
0.0
230
-0.9999999999999998
 40
0.7880072252956542
 41
0.0
 42
6.283185307179584
  0
ELLIPSE
  5
6075
330
1F
100
AcDbEntity
  8
0
 62
     0
100
AcDbEllipse
 10
1933.111362623628
 20
1429.356954623917
 30
0.0
 11
-84.37709370120421
 21
42.77952398885065
 31
0.0
210
0.0
220
0.0
230
-1.0
 40
0.825027248145369
 41
0.0
 42
6.283185307179584
  0
ELLIPSE
  5
6076
330
1F
100
AcDbEntity
  8
0
 62
     0
100
AcDbEllipse
 10
1732.197077795937
 20
1616.691320689965
 30
0.0
 11
-74.52775698696744
 21
59.48196323398946
 31
0.0
210
0.0
220
0.0
230
-0.9999999999999998
 40
0.7814370002040993
 41
0.0
 42
6.283185307179584
  0
ELLIPSE
  5
6077
330
1F
100
AcDbEntity
  8
0
 62
     0
100
AcDbEllipse
 10
1544.061103716004
 20
1480.105353300208
 30
0.0
 11
-73.44024850819607
 21
60.17472269407005
 31
0.0
210
0.0
220
0.0
230
-1.0
 40
0.7577332530563343
 41
0.0
 42
6.283185307179584
  0
ELLIPSE
  5
6078
330
1F
100
AcDbEntity
  8
0
 62
     0
100
AcDbEllipse
 10
1381.617585869963
 20
1372.388811744896
 30
0.0
 11
-65.26397453886247
 21
65.26397453886247
 31
0.0
210
0.0
220
0.0
230
-1.0
 40
0.6802716780200933
 41
0.0
 42
6.283185307179584
  0
ELLIPSE
  5
6079
330
1F
100
AcDbEntity
  8
0
 62
     0
100
AcDbEllipse
 10
1237.865645016148
 20
1289.792987009589
 30
0.0
 11
-61.72626089962535
 21
61.72626089962535
 31
0.0
210
0.0
220
0.0
230
-1.0
 40
0.5741637720713002
 41
0.0
 42
6.283185307179584
  0
ELLIPSE
  5
607A
330
1F
100
AcDbEntity
  8
0
 62
     0
100
AcDbEllipse
 10
1112.008501912336
 20
1236.50687591216
 30
0.0
 11
-61.48594972275285
 21
61.48594972275285
 31
0.0
210
0.0
220
0.0
230
-1.0
 40
0.418623657360729
 41
0.0
 42
6.283185307179584
  0
ELLIPSE
  5
607B
330
1F
100
AcDbEntity
  8
0
 62
     0
100
AcDbEllipse
 10
1004.605569395299
 20
1195.451549226063
 30
0.0
 11
-51.58574184925399
 21
68.54969327401289
 31
0.0
210
0.0
220
0.0
230
-1.0
 40
0.3766047139849467
 41
0.0
 42
6.283185307179584
  0
ELLIPSE
  5
607C
330
1F
100
AcDbEntity
  8
0
 62
     0
100
AcDbEllipse
 10
915.6059940995433
 20
1180.155344859218
 30
0.0
 11
-43.08259250149907
 21
65.71705825232957
 31
0.0
210
0.0
220
0.0
230
-1.0
 40
0.3241712871052219
 41
0.0
 42
6.283185307179584
  0
ELLIPSE
  5
607D
330
1F
100
AcDbEntity
  8
0
 62
     0
100
AcDbEllipse
 10
839.1570546672369
 20
1179.797443888424
 30
0.0
 11
-35.73490207319814
 21
67.5012046774587
 31
0.0
210
0.0
220
0.0
230
-1.0
 40
0.2108018908727055
 41
0.0
 42
6.283185307179584
  0
ELLIPSE
  5
607E
330
1F
100
AcDbEntity
  8
0
 62
     0
100
AcDbEllipse
 10
770.8287849870962
 20
1184.114382260246
 30
0.0
 11
41.23256854995116
 21
-78.09731826049173
 31
0.0
210
0.0
220
0.0
230
-0.9999999999999998
 40
0.244560068360591
 41
3.503656402014906
 42
8.195138527442518
  0
ELLIPSE
  5
607F
330
1F
100
AcDbEntity
  8
0
 62
     0
100
AcDbEllipse
 10
727.3163564279821
 20
930.3856797623254
 30
0.0
 11
-40.48437089816676
 21
61.03195374408027
 31
0.0
210
0.0
220
0.0
230
-1.0
 40
0.2810715458434808
 41
1.439775629419719
 42
4.041824827120143
  0
ELLIPSE
  5
6080
330
1F
100
AcDbEntity
  8
0
 62
     0
100
AcDbEllipse
 10
1493.463474525041
 20
710.7636490555234
 30
0.0
 11
-65.56585604235563
 21
42.47853002729628
 31
0.0
210
0.0
220
0.0
230
-1.0
 40
0.4305391531601336
 41
5.146194802244943
 42
8.593233048848867
  0
ELLIPSE
  5
6081
330
1F
100
AcDbEntity
  8
0
 62
     0
100
AcDbEllipse
 10
1377.584720154482
 20
696.0709733147657
 30
0.0
 11
-60.1782214816755
 21
43.01481841532843
 31
0.0
210
0.0
220
0.0
230
-1.0
 40
0.3779979851668672
 41
5.341809248425247
 42
8.197440628250657
  0
ELLIPSE
  5
6082
330
1F
100
AcDbEntity
  8
0
 62
     0
100
AcDbEllipse
 10
1256.502686625142
 20
699.1711399618131
 30
0.0
 11
-56.06938364129526
 21
40.69564586484693
 31
0.0
210
0.0
220
0.0
230
-1.0
 40
0.3620484457960908
 41
5.259486283433363
 42
8.232291883150136
  0
ELLIPSE
  5
6083
330
1F
100
AcDbEntity
  8
0
 62
     0
100
AcDbEllipse
 10
1152.489444235559
 20
696.6982498044457
 30
0.0
 11
-52.9370104273957
 21
40.06955738710284
 31
0.0
210
0.0
220
0.0
230
-1.0
 40
0.3132060541742065
 41
5.250666993789478
 42
8.100370512577223
  0
ELLIPSE
  5
6084
330
1F
100
AcDbEntity
  8
0
 62
     0
100
AcDbEllipse
 10
1068.228766260803
 20
685.1156408101993
 30
0.0
 11
-46.35903744348531
 21
39.75651624201216
 31
0.0
210
0.0
220
0.0
230
-1.0
 40
0.351703405504709
 41
5.530968485444509
 42
7.813788647427747
  0
ELLIPSE
  5
6085
330
1F
100
AcDbEntity
  8
0
 62
     0
100
AcDbEllipse
 10
742.7781614096089
 20
710.3250303485944
 30
0.0
 11
-43.19262233556357
 21
43.19262233556357
 31
0.0
210
0.0
220
0.0
230
-1.0
 40
0.5254634900290626
 41
1.010185497955116
 42
2.205206665925253
  0
ELLIPSE
  5
6086
330
1F
100
AcDbEntity
  8
0
 62
     0
100
AcDbEllipse
 10
748.6068270620116
 20
1405.384884716567
 30
0.0
 11
32.56956557517706
 21
-79.36216734329625
 31
0.0
210
0.0
220
0.0
230
-0.9999999999999998
 40
0.2004963466959972
 41
3.990701529268593
 42
7.66677945586937
  0
ELLIPSE
  5
6087
330
1F
100
AcDbEntity
  8
0
 62
     0
100
AcDbEllipse
 10
806.7929013795364
 20
1405.019162667197
 30
0.0
 11
32.2036106828056
 21
-76.80210062257788
 31
0.0
210
0.0
220
0.0
230
-1.0
 40
0.2548630776677332
 41
0.0
 42
6.283185307179584
  0
ELLIPSE
  5
6088
330
1F
100
AcDbEntity
  8
0
 62
     0
100
AcDbEllipse
 10
878.5191237050995
 20
1416.722336310243
 30
0.0
 11
43.1821175053213
 21
-78.26499500762242
 31
0.0
210
0.0
220
0.0
230
-0.9999999999999998
 40
0.2538269047843527
 41
0.0
 42
6.283185307179584
  0
ELLIPSE
  5
6089
330
1F
100
AcDbEntity
  8
0
 62
     0
100
AcDbEllipse
 10
964.1514596962734
 20
1449.271796706227
 30
0.0
 11
50.50111846523938
 21
-77.16782885951001
 31
0.0
210
0.0
220
0.0
230
-1.0
 40
0.3994236624772705
 41
0.0
 42
6.283185307179584
  0
ELLIPSE
  5
608A
330
1F
100
AcDbEntity
  8
0
 62
     0
100
AcDbEllipse
 10
1077.596012253442
 20
1499.376026848124
 30
0.0
 11
58.55201844462044
 21
-76.07065033627356
 31
0.0
210
0.0
220
0.0
230
-0.9999999999999998
 40
0.4670865194507213
 41
0.0
 42
6.283185307179584
  0
ELLIPSE
  5
608B
330
1F
100
AcDbEntity
  8
0
 62
     0
100
AcDbEllipse
 10
1208.578808234543
 20
1580.096500213179
 30
0.0
 11
61.66114942128387
 21
-75.87918241261526
 31
0.0
210
0.0
220
0.0
230
-1.0
 40
0.6003268276440823
 41
0.0
 42
6.283185307179584
  0
ELLIPSE
  5
608C
330
1F
100
AcDbEntity
  8
0
 62
     0
100
AcDbEllipse
 10
1361.904585406621
 20
1684.863937738035
 30
0.0
 11
65.29580902008286
 21
-70.92990612525965
 31
0.0
210
0.0
220
0.0
230
-1.0
 40
0.6840588260764199
 41
0.0
 42
6.283185307179584
  0
ELLIPSE
  5
608D
330
1F
100
AcDbEntity
  8
0
 62
     0
100
AcDbEllipse
 10
1532.92550994317
 20
1817.770038156561
 30
0.0
 11
71.48948307630476
 21
-68.94477530586228
 31
0.0
210
0.0
220
0.0
230
-1.0
 40
0.7995240369076479
 41
0.0
 42
6.283185307179584
  0
ELLIPSE
  5
608E
330
1F
100
AcDbEntity
  8
0
 62
     0
100
AcDbEllipse
 10
1718.866292932808
 20
1968.592614642525
 30
0.0
 11
71.71742709263279
 21
-69.20001843276243
 31
0.0
210
0.0
220
0.0
230
-1.0
 40
0.9072308990429279
 41
0.0
 42
6.283185307179584
  0
ELLIPSE
  5
608F
330
1F
100
AcDbEntity
  8
0
 62
     0
100
AcDbEllipse
 10
1922.437394777128
 20
2145.704651568417
 30
0.0
 11
78.9061358815088
 21
-63.85359346779696
 31
0.0
210
0.0
220
0.0
230
-1.0
 40
0.9471721172373145
 41
0.0
 42
6.283185307179584
  0
ELLIPSE
  5
6090
330
1F
100
AcDbEntity
  8
0
 62
     0
100
AcDbEllipse
 10
1710.88173936756
 20
2353.872112504868
 30
0.0
 11
71.97022813803944
 21
-74.63269801431853
 31
0.0
210
0.0
220
0.0
230
-1.0
 40
0.9592665141672039
 41
0.0
 42
6.283185307179584
  0
ELLIPSE
  5
6091
330
1F
100
AcDbEntity
  8
0
 62
     0
100
AcDbEllipse
 10
1507.703290307336
 20
2571.120656240494
 30
0.0
 11
62.54899427150876
 21
-78.13799529416894
 31
0.0
210
0.0
220
0.0
230
-1.0
 40
0.9348015168909629
 41
0.0
 42
6.283185307179584
  0
ELLIPSE
  5
6092
330
1F
100
AcDbEntity
  8
0
 62
     0
100
AcDbEllipse
 10
1316.604183963748
 20
2797.791415452623
 30
0.0
 11
33.74219511454682
 21
-94.51483883058259
 31
0.0
210
0.0
220
0.0
230
-1.0
 40
0.8281510902799336
 41
0.0
 42
6.283185307179584
  0
ELLIPSE
  5
6093
330
1F
100
AcDbEntity
  8
0
 62
     0
100
AcDbEllipse
 10
1138.722084250197
 20
3015.757264707442
 30
0.0
 11
12.74495991363324
 21
-96.09099654107209
 31
0.0
210
0.0
220
0.0
230
-1.0
 40
0.7862973607425651
 41
0.0
 42
6.283185307179584
  0
ELLIPSE
  5
6094
330
1F
100
AcDbEntity
  8
0
 62
     0
100
AcDbEllipse
 10
986.8514821286089
 20
3224.891736421847
 30
0.0
 11
8.693242643322225
 21
-89.36110073902183
 31
0.0
210
0.0
220
0.0
230
-1.0
 40
0.7146619888316316
 41
0.0
 42
6.283185307179584
  0
ELLIPSE
  5
6095
330
1F
100
AcDbEntity
  8
0
 62
     0
100
AcDbEllipse
 10
858.0593881164796
 20
3422.460515936963
 30
0.0
 11
4.013360581437336
 21
-86.41632234064491
 31
0.0
210
0.0
220
0.0
230
-1.0
 40
0.6551736887166888
 41
0.0
 42
6.283185307179584
  0
ELLIPSE
  5
6096
330
1F
100
AcDbEntity
  8
0
 62
     0
100
AcDbEllipse
 10
1142.79729135918
 20
3407.212159988347
 30
0.0
 11
0.0
 21
-95.05107771811854
 31
0.0
210
0.0
220
0.0
230
-1.0
 40
0.7731785972808103
 41
0.0
 42
6.283185307179584
  0
ELLIPSE
  5
6097
330
1F
100
AcDbEntity
  8
0
 62
     0
100
AcDbEllipse
 10
1312.965573507593
 20
3200.63671548422
 30
0.0
 11
6.643888786876085
 21
-100.1501425103817
 31
0.0
210
0.0
220
0.0
230
-0.9999999999999998
 40
0.8550030881524248
 41
0.0
 42
6.283185307179584
  0
ELLIPSE
  5
6098
330
1F
100
AcDbEntity
  8
0
 62
     0
100
AcDbEllipse
 10
1498.318884460103
 20
2985.101736652096
 30
0.0
 11
14.16237036559719
 21
-99.98451384632879
 31
0.0
210
0.0
220
0.0
230
-1.0
 40
0.959974662447869
 41
0.0
 42
6.283185307179584
  0
ELLIPSE
  5
6099
330
1F
100
AcDbEntity
  8
0
 62
     0
100
AcDbEllipse
 10
1710.436573552712
 20
2763.713348761392
 30
0.0
 11
47.26079103410375
 21
-90.72549532195049
 31
0.0
210
0.0
220
0.0
230
-0.9999999999999998
 40
0.8982307229594017
 41
0.0
 42
6.283185307179584
  0
ELLIPSE
  5
609A
330
1F
100
AcDbEntity
  8
0
 62
     0
100
AcDbEllipse
 10
1918.941101308599
 20
2551.376943565003
 30
0.0
 11
-99.67273486469206
 21
-5.071233425398911
 31
0.0
210
0.0
220
0.0
230
-1.0
 40
0.9939370144897022
 41
0.0
 42
6.283185307179584
  0
ELLIPSE
  5
609B
330
1F
100
AcDbEntity
  8
0
 62
     0
100
AcDbEllipse
 10
1919.236252961352
 20
2967.744139762157
 30
0.0
 11
0.0
 21
-102.2298192796747
 31
0.0
210
0.0
220
0.0
230
-1.0
 40
0.9839895141870108
 41
0.0
 42
6.283185307179584
  0
ELLIPSE
  5
609C
330
1F
100
AcDbEntity
  8
0
 62
     0
100
AcDbEllipse
 10
1705.062180285141
 20
3182.795473985155
 30
0.0
 11
5.090868116072403
 21
-103.1420268195278
 31
0.0
210
0.0
220
0.0
230
-0.9999999999999998
 40
0.9097684253863695
 41
0.0
 42
6.283185307179584
  0
ELLIPSE
  5
609D
330
1F
100
AcDbEntity
  8
0
 62
     0
100
AcDbEllipse
 10
1496.02853906924
 20
3398.570592104929
 30
0.0
 11
5.48877435634484
 21
-103.7652133306173
 31
0.0
210
0.0
220
0.0
230
-0.9999999999999998
 40
0.9684076399980105
 41
0.0
 42
6.283185307179584
  0
ELLIPSE
  5
609E
330
1F
100
AcDbEntity
  8
0
 62
     0
100
AcDbEllipse
 10
1916.996751982951
 20
3394.782244793804
 30
0.0
 11
0.0
 21
-104.8657826379196
 31
0.0
210
0.0
220
0.0
230
-1.0
 40
0.947444651313479
 41
0.0
 42
6.283185307179584
  0
ELLIPSE
  5
609F
330
1F
100
AcDbEntity
  8
0
 62
     0
100
AcDbEllipse
 10
747.6872478551622
 20
3249.271758089343
 30
0.0
 11
4.013360581437336
 21
-86.41632234064491
 31
0.0
210
0.0
220
0.0
230
-1.0
 40
0.6551736887166888
 41
3.059318546647753
 42
6.506993200271656
  0
ELLIPSE
  5
60A0
330
1F
100
AcDbEntity
  8
0
 62
     0
100
AcDbEllipse
 10
752.887286664999
 20
2914.345156117217
 30
0.0
 11
4.013360581437336
 21
-86.41632234064491
 31
0.0
210
0.0
220
0.0
230
-1.0
 40
0.6551736887166888
 41
2.965810147589523
 42
6.600501599329887
  0
ELLIPSE
  5
60A1
330
1F
100
AcDbEntity
  8
0
 62
     0
100
AcDbEllipse
 10
763.1081207045476
 20
2601.901705181933
 30
0.0
 11
35.73140335754213
 21
-94.59180591636291
 31
0.0
210
0.0
220
0.0
230
-1.0
 40
0.481187682980427
 41
3.378066902041308
 42
7.377793676600674
  0
ELLIPSE
  5
60A2
330
1F
100
AcDbEntity
  8
0
 62
     0
100
AcDbEllipse
 10
785.2433750730301
 20
2283.94032822013
 30
0.0
 11
38.25802509062559
 21
-95.42038855354553
 31
0.0
210
0.0
220
0.0
230
-1.0
 40
0.4152679124103772
 41
2.914110852870212
 42
8.046363111785312
  0
ELLIPSE
  5
60A3
330
1F
100
AcDbEntity
  8
0
 62
     0
100
AcDbEllipse
 10
747.5425069940715
 20
1922.259969705846
 30
0.0
 11
32.30217757680315
 21
-84.97278883761614
 31
0.0
210
0.0
220
0.0
230
-1.0
 40
0.3228313403197935
 41
3.806209022154714
 42
7.352071412405987
  0
ELLIPSE
  5
60A4
330
1F
100
AcDbEntity
  8
0
 62
     0
100
AcDbEllipse
 10
818.8300657332792
 20
1966.416139650712
 30
0.0
 11
34.52991210532751
 21
-83.85960309105628
 31
0.0
210
0.0
220
0.0
230
-0.9999999999999998
 40
0.2782702580544408
 41
0.0
 42
6.283185307179584
  0
ELLIPSE
  5
60A5
330
1F
100
AcDbEntity
  8
0
 62
     0
100
AcDbEllipse
 10
904.9691879959604
 20
2030.60955403265
 30
0.0
 11
42.6982720432506
 21
-85.71491266865519
 31
0.0
210
0.0
220
0.0
230
-1.0
 40
0.4643558402465539
 41
0.0
 42
6.283185307179584
  0
ELLIPSE
  5
60A6
330
1F
100
AcDbEntity
  8
0
 62
     0
100
AcDbEllipse
 10
1025.638233129237
 20
2131.537930986873
 30
0.0
 11
43.06956651397706
 21
-84.23067119413985
 31
0.0
210
0.0
220
0.0
230
-0.9999999999999998
 40
0.5753939494386061
 41
0.0
 42
6.283185307179584
  0
ELLIPSE
  5
60A7
330
1F
100
AcDbEntity
  8
0
 62
     0
100
AcDbEllipse
 10
1159.746447954032
 20
2251.413749429035
 30
0.0
 11
51.84663838442619
 21
-85.12404998232042
 31
0.0
210
0.0
220
0.0
230
-0.9999999999999998
 40
0.7526282289544934
 41
0.0
 42
6.283185307179584
  0
ELLIPSE
  5
60A8
330
1F
100
AcDbEntity
  8
0
 62
     0
100
AcDbEllipse
 10
1005.589677369821
 20
2482.538711892072
 30
0.0
 11
41.9102213288217
 21
-85.31998532586255
 31
0.0
210
0.0
220
0.0
230
-0.9999999999999998
 40
0.6841394345716645
 41
0.0
 42
6.283185307179584
  0
ELLIPSE
  5
60A9
330
1F
100
AcDbEntity
  8
0
 62
     0
100
AcDbEllipse
 10
888.1375882470869
 20
2362.573644053232
 30
0.0
 11
34.14906883217917
 21
-85.31997913830117
 31
0.0
210
0.0
220
0.0
230
-0.9999999999999998
 40
0.4935221312573268
 41
0.0
 42
6.283185307179584
  0
ELLIPSE
  5
60AA
330
1F
100
AcDbEntity
  8
0
 62
     0
100
AcDbEllipse
 10
871.6974355711991
 20
2704.855073231027
 30
0.0
 11
22.22232394456987
 21
-85.96882546969119
 31
0.0
210
0.0
220
0.0
230
-1.0
 40
0.5598442547693111
 41
0.0
 42
6.283185307179584
  0
ELLIPSE
  5
60AB
330
1F
100
AcDbEntity
  8
0
 62
     0
100
AcDbEllipse
 10
1148.042813472491
 20
2626.408522774337
 30
0.0
 11
39.06828457551294
 21
-91.34187551465721
 31
0.0
210
0.0
220
0.0
230
-1.0
 40
0.7310194254182731
 41
0.0
 42
6.283185307179584
  0
ELLIPSE
  5
60AC
330
1F
100
AcDbEntity
  8
0
 62
     0
100
AcDbEllipse
 10
995.6638210528753
 20
2847.476017503561
 30
0.0
 11
27.0417024909918
 21
-89.63295128277588
 31
0.0
210
0.0
220
0.0
230
-1.0
 40
0.690152009612437
 41
0.0
 42
6.283185307179584
  0
ELLIPSE
  5
60AD
330
1F
100
AcDbEntity
  8
0
 62
     0
100
AcDbEllipse
 10
856.4083926420035
 20
3064.470623687905
 30
0.0
 11
17.47785020903075
 21
-86.14439754614654
 31
0.0
210
0.0
220
0.0
230
-1.0
 40
0.6433519553795857
 41
0.0
 42
6.283185307179584
  0
ELLIPSE
  5
60AE
330
1F
100
AcDbEntity
  8
0
 62
     0
100
AcDbEllipse
 10
1327.571462600341
 20
2404.3718516204
 30
0.0
 11
54.00378497892356
 21
-85.19621551986096
 31
0.0
210
0.0
220
0.0
230
-1.0
 40
0.7853428073352033
 41
0.0
 42
6.283185307179584
  0
ELLIPSE
  5
60AF
330
1F
100
AcDbEntity
  8
0
 62
     0
100
AcDbEllipse
 10
1340.326832538706
 20
2026.962598704578
 30
0.0
 11
60.91104631512871
 21
-78.26587364145016
 31
0.0
210
0.0
220
0.0
230
-1.0
 40
0.8140476902349892
 41
0.0
 42
6.283185307179584
  0
ELLIPSE
  5
60B0
330
1F
100
AcDbEntity
  8
0
 62
     0
100
AcDbEllipse
 10
1184.993072477209
 20
1902.007082539731
 30
0.0
 11
56.75216069294428
 21
-78.56090898063709
 31
0.0
210
0.0
220
0.0
230
-0.9999999999999998
 40
0.6517585741059463
 41
0.0
 42
6.283185307179584
  0
ELLIPSE
  5
60B1
330
1F
100
AcDbEntity
  8
0
 62
     0
100
AcDbEllipse
 10
1044.917717360947
 20
1796.752312618697
 30
0.0
 11
52.5571898557465
 21
-79.02806373659325
 31
0.0
210
0.0
220
0.0
230
-1.0
 40
0.5677403822323596
 41
0.0
 42
6.283185307179584
  0
ELLIPSE
  5
60B2
330
1F
100
AcDbEntity
  8
0
 62
     0
100
AcDbEllipse
 10
934.0019072968043
 20
1722.299784039521
 30
0.0
 11
44.34061223344098
 21
-76.50663834159972
 31
0.0
210
0.0
220
0.0
230
-0.9999999999999998
 40
0.4337608387177524
 41
0.0
 42
6.283185307179584
  0
ELLIPSE
  5
60B3
330
1F
100
AcDbEntity
  8
0
 62
     0
100
AcDbEllipse
 10
843.8047485450697
 20
1676.092808490427
 30
0.0
 11
36.00306517165607
 21
-80.2941008313334
 31
0.0
210
0.0
220
0.0
230
-1.0
 40
0.2976157912374005
 41
0.0
 42
6.283185307179584
  0
ELLIPSE
  5
60B4
330
1F
100
AcDbEntity
  8
0
 62
     0
100
AcDbEllipse
 10
766.4929074138358
 20
1666.624161547433
 30
0.0
 11
41.30877595958413
 21
-91.27772287012179
 31
0.0
210
0.0
220
0.0
230
-1.0
 40
0.2004781885708614
 41
3.642161334497195
 42
8.090198374780053
  0
ELLIPSE
  5
60B5
330
1F
100
AcDbEntity
  8
0
 62
     0
100
AcDbEllipse
 10
1942.416568313746
 20
1137.423124783124
 30
0.0
 11
-90.19409064722745
 21
13.08461495974134
 31
0.0
210
0.0
220
0.0
230
-1.0
 40
0.679559020682735
 41
0.0
 42
6.283185307179584
  0
ELLIPSE
  5
60B6
330
1F
100
AcDbEntity
  8
0
 62
     0
100
AcDbEllipse
 10
2132.587352358265
 20
785.709443902994
 30
0.0
 11
-85.68953191820062
 21
0.0
 31
0.0
210
0.0
220
0.0
230
-1.0
 40
0.5030449809720228
 41
0.0
 42
6.283185307179584
  0
ELLIPSE
  5
60B7
330
1F
100
AcDbEntity
  8
0
 62
     0
100
AcDbEllipse
 10
2132.805478440209
 20
1005.040071369595
 30
0.0
 11
-92.84837782329129
 21
0.0
 31
0.0
210
0.0
220
0.0
230
-1.0
 40
0.6791071082771328
 41
0.0
 42
6.283185307179584
  0
ELLIPSE
  5
60B8
330
1F
100
AcDbEntity
  8
0
 62
     0
100
AcDbEllipse
 10
2129.483248766892
 20
1277.232057178671
 30
0.0
 11
-92.16409363259003
 21
0.0
 31
0.0
210
0.0
220
0.0
230
-1.0
 40
0.78795292034164
 41
0.0
 42
6.283185307179584
  0
ELLIPSE
  5
60B9
330
1F
100
AcDbEntity
  8
0
 62
     0
100
AcDbEllipse
 10
2128.796693102303
 20
1592.578972560758
 30
0.0
 11
-91.47161706461295
 21
0.0
 31
0.0
210
0.0
220
0.0
230
-1.0
 40
0.8535288010029496
 41
0.0
 42
6.283185307179584
  0
ELLIPSE
  5
60BA
330
1F
100
AcDbEntity
  8
0
 62
     0
100
AcDbEllipse
 10
2132.377440184157
 20
1954.769359449243
 30
0.0
 11
-102.5843561502638
 21
0.0
 31
0.0
210
0.0
220
0.0
230
-1.0
 40
0.901531246132316
 41
0.0
 42
6.283185307179584
  0
ELLIPSE
  5
60BB
330
1F
100
AcDbEntity
  8
0
 62
     0
100
AcDbEllipse
 10
2134.083241693741
 20
2346.750098513244
 30
0.0
 11
-103.5806396552764
 21
0.0
 31
0.0
210
0.0
220
0.0
230
-1.0
 40
0.9667154570683159
 41
0.0
 42
6.283185307179584
  0
ELLIPSE
  5
60BC
330
1F
100
AcDbEntity
  8
0
 62
     0
100
AcDbEllipse
 10
2133.535235169165
 20
2761.975132610219
 30
0.0
 11
0.0
 21
108.104533785881
 31
0.0
210
0.0
220
0.0
230
-1.0
 40
0.9674682045404672
 41
0.0
 42
6.283185307179584
  0
ELLIPSE
  5
60BD
330
1F
100
AcDbEntity
  8
0
 62
     0
100
AcDbEllipse
 10
2133.492249410364
 20
3181.121286727272
 30
0.0
 11
0.0
 21
104.9130879372889
 31
0.0
210
0.0
220
0.0
230
-1.0
 40
0.9827856281975739
 41
0.0
 42
6.283185307179584
  0
ELLIPSE
  5
60BE
330
1F
100
AcDbEntity
  8
0
 62
     0
100
AcDbEllipse
 10
1515.795442835654
 20
2182.307757190944
 30
0.0
 11
-60.79037830346163
 21
82.08100072162727
 31
0.0
210
0.0
220
0.0
230
-0.9999999999999998
 40
0.8582798329265973
 41
0.0
 42
6.283185307179584
  0
ELLIPSE
  5
60BF
330
1F
100
AcDbEntity
  8
0
 62
     0
100
AcDbEllipse
 10
1927.894271611991
 20
1773.64962613345
 30
0.0
 11
-101.4564671101791
 21
15.94959236886623
 31
0.0
210
0.0
220
0.0
230
-1.0
 40
0.7875876969600179
 41
0.0
 42
6.283185307179584
  0
ELLIPSE
  5
60C0
330
1F
100
AcDbEntity
  8
0
 62
     0
100
AcDbEllipse
 10
2303.958460653543
 20
6513.68818936657
 30
0.0
 11
81.67859352452422
 21
0.0
 31
0.0
210
0.0
220
0.0
230
-1.0
 40
0.3372402171875114
 41
6.009348737011023
 42
9.698614530937939
  0
ELLIPSE
  5
60C1
330
1F
100
AcDbEntity
  8
0
 62
     0
100
AcDbEllipse
 10
2633.234971139943
 20
6471.988927105994
 30
0.0
 11
75.88211520016527
 21
-27.15090521977184
 31
0.0
210
0.0
220
0.0
230
-1.0
 40
0.4689952453060453
 41
0.0
 42
6.283185307179584
  0
ELLIPSE
  5
60C2
330
1F
100
AcDbEntity
  8
0
 62
     0
100
AcDbEllipse
 10
2471.634160880944
 20
6411.133455010006
 30
0.0
 11
81.03461453818468
 21
-25.27843134472471
 31
0.0
210
0.0
220
0.0
230
-0.9999999999999998
 40
0.4997640396812409
 41
0.0
 42
6.283185307179584
  0
ELLIPSE
  5
60C3
330
1F
100
AcDbEntity
  8
0
 62
     0
100
AcDbEllipse
 10
2304.412453997104
 20
6332.489453257045
 30
0.0
 11
87.12390844977823
 21
-16.85228343810799
 31
0.0
210
0.0
220
0.0
230
-1.0
 40
0.5310369267309467
 41
0.0
 42
6.283185307179584
  0
ELLIPSE
  5
60C4
330
1F
100
AcDbEntity
  8
0
 62
     0
100
AcDbEllipse
 10
2495.419850929361
 20
6196.688031624534
 30
0.0
 11
81.02199763126266
 21
-36.43740270772882
 31
0.0
210
0.0
220
0.0
230
-0.9999999999999998
 40
0.6086522554516111
 41
0.0
 42
6.283185307179584
  0
ELLIPSE
  5
60C5
330
1F
100
AcDbEntity
  8
0
 62
     0
100
AcDbEllipse
 10
2658.718625574862
 20
6280.985992557227
 30
0.0
 11
79.97022987858058
 21
-38.32939834140853
 31
0.0
210
0.0
220
0.0
230
-1.0
 40
0.5613751132608094
 41
0.0
 42
6.283185307179584
  0
ELLIPSE
  5
60C6
330
1F
100
AcDbEntity
  8
0
 62
     0
100
AcDbEllipse
 10
2804.87304758771
 20
6338.100192315047
 30
0.0
 11
73.8787613806398
 21
-42.04388472295962
 31
0.0
210
0.0
220
0.0
230
-1.0
 40
0.3840801736235547
 41
0.0
 42
6.283185307179584
  0
ELLIPSE
  5
60C7
330
1F
100
AcDbEntity
  8
0
 62
     0
100
AcDbEllipse
 10
2940.033234705482
 20
6377.303961253665
 30
0.0
 11
65.56585604235563
 21
-42.47853002729628
 31
0.0
210
0.0
220
0.0
230
-1.0
 40
0.4305391531601336
 41
0.0
 42
6.283185307179584
  0
ELLIPSE
  5
60C8
330
1F
100
AcDbEntity
  8
0
 62
     0
100
AcDbEllipse
 10
3055.911989076048
 20
6391.99663699442
 30
0.0
 11
60.1782214816755
 21
-43.01481841532843
 31
0.0
210
0.0
220
0.0
230
-1.0
 40
0.3779979851668672
 41
0.0
 42
6.283185307179584
  0
ELLIPSE
  5
60C9
330
1F
100
AcDbEntity
  8
0
 62
     0
100
AcDbEllipse
 10
3157.841234941546
 20
6398.375914586348
 30
0.0
 11
56.06938364129526
 21
-40.69564586484693
 31
0.0
210
0.0
220
0.0
230
-1.0
 40
0.3620484457960908
 41
0.0
 42
6.283185307179584
  0
ELLIPSE
  5
60CA
330
1F
100
AcDbEntity
  8
0
 62
     0
100
AcDbEllipse
 10
3245.547534216835
 20
6405.262863091289
 30
0.0
 11
52.9370104273957
 21
-40.06955738710284
 31
0.0
210
0.0
220
0.0
230
-1.0
 40
0.3132060541742065
 41
0.0
 42
6.283185307179584
  0
ELLIPSE
  5
60CB
330
1F
100
AcDbEntity
  8
0
 62
     0
100
AcDbEllipse
 10
3329.808212191591
 20
6416.845472085537
 30
0.0
 11
46.35903744348531
 21
-39.75651624201216
 31
0.0
210
0.0
220
0.0
230
-1.0
 40
0.351703405504709
 41
0.0
 42
6.283185307179584
  0
ELLIPSE
  5
60CC
330
1F
100
AcDbEntity
  8
0
 62
     0
100
AcDbEllipse
 10
3421.992288263891
 20
6454.948595599944
 30
0.0
 11
43.19262233556357
 21
-43.19262233556357
 31
0.0
210
0.0
220
0.0
230
-1.0
 40
0.5254634900290626
 41
0.0
 42
6.283185307179584
  0
ELLIPSE
  5
60CD
330
1F
100
AcDbEntity
  8
0
 62
     0
100
AcDbEllipse
 10
3448.67582784246
 20
6259.143557796097
 30
0.0
 11
40.48437089816676
 21
-61.03195374408027
 31
0.0
210
0.0
220
0.0
230
-1.0
 40
0.2810715458434808
 41
0.0
 42
6.283185307179584
  0
ELLIPSE
  5
60CE
330
1F
100
AcDbEntity
  8
0
 62
     0
100
AcDbEllipse
 10
3372.167237999504
 20
6245.771382072258
 30
0.0
 11
42.88598621217144
 21
-57.9460679905129
 31
0.0
210
0.0
220
0.0
230
-1.0
 40
0.1951258246945301
 41
0.0
 42
6.283185307179584
  0
ELLIPSE
  5
60CF
330
1F
100
AcDbEntity
  8
0
 62
     0
100
AcDbEllipse
 10
3293.600100751892
 20
6241.313998414401
 30
0.0
 11
47.34612740028141
 21
-55.54593737665461
 31
0.0
210
0.0
220
0.0
230
-1.0
 40
0.3037436373290199
 41
0.0
 42
6.283185307179584
  0
ELLIPSE
  5
60D0
330
1F
100
AcDbEntity
  8
0
 62
     0
100
AcDbEllipse
 10
3204.583796212647
 20
6237.549572218608
 30
0.0
 11
57.45222678257529
 21
-59.32478059229273
 31
0.0
210
0.0
220
0.0
230
-1.0
 40
0.2954908278377448
 41
0.0
 42
6.283185307179584
  0
ELLIPSE
  5
60D1
330
1F
100
AcDbEntity
  8
0
 62
     0
100
AcDbEllipse
 10
3103.729581867633
 20
6215.642502183094
 30
0.0
 11
59.96436921548318
 21
-55.6658585189896
 31
0.0
210
0.0
220
0.0
230
-0.9999999999999998
 40
0.3826752338158836
 41
0.0
 42
6.283185307179584
  0
ELLIPSE
  5
60D2
330
1F
100
AcDbEntity
  8
0
 62
     0
100
AcDbEllipse
 10
2980.77491730096
 20
6178.35361048305
 30
0.0
 11
66.00392753836216
 21
-56.10391935764031
 31
0.0
210
0.0
220
0.0
230
-1.0
 40
0.4144710327891679
 41
0.0
 42
6.283185307179584
  0
ELLIPSE
  5
60D3
330
1F
100
AcDbEntity
  8
0
 62
     0
100
AcDbEllipse
 10
2842.58525150542
 20
6119.370185320313
 30
0.0
 11
71.18120854850587
 21
-54.3122797947268
 31
0.0
210
0.0
220
0.0
230
-1.0
 40
0.5447945635724489
 41
0.0
 42
6.283185307179584
  0
ELLIPSE
  5
60D4
330
1F
100
AcDbEntity
  8
0
 62
     0
100
AcDbEllipse
 10
2685.00310911033
 20
6037.267942697774
 30
0.0
 11
76.13546527479801
 21
-51.22054060735137
 31
0.0
210
0.0
220
0.0
230
-1.0
 40
0.6609049286427032
 41
0.0
 42
6.283185307179584
  0
ELLIPSE
  5
60D5
330
1F
100
AcDbEntity
  8
0
 62
     0
100
AcDbEllipse
 10
2512.114279493915
 20
5925.50278693008
 30
0.0
 11
77.90454509397851
 21
-50.05058397792119
 31
0.0
210
0.0
220
0.0
230
-0.9999999999999998
 40
0.7880072252956542
 41
0.0
 42
6.283185307179584
  0
ELLIPSE
  5
60D6
330
1F
100
AcDbEntity
  8
0
 62
     0
100
AcDbEllipse
 10
2324.007533146313
 20
5794.784837433176
 30
0.0
 11
84.37709370120421
 21
-42.77952398885065
 31
0.0
210
0.0
220
0.0
230
-1.0
 40
0.825027248145369
 41
0.0
 42
6.283185307179584
  0
ELLIPSE
  5
60D7
330
1F
100
AcDbEntity
  8
0
 62
     0
100
AcDbEllipse
 10
2524.921817974041
 20
5607.450471367127
 30
0.0
 11
74.52775698696744
 21
-59.48196323398946
 31
0.0
210
0.0
220
0.0
230
-0.9999999999999998
 40
0.7814370002040993
 41
0.0
 42
6.283185307179584
  0
ELLIPSE
  5
60D8
330
1F
100
AcDbEntity
  8
0
 62
     0
100
AcDbEllipse
 10
2713.05779205399
 20
5744.036438756886
 30
0.0
 11
73.44024850819607
 21
-60.17472269407005
 31
0.0
210
0.0
220
0.0
230
-1.0
 40
0.7577332530563343
 41
0.0
 42
6.283185307179584
  0
ELLIPSE
  5
60D9
330
1F
100
AcDbEntity
  8
0
 62
     0
100
AcDbEllipse
 10
2875.501309900015
 20
5851.752980312198
 30
0.0
 11
65.26397453886247
 21
-65.26397453886247
 31
0.0
210
0.0
220
0.0
230
-1.0
 40
0.6802716780200933
 41
0.0
 42
6.283185307179584
  0
ELLIPSE
  5
60DA
330
1F
100
AcDbEntity
  8
0
 62
     0
100
AcDbEllipse
 10
3019.25325075383
 20
5934.348805047505
 30
0.0
 11
61.72626089962535
 21
-61.72626089962535
 31
0.0
210
0.0
220
0.0
230
-1.0
 40
0.5741637720713002
 41
0.0
 42
6.283185307179584
  0
ELLIPSE
  5
60DB
330
1F
100
AcDbEntity
  8
0
 62
     0
100
AcDbEllipse
 10
3145.110393857605
 20
5987.634916144932
 30
0.0
 11
61.48594972275285
 21
-61.48594972275285
 31
0.0
210
0.0
220
0.0
230
-1.0
 40
0.418623657360729
 41
0.0
 42
6.283185307179584
  0
ELLIPSE
  5
60DC
330
1F
100
AcDbEntity
  8
0
 62
     0
100
AcDbEllipse
 10
3252.51332637468
 20
6028.690242831032
 30
0.0
 11
51.58574184925399
 21
-68.54969327401289
 31
0.0
210
0.0
220
0.0
230
-1.0
 40
0.3766047139849467
 41
0.0
 42
6.283185307179584
  0
ELLIPSE
  5
60DD
330
1F
100
AcDbEntity
  8
0
 62
     0
100
AcDbEllipse
 10
3341.512901670428
 20
6043.986447197877
 30
0.0
 11
43.08259250149907
 21
-65.71705825232957
 31
0.0
210
0.0
220
0.0
230
-1.0
 40
0.3241712871052219
 41
0.0
 42
6.283185307179584
  0
ELLIPSE
  5
60DE
330
1F
100
AcDbEntity
  8
0
 62
     0
100
AcDbEllipse
 10
3417.961841102756
 20
6044.344348168668
 30
0.0
 11
35.73490207319814
 21
-67.5012046774587
 31
0.0
210
0.0
220
0.0
230
-1.0
 40
0.2108018908727055
 41
0.0
 42
6.283185307179584
  0
ELLIPSE
  5
60DF
330
1F
100
AcDbEntity
  8
0
 62
     0
100
AcDbEllipse
 10
3486.290110782875
 20
6040.027409796845
 30
0.0
 11
-41.23256854995116
 21
78.09731826049173
 31
0.0
210
0.0
220
0.0
230
-0.9999999999999998
 40
0.244560068360591
 41
3.503656402014906
 42
8.195138527442518
  0
ELLIPSE
  5
60E0
330
1F
100
AcDbEntity
  8
0
 62
     0
100
AcDbEllipse
 10
3529.802539341996
 20
6293.756112294768
 30
0.0
 11
40.48437089816676
 21
-61.03195374408027
 31
0.0
210
0.0
220
0.0
230
-1.0
 40
0.2810715458434808
 41
1.439775629419719
 42
4.041824827120143
  0
ELLIPSE
  5
60E1
330
1F
100
AcDbEntity
  8
0
 62
     0
100
AcDbEllipse
 10
2763.655421244922
 20
6513.37814300157
 30
0.0
 11
65.56585604235563
 21
-42.47853002729628
 31
0.0
210
0.0
220
0.0
230
-1.0
 40
0.4305391531601336
 41
5.146194802244943
 42
8.593233048848867
  0
ELLIPSE
  5
60E2
330
1F
100
AcDbEntity
  8
0
 62
     0
100
AcDbEllipse
 10
2879.534175615489
 20
6528.070818742325
 30
0.0
 11
60.1782214816755
 21
-43.01481841532843
 31
0.0
210
0.0
220
0.0
230
-1.0
 40
0.3779979851668672
 41
5.341809248425247
 42
8.197440628250657
  0
ELLIPSE
  5
60E3
330
1F
100
AcDbEntity
  8
0
 62
     0
100
AcDbEllipse
 10
3000.616209144851
 20
6524.97065209528
 30
0.0
 11
56.06938364129526
 21
-40.69564586484693
 31
0.0
210
0.0
220
0.0
230
-1.0
 40
0.3620484457960908
 41
5.259486283433363
 42
8.232291883150136
  0
ELLIPSE
  5
60E4
330
1F
100
AcDbEntity
  8
0
 62
     0
100
AcDbEllipse
 10
3104.629451534418
 20
6527.443542252648
 30
0.0
 11
52.9370104273957
 21
-40.06955738710284
 31
0.0
210
0.0
220
0.0
230
-1.0
 40
0.3132060541742065
 41
5.250666993789478
 42
8.100370512577223
  0
ELLIPSE
  5
60E5
330
1F
100
AcDbEntity
  8
0
 62
     0
100
AcDbEllipse
 10
3188.890129509168
 20
6539.026151246893
 30
0.0
 11
46.35903744348531
 21
-39.75651624201216
 31
0.0
210
0.0
220
0.0
230
-1.0
 40
0.351703405504709
 41
5.530968485444509
 42
7.813788647427747
  0
ELLIPSE
  5
60E6
330
1F
100
AcDbEntity
  8
0
 62
     0
100
AcDbEllipse
 10
3514.340734360362
 20
6513.816761708497
 30
0.0
 11
43.19262233556357
 21
-43.19262233556357
 31
0.0
210
0.0
220
0.0
230
-1.0
 40
0.5254634900290626
 41
1.010185497955116
 42
2.205206665925253
  0
ELLIPSE
  5
60E7
330
1F
100
AcDbEntity
  8
0
 62
     0
100
AcDbEllipse
 10
3508.512068707959
 20
5818.756907340526
 30
0.0
 11
-32.56956557517706
 21
79.36216734329625
 31
0.0
210
0.0
220
0.0
230
-0.9999999999999998
 40
0.2004963466959972
 41
3.990701529268593
 42
7.66677945586937
  0
ELLIPSE
  5
60E8
330
1F
100
AcDbEntity
  8
0
 62
     0
100
AcDbEllipse
 10
3450.325994390427
 20
5819.122629389899
 30
0.0
 11
-32.2036106828056
 21
76.80210062257788
 31
0.0
210
0.0
220
0.0
230
-1.0
 40
0.2548630776677332
 41
0.0
 42
6.283185307179584
  0
ELLIPSE
  5
60E9
330
1F
100
AcDbEntity
  8
0
 62
     0
100
AcDbEllipse
 10
3378.599772064922
 20
5807.419455746852
 30
0.0
 11
-43.1821175053213
 21
78.26499500762242
 31
0.0
210
0.0
220
0.0
230
-0.9999999999999998
 40
0.2538269047843527
 41
0.0
 42
6.283185307179584
  0
ELLIPSE
  5
60EA
330
1F
100
AcDbEntity
  8
0
 62
     0
100
AcDbEllipse
 10
3292.967436073712
 20
5774.869995350868
 30
0.0
 11
-50.50111846523938
 21
77.16782885951001
 31
0.0
210
0.0
220
0.0
230
-1.0
 40
0.3994236624772705
 41
0.0
 42
6.283185307179584
  0
ELLIPSE
  5
60EB
330
1F
100
AcDbEntity
  8
0
 62
     0
100
AcDbEllipse
 10
3179.522883516508
 20
5724.765765208968
 30
0.0
 11
-58.55201844462044
 21
76.07065033627356
 31
0.0
210
0.0
220
0.0
230
-0.9999999999999998
 40
0.4670865194507213
 41
0.0
 42
6.283185307179584
  0
ELLIPSE
  5
60EC
330
1F
100
AcDbEntity
  8
0
 62
     0
100
AcDbEllipse
 10
3048.540087535421
 20
5644.045291843912
 30
0.0
 11
-61.66114942128387
 21
75.87918241261526
 31
0.0
210
0.0
220
0.0
230
-1.0
 40
0.6003268276440823
 41
0.0
 42
6.283185307179584
  0
ELLIPSE
  5
60ED
330
1F
100
AcDbEntity
  8
0
 62
     0
100
AcDbEllipse
 10
2895.214310363364
 20
5539.277854319056
 30
0.0
 11
-65.29580902008286
 21
70.92990612525965
 31
0.0
210
0.0
220
0.0
230
-1.0
 40
0.6840588260764199
 41
0.0
 42
6.283185307179584
  0
ELLIPSE
  5
60EE
330
1F
100
AcDbEntity
  8
0
 62
     0
100
AcDbEllipse
 10
2724.19338582683
 20
5406.37175390053
 30
0.0
 11
-71.48948307630476
 21
68.94477530586228
 31
0.0
210
0.0
220
0.0
230
-1.0
 40
0.7995240369076479
 41
0.0
 42
6.283185307179584
  0
ELLIPSE
  5
60EF
330
1F
100
AcDbEntity
  8
0
 62
     0
100
AcDbEllipse
 10
2538.25260283719
 20
5255.549177414565
 30
0.0
 11
-71.71742709263279
 21
69.20001843276243
 31
0.0
210
0.0
220
0.0
230
-1.0
 40
0.9072308990429279
 41
0.0
 42
6.283185307179584
  0
ELLIPSE
  5
60F0
330
1F
100
AcDbEntity
  8
0
 62
     0
100
AcDbEllipse
 10
2334.681500992835
 20
5078.437140488676
 30
0.0
 11
-78.9061358815088
 21
63.85359346779696
 31
0.0
210
0.0
220
0.0
230
-1.0
 40
0.9471721172373145
 41
0.0
 42
6.283185307179584
  0
ELLIPSE
  5
60F1
330
1F
100
AcDbEntity
  8
0
 62
     0
100
AcDbEllipse
 10
2546.237156402425
 20
4870.269679552227
 30
0.0
 11
-71.97022813803944
 21
74.63269801431853
 31
0.0
210
0.0
220
0.0
230
-1.0
 40
0.9592665141672039
 41
0.0
 42
6.283185307179584
  0
ELLIPSE
  5
60F2
330
1F
100
AcDbEntity
  8
0
 62
     0
100
AcDbEllipse
 10
2749.415605462613
 20
4653.021135816601
 30
0.0
 11
-62.54899427150876
 21
78.13799529416894
 31
0.0
210
0.0
220
0.0
230
-1.0
 40
0.9348015168909629
 41
0.0
 42
6.283185307179584
  0
ELLIPSE
  5
60F3
330
1F
100
AcDbEntity
  8
0
 62
     0
100
AcDbEllipse
 10
2940.514711806193
 20
4426.350376604471
 30
0.0
 11
-33.74219511454682
 21
94.51483883058259
 31
0.0
210
0.0
220
0.0
230
-1.0
 40
0.8281510902799336
 41
0.0
 42
6.283185307179584
  0
ELLIPSE
  5
60F4
330
1F
100
AcDbEntity
  8
0
 62
     0
100
AcDbEllipse
 10
3118.396811519782
 20
4208.384527349653
 30
0.0
 11
-12.74495991363324
 21
96.09099654107209
 31
0.0
210
0.0
220
0.0
230
-1.0
 40
0.7862973607425651
 41
0.0
 42
6.283185307179584
  0
ELLIPSE
  5
60F5
330
1F
100
AcDbEntity
  8
0
 62
     0
100
AcDbEllipse
 10
3270.267413641362
 20
3999.250055635248
 30
0.0
 11
-8.693242643322225
 21
89.36110073902183
 31
0.0
210
0.0
220
0.0
230
-1.0
 40
0.7146619888316316
 41
0.0
 42
6.283185307179584
  0
ELLIPSE
  5
60F6
330
1F
100
AcDbEntity
  8
0
 62
     0
100
AcDbEllipse
 10
3399.05950765344
 20
3801.68127612013
 30
0.0
 11
-4.013360581437336
 21
86.41632234064491
 31
0.0
210
0.0
220
0.0
230
-1.0
 40
0.6551736887166888
 41
0.0
 42
6.283185307179584
  0
ELLIPSE
  5
60F7
330
1F
100
AcDbEntity
  8
0
 62
     0
100
AcDbEllipse
 10
3272.170585775055
 20
3617.203330064729
 30
0.0
 11
0.0
 21
92.61909353423014
 31
0.0
210
0.0
220
0.0
230
-1.0
 40
0.7343984306497921
 41
0.0
 42
6.283185307179584
  0
ELLIPSE
  5
60F8
330
1F
100
AcDbEntity
  8
0
 62
     0
100
AcDbEllipse
 10
3114.321604410855
 20
3816.929632068748
 30
0.0
 11
0.0
 21
95.05107771811854
 31
0.0
210
0.0
220
0.0
230
-1.0
 40
0.7731785972808103
 41
0.0
 42
6.283185307179584
  0
ELLIPSE
  5
60F9
330
1F
100
AcDbEntity
  8
0
 62
     0
100
AcDbEllipse
 10
2944.153322262378
 20
4023.505076572878
 30
0.0
 11
-6.643888786876085
 21
100.1501425103817
 31
0.0
210
0.0
220
0.0
230
-0.9999999999999998
 40
0.8550030881524248
 41
0.0
 42
6.283185307179584
  0
ELLIPSE
  5
60FA
330
1F
100
AcDbEntity
  8
0
 62
     0
100
AcDbEllipse
 10
2758.800011309882
 20
4239.040055404999
 30
0.0
 11
-14.16237036559719
 21
99.98451384632879
 31
0.0
210
0.0
220
0.0
230
-1.0
 40
0.959974662447869
 41
0.0
 42
6.283185307179584
  0
ELLIPSE
  5
60FB
330
1F
100
AcDbEntity
  8
0
 62
     0
100
AcDbEllipse
 10
2546.68232221725
 20
4460.428443295702
 30
0.0
 11
-47.26079103410375
 21
90.72549532195049
 31
0.0
210
0.0
220
0.0
230
-0.9999999999999998
 40
0.8982307229594017
 41
0.0
 42
6.283185307179584
  0
ELLIPSE
  5
60FC
330
1F
100
AcDbEntity
  8
0
 62
     0
100
AcDbEllipse
 10
2338.177794461379
 20
4672.764848492095
 30
0.0
 11
99.67273486469206
 21
5.071233425398911
 31
0.0
210
0.0
220
0.0
230
-1.0
 40
0.9939370144897022
 41
0.0
 42
6.283185307179584
  0
ELLIPSE
  5
60FD
330
1F
100
AcDbEntity
  8
0
 62
     0
100
AcDbEllipse
 10
2337.882642808619
 20
4256.397652294938
 30
0.0
 11
0.0
 21
102.2298192796747
 31
0.0
210
0.0
220
0.0
230
-1.0
 40
0.9839895141870108
 41
0.0
 42
6.283185307179584
  0
ELLIPSE
  5
60FE
330
1F
100
AcDbEntity
  8
0
 62
     0
100
AcDbEllipse
 10
2552.056715484844
 20
4041.34631807194
 30
0.0
 11
-5.090868116072403
 21
103.1420268195278
 31
0.0
210
0.0
220
0.0
230
-0.9999999999999998
 40
0.9097684253863695
 41
0.0
 42
6.283185307179584
  0
ELLIPSE
  5
60FF
330
1F
100
AcDbEntity
  8
0
 62
     0
100
AcDbEllipse
 10
2761.09035670076
 20
3825.571199952164
 30
0.0
 11
-5.48877435634484
 21
103.7652133306173
 31
0.0
210
0.0
220
0.0
230
-0.9999999999999998
 40
0.9684076399980105
 41
0.0
 42
6.283185307179584
  0
ELLIPSE
  5
6100
330
1F
100
AcDbEntity
  8
0
 62
     0
100
AcDbEllipse
 10
2340.122143786997
 20
3829.359547263289
 30
0.0
 11
0.0
 21
104.8657826379196
 31
0.0
210
0.0
220
0.0
230
-1.0
 40
0.947444651313479
 41
0.0
 42
6.283185307179584
  0
ELLIPSE
  5
6101
330
1F
100
AcDbEntity
  8
0
 62
     0
100
AcDbEllipse
 10
2951.762964223167
 20
3616.654592301618
 30
0.0
 11
0.0
 21
100.9874743604671
 31
0.0
210
0.0
220
0.0
230
-1.0
 40
0.94563854561306
 41
0.0
 42
6.283185307179584
  0
ELLIPSE
  5
6102
330
1F
100
AcDbEntity
  8
0
 62
     0
100
AcDbEllipse
 10
2555.336669907769
 20
3613.325331165386
 30
0.0
 11
0.0
 21
105.4264871462593
 31
0.0
210
0.0
220
0.0
230
-1.0
 40
0.9795519212978291
 41
0.0
 42
6.283185307179584
  0
ELLIPSE
  5
6103
330
1F
100
AcDbEntity
  8
0
 62
     0
100
AcDbEllipse
 10
3509.431647914772
 20
3974.870033967753
 30
0.0
 11
-4.013360581437336
 21
86.41632234064491
 31
0.0
210
0.0
220
0.0
230
-1.0
 40
0.6551736887166888
 41
3.059318546647753
 42
6.506993200271656
  0
ELLIPSE
  5
6104
330
1F
100
AcDbEntity
  8
0
 62
     0
100
AcDbEllipse
 10
3504.23160910495
 20
4309.796635939877
 30
0.0
 11
-4.013360581437336
 21
86.41632234064491
 31
0.0
210
0.0
220
0.0
230
-1.0
 40
0.6551736887166888
 41
2.965810147589523
 42
6.600501599329887
  0
ELLIPSE
  5
6105
330
1F
100
AcDbEntity
  8
0
 62
     0
100
AcDbEllipse
 10
3494.010775065394
 20
4622.240086875161
 30
0.0
 11
-35.73140335754213
 21
94.59180591636291
 31
0.0
210
0.0
220
0.0
230
-1.0
 40
0.481187682980427
 41
3.378066902041308
 42
7.377793676600674
  0
ELLIPSE
  5
6106
330
1F
100
AcDbEntity
  8
0
 62
     0
100
AcDbEllipse
 10
3471.875520696954
 20
4940.201463836962
 30
0.0
 11
-38.25802509062559
 21
95.42038855354553
 31
0.0
210
0.0
220
0.0
230
-1.0
 40
0.4152679124103772
 41
2.914110852870212
 42
8.046363111785312
  0
ELLIPSE
  5
6107
330
1F
100
AcDbEntity
  8
0
 62
     0
100
AcDbEllipse
 10
3509.576388775871
 20
5301.881822351248
 30
0.0
 11
-32.30217757680315
 21
84.97278883761614
 31
0.0
210
0.0
220
0.0
230
-1.0
 40
0.3228313403197935
 41
3.806209022154714
 42
7.352071412405987
  0
ELLIPSE
  5
6108
330
1F
100
AcDbEntity
  8
0
 62
     0
100
AcDbEllipse
 10
3438.288830036742
 20
5257.725652406382
 30
0.0
 11
-34.52991210532751
 21
83.85960309105628
 31
0.0
210
0.0
220
0.0
230
-0.9999999999999998
 40
0.2782702580544408
 41
0.0
 42
6.283185307179584
  0
ELLIPSE
  5
6109
330
1F
100
AcDbEntity
  8
0
 62
     0
100
AcDbEllipse
 10
3352.149707774011
 20
5193.532238024441
 30
0.0
 11
-42.6982720432506
 21
85.71491266865519
 31
0.0
210
0.0
220
0.0
230
-1.0
 40
0.4643558402465539
 41
0.0
 42
6.283185307179584
  0
ELLIPSE
  5
610A
330
1F
100
AcDbEntity
  8
0
 62
     0
100
AcDbEllipse
 10
3231.480662640733
 20
5092.60386107022
 30
0.0
 11
-43.06956651397706
 21
84.23067119413985
 31
0.0
210
0.0
220
0.0
230
-0.9999999999999998
 40
0.5753939494386061
 41
0.0
 42
6.283185307179584
  0
ELLIPSE
  5
610B
330
1F
100
AcDbEntity
  8
0
 62
     0
100
AcDbEllipse
 10
3097.372447815931
 20
4972.728042628062
 30
0.0
 11
-51.84663838442619
 21
85.12404998232042
 31
0.0
210
0.0
220
0.0
230
-0.9999999999999998
 40
0.7526282289544934
 41
0.0
 42
6.283185307179584
  0
ELLIPSE
  5
610C
330
1F
100
AcDbEntity
  8
0
 62
     0
100
AcDbEllipse
 10
3251.529218400121
 20
4741.603080165021
 30
0.0
 11
-41.9102213288217
 21
85.31998532586255
 31
0.0
210
0.0
220
0.0
230
-0.9999999999999998
 40
0.6841394345716645
 41
0.0
 42
6.283185307179584
  0
ELLIPSE
  5
610D
330
1F
100
AcDbEntity
  8
0
 62
     0
100
AcDbEllipse
 10
3368.981307522862
 20
4861.568148003863
 30
0.0
 11
-34.14906883217917
 21
85.31997913830117
 31
0.0
210
0.0
220
0.0
230
-0.9999999999999998
 40
0.4935221312573268
 41
0.0
 42
6.283185307179584
  0
ELLIPSE
  5
610E
330
1F
100
AcDbEntity
  8
0
 62
     0
100
AcDbEllipse
 10
3385.421460198793
 20
4519.286718826069
 30
0.0
 11
-22.22232394456987
 21
85.96882546969119
 31
0.0
210
0.0
220
0.0
230
-1.0
 40
0.5598442547693111
 41
0.0
 42
6.283185307179584
  0
ELLIPSE
  5
610F
330
1F
100
AcDbEntity
  8
0
 62
     0
100
AcDbEllipse
 10
3109.076082297463
 20
4597.733269282758
 30
0.0
 11
-39.06828457551294
 21
91.34187551465721
 31
0.0
210
0.0
220
0.0
230
-1.0
 40
0.7310194254182731
 41
0.0
 42
6.283185307179584
  0
ELLIPSE
  5
6110
330
1F
100
AcDbEntity
  8
0
 62
     0
100
AcDbEllipse
 10
3261.455074717118
 20
4376.665774553534
 30
0.0
 11
-27.0417024909918
 21
89.63295128277588
 31
0.0
210
0.0
220
0.0
230
-1.0
 40
0.690152009612437
 41
0.0
 42
6.283185307179584
  0
ELLIPSE
  5
6111
330
1F
100
AcDbEntity
  8
0
 62
     0
100
AcDbEllipse
 10
3400.710503127968
 20
4159.671168369191
 30
0.0
 11
-17.47785020903075
 21
86.14439754614654
 31
0.0
210
0.0
220
0.0
230
-1.0
 40
0.6433519553795857
 41
0.0
 42
6.283185307179584
  0
ELLIPSE
  5
6112
330
1F
100
AcDbEntity
  8
0
 62
     0
100
AcDbEllipse
 10
2929.547433169622
 20
4819.769940436695
 30
0.0
 11
-54.00378497892356
 21
85.19621551986096
 31
0.0
210
0.0
220
0.0
230
-1.0
 40
0.7853428073352033
 41
0.0
 42
6.283185307179584
  0
ELLIPSE
  5
6113
330
1F
100
AcDbEntity
  8
0
 62
     0
100
AcDbEllipse
 10
2916.792063231235
 20
5197.179193352515
 30
0.0
 11
-60.91104631512871
 21
78.26587364145016
 31
0.0
210
0.0
220
0.0
230
-1.0
 40
0.8140476902349892
 41
0.0
 42
6.283185307179584
  0
ELLIPSE
  5
6114
330
1F
100
AcDbEntity
  8
0
 62
     0
100
AcDbEllipse
 10
3072.125823292777
 20
5322.134709517363
 30
0.0
 11
-56.75216069294428
 21
78.56090898063709
 31
0.0
210
0.0
220
0.0
230
-0.9999999999999998
 40
0.6517585741059463
 41
0.0
 42
6.283185307179584
  0
ELLIPSE
  5
6115
330
1F
100
AcDbEntity
  8
0
 62
     0
100
AcDbEllipse
 10
3212.201178409018
 20
5427.389479438393
 30
0.0
 11
-52.5571898557465
 21
79.02806373659325
 31
0.0
210
0.0
220
0.0
230
-1.0
 40
0.5677403822323596
 41
0.0
 42
6.283185307179584
  0
ELLIPSE
  5
6116
330
1F
100
AcDbEntity
  8
0
 62
     0
100
AcDbEllipse
 10
3323.116988473167
 20
5501.842008017574
 30
0.0
 11
-44.34061223344098
 21
76.50663834159972
 31
0.0
210
0.0
220
0.0
230
-0.9999999999999998
 40
0.4337608387177524
 41
0.0
 42
6.283185307179584
  0
ELLIPSE
  5
6117
330
1F
100
AcDbEntity
  8
0
 62
     0
100
AcDbEllipse
 10
3413.314147224923
 20
5548.048983566662
 30
0.0
 11
-36.00306517165607
 21
80.2941008313334
 31
0.0
210
0.0
220
0.0
230
-1.0
 40
0.2976157912374005
 41
0.0
 42
6.283185307179584
  0
ELLIPSE
  5
6118
330
1F
100
AcDbEntity
  8
0
 62
     0
100
AcDbEllipse
 10
3490.625988356136
 20
5557.517630509661
 30
0.0
 11
-41.30877595958413
 21
91.27772287012179
 31
0.0
210
0.0
220
0.0
230
-1.0
 40
0.2004781885708614
 41
3.642161334497195
 42
8.090198374780053
  0
ELLIPSE
  5
6119
330
1F
100
AcDbEntity
  8
0
 62
     0
100
AcDbEllipse
 10
2314.702327456218
 20
6086.718667273967
 30
0.0
 11
90.19409064722745
 21
-13.08461495974134
 31
0.0
210
0.0
220
0.0
230
-1.0
 40
0.679559020682735
 41
0.0
 42
6.283185307179584
  0
ELLIPSE
  5
611A
330
1F
100
AcDbEntity
  8
0
 62
     0
100
AcDbEllipse
 10
2741.323452934345
 20
5041.834034866149
 30
0.0
 11
60.79037830346163
 21
-82.08100072162727
 31
0.0
210
0.0
220
0.0
230
-0.9999999999999998
 40
0.8582798329265973
 41
0.0
 42
6.283185307179584
  0
ELLIPSE
  5
611B
330
1F
100
AcDbEntity
  8
0
 62
     0
100
AcDbEllipse
 10
2329.224624157971
 20
5450.492165923644
 30
0.0
 11
101.4564671101791
 21
-15.94959236886623
 31
0.0
210
0.0
220
0.0
230
-1.0
 40
0.7875876969600179
 41
0.0
 42
6.283185307179584
  0
ELLIPSE
  5
611C
330
1F
100
AcDbEntity
  8
0
 62
     0
100
AcDbEllipse
 10
3485.236663646676
 20
3619.643983023214
 30
0.0
 11
0.0
 21
80.88696210024702
 31
0.0
210
0.0
220
0.0
230
-1.0
 40
0.4974821035627392
 41
2.186619680855028
 42
7.238158279914356
  0
ELLIPSE
  5
611D
330
1F
100
AcDbEntity
  8
0
 62
     0
100
AcDbEllipse
 10
2303.958460653543
 20
710.4536026905219
 30
0.0
 11
81.67859352452422
 21
0.0
 31
0.0
210
0.0
220
0.0
230
1.0
 40
0.3372402171875114
 41
6.009348737011023
 42
9.698614530937939
  0
ELLIPSE
  5
611E
330
1F
100
AcDbEntity
  8
0
 62
     0
100
AcDbEllipse
 10
2633.234971139943
 20
752.152864951098
 30
0.0
 11
75.88211520016527
 21
27.15090521977184
 31
0.0
210
0.0
220
0.0
230
1.0
 40
0.4689952453060453
 41
0.0
 42
6.283185307179584
  0
ELLIPSE
  5
611F
330
1F
100
AcDbEntity
  8
0
 62
     0
100
AcDbEllipse
 10
2471.634160880944
 20
813.0083370470842
 30
0.0
 11
81.03461453818468
 21
25.27843134472471
 31
0.0
210
0.0
220
0.0
230
0.9999999999999998
 40
0.4997640396812409
 41
0.0
 42
6.283185307179584
  0
ELLIPSE
  5
6120
330
1F
100
AcDbEntity
  8
0
 62
     0
100
AcDbEllipse
 10
2304.412453997104
 20
891.6523388000483
 30
0.0
 11
87.12390844977823
 21
16.85228343810799
 31
0.0
210
0.0
220
0.0
230
1.0
 40
0.5310369267309467
 41
0.0
 42
6.283185307179584
  0
ELLIPSE
  5
6121
330
1F
100
AcDbEntity
  8
0
 62
     0
100
AcDbEllipse
 10
2495.419850929361
 20
1027.453760432557
 30
0.0
 11
81.02199763126266
 21
36.43740270772882
 31
0.0
210
0.0
220
0.0
230
0.9999999999999998
 40
0.6086522554516111
 41
0.0
 42
6.283185307179584
  0
ELLIPSE
  5
6122
330
1F
100
AcDbEntity
  8
0
 62
     0
100
AcDbEllipse
 10
2658.718625574862
 20
943.1557994998668
 30
0.0
 11
79.97022987858058
 21
38.32939834140853
 31
0.0
210
0.0
220
0.0
230
1.0
 40
0.5613751132608094
 41
0.0
 42
6.283185307179584
  0
ELLIPSE
  5
6123
330
1F
100
AcDbEntity
  8
0
 62
     0
100
AcDbEllipse
 10
2804.87304758771
 20
886.0415997420453
 30
0.0
 11
73.8787613806398
 21
42.04388472295962
 31
0.0
210
0.0
220
0.0
230
1.0
 40
0.3840801736235547
 41
0.0
 42
6.283185307179584
  0
ELLIPSE
  5
6124
330
1F
100
AcDbEntity
  8
0
 62
     0
100
AcDbEllipse
 10
2940.033234705482
 20
846.8378308034274
 30
0.0
 11
65.56585604235563
 21
42.47853002729628
 31
0.0
210
0.0
220
0.0
230
1.0
 40
0.4305391531601336
 41
0.0
 42
6.283185307179584
  0
ELLIPSE
  5
6125
330
1F
100
AcDbEntity
  8
0
 62
     0
100
AcDbEllipse
 10
3055.911989076048
 20
832.1451550626704
 30
0.0
 11
60.1782214816755
 21
43.01481841532843
 31
0.0
210
0.0
220
0.0
230
1.0
 40
0.3779979851668672
 41
0.0
 42
6.283185307179584
  0
ELLIPSE
  5
6126
330
1F
100
AcDbEntity
  8
0
 62
     0
100
AcDbEllipse
 10
3157.841234941546
 20
825.7658774707433
 30
0.0
 11
56.06938364129526
 21
40.69564586484693
 31
0.0
210
0.0
220
0.0
230
1.0
 40
0.3620484457960908
 41
0.0
 42
6.283185307179584
  0
ELLIPSE
  5
6127
330
1F
100
AcDbEntity
  8
0
 62
     0
100
AcDbEllipse
 10
3245.547534216835
 20
818.8789289658011
 30
0.0
 11
52.9370104273957
 21
40.06955738710284
 31
0.0
210
0.0
220
0.0
230
1.0
 40
0.3132060541742065
 41
0.0
 42
6.283185307179584
  0
ELLIPSE
  5
6128
330
1F
100
AcDbEntity
  8
0
 62
     0
100
AcDbEllipse
 10
3329.808212191591
 20
807.2963199715529
 30
0.0
 11
46.35903744348531
 21
39.75651624201216
 31
0.0
210
0.0
220
0.0
230
1.0
 40
0.351703405504709
 41
0.0
 42
6.283185307179584
  0
ELLIPSE
  5
6129
330
1F
100
AcDbEntity
  8
0
 62
     0
100
AcDbEllipse
 10
3421.992288263891
 20
769.193196457147
 30
0.0
 11
43.19262233556357
 21
43.19262233556357
 31
0.0
210
0.0
220
0.0
230
1.0
 40
0.5254634900290626
 41
0.0
 42
6.283185307179584
  0
ELLIPSE
  5
612A
330
1F
100
AcDbEntity
  8
0
 62
     0
100
AcDbEllipse
 10
3448.67582784246
 20
964.9982342609943
 30
0.0
 11
40.48437089816676
 21
61.03195374408027
 31
0.0
210
0.0
220
0.0
230
1.0
 40
0.2810715458434808
 41
0.0
 42
6.283185307179584
  0
ELLIPSE
  5
612B
330
1F
100
AcDbEntity
  8
0
 62
     0
100
AcDbEllipse
 10
3372.167237999504
 20
978.3704099848309
 30
0.0
 11
42.88598621217144
 21
57.9460679905129
 31
0.0
210
0.0
220
0.0
230
1.0
 40
0.1951258246945301
 41
0.0
 42
6.283185307179584
  0
ELLIPSE
  5
612C
330
1F
100
AcDbEntity
  8
0
 62
     0
100
AcDbEllipse
 10
3293.600100751892
 20
982.827793642693
 30
0.0
 11
47.34612740028141
 21
55.54593737665461
 31
0.0
210
0.0
220
0.0
230
1.0
 40
0.3037436373290199
 41
0.0
 42
6.283185307179584
  0
ELLIPSE
  5
612D
330
1F
100
AcDbEntity
  8
0
 62
     0
100
AcDbEllipse
 10
3204.583796212647
 20
986.5922198384849
 30
0.0
 11
57.45222678257529
 21
59.32478059229273
 31
0.0
210
0.0
220
0.0
230
1.0
 40
0.2954908278377448
 41
0.0
 42
6.283185307179584
  0
ELLIPSE
  5
612E
330
1F
100
AcDbEntity
  8
0
 62
     0
100
AcDbEllipse
 10
3103.729581867633
 20
1008.499289873998
 30
0.0
 11
59.96436921548318
 21
55.6658585189896
 31
0.0
210
0.0
220
0.0
230
0.9999999999999998
 40
0.3826752338158836
 41
0.0
 42
6.283185307179584
  0
ELLIPSE
  5
612F
330
1F
100
AcDbEntity
  8
0
 62
     0
100
AcDbEllipse
 10
2980.77491730096
 20
1045.788181574046
 30
0.0
 11
66.00392753836216
 21
56.10391935764031
 31
0.0
210
0.0
220
0.0
230
1.0
 40
0.4144710327891679
 41
0.0
 42
6.283185307179584
  0
ELLIPSE
  5
6130
330
1F
100
AcDbEntity
  8
0
 62
     0
100
AcDbEllipse
 10
2842.58525150542
 20
1104.771606736777
 30
0.0
 11
71.18120854850587
 21
54.3122797947268
 31
0.0
210
0.0
220
0.0
230
1.0
 40
0.5447945635724489
 41
0.0
 42
6.283185307179584
  0
ELLIPSE
  5
6131
330
1F
100
AcDbEntity
  8
0
 62
     0
100
AcDbEllipse
 10
2685.00310911033
 20
1186.873849359318
 30
0.0
 11
76.13546527479801
 21
51.22054060735137
 31
0.0
210
0.0
220
0.0
230
1.0
 40
0.6609049286427028
 41
0.0
 42
6.283185307179584
  0
ELLIPSE
  5
6132
330
1F
100
AcDbEntity
  8
0
 62
     0
100
AcDbEllipse
 10
2512.114279493915
 20
1298.639005127013
 30
0.0
 11
77.90454509397851
 21
50.05058397792119
 31
0.0
210
0.0
220
0.0
230
0.9999999999999998
 40
0.7880072252956542
 41
0.0
 42
6.283185307179584
  0
ELLIPSE
  5
6133
330
1F
100
AcDbEntity
  8
0
 62
     0
100
AcDbEllipse
 10
2324.007533146313
 20
1429.356954623917
 30
0.0
 11
84.37709370120421
 21
42.77952398885065
 31
0.0
210
0.0
220
0.0
230
1.0
 40
0.825027248145369
 41
0.0
 42
6.283185307179584
  0
ELLIPSE
  5
6134
330
1F
100
AcDbEntity
  8
0
 62
     0
100
AcDbEllipse
 10
2524.921817974041
 20
1616.691320689965
 30
0.0
 11
74.52775698696744
 21
59.48196323398946
 31
0.0
210
0.0
220
0.0
230
0.9999999999999998
 40
0.7814370002040993
 41
0.0
 42
6.283185307179584
  0
ELLIPSE
  5
6135
330
1F
100
AcDbEntity
  8
0
 62
     0
100
AcDbEllipse
 10
2713.05779205399
 20
1480.105353300208
 30
0.0
 11
73.44024850819607
 21
60.17472269407005
 31
0.0
210
0.0
220
0.0
230
1.0
 40
0.7577332530563343
 41
0.0
 42
6.283185307179584
  0
ELLIPSE
  5
6136
330
1F
100
AcDbEntity
  8
0
 62
     0
100
AcDbEllipse
 10
2875.501309900015
 20
1372.388811744896
 30
0.0
 11
65.26397453886247
 21
65.26397453886247
 31
0.0
210
0.0
220
0.0
230
1.0
 40
0.680271678020093
 41
0.0
 42
6.283185307179584
  0
ELLIPSE
  5
6137
330
1F
100
AcDbEntity
  8
0
 62
     0
100
AcDbEllipse
 10
3019.25325075383
 20
1289.792987009589
 30
0.0
 11
61.72626089962535
 21
61.72626089962535
 31
0.0
210
0.0
220
0.0
230
1.0
 40
0.5741637720713002
 41
0.0
 42
6.283185307179584
  0
ELLIPSE
  5
6138
330
1F
100
AcDbEntity
  8
0
 62
     0
100
AcDbEllipse
 10
3145.110393857605
 20
1236.50687591216
 30
0.0
 11
61.48594972275285
 21
61.48594972275285
 31
0.0
210
0.0
220
0.0
230
1.0
 40
0.418623657360729
 41
0.0
 42
6.283185307179584
  0
ELLIPSE
  5
6139
330
1F
100
AcDbEntity
  8
0
 62
     0
100
AcDbEllipse
 10
3252.51332637468
 20
1195.451549226063
 30
0.0
 11
51.58574184925399
 21
68.54969327401289
 31
0.0
210
0.0
220
0.0
230
1.0
 40
0.3766047139849467
 41
0.0
 42
6.283185307179584
  0
ELLIPSE
  5
613A
330
1F
100
AcDbEntity
  8
0
 62
     0
100
AcDbEllipse
 10
3341.512901670428
 20
1180.155344859218
 30
0.0
 11
43.08259250149907
 21
65.71705825232957
 31
0.0
210
0.0
220
0.0
230
1.0
 40
0.3241712871052219
 41
0.0
 42
6.283185307179584
  0
ELLIPSE
  5
613B
330
1F
100
AcDbEntity
  8
0
 62
     0
100
AcDbEllipse
 10
3417.961841102756
 20
1179.797443888424
 30
0.0
 11
35.73490207319814
 21
67.5012046774587
 31
0.0
210
0.0
220
0.0
230
1.0
 40
0.2108018908727055
 41
0.0
 42
6.283185307179584
  0
ELLIPSE
  5
613C
330
1F
100
AcDbEntity
  8
0
 62
     0
100
AcDbEllipse
 10
3486.290110782875
 20
1184.114382260246
 30
0.0
 11
-41.23256854995116
 21
-78.09731826049173
 31
0.0
210
0.0
220
0.0
230
0.9999999999999998
 40
0.244560068360591
 41
3.503656402014906
 42
8.195138527442518
  0
ELLIPSE
  5
613D
330
1F
100
AcDbEntity
  8
0
 62
     0
100
AcDbEllipse
 10
3529.802539341996
 20
930.3856797623254
 30
0.0
 11
40.48437089816676
 21
61.03195374408027
 31
0.0
210
0.0
220
0.0
230
1.0
 40
0.2810715458434808
 41
1.439775629419719
 42
4.041824827120143
  0
ELLIPSE
  5
613E
330
1F
100
AcDbEntity
  8
0
 62
     0
100
AcDbEllipse
 10
2763.655421244922
 20
710.7636490555234
 30
0.0
 11
65.56585604235563
 21
42.47853002729628
 31
0.0
210
0.0
220
0.0
230
1.0
 40
0.4305391531601336
 41
5.146194802244943
 42
8.593233048848867
  0
ELLIPSE
  5
613F
330
1F
100
AcDbEntity
  8
0
 62
     0
100
AcDbEllipse
 10
2879.534175615489
 20
696.0709733147657
 30
0.0
 11
60.1782214816755
 21
43.01481841532843
 31
0.0
210
0.0
220
0.0
230
1.0
 40
0.3779979851668672
 41
5.341809248425247
 42
8.197440628250657
  0
ELLIPSE
  5
6140
330
1F
100
AcDbEntity
  8
0
 62
     0
100
AcDbEllipse
 10
3000.616209144851
 20
699.1711399618131
 30
0.0
 11
56.06938364129526
 21
40.69564586484693
 31
0.0
210
0.0
220
0.0
230
1.0
 40
0.3620484457960908
 41
5.259486283433363
 42
8.232291883150136
  0
ELLIPSE
  5
6141
330
1F
100
AcDbEntity
  8
0
 62
     0
100
AcDbEllipse
 10
3104.629451534418
 20
696.6982498044457
 30
0.0
 11
52.9370104273957
 21
40.06955738710284
 31
0.0
210
0.0
220
0.0
230
1.0
 40
0.3132060541742065
 41
5.250666993789478
 42
8.100370512577223
  0
ELLIPSE
  5
6142
330
1F
100
AcDbEntity
  8
0
 62
     0
100
AcDbEllipse
 10
3188.890129509168
 20
685.1156408101993
 30
0.0
 11
46.35903744348531
 21
39.75651624201216
 31
0.0
210
0.0
220
0.0
230
1.0
 40
0.351703405504709
 41
5.530968485444509
 42
7.813788647427747
  0
ELLIPSE
  5
6143
330
1F
100
AcDbEntity
  8
0
 62
     0
100
AcDbEllipse
 10
3514.340734360362
 20
710.3250303485944
 30
0.0
 11
43.19262233556357
 21
43.19262233556357
 31
0.0
210
0.0
220
0.0
230
1.0
 40
0.5254634900290626
 41
1.010185497955116
 42
2.205206665925253
  0
ELLIPSE
  5
6144
330
1F
100
AcDbEntity
  8
0
 62
     0
100
AcDbEllipse
 10
3508.512068707959
 20
1405.384884716567
 30
0.0
 11
-32.56956557517706
 21
-79.36216734329625
 31
0.0
210
0.0
220
0.0
230
0.9999999999999998
 40
0.2004963466959972
 41
3.990701529268593
 42
7.66677945586937
  0
ELLIPSE
  5
6145
330
1F
100
AcDbEntity
  8
0
 62
     0
100
AcDbEllipse
 10
3450.325994390427
 20
1405.019162667197
 30
0.0
 11
-32.2036106828056
 21
-76.80210062257788
 31
0.0
210
0.0
220
0.0
230
1.0
 40
0.2548630776677332
 41
0.0
 42
6.283185307179584
  0
ELLIPSE
  5
6146
330
1F
100
AcDbEntity
  8
0
 62
     0
100
AcDbEllipse
 10
3378.599772064922
 20
1416.722336310243
 30
0.0
 11
-43.1821175053213
 21
-78.26499500762242
 31
0.0
210
0.0
220
0.0
230
0.9999999999999998
 40
0.2538269047843527
 41
0.0
 42
6.283185307179584
  0
ELLIPSE
  5
6147
330
1F
100
AcDbEntity
  8
0
 62
     0
100
AcDbEllipse
 10
3292.967436073712
 20
1449.271796706227
 30
0.0
 11
-50.50111846523938
 21
-77.16782885951001
 31
0.0
210
0.0
220
0.0
230
1.0
 40
0.3994236624772705
 41
0.0
 42
6.283185307179584
  0
ELLIPSE
  5
6148
330
1F
100
AcDbEntity
  8
0
 62
     0
100
AcDbEllipse
 10
3179.522883516508
 20
1499.376026848124
 30
0.0
 11
-58.55201844462044
 21
-76.07065033627356
 31
0.0
210
0.0
220
0.0
230
0.9999999999999998
 40
0.4670865194507213
 41
0.0
 42
6.283185307179584
  0
ELLIPSE
  5
6149
330
1F
100
AcDbEntity
  8
0
 62
     0
100
AcDbEllipse
 10
3048.540087535421
 20
1580.096500213179
 30
0.0
 11
-61.66114942128387
 21
-75.87918241261526
 31
0.0
210
0.0
220
0.0
230
1.0
 40
0.6003268276440823
 41
0.0
 42
6.283185307179584
  0
ELLIPSE
  5
614A
330
1F
100
AcDbEntity
  8
0
 62
     0
100
AcDbEllipse
 10
2895.214310363364
 20
1684.863937738035
 30
0.0
 11
-65.29580902008286
 21
-70.92990612525965
 31
0.0
210
0.0
220
0.0
230
1.0
 40
0.6840588260764199
 41
0.0
 42
6.283185307179584
  0
ELLIPSE
  5
614B
330
1F
100
AcDbEntity
  8
0
 62
     0
100
AcDbEllipse
 10
2724.19338582683
 20
1817.770038156561
 30
0.0
 11
-71.48948307630476
 21
-68.94477530586228
 31
0.0
210
0.0
220
0.0
230
1.0
 40
0.7995240369076479
 41
0.0
 42
6.283185307179584
  0
ELLIPSE
  5
614C
330
1F
100
AcDbEntity
  8
0
 62
     0
100
AcDbEllipse
 10
2538.25260283719
 20
1968.592614642525
 30
0.0
 11
-71.71742709263279
 21
-69.20001843276243
 31
0.0
210
0.0
220
0.0
230
1.0
 40
0.9072308990429279
 41
0.0
 42
6.283185307179584
  0
ELLIPSE
  5
614D
330
1F
100
AcDbEntity
  8
0
 62
     0
100
AcDbEllipse
 10
2334.681500992835
 20
2145.704651568417
 30
0.0
 11
-78.9061358815088
 21
-63.85359346779696
 31
0.0
210
0.0
220
0.0
230
1.0
 40
0.9471721172373145
 41
0.0
 42
6.283185307179584
  0
ELLIPSE
  5
614E
330
1F
100
AcDbEntity
  8
0
 62
     0
100
AcDbEllipse
 10
2546.237156402425
 20
2353.872112504868
 30
0.0
 11
-71.97022813803944
 21
-74.63269801431853
 31
0.0
210
0.0
220
0.0
230
1.0
 40
0.9592665141672039
 41
0.0
 42
6.283185307179584
  0
ELLIPSE
  5
614F
330
1F
100
AcDbEntity
  8
0
 62
     0
100
AcDbEllipse
 10
2749.415605462613
 20
2571.120656240494
 30
0.0
 11
-62.54899427150876
 21
-78.13799529416894
 31
0.0
210
0.0
220
0.0
230
1.0
 40
0.9348015168909629
 41
0.0
 42
6.283185307179584
  0
ELLIPSE
  5
6150
330
1F
100
AcDbEntity
  8
0
 62
     0
100
AcDbEllipse
 10
2940.514711806193
 20
2797.791415452623
 30
0.0
 11
-33.74219511454682
 21
-94.51483883058259
 31
0.0
210
0.0
220
0.0
230
1.0
 40
0.8281510902799336
 41
0.0
 42
6.283185307179584
  0
ELLIPSE
  5
6151
330
1F
100
AcDbEntity
  8
0
 62
     0
100
AcDbEllipse
 10
3118.396811519782
 20
3015.757264707442
 30
0.0
 11
-12.74495991363324
 21
-96.09099654107209
 31
0.0
210
0.0
220
0.0
230
1.0
 40
0.7862973607425651
 41
0.0
 42
6.283185307179584
  0
ELLIPSE
  5
6152
330
1F
100
AcDbEntity
  8
0
 62
     0
100
AcDbEllipse
 10
3270.267413641362
 20
3224.891736421847
 30
0.0
 11
-8.693242643322225
 21
-89.36110073902183
 31
0.0
210
0.0
220
0.0
230
1.0
 40
0.7146619888316316
 41
0.0
 42
6.283185307179584
  0
ELLIPSE
  5
6153
330
1F
100
AcDbEntity
  8
0
 62
     0
100
AcDbEllipse
 10
3399.05950765344
 20
3422.460515936963
 30
0.0
 11
-4.013360581437336
 21
-86.41632234064491
 31
0.0
210
0.0
220
0.0
230
1.0
 40
0.6551736887166888
 41
0.0
 42
6.283185307179584
  0
ELLIPSE
  5
6154
330
1F
100
AcDbEntity
  8
0
 62
     0
100
AcDbEllipse
 10
3114.321604410855
 20
3407.212159988347
 30
0.0
 11
0.0
 21
-95.05107771811854
 31
0.0
210
0.0
220
0.0
230
1.0
 40
0.7731785972808103
 41
0.0
 42
6.283185307179584
  0
ELLIPSE
  5
6155
330
1F
100
AcDbEntity
  8
0
 62
     0
100
AcDbEllipse
 10
2944.153322262378
 20
3200.63671548422
 30
0.0
 11
-6.643888786876085
 21
-100.1501425103817
 31
0.0
210
0.0
220
0.0
230
0.9999999999999998
 40
0.8550030881524248
 41
0.0
 42
6.283185307179584
  0
ELLIPSE
  5
6156
330
1F
100
AcDbEntity
  8
0
 62
     0
100
AcDbEllipse
 10
2758.800011309882
 20
2985.101736652096
 30
0.0
 11
-14.16237036559719
 21
-99.98451384632879
 31
0.0
210
0.0
220
0.0
230
1.0
 40
0.959974662447869
 41
0.0
 42
6.283185307179584
  0
ELLIPSE
  5
6157
330
1F
100
AcDbEntity
  8
0
 62
     0
100
AcDbEllipse
 10
2546.68232221725
 20
2763.713348761392
 30
0.0
 11
-47.26079103410375
 21
-90.72549532195049
 31
0.0
210
0.0
220
0.0
230
0.9999999999999998
 40
0.8982307229594017
 41
0.0
 42
6.283185307179584
  0
ELLIPSE
  5
6158
330
1F
100
AcDbEntity
  8
0
 62
     0
100
AcDbEllipse
 10
2338.177794461379
 20
2551.376943565003
 30
0.0
 11
99.67273486469206
 21
-5.071233425398911
 31
0.0
210
0.0
220
0.0
230
1.0
 40
0.9939370144897022
 41
0.0
 42
6.283185307179584
  0
ELLIPSE
  5
6159
330
1F
100
AcDbEntity
  8
0
 62
     0
100
AcDbEllipse
 10
2337.882642808619
 20
2967.744139762157
 30
0.0
 11
0.0
 21
-102.2298192796747
 31
0.0
210
0.0
220
0.0
230
1.0
 40
0.9839895141870108
 41
0.0
 42
6.283185307179584
  0
ELLIPSE
  5
615A
330
1F
100
AcDbEntity
  8
0
 62
     0
100
AcDbEllipse
 10
2552.056715484844
 20
3182.795473985155
 30
0.0
 11
-5.090868116072403
 21
-103.1420268195278
 31
0.0
210
0.0
220
0.0
230
0.9999999999999998
 40
0.9097684253863695
 41
0.0
 42
6.283185307179584
  0
ELLIPSE
  5
615B
330
1F
100
AcDbEntity
  8
0
 62
     0
100
AcDbEllipse
 10
2761.09035670076
 20
3398.570592104929
 30
0.0
 11
-5.48877435634484
 21
-103.7652133306173
 31
0.0
210
0.0
220
0.0
230
0.9999999999999998
 40
0.9684076399980105
 41
0.0
 42
6.283185307179584
  0
ELLIPSE
  5
615C
330
1F
100
AcDbEntity
  8
0
 62
     0
100
AcDbEllipse
 10
2340.122143786997
 20
3394.782244793804
 30
0.0
 11
0.0
 21
-104.8657826379196
 31
0.0
210
0.0
220
0.0
230
1.0
 40
0.947444651313479
 41
0.0
 42
6.283185307179584
  0
ELLIPSE
  5
615D
330
1F
100
AcDbEntity
  8
0
 62
     0
100
AcDbEllipse
 10
3509.431647914772
 20
3249.271758089343
 30
0.0
 11
-4.013360581437336
 21
-86.41632234064491
 31
0.0
210
0.0
220
0.0
230
1.0
 40
0.6551736887166888
 41
3.059318546647753
 42
6.506993200271656
  0
ELLIPSE
  5
615E
330
1F
100
AcDbEntity
  8
0
 62
     0
100
AcDbEllipse
 10
3504.23160910495
 20
2914.345156117217
 30
0.0
 11
-4.013360581437336
 21
-86.41632234064491
 31
0.0
210
0.0
220
0.0
230
1.0
 40
0.6551736887166888
 41
2.965810147589523
 42
6.600501599329887
  0
ELLIPSE
  5
615F
330
1F
100
AcDbEntity
  8
0
 62
     0
100
AcDbEllipse
 10
3494.010775065394
 20
2601.901705181933
 30
0.0
 11
-35.73140335754213
 21
-94.59180591636291
 31
0.0
210
0.0
220
0.0
230
1.0
 40
0.481187682980427
 41
3.378066902041308
 42
7.377793676600674
  0
ELLIPSE
  5
6160
330
1F
100
AcDbEntity
  8
0
 62
     0
100
AcDbEllipse
 10
3471.875520696954
 20
2283.94032822013
 30
0.0
 11
-38.25802509062559
 21
-95.42038855354553
 31
0.0
210
0.0
220
0.0
230
1.0
 40
0.4152679124103772
 41
2.914110852870212
 42
8.046363111785312
  0
ELLIPSE
  5
6161
330
1F
100
AcDbEntity
  8
0
 62
     0
100
AcDbEllipse
 10
3509.576388775871
 20
1922.259969705846
 30
0.0
 11
-32.30217757680315
 21
-84.97278883761614
 31
0.0
210
0.0
220
0.0
230
1.0
 40
0.3228313403197935
 41
3.806209022154714
 42
7.352071412405987
  0
ELLIPSE
  5
6162
330
1F
100
AcDbEntity
  8
0
 62
     0
100
AcDbEllipse
 10
3438.288830036742
 20
1966.416139650712
 30
0.0
 11
-34.52991210532751
 21
-83.85960309105628
 31
0.0
210
0.0
220
0.0
230
0.9999999999999998
 40
0.2782702580544408
 41
0.0
 42
6.283185307179584
  0
ELLIPSE
  5
6163
330
1F
100
AcDbEntity
  8
0
 62
     0
100
AcDbEllipse
 10
3352.149707774011
 20
2030.60955403265
 30
0.0
 11
-42.6982720432506
 21
-85.71491266865519
 31
0.0
210
0.0
220
0.0
230
1.0
 40
0.4643558402465539
 41
0.0
 42
6.283185307179584
  0
ELLIPSE
  5
6164
330
1F
100
AcDbEntity
  8
0
 62
     0
100
AcDbEllipse
 10
3231.480662640733
 20
2131.537930986873
 30
0.0
 11
-43.06956651397706
 21
-84.23067119413985
 31
0.0
210
0.0
220
0.0
230
0.9999999999999998
 40
0.5753939494386057
 41
0.0
 42
6.283185307179584
  0
ELLIPSE
  5
6165
330
1F
100
AcDbEntity
  8
0
 62
     0
100
AcDbEllipse
 10
3097.372447815931
 20
2251.413749429035
 30
0.0
 11
-51.84663838442619
 21
-85.12404998232042
 31
0.0
210
0.0
220
0.0
230
0.9999999999999998
 40
0.7526282289544934
 41
0.0
 42
6.283185307179584
  0
ELLIPSE
  5
6166
330
1F
100
AcDbEntity
  8
0
 62
     0
100
AcDbEllipse
 10
3251.529218400121
 20
2482.538711892072
 30
0.0
 11
-41.9102213288217
 21
-85.31998532586255
 31
0.0
210
0.0
220
0.0
230
0.9999999999999998
 40
0.6841394345716645
 41
0.0
 42
6.283185307179584
  0
ELLIPSE
  5
6167
330
1F
100
AcDbEntity
  8
0
 62
     0
100
AcDbEllipse
 10
3368.981307522862
 20
2362.573644053232
 30
0.0
 11
-34.14906883217917
 21
-85.31997913830117
 31
0.0
210
0.0
220
0.0
230
0.9999999999999998
 40
0.4935221312573268
 41
0.0
 42
6.283185307179584
  0
ELLIPSE
  5
6168
330
1F
100
AcDbEntity
  8
0
 62
     0
100
AcDbEllipse
 10
3385.421460198793
 20
2704.855073231027
 30
0.0
 11
-22.22232394456987
 21
-85.96882546969119
 31
0.0
210
0.0
220
0.0
230
1.0
 40
0.5598442547693111
 41
0.0
 42
6.283185307179584
  0
ELLIPSE
  5
6169
330
1F
100
AcDbEntity
  8
0
 62
     0
100
AcDbEllipse
 10
3109.076082297463
 20
2626.408522774337
 30
0.0
 11
-39.06828457551294
 21
-91.34187551465721
 31
0.0
210
0.0
220
0.0
230
1.0
 40
0.7310194254182731
 41
0.0
 42
6.283185307179584
  0
ELLIPSE
  5
616A
330
1F
100
AcDbEntity
  8
0
 62
     0
100
AcDbEllipse
 10
3261.455074717118
 20
2847.476017503561
 30
0.0
 11
-27.0417024909918
 21
-89.63295128277588
 31
0.0
210
0.0
220
0.0
230
1.0
 40
0.690152009612437
 41
0.0
 42
6.283185307179584
  0
ELLIPSE
  5
616B
330
1F
100
AcDbEntity
  8
0
 62
     0
100
AcDbEllipse
 10
3400.710503127968
 20
3064.470623687905
 30
0.0
 11
-17.47785020903075
 21
-86.14439754614654
 31
0.0
210
0.0
220
0.0
230
1.0
 40
0.6433519553795857
 41
0.0
 42
6.283185307179584
  0
ELLIPSE
  5
616C
330
1F
100
AcDbEntity
  8
0
 62
     0
100
AcDbEllipse
 10
2929.547433169622
 20
2404.3718516204
 30
0.0
 11
-54.00378497892356
 21
-85.19621551986096
 31
0.0
210
0.0
220
0.0
230
1.0
 40
0.7853428073352033
 41
0.0
 42
6.283185307179584
  0
ELLIPSE
  5
616D
330
1F
100
AcDbEntity
  8
0
 62
     0
100
AcDbEllipse
 10
2916.792063231235
 20
2026.962598704578
 30
0.0
 11
-60.91104631512871
 21
-78.26587364145016
 31
0.0
210
0.0
220
0.0
230
1.0
 40
0.8140476902349892
 41
0.0
 42
6.283185307179584
  0
ELLIPSE
  5
616E
330
1F
100
AcDbEntity
  8
0
 62
     0
100
AcDbEllipse
 10
3072.125823292777
 20
1902.007082539731
 30
0.0
 11
-56.75216069294428
 21
-78.56090898063709
 31
0.0
210
0.0
220
0.0
230
0.9999999999999998
 40
0.6517585741059463
 41
0.0
 42
6.283185307179584
  0
ELLIPSE
  5
616F
330
1F
100
AcDbEntity
  8
0
 62
     0
100
AcDbEllipse
 10
3212.201178409018
 20
1796.752312618697
 30
0.0
 11
-52.5571898557465
 21
-79.02806373659325
 31
0.0
210
0.0
220
0.0
230
1.0
 40
0.5677403822323596
 41
0.0
 42
6.283185307179584
  0
ELLIPSE
  5
6170
330
1F
100
AcDbEntity
  8
0
 62
     0
100
AcDbEllipse
 10
3323.116988473167
 20
1722.299784039521
 30
0.0
 11
-44.34061223344098
 21
-76.50663834159972
 31
0.0
210
0.0
220
0.0
230
0.9999999999999998
 40
0.4337608387177524
 41
0.0
 42
6.283185307179584
  0
ELLIPSE
  5
6171
330
1F
100
AcDbEntity
  8
0
 62
     0
100
AcDbEllipse
 10
3413.314147224923
 20
1676.092808490427
 30
0.0
 11
-36.00306517165607
 21
-80.2941008313334
 31
0.0
210
0.0
220
0.0
230
1.0
 40
0.2976157912374005
 41
0.0
 42
6.283185307179584
  0
ELLIPSE
  5
6172
330
1F
100
AcDbEntity
  8
0
 62
     0
100
AcDbEllipse
 10
3490.625988356136
 20
1666.624161547433
 30
0.0
 11
-41.30877595958413
 21
-91.27772287012179
 31
0.0
210
0.0
220
0.0
230
1.0
 40
0.2004781885708614
 41
3.642161334497195
 42
8.090198374780053
  0
ELLIPSE
  5
6173
330
1F
100
AcDbEntity
  8
0
 62
     0
100
AcDbEllipse
 10
2314.702327456218
 20
1137.423124783124
 30
0.0
 11
90.19409064722745
 21
13.08461495974134
 31
0.0
210
0.0
220
0.0
230
1.0
 40
0.6795590206827349
 41
0.0
 42
6.283185307179584
  0
ELLIPSE
  5
6174
330
1F
100
AcDbEntity
  8
0
 62
     0
100
AcDbEllipse
 10
2741.323452934345
 20
2182.307757190944
 30
0.0
 11
60.79037830346163
 21
82.08100072162727
 31
0.0
210
0.0
220
0.0
230
0.9999999999999998
 40
0.8582798329265973
 41
0.0
 42
6.283185307179584
  0
ELLIPSE
  5
6175
330
1F
100
AcDbEntity
  8
0
 62
     0
100
AcDbEllipse
 10
2329.224624157971
 20
1773.64962613345
 30
0.0
 11
101.4564671101791
 21
15.94959236886623
 31
0.0
210
0.0
220
0.0
230
1.0
 40
0.7875876969600179
 41
0.0
 42
6.283185307179584
  0
LWPOLYLINE
  5
6176
330
1F
100
AcDbEntity
  8
0
 62
     0
100
AcDbPolyline
 90
        2
 70
     0
 43
0.0
 10
786.6585051014271
 20
6521.137185080838
 10
1024.824837764293
 20
6521.137185080838
  0
LWPOLYLINE
  5
6177
330
1F
100
AcDbEntity
  8
0
 62
     0
100
AcDbPolyline
 90
        2
 70
     0
 43
0.0
 10
1080.337169214548
 20
6521.137185080838
 10
1114.575485243818
 20
6521.137185080838
  0
LWPOLYLINE
  5
6178
330
1F
100
AcDbEntity
  8
0
 62
     0
100
AcDbPolyline
 90
        2
 70
     0
 43
0.0
 10
1177.57197695204
 20
6521.137185080838
 10
1214.751586536159
 20
6521.137185080838
  0
LWPOLYLINE
  5
6179
330
1F
100
AcDbEntity
  8
0
 62
     0
100
AcDbPolyline
 90
        2
 70
     0
 43
0.0
 10
1290.903924074171
 20
6521.137185080838
 10
1329.01554592184
 20
6521.137185080838
  0
LWPOLYLINE
  5
617A
330
1F
100
AcDbEntity
  8
0
 62
     0
100
AcDbPolyline
 90
        2
 70
     0
 43
0.0
 10
1413.159385790362
 20
6521.137185080838
 10
1449.309726989719
 20
6521.137185080838
  0
LWPOLYLINE
  5
617B
330
1F
100
AcDbEntity
  8
0
 62
     0
100
AcDbPolyline
 90
        2
 70
     0
 43
0.0
 10
1551.152316719589
 20
6521.137185080838
 10
1874.525147433543
 20
6521.137185080838
  0
LWPOLYLINE
  5
617C
330
1F
100
AcDbEntity
  8
0
 62
     0
100
AcDbPolyline
 90
        2
 70
     0
 43
0.0
 10
2031.795722799328
 20
6521.137185080838
 10
2225.323172970671
 20
6521.137185080838
  0
LWPOLYLINE
  5
617D
330
1F
100
AcDbEntity
  8
0
 62
     0
100
AcDbPolyline
 90
        2
 70
     0
 43
0.0
 10
2382.593748336421
 20
6521.137185080838
 10
2705.966579050391
 20
6521.137185080838
  0
LWPOLYLINE
  5
617E
330
1F
100
AcDbEntity
  8
0
 62
     0
100
AcDbPolyline
 90
        2
 70
     0
 43
0.0
 10
2807.80916878023
 20
6521.137185080838
 10
2843.959509979623
 20
6521.137185080838
  0
LWPOLYLINE
  5
617F
330
1F
100
AcDbEntity
  8
0
 62
     0
100
AcDbPolyline
 90
        2
 70
     0
 43
0.0
 10
2928.103349848146
 20
6521.137185080838
 10
2966.214971695816
 20
6521.137185080838
  0
LWPOLYLINE
  5
6180
330
1F
100
AcDbEntity
  8
0
 62
     0
100
AcDbPolyline
 90
        2
 70
     0
 43
0.0
 10
3042.367309233812
 20
6521.137185080838
 10
3079.546918817959
 20
6521.137185080838
  0
LWPOLYLINE
  5
6181
330
1F
100
AcDbEntity
  8
0
 62
     0
100
AcDbPolyline
 90
        2
 70
     0
 43
0.0
 10
3142.543410526182
 20
6521.137185080838
 10
3176.781726555438
 20
6521.137185080838
  0
LWPOLYLINE
  5
6182
330
1F
100
AcDbEntity
  8
0
 62
     0
100
AcDbPolyline
 90
        2
 70
     0
 43
0.0
 10
3232.294058005671
 20
6521.137185080838
 10
3470.460390668529
 20
6521.137185080838
  0
LWPOLYLINE
  5
6183
330
1F
100
AcDbEntity
  8
0
 62
     0
100
AcDbPolyline
 90
        2
 70
     0
 43
0.0
 10
3518.08435020333
 20
6471.62902967085
 10
3518.08435020333
 20
6340.598204945338
  0
LWPOLYLINE
  5
6184
330
1F
100
AcDbEntity
  8
0
 62
     0
100
AcDbPolyline
 90
        2
 70
     0
 43
0.0
 10
3518.08435020333
 20
6274.501045984861
 10
3518.08435020333
 20
6023.400491733293
  0
LWPOLYLINE
  5
6185
330
1F
100
AcDbEntity
  8
0
 62
     0
100
AcDbPolyline
 90
        2
 70
     0
 43
0.0
 10
3518.08435020333
 20
5963.421564641436
 10
3518.08435020333
 20
5839.943045277325
  0
LWPOLYLINE
  5
6186
330
1F
100
AcDbEntity
  8
0
 62
     0
100
AcDbPolyline
 90
        2
 70
     0
 43
0.0
 10
3518.08435020333
 20
5761.42402568959
 10
3518.08435020333
 20
5544.207793695353
  0
LWPOLYLINE
  5
6187
330
1F
100
AcDbEntity
  8
0
 62
     0
100
AcDbPolyline
 90
        2
 70
     0
 43
0.0
 10
3518.08435020333
 20
5473.464292479215
 10
3518.08435020333
 20
5351.904319773753
  0
LWPOLYLINE
  5
6188
330
1F
100
AcDbEntity
  8
0
 62
     0
100
AcDbPolyline
 90
        2
 70
     0
 43
0.0
 10
3518.08435020333
 20
5228.563558552581
 10
3518.08435020333
 20
4937.551609638304
  0
LWPOLYLINE
  5
6189
330
1F
100
AcDbEntity
  8
0
 62
     0
100
AcDbPolyline
 90
        2
 70
     0
 43
0.0
 10
3518.08435020333
 20
4850.82234141096
 10
3518.08435020333
 20
4680.881169066366
  0
LWPOLYLINE
  5
618A
330
1F
100
AcDbEntity
  8
0
 62
     0
100
AcDbPolyline
 90
        2
 70
     0
 43
0.0
 10
3518.08435020333
 20
4526.252734451932
 10
3518.08435020333
 20
4392.719162470205
  0
LWPOLYLINE
  5
618B
330
1F
100
AcDbEntity
  8
0
 62
     0
100
AcDbPolyline
 90
        2
 70
     0
 43
0.0
 10
3518.08435020333
 20
4225.171823736633
 10
3518.08435020333
 20
4059.714670382156
  0
LWPOLYLINE
  5
618C
330
1F
100
AcDbEntity
  8
0
 62
     0
100
AcDbPolyline
 90
        2
 70
     0
 43
0.0
 10
3518.08435020333
 20
3888.962115490031
 10
3518.08435020333
 20
3666.366785299195
  0
LWPOLYLINE
  5
618D
330
1F
100
AcDbEntity
  8
0
 62
     0
100
AcDbPolyline
 90
        2
 70
     0
 43
0.0
 10
3518.08435020333
 20
3572.921180747232
 10
3518.08435020333
 20
3335.179676567065
  0
LWPOLYLINE
  5
618E
330
1F
100
AcDbEntity
  8
0
 62
     0
100
AcDbPolyline
 90
        2
 70
     0
 43
0.0
 10
3518.08435020333
 20
3164.42712167494
 10
3518.08435020333
 20
2998.969968320455
  0
LWPOLYLINE
  5
618F
330
1F
100
AcDbEntity
  8
0
 62
     0
100
AcDbPolyline
 90
        2
 70
     0
 43
0.0
 10
3518.08435020333
 20
2831.422629586889
 10
3518.08435020333
 20
2697.889057605162
  0
LWPOLYLINE
  5
6190
330
1F
100
AcDbEntity
  8
0
 62
     0
100
AcDbPolyline
 90
        2
 70
     0
 43
0.0
 10
3518.08435020333
 20
2543.260622990727
 10
3518.08435020333
 20
2373.319450646135
  0
LWPOLYLINE
  5
6191
330
1F
100
AcDbEntity
  8
0
 62
     0
100
AcDbPolyline
 90
        2
 70
     0
 43
0.0
 10
3518.08435020333
 20
2286.590182418789
 10
3518.08435020333
 20
1995.578233504514
  0
LWPOLYLINE
  5
6192
330
1F
100
AcDbEntity
  8
0
 62
     0
100
AcDbPolyline
 90
        2
 70
     0
 43
0.0
 10
3518.08435020333
 20
1872.237472283341
 10
3518.08435020333
 20
1750.677499577876
  0
LWPOLYLINE
  5
6193
330
1F
100
AcDbEntity
  8
0
 62
     0
100
AcDbPolyline
 90
        2
 70
     0
 43
0.0
 10
3518.08435020333
 20
1679.933998361741
 10
3518.08435020333
 20
1462.717766367501
  0
LWPOLYLINE
  5
6194
330
1F
100
AcDbEntity
  8
0
 62
     0
100
AcDbPolyline
 90
        2
 70
     0
 43
0.0
 10
3518.08435020333
 20
1384.198746779768
 10
3518.08435020333
 20
1260.720227415659
  0
LWPOLYLINE
  5
6195
330
1F
100
AcDbEntity
  8
0
 62
     0
100
AcDbPolyline
 90
        2
 70
     0
 43
0.0
 10
3518.08435020333
 20
1200.741300323797
 10
3518.08435020333
 20
949.6407460722332
  0
LWPOLYLINE
  5
6196
330
1F
100
AcDbEntity
  8
0
 62
     0
100
AcDbPolyline
 90
        2
 70
     0
 43
0.0
 10
3518.08435020333
 20
883.5435871117546
 10
3518.08435020333
 20
752.5127623862409
  0
LWPOLYLINE
  5
6197
330
1F
100
AcDbEntity
  8
0
 62
     0
100
AcDbPolyline
 90
        2
 70
     0
 43
0.0
 10
3470.460390668529
 20
703.00460697625
 10
3232.294058005671
 20
703.00460697625
  0
LWPOLYLINE
  5
6198
330
1F
100
AcDbEntity
  8
0
 62
     0
100
AcDbPolyline
 90
        2
 70
     0
 43
0.0
 10
3176.781726555438
 20
703.00460697625
 10
3142.543410526182
 20
703.00460697625
  0
LWPOLYLINE
  5
6199
330
1F
100
AcDbEntity
  8
0
 62
     0
100
AcDbPolyline
 90
        2
 70
     0
 43
0.0
 10
3079.546918817959
 20
703.00460697625
 10
3042.367309233812
 20
703.00460697625
  0
LWPOLYLINE
  5
619A
330
1F
100
AcDbEntity
  8
0
 62
     0
100
AcDbPolyline
 90
        2
 70
     0
 43
0.0
 10
2966.214971695816
 20
703.00460697625
 10
2928.103349848146
 20
703.00460697625
  0
LWPOLYLINE
  5
619B
330
1F
100
AcDbEntity
  8
0
 62
     0
100
AcDbPolyline
 90
        2
 70
     0
 43
0.0
 10
2843.959509979623
 20
703.00460697625
 10
2807.80916878023
 20
703.00460697625
  0
LWPOLYLINE
  5
619C
330
1F
100
AcDbEntity
  8
0
 62
     0
100
AcDbPolyline
 90
        2
 70
     0
 43
0.0
 10
2705.966579050391
 20
703.00460697625
 10
2382.593748336421
 20
703.00460697625
  0
LWPOLYLINE
  5
619D
330
1F
100
AcDbEntity
  8
0
 62
     0
100
AcDbPolyline
 90
        2
 70
     0
 43
0.0
 10
2225.323172970671
 20
703.00460697625
 10
2031.795722799328
 20
703.00460697625
  0
LWPOLYLINE
  5
619E
330
1F
100
AcDbEntity
  8
0
 62
     0
100
AcDbPolyline
 90
        2
 70
     0
 43
0.0
 10
1874.525147433543
 20
703.00460697625
 10
1551.152316719589
 20
703.00460697625
  0
LWPOLYLINE
  5
619F
330
1F
100
AcDbEntity
  8
0
 62
     0
100
AcDbPolyline
 90
        2
 70
     0
 43
0.0
 10
1449.309726989719
 20
703.00460697625
 10
1413.159385790362
 20
703.00460697625
  0
LWPOLYLINE
  5
61A0
330
1F
100
AcDbEntity
  8
0
 62
     0
100
AcDbPolyline
 90
        2
 70
     0
 43
0.0
 10
1329.01554592184
 20
703.00460697625
 10
1290.903924074171
 20
703.00460697625
  0
LWPOLYLINE
  5
61A1
330
1F
100
AcDbEntity
  8
0
 62
     0
100
AcDbPolyline
 90
        2
 70
     0
 43
0.0
 10
1214.751586536159
 20
703.00460697625
 10
1177.57197695204
 20
703.00460697625
  0
LWPOLYLINE
  5
61A2
330
1F
100
AcDbEntity
  8
0
 62
     0
100
AcDbPolyline
 90
        2
 70
     0
 43
0.0
 10
1114.575485243818
 20
703.00460697625
 10
1080.337169214548
 20
703.00460697625
  0
LWPOLYLINE
  5
61A3
330
1F
100
AcDbEntity
  8
0
 62
     0
100
AcDbPolyline
 90
        2
 70
     0
 43
0.0
 10
1024.824837764293
 20
703.00460697625
 10
786.6585051014271
 20
703.00460697625
  0
LWPOLYLINE
  5
61A4
330
1F
100
AcDbEntity
  8
0
 62
     0
100
AcDbPolyline
 90
        2
 70
     0
 43
0.0
 10
739.0345455666484
 20
752.5127623862421
 10
739.0345455666484
 20
883.5435871117564
  0
LWPOLYLINE
  5
61A5
330
1F
100
AcDbEntity
  8
0
 62
     0
100
AcDbPolyline
 90
        2
 70
     0
 43
0.0
 10
739.0345455666484
 20
949.640746072235
 10
739.0345455666484
 20
1200.741300323798
  0
LWPOLYLINE
  5
61A6
330
1F
100
AcDbEntity
  8
0
 62
     0
100
AcDbPolyline
 90
        2
 70
     0
 43
0.0
 10
739.0345455666484
 20
1260.720227415659
 10
739.0345455666484
 20
1384.19874677977
  0
LWPOLYLINE
  5
61A7
330
1F
100
AcDbEntity
  8
0
 62
     0
100
AcDbPolyline
 90
        2
 70
     0
 43
0.0
 10
739.0345455666484
 20
1462.717766367504
 10
739.0345455666484
 20
1679.933998361747
  0
LWPOLYLINE
  5
61A8
330
1F
100
AcDbEntity
  8
0
 62
     0
100
AcDbPolyline
 90
        2
 70
     0
 43
0.0
 10
739.0345455666484
 20
1750.677499577876
 10
739.0345455666484
 20
1872.237472283341
  0
LWPOLYLINE
  5
61A9
330
1F
100
AcDbEntity
  8
0
 62
     0
100
AcDbPolyline
 90
        2
 70
     0
 43
0.0
 10
739.0345455666484
 20
1995.578233504514
 10
739.0345455666484
 20
2286.590182418789
  0
LWPOLYLINE
  5
61AA
330
1F
100
AcDbEntity
  8
0
 62
     0
100
AcDbPolyline
 90
        2
 70
     0
 43
0.0
 10
739.0345455666484
 20
2373.319450646134
 10
739.0345455666484
 20
2543.260622990728
  0
LWPOLYLINE
  5
61AB
330
1F
100
AcDbEntity
  8
0
 62
     0
100
AcDbPolyline
 90
        2
 70
     0
 43
0.0
 10
739.0345455666484
 20
2697.889057605162
 10
739.0345455666484
 20
2831.422629586889
  0
LWPOLYLINE
  5
61AC
330
1F
100
AcDbEntity
  8
0
 62
     0
100
AcDbPolyline
 90
        2
 70
     0
 43
0.0
 10
739.0345455666484
 20
2998.969968320455
 10
739.0345455666484
 20
3164.42712167494
  0
LWPOLYLINE
  5
61AD
330
1F
100
AcDbEntity
  8
0
 62
     0
100
AcDbPolyline
 90
        2
 70
     0
 43
0.0
 10
739.0345455666484
 20
3335.179676567065
 10
739.0345455666484
 20
3572.921180747232
  0
LWPOLYLINE
  5
61AE
330
1F
100
AcDbEntity
  8
0
 62
     0
100
AcDbPolyline
 90
        2
 70
     0
 43
0.0
 10
739.0345455666484
 20
3666.366785299195
 10
739.0345455666484
 20
3888.962115490031
  0
LWPOLYLINE
  5
61AF
330
1F
100
AcDbEntity
  8
0
 62
     0
100
AcDbPolyline
 90
        2
 70
     0
 43
0.0
 10
739.0345455666484
 20
4059.714670382154
 10
739.0345455666484
 20
4225.171823736633
  0
LWPOLYLINE
  5
61B0
330
1F
100
AcDbEntity
  8
0
 62
     0
100
AcDbPolyline
 90
        2
 70
     0
 43
0.0
 10
739.0345455666484
 20
4392.719162470205
 10
739.0345455666484
 20
4526.252734451932
  0
LWPOLYLINE
  5
61B1
330
1F
100
AcDbEntity
  8
0
 62
     0
100
AcDbPolyline
 90
        2
 70
     0
 43
0.0
 10
739.0345455666484
 20
4680.881169066366
 10
739.0345455666484
 20
4850.82234141096
  0
LWPOLYLINE
  5
61B2
330
1F
100
AcDbEntity
  8
0
 62
     0
100
AcDbPolyline
 90
        2
 70
     0
 43
0.0
 10
739.0345455666484
 20
4937.551609638304
 10
739.0345455666484
 20
5228.563558552581
  0
LWPOLYLINE
  5
61B3
330
1F
100
AcDbEntity
  8
0
 62
     0
100
AcDbPolyline
 90
        2
 70
     0
 43
0.0
 10
739.0345455666484
 20
5351.904319773753
 10
739.0345455666484
 20
5473.464292479215
  0
LWPOLYLINE
  5
61B4
330
1F
100
AcDbEntity
  8
0
 62
     0
100
AcDbPolyline
 90
        2
 70
     0
 43
0.0
 10
739.0345455666484
 20
5544.207793695344
 10
739.0345455666484
 20
5761.424025689588
  0
LWPOLYLINE
  5
61B5
330
1F
100
AcDbEntity
  8
0
 62
     0
100
AcDbPolyline
 90
        2
 70
     0
 43
0.0
 10
739.0345455666484
 20
5839.943045277319
 10
739.0345455666484
 20
5963.421564641431
  0
LWPOLYLINE
  5
61B6
330
1F
100
AcDbEntity
  8
0
 62
     0
100
AcDbPolyline
 90
        2
 70
     0
 43
0.0
 10
739.0345455666484
 20
6023.400491733293
 10
739.0345455666484
 20
6274.501045984861
  0
LWPOLYLINE
  5
61B7
330
1F
100
AcDbEntity
  8
0
 62
     0
100
AcDbPolyline
 90
        2
 70
     0
 43
0.0
 10
739.0345455666484
 20
6340.598204945338
 10
739.0345455666484
 20
6471.62902967085
  0
LWPOLYLINE
  5
61B8
330
1F
100
AcDbEntity
  8
0
 62
     0
100
AcDbPolyline
 90
        4
 70
     1
 43
0.0
 10
648.1008667263973
 20
6612.070863921083
 10
3609.018029043588
 20
6612.070863921083
 10
3609.018029043588
 20
612.0709281360096
 10
648.1008667263973
 20
612.0709281360096
  0
ENDSEC
  0
SECTION
  2
OBJECTS
  0
DICTIONARY
  5
C
330
0
100
AcDbDictionary
281
     1
  3
ACAD_COLOR
350
6B
  3
ACAD_GROUP
350
D
  3
ACAD_LAYOUT
350
1A
  3
ACAD_MATERIAL
350
6A
  3
ACAD_MLINESTYLE
350
17
  3
ACAD_PLOTSETTINGS
350
19
  3
ACAD_PLOTSTYLENAME
350
E
  3
ACAD_TABLESTYLE
350
7E
  3
ACAD_VISUALSTYLE
350
EF
  3
AcDbVariableDictionary
350
5E
  0
DICTIONARY
  5
2D3
330
2
100
AcDbDictionary
280
     1
281
     1
  3
ACAD_LAYERSTATES
360
2D4
  0
DICTIONARY
  5
61B9
330
1F
100
AcDbDictionary
280
     1
281
     1
  3
ACAD_SORTENTS
360
61BA
  0
DICTIONARY
  5
6B
102
{ACAD_REACTORS
330
C
102
}
330
C
100
AcDbDictionary
281
     1
  0
DICTIONARY
  5
D
102
{ACAD_REACTORS
330
C
102
}
330
C
100
AcDbDictionary
281
     1
  0
DICTIONARY
  5
1A
102
{ACAD_REACTORS
330
C
102
}
330
C
100
AcDbDictionary
281
     1
  3
Layout1
350
D3
  3
Layout2
350
D7
  3
Model
350
22
  0
DICTIONARY
  5
6A
102
{ACAD_REACTORS
330
C
102
}
330
C
100
AcDbDictionary
281
     1
  3
ByBlock
350
ED
  3
ByLayer
350
EC
  3
Global
350
EE
  0
DICTIONARY
  5
17
102
{ACAD_REACTORS
330
C
102
}
330
C
100
AcDbDictionary
281
     1
  3
Standard
350
18
  0
DICTIONARY
  5
19
102
{ACAD_REACTORS
330
C
102
}
330
C
100
AcDbDictionary
281
     1
  0
ACDBDICTIONARYWDFLT
  5
E
102
{ACAD_REACTORS
330
C
102
}
330
C
100
AcDbDictionary
281
     1
  3
Normal
350
F
100
AcDbDictionaryWithDefault
340
F
  0
DICTIONARY
  5
7E
102
{ACAD_REACTORS
330
C
102
}
330
C
100
AcDbDictionary
281
     1
  3
Standard
350
7F
  0
DICTIONARY
  5
EF
102
{ACAD_REACTORS
330
C
102
}
330
C
100
AcDbDictionary
281
     1
  3
2dWireframe
350
F5
  3
3D Hidden
350
F7
  3
3dWireframe
350
F6
  3
Basic
350
F4
  3
Brighten
350
FB
  3
ColorChange
350
FF
  3
Conceptual
350
F8
  3
Dim
350
FA
  3
Facepattern
350
FE
  3
Flat
350
F0
  3
FlatWithEdges
350
F1
  3
Gouraud
350
F2
  3
GouraudWithEdges
350
F3
  3
Linepattern
350
FD
  3
Realistic
350
F9
  3
Thicken
350
FC
  0
DICTIONARY
  5
5E
102
{ACAD_REACTORS
330
C
102
}
330
C
100
AcDbDictionary
281
     1
  3
CTABLESTYLE
350
84
  3
DIMASSOC
350
5F
  3
HIDETEXT
350
63
  0
DICTIONARY
  5
2D4
102
{ACAD_REACTORS
330
2D3
102
}
330
2D3
100
AcDbDictionary
281
     1
  0
SORTENTSTABLE
  5
61BA
102
{ACAD_REACTORS
330
61B9
102
}
330
61B9
100
AcDbSortentsTable
330
1F
331
6118
  5
6118
331
613A
  5
613A
331
615C
  5
615C
331
617E
  5
617E
331
6198
  5
6198
331
610F
  5
610F
331
60ED
  5
60ED
331
60CB
  5
60CB
331
60A9
  5
60A9
331
6091
  5
6091
331
606F
  5
606F
331
604D
  5
604D
331
602B
  5
602B
331
6011
  5
6011
331
6129
  5
6129
331
614B
  5
614B
331
616D
  5
616D
331
618F
  5
618F
331
61A9
  5
61A9
331
60FE
  5
60FE
331
60DC
  5
60DC
331
60BA
  5
60BA
331
6080
  5
6080
331
605E
  5
605E
331
603C
  5
603C
331
6022
  5
6022
331
6000
  5
6000
331
6138
  5
6138
331
615A
  5
615A
331
617C
  5
617C
331
6196
  5
6196
331
61B8
  5
61B8
331
610D
  5
610D
331
60EB
  5
60EB
331
60C9
  5
60C9
331
60A7
  5
60A7
331
608F
  5
608F
331
606D
  5
606D
331
604B
  5
604B
331
6029
  5
6029
331
6127
  5
6127
331
6149
  5
6149
331
616B
  5
616B
331
618D
  5
618D
331
61A7
  5
61A7
331
60FC
  5
60FC
331
60DA
  5
60DA
331
60B8
  5
60B8
331
607E
  5
607E
331
605C
  5
605C
331
603A
  5
603A
331
6020
  5
6020
331
600F
  5
600F
331
5FFE
  5
5FFE
331
6158
  5
6158
331
617A
  5
617A
331
6194
  5
6194
331
61B6
  5
61B6
331
610B
  5
610B
331
60E9
  5
60E9
331
60C7
  5
60C7
331
60A5
  5
60A5
331
608D
  5
608D
331
606B
  5
606B
331
6049
  5
6049
331
6125
  5
6125
331
6147
  5
6147
331
6169
  5
6169
331
618B
  5
618B
331
61A5
  5
61A5
331
60FA
  5
60FA
331
60D8
  5
60D8
331
60B6
  5
60B6
331
609E
  5
609E
331
607C
  5
607C
331
605A
  5
605A
331
6038
  5
6038
331
601E
  5
601E
331
6136
  5
6136
331
600D
  5
600D
331
5FFC
  5
5FFC
331
6178
  5
6178
331
6192
  5
6192
331
61B4
  5
61B4
331
6109
  5
6109
331
60E7
  5
60E7
331
60C5
  5
60C5
331
60A3
  5
60A3
331
608B
  5
608B
331
6069
  5
6069
331
6123
  5
6123
331
6145
  5
6145
331
6167
  5
6167
331
6189
  5
6189
331
61A3
  5
61A3
331
60F8
  5
60F8
331
60D6
  5
60D6
331
60B4
  5
60B4
331
609C
  5
609C
331
607A
  5
607A
331
6058
  5
6058
331
6036
  5
6036
331
601C
  5
601C
331
6156
  5
6156
331
6134
  5
6134
331
6047
  5
6047
331
600B
  5
600B
331
5FFA
  5
5FFA
331
6190
  5
6190
331
61B2
  5
61B2
331
6121
  5
6121
331
6107
  5
6107
331
60E5
  5
60E5
331
60C3
  5
60C3
331
60A1
  5
60A1
331
6089
  5
6089
331
6143
  5
6143
331
6165
  5
6165
331
6187
  5
6187
331
61A1
  5
61A1
331
60F6
  5
60F6
331
60D4
  5
60D4
331
60B2
  5
60B2
331
609A
  5
609A
331
6078
  5
6078
331
6056
  5
6056
331
6034
  5
6034
331
601A
  5
601A
331
6154
  5
6154
331
6132
  5
6132
331
6176
  5
6176
331
6067
  5
6067
331
6045
  5
6045
331
6009
  5
6009
331
61B0
  5
61B0
331
611F
  5
611F
331
6105
  5
6105
331
60E3
  5
60E3
331
60C1
  5
60C1
331
6141
  5
6141
331
6163
  5
6163
331
6185
  5
6185
331
619F
  5
619F
331
6116
  5
6116
331
60F4
  5
60F4
331
60D2
  5
60D2
331
60B0
  5
60B0
331
6098
  5
6098
331
6076
  5
6076
331
6054
  5
6054
331
6032
  5
6032
331
6018
  5
6018
331
6152
  5
6152
331
6130
  5
6130
331
6174
  5
6174
331
6087
  5
6087
331
6065
  5
6065
331
6043
  5
6043
331
6007
  5
6007
331
611D
  5
611D
331
6103
  5
6103
331
60E1
  5
60E1
331
613F
  5
613F
331
6161
  5
6161
331
6183
  5
6183
331
619D
  5
619D
331
6114
  5
6114
331
60F2
  5
60F2
331
60D0
  5
60D0
331
60AE
  5
60AE
331
6096
  5
6096
331
6074
  5
6074
331
6052
  5
6052
331
6030
  5
6030
331
6016
  5
6016
331
612E
  5
612E
331
6150
  5
6150
331
6172
  5
6172
331
61AE
  5
61AE
331
60BF
  5
60BF
331
6085
  5
6085
331
6063
  5
6063
331
6041
  5
6041
331
6027
  5
6027
331
6005
  5
6005
331
611B
  5
611B
331
6101
  5
6101
331
613D
  5
613D
331
615F
  5
615F
331
6181
  5
6181
331
619B
  5
619B
331
6112
  5
6112
331
60F0
  5
60F0
331
60CE
  5
60CE
331
60AC
  5
60AC
331
6094
  5
6094
331
6072
  5
6072
331
6050
  5
6050
331
602E
  5
602E
331
6014
  5
6014
331
612C
  5
612C
331
614E
  5
614E
331
6170
  5
6170
331
61AC
  5
61AC
331
60DF
  5
60DF
331
60BD
  5
60BD
331
6083
  5
6083
331
6061
  5
6061
331
603F
  5
603F
331
6025
  5
6025
331
6003
  5
6003
331
6119
  5
6119
331
613B
  5
613B
331
615D
  5
615D
331
617F
  5
617F
331
6199
  5
6199
331
6110
  5
6110
331
60EE
  5
60EE
331
60CC
  5
60CC
331
60AA
  5
60AA
331
6092
  5
6092
331
6070
  5
6070
331
604E
  5
604E
331
602C
  5
602C
331
6012
  5
6012
331
612A
  5
612A
331
614C
  5
614C
331
616E
  5
616E
331
61AA
  5
61AA
331
60FF
  5
60FF
331
60DD
  5
60DD
331
60BB
  5
60BB
331
6081
  5
6081
331
605F
  5
605F
331
603D
  5
603D
331
6023
  5
6023
331
6001
  5
6001
331
6139
  5
6139
331
615B
  5
615B
331
617D
  5
617D
331
6197
  5
6197
331
610E
  5
610E
331
60EC
  5
60EC
331
60CA
  5
60CA
331
60A8
  5
60A8
331
6090
  5
6090
331
606E
  5
606E
331
604C
  5
604C
331
602A
  5
602A
331
6010
  5
6010
331
6128
  5
6128
331
614A
  5
614A
331
603B
  5
603B
331
6021
  5
6021
331
5FFF
  5
5FFF
331
616C
  5
616C
331
618E
  5
618E
331
61A8
  5
61A8
331
60FD
  5
60FD
331
60DB
  5
60DB
331
60B9
  5
60B9
331
607F
  5
607F
331
605D
  5
605D
331
6159
  5
6159
331
617B
  5
617B
331
6195
  5
6195
331
61B7
  5
61B7
331
610C
  5
610C
331
60EA
  5
60EA
331
60C8
  5
60C8
331
60A6
  5
60A6
331
608E
  5
608E
331
606C
  5
606C
331
604A
  5
604A
331
6028
  5
6028
331
6126
  5
6126
331
6148
  5
6148
331
616A
  5
616A
331
618C
  5
618C
331
61A6
  5
61A6
331
60FB
  5
60FB
331
60D9
  5
60D9
331
60B7
  5
60B7
331
609F
  5
609F
331
607D
  5
607D
331
605B
  5
605B
331
6039
  5
6039
331
601F
  5
601F
331
6137
  5
6137
331
600E
  5
600E
331
5FFD
  5
5FFD
331
6179
  5
6179
331
6193
  5
6193
331
61B5
  5
61B5
331
610A
  5
610A
331
60E8
  5
60E8
331
60C6
  5
60C6
331
60A4
  5
60A4
331
608C
  5
608C
331
606A
  5
606A
331
6048
  5
6048
331
6124
  5
6124
331
6146
  5
6146
331
6168
  5
6168
331
618A
  5
618A
331
61A4
  5
61A4
331
60F9
  5
60F9
331
60D7
  5
60D7
331
60B5
  5
60B5
331
609D
  5
609D
331
607B
  5
607B
331
6059
  5
6059
331
6037
  5
6037
331
601D
  5
601D
331
6157
  5
6157
331
6135
  5
6135
331
600C
  5
600C
331
5FFB
  5
5FFB
331
6191
  5
6191
331
61B3
  5
61B3
331
6108
  5
6108
331
60E6
  5
60E6
331
60C4
  5
60C4
331
60A2
  5
60A2
331
608A
  5
608A
331
6068
  5
6068
331
6122
  5
6122
331
6144
  5
6144
331
6166
  5
6166
331
6188
  5
6188
331
61A2
  5
61A2
331
60F7
  5
60F7
331
60D5
  5
60D5
331
60B3
  5
60B3
331
609B
  5
609B
331
6079
  5
6079
331
6057
  5
6057
331
6035
  5
6035
331
601B
  5
601B
331
6155
  5
6155
331
6133
  5
6133
331
6177
  5
6177
331
6046
  5
6046
331
600A
  5
600A
331
5FF9
  5
5FF9
331
61B1
  5
61B1
331
6120
  5
6120
331
6106
  5
6106
331
60E4
  5
60E4
331
60C2
  5
60C2
331
60A0
  5
60A0
331
6088
  5
6088
331
6142
  5
6142
331
6164
  5
6164
331
6186
  5
6186
331
61A0
  5
61A0
331
6117
  5
6117
331
60F5
  5
60F5
331
60D3
  5
60D3
331
60B1
  5
60B1
331
6099
  5
6099
331
6077
  5
6077
331
6055
  5
6055
331
6033
  5
6033
331
6019
  5
6019
331
6153
  5
6153
331
6131
  5
6131
331
6175
  5
6175
331
6066
  5
6066
331
6044
  5
6044
331
6008
  5
6008
331
611E
  5
611E
331
6104
  5
6104
331
60E2
  5
60E2
331
60C0
  5
60C0
331
6140
  5
6140
331
6162
  5
6162
331
6184
  5
6184
331
619E
  5
619E
331
6115
  5
6115
331
60F3
  5
60F3
331
60D1
  5
60D1
331
60AF
  5
60AF
331
6097
  5
6097
331
6075
  5
6075
331
6053
  5
6053
331
6031
  5
6031
331
6017
  5
6017
331
6151
  5
6151
331
612F
  5
612F
331
6173
  5
6173
331
61AF
  5
61AF
331
6086
  5
6086
331
6064
  5
6064
331
6042
  5
6042
331
6006
  5
6006
331
611C
  5
611C
331
6102
  5
6102
331
60E0
  5
60E0
331
613E
  5
613E
331
6160
  5
6160
331
6182
  5
6182
331
619C
  5
619C
331
6113
  5
6113
331
60F1
  5
60F1
331
60CF
  5
60CF
331
60AD
  5
60AD
331
6095
  5
6095
331
6073
  5
6073
331
6051
  5
6051
331
602F
  5
602F
331
6015
  5
6015
331
612D
  5
612D
331
614F
  5
614F
331
6171
  5
6171
331
61AD
  5
61AD
331
60BE
  5
60BE
331
6084
  5
6084
331
6062
  5
6062
331
6040
  5
6040
331
6026
  5
6026
331
6004
  5
6004
331
611A
  5
611A
331
6100
  5
6100
331
613C
  5
613C
331
615E
  5
615E
331
6180
  5
6180
331
619A
  5
619A
331
6111
  5
6111
331
60EF
  5
60EF
331
60CD
  5
60CD
331
60AB
  5
60AB
331
6093
  5
6093
331
6071
  5
6071
331
604F
  5
604F
331
602D
  5
602D
331
6013
  5
6013
331
612B
  5
612B
331
614D
  5
614D
331
616F
  5
616F
331
61AB
  5
61AB
331
60DE
  5
60DE
331
60BC
  5
60BC
331
6082
  5
6082
331
6060
  5
6060
331
603E
  5
603E
331
6024
  5
6024
331
6002
  5
6002
  0
LAYOUT
  5
D3
102
{ACAD_REACTORS
330
1A
102
}
330
1A
100
AcDbPlotSettings
  1

  2
C:\Documents and Settings\basas\Application Data\Autodesk\AutoCAD 2005\R16.1\enu\plotters\Default Windows System Printer.pc3
  4

  6

 40
0.0
 41
0.0
 42
0.0
 43
0.0
 44
0.0
 45
0.0
 46
0.0
 47
0.0
 48
0.0
 49
0.0
140
0.0
141
0.0
142
1.0
143
1.0
 70
   688
 72
     0
 73
     0
 74
     5
  7

 75
    16
147
1.0
 76
     0
 77
     2
 78
   300
148
0.0
149
0.0
100
AcDbLayout
  1
Layout1
 70
     1
 71
     1
 10
0.0
 20
0.0
 11
12.0
 21
9.0
 12
0.0
 22
0.0
 32
0.0
 14
0.0
 24
0.0
 34
0.0
 15
0.0
 25
0.0
 35
0.0
146
0.0
 13
0.0
 23
0.0
 33
0.0
 16
1.0
 26
0.0
 36
0.0
 17
0.0
 27
1.0
 37
0.0
 76
     0
330
D2
  0
LAYOUT
  5
D7
102
{ACAD_REACTORS
330
1A
102
}
330
1A
100
AcDbPlotSettings
  1

  2
C:\Documents and Settings\basas\Application Data\Autodesk\AutoCAD 2005\R16.1\enu\plotters\Default Windows System Printer.pc3
  4

  6

 40
0.0
 41
0.0
 42
0.0
 43
0.0
 44
0.0
 45
0.0
 46
0.0
 47
0.0
 48
0.0
 49
0.0
140
0.0
141
0.0
142
1.0
143
1.0
 70
   688
 72
     0
 73
     0
 74
     5
  7

 75
    16
147
1.0
 76
     0
 77
     2
 78
   300
148
0.0
149
0.0
100
AcDbLayout
  1
Layout2
 70
     1
 71
     2
 10
0.0
 20
0.0
 11
12.0
 21
9.0
 12
0.0
 22
0.0
 32
0.0
 14
0.0
 24
0.0
 34
0.0
 15
0.0
 25
0.0
 35
0.0
146
0.0
 13
0.0
 23
0.0
 33
0.0
 16
1.0
 26
0.0
 36
0.0
 17
0.0
 27
1.0
 37
0.0
 76
     0
330
D6
  0
LAYOUT
  5
22
102
{ACAD_REACTORS
330
1A
102
}
330
1A
100
AcDbPlotSettings
  1

  2
none_device
  4
ISO_A4_(210.00_x_297.00_MM)
  6

 40
7.5
 41
20.0
 42
7.5
 43
20.0
 44
210.0
 45
297.0
 46
11.54999923706054
 47
-13.65000009536743
 48
0.0
 49
0.0
140
0.0
141
0.0
142
1.0
143
8.704084754739808
 70
 11952
 72
     1
 73
     0
 74
     0
  7

 75
     0
147
0.1148885871608098
 76
     0
 77
     2
 78
   300
148
0.0
149
0.0
100
AcDbLayout
  1
Model
 70
     1
 71
     0
 10
0.0
 20
0.0
 11
12.0
 21
9.0
 12
0.0
 22
0.0
 32
0.0
 14
0.0
 24
0.0
 34
0.0
 15
0.0
 25
0.0
 35
0.0
146
0.0
 13
0.0
 23
0.0
 33
0.0
 16
1.0
 26
0.0
 36
0.0
 17
0.0
 27
1.0
 37
0.0
 76
     0
330
1F
331
EA
1001
ACAD_PSEXT
1000
None
1000
None
1000
Not applicable
1000
The layout will not be plotted unless a new plotter configuration name is selected.
1070
     0
  0
MATERIAL
  5
ED
102
{ACAD_REACTORS
330
6A
102
}
330
6A
100
AcDbMaterial
  1
ByBlock
  0
MATERIAL
  5
EC
102
{ACAD_REACTORS
330
6A
102
}
330
6A
100
AcDbMaterial
  1
ByLayer
  0
MATERIAL
  5
EE
102
{ACAD_REACTORS
330
6A
102
}
330
6A
100
AcDbMaterial
  1
Global
  0
MLINESTYLE
  5
18
102
{ACAD_REACTORS
330
17
102
}
330
17
100
AcDbMlineStyle
  2
STANDARD
 70
     0
  3

 62
   256
 51
90.0
 52
90.0
 71
     2
 49
0.5
 62
   256
  6
BYLAYER
 49
-0.5
 62
   256
  6
BYLAYER
  0
ACDBPLACEHOLDER
  5
F
102
{ACAD_REACTORS
330
E
102
}
330
E
  0
TABLESTYLE
  5
7F
102
{ACAD_REACTORS
330
7E
102
}
330
7E
100
AcDbTableStyle
  3
Standard
 70
     0
 71
     0
 40
1.5
 41
1.5
280
     0
281
     0
  7
Standard
140
4.5
170
     2
 62
     0
 63
     7
283
     0
 90
      512
 91
        0
  1

274
    -2
284
     1
 64
     0
275
    -2
285
     1
 65
     0
276
    -2
286
     1
 66
     0
277
    -2
287
     1
 67
     0
278
    -2
288
     1
 68
     0
279
    -2
289
     1
 69
     0
  7
Standard
140
6.0
170
     5
 62
     0
 63
     7
283
     0
 90
      512
 91
        0
  1

274
    -2
284
     1
 64
     0
275
    -2
285
     1
 65
     0
276
    -2
286
     1
 66
     0
277
    -2
287
     1
 67
     0
278
    -2
288
     1
 68
     0
279
    -2
289
     1
 69
     0
  7
Standard
140
4.5
170
     5
 62
     0
 63
     7
283
     0
 90
      512
 91
        0
  1

274
    -2
284
     1
 64
     0
275
    -2
285
     1
 65
     0
276
    -2
286
     1
 66
     0
277
    -2
287
     1
 67
     0
278
    -2
288
     1
 68
     0
279
    -2
289
     1
 69
     0
  0
VISUALSTYLE
  5
F5
102
{ACAD_REACTORS
330
EF
102
}
330
EF
100
AcDbVisualStyle
  2
2dWireframe
 70
     4
 71
     0
 72
     2
 73
     1
 90
        0
 40
-0.6
 41
-30.0
 62
     5
 63
     7
421
 16777215
 74
     1
 91
        4
 64
     7
 65
   257
 75
     1
175
     1
 42
1.0
 92
        0
 66
   257
 43
1.0
 76
     1
 77
     6
 78
     2
 67
     7
 79
     5
170
     0
171
     0
290
     0
174
     0
 93
        1
 44
0.0
173
     0
291
     0
 45
0.0
  0
VISUALSTYLE
  5
F7
102
{ACAD_REACTORS
330
EF
102
}
330
EF
100
AcDbVisualStyle
  2
3D Hidden
 70
     6
 71
     1
 72
     2
 73
     2
 90
        0
 40
-0.6
 41
-30.0
 62
     5
 63
     7
421
 16777215
 74
     2
 91
        2
 64
     7
 65
   257
 75
     2
175
     1
 42
40.0
 92
        0
 66
   257
 43
1.0
 76
     1
 77
     6
 78
     2
 67
     7
 79
     3
170
     0
171
     0
290
     0
174
     0
 93
        1
 44
0.0
173
     0
291
     0
 45
0.0
  0
VISUALSTYLE
  5
F6
102
{ACAD_REACTORS
330
EF
102
}
330
EF
100
AcDbVisualStyle
  2
3dWireframe
 70
     5
 71
     0
 72
     2
 73
     1
 90
        0
 40
-0.6
 41
-30.0
 62
     5
 63
     7
421
 16777215
 74
     1
 91
        4
 64
     7
 65
   257
 75
     1
175
     1
 42
1.0
 92
        0
 66
   257
 43
1.0
 76
     1
 77
     6
 78
     2
 67
     7
 79
     5
170
     0
171
     0
290
     0
174
     0
 93
        1
 44
0.0
173
     0
291
     0
 45
0.0
  0
VISUALSTYLE
  5
F4
102
{ACAD_REACTORS
330
EF
102
}
330
EF
100
AcDbVisualStyle
  2
Basic
 70
     7
 71
     1
 72
     0
 73
     1
 90
        0
 40
-0.6
 41
-30.0
 62
     5
 63
     7
421
 16777215
 74
     0
 91
        4
 64
     7
 65
   257
 75
     1
175
     1
 42
1.0
 92
        8
 66
     7
 43
1.0
 76
     1
 77
     6
 78
     2
 67
     7
 79
     5
170
     0
171
     0
290
     0
174
     0
 93
        1
 44
0.0
173
     0
291
     1
 45
0.0
  0
VISUALSTYLE
  5
FB
102
{ACAD_REACTORS
330
EF
102
}
330
EF
100
AcDbVisualStyle
  2
Brighten
 70
    12
 71
     2
 72
     2
 73
     1
 90
        0
 40
-0.6
 41
-30.0
 62
     5
 63
     7
421
 16777215
 74
     1
 91
        4
 64
     7
 65
   257
 75
     1
175
     1
 42
1.0
 92
        8
 66
     7
 43
1.0
 76
     1
 77
     6
 78
     2
 67
     7
 79
     5
170
     0
171
     0
290
     0
174
     0
 93
        1
 44
50.0
173
     0
291
     1
 45
0.0
  0
VISUALSTYLE
  5
FF
102
{ACAD_REACTORS
330
EF
102
}
330
EF
100
AcDbVisualStyle
  2
ColorChange
 70
    16
 71
     2
 72
     2
 73
     3
 90
        0
 40
-0.6
 41
-30.0
 62
     5
 63
     8
421
  8421504
 74
     1
 91
        4
 64
     7
 65
   257
 75
     1
175
     1
 42
1.0
 92
        8
 66
     8
424
  8421504
 43
1.0
 76
     1
 77
     6
 78
     2
 67
     7
 79
     5
170
     0
171
     0
290
     0
174
     0
 93
        1
 44
0.0
173
     0
291
     1
 45
0.0
  0
VISUALSTYLE
  5
F8
102
{ACAD_REACTORS
330
EF
102
}
330
EF
100
AcDbVisualStyle
  2
Conceptual
 70
     9
 71
     3
 72
     2
 73
     1
 90
        0
 40
-0.6
 41
-30.0
 62
     5
 63
     7
421
 16777215
 74
     2
 91
        2
 64
     7
 65
   257
 75
     1
175
     1
 42
40.0
 92
        8
 66
     7
 43
1.0
 76
     1
 77
     6
 78
     2
 67
     7
 79
     3
170
     0
171
     0
290
     0
174
     0
 93
        1
 44
0.0
173
     0
291
     0
 45
0.0
  0
VISUALSTYLE
  5
FA
102
{ACAD_REACTORS
330
EF
102
}
330
EF
100
AcDbVisualStyle
  2
Dim
 70
    11
 71
     2
 72
     2
 73
     1
 90
        0
 40
-0.6
 41
-30.0
 62
     5
 63
     7
421
 16777215
 74
     1
 91
        4
 64
     7
 65
   257
 75
     1
175
     1
 42
1.0
 92
        8
 66
     7
 43
1.0
 76
     1
 77
     6
 78
     2
 67
     7
 79
     5
170
     0
171
     0
290
     0
174
     0
 93
        1
 44
-50.0
173
     0
291
     1
 45
0.0
  0
VISUALSTYLE
  5
FE
102
{ACAD_REACTORS
330
EF
102
}
330
EF
100
AcDbVisualStyle
  2
Facepattern
 70
    15
 71
     2
 72
     2
 73
     1
 90
        0
 40
-0.6
 41
-30.0
 62
     5
 63
     7
421
 16777215
 74
     1
 91
        4
 64
     7
 65
   257
 75
     1
175
     1
 42
1.0
 92
        8
 66
     7
 43
1.0
 76
     1
 77
     6
 78
     2
 67
     7
 79
     5
170
     0
171
     0
290
     0
174
     0
 93
        1
 44
0.0
173
     0
291
     1
 45
0.0
  0
VISUALSTYLE
  5
F0
102
{ACAD_REACTORS
330
EF
102
}
330
EF
100
AcDbVisualStyle
  2
Flat
 70
     0
 71
     2
 72
     1
 73
     1
 90
        2
 40
-0.6
 41
30.0
 62
     5
 63
     7
421
 16777215
 74
     0
 91
        4
 64
     7
 65
   257
 75
     1
175
     1
 42
1.0
 92
        8
 66
     7
 43
1.0
 76
     1
 77
     6
 78
     2
 67
     7
 79
     5
170
     0
171
     0
290
     0
174
     0
 93
        1
 44
0.0
173
     0
291
     1
 45
0.0
  0
VISUALSTYLE
  5
F1
102
{ACAD_REACTORS
330
EF
102
}
330
EF
100
AcDbVisualStyle
  2
FlatWithEdges
 70
     1
 71
     2
 72
     1
 73
     1
 90
        2
 40
-0.6
 41
30.0
 62
     5
 63
     7
421
 16777215
 74
     1
 91
        4
 64
     7
 65
   257
 75
     1
175
     1
 42
1.0
 92
        0
 66
   257
 43
1.0
 76
     1
 77
     6
 78
     2
 67
     7
 79
     5
170
     0
171
     0
290
     0
174
     0
 93
        1
 44
0.0
173
     0
291
     1
 45
0.0
  0
VISUALSTYLE
  5
F2
102
{ACAD_REACTORS
330
EF
102
}
330
EF
100
AcDbVisualStyle
  2
Gouraud
 70
     2
 71
     2
 72
     2
 73
     1
 90
        2
 40
-0.6
 41
30.0
 62
     5
 63
     7
421
 16777215
 74
     0
 91
        4
 64
     7
 65
   257
 75
     1
175
     1
 42
1.0
 92
        0
 66
     7
 43
1.0
 76
     1
 77
     6
 78
     2
 67
     7
 79
     5
170
     0
171
     0
290
     0
174
     0
 93
        1
 44
0.0
173
     0
291
     1
 45
0.0
  0
VISUALSTYLE
  5
F3
102
{ACAD_REACTORS
330
EF
102
}
330
EF
100
AcDbVisualStyle
  2
GouraudWithEdges
 70
     3
 71
     2
 72
     2
 73
     1
 90
        2
 40
-0.6
 41
30.0
 62
     5
 63
     7
421
 16777215
 74
     1
 91
        4
 64
     7
 65
   257
 75
     1
175
     1
 42
1.0
 92
        0
 66
   257
 43
1.0
 76
     1
 77
     6
 78
     2
 67
     7
 79
     5
170
     0
171
     0
290
     0
174
     0
 93
        1
 44
0.0
173
     0
291
     1
 45
0.0
  0
VISUALSTYLE
  5
FD
102
{ACAD_REACTORS
330
EF
102
}
330
EF
100
AcDbVisualStyle
  2
Linepattern
 70
    14
 71
     2
 72
     2
 73
     1
 90
        0
 40
-0.6
 41
-30.0
 62
     5
 63
     7
421
 16777215
 74
     1
 91
        4
 64
     7
 65
   257
 75
     7
175
     7
 42
1.0
 92
        8
 66
     7
 43
1.0
 76
     1
 77
     6
 78
     2
 67
     7
 79
     5
170
     0
171
     0
290
     0
174
     0
 93
        1
 44
0.0
173
     0
291
     1
 45
0.0
  0
VISUALSTYLE
  5
F9
102
{ACAD_REACTORS
330
EF
102
}
330
EF
100
AcDbVisualStyle
  2
Realistic
 70
     8
 71
     2
 72
     2
 73
     1
 90
        0
 40
-0.6
 41
-30.0
 62
     5
 63
     7
421
 16777215
 74
     1
 91
        0
 64
     7
 65
   257
 75
     1
175
     1
 42
1.0
 92
        8
 66
     8
424
  7895160
 43
1.0
 76
     1
 77
     6
 78
     2
 67
     7
 79
     5
170
     0
171
     0
290
     0
174
     0
 93
       13
 44
0.0
173
     0
291
     0
 45
0.0
  0
VISUALSTYLE
  5
FC
102
{ACAD_REACTORS
330
EF
102
}
330
EF
100
AcDbVisualStyle
  2
Thicken
 70
    13
 71
     2
 72
     2
 73
     1
 90
        0
 40
-0.6
 41
-30.0
 62
     5
 63
     7
421
 16777215
 74
     1
 91
        4
 64
     7
 65
   257
 75
     1
175
     1
 42
1.0
 92
       12
 66
     7
 43
1.0
 76
     1
 77
     6
 78
     2
 67
     7
 79
     5
170
     0
171
     0
290
     0
174
     0
 93
        1
 44
0.0
173
     0
291
     1
 45
0.0
  0
DICTIONARYVAR
  5
84
102
{ACAD_REACTORS
330
5E
102
}
330
5E
100
DictionaryVariables
280
     0
  1
STANDARD
  0
DICTIONARYVAR
  5
5F
102
{ACAD_REACTORS
330
5E
102
}
330
5E
100
DictionaryVariables
280
     0
  1
2
  0
DICTIONARYVAR
  5
63
102
{ACAD_REACTORS
330
5E
102
}
330
5E
100
DictionaryVariables
280
     0
  1
1
  0
ENDSEC
  0
EOF
