  0
SECTION
  2
HEADER
  9
$ACADVER
  1
AC1021
  9
$ACADMAINTVER
 70
     1
  9
$DWGCODEPAGE
  3
ANSI_1254
  9
$LASTSAVEDBY
  1
uretim
  9
$INSBASE
 10
0.0
 20
0.0
 30
0.0
  9
$EXTMIN
 10
102516.0374986322
 20
941.0084118406011
 30
-0.0000000349181948
  9
$EXTMAX
 10
105859.6170134587
 20
6942.318528341529
 30
0.0000000814935746
  9
$LIMMIN
 10
0.0
 20
0.0
  9
$LIMMAX
 10
12.0
 20
9.0
  9
$ORTHOMODE
 70
     0
  9
$REGENMODE
 70
     1
  9
$FILLMODE
 70
     1
  9
$QTEXTMODE
 70
     0
  9
$MIRRTEXT
 70
     1
  9
$LTSCALE
 40
1.0
  9
$ATTMODE
 70
     1
  9
$TEXTSIZE
 40
0.2
  9
$TRACEWID
 40
0.05
  9
$TEXTSTYLE
  7
Standard
  9
$CLAYER
  8
0
  9
$CELTYPE
  6
ByBlock
  9
$CECOLOR
 62
     2
  9
$CELTSCALE
 40
1.0
  9
$DISPSILH
 70
     0
  9
$DIMSCALE
 40
1.0
  9
$DIMASZ
 40
0.18
  9
$DIMEXO
 40
0.0625
  9
$DIMDLI
 40
0.38
  9
$DIMRND
 40
0.0
  9
$DIMDLE
 40
0.0
  9
$DIMEXE
 40
0.18
  9
$DIMTP
 40
0.0
  9
$DIMTM
 40
0.0
  9
$DIMTXT
 40
15.0
  9
$DIMCEN
 40
0.09
  9
$DIMTSZ
 40
0.0
  9
$DIMTOL
 70
     0
  9
$DIMLIM
 70
     0
  9
$DIMTIH
 70
     1
  9
$DIMTOH
 70
     1
  9
$DIMSE1
 70
     0
  9
$DIMSE2
 70
     0
  9
$DIMTAD
 70
     0
  9
$DIMZIN
 70
     0
  9
$DIMBLK
  1

  9
$DIMASO
 70
     1
  9
$DIMSHO
 70
     1
  9
$DIMPOST
  1

  9
$DIMAPOST
  1

  9
$DIMALT
 70
     0
  9
$DIMALTD
 70
     2
  9
$DIMALTF
 40
25.4
  9
$DIMLFAC
 40
1.0
  9
$DIMTOFL
 70
     0
  9
$DIMTVP
 40
0.0
  9
$DIMTIX
 70
     0
  9
$DIMSOXD
 70
     0
  9
$DIMSAH
 70
     0
  9
$DIMBLK1
  1

  9
$DIMBLK2
  1

  9
$DIMSTYLE
  2
Standard
  9
$DIMCLRD
 70
     0
  9
$DIMCLRE
 70
     0
  9
$DIMCLRT
 70
     0
  9
$DIMTFAC
 40
1.0
  9
$DIMGAP
 40
0.09
  9
$DIMJUST
 70
     0
  9
$DIMSD1
 70
     0
  9
$DIMSD2
 70
     0
  9
$DIMTOLJ
 70
     1
  9
$DIMTZIN
 70
     0
  9
$DIMALTZ
 70
     0
  9
$DIMALTTZ
 70
     0
  9
$DIMUPT
 70
     0
  9
$DIMDEC
 70
     0
  9
$DIMTDEC
 70
     0
  9
$DIMALTU
 70
     2
  9
$DIMALTTD
 70
     2
  9
$DIMTXSTY
  7
Standard
  9
$DIMAUNIT
 70
     0
  9
$DIMADEC
 70
     0
  9
$DIMALTRND
 40
0.0
  9
$DIMAZIN
 70
     0
  9
$DIMDSEP
 70
    46
  9
$DIMATFIT
 70
     3
  9
$DIMFRAC
 70
     0
  9
$DIMLDRBLK
  1

  9
$DIMLUNIT
 70
     2
  9
$DIMLWD
 70
    -2
  9
$DIMLWE
 70
    -2
  9
$DIMTMOVE
 70
     2
  9
$DIMFXL
 40
1.0
  9
$DIMFXLON
 70
     0
  9
$DIMJOGANG
 40
0.7853981633974483
  9
$DIMTFILL
 70
     0
  9
$DIMTFILLCLR
 70
     0
  9
$DIMARCSYM
 70
     0
  9
$DIMLTYPE
  6

  9
$DIMLTEX1
  6

  9
$DIMLTEX2
  6

  9
$LUNITS
 70
     2
  9
$LUPREC
 70
     4
  9
$SKETCHINC
 40
0.1
  9
$FILLETRAD
 40
0.5
  9
$AUNITS
 70
     0
  9
$AUPREC
 70
     0
  9
$MENU
  1
.
  9
$ELEVATION
 40
0.0
  9
$PELEVATION
 40
0.0
  9
$THICKNESS
 40
0.0
  9
$LIMCHECK
 70
     0
  9
$CHAMFERA
 40
0.0
  9
$CHAMFERB
 40
0.0
  9
$CHAMFERC
 40
0.0
  9
$CHAMFERD
 40
0.0
  9
$SKPOLY
 70
     0
  9
$TDCREATE
 40
2457799.670250880
  9
$TDUCREATE
 40
2457799.545250880
  9
$TDUPDATE
 40
2457891.388243958
  9
$TDUUPDATE
 40
2457891.263243959
  9
$TDINDWG
 40
0.1617499653
  9
$TDUSRTIMER
 40
0.1617483796
  9
$USRTIMER
 70
     1
  9
$ANGBASE
 50
0.0
  9
$ANGDIR
 70
     0
  9
$PDMODE
 70
     0
  9
$PDSIZE
 40
0.0
  9
$PLINEWID
 40
0.0
  9
$SPLFRAME
 70
     0
  9
$SPLINETYPE
 70
     6
  9
$SPLINESEGS
 70
     8
  9
$HANDSEED
  5
76C0
  9
$SURFTAB1
 70
     6
  9
$SURFTAB2
 70
     6
  9
$SURFTYPE
 70
     6
  9
$SURFU
 70
     6
  9
$SURFV
 70
     6
  9
$UCSBASE
  2

  9
$UCSNAME
  2

  9
$UCSORG
 10
0.0
 20
0.0
 30
0.0
  9
$UCSXDIR
 10
1.0
 20
0.0
 30
0.0
  9
$UCSYDIR
 10
0.0
 20
1.0
 30
0.0
  9
$UCSORTHOREF
  2

  9
$UCSORTHOVIEW
 70
     1
  9
$UCSORGTOP
 10
0.0
 20
0.0
 30
0.0
  9
$UCSORGBOTTOM
 10
0.0
 20
0.0
 30
0.0
  9
$UCSORGLEFT
 10
0.0
 20
0.0
 30
0.0
  9
$UCSORGRIGHT
 10
0.0
 20
0.0
 30
0.0
  9
$UCSORGFRONT
 10
0.0
 20
0.0
 30
0.0
  9
$UCSORGBACK
 10
0.0
 20
0.0
 30
0.0
  9
$PUCSBASE
  2

  9
$PUCSNAME
  2

  9
$PUCSORG
 10
0.0
 20
0.0
 30
0.0
  9
$PUCSXDIR
 10
1.0
 20
0.0
 30
0.0
  9
$PUCSYDIR
 10
0.0
 20
1.0
 30
0.0
  9
$PUCSORTHOREF
  2

  9
$PUCSORTHOVIEW
 70
     0
  9
$PUCSORGTOP
 10
0.0
 20
0.0
 30
0.0
  9
$PUCSORGBOTTOM
 10
0.0
 20
0.0
 30
0.0
  9
$PUCSORGLEFT
 10
0.0
 20
0.0
 30
0.0
  9
$PUCSORGRIGHT
 10
0.0
 20
0.0
 30
0.0
  9
$PUCSORGFRONT
 10
0.0
 20
0.0
 30
0.0
  9
$PUCSORGBACK
 10
0.0
 20
0.0
 30
0.0
  9
$USERI1
 70
     0
  9
$USERI2
 70
     0
  9
$USERI3
 70
     0
  9
$USERI4
 70
     0
  9
$USERI5
 70
     0
  9
$USERR1
 40
0.0
  9
$USERR2
 40
0.0
  9
$USERR3
 40
0.0
  9
$USERR4
 40
0.0
  9
$USERR5
 40
0.0
  9
$WORLDVIEW
 70
     1
  9
$SHADEDGE
 70
     3
  9
$SHADEDIF
 70
    70
  9
$TILEMODE
 70
     1
  9
$MAXACTVP
 70
    64
  9
$PINSBASE
 10
0.0
 20
0.0
 30
0.0
  9
$PLIMCHECK
 70
     0
  9
$PEXTMIN
 10
1.000000000000000E+20
 20
1.000000000000000E+20
 30
1.000000000000000E+20
  9
$PEXTMAX
 10
-1.000000000000000E+20
 20
-1.000000000000000E+20
 30
-1.000000000000000E+20
  9
$PLIMMIN
 10
0.0
 20
0.0
  9
$PLIMMAX
 10
12.0
 20
9.0
  9
$UNITMODE
 70
     0
  9
$VISRETAIN
 70
     1
  9
$PLINEGEN
 70
     0
  9
$PSLTSCALE
 70
     1
  9
$TREEDEPTH
 70
  3020
  9
$CMLSTYLE
  2
Standard
  9
$CMLJUST
 70
     0
  9
$CMLSCALE
 40
1.0
  9
$PROXYGRAPHICS
 70
     1
  9
$MEASUREMENT
 70
     0
  9
$CELWEIGHT
370
    -1
  9
$ENDCAPS
280
     0
  9
$JOINSTYLE
280
     0
  9
$LWDISPLAY
290
     0
  9
$INSUNITS
 70
     0
  9
$HYPERLINKBASE
  1

  9
$STYLESHEET
  1
MONOCHROME.CTB
  9
$XEDIT
290
     1
  9
$CEPSNTYPE
380
     0
  9
$PSTYLEMODE
290
     1
  9
$FINGERPRINTGUID
  2
{486A88F6-9987-4F15-812E-293419DE7174}
  9
$VERSIONGUID
  2
{C202DD01-1FD0-438F-ACEA-8330565C98B7}
  9
$EXTNAMES
290
     1
  9
$PSVPSCALE
 40
0.0
  9
$OLESTARTUP
290
     0
  9
$SORTENTS
280
   127
  9
$INDEXCTL
280
     0
  9
$HIDETEXT
280
     1
  9
$XCLIPFRAME
290
     0
  9
$HALOGAP
280
     0
  9
$OBSCOLOR
 70
   257
  9
$OBSLTYPE
280
     0
  9
$INTERSECTIONDISPLAY
280
     0
  9
$INTERSECTIONCOLOR
 70
   257
  9
$DIMASSOC
280
     2
  9
$PROJECTNAME
  1

  9
$CAMERADISPLAY
290
     0
  9
$LENSLENGTH
 40
50.0
  9
$CAMERAHEIGHT
 40
0.0
  9
$STEPSPERSEC
 40
2.0
  9
$STEPSIZE
 40
6.0
  9
$3DDWFPREC
 40
2.0
  9
$PSOLWIDTH
 40
0.25
  9
$PSOLHEIGHT
 40
4.0
  9
$LOFTANG1
 40
1.570796326794896
  9
$LOFTANG2
 40
1.570796326794896
  9
$LOFTMAG1
 40
0.0
  9
$LOFTMAG2
 40
0.0
  9
$LOFTPARAM
 70
     7
  9
$LOFTNORMALS
280
     1
  9
$LATITUDE
 40
37.795
  9
$LONGITUDE
 40
-122.394
  9
$NORTHDIRECTION
 40
0.0
  9
$TIMEZONE
 70
 -8000
  9
$LIGHTGLYPHDISPLAY
280
     1
  9
$TILEMODELIGHTSYNCH
280
     1
  9
$CMATERIAL
347
12C8
  9
$SOLIDHIST
280
     1
  9
$SHOWHIST
280
     1
  9
$DWFFRAME
280
     2
  9
$DGNFRAME
280
     0
  9
$REALWORLDSCALE
290
     1
  9
$INTERFERECOLOR
 62
     1
  9
$INTERFEREOBJVS
345
12B7
  9
$INTERFEREVPVS
346
1318
  9
$CSHADOW
280
     0
  9
$SHADOWPLANELOCATION
 40
0.0
  0
ENDSEC
  0
SECTION
  2
CLASSES
  0
CLASS
  1
ACDBDICTIONARYWDFLT
  2
AcDbDictionaryWithDefault
  3
ObjectDBX Classes
 90
        0
 91
        1
280
     0
281
     0
  0
CLASS
  1
SCALE
  2
AcDbScale
  3
ObjectDBX Classes
 90
     1153
 91
       33
280
     0
281
     0
  0
CLASS
  1
VISUALSTYLE
  2
AcDbVisualStyle
  3
ObjectDBX Classes
 90
     4095
 91
       26
280
     0
281
     0
  0
CLASS
  1
MATERIAL
  2
AcDbMaterial
  3
ObjectDBX Classes
 90
     1024
 91
        3
280
     0
281
     0
  0
CLASS
  1
TABLESTYLE
  2
AcDbTableStyle
  3
ObjectDBX Classes
 90
     4095
 91
        1
280
     0
281
     0
  0
CLASS
  1
MLEADERSTYLE
  2
AcDbMLeaderStyle
  3
ACDB_MLEADERSTYLE_CLASS
 90
     4095
 91
        1
280
     0
281
     0
  0
CLASS
  1
DICTIONARYVAR
  2
AcDbDictionaryVar
  3
ObjectDBX Classes
 90
        0
 91
        5
280
     0
281
     0
  0
CLASS
  1
CELLSTYLEMAP
  2
AcDbCellStyleMap
  3
ObjectDBX Classes
 90
     1152
 91
        1
280
     0
281
     0
  0
CLASS
  1
DIMASSOC
  2
AcDbDimAssoc
  3
"AcDbDimAssoc|Product Desc:     AcDim ARX App For Dimension|Company:          Autodesk, Inc.|WEB Address:      www.autodesk.com"
 90
        0
 91
        0
280
     0
281
     0
  0
CLASS
  1
SORTENTSTABLE
  2
AcDbSortentsTable
  3
ObjectDBX Classes
 90
        0
 91
       12
280
     0
281
     0
  0
CLASS
  1
EXACXREFPANELOBJECT
  2
ExAcXREFPanelObject
  3
EXAC_ESW
 90
     1025
 91
        0
280
     0
281
     0
  0
CLASS
  1
NPOCOLLECTION
  2
AcDbImpNonPersistentObjectsCollection
  3
ObjectDBX Classes
 90
     1153
 91
        0
280
     0
281
     0
  0
ENDSEC
  0
SECTION
  2
TABLES
  0
TABLE
  2
VPORT
  5
8
330
0
100
AcDbSymbolTable
 70
     1
  0
VPORT
  5
21
330
8
100
AcDbSymbolTableRecord
100
AcDbViewportTableRecord
  2
*Active
 70
     0
 10
0.0
 20
0.0
 11
1.0
 21
1.0
 12
104943.1899593082
 22
4379.979595442606
 13
0.0
 23
0.0
 14
0.5
 24
0.5
 15
0.5
 25
0.5
 16
0.0
 26
0.0
 36
1.0
 17
0.0
 27
0.0
 37
0.0
 40
10482.47903283472
 41
1.589641434262948
 42
50.0
 43
0.0
 44
0.0
 50
0.0
 51
0.0
 71
     0
 72
   100
 73
     1
 74
     3
 75
     0
 76
     0
 77
     0
 78
     0
281
     0
 65
     1
110
0.0
120
0.0
130
0.0
111
1.0
121
0.0
131
0.0
112
0.0
122
1.0
132
0.0
 79
     0
146
0.0
348
12B3
 60
     3
 61
     5
292
     1
282
     1
141
0.0
142
0.0
 63
   250
421
  3355443
  0
ENDTAB
  0
TABLE
  2
LTYPE
  5
5
330
0
100
AcDbSymbolTable
 70
     1
  0
LTYPE
  5
14
330
5
100
AcDbSymbolTableRecord
100
AcDbLinetypeTableRecord
  2
ByBlock
 70
     0
  3

 72
    65
 73
     0
 40
0.0
  0
LTYPE
  5
15
330
5
100
AcDbSymbolTableRecord
100
AcDbLinetypeTableRecord
  2
ByLayer
 70
     0
  3

 72
    65
 73
     0
 40
0.0
  0
LTYPE
  5
16
330
5
100
AcDbSymbolTableRecord
100
AcDbLinetypeTableRecord
  2
Continuous
 70
     0
  3
Solid line
 72
    65
 73
     0
 40
0.0
  0
ENDTAB
  0
TABLE
  2
LAYER
  5
2
102
{ACAD_XDICTIONARY
360
4580
102
}
330
0
100
AcDbSymbolTable
 70
     3
  0
LAYER
  5
10
330
2
100
AcDbSymbolTableRecord
100
AcDbLayerTableRecord
  2
0
 70
     0
 62
     7
  6
Continuous
370
    -3
390
F
347
12CA
  0
LAYER
  5
1320
330
2
100
AcDbSymbolTableRecord
100
AcDbLayerTableRecord
  2
Defpoints
 70
     0
 62
     7
  6
Continuous
290
     0
370
    -3
390
F
347
12CA
  0
LAYER
  5
280A
330
2
100
AcDbSymbolTableRecord
100
AcDbLayerTableRecord
  2
Layer1
 70
     0
 62
     7
  6
Continuous
370
    -3
390
F
347
12CA
1001
AcAecLayerStandard
1000

1000

  0
ENDTAB
  0
TABLE
  2
STYLE
  5
3
330
0
100
AcDbSymbolTable
 70
     1
  0
STYLE
  5
11
330
3
100
AcDbSymbolTableRecord
100
AcDbTextStyleTableRecord
  2
Standard
 70
     0
 40
0.0
 41
1.0
 50
0.0
 71
     0
 42
0.2
  3
txt
  4

  0
ENDTAB
  0
TABLE
  2
VIEW
  5
6
330
0
100
AcDbSymbolTable
 70
     0
  0
ENDTAB
  0
TABLE
  2
UCS
  5
7
330
0
100
AcDbSymbolTable
 70
     0
  0
ENDTAB
  0
TABLE
  2
APPID
  5
9
330
0
100
AcDbSymbolTable
 70
     5
  0
APPID
  5
12
330
9
100
AcDbSymbolTableRecord
100
AcDbRegAppTableRecord
  2
ACAD
 70
     0
  0
APPID
  5
130D
330
9
100
AcDbSymbolTableRecord
100
AcDbRegAppTableRecord
  2
ACAD_MLEADERVER
 70
     0
  0
APPID
  5
13B2
330
9
100
AcDbSymbolTableRecord
100
AcDbRegAppTableRecord
  2
ACAD_EXEMPT_FROM_CAD_STANDARDS
 70
     0
  0
APPID
  5
280C
330
9
100
AcDbSymbolTableRecord
100
AcDbRegAppTableRecord
  2
ACAD_PSEXT
 70
     0
  0
APPID
  5
280D
330
9
100
AcDbSymbolTableRecord
100
AcDbRegAppTableRecord
  2
AcAecLayerStandard
 70
     0
  0
ENDTAB
  0
TABLE
  2
DIMSTYLE
  5
A
330
0
100
AcDbSymbolTable
 70
     2
100
AcDbDimStyleTable
 71
     1
340
20
  0
DIMSTYLE
105
20
330
A
100
AcDbSymbolTableRecord
100
AcDbDimStyleTableRecord
  2
Standard
 70
     0
140
15.0
271
     1
272
     1
340
11
  0
DIMSTYLE
105
280B
330
A
100
AcDbSymbolTableRecord
100
AcDbDimStyleTableRecord
  2
ISO-25
 70
     0
 41
2.5
 42
0.625
 43
3.75
 44
1.25
 73
     0
 74
     0
 77
     1
 78
     8
140
2.5
141
2.5
143
0.03937007874016
147
0.625
171
     3
172
     1
271
     2
272
     2
274
     3
278
    44
283
     0
284
     8
340
11
  0
ENDTAB
  0
TABLE
  2
BLOCK_RECORD
  5
1
330
0
100
AcDbSymbolTable
 70
     1
  0
BLOCK_RECORD
  5
1D
102
{ACAD_XDICTIONARY
360
1382
102
}
330
1
100
AcDbSymbolTableRecord
100
AcDbBlockTableRecord
  2
*Model_Space
340
1E
 70
     0
280
     1
281
     0
  0
BLOCK_RECORD
  5
1B
330
1
100
AcDbSymbolTableRecord
100
AcDbBlockTableRecord
  2
*Paper_Space
340
1C
 70
     0
280
     1
281
     0
  0
BLOCK_RECORD
  5
5192
330
1
100
AcDbSymbolTableRecord
100
AcDbBlockTableRecord
  2
g
340
0
310
2800000020000000200000000100080000000000000400000000000000000000000000000000000000000000000080000080000000808000800000008000800080800000C0C0C000C0DCC000F0CAA6000020400000206000002080000020A0000020C0000020E00000400000004020000040400000406000004080000040A0
310
000040C0000040E00000600000006020000060400000606000006080000060A0000060C0000060E00000800000008020000080400000806000008080000080A0000080C0000080E00000A0000000A0200000A0400000A0600000A0800000A0A00000A0C00000A0E00000C0000000C0200000C0400000C0600000C0800000C0
310
A00000C0C00000C0E00000E0000000E0200000E0400000E0600000E0800000E0A00000E0C00000E0E00040000000400020004000400040006000400080004000A0004000C0004000E00040200000402020004020400040206000402080004020A0004020C0004020E000404000004040200040404000404060004040800040
310
40A0004040C0004040E00040600000406020004060400040606000406080004060A0004060C0004060E00040800000408020004080400040806000408080004080A0004080C0004080E00040A0000040A0200040A0400040A0600040A0800040A0A00040A0C00040A0E00040C0000040C0200040C0400040C0600040C08000
310
40C0A00040C0C00040C0E00040E0000040E0200040E0400040E0600040E0800040E0A00040E0C00040E0E00080000000800020008000400080006000800080008000A0008000C0008000E00080200000802020008020400080206000802080008020A0008020C0008020E00080400000804020008040400080406000804080
310
008040A0008040C0008040E00080600000806020008060400080606000806080008060A0008060C0008060E00080800000808020008080400080806000808080008080A0008080C0008080E00080A0000080A0200080A0400080A0600080A0800080A0A00080A0C00080A0E00080C0000080C0200080C0400080C0600080C0
310
800080C0A00080C0C00080C0E00080E0000080E0200080E0400080E0600080E0800080E0A00080E0C00080E0E000C0000000C0002000C0004000C0006000C0008000C000A000C000C000C000E000C0200000C0202000C0204000C0206000C0208000C020A000C020C000C020E000C0400000C0402000C0404000C0406000C0
310
408000C040A000C040C000C040E000C0600000C0602000C0604000C0606000C0608000C060A000C060C000C060E000C0800000C0802000C0804000C0806000C0808000C080A000C080C000C080E000C0A00000C0A02000C0A04000C0A06000C0A08000C0A0A000C0A0C000C0A0E000C0C00000C0C02000C0C04000C0C06000
310
C0C08000C0C0A000F0FBFF00A4A0A000808080000000FF0000FF000000FFFF00FF000000FF00FF00FFFF0000FFFFFF000000000000000000000000000000000000000000000000000000000000000000000000000000000000FFFFFFFFFFFFFFFFFFFFFFFFFFFF000000000000000000000000000000000000FFFFFFFFFFFF
310
FFFFFFFFFFFFFFFF000000000000000000000000000000000000FFFFFFFFFFFFFFFFFFFFFFFFFFFF000000000000000000000000000000000000FFFFFFFFFFFFFFFFFFFFFFFFFFFF000000000000000000000000000000000000FFFFFFFFFFFFFFFFFFFFFFFFFFFF000000000000000000000000000000000000FFFFFFFFFF
310
FFFFFFFFFFFFFFFFFF000000000000000000000000000000000000FFFFFFFFFFFFFFFFFFFFFFFFFFFF000000000000000000000000000000000000FFFFFFFFFFFFFFFFFFFFFFFFFFFF000000000000000000000000000000000000FFFFFFFFFFFFFFFFFFFFFFFFFFFF000000000000000000000000000000000000FFFFFFFF
310
FFFFFFFFFFFFFFFFFFFF000000000000000000000000000000000000FFFFFFFFFFFFFFFFFFFFFFFFFFFF000000000000000000000000000000000000FFFFFFFFFFFFFFFFFFFFFFFFFFFF000000000000000000000000000000000000FFFFFFFFFFFFFFFFFFFFFFFFFFFF000000000000000000000000000000000000FFFFFF
310
FFFFFFFFFFFFFFFFFFFFFF000000000000000000000000000000000000FFFFFFFFFFFFFFFFFFFFFFFFFFFF000000000000000000000000000000000000FFFFFFFFFFFFFFFFFFFFFFFFFFFF000000000000000000000000000000000000FFFFFFFFFFFFFFFFFFFFFFFFFFFF000000000000000000000000000000000000FFFF
310
FFFFFFFFFFFFFFFFFFFFFFFF000000000000000000000000000000000000FFFFFFFFFFFFFFFFFFFFFFFFFFFF000000000000000000000000000000000000FFFFFFFFFFFFFFFFFFFFFFFFFFFF000000000000000000000000000000000000FFFFFFFFFFFFFFFFFFFFFFFFFFFF000000000000000000000000000000000000FF
310
FFFFFFFFFFFFFFFFFFFFFFFFFF000000000000000000000000000000000000FFFFFFFFFFFFFFFFFFFFFFFFFFFF000000000000000000000000000000000000FFFFFFFFFFFFFFFFFFFFFFFFFFFF000000000000000000000000000000000000FFFFFFFFFFFFFFFFFFFFFFFFFFFF000000000000000000000000000000000000
310
FFFFFFFFFFFFFFFFFFFFFFFFFFFF000000000000000000000000000000000000FFFFFFFFFFFFFFFFFFFFFFFFFFFF000000000000000000000000000000000000FFFFFFFFFFFFFFFFFFFFFFFFFFFF000000000000000000000000000000000000FFFFFFFFFFFFFFFFFFFFFFFFFFFF0000000000000000000000000000000000
310
00FFFFFFFFFFFFFFFFFFFFFFFFFFFF0000000000000000000000000000000000000000000000000000000000000000000000000000000000
 70
     0
280
     1
281
     0
  0
ENDTAB
  0
ENDSEC
  0
SECTION
  2
BLOCKS
  0
BLOCK
  5
12AA
330
1D
100
AcDbEntity
  8
0
100
AcDbBlockBegin
  2
*Model_Space
 70
     0
 10
0.0
 20
0.0
 30
0.0
  3
*Model_Space
  1

  0
ENDBLK
  5
12AB
330
1D
100
AcDbEntity
  8
0
100
AcDbBlockEnd
  0
BLOCK
  5
12AC
330
1B
100
AcDbEntity
 67
     1
  8
0
100
AcDbBlockBegin
  2
*Paper_Space
 70
     0
 10
0.0
 20
0.0
 30
0.0
  3
*Paper_Space
  1

  0
ENDBLK
  5
12AD
330
1B
100
AcDbEntity
 67
     1
  8
0
100
AcDbBlockEnd
  0
BLOCK
  5
5193
330
5192
100
AcDbEntity
  8
0
 62
     5
100
AcDbBlockBegin
  2
g
 70
     0
 10
0.0
 20
0.0
 30
0.0
  3
g
  1

  0
CIRCLE
  5
5194
330
5192
100
AcDbEntity
  8
0
 62
     0
100
AcDbCircle
 10
1539.828054733429
 20
1117.527938040762
 30
0.0
 40
39.51924966126357
  0
ELLIPSE
  5
5195
330
5192
100
AcDbEntity
  8
0
 62
     0
100
AcDbEllipse
 10
1474.490288342946
 20
2198.407413211346
 30
0.0
 11
-30.42603706014464
 21
0.0
 31
0.0
210
0.0
220
0.0
230
1.0
 40
0.3372402171875113
 41
6.009348737011023
 42
9.698614530937939
  0
ELLIPSE
  5
5196
330
5192
100
AcDbEntity
  8
0
 62
     0
100
AcDbEllipse
 10
1351.831720427145
 20
2182.87404952114
 30
0.0
 11
-28.26679488046243
 21
-10.11396515030851
 31
0.0
210
0.0
220
0.0
230
1.0
 40
0.4689952453060453
 41
0.0
 42
6.283185307179584
  0
ELLIPSE
  5
5197
330
5192
100
AcDbEntity
  8
0
 62
     0
100
AcDbEllipse
 10
1412.029527829577
 20
2160.204819195214
 30
0.0
 11
-30.18614888799537
 21
-9.416451186637837
 31
0.0
210
0.0
220
0.0
230
1.0
 40
0.4997640396812409
 41
0.0
 42
6.283185307179584
  0
ELLIPSE
  5
5198
330
5192
100
AcDbEntity
  8
0
 62
     0
100
AcDbEllipse
 10
1474.321171592762
 20
2130.909195842257
 30
0.0
 11
-32.4544676019878
 21
-6.277632587808718
 31
0.0
210
0.0
220
0.0
230
1.0
 40
0.5310369267309467
 41
0.0
 42
6.283185307179584
  0
ELLIPSE
  5
5199
330
5192
100
AcDbEntity
  8
0
 62
     0
100
AcDbEllipse
 10
1403.169136683174
 20
2080.32190106752
 30
0.0
 11
-30.18144897261939
 21
-13.57327198377746
 31
0.0
210
0.0
220
0.0
230
1.0
 40
0.6086522554516111
 41
0.0
 42
6.283185307179584
  0
ELLIPSE
  5
519A
330
5192
100
AcDbEntity
  8
0
 62
     0
100
AcDbEllipse
 10
1342.338821727409
 20
2111.723676890981
 30
0.0
 11
-29.78965568577537
 21
-14.27805798441649
 31
0.0
210
0.0
220
0.0
230
1.0
 40
0.5613751132608095
 41
0.0
 42
6.283185307179584
  0
ELLIPSE
  5
519B
330
5192
100
AcDbEntity
  8
0
 62
     0
100
AcDbEllipse
 10
1287.894937855544
 20
2132.999248414751
 30
0.0
 11
-27.52052691810872
 21
-15.66173876817708
 31
0.0
210
0.0
220
0.0
230
0.9999999999999998
 40
0.3840801736235547
 41
0.0
 42
6.283185307179584
  0
ELLIPSE
  5
519C
330
5192
100
AcDbEntity
  8
0
 62
     0
100
AcDbEllipse
 10
1237.546508911712
 20
2147.603017592848
 30
0.0
 11
-24.42389223102677
 21
-15.82364819348806
 31
0.0
210
0.0
220
0.0
230
1.0
 40
0.4305391531601336
 41
0.0
 42
6.283185307179584
  0
ELLIPSE
  5
519D
330
5192
100
AcDbEntity
  8
0
 62
     0
100
AcDbEllipse
 10
1194.380593304909
 20
2153.076176193047
 30
0.0
 11
-22.41694816237614
 21
-16.02342061445038
 31
0.0
210
0.0
220
0.0
230
1.0
 40
0.3779979851668673
 41
0.0
 42
6.283185307179584
  0
ELLIPSE
  5
519E
330
5192
100
AcDbEntity
  8
0
 62
     0
100
AcDbEllipse
 10
1156.410999579163
 20
2155.452516529645
 30
0.0
 11
-20.88636778616046
 21
-15.15950723243758
 31
0.0
210
0.0
220
0.0
230
0.9999999999999998
 40
0.3620484457960908
 41
0.0
 42
6.283185307179584
  0
ELLIPSE
  5
519F
330
5192
100
AcDbEntity
  8
0
 62
     0
100
AcDbEllipse
 10
1123.739585968737
 20
2158.017969011142
 30
0.0
 11
-19.71952958070463
 21
-14.92628344142003
 31
0.0
210
0.0
220
0.0
230
0.9999999999999998
 40
0.3132060541742065
 41
0.0
 42
6.283185307179584
  0
ELLIPSE
  5
51A0
330
5192
100
AcDbEntity
  8
0
 62
     0
100
AcDbEllipse
 10
1092.351698394478
 20
2162.33259877281
 30
0.0
 11
-17.26917335941397
 21
-14.80967269837363
 31
0.0
210
0.0
220
0.0
230
1.0
 40
0.351703405504709
 41
0.0
 42
6.283185307179584
  0
ELLIPSE
  5
51A1
330
5192
100
AcDbEntity
  8
0
 62
     0
100
AcDbEllipse
 10
1058.012271209194
 20
2176.526367276041
 30
0.0
 11
-16.08965423127789
 21
-16.08965423127789
 31
0.0
210
0.0
220
0.0
230
0.9999999999999998
 40
0.5254634900290626
 41
0.0
 42
6.283185307179584
  0
ELLIPSE
  5
51A2
330
5192
100
AcDbEntity
  8
0
 62
     0
100
AcDbEllipse
 10
1048.072404114523
 20
2103.587166443769
 30
0.0
 11
-15.0808053389707
 21
-22.73497138406114
 31
0.0
210
0.0
220
0.0
230
1.0
 40
0.2810715458434808
 41
0.0
 42
6.283185307179584
  0
ELLIPSE
  5
51A3
330
5192
100
AcDbEntity
  8
0
 62
     0
100
AcDbEllipse
 10
1076.572566636067
 20
2098.60590640253
 30
0.0
 11
-15.97542941848766
 21
-21.58545019068723
 31
0.0
210
0.0
220
0.0
230
1.0
 40
0.1951258246945301
 41
0.0
 42
6.283185307179584
  0
ELLIPSE
  5
51A4
330
5192
100
AcDbEntity
  8
0
 62
     0
100
AcDbEllipse
 10
1105.839557244659
 20
2096.945489462019
 30
0.0
 11
-17.63687356470898
 21
-20.69137917580726
 31
0.0
210
0.0
220
0.0
230
1.0
 40
0.3037436373290199
 41
0.0
 42
6.283185307179584
  0
ELLIPSE
  5
51A5
330
5192
100
AcDbEntity
  8
0
 62
     0
100
AcDbEllipse
 10
1138.998960020807
 20
2095.54320563218
 30
0.0
 11
-21.40148973977637
 21
-22.09903347985646
 31
0.0
210
0.0
220
0.0
230
1.0
 40
0.2954908278377448
 41
0.0
 42
6.283185307179584
  0
ELLIPSE
  5
51A6
330
5192
100
AcDbEntity
  8
0
 62
     0
100
AcDbEllipse
 10
1176.568094489463
 20
2087.382617943074
 30
0.0
 11
-22.33728620082914
 21
-20.73605091859239
 31
0.0
210
0.0
220
0.0
230
1.0
 40
0.3826752338158837
 41
0.0
 42
6.283185307179584
  0
ELLIPSE
  5
51A7
330
5192
100
AcDbEntity
  8
0
 62
     0
100
AcDbEllipse
 10
1222.369852568216
 20
2073.49215837662
 30
0.0
 11
-24.58707794465547
 21
-20.89923266225676
 31
0.0
210
0.0
220
0.0
230
1.0
 40
0.4144710327891679
 41
0.0
 42
6.283185307179584
  0
ELLIPSE
  5
51A8
330
5192
100
AcDbEntity
  8
0
 62
     0
100
AcDbEllipse
 10
1273.846790544174
 20
2051.520282974568
 30
0.0
 11
-26.5156633559373
 21
-20.23183023296224
 31
0.0
210
0.0
220
0.0
230
1.0
 40
0.5447945635724488
 41
0.0
 42
6.283185307179584
  0
ELLIPSE
  5
51A9
330
5192
100
AcDbEntity
  8
0
 62
     0
100
AcDbEllipse
 10
1332.547606726672
 20
2020.936432678415
 30
0.0
 11
-28.36117014364141
 21
-19.08012858096033
 31
0.0
210
0.0
220
0.0
230
1.0
 40
0.6609049286427032
 41
0.0
 42
6.283185307179584
  0
ELLIPSE
  5
51AA
330
5192
100
AcDbEntity
  8
0
 62
     0
100
AcDbEllipse
 10
1396.950306506445
 20
1979.302870876207
 30
0.0
 11
-29.02016885821378
 21
-18.64430883640123
 31
0.0
210
0.0
220
0.0
230
1.0
 40
0.7880072252956542
 41
0.0
 42
6.283185307179584
  0
ELLIPSE
  5
51AB
330
5192
100
AcDbEntity
  8
0
 62
     0
100
AcDbEllipse
 10
1467.02182204884
 20
1930.609216833
 30
0.0
 11
-31.43125351698556
 21
-15.93577124842758
 31
0.0
210
0.0
220
0.0
230
1.0
 40
0.825027248145369
 41
0.0
 42
6.283185307179584
  0
ELLIPSE
  5
51AC
330
5192
100
AcDbEntity
  8
0
 62
     0
100
AcDbEllipse
 10
1392.179379099032
 20
1860.825420141485
 30
0.0
 11
-27.76228382794173
 21
-22.15758547830683
 31
0.0
210
0.0
220
0.0
230
0.9999999999999998
 40
0.7814370002040994
 41
0.0
 42
6.283185307179584
  0
ELLIPSE
  5
51AD
330
5192
100
AcDbEntity
  8
0
 62
     0
100
AcDbEllipse
 10
1322.09697595403
 20
1911.704965520149
 30
0.0
 11
-27.357176787645
 21
-22.41564483139607
 31
0.0
210
0.0
220
0.0
230
1.0
 40
0.7577332530563343
 41
0.0
 42
6.283185307179584
  0
ELLIPSE
  5
51AE
330
5192
100
AcDbEntity
  8
0
 62
     0
100
AcDbEllipse
 10
1261.585252124213
 20
1951.830380808654
 30
0.0
 11
-24.31143855844612
 21
-24.31143855844612
 31
0.0
210
0.0
220
0.0
230
1.0
 40
0.6802716780200933
 41
0.0
 42
6.283185307179584
  0
ELLIPSE
  5
51AF
330
5192
100
AcDbEntity
  8
0
 62
     0
100
AcDbEllipse
 10
1208.036314867199
 20
1982.598095040353
 30
0.0
 11
-22.99360726813026
 21
-22.99360726813026
 31
0.0
210
0.0
220
0.0
230
0.9999999999999998
 40
0.5741637720713002
 41
0.0
 42
6.283185307179584
  0
ELLIPSE
  5
51B0
330
5192
100
AcDbEntity
  8
0
 62
     0
100
AcDbEllipse
 10
1161.153356491933
 20
2002.4476678731
 30
0.0
 11
-22.90408911584604
 21
-22.90408911584604
 31
0.0
210
0.0
220
0.0
230
1.0
 40
0.4186236573607289
 41
0.0
 42
6.283185307179584
  0
ELLIPSE
  5
51B1
330
5192
100
AcDbEntity
  8
0
 62
     0
100
AcDbEllipse
 10
1121.144763491976
 20
2017.741159562481
 30
0.0
 11
-19.21616944602742
 21
-25.53539939923706
 31
0.0
210
0.0
220
0.0
230
1.0
 40
0.3766047139849467
 41
0.0
 42
6.283185307179584
  0
ELLIPSE
  5
51B2
330
5192
100
AcDbEntity
  8
0
 62
     0
100
AcDbEllipse
 10
1087.991592514898
 20
2023.439138198773
 30
0.0
 11
-16.04866709297754
 21
-24.4802164629427
 31
0.0
210
0.0
220
0.0
230
1.0
 40
0.3241712871052219
 41
0.0
 42
6.283185307179584
  0
ELLIPSE
  5
51B3
330
5192
100
AcDbEntity
  8
0
 62
     0
100
AcDbEllipse
 10
1059.513650327051
 20
2023.572459644837
 30
0.0
 11
-13.31158395245028
 21
-25.14482762860148
 31
0.0
210
0.0
220
0.0
230
1.0
 40
0.2108018908727055
 41
0.0
 42
6.283185307179584
  0
ELLIPSE
  5
51B4
330
5192
100
AcDbEntity
  8
0
 62
     0
100
AcDbEllipse
 10
1034.060733279461
 20
2021.964359881855
 30
0.0
 11
15.35951593496879
 21
29.09197865874336
 31
0.0
210
0.0
220
0.0
230
1.0
 40
0.244560068360591
 41
3.503656402014906
 42
8.195138527442518
  0
ELLIPSE
  5
51B5
330
5192
100
AcDbEntity
  8
0
 62
     0
100
AcDbEllipse
 10
1017.851948250382
 20
2116.480665468168
 30
0.0
 11
-15.0808053389707
 21
-22.73497138406114
 31
0.0
210
0.0
220
0.0
230
1.0
 40
0.2810715458434808
 41
1.439775629419719
 42
4.041824827120143
  0
ELLIPSE
  5
51B6
330
5192
100
AcDbEntity
  8
0
 62
     0
100
AcDbEllipse
 10
1303.248887679133
 20
2198.291918051785
 30
0.0
 11
-24.42389223102677
 21
-15.82364819348806
 31
0.0
210
0.0
220
0.0
230
1.0
 40
0.4305391531601336
 41
5.146194802244943
 42
8.593233048848867
  0
ELLIPSE
  5
51B7
330
5192
100
AcDbEntity
  8
0
 62
     0
100
AcDbEllipse
 10
1260.082972072329
 20
2203.765076651984
 30
0.0
 11
-22.41694816237614
 21
-16.02342061445038
 31
0.0
210
0.0
220
0.0
230
1.0
 40
0.3779979851668673
 41
5.341809248425247
 42
8.197440628250657
  0
ELLIPSE
  5
51B8
330
5192
100
AcDbEntity
  8
0
 62
     0
100
AcDbEllipse
 10
1214.97878650166
 20
2202.610235692739
 30
0.0
 11
-20.88636778616046
 21
-15.15950723243758
 31
0.0
210
0.0
220
0.0
230
0.9999999999999998
 40
0.3620484457960908
 41
5.259486283433363
 42
8.232291883150136
  0
ELLIPSE
  5
51B9
330
5192
100
AcDbEntity
  8
0
 62
     0
100
AcDbEllipse
 10
1176.232884654794
 20
2203.531410315453
 30
0.0
 11
-19.71952958070463
 21
-14.92628344142003
 31
0.0
210
0.0
220
0.0
230
0.9999999999999998
 40
0.3132060541742065
 41
5.250666993789478
 42
8.100370512577223
  0
ELLIPSE
  5
51BA
330
5192
100
AcDbEntity
  8
0
 62
     0
100
AcDbEllipse
 10
1144.844997080517
 20
2207.846040077121
 30
0.0
 11
-17.26917335941397
 21
-14.80967269837363
 31
0.0
210
0.0
220
0.0
230
1.0
 40
0.351703405504709
 41
5.530968485444509
 42
7.813788647427747
  0
ELLIPSE
  5
51BB
330
5192
100
AcDbEntity
  8
0
 62
     0
100
AcDbEllipse
 10
1023.611614658527
 20
2198.45530760658
 30
0.0
 11
-16.08965423127789
 21
-16.08965423127789
 31
0.0
210
0.0
220
0.0
230
0.9999999999999998
 40
0.5254634900290626
 41
1.010185497955116
 42
2.205206665925253
  0
ELLIPSE
  5
51BC
330
5192
100
AcDbEntity
  8
0
 62
     0
100
AcDbEllipse
 10
1025.782846917784
 20
1939.539036213281
 30
0.0
 11
12.13246661655123
 21
29.56314672626579
 31
0.0
210
0.0
220
0.0
230
1.0
 40
0.2004963466959972
 41
3.990701529268593
 42
7.66677945586937
  0
ELLIPSE
  5
51BD
330
5192
100
AcDbEntity
  8
0
 62
     0
100
AcDbEllipse
 10
1047.457701701342
 20
1939.675271083983
 30
0.0
 11
11.99614500966298
 21
28.60949802150898
 31
0.0
210
0.0
220
0.0
230
1.0
 40
0.2548630776677332
 41
0.0
 42
6.283185307179584
  0
ELLIPSE
  5
51BE
330
5192
100
AcDbEntity
  8
0
 62
     0
100
AcDbEllipse
 10
1074.176387766945
 20
1935.315729867376
 30
0.0
 11
16.08574108414264
 21
29.15443980923796
 31
0.0
210
0.0
220
0.0
230
1.0
 40
0.2538269047843527
 41
0.0
 42
6.283185307179584
  0
ELLIPSE
  5
51BF
330
5192
100
AcDbEntity
  8
0
 62
     0
100
AcDbEllipse
 10
1106.075230731619
 20
1923.190752617388
 30
0.0
 11
18.81213713040706
 21
28.74573519713441
 31
0.0
210
0.0
220
0.0
230
1.0
 40
0.3994236624772706
 41
0.0
 42
6.283185307179584
  0
ELLIPSE
  5
51C0
330
5192
100
AcDbEntity
  8
0
 62
     0
100
AcDbEllipse
 10
1148.334383484287
 20
1904.526460085101
 30
0.0
 11
21.81117238028091
 21
28.33702597518186
 31
0.0
210
0.0
220
0.0
230
0.9999999999999998
 40
0.4670865194507213
 41
0.0
 42
6.283185307179584
  0
ELLIPSE
  5
51C1
330
5192
100
AcDbEntity
  8
0
 62
     0
100
AcDbEllipse
 10
1197.126695310344
 20
1874.457331710845
 30
0.0
 11
22.9693526358261
 21
28.26570238977625
 31
0.0
210
0.0
220
0.0
230
0.9999999999999998
 40
0.6003268276440822
 41
0.0
 42
6.283185307179584
  0
ELLIPSE
  5
51C2
330
5192
100
AcDbEntity
  8
0
 62
     0
100
AcDbEllipse
 10
1254.241975792156
 20
1835.430485149505
 30
0.0
 11
24.32329719929197
 21
26.42205086197707
 31
0.0
210
0.0
220
0.0
230
1.0
 40
0.6840588260764199
 41
0.0
 42
6.283185307179584
  0
ELLIPSE
  5
51C3
330
5192
100
AcDbEntity
  8
0
 62
     0
100
AcDbEllipse
 10
1317.94886352703
 20
1785.92172450172
 30
0.0
 11
26.63049848963351
 21
25.6825711369487
 31
0.0
210
0.0
220
0.0
230
1.0
 40
0.7995240369076479
 41
0.0
 42
6.283185307179584
  0
ELLIPSE
  5
51C4
330
5192
100
AcDbEntity
  8
0
 62
     0
100
AcDbEllipse
 10
1387.213537539033
 20
1729.738909596972
 30
0.0
 11
26.7154097593942
 21
25.77765157973423
 31
0.0
210
0.0
220
0.0
230
0.9999999999999998
 40
0.9072308990429279
 41
0.0
 42
6.283185307179584
  0
ELLIPSE
  5
51C5
330
5192
100
AcDbEntity
  8
0
 62
     0
100
AcDbEllipse
 10
1463.045669580214
 20
1663.763025748204
 30
0.0
 11
29.39327075805667
 21
23.78605846942339
 31
0.0
210
0.0
220
0.0
230
1.0
 40
0.9471721172373143
 41
0.0
 42
6.283185307179584
  0
ELLIPSE
  5
51C6
330
5192
100
AcDbEntity
  8
0
 62
     0
100
AcDbEllipse
 10
1384.23921694655
 20
1586.218707122456
 30
0.0
 11
26.80958050407134
 21
27.80137533833062
 31
0.0
210
0.0
220
0.0
230
1.0
 40
0.9592665141672039
 41
0.0
 42
6.283185307179584
  0
ELLIPSE
  5
51C7
330
5192
100
AcDbEntity
  8
0
 62
     0
100
AcDbEllipse
 10
1308.553351725659
 20
1505.291600548591
 30
0.0
 11
23.30008311428972
 21
29.1071312327625
 31
0.0
210
0.0
220
0.0
230
0.9999999999999998
 40
0.9348015168909629
 41
0.0
 42
6.283185307179584
  0
ELLIPSE
  5
51C8
330
5192
100
AcDbEntity
  8
0
 62
     0
100
AcDbEllipse
 10
1237.367154205929
 20
1420.854630926083
 30
0.0
 11
12.56928204496544
 21
35.20765802767482
 31
0.0
210
0.0
220
0.0
230
1.0
 40
0.8281510902799336
 41
0.0
 42
6.283185307179584
  0
ELLIPSE
  5
51C9
330
5192
100
AcDbEntity
  8
0
 62
     0
100
AcDbEllipse
 10
1171.104414794338
 20
1339.660321363422
 30
0.0
 11
4.747616308376212
 21
35.79479145936872
 31
0.0
210
0.0
220
0.0
230
1.0
 40
0.786297360742565
 41
0.0
 42
6.283185307179584
  0
ELLIPSE
  5
51CA
330
5192
100
AcDbEntity
  8
0
 62
     0
100
AcDbEllipse
 10
1114.531200576215
 20
1261.755782213569
 30
0.0
 11
3.238313876684649
 21
33.28784257290667
 31
0.0
210
0.0
220
0.0
230
1.0
 40
0.7146619888316316
 41
0.0
 42
6.283185307179584
  0
ELLIPSE
  5
51CB
330
5192
100
AcDbEntity
  8
0
 62
     0
100
AcDbEllipse
 10
1066.55494564364
 20
1188.159571161653
 30
0.0
 11
1.495014207729617
 21
32.19088518399145
 31
0.0
210
0.0
220
0.0
230
1.0
 40
0.6551736887166888
 41
0.0
 42
6.283185307179584
  0
ELLIPSE
  5
51CC
330
5192
100
AcDbEntity
  8
0
 62
     0
100
AcDbEllipse
 10
1113.822251225196
 20
1119.439817536418
 30
0.0
 11
0.0
 21
34.50147524275582
 31
0.0
210
0.0
220
0.0
230
1.0
 40
0.7343984306497921
 41
0.0
 42
6.283185307179584
  0
ELLIPSE
  5
51CD
330
5192
100
AcDbEntity
  8
0
 62
     0
100
AcDbEllipse
 10
1172.622467409782
 20
1193.839725816368
 30
0.0
 11
0.0
 21
35.40741200924112
 31
0.0
210
0.0
220
0.0
230
1.0
 40
0.7731785972808104
 41
0.0
 42
6.283185307179584
  0
ELLIPSE
  5
51CE
330
5192
100
AcDbEntity
  8
0
 62
     0
100
AcDbEllipse
 10
1236.01173791129
 20
1270.79100348879
 30
0.0
 11
2.474910472010954
 21
37.30686115064799
 31
0.0
210
0.0
220
0.0
230
1.0
 40
0.8550030881524246
 41
0.0
 42
6.283185307179584
  0
ELLIPSE
  5
51CF
330
5192
100
AcDbEntity
  8
0
 62
     0
100
AcDbEllipse
 10
1305.057573116181
 20
1351.079791171386
 30
0.0
 11
5.275614907274009
 21
37.24516293018115
 31
0.0
210
0.0
220
0.0
230
1.0
 40
0.9599746624478688
 41
0.0
 42
6.283185307179584
  0
ELLIPSE
  5
51D0
330
5192
100
AcDbEntity
  8
0
 62
     0
100
AcDbEllipse
 10
1384.073388533058
 20
1433.549028262567
 30
0.0
 11
17.60508497325729
 21
33.79609226665762
 31
0.0
210
0.0
220
0.0
230
1.0
 40
0.8982307229594015
 41
0.0
 42
6.283185307179584
  0
ELLIPSE
  5
51D1
330
5192
100
AcDbEntity
  8
0
 62
     0
100
AcDbEllipse
 10
1461.743267689385
 20
1512.646317465809
 30
0.0
 11
-37.12902235478051
 21
1.889081697954351
 31
0.0
210
0.0
220
0.0
230
0.9999999999999998
 40
0.9939370144897022
 41
0.0
 42
6.283185307179584
  0
ELLIPSE
  5
51D2
330
5192
100
AcDbEntity
  8
0
 62
     0
100
AcDbEllipse
 10
1461.853214429865
 20
1357.545657727839
 30
0.0
 11
0.0
 21
38.08156012286561
 31
0.0
210
0.0
220
0.0
230
1.0
 40
0.9839895141870108
 41
0.0
 42
6.283185307179584
  0
ELLIPSE
  5
51D3
330
5192
100
AcDbEntity
  8
0
 62
     0
100
AcDbEllipse
 10
1382.071376969455
 20
1277.437032168097
 30
0.0
 11
1.896395803160102
 21
38.4213659301948
 31
0.0
210
0.0
220
0.0
230
1.0
 40
0.9097684253863695
 41
0.0
 42
6.283185307179584
  0
ELLIPSE
  5
51D4
330
5192
100
AcDbEntity
  8
0
 62
     0
100
AcDbEllipse
 10
1304.204398119699
 20
1197.058790363551
 30
0.0
 11
2.044619584821534
 21
38.65350871159686
 31
0.0
210
0.0
220
0.0
230
0.9999999999999998
 40
0.9684076399980105
 41
0.0
 42
6.283185307179584
  0
ELLIPSE
  5
51D5
330
5192
100
AcDbEntity
  8
0
 62
     0
100
AcDbEllipse
 10
1461.018979450726
 20
1198.469985031715
 30
0.0
 11
0.0
 21
39.06348103220477
 31
0.0
210
0.0
220
0.0
230
1.0
 40
0.947444651313479
 41
0.0
 42
6.283185307179584
  0
ELLIPSE
  5
51D6
330
5192
100
AcDbEntity
  8
0
 62
     0
100
AcDbEllipse
 10
1233.177075384393
 20
1119.235407607252
 30
0.0
 11
0.0
 21
37.61877506594683
 31
0.0
210
0.0
220
0.0
230
1.0
 40
0.94563854561306
 41
0.0
 42
6.283185307179584
  0
ELLIPSE
  5
51D7
330
5192
100
AcDbEntity
  8
0
 62
     0
100
AcDbEllipse
 10
1380.849563388673
 20
1117.995226816388
 30
0.0
 11
0.0
 21
39.27234868545852
 31
0.0
210
0.0
220
0.0
230
1.0
 40
0.9795519212978291
 41
0.0
 42
6.283185307179584
  0
ELLIPSE
  5
51D8
330
5192
100
AcDbEntity
  8
0
 62
     0
100
AcDbEllipse
 10
1025.440295095819
 20
1252.673997001882
 30
0.0
 11
1.495014207729617
 21
32.19088518399145
 31
0.0
210
0.0
220
0.0
230
1.0
 40
0.6551736887166888
 41
3.059318546647753
 42
6.506993200271656
  0
ELLIPSE
  5
51D9
330
5192
100
AcDbEntity
  8
0
 62
     0
100
AcDbEllipse
 10
1027.377357999514
 20
1377.437276636129
 30
0.0
 11
1.495014207729617
 21
32.19088518399145
 31
0.0
210
0.0
220
0.0
230
1.0
 40
0.6551736887166888
 41
2.965810147589523
 42
6.600501599329887
  0
ELLIPSE
  5
51DA
330
5192
100
AcDbEntity
  8
0
 62
     0
100
AcDbEllipse
 10
1031.184713903353
 20
1493.825373041121
 30
0.0
 11
13.31028064827205
 21
35.2363289842047
 31
0.0
210
0.0
220
0.0
230
0.9999999999999998
 40
0.4811876829804269
 41
3.378066902041308
 42
7.377793676600674
  0
ELLIPSE
  5
51DB
330
5192
100
AcDbEntity
  8
0
 62
     0
100
AcDbEllipse
 10
1039.430302382408
 20
1612.268948299669
 30
0.0
 11
14.25147078353903
 21
35.54498373618375
 31
0.0
210
0.0
220
0.0
230
1.0
 40
0.4152679124103772
 41
2.914110852870212
 42
8.046363111785312
  0
ELLIPSE
  5
51DC
330
5192
100
AcDbEntity
  8
0
 62
     0
100
AcDbEllipse
 10
1025.386377776561
 20
1746.998251501712
 30
0.0
 11
12.032862095992
 21
31.65315550519224
 31
0.0
210
0.0
220
0.0
230
1.0
 40
0.3228313403197935
 41
3.806209022154714
 42
7.352071412405987
  0
ELLIPSE
  5
51DD
330
5192
100
AcDbEntity
  8
0
 62
     0
100
AcDbEllipse
 10
1051.941657569364
 20
1730.549666808917
 30
0.0
 11
12.86271396292816
 21
31.23848344341775
 31
0.0
210
0.0
220
0.0
230
1.0
 40
0.2782702580544408
 41
0.0
 42
6.283185307179584
  0
ELLIPSE
  5
51DE
330
5192
100
AcDbEntity
  8
0
 62
     0
100
AcDbEllipse
 10
1084.029283141733
 20
1706.637021882977
 30
0.0
 11
15.90550414169423
 21
31.92960354637491
 31
0.0
210
0.0
220
0.0
230
1.0
 40
0.4643558402465539
 41
0.0
 42
6.283185307179584
  0
ELLIPSE
  5
51DF
330
5192
100
AcDbEntity
  8
0
 62
     0
100
AcDbEllipse
 10
1128.979626687193
 20
1669.040261151447
 30
0.0
 11
16.0438147912668
 21
31.37670976893435
 31
0.0
210
0.0
220
0.0
230
1.0
 40
0.5753939494386061
 41
0.0
 42
6.283185307179584
  0
ELLIPSE
  5
51E0
330
5192
100
AcDbEntity
  8
0
 62
     0
100
AcDbEllipse
 10
1178.936186151013
 20
1624.385401938658
 30
0.0
 11
19.31335583606522
 21
31.70950169084431
 31
0.0
210
0.0
220
0.0
230
1.0
 40
0.7526282289544934
 41
0.0
 42
6.283185307179584
  0
ELLIPSE
  5
51E1
330
5192
100
AcDbEntity
  8
0
 62
     0
100
AcDbEllipse
 10
1121.511352881092
 20
1538.289200106858
 30
0.0
 11
15.61194790856336
 21
31.7824894317781
 31
0.0
210
0.0
220
0.0
230
1.0
 40
0.6841394345716645
 41
0.0
 42
6.283185307179584
  0
ELLIPSE
  5
51E2
330
5192
100
AcDbEntity
  8
0
 62
     0
100
AcDbEllipse
 10
1077.759355420867
 20
1582.977305551418
 30
0.0
 11
12.72084629549044
 21
31.78248712685384
 31
0.0
210
0.0
220
0.0
230
1.0
 40
0.4935221312573268
 41
0.0
 42
6.283185307179584
  0
ELLIPSE
  5
51E3
330
5192
100
AcDbEntity
  8
0
 62
     0
100
AcDbEllipse
 10
1071.635245381671
 20
1455.474284260584
 30
0.0
 11
8.278022707345106
 21
32.02418843038185
 31
0.0
210
0.0
220
0.0
230
1.0
 40
0.5598442547693111
 41
0.0
 42
6.283185307179584
  0
ELLIPSE
  5
51E4
330
5192
100
AcDbEntity
  8
0
 62
     0
100
AcDbEllipse
 10
1174.576473267773
 20
1484.69635516609
 30
0.0
 11
14.5532999905774
 21
34.02569963104991
 31
0.0
210
0.0
220
0.0
230
0.9999999999999998
 40
0.7310194254182731
 41
0.0
 42
6.283185307179584
  0
ELLIPSE
  5
51E5
330
5192
100
AcDbEntity
  8
0
 62
     0
100
AcDbEllipse
 10
1117.813878927131
 20
1402.346653767215
 30
0.0
 11
10.07328611643248
 21
33.38910943319605
 31
0.0
210
0.0
220
0.0
230
1.0
 40
0.6901520096124371
 41
0.0
 42
6.283185307179584
  0
ELLIPSE
  5
51E6
330
5192
100
AcDbEntity
  8
0
 62
     0
100
AcDbEllipse
 10
1065.939934447623
 20
1321.514141297054
 30
0.0
 11
6.510662038174757
 21
32.08959066460804
 31
0.0
210
0.0
220
0.0
230
1.0
 40
0.6433519553795857
 41
0.0
 42
6.283185307179584
  0
ELLIPSE
  5
51E7
330
5192
100
AcDbEntity
  8
0
 62
     0
100
AcDbEllipse
 10
1241.452567676543
 20
1567.407083812666
 30
0.0
 11
20.11691303993205
 21
31.73638402592044
 31
0.0
210
0.0
220
0.0
230
1.0
 40
0.7853428073352033
 41
0.0
 42
6.283185307179584
  0
ELLIPSE
  5
51E8
330
5192
100
AcDbEntity
  8
0
 62
     0
100
AcDbEllipse
 10
1246.204061816119
 20
1707.995546720153
 30
0.0
 11
22.68993224032243
 21
29.15476710852473
 31
0.0
210
0.0
220
0.0
230
1.0
 40
0.8140476902349892
 41
0.0
 42
6.283185307179584
  0
ELLIPSE
  5
51E9
330
5192
100
AcDbEntity
  8
0
 62
     0
100
AcDbEllipse
 10
1188.34078900029
 20
1754.542640660496
 30
0.0
 11
21.14070859910617
 21
29.26467052111788
 31
0.0
210
0.0
220
0.0
230
1.0
 40
0.6517585741059463
 41
0.0
 42
6.283185307179584
  0
ELLIPSE
  5
51EA
330
5192
100
AcDbEntity
  8
0
 62
     0
100
AcDbEllipse
 10
1136.16141418404
 20
1793.751023079725
 30
0.0
 11
19.5780428791035
 21
29.43869002003686
 31
0.0
210
0.0
220
0.0
230
1.0
 40
0.5677403822323596
 41
0.0
 42
6.283185307179584
  0
ELLIPSE
  5
51EB
330
5192
100
AcDbEntity
  8
0
 62
     0
100
AcDbEllipse
 10
1094.844241569476
 20
1821.485283624888
 30
0.0
 11
16.51729116367686
 21
28.49943556912093
 31
0.0
210
0.0
220
0.0
230
1.0
 40
0.4337608387177524
 41
0.0
 42
6.283185307179584
  0
ELLIPSE
  5
51EC
330
5192
100
AcDbEntity
  8
0
 62
     0
100
AcDbEllipse
 10
1061.24495959756
 20
1838.697812511929
 30
0.0
 11
13.41147720501215
 21
29.91030063307363
 31
0.0
210
0.0
220
0.0
230
1.0
 40
0.2976157912374005
 41
0.0
 42
6.283185307179584
  0
ELLIPSE
  5
51ED
330
5192
100
AcDbEntity
  8
0
 62
     0
100
AcDbEllipse
 10
1032.445578487494
 20
1842.224971714426
 30
0.0
 11
15.38790390505613
 21
34.00180217327163
 31
0.0
210
0.0
220
0.0
230
0.9999999999999998
 40
0.2004781885708614
 41
3.642161334497195
 42
8.090198374780053
  0
ELLIPSE
  5
51EE
330
5192
100
AcDbEntity
  8
0
 62
     0
100
AcDbEllipse
 10
1470.488097861912
 20
2039.357288298983
 30
0.0
 11
-33.59813907440287
 21
-4.874140977504449
 31
0.0
210
0.0
220
0.0
230
0.9999999999999998
 40
0.6795590206827351
 41
0.0
 42
6.283185307179584
  0
ELLIPSE
  5
51EF
330
5192
100
AcDbEntity
  8
0
 62
     0
100
AcDbEllipse
 10
1541.328486676369
 20
2170.373911226086
 30
0.0
 11
-31.92014898036659
 21
0.0
 31
0.0
210
0.0
220
0.0
230
1.0
 40
0.5030449809720228
 41
0.0
 42
6.283185307179584
  0
ELLIPSE
  5
51F0
330
5192
100
AcDbEntity
  8
0
 62
     0
100
AcDbEllipse
 10
1541.409740674101
 20
2088.671209064352
 30
0.0
 11
-34.58688577659648
 21
0.0
 31
0.0
210
0.0
220
0.0
230
1.0
 40
0.6791071082771328
 41
0.0
 42
6.283185307179584
  0
ELLIPSE
  5
51F1
330
5192
100
AcDbEntity
  8
0
 62
     0
100
AcDbEllipse
 10
1540.172179168683
 20
1987.27715842837
 30
0.0
 11
-34.3319835403123
 21
0.0
 31
0.0
210
0.0
220
0.0
230
1.0
 40
0.78795292034164
 41
0.0
 42
6.283185307179584
  0
ELLIPSE
  5
51F2
330
5192
100
AcDbEntity
  8
0
 62
     0
100
AcDbEllipse
 10
1539.916430787213
 20
1869.807494466332
 30
0.0
 11
-34.07402956716722
 21
0.0
 31
0.0
210
0.0
220
0.0
230
1.0
 40
0.8535288010029494
 41
0.0
 42
6.283185307179584
  0
ELLIPSE
  5
51F3
330
5192
100
AcDbEntity
  8
0
 62
     0
100
AcDbEllipse
 10
1541.250292435832
 20
1734.888200943136
 30
0.0
 11
-38.21362841026203
 21
0.0
 31
0.0
210
0.0
220
0.0
230
1.0
 40
0.9015312461323162
 41
0.0
 42
6.283185307179584
  0
ELLIPSE
  5
51F4
330
5192
100
AcDbEntity
  8
0
 62
     0
100
AcDbEllipse
 10
1541.885719390537
 20
1588.871723687768
 30
0.0
 11
-38.58475329792092
 21
0.0
 31
0.0
210
0.0
220
0.0
230
1.0
 40
0.9667154570683159
 41
0.0
 42
6.283185307179584
  0
ELLIPSE
  5
51F5
330
5192
100
AcDbEntity
  8
0
 62
     0
100
AcDbEllipse
 10
1541.681581854538
 20
1434.196529973261
 30
0.0
 11
0.0
 21
-40.26994600918643
 31
0.0
210
0.0
220
0.0
230
1.0
 40
0.9674682045404674
 41
0.0
 42
6.283185307179584
  0
ELLIPSE
  5
51F6
330
5192
100
AcDbEntity
  8
0
 62
     0
100
AcDbEllipse
 10
1541.6655692589
 20
1278.060682519503
 30
0.0
 11
0.0
 21
-39.08110269694754
 31
0.0
210
0.0
220
0.0
230
1.0
 40
0.9827856281975739
 41
0.0
 42
6.283185307179584
  0
ELLIPSE
  5
51F7
330
5192
100
AcDbEntity
  8
0
 62
     0
100
AcDbEllipse
 10
1311.567753934349
 20
1650.128027884865
 30
0.0
 11
-22.64498228175275
 21
-30.57593749015938
 31
0.0
210
0.0
220
0.0
230
1.0
 40
0.8582798329265973
 41
0.0
 42
6.283185307179584
  0
ELLIPSE
  5
51F8
330
5192
100
AcDbEntity
  8
0
 62
     0
100
AcDbEllipse
 10
1465.078407041105
 20
1802.356989035518
 30
0.0
 11
-37.79347923466386
 21
-5.941371754444041
 31
0.0
210
0.0
220
0.0
230
1.0
 40
0.7875876969600179
 41
0.0
 42
6.283185307179584
  0
ELLIPSE
  5
51F9
330
5192
100
AcDbEntity
  8
0
 62
     0
100
AcDbEllipse
 10
1034.453152152311
 20
1120.348983502205
 30
0.0
 11
0.0
 21
30.13114697923498
 31
0.0
210
0.0
220
0.0
230
1.0
 40
0.4974821035627393
 41
2.186619680855028
 42
7.238158279914351
  0
ELLIPSE
  5
51FA
330
5192
100
AcDbEntity
  8
0
 62
     0
100
AcDbEllipse
 10
1474.490288342946
 20
36.64846287017616
 30
0.0
 11
-30.42603706014464
 21
0.0
 31
0.0
210
0.0
220
0.0
230
-1.0
 40
0.3372402171875113
 41
6.009348737011023
 42
9.698614530937939
  0
ELLIPSE
  5
51FB
330
5192
100
AcDbEntity
  8
0
 62
     0
100
AcDbEllipse
 10
1351.831720427145
 20
52.1818265603826
 30
0.0
 11
-28.26679488046243
 21
10.11396515030851
 31
0.0
210
0.0
220
0.0
230
-1.0
 40
0.4689952453060453
 41
0.0
 42
6.283185307179584
  0
ELLIPSE
  5
51FC
330
5192
100
AcDbEntity
  8
0
 62
     0
100
AcDbEllipse
 10
1412.029527829577
 20
74.85105688630795
 30
0.0
 11
-30.18614888799537
 21
9.416451186637837
 31
0.0
210
0.0
220
0.0
230
-1.0
 40
0.4997640396812409
 41
0.0
 42
6.283185307179584
  0
ELLIPSE
  5
51FD
330
5192
100
AcDbEntity
  8
0
 62
     0
100
AcDbEllipse
 10
1474.321171592762
 20
104.1466802392653
 30
0.0
 11
-32.4544676019878
 21
6.277632587808718
 31
0.0
210
0.0
220
0.0
230
-1.0
 40
0.5310369267309467
 41
0.0
 42
6.283185307179584
  0
ELLIPSE
  5
51FE
330
5192
100
AcDbEntity
  8
0
 62
     0
100
AcDbEllipse
 10
1403.169136683174
 20
154.7339750140024
 30
0.0
 11
-30.18144897261939
 21
13.57327198377746
 31
0.0
210
0.0
220
0.0
230
-1.0
 40
0.6086522554516111
 41
0.0
 42
6.283185307179584
  0
ELLIPSE
  5
51FF
330
5192
100
AcDbEntity
  8
0
 62
     0
100
AcDbEllipse
 10
1342.338821727409
 20
123.332199190542
 30
0.0
 11
-29.78965568577537
 21
14.27805798441649
 31
0.0
210
0.0
220
0.0
230
-1.0
 40
0.5613751132608095
 41
0.0
 42
6.283185307179584
  0
ELLIPSE
  5
5200
330
5192
100
AcDbEntity
  8
0
 62
     0
100
AcDbEllipse
 10
1287.894937855544
 20
102.0566276667716
 30
0.0
 11
-27.52052691810872
 21
15.66173876817708
 31
0.0
210
0.0
220
0.0
230
-0.9999999999999998
 40
0.3840801736235547
 41
0.0
 42
6.283185307179584
  0
ELLIPSE
  5
5201
330
5192
100
AcDbEntity
  8
0
 62
     0
100
AcDbEllipse
 10
1237.546508911712
 20
87.45285848867496
 30
0.0
 11
-24.42389223102677
 21
15.82364819348806
 31
0.0
210
0.0
220
0.0
230
-1.0
 40
0.4305391531601336
 41
0.0
 42
6.283185307179584
  0
ELLIPSE
  5
5202
330
5192
100
AcDbEntity
  8
0
 62
     0
100
AcDbEllipse
 10
1194.380593304909
 20
81.9796998884753
 30
0.0
 11
-22.41694816237614
 21
16.02342061445038
 31
0.0
210
0.0
220
0.0
230
-1.0
 40
0.3779979851668673
 41
0.0
 42
6.283185307179584
  0
ELLIPSE
  5
5203
330
5192
100
AcDbEntity
  8
0
 62
     0
100
AcDbEllipse
 10
1156.410999579163
 20
79.60335955187719
 30
0.0
 11
-20.88636778616046
 21
15.15950723243758
 31
0.0
210
0.0
220
0.0
230
-0.9999999999999998
 40
0.3620484457960908
 41
0.0
 42
6.283185307179584
  0
ELLIPSE
  5
5204
330
5192
100
AcDbEntity
  8
0
 62
     0
100
AcDbEllipse
 10
1123.739585968737
 20
77.03790707038018
 30
0.0
 11
-19.71952958070463
 21
14.92628344142003
 31
0.0
210
0.0
220
0.0
230
-0.9999999999999998
 40
0.3132060541742065
 41
0.0
 42
6.283185307179584
  0
ELLIPSE
  5
5205
330
5192
100
AcDbEntity
  8
0
 62
     0
100
AcDbEllipse
 10
1092.351698394478
 20
72.72327730871137
 30
0.0
 11
-17.26917335941397
 21
14.80967269837363
 31
0.0
210
0.0
220
0.0
230
-1.0
 40
0.351703405504709
 41
0.0
 42
6.283185307179584
  0
ELLIPSE
  5
5206
330
5192
100
AcDbEntity
  8
0
 62
     0
100
AcDbEllipse
 10
1058.012271209194
 20
58.52950880548059
 30
0.0
 11
-16.08965423127789
 21
16.08965423127789
 31
0.0
210
0.0
220
0.0
230
-0.9999999999999998
 40
0.5254634900290626
 41
0.0
 42
6.283185307179584
  0
ELLIPSE
  5
5207
330
5192
100
AcDbEntity
  8
0
 62
     0
100
AcDbEllipse
 10
1048.072404114523
 20
131.4687096377537
 30
0.0
 11
-15.0808053389707
 21
22.73497138406114
 31
0.0
210
0.0
220
0.0
230
-1.0
 40
0.2810715458434808
 41
0.0
 42
6.283185307179584
  0
ELLIPSE
  5
5208
330
5192
100
AcDbEntity
  8
0
 62
     0
100
AcDbEllipse
 10
1076.572566636067
 20
136.4499696789916
 30
0.0
 11
-15.97542941848766
 21
21.58545019068723
 31
0.0
210
0.0
220
0.0
230
-1.0
 40
0.1951258246945301
 41
0.0
 42
6.283185307179584
  0
ELLIPSE
  5
5209
330
5192
100
AcDbEntity
  8
0
 62
     0
100
AcDbEllipse
 10
1105.839557244659
 20
138.1103866195046
 30
0.0
 11
-17.63687356470898
 21
20.69137917580726
 31
0.0
210
0.0
220
0.0
230
-1.0
 40
0.3037436373290199
 41
0.0
 42
6.283185307179584
  0
ELLIPSE
  5
520A
330
5192
100
AcDbEntity
  8
0
 62
     0
100
AcDbEllipse
 10
1138.998960020807
 20
139.5126704493424
 30
0.0
 11
-21.40148973977637
 21
22.09903347985646
 31
0.0
210
0.0
220
0.0
230
-1.0
 40
0.2954908278377448
 41
0.0
 42
6.283185307179584
  0
ELLIPSE
  5
520B
330
5192
100
AcDbEntity
  8
0
 62
     0
100
AcDbEllipse
 10
1176.568094489463
 20
147.6732581384482
 30
0.0
 11
-22.33728620082914
 21
20.73605091859239
 31
0.0
210
0.0
220
0.0
230
-1.0
 40
0.3826752338158837
 41
0.0
 42
6.283185307179584
  0
ELLIPSE
  5
520C
330
5192
100
AcDbEntity
  8
0
 62
     0
100
AcDbEllipse
 10
1222.369852568216
 20
161.563717704904
 30
0.0
 11
-24.58707794465547
 21
20.89923266225676
 31
0.0
210
0.0
220
0.0
230
-1.0
 40
0.4144710327891679
 41
0.0
 42
6.283185307179584
  0
ELLIPSE
  5
520D
330
5192
100
AcDbEntity
  8
0
 62
     0
100
AcDbEllipse
 10
1273.846790544174
 20
183.5355931069538
 30
0.0
 11
-26.5156633559373
 21
20.23183023296224
 31
0.0
210
0.0
220
0.0
230
-1.0
 40
0.5447945635724488
 41
0.0
 42
6.283185307179584
  0
ELLIPSE
  5
520E
330
5192
100
AcDbEntity
  8
0
 62
     0
100
AcDbEllipse
 10
1332.547606726672
 20
214.1194434031076
 30
0.0
 11
-28.36117014364141
 21
19.08012858096033
 31
0.0
210
0.0
220
0.0
230
-1.0
 40
0.6609049286427032
 41
0.0
 42
6.283185307179584
  0
ELLIPSE
  5
520F
330
5192
100
AcDbEntity
  8
0
 62
     0
100
AcDbEllipse
 10
1396.950306506445
 20
255.7530052053154
 30
0.0
 11
-29.02016885821378
 21
18.64430883640123
 31
0.0
210
0.0
220
0.0
230
-1.0
 40
0.7880072252956542
 41
0.0
 42
6.283185307179584
  0
ELLIPSE
  5
5210
330
5192
100
AcDbEntity
  8
0
 62
     0
100
AcDbEllipse
 10
1467.02182204884
 20
304.4466592485225
 30
0.0
 11
-31.43125351698556
 21
15.93577124842758
 31
0.0
210
0.0
220
0.0
230
-1.0
 40
0.825027248145369
 41
0.0
 42
6.283185307179584
  0
ELLIPSE
  5
5211
330
5192
100
AcDbEntity
  8
0
 62
     0
100
AcDbEllipse
 10
1392.179379099032
 20
374.2304559400374
 30
0.0
 11
-27.76228382794173
 21
22.15758547830683
 31
0.0
210
0.0
220
0.0
230
-0.9999999999999998
 40
0.7814370002040994
 41
0.0
 42
6.283185307179584
  0
ELLIPSE
  5
5212
330
5192
100
AcDbEntity
  8
0
 62
     0
100
AcDbEllipse
 10
1322.09697595403
 20
323.3509105613741
 30
0.0
 11
-27.357176787645
 21
22.41564483139607
 31
0.0
210
0.0
220
0.0
230
-1.0
 40
0.7577332530563343
 41
0.0
 42
6.283185307179584
  0
ELLIPSE
  5
5213
330
5192
100
AcDbEntity
  8
0
 62
     0
100
AcDbEllipse
 10
1261.585252124213
 20
283.2254952728687
 30
0.0
 11
-24.31143855844612
 21
24.31143855844612
 31
0.0
210
0.0
220
0.0
230
-1.0
 40
0.6802716780200933
 41
0.0
 42
6.283185307179584
  0
ELLIPSE
  5
5214
330
5192
100
AcDbEntity
  8
0
 62
     0
100
AcDbEllipse
 10
1208.036314867199
 20
252.4577810411699
 30
0.0
 11
-22.99360726813026
 21
22.99360726813026
 31
0.0
210
0.0
220
0.0
230
-0.9999999999999998
 40
0.5741637720713002
 41
0.0
 42
6.283185307179584
  0
ELLIPSE
  5
5215
330
5192
100
AcDbEntity
  8
0
 62
     0
100
AcDbEllipse
 10
1161.153356491933
 20
232.608208208423
 30
0.0
 11
-22.90408911584604
 21
22.90408911584604
 31
0.0
210
0.0
220
0.0
230
-1.0
 40
0.4186236573607289
 41
0.0
 42
6.283185307179584
  0
ELLIPSE
  5
5216
330
5192
100
AcDbEntity
  8
0
 62
     0
100
AcDbEllipse
 10
1121.144763491976
 20
217.3147165190434
 30
0.0
 11
-19.21616944602742
 21
25.53539939923706
 31
0.0
210
0.0
220
0.0
230
-1.0
 40
0.3766047139849467
 41
0.0
 42
6.283185307179584
  0
ELLIPSE
  5
5217
330
5192
100
AcDbEntity
  8
0
 62
     0
100
AcDbEllipse
 10
1087.991592514898
 20
211.6167378827508
 30
0.0
 11
-16.04866709297754
 21
24.4802164629427
 31
0.0
210
0.0
220
0.0
230
-1.0
 40
0.3241712871052219
 41
0.0
 42
6.283185307179584
  0
ELLIPSE
  5
5218
330
5192
100
AcDbEntity
  8
0
 62
     0
100
AcDbEllipse
 10
1059.513650327051
 20
211.4834164366857
 30
0.0
 11
-13.31158395245028
 21
25.14482762860148
 31
0.0
210
0.0
220
0.0
230
-1.0
 40
0.2108018908727055
 41
0.0
 42
6.283185307179584
  0
ELLIPSE
  5
5219
330
5192
100
AcDbEntity
  8
0
 62
     0
100
AcDbEllipse
 10
1034.060733279461
 20
213.0915161996667
 30
0.0
 11
15.35951593496879
 21
-29.09197865874336
 31
0.0
210
0.0
220
0.0
230
-1.0
 40
0.244560068360591
 41
3.503656402014906
 42
8.195138527442518
  0
ELLIPSE
  5
521A
330
5192
100
AcDbEntity
  8
0
 62
     0
100
AcDbEllipse
 10
1017.851948250382
 20
118.5752106133542
 30
0.0
 11
-15.0808053389707
 21
22.73497138406114
 31
0.0
210
0.0
220
0.0
230
-1.0
 40
0.2810715458434808
 41
1.439775629419719
 42
4.041824827120143
  0
ELLIPSE
  5
521B
330
5192
100
AcDbEntity
  8
0
 62
     0
100
AcDbEllipse
 10
1303.248887679133
 20
36.76395802973792
 30
0.0
 11
-24.42389223102677
 21
15.82364819348806
 31
0.0
210
0.0
220
0.0
230
-1.0
 40
0.4305391531601336
 41
5.146194802244943
 42
8.593233048848867
  0
ELLIPSE
  5
521C
330
5192
100
AcDbEntity
  8
0
 62
     0
100
AcDbEllipse
 10
1260.082972072329
 20
31.29079942953803
 30
0.0
 11
-22.41694816237614
 21
16.02342061445038
 31
0.0
210
0.0
220
0.0
230
-1.0
 40
0.3779979851668673
 41
5.341809248425247
 42
8.197440628250657
  0
ELLIPSE
  5
521D
330
5192
100
AcDbEntity
  8
0
 62
     0
100
AcDbEllipse
 10
1214.97878650166
 20
32.4456403887836
 30
0.0
 11
-20.88636778616046
 21
15.15950723243758
 31
0.0
210
0.0
220
0.0
230
-0.9999999999999998
 40
0.3620484457960908
 41
5.259486283433363
 42
8.232291883150136
  0
ELLIPSE
  5
521E
330
5192
100
AcDbEntity
  8
0
 62
     0
100
AcDbEllipse
 10
1176.232884654794
 20
31.52446576607002
 30
0.0
 11
-19.71952958070463
 21
14.92628344142003
 31
0.0
210
0.0
220
0.0
230
-0.9999999999999998
 40
0.3132060541742065
 41
5.250666993789478
 42
8.100370512577223
  0
ELLIPSE
  5
521F
330
5192
100
AcDbEntity
  8
0
 62
     0
100
AcDbEllipse
 10
1144.844997080517
 20
27.20983600440189
 30
0.0
 11
-17.26917335941397
 21
14.80967269837363
 31
0.0
210
0.0
220
0.0
230
-1.0
 40
0.351703405504709
 41
5.530968485444509
 42
7.813788647427747
  0
ELLIPSE
  5
5220
330
5192
100
AcDbEntity
  8
0
 62
     0
100
AcDbEllipse
 10
1023.611614658527
 20
36.60056847494246
 30
0.0
 11
-16.08965423127789
 21
16.08965423127789
 31
0.0
210
0.0
220
0.0
230
-0.9999999999999998
 40
0.5254634900290626
 41
1.010185497955116
 42
2.205206665925253
  0
ELLIPSE
  5
5221
330
5192
100
AcDbEntity
  8
0
 62
     0
100
AcDbEllipse
 10
1025.782846917784
 20
295.5168398682415
 30
0.0
 11
12.13246661655123
 21
-29.56314672626579
 31
0.0
210
0.0
220
0.0
230
-1.0
 40
0.2004963466959972
 41
3.990701529268593
 42
7.66677945586937
  0
ELLIPSE
  5
5222
330
5192
100
AcDbEntity
  8
0
 62
     0
100
AcDbEllipse
 10
1047.457701701342
 20
295.3806049975407
 30
0.0
 11
11.99614500966298
 21
-28.60949802150898
 31
0.0
210
0.0
220
0.0
230
-1.0
 40
0.2548630776677332
 41
0.0
 42
6.283185307179584
  0
ELLIPSE
  5
5223
330
5192
100
AcDbEntity
  8
0
 62
     0
100
AcDbEllipse
 10
1074.176387766945
 20
299.7401462141472
 30
0.0
 11
16.08574108414264
 21
-29.15443980923796
 31
0.0
210
0.0
220
0.0
230
-1.0
 40
0.2538269047843527
 41
0.0
 42
6.283185307179584
  0
ELLIPSE
  5
5224
330
5192
100
AcDbEntity
  8
0
 62
     0
100
AcDbEllipse
 10
1106.075230731619
 20
311.8651234641358
 30
0.0
 11
18.81213713040706
 21
-28.74573519713441
 31
0.0
210
0.0
220
0.0
230
-1.0
 40
0.3994236624772706
 41
0.0
 42
6.283185307179584
  0
ELLIPSE
  5
5225
330
5192
100
AcDbEntity
  8
0
 62
     0
100
AcDbEllipse
 10
1148.334383484287
 20
330.5294159964216
 30
0.0
 11
21.81117238028091
 21
-28.33702597518186
 31
0.0
210
0.0
220
0.0
230
-0.9999999999999998
 40
0.4670865194507213
 41
0.0
 42
6.283185307179584
  0
ELLIPSE
  5
5226
330
5192
100
AcDbEntity
  8
0
 62
     0
100
AcDbEllipse
 10
1197.126695310344
 20
360.5985443706774
 30
0.0
 11
22.9693526358261
 21
-28.26570238977625
 31
0.0
210
0.0
220
0.0
230
-0.9999999999999998
 40
0.6003268276440823
 41
0.0
 42
6.283185307179584
  0
ELLIPSE
  5
5227
330
5192
100
AcDbEntity
  8
0
 62
     0
100
AcDbEllipse
 10
1254.241975792156
 20
399.6253909320173
 30
0.0
 11
24.32329719929197
 21
-26.42205086197707
 31
0.0
210
0.0
220
0.0
230
-1.0
 40
0.6840588260764199
 41
0.0
 42
6.283185307179584
  0
ELLIPSE
  5
5228
330
5192
100
AcDbEntity
  8
0
 62
     0
100
AcDbEllipse
 10
1317.94886352703
 20
449.1341515798018
 30
0.0
 11
26.63049848963351
 21
-25.6825711369487
 31
0.0
210
0.0
220
0.0
230
-1.0
 40
0.7995240369076479
 41
0.0
 42
6.283185307179584
  0
ELLIPSE
  5
5229
330
5192
100
AcDbEntity
  8
0
 62
     0
100
AcDbEllipse
 10
1387.213537539033
 20
505.3169664845492
 30
0.0
 11
26.7154097593942
 21
-25.77765157973423
 31
0.0
210
0.0
220
0.0
230
-0.9999999999999998
 40
0.9072308990429279
 41
0.0
 42
6.283185307179584
  0
ELLIPSE
  5
522A
330
5192
100
AcDbEntity
  8
0
 62
     0
100
AcDbEllipse
 10
1463.045669580214
 20
571.2928503333189
 30
0.0
 11
29.39327075805667
 21
-23.78605846942339
 31
0.0
210
0.0
220
0.0
230
-1.0
 40
0.9471721172373143
 41
0.0
 42
6.283185307179584
  0
ELLIPSE
  5
522B
330
5192
100
AcDbEntity
  8
0
 62
     0
100
AcDbEllipse
 10
1384.23921694655
 20
648.8371689590669
 30
0.0
 11
26.80958050407134
 21
-27.80137533833062
 31
0.0
210
0.0
220
0.0
230
-1.0
 40
0.9592665141672039
 41
0.0
 42
6.283185307179584
  0
ELLIPSE
  5
522C
330
5192
100
AcDbEntity
  8
0
 62
     0
100
AcDbEllipse
 10
1308.553351725659
 20
729.7642755329323
 30
0.0
 11
23.30008311428972
 21
-29.1071312327625
 31
0.0
210
0.0
220
0.0
230
-0.9999999999999998
 40
0.9348015168909629
 41
0.0
 42
6.283185307179584
  0
ELLIPSE
  5
522D
330
5192
100
AcDbEntity
  8
0
 62
     0
100
AcDbEllipse
 10
1237.367154205929
 20
814.2012451554398
 30
0.0
 11
12.56928204496544
 21
-35.20765802767482
 31
0.0
210
0.0
220
0.0
230
-1.0
 40
0.8281510902799336
 41
0.0
 42
6.283185307179584
  0
ELLIPSE
  5
522E
330
5192
100
AcDbEntity
  8
0
 62
     0
100
AcDbEllipse
 10
1171.104414794338
 20
895.3955547181015
 30
0.0
 11
4.747616308376212
 21
-35.79479145936872
 31
0.0
210
0.0
220
0.0
230
-1.0
 40
0.786297360742565
 41
0.0
 42
6.283185307179584
  0
ELLIPSE
  5
522F
330
5192
100
AcDbEntity
  8
0
 62
     0
100
AcDbEllipse
 10
1114.531200576215
 20
973.3000938679545
 30
0.0
 11
3.238313876684649
 21
-33.28784257290667
 31
0.0
210
0.0
220
0.0
230
-1.0
 40
0.7146619888316316
 41
0.0
 42
6.283185307179584
  0
ELLIPSE
  5
5230
330
5192
100
AcDbEntity
  8
0
 62
     0
100
AcDbEllipse
 10
1066.55494564364
 20
1046.89630491987
 30
0.0
 11
1.495014207729617
 21
-32.19088518399145
 31
0.0
210
0.0
220
0.0
230
-1.0
 40
0.6551736887166888
 41
0.0
 42
6.283185307179584
  0
ELLIPSE
  5
5231
330
5192
100
AcDbEntity
  8
0
 62
     0
100
AcDbEllipse
 10
1172.622467409782
 20
1041.216150265155
 30
0.0
 11
0.0
 21
-35.40741200924112
 31
0.0
210
0.0
220
0.0
230
-1.0
 40
0.7731785972808104
 41
0.0
 42
6.283185307179584
  0
ELLIPSE
  5
5232
330
5192
100
AcDbEntity
  8
0
 62
     0
100
AcDbEllipse
 10
1236.01173791129
 20
964.2648725927344
 30
0.0
 11
2.474910472010954
 21
-37.30686115064799
 31
0.0
210
0.0
220
0.0
230
-1.0
 40
0.8550030881524246
 41
0.0
 42
6.283185307179584
  0
ELLIPSE
  5
5233
330
5192
100
AcDbEntity
  8
0
 62
     0
100
AcDbEllipse
 10
1305.057573116181
 20
883.9760849101374
 30
0.0
 11
5.275614907274009
 21
-37.24516293018115
 31
0.0
210
0.0
220
0.0
230
-1.0
 40
0.9599746624478688
 41
0.0
 42
6.283185307179584
  0
ELLIPSE
  5
5234
330
5192
100
AcDbEntity
  8
0
 62
     0
100
AcDbEllipse
 10
1384.073388533058
 20
801.5068478189558
 30
0.0
 11
17.60508497325729
 21
-33.79609226665762
 31
0.0
210
0.0
220
0.0
230
-1.0
 40
0.8982307229594015
 41
0.0
 42
6.283185307179584
  0
ELLIPSE
  5
5235
330
5192
100
AcDbEntity
  8
0
 62
     0
100
AcDbEllipse
 10
1461.743267689385
 20
722.4095586157152
 30
0.0
 11
-37.12902235478051
 21
-1.889081697954351
 31
0.0
210
0.0
220
0.0
230
-0.9999999999999998
 40
0.9939370144897022
 41
0.0
 42
6.283185307179584
  0
ELLIPSE
  5
5236
330
5192
100
AcDbEntity
  8
0
 62
     0
100
AcDbEllipse
 10
1461.853214429865
 20
877.5102183536844
 30
0.0
 11
0.0
 21
-38.08156012286561
 31
0.0
210
0.0
220
0.0
230
-1.0
 40
0.9839895141870108
 41
0.0
 42
6.283185307179584
  0
ELLIPSE
  5
5237
330
5192
100
AcDbEntity
  8
0
 62
     0
100
AcDbEllipse
 10
1382.071376969455
 20
957.6188439134265
 30
0.0
 11
1.896395803160102
 21
-38.4213659301948
 31
0.0
210
0.0
220
0.0
230
-1.0
 40
0.9097684253863695
 41
0.0
 42
6.283185307179584
  0
ELLIPSE
  5
5238
330
5192
100
AcDbEntity
  8
0
 62
     0
100
AcDbEllipse
 10
1304.204398119699
 20
1037.997085717971
 30
0.0
 11
2.044619584821534
 21
-38.65350871159686
 31
0.0
210
0.0
220
0.0
230
-0.9999999999999998
 40
0.9684076399980105
 41
0.0
 42
6.283185307179584
  0
ELLIPSE
  5
5239
330
5192
100
AcDbEntity
  8
0
 62
     0
100
AcDbEllipse
 10
1461.018979450726
 20
1036.585891049806
 30
0.0
 11
0.0
 21
-39.06348103220477
 31
0.0
210
0.0
220
0.0
230
-1.0
 40
0.947444651313479
 41
0.0
 42
6.283185307179584
  0
ELLIPSE
  5
523A
330
5192
100
AcDbEntity
  8
0
 62
     0
100
AcDbEllipse
 10
1025.440295095819
 20
982.3818790796407
 30
0.0
 11
1.495014207729617
 21
-32.19088518399145
 31
0.0
210
0.0
220
0.0
230
-1.0
 40
0.6551736887166888
 41
3.059318546647753
 42
6.506993200271656
  0
ELLIPSE
  5
523B
330
5192
100
AcDbEntity
  8
0
 62
     0
100
AcDbEllipse
 10
1027.377357999514
 20
857.6185994453938
 30
0.0
 11
1.495014207729617
 21
-32.19088518399145
 31
0.0
210
0.0
220
0.0
230
-1.0
 40
0.6551736887166888
 41
2.965810147589523
 42
6.600501599329887
  0
ELLIPSE
  5
523C
330
5192
100
AcDbEntity
  8
0
 62
     0
100
AcDbEllipse
 10
1031.184713903353
 20
741.2305030404024
 30
0.0
 11
13.31028064827205
 21
-35.2363289842047
 31
0.0
210
0.0
220
0.0
230
-0.9999999999999998
 40
0.4811876829804269
 41
3.378066902041308
 42
7.377793676600674
  0
ELLIPSE
  5
523D
330
5192
100
AcDbEntity
  8
0
 62
     0
100
AcDbEllipse
 10
1039.430302382408
 20
622.7869277818533
 30
0.0
 11
14.25147078353903
 21
-35.54498373618375
 31
0.0
210
0.0
220
0.0
230
-1.0
 40
0.4152679124103772
 41
2.914110852870212
 42
8.046363111785312
  0
ELLIPSE
  5
523E
330
5192
100
AcDbEntity
  8
0
 62
     0
100
AcDbEllipse
 10
1025.386377776561
 20
488.0576245798108
 30
0.0
 11
12.032862095992
 21
-31.65315550519224
 31
0.0
210
0.0
220
0.0
230
-1.0
 40
0.3228313403197935
 41
3.806209022154714
 42
7.352071412405987
  0
ELLIPSE
  5
523F
330
5192
100
AcDbEntity
  8
0
 62
     0
100
AcDbEllipse
 10
1051.941657569364
 20
504.5062092726062
 30
0.0
 11
12.86271396292816
 21
-31.23848344341775
 31
0.0
210
0.0
220
0.0
230
-1.0
 40
0.2782702580544408
 41
0.0
 42
6.283185307179584
  0
ELLIPSE
  5
5240
330
5192
100
AcDbEntity
  8
0
 62
     0
100
AcDbEllipse
 10
1084.029283141733
 20
528.4188541985456
 30
0.0
 11
15.90550414169423
 21
-31.92960354637491
 31
0.0
210
0.0
220
0.0
230
-1.0
 40
0.4643558402465539
 41
0.0
 42
6.283185307179584
  0
ELLIPSE
  5
5241
330
5192
100
AcDbEntity
  8
0
 62
     0
100
AcDbEllipse
 10
1128.979626687193
 20
566.0156149300753
 30
0.0
 11
16.0438147912668
 21
-31.37670976893435
 31
0.0
210
0.0
220
0.0
230
-1.0
 40
0.5753939494386061
 41
0.0
 42
6.283185307179584
  0
ELLIPSE
  5
5242
330
5192
100
AcDbEntity
  8
0
 62
     0
100
AcDbEllipse
 10
1178.936186151013
 20
610.6704741428663
 30
0.0
 11
19.31335583606522
 21
-31.70950169084431
 31
0.0
210
0.0
220
0.0
230
-1.0
 40
0.7526282289544934
 41
0.0
 42
6.283185307179584
  0
ELLIPSE
  5
5243
330
5192
100
AcDbEntity
  8
0
 62
     0
100
AcDbEllipse
 10
1121.511352881092
 20
696.766675974665
 30
0.0
 11
15.61194790856336
 21
-31.7824894317781
 31
0.0
210
0.0
220
0.0
230
-1.0
 40
0.6841394345716645
 41
0.0
 42
6.283185307179584
  0
ELLIPSE
  5
5244
330
5192
100
AcDbEntity
  8
0
 62
     0
100
AcDbEllipse
 10
1077.759355420867
 20
652.0785705301047
 30
0.0
 11
12.72084629549044
 21
-31.78248712685384
 31
0.0
210
0.0
220
0.0
230
-1.0
 40
0.4935221312573268
 41
0.0
 42
6.283185307179584
  0
ELLIPSE
  5
5245
330
5192
100
AcDbEntity
  8
0
 62
     0
100
AcDbEllipse
 10
1071.635245381671
 20
779.5815918209398
 30
0.0
 11
8.278022707345106
 21
-32.02418843038185
 31
0.0
210
0.0
220
0.0
230
-1.0
 40
0.5598442547693111
 41
0.0
 42
6.283185307179584
  0
ELLIPSE
  5
5246
330
5192
100
AcDbEntity
  8
0
 62
     0
100
AcDbEllipse
 10
1174.576473267773
 20
750.3595209154325
 30
0.0
 11
14.5532999905774
 21
-34.02569963104991
 31
0.0
210
0.0
220
0.0
230
-0.9999999999999998
 40
0.7310194254182731
 41
0.0
 42
6.283185307179584
  0
ELLIPSE
  5
5247
330
5192
100
AcDbEntity
  8
0
 62
     0
100
AcDbEllipse
 10
1117.813878927131
 20
832.7092223143079
 30
0.0
 11
10.07328611643248
 21
-33.38910943319605
 31
0.0
210
0.0
220
0.0
230
-1.0
 40
0.6901520096124371
 41
0.0
 42
6.283185307179584
  0
ELLIPSE
  5
5248
330
5192
100
AcDbEntity
  8
0
 62
     0
100
AcDbEllipse
 10
1065.939934447623
 20
913.5417347844693
 30
0.0
 11
6.510662038174757
 21
-32.08959066460804
 31
0.0
210
0.0
220
0.0
230
-1.0
 40
0.6433519553795857
 41
0.0
 42
6.283185307179584
  0
ELLIPSE
  5
5249
330
5192
100
AcDbEntity
  8
0
 62
     0
100
AcDbEllipse
 10
1241.452567676543
 20
667.6487922688572
 30
0.0
 11
20.11691303993205
 21
-31.73638402592044
 31
0.0
210
0.0
220
0.0
230
-1.0
 40
0.7853428073352033
 41
0.0
 42
6.283185307179584
  0
ELLIPSE
  5
524A
330
5192
100
AcDbEntity
  8
0
 62
     0
100
AcDbEllipse
 10
1246.204061816119
 20
527.0603293613701
 30
0.0
 11
22.68993224032243
 21
-29.15476710852473
 31
0.0
210
0.0
220
0.0
230
-1.0
 40
0.8140476902349892
 41
0.0
 42
6.283185307179584
  0
ELLIPSE
  5
524B
330
5192
100
AcDbEntity
  8
0
 62
     0
100
AcDbEllipse
 10
1188.34078900029
 20
480.513235421027
 30
0.0
 11
21.14070859910617
 21
-29.26467052111788
 31
0.0
210
0.0
220
0.0
230
-1.0
 40
0.6517585741059463
 41
0.0
 42
6.283185307179584
  0
ELLIPSE
  5
524C
330
5192
100
AcDbEntity
  8
0
 62
     0
100
AcDbEllipse
 10
1136.16141418404
 20
441.3048530017969
 30
0.0
 11
19.5780428791035
 21
-29.43869002003686
 31
0.0
210
0.0
220
0.0
230
-1.0
 40
0.5677403822323596
 41
0.0
 42
6.283185307179584
  0
ELLIPSE
  5
524D
330
5192
100
AcDbEntity
  8
0
 62
     0
100
AcDbEllipse
 10
1094.844241569476
 20
413.5705924566356
 30
0.0
 11
16.51729116367686
 21
-28.49943556912093
 31
0.0
210
0.0
220
0.0
230
-1.0
 40
0.4337608387177524
 41
0.0
 42
6.283185307179584
  0
ELLIPSE
  5
524E
330
5192
100
AcDbEntity
  8
0
 62
     0
100
AcDbEllipse
 10
1061.24495959756
 20
396.3580635695927
 30
0.0
 11
13.41147720501215
 21
-29.91030063307363
 31
0.0
210
0.0
220
0.0
230
-1.0
 40
0.2976157912374005
 41
0.0
 42
6.283185307179584
  0
ELLIPSE
  5
524F
330
5192
100
AcDbEntity
  8
0
 62
     0
100
AcDbEllipse
 10
1032.445578487494
 20
392.8309043670967
 30
0.0
 11
15.38790390505613
 21
-34.00180217327163
 31
0.0
210
0.0
220
0.0
230
-0.9999999999999998
 40
0.2004781885708614
 41
3.642161334497195
 42
8.090198374780053
  0
ELLIPSE
  5
5250
330
5192
100
AcDbEntity
  8
0
 62
     0
100
AcDbEllipse
 10
1470.488097861912
 20
195.6985877825397
 30
0.0
 11
-33.59813907440287
 21
4.874140977504449
 31
0.0
210
0.0
220
0.0
230
-0.9999999999999998
 40
0.679559020682735
 41
0.0
 42
6.283185307179584
  0
ELLIPSE
  5
5251
330
5192
100
AcDbEntity
  8
0
 62
     0
100
AcDbEllipse
 10
1541.328486676369
 20
64.68196485543666
 30
0.0
 11
-31.92014898036659
 21
0.0
 31
0.0
210
0.0
220
0.0
230
-1.0
 40
0.5030449809720228
 41
0.0
 42
6.283185307179584
  0
ELLIPSE
  5
5252
330
5192
100
AcDbEntity
  8
0
 62
     0
100
AcDbEllipse
 10
1541.409740674101
 20
146.3846670171712
 30
0.0
 11
-34.58688577659648
 21
0.0
 31
0.0
210
0.0
220
0.0
230
-1.0
 40
0.6791071082771328
 41
0.0
 42
6.283185307179584
  0
ELLIPSE
  5
5253
330
5192
100
AcDbEntity
  8
0
 62
     0
100
AcDbEllipse
 10
1540.172179168683
 20
247.7787176531521
 30
0.0
 11
-34.3319835403123
 21
0.0
 31
0.0
210
0.0
220
0.0
230
-1.0
 40
0.78795292034164
 41
0.0
 42
6.283185307179584
  0
ELLIPSE
  5
5254
330
5192
100
AcDbEntity
  8
0
 62
     0
100
AcDbEllipse
 10
1539.916430787213
 20
365.2483816151891
 30
0.0
 11
-34.07402956716722
 21
0.0
 31
0.0
210
0.0
220
0.0
230
-1.0
 40
0.8535288010029494
 41
0.0
 42
6.283185307179584
  0
ELLIPSE
  5
5255
330
5192
100
AcDbEntity
  8
0
 62
     0
100
AcDbEllipse
 10
1541.250292435832
 20
500.1676751383858
 30
0.0
 11
-38.21362841026203
 21
0.0
 31
0.0
210
0.0
220
0.0
230
-1.0
 40
0.9015312461323162
 41
0.0
 42
6.283185307179584
  0
ELLIPSE
  5
5256
330
5192
100
AcDbEntity
  8
0
 62
     0
100
AcDbEllipse
 10
1541.885719390537
 20
646.1841523937543
 30
0.0
 11
-38.58475329792092
 21
0.0
 31
0.0
210
0.0
220
0.0
230
-1.0
 40
0.9667154570683159
 41
0.0
 42
6.283185307179584
  0
ELLIPSE
  5
5257
330
5192
100
AcDbEntity
  8
0
 62
     0
100
AcDbEllipse
 10
1541.681581854538
 20
800.8593461082625
 30
0.0
 11
0.0
 21
40.26994600918643
 31
0.0
210
0.0
220
0.0
230
-1.0
 40
0.9674682045404674
 41
0.0
 42
6.283185307179584
  0
ELLIPSE
  5
5258
330
5192
100
AcDbEntity
  8
0
 62
     0
100
AcDbEllipse
 10
1541.6655692589
 20
956.9951935620199
 30
0.0
 11
0.0
 21
39.08110269694754
 31
0.0
210
0.0
220
0.0
230
-1.0
 40
0.9827856281975739
 41
0.0
 42
6.283185307179584
  0
ELLIPSE
  5
5259
330
5192
100
AcDbEntity
  8
0
 62
     0
100
AcDbEllipse
 10
1311.567753934349
 20
584.9278481966577
 30
0.0
 11
-22.64498228175275
 21
30.57593749015938
 31
0.0
210
0.0
220
0.0
230
-1.0
 40
0.8582798329265973
 41
0.0
 42
6.283185307179584
  0
ELLIPSE
  5
525A
330
5192
100
AcDbEntity
  8
0
 62
     0
100
AcDbEllipse
 10
1465.078407041105
 20
432.6988870460051
 30
0.0
 11
-37.79347923466386
 21
5.941371754444041
 31
0.0
210
0.0
220
0.0
230
-1.0
 40
0.7875876969600179
 41
0.0
 42
6.283185307179584
  0
ELLIPSE
  5
525B
330
5192
100
AcDbEntity
  8
0
 62
     0
100
AcDbEllipse
 10
1605.165821123915
 20
2198.407413211346
 30
0.0
 11
30.42603706014464
 21
0.0
 31
0.0
210
0.0
220
0.0
230
-1.0
 40
0.3372402171875113
 41
6.009348737011023
 42
9.698614530937939
  0
ELLIPSE
  5
525C
330
5192
100
AcDbEntity
  8
0
 62
     0
100
AcDbEllipse
 10
1727.824389039708
 20
2182.87404952114
 30
0.0
 11
28.26679488046243
 21
-10.11396515030851
 31
0.0
210
0.0
220
0.0
230
-1.0
 40
0.4689952453060453
 41
0.0
 42
6.283185307179584
  0
ELLIPSE
  5
525D
330
5192
100
AcDbEntity
  8
0
 62
     0
100
AcDbEllipse
 10
1667.626581637289
 20
2160.204819195214
 30
0.0
 11
30.18614888799537
 21
-9.416451186637837
 31
0.0
210
0.0
220
0.0
230
-1.0
 40
0.4997640396812409
 41
0.0
 42
6.283185307179584
  0
ELLIPSE
  5
525E
330
5192
100
AcDbEntity
  8
0
 62
     0
100
AcDbEllipse
 10
1605.334937874095
 20
2130.909195842257
 30
0.0
 11
32.4544676019878
 21
-6.277632587808718
 31
0.0
210
0.0
220
0.0
230
-1.0
 40
0.5310369267309467
 41
0.0
 42
6.283185307179584
  0
ELLIPSE
  5
525F
330
5192
100
AcDbEntity
  8
0
 62
     0
100
AcDbEllipse
 10
1676.486972783679
 20
2080.32190106752
 30
0.0
 11
30.18144897261939
 21
-13.57327198377746
 31
0.0
210
0.0
220
0.0
230
-1.0
 40
0.6086522554516111
 41
0.0
 42
6.283185307179584
  0
ELLIPSE
  5
5260
330
5192
100
AcDbEntity
  8
0
 62
     0
100
AcDbEllipse
 10
1737.317287739438
 20
2111.723676890981
 30
0.0
 11
29.78965568577537
 21
-14.27805798441649
 31
0.0
210
0.0
220
0.0
230
-1.0
 40
0.5613751132608095
 41
0.0
 42
6.283185307179584
  0
ELLIPSE
  5
5261
330
5192
100
AcDbEntity
  8
0
 62
     0
100
AcDbEllipse
 10
1791.761171611309
 20
2132.999248414751
 30
0.0
 11
27.52052691810872
 21
-15.66173876817708
 31
0.0
210
0.0
220
0.0
230
-0.9999999999999998
 40
0.3840801736235547
 41
0.0
 42
6.283185307179584
  0
ELLIPSE
  5
5262
330
5192
100
AcDbEntity
  8
0
 62
     0
100
AcDbEllipse
 10
1842.109600555138
 20
2147.603017592848
 30
0.0
 11
24.42389223102677
 21
-15.82364819348806
 31
0.0
210
0.0
220
0.0
230
-1.0
 40
0.4305391531601336
 41
0.0
 42
6.283185307179584
  0
ELLIPSE
  5
5263
330
5192
100
AcDbEntity
  8
0
 62
     0
100
AcDbEllipse
 10
1885.275516161944
 20
2153.076176193047
 30
0.0
 11
22.41694816237614
 21
-16.02342061445038
 31
0.0
210
0.0
220
0.0
230
-1.0
 40
0.3779979851668673
 41
0.0
 42
6.283185307179584
  0
ELLIPSE
  5
5264
330
5192
100
AcDbEntity
  8
0
 62
     0
100
AcDbEllipse
 10
1923.245109887687
 20
2155.452516529645
 30
0.0
 11
20.88636778616046
 21
-15.15950723243758
 31
0.0
210
0.0
220
0.0
230
-0.9999999999999998
 40
0.3620484457960908
 41
0.0
 42
6.283185307179584
  0
ELLIPSE
  5
5265
330
5192
100
AcDbEntity
  8
0
 62
     0
100
AcDbEllipse
 10
1955.916523498119
 20
2158.017969011142
 30
0.0
 11
19.71952958070463
 21
-14.92628344142003
 31
0.0
210
0.0
220
0.0
230
-0.9999999999999998
 40
0.3132060541742065
 41
0.0
 42
6.283185307179584
  0
ELLIPSE
  5
5266
330
5192
100
AcDbEntity
  8
0
 62
     0
100
AcDbEllipse
 10
1987.304411072396
 20
2162.33259877281
 30
0.0
 11
17.26917335941397
 21
-14.80967269837363
 31
0.0
210
0.0
220
0.0
230
-1.0
 40
0.351703405504709
 41
0.0
 42
6.283185307179584
  0
ELLIPSE
  5
5267
330
5192
100
AcDbEntity
  8
0
 62
     0
100
AcDbEllipse
 10
2021.64383825767
 20
2176.526367276041
 30
0.0
 11
16.08965423127789
 21
-16.08965423127789
 31
0.0
210
0.0
220
0.0
230
-0.9999999999999998
 40
0.5254634900290626
 41
0.0
 42
6.283185307179584
  0
ELLIPSE
  5
5268
330
5192
100
AcDbEntity
  8
0
 62
     0
100
AcDbEllipse
 10
2031.58370535234
 20
2103.587166443769
 30
0.0
 11
15.0808053389707
 21
-22.73497138406114
 31
0.0
210
0.0
220
0.0
230
-1.0
 40
0.2810715458434808
 41
0.0
 42
6.283185307179584
  0
ELLIPSE
  5
5269
330
5192
100
AcDbEntity
  8
0
 62
     0
100
AcDbEllipse
 10
2003.083542830783
 20
2098.60590640253
 30
0.0
 11
15.97542941848766
 21
-21.58545019068723
 31
0.0
210
0.0
220
0.0
230
-1.0
 40
0.1951258246945301
 41
0.0
 42
6.283185307179584
  0
ELLIPSE
  5
526A
330
5192
100
AcDbEntity
  8
0
 62
     0
100
AcDbEllipse
 10
1973.81655222219
 20
2096.945489462019
 30
0.0
 11
17.63687356470898
 21
-20.69137917580726
 31
0.0
210
0.0
220
0.0
230
-1.0
 40
0.3037436373290199
 41
0.0
 42
6.283185307179584
  0
ELLIPSE
  5
526B
330
5192
100
AcDbEntity
  8
0
 62
     0
100
AcDbEllipse
 10
1940.657149446051
 20
2095.54320563218
 30
0.0
 11
21.40148973977637
 21
-22.09903347985646
 31
0.0
210
0.0
220
0.0
230
-1.0
 40
0.2954908278377448
 41
0.0
 42
6.283185307179584
  0
ELLIPSE
  5
526C
330
5192
100
AcDbEntity
  8
0
 62
     0
100
AcDbEllipse
 10
1903.0880149774
 20
2087.382617943074
 30
0.0
 11
22.33728620082914
 21
-20.73605091859239
 31
0.0
210
0.0
220
0.0
230
-1.0
 40
0.3826752338158837
 41
0.0
 42
6.283185307179584
  0
ELLIPSE
  5
526D
330
5192
100
AcDbEntity
  8
0
 62
     0
100
AcDbEllipse
 10
1857.286256898644
 20
2073.49215837662
 30
0.0
 11
24.58707794465547
 21
-20.89923266225676
 31
0.0
210
0.0
220
0.0
230
-1.0
 40
0.4144710327891679
 41
0.0
 42
6.283185307179584
  0
ELLIPSE
  5
526E
330
5192
100
AcDbEntity
  8
0
 62
     0
100
AcDbEllipse
 10
1805.809318922703
 20
2051.520282974568
 30
0.0
 11
26.5156633559373
 21
-20.23183023296224
 31
0.0
210
0.0
220
0.0
230
-1.0
 40
0.5447945635724488
 41
0.0
 42
6.283185307179584
  0
ELLIPSE
  5
526F
330
5192
100
AcDbEntity
  8
0
 62
     0
100
AcDbEllipse
 10
1747.108502740181
 20
2020.936432678415
 30
0.0
 11
28.36117014364141
 21
-19.08012858096033
 31
0.0
210
0.0
220
0.0
230
-1.0
 40
0.6609049286427032
 41
0.0
 42
6.283185307179584
  0
ELLIPSE
  5
5270
330
5192
100
AcDbEntity
  8
0
 62
     0
100
AcDbEllipse
 10
1682.705802960408
 20
1979.302870876207
 30
0.0
 11
29.02016885821378
 21
-18.64430883640123
 31
0.0
210
0.0
220
0.0
230
-1.0
 40
0.7880072252956542
 41
0.0
 42
6.283185307179584
  0
ELLIPSE
  5
5271
330
5192
100
AcDbEntity
  8
0
 62
     0
100
AcDbEllipse
 10
1612.634287418005
 20
1930.609216833
 30
0.0
 11
31.43125351698556
 21
-15.93577124842758
 31
0.0
210
0.0
220
0.0
230
-1.0
 40
0.825027248145369
 41
0.0
 42
6.283185307179584
  0
ELLIPSE
  5
5272
330
5192
100
AcDbEntity
  8
0
 62
     0
100
AcDbEllipse
 10
1687.476730367826
 20
1860.825420141485
 30
0.0
 11
27.76228382794173
 21
-22.15758547830683
 31
0.0
210
0.0
220
0.0
230
-0.9999999999999998
 40
0.7814370002040994
 41
0.0
 42
6.283185307179584
  0
ELLIPSE
  5
5273
330
5192
100
AcDbEntity
  8
0
 62
     0
100
AcDbEllipse
 10
1757.559133512834
 20
1911.704965520149
 30
0.0
 11
27.357176787645
 21
-22.41564483139607
 31
0.0
210
0.0
220
0.0
230
-1.0
 40
0.7577332530563343
 41
0.0
 42
6.283185307179584
  0
ELLIPSE
  5
5274
330
5192
100
AcDbEntity
  8
0
 62
     0
100
AcDbEllipse
 10
1818.070857342645
 20
1951.830380808654
 30
0.0
 11
24.31143855844612
 21
-24.31143855844612
 31
0.0
210
0.0
220
0.0
230
-1.0
 40
0.6802716780200933
 41
0.0
 42
6.283185307179584
  0
ELLIPSE
  5
5275
330
5192
100
AcDbEntity
  8
0
 62
     0
100
AcDbEllipse
 10
1871.619794599659
 20
1982.598095040353
 30
0.0
 11
22.99360726813026
 21
-22.99360726813026
 31
0.0
210
0.0
220
0.0
230
-0.9999999999999998
 40
0.5741637720713002
 41
0.0
 42
6.283185307179584
  0
ELLIPSE
  5
5276
330
5192
100
AcDbEntity
  8
0
 62
     0
100
AcDbEllipse
 10
1918.502752974911
 20
2002.4476678731
 30
0.0
 11
22.90408911584604
 21
-22.90408911584604
 31
0.0
210
0.0
220
0.0
230
-1.0
 40
0.4186236573607289
 41
0.0
 42
6.283185307179584
  0
ELLIPSE
  5
5277
330
5192
100
AcDbEntity
  8
0
 62
     0
100
AcDbEllipse
 10
1958.511345974882
 20
2017.741159562481
 30
0.0
 11
19.21616944602742
 21
-25.53539939923706
 31
0.0
210
0.0
220
0.0
230
-1.0
 40
0.3766047139849467
 41
0.0
 42
6.283185307179584
  0
ELLIPSE
  5
5278
330
5192
100
AcDbEntity
  8
0
 62
     0
100
AcDbEllipse
 10
1991.664516951957
 20
2023.439138198773
 30
0.0
 11
16.04866709297754
 21
-24.4802164629427
 31
0.0
210
0.0
220
0.0
230
-1.0
 40
0.3241712871052219
 41
0.0
 42
6.283185307179584
  0
ELLIPSE
  5
5279
330
5192
100
AcDbEntity
  8
0
 62
     0
100
AcDbEllipse
 10
2020.142459139813
 20
2023.572459644837
 30
0.0
 11
13.31158395245028
 21
-25.14482762860148
 31
0.0
210
0.0
220
0.0
230
-1.0
 40
0.2108018908727055
 41
0.0
 42
6.283185307179584
  0
ELLIPSE
  5
527A
330
5192
100
AcDbEntity
  8
0
 62
     0
100
AcDbEllipse
 10
2045.595376187394
 20
2021.964359881855
 30
0.0
 11
-15.35951593496879
 21
29.09197865874336
 31
0.0
210
0.0
220
0.0
230
-1.0
 40
0.244560068360591
 41
3.503656402014906
 42
8.195138527442518
  0
ELLIPSE
  5
527B
330
5192
100
AcDbEntity
  8
0
 62
     0
100
AcDbEllipse
 10
2061.804161216476
 20
2116.480665468168
 30
0.0
 11
15.0808053389707
 21
-22.73497138406114
 31
0.0
210
0.0
220
0.0
230
-1.0
 40
0.2810715458434808
 41
1.439775629419719
 42
4.041824827120143
  0
ELLIPSE
  5
527C
330
5192
100
AcDbEntity
  8
0
 62
     0
100
AcDbEllipse
 10
1776.40722178772
 20
2198.291918051785
 30
0.0
 11
24.42389223102677
 21
-15.82364819348806
 31
0.0
210
0.0
220
0.0
230
-1.0
 40
0.4305391531601336
 41
5.146194802244943
 42
8.593233048848867
  0
ELLIPSE
  5
527D
330
5192
100
AcDbEntity
  8
0
 62
     0
100
AcDbEllipse
 10
1819.573137394526
 20
2203.765076651984
 30
0.0
 11
22.41694816237614
 21
-16.02342061445038
 31
0.0
210
0.0
220
0.0
230
-1.0
 40
0.3779979851668673
 41
5.341809248425247
 42
8.197440628250657
  0
ELLIPSE
  5
527E
330
5192
100
AcDbEntity
  8
0
 62
     0
100
AcDbEllipse
 10
1864.677322965204
 20
2202.610235692739
 30
0.0
 11
20.88636778616046
 21
-15.15950723243758
 31
0.0
210
0.0
220
0.0
230
-0.9999999999999998
 40
0.3620484457960908
 41
5.259486283433363
 42
8.232291883150136
  0
ELLIPSE
  5
527F
330
5192
100
AcDbEntity
  8
0
 62
     0
100
AcDbEllipse
 10
1903.423224812063
 20
2203.531410315453
 30
0.0
 11
19.71952958070463
 21
-14.92628344142003
 31
0.0
210
0.0
220
0.0
230
-0.9999999999999998
 40
0.3132060541742065
 41
5.250666993789478
 42
8.100370512577223
  0
ELLIPSE
  5
5280
330
5192
100
AcDbEntity
  8
0
 62
     0
100
AcDbEllipse
 10
1934.811112386338
 20
2207.846040077121
 30
0.0
 11
17.26917335941397
 21
-14.80967269837363
 31
0.0
210
0.0
220
0.0
230
-1.0
 40
0.351703405504709
 41
5.530968485444509
 42
7.813788647427747
  0
ELLIPSE
  5
5281
330
5192
100
AcDbEntity
  8
0
 62
     0
100
AcDbEllipse
 10
2056.044494808328
 20
2198.45530760658
 30
0.0
 11
16.08965423127789
 21
-16.08965423127789
 31
0.0
210
0.0
220
0.0
230
-0.9999999999999998
 40
0.5254634900290626
 41
1.010185497955116
 42
2.205206665925253
  0
ELLIPSE
  5
5282
330
5192
100
AcDbEntity
  8
0
 62
     0
100
AcDbEllipse
 10
2053.873262549071
 20
1939.539036213281
 30
0.0
 11
-12.13246661655123
 21
29.56314672626579
 31
0.0
210
0.0
220
0.0
230
-1.0
 40
0.2004963466959972
 41
3.990701529268593
 42
7.66677945586937
  0
ELLIPSE
  5
5283
330
5192
100
AcDbEntity
  8
0
 62
     0
100
AcDbEllipse
 10
2032.19840776551
 20
1939.675271083983
 30
0.0
 11
-11.99614500966298
 21
28.60949802150898
 31
0.0
210
0.0
220
0.0
230
-1.0
 40
0.2548630776677332
 41
0.0
 42
6.283185307179584
  0
ELLIPSE
  5
5284
330
5192
100
AcDbEntity
  8
0
 62
     0
100
AcDbEllipse
 10
2005.479721699929
 20
1935.315729867376
 30
0.0
 11
-16.08574108414264
 21
29.15443980923796
 31
0.0
210
0.0
220
0.0
230
-1.0
 40
0.2538269047843527
 41
0.0
 42
6.283185307179584
  0
ELLIPSE
  5
5285
330
5192
100
AcDbEntity
  8
0
 62
     0
100
AcDbEllipse
 10
1973.580878735242
 20
1923.190752617388
 30
0.0
 11
-18.81213713040706
 21
28.74573519713441
 31
0.0
210
0.0
220
0.0
230
-1.0
 40
0.3994236624772706
 41
0.0
 42
6.283185307179584
  0
ELLIPSE
  5
5286
330
5192
100
AcDbEntity
  8
0
 62
     0
100
AcDbEllipse
 10
1931.32172598256
 20
1904.526460085101
 30
0.0
 11
-21.81117238028091
 21
28.33702597518186
 31
0.0
210
0.0
220
0.0
230
-0.9999999999999998
 40
0.4670865194507213
 41
0.0
 42
6.283185307179584
  0
ELLIPSE
  5
5287
330
5192
100
AcDbEntity
  8
0
 62
     0
100
AcDbEllipse
 10
1882.529414156509
 20
1874.457331710845
 30
0.0
 11
-22.9693526358261
 21
28.26570238977625
 31
0.0
210
0.0
220
0.0
230
-0.9999999999999998
 40
0.6003268276440823
 41
0.0
 42
6.283185307179584
  0
ELLIPSE
  5
5288
330
5192
100
AcDbEntity
  8
0
 62
     0
100
AcDbEllipse
 10
1825.414133674705
 20
1835.430485149505
 30
0.0
 11
-24.32329719929197
 21
26.42205086197707
 31
0.0
210
0.0
220
0.0
230
-1.0
 40
0.6840588260764199
 41
0.0
 42
6.283185307179584
  0
ELLIPSE
  5
5289
330
5192
100
AcDbEntity
  8
0
 62
     0
100
AcDbEllipse
 10
1761.707245939836
 20
1785.92172450172
 30
0.0
 11
-26.63049848963351
 21
25.6825711369487
 31
0.0
210
0.0
220
0.0
230
-1.0
 40
0.7995240369076479
 41
0.0
 42
6.283185307179584
  0
ELLIPSE
  5
528A
330
5192
100
AcDbEntity
  8
0
 62
     0
100
AcDbEllipse
 10
1692.442571927833
 20
1729.738909596972
 30
0.0
 11
-26.7154097593942
 21
25.77765157973423
 31
0.0
210
0.0
220
0.0
230
-0.9999999999999998
 40
0.9072308990429279
 41
0.0
 42
6.283185307179584
  0
ELLIPSE
  5
528B
330
5192
100
AcDbEntity
  8
0
 62
     0
100
AcDbEllipse
 10
1616.610439886638
 20
1663.763025748204
 30
0.0
 11
-29.39327075805667
 21
23.78605846942339
 31
0.0
210
0.0
220
0.0
230
-1.0
 40
0.9471721172373143
 41
0.0
 42
6.283185307179584
  0
ELLIPSE
  5
528C
330
5192
100
AcDbEntity
  8
0
 62
     0
100
AcDbEllipse
 10
1695.41689252031
 20
1586.218707122456
 30
0.0
 11
-26.80958050407134
 21
27.80137533833062
 31
0.0
210
0.0
220
0.0
230
-1.0
 40
0.9592665141672039
 41
0.0
 42
6.283185307179584
  0
ELLIPSE
  5
528D
330
5192
100
AcDbEntity
  8
0
 62
     0
100
AcDbEllipse
 10
1771.102757741188
 20
1505.291600548591
 30
0.0
 11
-23.30008311428972
 21
29.1071312327625
 31
0.0
210
0.0
220
0.0
230
-0.9999999999999998
 40
0.9348015168909629
 41
0.0
 42
6.283185307179584
  0
ELLIPSE
  5
528E
330
5192
100
AcDbEntity
  8
0
 62
     0
100
AcDbEllipse
 10
1842.288955260915
 20
1420.854630926083
 30
0.0
 11
-12.56928204496544
 21
35.20765802767482
 31
0.0
210
0.0
220
0.0
230
-1.0
 40
0.8281510902799336
 41
0.0
 42
6.283185307179584
  0
ELLIPSE
  5
528F
330
5192
100
AcDbEntity
  8
0
 62
     0
100
AcDbEllipse
 10
1908.55169467252
 20
1339.660321363422
 30
0.0
 11
-4.747616308376212
 21
35.79479145936872
 31
0.0
210
0.0
220
0.0
230
-1.0
 40
0.786297360742565
 41
0.0
 42
6.283185307179584
  0
ELLIPSE
  5
5290
330
5192
100
AcDbEntity
  8
0
 62
     0
100
AcDbEllipse
 10
1965.124908890641
 20
1261.755782213569
 30
0.0
 11
-3.238313876684649
 21
33.28784257290667
 31
0.0
210
0.0
220
0.0
230
-1.0
 40
0.7146619888316316
 41
0.0
 42
6.283185307179584
  0
ELLIPSE
  5
5291
330
5192
100
AcDbEntity
  8
0
 62
     0
100
AcDbEllipse
 10
2013.101163823196
 20
1188.159571161653
 30
0.0
 11
-1.495014207729617
 21
32.19088518399145
 31
0.0
210
0.0
220
0.0
230
-1.0
 40
0.6551736887166888
 41
0.0
 42
6.283185307179584
  0
ELLIPSE
  5
5292
330
5192
100
AcDbEntity
  8
0
 62
     0
100
AcDbEllipse
 10
1965.833858241662
 20
1119.439817536418
 30
0.0
 11
0.0
 21
34.50147524275582
 31
0.0
210
0.0
220
0.0
230
-1.0
 40
0.7343984306497921
 41
0.0
 42
6.283185307179584
  0
ELLIPSE
  5
5293
330
5192
100
AcDbEntity
  8
0
 62
     0
100
AcDbEllipse
 10
1907.033642057097
 20
1193.839725816368
 30
0.0
 11
0.0
 21
35.40741200924112
 31
0.0
210
0.0
220
0.0
230
-1.0
 40
0.7731785972808104
 41
0.0
 42
6.283185307179584
  0
ELLIPSE
  5
5294
330
5192
100
AcDbEntity
  8
0
 62
     0
100
AcDbEllipse
 10
1843.644371555566
 20
1270.79100348879
 30
0.0
 11
-2.474910472010954
 21
37.30686115064799
 31
0.0
210
0.0
220
0.0
230
-1.0
 40
0.8550030881524246
 41
0.0
 42
6.283185307179584
  0
ELLIPSE
  5
5295
330
5192
100
AcDbEntity
  8
0
 62
     0
100
AcDbEllipse
 10
1774.598536350679
 20
1351.079791171386
 30
0.0
 11
-5.275614907274009
 21
37.24516293018115
 31
0.0
210
0.0
220
0.0
230
-1.0
 40
0.9599746624478688
 41
0.0
 42
6.283185307179584
  0
ELLIPSE
  5
5296
330
5192
100
AcDbEntity
  8
0
 62
     0
100
AcDbEllipse
 10
1695.582720933794
 20
1433.549028262567
 30
0.0
 11
-17.60508497325729
 21
33.79609226665762
 31
0.0
210
0.0
220
0.0
230
-1.0
 40
0.8982307229594015
 41
0.0
 42
6.283185307179584
  0
ELLIPSE
  5
5297
330
5192
100
AcDbEntity
  8
0
 62
     0
100
AcDbEllipse
 10
1617.912841777473
 20
1512.646317465809
 30
0.0
 11
37.12902235478051
 21
1.889081697954351
 31
0.0
210
0.0
220
0.0
230
-0.9999999999999998
 40
0.9939370144897022
 41
0.0
 42
6.283185307179584
  0
ELLIPSE
  5
5298
330
5192
100
AcDbEntity
  8
0
 62
     0
100
AcDbEllipse
 10
1617.80289503699
 20
1357.545657727839
 30
0.0
 11
0.0
 21
38.08156012286561
 31
0.0
210
0.0
220
0.0
230
-1.0
 40
0.9839895141870108
 41
0.0
 42
6.283185307179584
  0
ELLIPSE
  5
5299
330
5192
100
AcDbEntity
  8
0
 62
     0
100
AcDbEllipse
 10
1697.584732497406
 20
1277.437032168097
 30
0.0
 11
-1.896395803160102
 21
38.4213659301948
 31
0.0
210
0.0
220
0.0
230
-1.0
 40
0.9097684253863695
 41
0.0
 42
6.283185307179584
  0
ELLIPSE
  5
529A
330
5192
100
AcDbEntity
  8
0
 62
     0
100
AcDbEllipse
 10
1775.451711347167
 20
1197.058790363551
 30
0.0
 11
-2.044619584821534
 21
38.65350871159686
 31
0.0
210
0.0
220
0.0
230
-0.9999999999999998
 40
0.9684076399980105
 41
0.0
 42
6.283185307179584
  0
ELLIPSE
  5
529B
330
5192
100
AcDbEntity
  8
0
 62
     0
100
AcDbEllipse
 10
1618.637130016121
 20
1198.469985031715
 30
0.0
 11
0.0
 21
39.06348103220477
 31
0.0
210
0.0
220
0.0
230
-1.0
 40
0.947444651313479
 41
0.0
 42
6.283185307179584
  0
ELLIPSE
  5
529C
330
5192
100
AcDbEntity
  8
0
 62
     0
100
AcDbEllipse
 10
1846.47903408246
 20
1119.235407607252
 30
0.0
 11
0.0
 21
37.61877506594683
 31
0.0
210
0.0
220
0.0
230
-1.0
 40
0.94563854561306
 41
0.0
 42
6.283185307179584
  0
ELLIPSE
  5
529D
330
5192
100
AcDbEntity
  8
0
 62
     0
100
AcDbEllipse
 10
1698.806546078188
 20
1117.995226816388
 30
0.0
 11
0.0
 21
39.27234868545852
 31
0.0
210
0.0
220
0.0
230
-1.0
 40
0.9795519212978291
 41
0.0
 42
6.283185307179584
  0
ELLIPSE
  5
529E
330
5192
100
AcDbEntity
  8
0
 62
     0
100
AcDbEllipse
 10
2054.215814371022
 20
1252.673997001882
 30
0.0
 11
-1.495014207729617
 21
32.19088518399145
 31
0.0
210
0.0
220
0.0
230
-1.0
 40
0.6551736887166888
 41
3.059318546647753
 42
6.506993200271656
  0
ELLIPSE
  5
529F
330
5192
100
AcDbEntity
  8
0
 62
     0
100
AcDbEllipse
 10
2052.278751467333
 20
1377.437276636129
 30
0.0
 11
-1.495014207729617
 21
32.19088518399145
 31
0.0
210
0.0
220
0.0
230
-1.0
 40
0.6551736887166888
 41
2.965810147589523
 42
6.600501599329887
  0
ELLIPSE
  5
52A0
330
5192
100
AcDbEntity
  8
0
 62
     0
100
AcDbEllipse
 10
2048.471395563491
 20
1493.825373041121
 30
0.0
 11
-13.31028064827205
 21
35.2363289842047
 31
0.0
210
0.0
220
0.0
230
-0.9999999999999998
 40
0.4811876829804269
 41
3.378066902041308
 42
7.377793676600674
  0
ELLIPSE
  5
52A1
330
5192
100
AcDbEntity
  8
0
 62
     0
100
AcDbEllipse
 10
2040.225807084453
 20
1612.268948299669
 30
0.0
 11
-14.25147078353903
 21
35.54498373618375
 31
0.0
210
0.0
220
0.0
230
-1.0
 40
0.4152679124103772
 41
2.914110852870212
 42
8.046363111785312
  0
ELLIPSE
  5
52A2
330
5192
100
AcDbEntity
  8
0
 62
     0
100
AcDbEllipse
 10
2054.269731690284
 20
1746.998251501712
 30
0.0
 11
-12.032862095992
 21
31.65315550519224
 31
0.0
210
0.0
220
0.0
230
-1.0
 40
0.3228313403197935
 41
3.806209022154714
 42
7.352071412405987
  0
ELLIPSE
  5
52A3
330
5192
100
AcDbEntity
  8
0
 62
     0
100
AcDbEllipse
 10
2027.71445189751
 20
1730.549666808917
 30
0.0
 11
-12.86271396292816
 21
31.23848344341775
 31
0.0
210
0.0
220
0.0
230
-1.0
 40
0.2782702580544408
 41
0.0
 42
6.283185307179584
  0
ELLIPSE
  5
52A4
330
5192
100
AcDbEntity
  8
0
 62
     0
100
AcDbEllipse
 10
1995.626826325122
 20
1706.637021882977
 30
0.0
 11
-15.90550414169423
 21
31.92960354637491
 31
0.0
210
0.0
220
0.0
230
-1.0
 40
0.4643558402465539
 41
0.0
 42
6.283185307179584
  0
ELLIPSE
  5
52A5
330
5192
100
AcDbEntity
  8
0
 62
     0
100
AcDbEllipse
 10
1950.676482779662
 20
1669.040261151447
 30
0.0
 11
-16.0438147912668
 21
31.37670976893435
 31
0.0
210
0.0
220
0.0
230
-1.0
 40
0.5753939494386061
 41
0.0
 42
6.283185307179584
  0
ELLIPSE
  5
52A6
330
5192
100
AcDbEntity
  8
0
 62
     0
100
AcDbEllipse
 10
1900.71992331584
 20
1624.385401938658
 30
0.0
 11
-19.31335583606522
 21
31.70950169084431
 31
0.0
210
0.0
220
0.0
230
-1.0
 40
0.7526282289544934
 41
0.0
 42
6.283185307179584
  0
ELLIPSE
  5
52A7
330
5192
100
AcDbEntity
  8
0
 62
     0
100
AcDbEllipse
 10
1958.144756585753
 20
1538.289200106858
 30
0.0
 11
-15.61194790856336
 21
31.7824894317781
 31
0.0
210
0.0
220
0.0
230
-1.0
 40
0.6841394345716645
 41
0.0
 42
6.283185307179584
  0
ELLIPSE
  5
52A8
330
5192
100
AcDbEntity
  8
0
 62
     0
100
AcDbEllipse
 10
2001.89675404598
 20
1582.977305551418
 30
0.0
 11
-12.72084629549044
 21
31.78248712685384
 31
0.0
210
0.0
220
0.0
230
-1.0
 40
0.4935221312573268
 41
0.0
 42
6.283185307179584
  0
ELLIPSE
  5
52A9
330
5192
100
AcDbEntity
  8
0
 62
     0
100
AcDbEllipse
 10
2008.020864085192
 20
1455.474284260584
 30
0.0
 11
-8.278022707345106
 21
32.02418843038185
 31
0.0
210
0.0
220
0.0
230
-1.0
 40
0.5598442547693111
 41
0.0
 42
6.283185307179584
  0
ELLIPSE
  5
52AA
330
5192
100
AcDbEntity
  8
0
 62
     0
100
AcDbEllipse
 10
1905.079636199076
 20
1484.69635516609
 30
0.0
 11
-14.5532999905774
 21
34.02569963104991
 31
0.0
210
0.0
220
0.0
230
-0.9999999999999998
 40
0.7310194254182731
 41
0.0
 42
6.283185307179584
  0
ELLIPSE
  5
52AB
330
5192
100
AcDbEntity
  8
0
 62
     0
100
AcDbEllipse
 10
1961.842230539732
 20
1402.346653767215
 30
0.0
 11
-10.07328611643248
 21
33.38910943319605
 31
0.0
210
0.0
220
0.0
230
-1.0
 40
0.6901520096124371
 41
0.0
 42
6.283185307179584
  0
ELLIPSE
  5
52AC
330
5192
100
AcDbEntity
  8
0
 62
     0
100
AcDbEllipse
 10
2013.716175019233
 20
1321.514141297054
 30
0.0
 11
-6.510662038174757
 21
32.08959066460804
 31
0.0
210
0.0
220
0.0
230
-1.0
 40
0.6433519553795857
 41
0.0
 42
6.283185307179584
  0
ELLIPSE
  5
52AD
330
5192
100
AcDbEntity
  8
0
 62
     0
100
AcDbEllipse
 10
1838.203541790309
 20
1567.407083812666
 30
0.0
 11
-20.11691303993205
 21
31.73638402592044
 31
0.0
210
0.0
220
0.0
230
-1.0
 40
0.7853428073352033
 41
0.0
 42
6.283185307179584
  0
ELLIPSE
  5
52AE
330
5192
100
AcDbEntity
  8
0
 62
     0
100
AcDbEllipse
 10
1833.452047650725
 20
1707.995546720153
 30
0.0
 11
-22.68993224032243
 21
29.15476710852473
 31
0.0
210
0.0
220
0.0
230
-1.0
 40
0.8140476902349892
 41
0.0
 42
6.283185307179584
  0
ELLIPSE
  5
52AF
330
5192
100
AcDbEntity
  8
0
 62
     0
100
AcDbEllipse
 10
1891.31532046657
 20
1754.542640660496
 30
0.0
 11
-21.14070859910617
 21
29.26467052111788
 31
0.0
210
0.0
220
0.0
230
-1.0
 40
0.6517585741059463
 41
0.0
 42
6.283185307179584
  0
ELLIPSE
  5
52B0
330
5192
100
AcDbEntity
  8
0
 62
     0
100
AcDbEllipse
 10
1943.494695282813
 20
1793.751023079725
 30
0.0
 11
-19.5780428791035
 21
29.43869002003686
 31
0.0
210
0.0
220
0.0
230
-1.0
 40
0.5677403822323596
 41
0.0
 42
6.283185307179584
  0
ELLIPSE
  5
52B1
330
5192
100
AcDbEntity
  8
0
 62
     0
100
AcDbEllipse
 10
1984.811867897379
 20
1821.485283624888
 30
0.0
 11
-16.51729116367686
 21
28.49943556912093
 31
0.0
210
0.0
220
0.0
230
-1.0
 40
0.4337608387177524
 41
0.0
 42
6.283185307179584
  0
ELLIPSE
  5
52B2
330
5192
100
AcDbEntity
  8
0
 62
     0
100
AcDbEllipse
 10
2018.411149869304
 20
1838.697812511929
 30
0.0
 11
-13.41147720501215
 21
29.91030063307363
 31
0.0
210
0.0
220
0.0
230
-1.0
 40
0.2976157912374005
 41
0.0
 42
6.283185307179584
  0
ELLIPSE
  5
52B3
330
5192
100
AcDbEntity
  8
0
 62
     0
100
AcDbEllipse
 10
2047.210530979362
 20
1842.224971714426
 30
0.0
 11
-15.38790390505613
 21
34.00180217327163
 31
0.0
210
0.0
220
0.0
230
-0.9999999999999998
 40
0.2004781885708614
 41
3.642161334497195
 42
8.090198374780053
  0
ELLIPSE
  5
52B4
330
5192
100
AcDbEntity
  8
0
 62
     0
100
AcDbEllipse
 10
1609.168011604941
 20
2039.357288298983
 30
0.0
 11
33.59813907440287
 21
-4.874140977504449
 31
0.0
210
0.0
220
0.0
230
-0.9999999999999998
 40
0.679559020682735
 41
0.0
 42
6.283185307179584
  0
ELLIPSE
  5
52B5
330
5192
100
AcDbEntity
  8
0
 62
     0
100
AcDbEllipse
 10
1768.088355532517
 20
1650.128027884865
 30
0.0
 11
22.64498228175275
 21
-30.57593749015938
 31
0.0
210
0.0
220
0.0
230
-1.0
 40
0.8582798329265973
 41
0.0
 42
6.283185307179584
  0
ELLIPSE
  5
52B6
330
5192
100
AcDbEntity
  8
0
 62
     0
100
AcDbEllipse
 10
1614.577702425747
 20
1802.356989035518
 30
0.0
 11
37.79347923466386
 21
-5.941371754444041
 31
0.0
210
0.0
220
0.0
230
-1.0
 40
0.7875876969600179
 41
0.0
 42
6.283185307179584
  0
ELLIPSE
  5
52B7
330
5192
100
AcDbEntity
  8
0
 62
     0
100
AcDbEllipse
 10
2045.202957314544
 20
1120.348983502205
 30
0.0
 11
0.0
 21
30.13114697923498
 31
0.0
210
0.0
220
0.0
230
-1.0
 40
0.4974821035627393
 41
2.186619680855028
 42
7.238158279914356
  0
ELLIPSE
  5
52B8
330
5192
100
AcDbEntity
  8
0
 62
     0
100
AcDbEllipse
 10
1605.165821123915
 20
36.64846287017616
 30
0.0
 11
30.42603706014464
 21
0.0
 31
0.0
210
0.0
220
0.0
230
1.0
 40
0.3372402171875113
 41
6.009348737011023
 42
9.698614530937939
  0
ELLIPSE
  5
52B9
330
5192
100
AcDbEntity
  8
0
 62
     0
100
AcDbEllipse
 10
1727.824389039708
 20
52.1818265603826
 30
0.0
 11
28.26679488046243
 21
10.11396515030851
 31
0.0
210
0.0
220
0.0
230
1.0
 40
0.4689952453060453
 41
0.0
 42
6.283185307179584
  0
ELLIPSE
  5
52BA
330
5192
100
AcDbEntity
  8
0
 62
     0
100
AcDbEllipse
 10
1667.626581637289
 20
74.85105688630795
 30
0.0
 11
30.18614888799537
 21
9.416451186637837
 31
0.0
210
0.0
220
0.0
230
1.0
 40
0.4997640396812409
 41
0.0
 42
6.283185307179584
  0
ELLIPSE
  5
52BB
330
5192
100
AcDbEntity
  8
0
 62
     0
100
AcDbEllipse
 10
1605.334937874095
 20
104.1466802392653
 30
0.0
 11
32.4544676019878
 21
6.277632587808718
 31
0.0
210
0.0
220
0.0
230
1.0
 40
0.5310369267309467
 41
0.0
 42
6.283185307179584
  0
ELLIPSE
  5
52BC
330
5192
100
AcDbEntity
  8
0
 62
     0
100
AcDbEllipse
 10
1676.486972783679
 20
154.7339750140024
 30
0.0
 11
30.18144897261939
 21
13.57327198377746
 31
0.0
210
0.0
220
0.0
230
1.0
 40
0.6086522554516111
 41
0.0
 42
6.283185307179584
  0
ELLIPSE
  5
52BD
330
5192
100
AcDbEntity
  8
0
 62
     0
100
AcDbEllipse
 10
1737.317287739438
 20
123.332199190542
 30
0.0
 11
29.78965568577537
 21
14.27805798441649
 31
0.0
210
0.0
220
0.0
230
1.0
 40
0.5613751132608095
 41
0.0
 42
6.283185307179584
  0
ELLIPSE
  5
52BE
330
5192
100
AcDbEntity
  8
0
 62
     0
100
AcDbEllipse
 10
1791.761171611309
 20
102.0566276667716
 30
0.0
 11
27.52052691810872
 21
15.66173876817708
 31
0.0
210
0.0
220
0.0
230
0.9999999999999998
 40
0.3840801736235547
 41
0.0
 42
6.283185307179584
  0
ELLIPSE
  5
52BF
330
5192
100
AcDbEntity
  8
0
 62
     0
100
AcDbEllipse
 10
1842.109600555138
 20
87.45285848867496
 30
0.0
 11
24.42389223102677
 21
15.82364819348806
 31
0.0
210
0.0
220
0.0
230
1.0
 40
0.4305391531601336
 41
0.0
 42
6.283185307179584
  0
ELLIPSE
  5
52C0
330
5192
100
AcDbEntity
  8
0
 62
     0
100
AcDbEllipse
 10
1885.275516161944
 20
81.9796998884753
 30
0.0
 11
22.41694816237614
 21
16.02342061445038
 31
0.0
210
0.0
220
0.0
230
1.0
 40
0.3779979851668673
 41
0.0
 42
6.283185307179584
  0
ELLIPSE
  5
52C1
330
5192
100
AcDbEntity
  8
0
 62
     0
100
AcDbEllipse
 10
1923.245109887687
 20
79.60335955187719
 30
0.0
 11
20.88636778616046
 21
15.15950723243758
 31
0.0
210
0.0
220
0.0
230
0.9999999999999998
 40
0.3620484457960908
 41
0.0
 42
6.283185307179584
  0
ELLIPSE
  5
52C2
330
5192
100
AcDbEntity
  8
0
 62
     0
100
AcDbEllipse
 10
1955.916523498119
 20
77.03790707038018
 30
0.0
 11
19.71952958070463
 21
14.92628344142003
 31
0.0
210
0.0
220
0.0
230
0.9999999999999998
 40
0.3132060541742065
 41
0.0
 42
6.283185307179584
  0
ELLIPSE
  5
52C3
330
5192
100
AcDbEntity
  8
0
 62
     0
100
AcDbEllipse
 10
1987.304411072396
 20
72.72327730871137
 30
0.0
 11
17.26917335941397
 21
14.80967269837363
 31
0.0
210
0.0
220
0.0
230
1.0
 40
0.351703405504709
 41
0.0
 42
6.283185307179584
  0
ELLIPSE
  5
52C4
330
5192
100
AcDbEntity
  8
0
 62
     0
100
AcDbEllipse
 10
2021.64383825767
 20
58.52950880548059
 30
0.0
 11
16.08965423127789
 21
16.08965423127789
 31
0.0
210
0.0
220
0.0
230
0.9999999999999998
 40
0.5254634900290626
 41
0.0
 42
6.283185307179584
  0
ELLIPSE
  5
52C5
330
5192
100
AcDbEntity
  8
0
 62
     0
100
AcDbEllipse
 10
2031.58370535234
 20
131.4687096377537
 30
0.0
 11
15.0808053389707
 21
22.73497138406114
 31
0.0
210
0.0
220
0.0
230
1.0
 40
0.2810715458434808
 41
0.0
 42
6.283185307179584
  0
ELLIPSE
  5
52C6
330
5192
100
AcDbEntity
  8
0
 62
     0
100
AcDbEllipse
 10
2003.083542830783
 20
136.4499696789916
 30
0.0
 11
15.97542941848766
 21
21.58545019068723
 31
0.0
210
0.0
220
0.0
230
1.0
 40
0.1951258246945301
 41
0.0
 42
6.283185307179584
  0
ELLIPSE
  5
52C7
330
5192
100
AcDbEntity
  8
0
 62
     0
100
AcDbEllipse
 10
1973.81655222219
 20
138.1103866195046
 30
0.0
 11
17.63687356470898
 21
20.69137917580726
 31
0.0
210
0.0
220
0.0
230
1.0
 40
0.3037436373290199
 41
0.0
 42
6.283185307179584
  0
ELLIPSE
  5
52C8
330
5192
100
AcDbEntity
  8
0
 62
     0
100
AcDbEllipse
 10
1940.657149446051
 20
139.5126704493424
 30
0.0
 11
21.40148973977637
 21
22.09903347985646
 31
0.0
210
0.0
220
0.0
230
1.0
 40
0.2954908278377448
 41
0.0
 42
6.283185307179584
  0
ELLIPSE
  5
52C9
330
5192
100
AcDbEntity
  8
0
 62
     0
100
AcDbEllipse
 10
1903.0880149774
 20
147.6732581384482
 30
0.0
 11
22.33728620082914
 21
20.73605091859239
 31
0.0
210
0.0
220
0.0
230
1.0
 40
0.3826752338158837
 41
0.0
 42
6.283185307179584
  0
ELLIPSE
  5
52CA
330
5192
100
AcDbEntity
  8
0
 62
     0
100
AcDbEllipse
 10
1857.286256898644
 20
161.563717704904
 30
0.0
 11
24.58707794465547
 21
20.89923266225676
 31
0.0
210
0.0
220
0.0
230
1.0
 40
0.4144710327891679
 41
0.0
 42
6.283185307179584
  0
ELLIPSE
  5
52CB
330
5192
100
AcDbEntity
  8
0
 62
     0
100
AcDbEllipse
 10
1805.809318922703
 20
183.5355931069538
 30
0.0
 11
26.5156633559373
 21
20.23183023296224
 31
0.0
210
0.0
220
0.0
230
1.0
 40
0.5447945635724488
 41
0.0
 42
6.283185307179584
  0
ELLIPSE
  5
52CC
330
5192
100
AcDbEntity
  8
0
 62
     0
100
AcDbEllipse
 10
1747.108502740181
 20
214.1194434031076
 30
0.0
 11
28.36117014364141
 21
19.08012858096033
 31
0.0
210
0.0
220
0.0
230
1.0
 40
0.6609049286427028
 41
0.0
 42
6.283185307179584
  0
ELLIPSE
  5
52CD
330
5192
100
AcDbEntity
  8
0
 62
     0
100
AcDbEllipse
 10
1682.705802960408
 20
255.7530052053154
 30
0.0
 11
29.02016885821378
 21
18.64430883640123
 31
0.0
210
0.0
220
0.0
230
1.0
 40
0.7880072252956542
 41
0.0
 42
6.283185307179584
  0
ELLIPSE
  5
52CE
330
5192
100
AcDbEntity
  8
0
 62
     0
100
AcDbEllipse
 10
1612.634287418005
 20
304.4466592485225
 30
0.0
 11
31.43125351698556
 21
15.93577124842758
 31
0.0
210
0.0
220
0.0
230
1.0
 40
0.825027248145369
 41
0.0
 42
6.283185307179584
  0
ELLIPSE
  5
52CF
330
5192
100
AcDbEntity
  8
0
 62
     0
100
AcDbEllipse
 10
1687.476730367826
 20
374.2304559400374
 30
0.0
 11
27.76228382794173
 21
22.15758547830683
 31
0.0
210
0.0
220
0.0
230
0.9999999999999998
 40
0.7814370002040994
 41
0.0
 42
6.283185307179584
  0
ELLIPSE
  5
52D0
330
5192
100
AcDbEntity
  8
0
 62
     0
100
AcDbEllipse
 10
1757.559133512834
 20
323.3509105613741
 30
0.0
 11
27.357176787645
 21
22.41564483139607
 31
0.0
210
0.0
220
0.0
230
1.0
 40
0.7577332530563343
 41
0.0
 42
6.283185307179584
  0
ELLIPSE
  5
52D1
330
5192
100
AcDbEntity
  8
0
 62
     0
100
AcDbEllipse
 10
1818.070857342645
 20
283.2254952728687
 30
0.0
 11
24.31143855844612
 21
24.31143855844612
 31
0.0
210
0.0
220
0.0
230
1.0
 40
0.680271678020093
 41
0.0
 42
6.283185307179584
  0
ELLIPSE
  5
52D2
330
5192
100
AcDbEntity
  8
0
 62
     0
100
AcDbEllipse
 10
1871.619794599659
 20
252.4577810411699
 30
0.0
 11
22.99360726813026
 21
22.99360726813026
 31
0.0
210
0.0
220
0.0
230
0.9999999999999998
 40
0.5741637720713002
 41
0.0
 42
6.283185307179584
  0
ELLIPSE
  5
52D3
330
5192
100
AcDbEntity
  8
0
 62
     0
100
AcDbEllipse
 10
1918.502752974911
 20
232.608208208423
 30
0.0
 11
22.90408911584604
 21
22.90408911584604
 31
0.0
210
0.0
220
0.0
230
1.0
 40
0.4186236573607289
 41
0.0
 42
6.283185307179584
  0
ELLIPSE
  5
52D4
330
5192
100
AcDbEntity
  8
0
 62
     0
100
AcDbEllipse
 10
1958.511345974882
 20
217.3147165190434
 30
0.0
 11
19.21616944602742
 21
25.53539939923706
 31
0.0
210
0.0
220
0.0
230
1.0
 40
0.3766047139849467
 41
0.0
 42
6.283185307179584
  0
ELLIPSE
  5
52D5
330
5192
100
AcDbEntity
  8
0
 62
     0
100
AcDbEllipse
 10
1991.664516951957
 20
211.6167378827508
 30
0.0
 11
16.04866709297754
 21
24.4802164629427
 31
0.0
210
0.0
220
0.0
230
1.0
 40
0.3241712871052219
 41
0.0
 42
6.283185307179584
  0
ELLIPSE
  5
52D6
330
5192
100
AcDbEntity
  8
0
 62
     0
100
AcDbEllipse
 10
2020.142459139813
 20
211.4834164366857
 30
0.0
 11
13.31158395245028
 21
25.14482762860148
 31
0.0
210
0.0
220
0.0
230
1.0
 40
0.2108018908727055
 41
0.0
 42
6.283185307179584
  0
ELLIPSE
  5
52D7
330
5192
100
AcDbEntity
  8
0
 62
     0
100
AcDbEllipse
 10
2045.595376187394
 20
213.0915161996667
 30
0.0
 11
-15.35951593496879
 21
-29.09197865874336
 31
0.0
210
0.0
220
0.0
230
1.0
 40
0.244560068360591
 41
3.503656402014906
 42
8.195138527442518
  0
ELLIPSE
  5
52D8
330
5192
100
AcDbEntity
  8
0
 62
     0
100
AcDbEllipse
 10
2061.804161216476
 20
118.5752106133542
 30
0.0
 11
15.0808053389707
 21
22.73497138406114
 31
0.0
210
0.0
220
0.0
230
1.0
 40
0.2810715458434808
 41
1.439775629419719
 42
4.041824827120143
  0
ELLIPSE
  5
52D9
330
5192
100
AcDbEntity
  8
0
 62
     0
100
AcDbEllipse
 10
1776.40722178772
 20
36.76395802973792
 30
0.0
 11
24.42389223102677
 21
15.82364819348806
 31
0.0
210
0.0
220
0.0
230
1.0
 40
0.4305391531601336
 41
5.146194802244943
 42
8.593233048848867
  0
ELLIPSE
  5
52DA
330
5192
100
AcDbEntity
  8
0
 62
     0
100
AcDbEllipse
 10
1819.573137394526
 20
31.29079942953803
 30
0.0
 11
22.41694816237614
 21
16.02342061445038
 31
0.0
210
0.0
220
0.0
230
1.0
 40
0.3779979851668673
 41
5.341809248425247
 42
8.197440628250657
  0
ELLIPSE
  5
52DB
330
5192
100
AcDbEntity
  8
0
 62
     0
100
AcDbEllipse
 10
1864.677322965204
 20
32.4456403887836
 30
0.0
 11
20.88636778616046
 21
15.15950723243758
 31
0.0
210
0.0
220
0.0
230
0.9999999999999998
 40
0.3620484457960908
 41
5.259486283433363
 42
8.232291883150136
  0
ELLIPSE
  5
52DC
330
5192
100
AcDbEntity
  8
0
 62
     0
100
AcDbEllipse
 10
1903.423224812063
 20
31.52446576607002
 30
0.0
 11
19.71952958070463
 21
14.92628344142003
 31
0.0
210
0.0
220
0.0
230
0.9999999999999998
 40
0.3132060541742065
 41
5.250666993789478
 42
8.100370512577223
  0
ELLIPSE
  5
52DD
330
5192
100
AcDbEntity
  8
0
 62
     0
100
AcDbEllipse
 10
1934.811112386338
 20
27.20983600440189
 30
0.0
 11
17.26917335941397
 21
14.80967269837363
 31
0.0
210
0.0
220
0.0
230
1.0
 40
0.351703405504709
 41
5.530968485444509
 42
7.813788647427747
  0
ELLIPSE
  5
52DE
330
5192
100
AcDbEntity
  8
0
 62
     0
100
AcDbEllipse
 10
2056.044494808328
 20
36.60056847494246
 30
0.0
 11
16.08965423127789
 21
16.08965423127789
 31
0.0
210
0.0
220
0.0
230
0.9999999999999998
 40
0.5254634900290626
 41
1.010185497955116
 42
2.205206665925253
  0
ELLIPSE
  5
52DF
330
5192
100
AcDbEntity
  8
0
 62
     0
100
AcDbEllipse
 10
2053.873262549071
 20
295.5168398682415
 30
0.0
 11
-12.13246661655123
 21
-29.56314672626579
 31
0.0
210
0.0
220
0.0
230
1.0
 40
0.2004963466959972
 41
3.990701529268593
 42
7.66677945586937
  0
ELLIPSE
  5
52E0
330
5192
100
AcDbEntity
  8
0
 62
     0
100
AcDbEllipse
 10
2032.19840776551
 20
295.3806049975407
 30
0.0
 11
-11.99614500966298
 21
-28.60949802150898
 31
0.0
210
0.0
220
0.0
230
1.0
 40
0.2548630776677332
 41
0.0
 42
6.283185307179584
  0
ELLIPSE
  5
52E1
330
5192
100
AcDbEntity
  8
0
 62
     0
100
AcDbEllipse
 10
2005.479721699929
 20
299.7401462141472
 30
0.0
 11
-16.08574108414264
 21
-29.15443980923796
 31
0.0
210
0.0
220
0.0
230
1.0
 40
0.2538269047843527
 41
0.0
 42
6.283185307179584
  0
ELLIPSE
  5
52E2
330
5192
100
AcDbEntity
  8
0
 62
     0
100
AcDbEllipse
 10
1973.580878735242
 20
311.8651234641358
 30
0.0
 11
-18.81213713040706
 21
-28.74573519713441
 31
0.0
210
0.0
220
0.0
230
1.0
 40
0.3994236624772706
 41
0.0
 42
6.283185307179584
  0
ELLIPSE
  5
52E3
330
5192
100
AcDbEntity
  8
0
 62
     0
100
AcDbEllipse
 10
1931.32172598256
 20
330.5294159964216
 30
0.0
 11
-21.81117238028091
 21
-28.33702597518186
 31
0.0
210
0.0
220
0.0
230
0.9999999999999998
 40
0.4670865194507213
 41
0.0
 42
6.283185307179584
  0
ELLIPSE
  5
52E4
330
5192
100
AcDbEntity
  8
0
 62
     0
100
AcDbEllipse
 10
1882.529414156509
 20
360.5985443706774
 30
0.0
 11
-22.9693526358261
 21
-28.26570238977625
 31
0.0
210
0.0
220
0.0
230
0.9999999999999998
 40
0.6003268276440823
 41
0.0
 42
6.283185307179584
  0
ELLIPSE
  5
52E5
330
5192
100
AcDbEntity
  8
0
 62
     0
100
AcDbEllipse
 10
1825.414133674705
 20
399.6253909320173
 30
0.0
 11
-24.32329719929197
 21
-26.42205086197707
 31
0.0
210
0.0
220
0.0
230
1.0
 40
0.6840588260764199
 41
0.0
 42
6.283185307179584
  0
ELLIPSE
  5
52E6
330
5192
100
AcDbEntity
  8
0
 62
     0
100
AcDbEllipse
 10
1761.707245939836
 20
449.1341515798018
 30
0.0
 11
-26.63049848963351
 21
-25.6825711369487
 31
0.0
210
0.0
220
0.0
230
1.0
 40
0.7995240369076479
 41
0.0
 42
6.283185307179584
  0
ELLIPSE
  5
52E7
330
5192
100
AcDbEntity
  8
0
 62
     0
100
AcDbEllipse
 10
1692.442571927833
 20
505.3169664845492
 30
0.0
 11
-26.7154097593942
 21
-25.77765157973423
 31
0.0
210
0.0
220
0.0
230
0.9999999999999998
 40
0.9072308990429279
 41
0.0
 42
6.283185307179584
  0
ELLIPSE
  5
52E8
330
5192
100
AcDbEntity
  8
0
 62
     0
100
AcDbEllipse
 10
1616.610439886638
 20
571.2928503333189
 30
0.0
 11
-29.39327075805667
 21
-23.78605846942339
 31
0.0
210
0.0
220
0.0
230
1.0
 40
0.9471721172373143
 41
0.0
 42
6.283185307179584
  0
ELLIPSE
  5
52E9
330
5192
100
AcDbEntity
  8
0
 62
     0
100
AcDbEllipse
 10
1695.41689252031
 20
648.8371689590669
 30
0.0
 11
-26.80958050407134
 21
-27.80137533833062
 31
0.0
210
0.0
220
0.0
230
1.0
 40
0.9592665141672039
 41
0.0
 42
6.283185307179584
  0
ELLIPSE
  5
52EA
330
5192
100
AcDbEntity
  8
0
 62
     0
100
AcDbEllipse
 10
1771.102757741188
 20
729.7642755329323
 30
0.0
 11
-23.30008311428972
 21
-29.1071312327625
 31
0.0
210
0.0
220
0.0
230
0.9999999999999998
 40
0.9348015168909629
 41
0.0
 42
6.283185307179584
  0
ELLIPSE
  5
52EB
330
5192
100
AcDbEntity
  8
0
 62
     0
100
AcDbEllipse
 10
1842.288955260915
 20
814.2012451554398
 30
0.0
 11
-12.56928204496544
 21
-35.20765802767482
 31
0.0
210
0.0
220
0.0
230
1.0
 40
0.8281510902799336
 41
0.0
 42
6.283185307179584
  0
ELLIPSE
  5
52EC
330
5192
100
AcDbEntity
  8
0
 62
     0
100
AcDbEllipse
 10
1908.55169467252
 20
895.3955547181015
 30
0.0
 11
-4.747616308376212
 21
-35.79479145936872
 31
0.0
210
0.0
220
0.0
230
1.0
 40
0.786297360742565
 41
0.0
 42
6.283185307179584
  0
ELLIPSE
  5
52ED
330
5192
100
AcDbEntity
  8
0
 62
     0
100
AcDbEllipse
 10
1965.124908890641
 20
973.3000938679545
 30
0.0
 11
-3.238313876684649
 21
-33.28784257290667
 31
0.0
210
0.0
220
0.0
230
1.0
 40
0.7146619888316316
 41
0.0
 42
6.283185307179584
  0
ELLIPSE
  5
52EE
330
5192
100
AcDbEntity
  8
0
 62
     0
100
AcDbEllipse
 10
2013.101163823196
 20
1046.89630491987
 30
0.0
 11
-1.495014207729617
 21
-32.19088518399145
 31
0.0
210
0.0
220
0.0
230
1.0
 40
0.6551736887166888
 41
0.0
 42
6.283185307179584
  0
ELLIPSE
  5
52EF
330
5192
100
AcDbEntity
  8
0
 62
     0
100
AcDbEllipse
 10
1907.033642057097
 20
1041.216150265155
 30
0.0
 11
0.0
 21
-35.40741200924112
 31
0.0
210
0.0
220
0.0
230
1.0
 40
0.7731785972808104
 41
0.0
 42
6.283185307179584
  0
ELLIPSE
  5
52F0
330
5192
100
AcDbEntity
  8
0
 62
     0
100
AcDbEllipse
 10
1843.644371555566
 20
964.2648725927344
 30
0.0
 11
-2.474910472010954
 21
-37.30686115064799
 31
0.0
210
0.0
220
0.0
230
1.0
 40
0.8550030881524246
 41
0.0
 42
6.283185307179584
  0
ELLIPSE
  5
52F1
330
5192
100
AcDbEntity
  8
0
 62
     0
100
AcDbEllipse
 10
1774.598536350679
 20
883.9760849101374
 30
0.0
 11
-5.275614907274009
 21
-37.24516293018115
 31
0.0
210
0.0
220
0.0
230
1.0
 40
0.9599746624478688
 41
0.0
 42
6.283185307179584
  0
ELLIPSE
  5
52F2
330
5192
100
AcDbEntity
  8
0
 62
     0
100
AcDbEllipse
 10
1695.582720933794
 20
801.5068478189558
 30
0.0
 11
-17.60508497325729
 21
-33.79609226665762
 31
0.0
210
0.0
220
0.0
230
1.0
 40
0.8982307229594015
 41
0.0
 42
6.283185307179584
  0
ELLIPSE
  5
52F3
330
5192
100
AcDbEntity
  8
0
 62
     0
100
AcDbEllipse
 10
1617.912841777473
 20
722.4095586157152
 30
0.0
 11
37.12902235478051
 21
-1.889081697954351
 31
0.0
210
0.0
220
0.0
230
0.9999999999999998
 40
0.9939370144897022
 41
0.0
 42
6.283185307179584
  0
ELLIPSE
  5
52F4
330
5192
100
AcDbEntity
  8
0
 62
     0
100
AcDbEllipse
 10
1617.80289503699
 20
877.5102183536844
 30
0.0
 11
0.0
 21
-38.08156012286561
 31
0.0
210
0.0
220
0.0
230
1.0
 40
0.9839895141870108
 41
0.0
 42
6.283185307179584
  0
ELLIPSE
  5
52F5
330
5192
100
AcDbEntity
  8
0
 62
     0
100
AcDbEllipse
 10
1697.584732497406
 20
957.6188439134265
 30
0.0
 11
-1.896395803160102
 21
-38.4213659301948
 31
0.0
210
0.0
220
0.0
230
1.0
 40
0.9097684253863695
 41
0.0
 42
6.283185307179584
  0
ELLIPSE
  5
52F6
330
5192
100
AcDbEntity
  8
0
 62
     0
100
AcDbEllipse
 10
1775.451711347167
 20
1037.997085717971
 30
0.0
 11
-2.044619584821534
 21
-38.65350871159686
 31
0.0
210
0.0
220
0.0
230
0.9999999999999998
 40
0.9684076399980105
 41
0.0
 42
6.283185307179584
  0
ELLIPSE
  5
52F7
330
5192
100
AcDbEntity
  8
0
 62
     0
100
AcDbEllipse
 10
1618.637130016121
 20
1036.585891049806
 30
0.0
 11
0.0
 21
-39.06348103220477
 31
0.0
210
0.0
220
0.0
230
1.0
 40
0.947444651313479
 41
0.0
 42
6.283185307179584
  0
ELLIPSE
  5
52F8
330
5192
100
AcDbEntity
  8
0
 62
     0
100
AcDbEllipse
 10
2054.215814371022
 20
982.3818790796407
 30
0.0
 11
-1.495014207729617
 21
-32.19088518399145
 31
0.0
210
0.0
220
0.0
230
1.0
 40
0.6551736887166888
 41
3.059318546647753
 42
6.506993200271656
  0
ELLIPSE
  5
52F9
330
5192
100
AcDbEntity
  8
0
 62
     0
100
AcDbEllipse
 10
2052.278751467333
 20
857.6185994453938
 30
0.0
 11
-1.495014207729617
 21
-32.19088518399145
 31
0.0
210
0.0
220
0.0
230
1.0
 40
0.6551736887166888
 41
2.965810147589523
 42
6.600501599329887
  0
ELLIPSE
  5
52FA
330
5192
100
AcDbEntity
  8
0
 62
     0
100
AcDbEllipse
 10
2048.471395563491
 20
741.2305030404024
 30
0.0
 11
-13.31028064827205
 21
-35.2363289842047
 31
0.0
210
0.0
220
0.0
230
0.9999999999999998
 40
0.4811876829804269
 41
3.378066902041308
 42
7.377793676600674
  0
ELLIPSE
  5
52FB
330
5192
100
AcDbEntity
  8
0
 62
     0
100
AcDbEllipse
 10
2040.225807084453
 20
622.7869277818533
 30
0.0
 11
-14.25147078353903
 21
-35.54498373618375
 31
0.0
210
0.0
220
0.0
230
1.0
 40
0.4152679124103772
 41
2.914110852870212
 42
8.046363111785312
  0
ELLIPSE
  5
52FC
330
5192
100
AcDbEntity
  8
0
 62
     0
100
AcDbEllipse
 10
2054.269731690284
 20
488.0576245798108
 30
0.0
 11
-12.032862095992
 21
-31.65315550519224
 31
0.0
210
0.0
220
0.0
230
1.0
 40
0.3228313403197935
 41
3.806209022154714
 42
7.352071412405987
  0
ELLIPSE
  5
52FD
330
5192
100
AcDbEntity
  8
0
 62
     0
100
AcDbEllipse
 10
2027.71445189751
 20
504.5062092726062
 30
0.0
 11
-12.86271396292816
 21
-31.23848344341775
 31
0.0
210
0.0
220
0.0
230
1.0
 40
0.2782702580544408
 41
0.0
 42
6.283185307179584
  0
ELLIPSE
  5
52FE
330
5192
100
AcDbEntity
  8
0
 62
     0
100
AcDbEllipse
 10
1995.626826325122
 20
528.4188541985456
 30
0.0
 11
-15.90550414169423
 21
-31.92960354637491
 31
0.0
210
0.0
220
0.0
230
1.0
 40
0.4643558402465539
 41
0.0
 42
6.283185307179584
  0
ELLIPSE
  5
52FF
330
5192
100
AcDbEntity
  8
0
 62
     0
100
AcDbEllipse
 10
1950.676482779662
 20
566.0156149300753
 30
0.0
 11
-16.0438147912668
 21
-31.37670976893435
 31
0.0
210
0.0
220
0.0
230
1.0
 40
0.5753939494386057
 41
0.0
 42
6.283185307179584
  0
ELLIPSE
  5
5300
330
5192
100
AcDbEntity
  8
0
 62
     0
100
AcDbEllipse
 10
1900.71992331584
 20
610.6704741428663
 30
0.0
 11
-19.31335583606522
 21
-31.70950169084431
 31
0.0
210
0.0
220
0.0
230
1.0
 40
0.7526282289544934
 41
0.0
 42
6.283185307179584
  0
ELLIPSE
  5
5301
330
5192
100
AcDbEntity
  8
0
 62
     0
100
AcDbEllipse
 10
1958.144756585753
 20
696.766675974665
 30
0.0
 11
-15.61194790856336
 21
-31.7824894317781
 31
0.0
210
0.0
220
0.0
230
1.0
 40
0.6841394345716645
 41
0.0
 42
6.283185307179584
  0
ELLIPSE
  5
5302
330
5192
100
AcDbEntity
  8
0
 62
     0
100
AcDbEllipse
 10
2001.89675404598
 20
652.0785705301047
 30
0.0
 11
-12.72084629549044
 21
-31.78248712685384
 31
0.0
210
0.0
220
0.0
230
1.0
 40
0.4935221312573268
 41
0.0
 42
6.283185307179584
  0
ELLIPSE
  5
5303
330
5192
100
AcDbEntity
  8
0
 62
     0
100
AcDbEllipse
 10
2008.020864085192
 20
779.5815918209398
 30
0.0
 11
-8.278022707345106
 21
-32.02418843038185
 31
0.0
210
0.0
220
0.0
230
1.0
 40
0.5598442547693111
 41
0.0
 42
6.283185307179584
  0
ELLIPSE
  5
5304
330
5192
100
AcDbEntity
  8
0
 62
     0
100
AcDbEllipse
 10
1905.079636199076
 20
750.3595209154325
 30
0.0
 11
-14.5532999905774
 21
-34.02569963104991
 31
0.0
210
0.0
220
0.0
230
0.9999999999999998
 40
0.7310194254182731
 41
0.0
 42
6.283185307179584
  0
ELLIPSE
  5
5305
330
5192
100
AcDbEntity
  8
0
 62
     0
100
AcDbEllipse
 10
1961.842230539732
 20
832.7092223143079
 30
0.0
 11
-10.07328611643248
 21
-33.38910943319605
 31
0.0
210
0.0
220
0.0
230
1.0
 40
0.6901520096124371
 41
0.0
 42
6.283185307179584
  0
ELLIPSE
  5
5306
330
5192
100
AcDbEntity
  8
0
 62
     0
100
AcDbEllipse
 10
2013.716175019233
 20
913.5417347844693
 30
0.0
 11
-6.510662038174757
 21
-32.08959066460804
 31
0.0
210
0.0
220
0.0
230
1.0
 40
0.6433519553795857
 41
0.0
 42
6.283185307179584
  0
ELLIPSE
  5
5307
330
5192
100
AcDbEntity
  8
0
 62
     0
100
AcDbEllipse
 10
1838.203541790309
 20
667.6487922688572
 30
0.0
 11
-20.11691303993205
 21
-31.73638402592044
 31
0.0
210
0.0
220
0.0
230
1.0
 40
0.7853428073352033
 41
0.0
 42
6.283185307179584
  0
ELLIPSE
  5
5308
330
5192
100
AcDbEntity
  8
0
 62
     0
100
AcDbEllipse
 10
1833.452047650725
 20
527.0603293613701
 30
0.0
 11
-22.68993224032243
 21
-29.15476710852473
 31
0.0
210
0.0
220
0.0
230
1.0
 40
0.8140476902349892
 41
0.0
 42
6.283185307179584
  0
ELLIPSE
  5
5309
330
5192
100
AcDbEntity
  8
0
 62
     0
100
AcDbEllipse
 10
1891.31532046657
 20
480.513235421027
 30
0.0
 11
-21.14070859910617
 21
-29.26467052111788
 31
0.0
210
0.0
220
0.0
230
1.0
 40
0.6517585741059463
 41
0.0
 42
6.283185307179584
  0
ELLIPSE
  5
530A
330
5192
100
AcDbEntity
  8
0
 62
     0
100
AcDbEllipse
 10
1943.494695282813
 20
441.3048530017969
 30
0.0
 11
-19.5780428791035
 21
-29.43869002003686
 31
0.0
210
0.0
220
0.0
230
1.0
 40
0.5677403822323596
 41
0.0
 42
6.283185307179584
  0
ELLIPSE
  5
530B
330
5192
100
AcDbEntity
  8
0
 62
     0
100
AcDbEllipse
 10
1984.811867897379
 20
413.5705924566356
 30
0.0
 11
-16.51729116367686
 21
-28.49943556912093
 31
0.0
210
0.0
220
0.0
230
1.0
 40
0.4337608387177524
 41
0.0
 42
6.283185307179584
  0
ELLIPSE
  5
530C
330
5192
100
AcDbEntity
  8
0
 62
     0
100
AcDbEllipse
 10
2018.411149869304
 20
396.3580635695927
 30
0.0
 11
-13.41147720501215
 21
-29.91030063307363
 31
0.0
210
0.0
220
0.0
230
1.0
 40
0.2976157912374005
 41
0.0
 42
6.283185307179584
  0
ELLIPSE
  5
530D
330
5192
100
AcDbEntity
  8
0
 62
     0
100
AcDbEllipse
 10
2047.210530979362
 20
392.8309043670967
 30
0.0
 11
-15.38790390505613
 21
-34.00180217327163
 31
0.0
210
0.0
220
0.0
230
0.9999999999999998
 40
0.2004781885708614
 41
3.642161334497195
 42
8.090198374780053
  0
ELLIPSE
  5
530E
330
5192
100
AcDbEntity
  8
0
 62
     0
100
AcDbEllipse
 10
1609.168011604941
 20
195.6985877825397
 30
0.0
 11
33.59813907440287
 21
4.874140977504449
 31
0.0
210
0.0
220
0.0
230
0.9999999999999998
 40
0.6795590206827349
 41
0.0
 42
6.283185307179584
  0
ELLIPSE
  5
530F
330
5192
100
AcDbEntity
  8
0
 62
     0
100
AcDbEllipse
 10
1768.088355532517
 20
584.9278481966577
 30
0.0
 11
22.64498228175275
 21
30.57593749015938
 31
0.0
210
0.0
220
0.0
230
1.0
 40
0.8582798329265973
 41
0.0
 42
6.283185307179584
  0
ELLIPSE
  5
5310
330
5192
100
AcDbEntity
  8
0
 62
     0
100
AcDbEllipse
 10
1614.577702425747
 20
432.6988870460051
 30
0.0
 11
37.79347923466386
 21
5.941371754444041
 31
0.0
210
0.0
220
0.0
230
1.0
 40
0.7875876969600179
 41
0.0
 42
6.283185307179584
  0
LWPOLYLINE
  5
5311
330
5192
100
AcDbEntity
  8
0
 62
     0
100
AcDbPolyline
 90
        2
 70
     0
 43
0.0
 10
1039.957451502281
 20
2201.182233514724
 10
1128.676629335617
 20
2201.182233514724
  0
LWPOLYLINE
  5
5312
330
5192
100
AcDbEntity
  8
0
 62
     0
100
AcDbPolyline
 90
        2
 70
     0
 43
0.0
 10
1149.355489990746
 20
2201.182233514724
 10
1162.109581698639
 20
2201.182233514724
  0
LWPOLYLINE
  5
5313
330
5192
100
AcDbEntity
  8
0
 62
     0
100
AcDbPolyline
 90
        2
 70
     0
 43
0.0
 10
1185.576361777289
 20
2201.182233514724
 10
1199.426112737416
 20
2201.182233514724
  0
LWPOLYLINE
  5
5314
330
5192
100
AcDbEntity
  8
0
 62
     0
100
AcDbPolyline
 90
        2
 70
     0
 43
0.0
 10
1227.793567956298
 20
2201.182233514724
 10
1241.990502167845
 20
2201.182233514724
  0
LWPOLYLINE
  5
5315
330
5192
100
AcDbEntity
  8
0
 62
     0
100
AcDbPolyline
 90
        2
 70
     0
 43
0.0
 10
1273.334866459009
 20
2201.182233514724
 10
1286.801205356461
 20
2201.182233514724
  0
LWPOLYLINE
  5
5316
330
5192
100
AcDbEntity
  8
0
 62
     0
100
AcDbPolyline
 90
        2
 70
     0
 43
0.0
 10
1324.738518864335
 20
2201.182233514724
 10
1445.197911062274
 20
2201.182233514724
  0
LWPOLYLINE
  5
5317
330
5192
100
AcDbEntity
  8
0
 62
     0
100
AcDbPolyline
 90
        2
 70
     0
 43
0.0
 10
1503.782665623613
 20
2201.182233514724
 10
1575.873443843253
 20
2201.182233514724
  0
LWPOLYLINE
  5
5318
330
5192
100
AcDbEntity
  8
0
 62
     0
100
AcDbPolyline
 90
        2
 70
     0
 43
0.0
 10
1634.458198404579
 20
2201.182233514724
 10
1754.917590602523
 20
2201.182233514724
  0
LWPOLYLINE
  5
5319
330
5192
100
AcDbEntity
  8
0
 62
     0
100
AcDbPolyline
 90
        2
 70
     0
 43
0.0
 10
1792.854904110386
 20
2201.182233514724
 10
1806.321243007852
 20
2201.182233514724
  0
LWPOLYLINE
  5
531A
330
5192
100
AcDbEntity
  8
0
 62
     0
100
AcDbPolyline
 90
        2
 70
     0
 43
0.0
 10
1837.665607299015
 20
2201.182233514724
 10
1851.862541510563
 20
2201.182233514724
  0
LWPOLYLINE
  5
531B
330
5192
100
AcDbEntity
  8
0
 62
     0
100
AcDbPolyline
 90
        2
 70
     0
 43
0.0
 10
1880.229996729439
 20
2201.182233514724
 10
1894.079747689577
 20
2201.182233514724
  0
LWPOLYLINE
  5
531C
330
5192
100
AcDbEntity
  8
0
 62
     0
100
AcDbPolyline
 90
        2
 70
     0
 43
0.0
 10
1917.546527768227
 20
2201.182233514724
 10
1930.300619476115
 20
2201.182233514724
  0
LWPOLYLINE
  5
531D
330
5192
100
AcDbEntity
  8
0
 62
     0
100
AcDbPolyline
 90
        2
 70
     0
 43
0.0
 10
1950.979480131235
 20
2201.182233514724
 10
2039.698657964569
 20
2201.182233514724
  0
LWPOLYLINE
  5
531E
330
5192
100
AcDbEntity
  8
0
 62
     0
100
AcDbPolyline
 90
        2
 70
     0
 43
0.0
 10
2057.439026587856
 20
2182.739984373505
 10
2057.439026587856
 20
2133.929781392687
  0
LWPOLYLINE
  5
531F
330
5192
100
AcDbEntity
  8
0
 62
     0
100
AcDbPolyline
 90
        2
 70
     0
 43
0.0
 10
2057.439026587856
 20
2109.307973874687
 10
2057.439026587856
 20
2015.770677995723
  0
LWPOLYLINE
  5
5320
330
5192
100
AcDbEntity
  8
0
 62
     0
100
AcDbPolyline
 90
        2
 70
     0
 43
0.0
 10
2057.439026587856
 20
1993.427968850313
 10
2057.439026587856
 20
1947.431069978932
  0
LWPOLYLINE
  5
5321
330
5192
100
AcDbEntity
  8
0
 62
     0
100
AcDbPolyline
 90
        2
 70
     0
 43
0.0
 10
2057.439026587856
 20
1918.182003646939
 10
2057.439026587856
 20
1837.266933497778
  0
LWPOLYLINE
  5
5322
330
5192
100
AcDbEntity
  8
0
 62
     0
100
AcDbPolyline
 90
        2
 70
     0
 43
0.0
 10
2057.439026587856
 20
1810.914320201122
 10
2057.439026587856
 20
1765.632097834548
  0
LWPOLYLINE
  5
5323
330
5192
100
AcDbEntity
  8
0
 62
     0
100
AcDbPolyline
 90
        2
 70
     0
 43
0.0
 10
2057.439026587856
 20
1719.686515154858
 10
2057.439026587856
 20
1611.28185292286
  0
LWPOLYLINE
  5
5324
330
5192
100
AcDbEntity
  8
0
 62
     0
100
AcDbPolyline
 90
        2
 70
     0
 43
0.0
 10
2057.439026587856
 20
1578.97439248046
 10
2057.439026587856
 20
1515.669722496782
  0
LWPOLYLINE
  5
5325
330
5192
100
AcDbEntity
  8
0
 62
     0
100
AcDbPolyline
 90
        2
 70
     0
 43
0.0
 10
2057.439026587856
 20
1458.069189981266
 10
2057.439026587856
 20
1408.326690330245
  0
LWPOLYLINE
  5
5326
330
5192
100
AcDbEntity
  8
0
 62
     0
100
AcDbPolyline
 90
        2
 70
     0
 43
0.0
 10
2057.439026587856
 20
1345.913745669223
 10
2057.439026587856
 20
1284.279414535475
  0
LWPOLYLINE
  5
5327
330
5192
100
AcDbEntity
  8
0
 62
     0
100
AcDbPolyline
 90
        2
 70
     0
 43
0.0
 10
2057.439026587856
 20
1220.672496993459
 10
2057.439026587856
 20
1137.753662650799
  0
LWPOLYLINE
  5
5328
330
5192
100
AcDbEntity
  8
0
 62
     0
100
AcDbPolyline
 90
        2
 70
     0
 43
0.0
 10
2057.439026587856
 20
1102.94430435361
 10
2057.439026587856
 20
1014.383379088064
  0
LWPOLYLINE
  5
5329
330
5192
100
AcDbEntity
  8
0
 62
     0
100
AcDbPolyline
 90
        2
 70
     0
 43
0.0
 10
2057.439026587856
 20
950.7764615460489
 10
2057.439026587856
 20
889.142130412298
  0
LWPOLYLINE
  5
532A
330
5192
100
AcDbEntity
  8
0
 62
     0
100
AcDbPolyline
 90
        2
 70
     0
 43
0.0
 10
2057.439026587856
 20
826.7291857512775
 10
2057.439026587856
 20
776.9866861002567
  0
LWPOLYLINE
  5
532B
330
5192
100
AcDbEntity
  8
0
 62
     0
100
AcDbPolyline
 90
        2
 70
     0
 43
0.0
 10
2057.439026587856
 20
719.386153584741
 10
2057.439026587856
 20
656.0814836010633
  0
LWPOLYLINE
  5
532C
330
5192
100
AcDbEntity
  8
0
 62
     0
100
AcDbPolyline
 90
        2
 70
     0
 43
0.0
 10
2057.439026587856
 20
623.7740231586633
 10
2057.439026587856
 20
515.3693609266658
  0
LWPOLYLINE
  5
532D
330
5192
100
AcDbEntity
  8
0
 62
     0
100
AcDbPolyline
 90
        2
 70
     0
 43
0.0
 10
2057.439026587856
 20
469.4237782469751
 10
2057.439026587856
 20
424.1415558803998
  0
LWPOLYLINE
  5
532E
330
5192
100
AcDbEntity
  8
0
 62
     0
100
AcDbPolyline
 90
        2
 70
     0
 43
0.0
 10
2057.439026587856
 20
397.788942583744
 10
2057.439026587856
 20
316.8738724345828
  0
LWPOLYLINE
  5
532F
330
5192
100
AcDbEntity
  8
0
 62
     0
100
AcDbPolyline
 90
        2
 70
     0
 43
0.0
 10
2057.439026587856
 20
287.624806102591
 10
2057.439026587856
 20
241.6279072312101
  0
LWPOLYLINE
  5
5330
330
5192
100
AcDbEntity
  8
0
 62
     0
100
AcDbPolyline
 90
        2
 70
     0
 43
0.0
 10
2057.439026587856
 20
219.2851980857987
 10
2057.439026587856
 20
125.7479022068364
  0
LWPOLYLINE
  5
5331
330
5192
100
AcDbEntity
  8
0
 62
     0
100
AcDbPolyline
 90
        2
 70
     0
 43
0.0
 10
2057.439026587856
 20
101.1260946888364
 10
2057.439026587856
 20
52.31589170801789
  0
LWPOLYLINE
  5
5332
330
5192
100
AcDbEntity
  8
0
 62
     0
100
AcDbPolyline
 90
        2
 70
     0
 43
0.0
 10
2039.698657964569
 20
33.87364256679706
 10
1950.979480131235
 20
33.87364256679706
  0
LWPOLYLINE
  5
5333
330
5192
100
AcDbEntity
  8
0
 62
     0
100
AcDbPolyline
 90
        2
 70
     0
 43
0.0
 10
1930.300619476115
 20
33.87364256679706
 10
1917.546527768227
 20
33.87364256679706
  0
LWPOLYLINE
  5
5334
330
5192
100
AcDbEntity
  8
0
 62
     0
100
AcDbPolyline
 90
        2
 70
     0
 43
0.0
 10
1894.079747689577
 20
33.87364256679706
 10
1880.229996729439
 20
33.87364256679706
  0
LWPOLYLINE
  5
5335
330
5192
100
AcDbEntity
  8
0
 62
     0
100
AcDbPolyline
 90
        2
 70
     0
 43
0.0
 10
1851.862541510563
 20
33.87364256679706
 10
1837.665607299015
 20
33.87364256679706
  0
LWPOLYLINE
  5
5336
330
5192
100
AcDbEntity
  8
0
 62
     0
100
AcDbPolyline
 90
        2
 70
     0
 43
0.0
 10
1806.321243007852
 20
33.87364256679706
 10
1792.854904110386
 20
33.87364256679706
  0
LWPOLYLINE
  5
5337
330
5192
100
AcDbEntity
  8
0
 62
     0
100
AcDbPolyline
 90
        2
 70
     0
 43
0.0
 10
1754.917590602523
 20
33.87364256679706
 10
1634.458198404579
 20
33.87364256679706
  0
LWPOLYLINE
  5
5338
330
5192
100
AcDbEntity
  8
0
 62
     0
100
AcDbPolyline
 90
        2
 70
     0
 43
0.0
 10
1575.873443843253
 20
33.87364256679706
 10
1503.782665623613
 20
33.87364256679706
  0
LWPOLYLINE
  5
5339
330
5192
100
AcDbEntity
  8
0
 62
     0
100
AcDbPolyline
 90
        2
 70
     0
 43
0.0
 10
1445.197911062274
 20
33.87364256679706
 10
1324.738518864335
 20
33.87364256679706
  0
LWPOLYLINE
  5
533A
330
5192
100
AcDbEntity
  8
0
 62
     0
100
AcDbPolyline
 90
        2
 70
     0
 43
0.0
 10
1286.801205356461
 20
33.87364256679706
 10
1273.334866459009
 20
33.87364256679706
  0
LWPOLYLINE
  5
533B
330
5192
100
AcDbEntity
  8
0
 62
     0
100
AcDbPolyline
 90
        2
 70
     0
 43
0.0
 10
1241.990502167845
 20
33.87364256679706
 10
1227.793567956298
 20
33.87364256679706
  0
LWPOLYLINE
  5
533C
330
5192
100
AcDbEntity
  8
0
 62
     0
100
AcDbPolyline
 90
        2
 70
     0
 43
0.0
 10
1199.426112737416
 20
33.87364256679706
 10
1185.576361777289
 20
33.87364256679706
  0
LWPOLYLINE
  5
533D
330
5192
100
AcDbEntity
  8
0
 62
     0
100
AcDbPolyline
 90
        2
 70
     0
 43
0.0
 10
1162.109581698639
 20
33.87364256679706
 10
1149.355489990746
 20
33.87364256679706
  0
LWPOLYLINE
  5
533E
330
5192
100
AcDbEntity
  8
0
 62
     0
100
AcDbPolyline
 90
        2
 70
     0
 43
0.0
 10
1128.676629335617
 20
33.87364256679706
 10
1039.957451502281
 20
33.87364256679706
  0
LWPOLYLINE
  5
533F
330
5192
100
AcDbEntity
  8
0
 62
     0
100
AcDbPolyline
 90
        2
 70
     0
 43
0.0
 10
1022.217082879002
 20
52.31589170801834
 10
1022.217082879002
 20
101.1260946888371
  0
LWPOLYLINE
  5
5340
330
5192
100
AcDbEntity
  8
0
 62
     0
100
AcDbPolyline
 90
        2
 70
     0
 43
0.0
 10
1022.217082879002
 20
125.747902206837
 10
1022.217082879002
 20
219.2851980857994
  0
LWPOLYLINE
  5
5341
330
5192
100
AcDbEntity
  8
0
 62
     0
100
AcDbPolyline
 90
        2
 70
     0
 43
0.0
 10
1022.217082879002
 20
241.6279072312101
 10
1022.217082879002
 20
287.6248061025919
  0
LWPOLYLINE
  5
5342
330
5192
100
AcDbEntity
  8
0
 62
     0
100
AcDbPolyline
 90
        2
 70
     0
 43
0.0
 10
1022.217082879002
 20
316.8738724345837
 10
1022.217082879002
 20
397.7889425837463
  0
LWPOLYLINE
  5
5343
330
5192
100
AcDbEntity
  8
0
 62
     0
100
AcDbPolyline
 90
        2
 70
     0
 43
0.0
 10
1022.217082879002
 20
424.1415558803998
 10
1022.217082879002
 20
469.4237782469751
  0
LWPOLYLINE
  5
5344
330
5192
100
AcDbEntity
  8
0
 62
     0
100
AcDbPolyline
 90
        2
 70
     0
 43
0.0
 10
1022.217082879002
 20
515.3693609266658
 10
1022.217082879002
 20
623.7740231586628
  0
LWPOLYLINE
  5
5345
330
5192
100
AcDbEntity
  8
0
 62
     0
100
AcDbPolyline
 90
        2
 70
     0
 43
0.0
 10
1022.217082879002
 20
656.0814836010629
 10
1022.217082879002
 20
719.3861535847416
  0
LWPOLYLINE
  5
5346
330
5192
100
AcDbEntity
  8
0
 62
     0
100
AcDbPolyline
 90
        2
 70
     0
 43
0.0
 10
1022.217082879002
 20
776.9866861002567
 10
1022.217082879002
 20
826.7291857512775
  0
LWPOLYLINE
  5
5347
330
5192
100
AcDbEntity
  8
0
 62
     0
100
AcDbPolyline
 90
        2
 70
     0
 43
0.0
 10
1022.217082879002
 20
889.142130412298
 10
1022.217082879002
 20
950.7764615460489
  0
LWPOLYLINE
  5
5348
330
5192
100
AcDbEntity
  8
0
 62
     0
100
AcDbPolyline
 90
        2
 70
     0
 43
0.0
 10
1022.217082879002
 20
1014.383379088064
 10
1022.217082879002
 20
1102.94430435361
  0
LWPOLYLINE
  5
5349
330
5192
100
AcDbEntity
  8
0
 62
     0
100
AcDbPolyline
 90
        2
 70
     0
 43
0.0
 10
1022.217082879002
 20
1137.753662650799
 10
1022.217082879002
 20
1220.672496993459
  0
LWPOLYLINE
  5
534A
330
5192
100
AcDbEntity
  8
0
 62
     0
100
AcDbPolyline
 90
        2
 70
     0
 43
0.0
 10
1022.217082879002
 20
1284.279414535474
 10
1022.217082879002
 20
1345.913745669223
  0
LWPOLYLINE
  5
534B
330
5192
100
AcDbEntity
  8
0
 62
     0
100
AcDbPolyline
 90
        2
 70
     0
 43
0.0
 10
1022.217082879002
 20
1408.326690330245
 10
1022.217082879002
 20
1458.069189981266
  0
LWPOLYLINE
  5
534C
330
5192
100
AcDbEntity
  8
0
 62
     0
100
AcDbPolyline
 90
        2
 70
     0
 43
0.0
 10
1022.217082879002
 20
1515.669722496782
 10
1022.217082879002
 20
1578.97439248046
  0
LWPOLYLINE
  5
534D
330
5192
100
AcDbEntity
  8
0
 62
     0
100
AcDbPolyline
 90
        2
 70
     0
 43
0.0
 10
1022.217082879002
 20
1611.28185292286
 10
1022.217082879002
 20
1719.686515154858
  0
LWPOLYLINE
  5
534E
330
5192
100
AcDbEntity
  8
0
 62
     0
100
AcDbPolyline
 90
        2
 70
     0
 43
0.0
 10
1022.217082879002
 20
1765.632097834548
 10
1022.217082879002
 20
1810.914320201122
  0
LWPOLYLINE
  5
534F
330
5192
100
AcDbEntity
  8
0
 62
     0
100
AcDbPolyline
 90
        2
 70
     0
 43
0.0
 10
1022.217082879002
 20
1837.266933497776
 10
1022.217082879002
 20
1918.182003646938
  0
LWPOLYLINE
  5
5350
330
5192
100
AcDbEntity
  8
0
 62
     0
100
AcDbPolyline
 90
        2
 70
     0
 43
0.0
 10
1022.217082879002
 20
1947.43106997893
 10
1022.217082879002
 20
1993.427968850312
  0
LWPOLYLINE
  5
5351
330
5192
100
AcDbEntity
  8
0
 62
     0
100
AcDbPolyline
 90
        2
 70
     0
 43
0.0
 10
1022.217082879002
 20
2015.770677995723
 10
1022.217082879002
 20
2109.307973874687
  0
LWPOLYLINE
  5
5352
330
5192
100
AcDbEntity
  8
0
 62
     0
100
AcDbPolyline
 90
        2
 70
     0
 43
0.0
 10
1022.217082879002
 20
2133.929781392687
 10
1022.217082879002
 20
2182.739984373505
  0
LWPOLYLINE
  5
5353
330
5192
100
AcDbEntity
  8
0
 62
     0
100
AcDbPolyline
 90
        4
 70
     1
 43
0.0
 10
988.3434403122009
 20
2235.055876081522
 10
2091.31266915466
 20
2235.055876081522
 10
2091.31266915466
 20
-0.0000000000000568
 10
988.3434403122009
 20
-0.0000000000000568
  0
ENDBLK
  5
5354
330
5192
100
AcDbEntity
  8
0
 62
     5
100
AcDbBlockEnd
  0
ENDSEC
  0
SECTION
  2
ENTITIES
  0
LWPOLYLINE
  5
50A3
330
1D
100
AcDbEntity
  8
0
 62
     5
100
AcDbPolyline
 90
        3
 70
     1
 43
0.0
 10
105786.4547187374
 20
6823.465462637972
 10
105739.6698738287
 20
6875.638928164369
 10
105786.4547187374
 20
6875.638928164369
  0
LWPOLYLINE
  5
50A4
330
1D
100
AcDbEntity
  8
0
 62
     5
100
AcDbPolyline
 90
        5
 70
     1
 43
0.0
 10
105786.4547187374
 20
6647.783847860671
 10
105587.777935812
 20
6861.112541177198
 10
105605.2032793497
 20
6875.638928164369
 10
105700.3165854583
 20
6875.63892816437
 10
105786.4547187374
 20
6785.649332372045
  0
LWPOLYLINE
  5
50A5
330
1D
100
AcDbEntity
  8
0
 62
     5
100
AcDbPolyline
 90
        5
 70
     1
 43
0.0
 10
105724.1147264
 20
6452.750933991083
 42
0.059494520122047
 10
105461.2239924295
 20
6771.696435864895
 10
105554.2115512169
 20
6850.859169682047
 42
-0.0409822197792204
 10
105786.4547187374
 20
6584.656057346283
 10
105786.4547187374
 20
6483.727658913699
  0
LWPOLYLINE
  5
50A6
330
1D
100
AcDbEntity
  8
0
 62
     5
100
AcDbPolyline
 90
        4
 70
     1
 43
0.0
 10
105257.8295911974
 20
6712.678051214742
 42
0.0213977600455387
 10
105054.5744700647
 20
6875.638928164369
 10
105291.2072426267
 20
6875.638928164369
 10
105352.4827002222
 20
6825.693799104176
  0
LWPOLYLINE
  5
50A7
330
1D
100
AcDbEntity
  8
0
 62
     5
100
AcDbPolyline
 90
        3
 70
     1
 43
0.0
 10
104825.6763356919
 20
6757.741323055828
 42
0.0533881530775796
 10
104562.9188498217
 20
6875.638928164369
 10
104870.196730831
 20
6875.638928164369
  0
LWPOLYLINE
  5
50A8
330
1D
100
AcDbEntity
  8
0
 62
     5
100
AcDbPolyline
 90
        4
 70
     1
 43
0.0
 10
105557.0440427569
 20
6348.189826122568
 42
0.0373549516151661
 10
105329.7763021175
 20
6636.132840905618
 10
105427.8864163136
 20
6744.111449441636
 42
-0.0807789609691893
 10
105683.71781921
 20
6431.345776148065
  0
LWPOLYLINE
  5
50A9
330
1D
100
AcDbEntity
  8
0
 62
     5
100
AcDbPolyline
 90
        4
 70
     1
 43
0.0
 10
105129.6920049852
 20
6527.130176310333
 42
0.0570193715189897
 10
104900.54663847
 20
6709.545917579882
 10
104975.5743467062
 20
6867.866630160007
 42
-0.0644998285315913
 10
105225.6526708315
 20
6672.749398262188
  0
LWPOLYLINE
  5
50AA
330
1D
100
AcDbEntity
  8
0
 62
     5
100
AcDbPolyline
 90
        3
 70
     1
 43
0.0
 10
102591.0750698716
 20
6823.465462637969
 10
102591.0750698716
 20
6875.638928164369
 10
102637.8599147804
 20
6875.638928164369
  0
LWPOLYLINE
  5
50AB
330
1D
100
AcDbEntity
  8
0
 62
     5
100
AcDbPolyline
 90
        4
 70
     1
 43
0.0
 10
104741.4932842245
 20
6512.051285108775
 42
0.0553021490383155
 10
104526.8360791275
 20
6612.009036846099
 10
104558.3806935968
 20
6809.617830620635
 42
-0.079862192136134
 10
104803.8130814052
 20
6705.04662520042
  0
LWPOLYLINE
  5
50AC
330
1D
100
AcDbEntity
  8
0
 62
     5
100
AcDbPolyline
 90
        4
 70
     1
 43
0.0
 10
104220.6138704192
 20
6672.789886099835
 10
104232.3077419928
 20
6867.362400595185
 42
-0.0780794557620575
 10
104482.1749197287
 20
6835.438511973577
 10
104453.1125875439
 20
6637.936611575646
 42
0.0429273820870551
  0
LWPOLYLINE
  5
50AD
330
1D
100
AcDbEntity
  8
0
 62
     5
100
AcDbPolyline
 90
        4
 70
     1
 43
0.0
 10
105380.6588979157
 20
6192.429294540509
 42
0.0580705331808737
 10
105197.1510020111
 20
6457.766223071266
 10
105298.6659952215
 20
6596.287710666981
 42
-0.0791313906060753
 10
105515.3615062667
 20
6313.391729751305
  0
LWPOLYLINE
  5
50AE
330
1D
100
AcDbEntity
  8
0
 62
     5
100
AcDbPolyline
 90
        3
 70
     1
 43
0.0
 10
103551.8534529172
 20
6757.741323055828
 10
103507.333057778
 20
6875.638928164369
 10
103814.6109387874
 20
6875.638928164369
 42
0.0533881530775793
  0
LWPOLYLINE
  5
50AF
330
1D
100
AcDbEntity
  8
0
 62
     5
100
AcDbPolyline
 90
        5
 70
     1
 43
0.0
 10
105768.4591234886
 20
5862.747984436707
 42
0.0468632845484421
 10
105613.3016166892
 20
6241.995369376256
 10
105751.6348025968
 20
6323.262669100408
 10
105786.4547187374
 20
6246.66591571658
 10
105786.4547187374
 20
5874.891377375218
  0
LWPOLYLINE
  5
50B0
330
1D
100
AcDbEntity
  8
0
 62
     5
100
AcDbPolyline
 90
        4
 70
     1
 43
0.0
 10
103119.7001974117
 20
6712.678051214742
 10
103025.0470883869
 20
6825.693799104176
 10
103086.3225459823
 20
6875.63892816437
 10
103322.9553185443
 20
6875.638928164369
 42
0.0213977600455387
  0
LWPOLYLINE
  5
50B1
330
1D
100
AcDbEntity
  8
0
 62
     5
100
AcDbPolyline
 90
        4
 70
     1
 43
0.0
 10
104999.6790928893
 20
6304.30623604847
 42
0.0622532990038338
 10
104807.4793939087
 20
6472.563335926674
 10
104876.0157225265
 20
6658.688393925544
 42
-0.0768096001618758
 10
105098.7588203571
 20
6476.285817202702
  0
LWPOLYLINE
  5
50B2
330
1D
100
AcDbEntity
  8
0
 62
     5
100
AcDbPolyline
 90
        5
 70
     1
 43
0.0
 10
102591.0750698716
 20
6647.783847860677
 10
102591.0750698716
 20
6785.649332372043
 10
102677.2132031508
 20
6875.638928164369
 10
102772.3265092593
 20
6875.638928164369
 10
102789.751852797
 20
6861.112541177196
  0
LWPOLYLINE
  5
50B3
330
1D
100
AcDbEntity
  8
0
 62
     5
100
AcDbPolyline
 90
        4
 70
     1
 43
0.0
 10
103924.4172010652
 20
6637.936611575643
 10
103895.3548688803
 20
6835.438511973577
 42
-0.0780794557620575
 10
104145.2220466163
 20
6867.362400595185
 10
104156.9159181899
 20
6672.789886099831
 42
0.0429273820870554
  0
LWPOLYLINE
  5
50B4
330
1D
100
AcDbEntity
  8
0
 62
     5
100
AcDbPolyline
 90
        4
 70
     1
 43
0.0
 10
105212.1059917745
 20
6006.052360842396
 42
0.0602157153820958
 10
105053.810913142
 20
6243.348412597982
 10
105159.6277380036
 20
6405.844613914783
 42
-0.0773283645512568
 10
105344.5921021814
 20
6150.49344041695
  0
LWPOLYLINE
  5
50B5
330
1D
100
AcDbEntity
  8
0
 62
     5
100
AcDbPolyline
 90
        4
 70
     1
 43
0.0
 10
103636.0365043846
 20
6512.051285108769
 10
103573.7167072039
 20
6705.04662520042
 42
-0.079862192136134
 10
103819.1490950123
 20
6809.617830620635
 10
103850.6937094816
 20
6612.009036846099
 42
0.0553021490383155
  0
LWPOLYLINE
  5
50B6
330
1D
100
AcDbEntity
  8
0
 62
     5
100
AcDbPolyline
 90
        4
 70
     1
 43
0.0
 10
103247.8377836238
 20
6527.130176310335
 10
103151.8771177776
 20
6672.749398262188
 42
-0.0644998285315913
 10
103401.9554419029
 20
6867.866630160007
 10
103476.9831501391
 20
6709.545917579882
 42
0.0570193715189898
  0
LWPOLYLINE
  5
50B7
330
1D
100
AcDbEntity
  8
0
 62
     5
100
AcDbPolyline
 90
        4
 70
     1
 43
0.0
 10
105558.7365723578
 20
5764.292611402123
 42
0.0326448156651766
 10
105431.6276940008
 20
6100.811848750227
 10
105569.8864828026
 20
6212.242058880516
 42
-0.0589533111811753
 10
105716.3218813551
 20
5844.522365450561
  0
LWPOLYLINE
  5
50B8
330
1D
100
AcDbEntity
  8
0
 62
     5
100
AcDbPolyline
 90
        4
 70
     1
 43
0.0
 10
104661.6242397924
 20
6241.370240795069
 42
0.0343428229677929
 10
104475.0304774499
 20
6333.525324562925
 10
104513.0001453273
 20
6550.360835947683
 42
-0.0873352344552785
 10
104722.3756487502
 20
6454.953217794923
  0
LWPOLYLINE
  5
50B9
330
1D
100
AcDbEntity
  8
0
 62
     5
100
AcDbPolyline
 90
        4
 70
     1
 43
0.0
 10
104214.8901928283
 20
6379.955960844657
 10
104227.7779958359
 20
6603.459143720596
 42
-0.1032568344234214
 10
104447.6286863613
 20
6569.365436114978
 10
104412.6419682239
 20
6349.502010423416
 42
0.0758437924751531
  0
LWPOLYLINE
  5
50BA
330
1D
100
AcDbEntity
  8
0
 62
     5
100
AcDbPolyline
 90
        5
 70
     1
 43
0.0
 10
102653.415062209
 20
6452.750933991082
 10
102591.0750698716
 20
6483.727658913699
 10
102591.0750698716
 20
6584.656057346284
 42
-0.0409822197792204
 10
102823.3182373921
 20
6850.859169682047
 10
102916.3057961796
 20
6771.696435864895
 42
0.0594945201220471
  0
LWPOLYLINE
  5
50BB
330
1D
100
AcDbEntity
  8
0
 62
     5
100
AcDbPolyline
 90
        4
 70
     1
 43
0.0
 10
104879.924793732
 20
6052.625232306462
 42
0.0698527538786583
 10
104714.6500170878
 20
6202.844092023708
 10
104788.5742170331
 20
6411.580596007503
 42
-0.0547090418661347
 10
104973.7583684658
 20
6245.543402099597
  0
LWPOLYLINE
  5
50BC
330
1D
100
AcDbEntity
  8
0
 62
     5
100
AcDbPolyline
 90
        4
 70
     1
 43
0.0
 10
103964.8878203851
 20
6349.502010423413
 10
103929.9011022478
 20
6569.365436114978
 42
-0.1032568344234214
 10
104149.7517927731
 20
6603.459143720596
 10
104162.6395957808
 20
6379.955960844656
 42
0.0758437924751529
  0
LWPOLYLINE
  5
50BD
330
1D
100
AcDbEntity
  8
0
 62
     5
100
AcDbPolyline
 90
        4
 70
     1
 43
0.0
 10
102820.4857458522
 20
6348.189826122567
 10
102693.8119693991
 20
6431.345776148065
 42
-0.0807789609691893
 10
102949.6433722955
 20
6744.111449441636
 10
103047.7534864915
 20
6636.132840905618
 42
0.0373549516151661
  0
LWPOLYLINE
  5
50BE
330
1D
100
AcDbEntity
  8
0
 62
     5
100
AcDbPolyline
 90
        4
 70
     1
 43
0.0
 10
103377.8506957198
 20
6304.306236048468
 10
103278.770968252
 20
6476.285817202702
 42
-0.0768096001618758
 10
103501.5140660826
 20
6658.688393925544
 10
103570.0503947003
 20
6472.563335926674
 42
0.0622532990038341
  0
LWPOLYLINE
  5
50BF
330
1D
100
AcDbEntity
  8
0
 62
     5
100
AcDbPolyline
 90
        4
 70
     1
 43
0.0
 10
105345.0797980562
 20
5631.870691657068
 42
0.0627993105474927
 10
105248.6147985635
 20
5922.032210265168
 10
105387.6378764084
 20
6060.024338953417
 42
-0.0744260652950494
 10
105503.9633124655
 20
5735.83736584317
  0
LWPOLYLINE
  5
50C0
330
1D
100
AcDbEntity
  8
0
 62
     5
100
AcDbPolyline
 90
        4
 70
     1
 43
0.0
 10
105052.7573108302
 20
5795.050661151366
 42
0.0602669950301921
 10
104925.3856254612
 20
5994.260783767964
 10
105024.6267784921
 20
6183.738643920014
 42
-0.0806573692517032
 10
105171.9888492995
 20
5959.876994044784
  0
LWPOLYLINE
  5
50C1
330
1D
100
AcDbEntity
  8
0
 62
     5
100
AcDbPolyline
 90
        4
 70
     1
 43
0.0
 10
103715.9055488167
 20
6241.370240795072
 10
103655.1541398588
 20
6454.953217794923
 42
-0.0873352344552785
 10
103864.5296432817
 20
6550.360835947683
 10
103902.4993111591
 20
6333.525324562925
 42
0.0343428229677926
  0
LWPOLYLINE
  5
50C2
330
1D
100
AcDbEntity
  8
0
 62
     5
100
AcDbPolyline
 90
        4
 70
     1
 43
0.0
 10
104584.8991889565
 20
5947.261377187553
 42
0.0716868097517248
 10
104431.3694003989
 20
6022.520348068869
 10
104466.0369534714
 20
6260.827783647333
 42
-0.0490125070221382
 10
104641.5583542338
 20
6174.114182980327
  0
LWPOLYLINE
  5
50C3
330
1D
100
AcDbEntity
  8
0
 62
     5
100
AcDbPolyline
 90
        4
 70
     1
 43
0.0
 10
104213.8048765286
 20
6070.546637115434
 42
-0.0078733755497475
 10
104220.7658481028
 20
6309.81559884325
 42
-0.1210544491496612
 10
104409.4033762735
 20
6277.2564865606
 10
104376.9815499543
 20
6042.55078868138
 42
0.0571473015935219
  0
LWPOLYLINE
  5
50C4
330
1D
100
AcDbEntity
  8
0
 62
     5
100
AcDbPolyline
 90
        4
 70
     1
 43
0.0
 10
102996.8708906934
 20
6192.429294540509
 10
102862.1682823423
 20
6313.391729751304
 42
-0.0791313906060753
 10
103078.8637933875
 20
6596.287710666981
 10
103180.378786598
 20
6457.766223071266
 42
0.0580705331808735
  0
LWPOLYLINE
  5
50C5
330
1D
100
AcDbEntity
  8
0
 62
     5
100
AcDbPolyline
 90
        5
 70
     1
 43
0.0
 10
105617.2184995104
 20
5266.07510823358
 42
0.0432630226294082
 10
105576.2396409472
 20
5655.794692583691
 10
105746.7646165434
 20
5721.848865725662
 42
-0.0589387555412095
 10
105786.4547187374
 20
5519.723120427449
 10
105786.4547187374
 20
5283.24920178985
  0
LWPOLYLINE
  5
50C6
330
1D
100
AcDbEntity
  8
0
 62
     5
100
AcDbPolyline
 90
        4
 70
     1
 43
0.0
 10
104764.8271671486
 20
5783.368461671749
 42
0.0238876506733067
 10
104633.2218848289
 20
5914.973743991459
 10
104697.1139515743
 20
6131.445178787988
 42
-0.0649448730996777
 10
104852.4977724391
 20
5990.983750812089
  0
LWPOLYLINE
  5
50C7
330
1D
100
AcDbEntity
  8
0
 62
     5
100
AcDbPolyline
 90
        4
 70
     1
 43
0.0
 10
104000.5482386547
 20
6042.550788681385
 10
103968.1264123355
 20
6277.2564865606
 42
-0.1210544491496612
 10
104156.7639405062
 20
6309.81559884325
 42
-0.0078733755497475
 10
104163.7249120805
 20
6070.546637115434
 42
0.0571473015935219
  0
LWPOLYLINE
  5
50C8
330
1D
100
AcDbEntity
  8
0
 62
     5
100
AcDbPolyline
 90
        4
 70
     1
 43
0.0
 10
103497.6049948771
 20
6052.625232306464
 10
103403.7714201433
 20
6245.543402099598
 42
-0.0547090418661346
 10
103588.955571576
 20
6411.580596007503
 10
103662.8797715213
 20
6202.844092023708
 42
0.0698527538786575
  0
LWPOLYLINE
  5
50C9
330
1D
100
AcDbEntity
  8
0
 62
     5
100
AcDbPolyline
 90
        4
 70
     1
 43
0.0
 10
105156.4676117922
 20
5472.119977755987
 42
0.044759775486165
 10
105080.2816037406
 20
5723.056923082692
 10
105210.1197261296
 20
5876.407278560125
 42
-0.0655567668226707
 10
105299.1822354918
 20
5593.298938462194
  0
LWPOLYLINE
  5
50CA
330
1D
100
AcDbEntity
  8
0
 62
     5
100
AcDbPolyline
 90
        4
 70
     1
 43
0.0
 10
103165.4237968345
 20
6006.052360842395
 10
103032.9376864277
 20
6150.49344041695
 42
-0.0773283645512568
 10
103217.9020506055
 20
6405.844613914783
 10
103323.718875467
 20
6243.348412597982
 42
0.0602157153820959
  0
LWPOLYLINE
  5
50CB
330
1D
100
AcDbEntity
  8
0
 62
     5
100
AcDbPolyline
 90
        4
 70
     1
 43
0.0
 10
104903.2515191514
 20
5558.412036257537
 42
0.0465655744644448
 10
104802.5470381111
 20
5729.745217599094
 10
104898.1693925674
 20
5931.574928442628
 42
-0.0694143383468688
 10
105014.5738602217
 20
5732.817527968343
  0
LWPOLYLINE
  5
50CC
330
1D
100
AcDbEntity
  8
0
 62
     5
100
AcDbPolyline
 90
        4
 70
     1
 43
0.0
 10
103792.6305996525
 20
5947.261377187552
 10
103735.9714343752
 20
6174.114182980327
 42
-0.0490125070221382
 10
103911.4928351376
 20
6260.827783647333
 10
103946.1603882101
 20
6022.520348068869
 42
0.0716868097517257
  0
LWPOLYLINE
  5
50CD
330
1D
100
AcDbEntity
  8
0
 62
     5
100
AcDbPolyline
 90
        4
 70
     1
 43
0.0
 10
105386.4100176417
 20
5198.176213561001
 42
0.050315158612671
 10
105363.1086601992
 20
5533.508507801466
 10
105526.2180747196
 20
5631.313774061426
 42
-0.0725836655932799
 10
105556.5098262583
 20
5252.900574137275
  0
LWPOLYLINE
  5
50CE
330
1D
100
AcDbEntity
  8
0
 62
     5
100
AcDbPolyline
 90
        5
 70
     1
 43
0.0
 10
102609.0706651205
 20
5862.747984436708
 10
102591.0750698716
 20
5874.891377375218
 10
102591.0750698716
 20
6246.665915716575
 10
102625.8949860123
 20
6323.262669100408
 10
102764.2281719199
 20
6241.995369376256
 42
0.0468632845484421
  0
LWPOLYLINE
  5
50CF
330
1D
100
AcDbEntity
  8
0
 62
     5
100
AcDbPolyline
 90
        4
 70
     1
 43
0.0
 10
104515.7823867056
 20
5640.063697304266
 42
0.0566646438473298
 10
104388.8259677107
 20
5707.490345703354
 10
104424.6892415933
 20
5950.907133839833
 42
-0.1000669056160106
 10
104566.6168939296
 20
5875.374415808993
  0
LWPOLYLINE
  5
50D0
330
1D
100
AcDbEntity
  8
0
 62
     5
100
AcDbPolyline
 90
        4
 70
     1
 43
0.0
 10
104209.3967483061
 20
5749.717789058396
 10
104209.3967483061
 20
5993.343290112374
 42
-0.1164658565421585
 10
104370.0020881595
 20
5971.846922372317
 10
104344.190515683
 20
5726.788336992203
 42
0.0442959422436945
  0
LWPOLYLINE
  5
50D1
330
1D
100
AcDbEntity
  8
0
 62
     5
100
AcDbPolyline
 90
        4
 70
     1
 43
0.0
 10
104661.9035017684
 20
5503.025942820393
 42
0.0406039678312055
 10
104551.7778119241
 20
5613.151632664713
 10
104612.1830601549
 20
5843.685260654235
 42
-0.0466998983868531
 10
104737.6883547127
 20
5719.056325613236
  0
LWPOLYLINE
  5
50D2
330
1D
100
AcDbEntity
  8
0
 62
     5
100
AcDbPolyline
 90
        4
 70
     1
 43
0.0
 10
104033.339272926
 20
5726.788336992203
 10
104007.5277004496
 20
5971.846922372317
 42
-0.1164658565421585
 10
104168.1330403029
 20
5993.343290112374
 10
104168.1330403029
 20
5749.717789058397
 42
0.0442959422436943
  0
LWPOLYLINE
  5
50D3
330
1D
100
AcDbEntity
  8
0
 62
     5
100
AcDbPolyline
 90
        4
 70
     1
 43
0.0
 10
103612.7026214604
 20
5783.368461671749
 10
103525.03201617
 20
5990.983750812089
 42
-0.0649448730996777
 10
103680.4158370348
 20
6131.445178787988
 10
103744.3079037801
 20
5914.973743991459
 42
0.0238876506733067
  0
LWPOLYLINE
  5
50D4
330
1D
100
AcDbEntity
  8
0
 62
     5
100
AcDbPolyline
 90
        4
 70
     1
 43
0.0
 10
104984.1232350502
 20
5283.790597037767
 42
0.0107597180876403
 10
104925.2414289276
 20
5493.587453526465
 10
105046.4184627088
 20
5661.59550549137
 42
-0.0730089065866491
 10
105111.2737784138
 20
5421.949504881839
  0
LWPOLYLINE
  5
50D5
330
1D
100
AcDbEntity
  8
0
 62
     5
100
AcDbPolyline
 90
        4
 70
     1
 43
0.0
 10
103324.7724777789
 20
5795.050661151368
 10
103205.5409393096
 20
5959.876994044784
 42
-0.080657369251703
 10
103352.903010117
 20
6183.738643920012
 10
103452.1441631479
 20
5994.260783767964
 42
0.0602669950301919
  0
LWPOLYLINE
  5
50D6
330
1D
100
AcDbEntity
  8
0
 62
     5
100
AcDbPolyline
 90
        4
 70
     1
 43
0.0
 10
102818.7932162513
 20
5764.292611402122
 10
102661.207907254
 20
5844.522365450561
 42
-0.0589533111811753
 10
102807.6433058064
 20
6212.242058880516
 10
102945.9020946082
 20
6100.811848750227
 42
0.0326448156651767
  0
LWPOLYLINE
  5
50D7
330
1D
100
AcDbEntity
  8
0
 62
     5
100
AcDbPolyline
 90
        4
 70
     1
 43
0.0
 10
105169.309454298
 20
5108.44621800498
 42
0.0532242747177918
 10
105169.309454298
 20
5383.695140312511
 10
105318.7388656289
 20
5500.822327521282
 42
-0.0419686542157417
 10
105333.3887898856
 20
5181.650711732108
  0
LWPOLYLINE
  5
50D8
330
1D
100
AcDbEntity
  8
0
 62
     5
100
AcDbPolyline
 90
        4
 70
     1
 43
0.0
 10
104773.3706033717
 20
5310.682453486543
 42
0.0188930847619401
 10
104691.0788032361
 20
5454.893446050694
 10
104774.2809783269
 20
5662.041085239049
 42
-0.1006115454186089
 10
104865.0364681538
 20
5500.436366779558
  0
LWPOLYLINE
  5
50D9
330
1D
100
AcDbEntity
  8
0
 62
     5
100
AcDbPolyline
 90
        5
 70
     1
 43
0.0
 10
105517.2582591809
 20
4722.072340041558
 42
0.0658303907743819
 10
105605.5351762675
 20
5145.807365808819
 10
105786.4547187374
 20
5145.807365808819
 10
105786.4547187374
 20
5018.82052656549
 42
-0.0483323899144566
 10
105704.5123370071
 20
4668.604201551681
  0
LWPOLYLINE
  5
50DA
330
1D
100
AcDbEntity
  8
0
 62
     5
100
AcDbPolyline
 90
        4
 70
     1
 43
0.0
 10
103861.7474019035
 20
5640.063697304269
 10
103810.9128946795
 20
5875.374415808993
 42
-0.1000669056160106
 10
103952.8405470157
 20
5950.907133839833
 10
103988.7038208984
 20
5707.490345703354
 42
0.0566646438473297
  0
LWPOLYLINE
  5
50DB
330
1D
100
AcDbEntity
  8
0
 62
     5
100
AcDbPolyline
 90
        4
 70
     1
 43
0.0
 10
103032.4499905528
 20
5631.870691657068
 10
102873.5664761436
 20
5735.83736584317
 42
-0.0744260652950494
 10
102989.8919122006
 20
6060.024338953417
 10
103128.9149900456
 20
5922.032210265168
 42
0.0627993105474926
  0
LWPOLYLINE
  5
50DC
330
1D
100
AcDbEntity
  8
0
 62
     5
100
AcDbPolyline
 90
        4
 70
     1
 43
0.0
 10
104457.1927500076
 20
5341.478679269741
 42
0.0845461180148254
 10
104353.2169488827
 20
5400.138471487873
 10
104380.8879211516
 20
5636.453599400599
 42
-0.1132886207315507
 10
104500.7954968427
 20
5572.765833649755
  0
LWPOLYLINE
  5
50DD
330
1D
100
AcDbEntity
  8
0
 62
     5
100
AcDbPolyline
 90
        4
 70
     1
 43
0.0
 10
104207.6866640303
 20
5434.190590821606
 10
104207.6866640303
 20
5676.383440949644
 42
-0.1545514283783681
 10
104336.9374915502
 20
5654.420269265544
 10
104318.7696219838
 20
5416.988840766462
 42
0.0811500579292812
  0
LWPOLYLINE
  5
50DE
330
1D
100
AcDbEntity
  8
0
 62
     5
100
AcDbPolyline
 90
        4
 70
     1
 43
0.0
 10
105291.8648050304
 20
4752.207111888331
 42
0.0624117375870593
 10
105368.2027819788
 20
5091.939943502994
 10
105548.3127452617
 20
5132.46946829958
 42
-0.0515804799200363
 10
105461.2397125948
 20
4733.134388665699
  0
LWPOLYLINE
  5
50DF
330
1D
100
AcDbEntity
  8
0
 62
     5
100
AcDbPolyline
 90
        4
 70
     1
 43
0.0
 10
103474.2782694576
 20
5558.412036257536
 10
103362.9559283873
 20
5732.817527968343
 42
-0.0694143383468688
 10
103479.3603960417
 20
5931.574928442628
 10
103574.982750498
 20
5729.745217599094
 42
0.0465655744644454
  0
LWPOLYLINE
  5
50E0
330
1D
100
AcDbEntity
  8
0
 62
     5
100
AcDbPolyline
 90
        4
 70
     1
 43
0.0
 10
104989.3894904513
 20
4980.612136793593
 42
0.0590377073986364
 10
104989.3894904513
 20
5206.841347251674
 10
105123.2598790481
 20
5338.471241614326
 42
-0.0477471959130941
 10
105129.1049124042
 20
5074.675745954869
  0
LWPOLYLINE
  5
50E1
330
1D
100
AcDbEntity
  8
0
 62
     5
100
AcDbPolyline
 90
        4
 70
     1
 43
0.0
 10
104832.5867085163
 20
5079.587887238802
 42
0.042821923828352
 10
104790.4604749299
 20
5250.926054376885
 10
104890.3878298996
 20
5430.096836742213
 42
-0.0494174025293211
 10
104941.331171451
 20
5230.365485889765
  0
LWPOLYLINE
  5
50E2
330
1D
100
AcDbEntity
  8
0
 62
     5
100
AcDbPolyline
 90
        4
 70
     1
 43
0.0
 10
104577.1033252289
 20
5220.220109717168
 42
0.0629410441536857
 10
104486.4270029562
 20
5316.109089123731
 10
104533.9087425211
 20
5539.529056034147
 42
-0.1607229767703466
 10
104639.3115008296
 20
5434.126297725615
  0
LWPOLYLINE
  5
50E3
330
1D
100
AcDbEntity
  8
0
 62
     5
100
AcDbPolyline
 90
        4
 70
     1
 43
0.0
 10
103715.6262868407
 20
5503.025942820392
 10
103639.8414338963
 20
5719.056325613236
 42
-0.0466998983868531
 10
103765.3467284542
 20
5843.685260654235
 10
103825.751976685
 20
5613.151632664713
 42
0.0406039678312054
  0
LWPOLYLINE
  5
50E4
330
1D
100
AcDbEntity
  8
0
 62
     5
100
AcDbPolyline
 90
        4
 70
     1
 43
0.0
 10
104058.7601666252
 20
5416.988840766465
 10
104040.5922970589
 20
5654.420269265544
 42
-0.1545514283783681
 10
104169.8431245787
 20
5676.383440949644
 10
104169.8431245787
 20
5434.190590821607
 42
0.0811500579292797
  0
LWPOLYLINE
  5
50E5
330
1D
100
AcDbEntity
  8
0
 62
     5
100
AcDbPolyline
 90
        4
 70
     1
 43
0.0
 10
103221.0621768169
 20
5472.119977755988
 10
103078.3475531173
 20
5593.298938462194
 42
-0.0655567668226707
 10
103167.4100624794
 20
5876.407278560125
 10
103297.2481848685
 20
5723.056923082692
 42
0.0447597754861648
  0
LWPOLYLINE
  5
50E6
330
1D
100
AcDbEntity
  8
0
 62
     5
100
AcDbPolyline
 90
        4
 70
     1
 43
0.0
 10
104663.1535837935
 20
5056.64992038142
 10
104599.5148512491
 20
5179.873864318263
 10
104672.4342176933
 20
5387.897082538654
 10
104744.0277918057
 20
5248.773282421049
  0
LWPOLYLINE
  5
50E7
330
1D
100
AcDbEntity
  8
0
 62
     5
100
AcDbPolyline
 90
        4
 70
     1
 43
0.0
 10
103920.3370386015
 20
5341.478679269743
 10
103876.7342917663
 20
5572.765833649755
 42
-0.1132886207315507
 10
103996.6418674574
 20
5636.453599400599
 10
104024.3128397263
 20
5400.138471487873
 42
0.0845461180148252
  0
LWPOLYLINE
  5
50E8
330
1D
100
AcDbEntity
  8
0
 62
     5
100
AcDbPolyline
 90
        4
 70
     1
 43
0.0
 10
105088.821966733
 20
4732.298550871479
 42
0.0778958656004347
 10
105159.0171905358
 20
5014.802194292789
 10
105317.4307420624
 20
5076.422113372691
 42
-0.0666020848013469
 10
105239.6468383151
 20
4747.46654281879
  0
LWPOLYLINE
  5
50E9
330
1D
100
AcDbEntity
  8
0
 62
     5
100
AcDbPolyline
 90
        4
 70
     1
 43
0.0
 10
104839.0360924642
 20
4835.601634362436
 42
0.0189409482584718
 10
104839.0360924642
 20
5016.431544970346
 10
104952.835836547
 20
5156.318832489446
 42
-0.0210215425435876
 10
104948.2838415291
 20
4937.958185197888
  0
LWPOLYLINE
  5
50EA
330
1D
100
AcDbEntity
  8
0
 62
     5
100
AcDbPolyline
 90
        4
 70
     1
 43
0.0
 10
103604.1591852373
 20
5310.682453486545
 10
103512.4933204553
 20
5500.436366779558
 42
-0.1006115454186089
 10
103603.2488102822
 20
5662.041085239049
 10
103686.4509853729
 20
5454.893446050694
 42
0.0188930847619401
  0
LWPOLYLINE
  5
50EB
330
1D
100
AcDbEntity
  8
0
 62
     5
100
AcDbPolyline
 90
        4
 70
     1
 43
0.0
 10
104408.9235443319
 20
5053.899241915272
 10
104324.0515975503
 20
5104.280788417542
 10
104348.9388744623
 20
5333.229866789987
 10
104447.8497828058
 20
5273.28220177111
  0
LWPOLYLINE
  5
50EC
330
1D
100
AcDbEntity
  8
0
 62
     5
100
AcDbPolyline
 90
        3
 70
     1
 43
0.0
 10
105700.2021654245
 20
3759.056631575381
 42
0.0236590775775548
 10
105786.4547187374
 20
3906.460881113938
 10
105786.4547187374
 20
3652.409315425514
  0
LWPOLYLINE
  5
50ED
330
1D
100
AcDbEntity
  8
0
 62
     5
100
AcDbPolyline
 90
        4
 70
     1
 43
0.0
 10
104717.7649347401
 20
4873.951405588994
 42
0.013435140190869
 10
104677.1452097042
 20
5010.139966939187
 10
104765.2407099519
 20
5186.498807836873
 42
-0.0442325430961858
 10
104801.0374970081
 20
5022.20021133003
  0
LWPOLYLINE
  5
50EE
330
1D
100
AcDbEntity
  8
0
 62
     5
100
AcDbPolyline
 90
        4
 70
     1
 43
0.0
 10
104203.405721446
 20
5133.032349672122
 10
104207.272904023
 20
5367.030143951438
 42
-0.0554007469161068
 10
104311.9270368521
 20
5342.795985306595
 10
104297.7708089869
 20
5118.795781227296
  0
LWPOLYLINE
  5
50EF
330
1D
100
AcDbEntity
  8
0
 62
     5
100
AcDbPolyline
 90
        5
 70
     1
 43
0.0
 10
102760.3112890986
 20
5266.07510823358
 10
102591.0750698716
 20
5283.24920178985
 10
102591.0750698716
 20
5519.723120427449
 42
-0.0589387555412095
 10
102630.7651720656
 20
5721.848865725662
 10
102801.2901476619
 20
5655.794692583691
 42
0.0432630226294082
  0
LWPOLYLINE
  5
50F0
330
1D
100
AcDbEntity
  8
0
 62
     5
100
AcDbPolyline
 90
        4
 70
     1
 43
0.0
 10
103393.4065535588
 20
5283.790597037766
 10
103266.2560101953
 20
5421.949504881839
 42
-0.0730089065866493
 10
103331.1113259003
 20
5661.595505491371
 10
103452.2883596814
 20
5493.587453526465
 42
0.0107597180876404
  0
LWPOLYLINE
  5
50F1
330
1D
100
AcDbEntity
  8
0
 62
     5
100
AcDbPolyline
 90
        4
 70
     1
 43
0.0
 10
103800.4264633802
 20
5220.22010971717
 10
103738.2182877795
 20
5434.126297725615
 42
-0.1607229767703466
 10
103843.621046088
 20
5539.529056034147
 10
103891.1027856529
 20
5316.109089123731
 42
0.0629410441536847
  0
LWPOLYLINE
  5
50F2
330
1D
100
AcDbEntity
  8
0
 62
     5
100
AcDbPolyline
 90
        4
 70
     1
 43
0.0
 10
104916.8529472545
 20
4674.617479176322
 42
0.0435460463307576
 10
104974.9995400716
 20
4902.068740518753
 10
105111.7617603719
 20
4985.067091910352
 42
-0.0621797482466052
 10
105040.9027208391
 20
4721.685273015707
  0
LWPOLYLINE
  5
50F3
330
1D
100
AcDbEntity
  8
0
 62
     5
100
AcDbPolyline
 90
        4
 70
     1
 43
0.0
 10
104504.9362716015
 20
4947.608375063667
 10
104434.9026283285
 20
5029.263884985688
 10
104477.8947846735
 20
5248.882627512967
 10
104561.2110700198
 20
5155.40918434788
  0
LWPOLYLINE
  5
50F4
330
1D
100
AcDbEntity
  8
0
 62
     5
100
AcDbPolyline
 90
        4
 70
     1
 43
0.0
 10
104079.7589796222
 20
5118.795781227299
 10
104065.6027517569
 20
5342.795985306595
 42
-0.0554007469161068
 10
104170.2568845861
 20
5367.030143951438
 10
104174.1240671631
 20
5133.032349672125
  0
LWPOLYLINE
  5
50F5
330
1D
100
AcDbEntity
  8
0
 62
     5
100
AcDbPolyline
 90
        5
 70
     1
 43
0.0
 10
105466.7151469096
 20
4025.527425213762
 42
0.0538205099947468
 10
105719.4435602676
 20
4492.564085275755
 10
105786.4547187374
 20
4455.398048011297
 10
105786.4547187374
 20
4067.960923661556
 42
-0.0391246102872967
 10
105643.2868031087
 20
3831.68345155955
  0
LWPOLYLINE
  5
50F6
330
1D
100
AcDbEntity
  8
0
 62
     5
100
AcDbPolyline
 90
        4
 70
     1
 43
0.0
 10
102991.1197709673
 20
5198.176213561001
 10
102821.0199623508
 20
5252.900574137275
 42
-0.07258366559328
 10
102851.3117138895
 20
5631.313774061427
 10
103014.4211284099
 20
5533.508507801466
 42
0.0503151586126709
  0
LWPOLYLINE
  5
50F7
330
1D
100
AcDbEntity
  8
0
 62
     5
100
AcDbPolyline
 90
        4
 70
     1
 43
0.0
 10
105252.5789294584
 20
4219.097161542715
 42
0.0598977744471999
 10
105471.7087515872
 20
4599.509796867926
 10
105658.6150590697
 20
4526.482370844759
 42
-0.0674348234048206
 10
105410.1508828834
 20
4080.441786488242
  0
LWPOLYLINE
  5
50F8
330
1D
100
AcDbEntity
  8
0
 62
     5
100
AcDbPolyline
 90
        4
 70
     1
 43
0.0
 10
104576.6011338177
 20
4807.020295552881
 10
104526.9368182007
 20
4920.36283964056
 10
104583.2724611032
 20
5118.156706751278
 10
104641.0906163147
 20
4995.183737277844
  0
LWPOLYLINE
  5
50F9
330
1D
100
AcDbEntity
  8
0
 62
     5
100
AcDbPolyline
 90
        4
 70
     1
 43
0.0
 10
103968.6062442772
 20
5053.899241915271
 10
103929.6800058033
 20
5273.282201771109
 10
104028.5909141468
 20
5333.229866789988
 10
104053.4781910587
 20
5104.280788417542
  0
LWPOLYLINE
  5
50FA
330
1D
100
AcDbEntity
  8
0
 62
     5
100
AcDbPolyline
 90
        4
 70
     1
 43
0.0
 10
105574.9072803012
 20
1535.7281953665
 42
0.0003180564640542
 10
105786.4547187374
 20
1714.235855324005
 10
105786.4547187374
 20
1110.518312421631
 10
105693.1517588307
 20
1027.358030025406
  0
LWPOLYLINE
  5
50FB
330
1D
100
AcDbEntity
  8
0
 62
     5
100
AcDbPolyline
 90
        4
 70
     1
 43
0.0
 10
104712.8193444395
 20
4662.806391192185
 10
104712.8193444395
 20
4808.268102240465
 10
104804.4251926468
 20
4958.81589577004
 10
104804.4251926468
 20
4784.872164145968
  0
LWPOLYLINE
  5
50FC
330
1D
100
AcDbEntity
  8
0
 62
     5
100
AcDbPolyline
 90
        4
 70
     1
 43
0.0
 10
105053.5078194059
 20
4343.558224197457
 42
0.0744416713225445
 10
105243.7556691724
 20
4648.706975842883
 10
105412.1964748766
 20
4619.394654281908
 42
-0.0859489399523538
 10
105198.6376122457
 20
4256.372860681699
  0
LWPOLYLINE
  5
50FD
330
1D
100
AcDbEntity
  8
0
 62
     5
100
AcDbPolyline
 90
        4
 70
     1
 43
0.0
 10
103208.220334311
 20
5108.44621800498
 10
103044.1409987235
 20
5181.650711732108
 42
-0.0419686542157416
 10
103058.7909229802
 20
5500.822327521281
 10
103208.220334311
 20
5383.695140312511
 42
0.0532242747177921
  0
LWPOLYLINE
  5
50FE
330
1D
100
AcDbEntity
  8
0
 62
     5
100
AcDbPolyline
 90
        4
 70
     1
 43
0.0
 10
104771.8544112273
 20
4578.366472342988
 42
0.0150491767821584
 10
104821.1202272202
 20
4759.159002603314
 10
104931.3058220844
 20
4857.56194122992
 42
-0.0617819728061049
 10
104870.9059033896
 20
4649.347937241386
  0
LWPOLYLINE
  5
50FF
330
1D
100
AcDbEntity
  8
0
 62
     5
100
AcDbPolyline
 90
        4
 70
     1
 43
0.0
 10
103714.3762048156
 20
5056.649920381421
 10
103633.5019968034
 20
5248.773282421047
 10
103705.0955709158
 20
5387.897082538657
 10
103778.01493736
 20
5179.873864318264
  0
LWPOLYLINE
  5
5100
330
1D
100
AcDbEntity
  8
0
 62
     5
100
AcDbPolyline
 90
        4
 70
     1
 43
0.0
 10
103544.9430800928
 20
5079.587887238802
 10
103436.1986171581
 20
5230.365485889765
 42
-0.0494174025293211
 10
103487.1419587094
 20
5430.096836742213
 10
103587.0693136791
 20
5250.926054376884
 42
0.0428219238283519
  0
LWPOLYLINE
  5
5101
330
1D
100
AcDbEntity
  8
0
 62
     5
100
AcDbPolyline
 90
        4
 70
     1
 43
0.0
 10
104613.8121883982
 20
4650.144039478205
 10
104588.0526393573
 20
4769.405487520059
 10
104657.3401221344
 20
4943.127870741028
 10
104684.097113479
 20
4809.843241772816
  0
LWPOLYLINE
  5
5102
330
1D
100
AcDbEntity
  8
0
 62
     5
100
AcDbPolyline
 90
        4
 70
     1
 43
0.0
 10
104375.346825589
 20
4787.448543312677
 42
0.1061462430695886
 10
104303.0717450871
 20
4826.79991227567
 10
104320.2481276213
 20
5038.790832644323
 42
-0.1437079830975618
 10
104402.546214791
 20
4988.561231607988
  0
LWPOLYLINE
  5
5103
330
1D
100
AcDbEntity
  8
0
 62
     5
100
AcDbPolyline
 90
        4
 70
     1
 43
0.0
 10
104200.1902689007
 20
4854.589335888076
 10
104204.062355819
 20
5064.096584208517
 42
-0.1511336015804968
 10
104292.5828916801
 20
5049.365821124164
 10
104281.3136130715
 20
4838.989224918986
 42
0.0604931864388114
  0
LWPOLYLINE
  5
5104
330
1D
100
AcDbEntity
  8
0
 62
     5
100
AcDbPolyline
 90
        4
 70
     1
 43
0.0
 10
104891.3818128911
 20
4401.268481211897
 42
0.0435472525371707
 10
105050.5050269809
 20
4649.315391271842
 10
105192.767531718
 20
4649.315391271842
 42
-0.0750640898801527
 10
105008.8800871361
 20
4359.137372421884
  0
LWPOLYLINE
  5
5105
330
1D
100
AcDbEntity
  8
0
 62
     5
100
AcDbPolyline
 90
        4
 70
     1
 43
0.0
 10
103872.5935170075
 20
4947.608375063667
 10
103816.3187185892
 20
5155.409184347877
 10
103899.6350039356
 20
5248.882627512969
 10
103942.6271602805
 20
5029.263884985688
  0
LWPOLYLINE
  5
5106
330
1D
100
AcDbEntity
  8
0
 62
     5
100
AcDbPolyline
 90
        4
 70
     1
 43
0.0
 10
104458.2396955061
 20
4692.352773780004
 42
0.0144876668335305
 10
104393.63721611
 20
4767.675840714606
 10
104430.2120418804
 20
4964.560183642167
 42
-0.0626364631675107
 10
104495.315464708
 20
4887.534134733699
  0
LWPOLYLINE
  5
5107
330
1D
100
AcDbEntity
  8
0
 62
     5
100
AcDbPolyline
 90
        4
 70
     1
 43
0.0
 10
104096.2161755376
 20
4838.989224918989
 10
104084.9468969289
 20
5049.365821124164
 42
-0.1511336015804968
 10
104173.4674327901
 20
5064.096584208517
 10
104177.3395197083
 20
4854.589335888078
 42
0.0604931864388091
  0
LWPOLYLINE
  5
5108
330
1D
100
AcDbEntity
  8
0
 62
     5
100
AcDbPolyline
 90
        4
 70
     1
 43
0.0
 10
103388.1402981578
 20
4980.612136793593
 10
103248.4248762048
 20
5074.675745954869
 42
-0.047747195913094
 10
103254.2699095609
 20
5338.471241614325
 10
103388.1402981578
 20
5206.841347251674
 42
0.0590377073986363
  0
LWPOLYLINE
  5
5109
330
1D
100
AcDbEntity
  8
0
 62
     5
100
AcDbPolyline
 90
        4
 70
     1
 43
0.0
 10
104754.2799888511
 20
4407.726631801526
 42
0.0389740605233585
 10
104876.1870250752
 20
4601.153251258058
 10
105001.0780026625
 20
4637.071192598634
 42
-0.0798339908465676
 10
104850.5656514712
 20
4407.726631801526
  0
LWPOLYLINE
  5
510A
330
1D
100
AcDbEntity
  8
0
 62
     5
100
AcDbPolyline
 90
        4
 70
     1
 43
0.0
 10
104513.7087588186
 20
4578.328251832838
 10
104472.3920699603
 20
4666.980635599984
 10
104516.9752252709
 20
4847.595010076961
 10
104560.2524464532
 20
4750.691940680737
  0
LWPOLYLINE
  5
510B
330
1D
100
AcDbEntity
  8
0
 62
     5
100
AcDbPolyline
 90
        4
 70
     1
 43
0.0
 10
104658.7479746052
 20
4464.518811502431
 10
104698.2197115754
 20
4601.688062937017
 10
104784.3398351089
 20
4707.47873005273
 10
104735.8972697265
 20
4546.103141750051
  0
LWPOLYLINE
  5
510C
330
1D
100
AcDbEntity
  8
0
 62
     5
100
AcDbPolyline
 90
        4
 70
     1
 43
0.0
 10
104616.1089746217
 20
4490.772225120988
 10
104616.1089746217
 20
4608.871866066381
 10
104684.8803849502
 20
4750.28695477787
 10
104679.4802235165
 20
4609.369503995111
  0
LWPOLYLINE
  5
510D
330
1D
100
AcDbEntity
  8
0
 62
     5
100
AcDbPolyline
 90
        4
 70
     1
 43
0.0
 10
104002.18296302
 20
4787.448543312678
 10
103974.983573818
 20
4988.561231607988
 42
-0.1437079830975618
 10
104057.2816609878
 20
5038.790832644323
 10
104074.458043522
 20
4826.79991227567
 42
0.1061462430695871
  0
LWPOLYLINE
  5
510E
330
1D
100
AcDbEntity
  8
0
 62
     5
100
AcDbPolyline
 90
        4
 70
     1
 43
0.0
 10
103659.7648538689
 20
4873.951405588996
 10
103576.4922916009
 20
5022.20021133003
 42
-0.0442325430961858
 10
103612.2890786571
 20
5186.498807836873
 10
103700.3845789048
 20
5010.139966939187
 42
0.0134351401908688
  0
LWPOLYLINE
  5
510F
330
1D
100
AcDbEntity
  8
0
 62
     5
100
AcDbPolyline
 90
        4
 70
     1
 43
0.0
 10
103800.9286547914
 20
4807.020295552881
 10
103736.4391722944
 20
4995.183737277841
 10
103794.2573275059
 20
5118.156706751277
 10
103850.5929704083
 20
4920.362839640559
  0
LWPOLYLINE
  5
5110
330
1D
100
AcDbEntity
  8
0
 62
     5
100
AcDbPolyline
 90
        4
 70
     1
 43
0.0
 10
104544.2217311803
 20
4447.31522961743
 10
104529.0312565574
 20
4544.394512781892
 10
104573.4191358861
 20
4705.576946333454
 10
104589.7931988379
 20
4591.323845075855
  0
LWPOLYLINE
  5
5111
330
1D
100
AcDbEntity
  8
0
 62
     5
100
AcDbPolyline
 90
        4
 70
     1
 43
0.0
 10
104732.5981806468
 20
4508.820528486348
 10
104830.0151478144
 20
4574.008273652826
 42
-0.0751159623625304
 10
104712.7845542685
 20
4397.011157122217
 10
104643.0240871841
 20
4370.605990861918
 42
0.0481591111740425
  0
LWPOLYLINE
  5
5112
330
1D
100
AcDbEntity
  8
0
 62
     5
100
AcDbPolyline
 90
        4
 70
     1
 43
0.0
 10
103538.4936961449
 20
4835.601634362438
 10
103429.24594708
 20
4937.958185197888
 42
-0.0210215425435877
 10
103424.693952062
 20
5156.318832489446
 10
103538.4936961449
 20
5016.431544970346
 42
0.0189409482584717
  0
LWPOLYLINE
  5
5113
330
1D
100
AcDbEntity
  8
0
 62
     5
100
AcDbPolyline
 90
        4
 70
     1
 43
0.0
 10
104355.6117781432
 20
4546.880292123097
 10
104289.5056802549
 20
4588.726902586027
 10
104301.2578832197
 20
4772.998807719892
 10
104370.3020318492
 20
4728.94974552451
  0
LWPOLYLINE
  5
5114
330
1D
100
AcDbEntity
  8
0
 62
     5
100
AcDbPolyline
 90
        4
 70
     1
 43
0.0
 10
104202.0987144929
 20
4610.017283106234
 10
104202.0987144929
 20
4795.023338817582
 10
104276.2844519195
 20
4780.340313494735
 10
104271.1428631224
 20
4597.536709515842
  0
LWPOLYLINE
  5
5115
330
1D
100
AcDbEntity
  8
0
 62
     5
100
AcDbPolyline
 90
        4
 70
     1
 43
0.0
 10
104424.9367003114
 20
4465.122736882267
 10
104368.0270743233
 20
4534.932023497126
 10
104392.8603596924
 20
4705.576946333453
 10
104445.1137515157
 20
4642.490034548479
  0
LWPOLYLINE
  5
5116
330
1D
100
AcDbEntity
  8
0
 62
     5
100
AcDbPolyline
 90
        4
 70
     1
 43
0.0
 10
104581.8231187809
 20
4348.73015476516
 10
104604.4967205386
 20
4432.442479059509
 10
104660.9493889061
 20
4536.042263894492
 10
104623.9312457144
 20
4415.330006606817
  0
LWPOLYLINE
  5
5117
330
1D
100
AcDbEntity
  8
0
 62
     5
100
AcDbPolyline
 90
        4
 70
     1
 43
0.0
 10
103919.2900931029
 20
4692.352773780007
 10
103882.214323901
 20
4887.534134733699
 42
-0.0626364631675107
 10
103947.3177467286
 20
4964.560183642167
 10
103983.892572499
 20
4767.675840714606
 42
0.0144876668335302
  0
LWPOLYLINE
  5
5118
330
1D
100
AcDbEntity
  8
0
 62
     5
100
AcDbPolyline
 90
        4
 70
     1
 43
0.0
 10
105411.3233488668
 20
2160.898380349482
 42
0.0526564735750793
 10
105786.4547187374
 20
2485.72926231379
 10
105786.4547187374
 20
1890.472335496596
 10
105540.6745840168
 20
1687.25285004288
  0
LWPOLYLINE
  5
5119
330
1D
100
AcDbEntity
  8
0
 62
     5
100
AcDbPolyline
 90
        4
 70
     1
 43
0.0
 10
104589.6894632619
 20
4330.6926908742
 10
104638.2757652539
 20
4420.417493950107
 10
104694.2656958844
 20
4468.517406841418
 10
104626.244890611
 20
4369.54260674403
  0
LWPOLYLINE
  5
511A
330
1D
100
AcDbEntity
  8
0
 62
     5
100
AcDbPolyline
 90
        4
 70
     1
 43
0.0
 10
104106.3869254867
 20
4597.536709515841
 10
104101.2453366895
 20
4780.340313494735
 10
104175.4310741161
 20
4795.023338817582
 10
104175.4310741161
 20
4610.017283106236
  0
LWPOLYLINE
  5
511B
330
1D
100
AcDbEntity
  8
0
 62
     5
100
AcDbPolyline
 90
        4
 70
     1
 43
0.0
 10
104545.7304291689
 20
4319.592710976208
 10
104545.7304291689
 20
4403.305035270565
 10
104594.3167311609
 20
4536.967255332741
 10
104588.3012938394
 20
4437.992469008502
  0
LWPOLYLINE
  5
511C
330
1D
100
AcDbEntity
  8
0
 62
     5
100
AcDbPolyline
 90
        4
 70
     1
 43
0.0
 10
104475.1206571609
 20
4364.804200060107
 10
104439.4227889169
 20
4439.267450134486
 10
104465.8081669371
 20
4602.155785569155
 10
104501.5060351811
 20
4523.038585808424
  0
LWPOLYLINE
  5
511D
330
1D
100
AcDbEntity
  8
0
 62
     5
100
AcDbPolyline
 90
        4
 70
     1
 43
0.0
 10
102916.2900760142
 20
4733.134388665699
 42
-0.0515804799200363
 10
102829.2170433474
 20
5132.46946829958
 10
103009.3270066302
 20
5091.939943502994
 42
0.0624117375870593
 10
103085.6649835786
 20
4752.207111888331
  0
LWPOLYLINE
  5
511E
330
1D
100
AcDbEntity
  8
0
 62
     5
100
AcDbPolyline
 90
        5
 70
     1
 43
0.0
 10
102673.0174516019
 20
4668.604201551681
 42
-0.0483323899144564
 10
102591.0750698716
 20
5018.820526565487
 10
102591.0750698716
 20
5145.80736580882
 10
102771.9946123416
 20
5145.807365808819
 42
0.0658303907743819
 10
102860.2715294281
 20
4722.072340041558
  0
LWPOLYLINE
  5
511F
330
1D
100
AcDbEntity
  8
0
 62
     5
100
AcDbPolyline
 90
        4
 70
     1
 43
0.0
 10
103288.7078218761
 20
4732.298550871479
 10
103137.882950294
 20
4747.46654281879
 42
-0.0666020848013468
 10
103060.0990465466
 20
5076.422113372691
 10
103218.5125980732
 20
5014.802194292789
 42
0.0778958656004346
  0
LWPOLYLINE
  5
5120
330
1D
100
AcDbEntity
  8
0
 62
     5
100
AcDbPolyline
 90
        4
 70
     1
 43
0.0
 10
103763.7176002109
 20
4650.144039478202
 10
103693.4326751301
 20
4809.843241772814
 10
103720.1896664747
 20
4943.127870741028
 10
103789.4771492518
 20
4769.405487520059
  0
LWPOLYLINE
  5
5121
330
1D
100
AcDbEntity
  8
0
 62
     5
100
AcDbPolyline
 90
        4
 70
     1
 43
0.0
 10
103664.7104441696
 20
4662.806391192185
 10
103573.1045959623
 20
4784.872164145967
 10
103573.1045959623
 20
4958.815895770041
 10
103664.7104441696
 20
4808.268102240465
  0
LWPOLYLINE
  5
5122
330
1D
100
AcDbEntity
  8
0
 62
     5
100
AcDbPolyline
 90
        4
 70
     1
 43
0.0
 10
104021.9180104659
 20
4546.8802921231
 10
104007.2277567599
 20
4728.949745524508
 10
104076.2719053893
 20
4772.998807719892
 10
104088.0241083542
 20
4588.726902586027
  0
LWPOLYLINE
  5
5123
330
1D
100
AcDbEntity
  8
0
 62
     5
100
AcDbPolyline
 90
        4
 70
     1
 43
0.0
 10
103460.6768413546
 20
4674.617479176323
 10
103336.6270677699
 20
4721.685273015707
 42
-0.0621797482466054
 10
103265.7680282372
 20
4985.067091910352
 10
103402.5302485374
 20
4902.068740518753
 42
0.0435460463307575
  0
LWPOLYLINE
  5
5124
330
1D
100
AcDbEntity
  8
0
 62
     5
100
AcDbPolyline
 90
        4
 70
     1
 43
0.0
 10
104502.7946508544
 20
4255.49871973839
 10
104486.7841659893
 20
4325.586072616101
 10
104513.6850472042
 20
4472.771631970814
 10
104530.0514690171
 20
4383.384932348305
  0
LWPOLYLINE
  5
5125
330
1D
100
AcDbEntity
  8
0
 62
     5
100
AcDbPolyline
 90
        4
 70
     1
 43
0.0
 10
103863.8210297905
 20
4578.32825183284
 10
103817.2773421559
 20
4750.691940680736
 10
103860.5545633381
 20
4847.595010076962
 10
103905.1377186487
 20
4666.980635599983
  0
LWPOLYLINE
  5
5126
330
1D
100
AcDbEntity
  8
0
 62
     5
100
AcDbPolyline
 90
        4
 70
     1
 43
0.0
 10
104288.1084465588
 20
4375.966365761102
 10
104288.1084465588
 20
4535.584719625234
 42
-0.1715833140956737
 10
104350.0317324772
 20
4497.146015125149
 10
104343.5134907019
 20
4343.391197124814
  0
LWPOLYLINE
  5
5127
330
1D
100
AcDbEntity
  8
0
 62
     5
100
AcDbPolyline
 90
        4
 70
     1
 43
0.0
 10
104518.3023969487
 20
4211.574910631042
 42
0.0785037985906271
 10
104695.4938173836
 20
4350.4702967161
 10
104785.546784742
 20
4343.337536905879
 42
-0.0921569861478172
 10
104567.5717817257
 20
4181.417027427142
  0
LWPOLYLINE
  5
5128
330
1D
100
AcDbEntity
  8
0
 62
     5
100
AcDbPolyline
 90
        4
 70
     1
 43
0.0
 10
104663.0940748666
 20
4079.439321042926
 10
104594.0907154684
 20
4157.96884774886
 42
0.0712751996370064
 10
104827.8462028801
 20
4334.922826752339
 10
104936.827825747
 20
4282.215724042039
 42
-0.0729108379058231
  0
LWPOLYLINE
  5
5129
330
1D
100
AcDbEntity
  8
0
 62
     5
100
AcDbPolyline
 90
        4
 70
     1
 43
0.0
 10
104198.156718817
 20
4407.23853867047
 10
104198.156718817
 20
4560.993356670801
 10
104268.5537212328
 20
4544.705772352657
 10
104268.5537212328
 20
4392.253963852405
  0
LWPOLYLINE
  5
512A
330
1D
100
AcDbEntity
  8
0
 62
     5
100
AcDbPolyline
 90
        4
 70
     1
 43
0.0
 10
104409.0285059931
 20
4264.544708761194
 10
104360.1585841929
 20
4323.433672535497
 10
104369.2223980402
 20
4477.155958339449
 10
104419.1184437829
 20
4413.913093099908
  0
LWPOLYLINE
  5
512B
330
1D
100
AcDbEntity
  8
0
 62
     5
100
AcDbPolyline
 90
        4
 70
     1
 43
0.0
 10
104468.1159222454
 20
4220.624797457224
 42
0.0497028070418281
 10
104582.0785167323
 20
4310.85029610267
 10
104655.3673727459
 20
4339.732922717462
 42
-0.0567859856778608
 10
104493.2620126322
 20
4220.624797457224
  0
LWPOLYLINE
  5
512C
330
1D
100
AcDbEntity
  8
0
 62
     5
100
AcDbPolyline
 90
        4
 70
     1
 43
0.0
 10
103605.6753773817
 20
4578.36647234299
 10
103506.6238852195
 20
4649.347937241386
 42
-0.0617819728061052
 10
103446.2239665246
 20
4857.561941229921
 10
103556.4095613888
 20
4759.159002603314
 42
0.0150491767821584
  0
LWPOLYLINE
  5
512D
330
1D
100
AcDbEntity
  8
0
 62
     5
100
AcDbPolyline
 90
        4
 70
     1
 43
0.0
 10
104778.2561530027
 20
3896.014657877124
 10
104693.6487341293
 20
4035.855075343594
 42
0.0517033753659942
 10
104979.8114213891
 20
4258.53860695125
 10
105113.238580142
 20
4161.35030925063
 42
-0.0806660044067115
  0
LWPOLYLINE
  5
512E
330
1D
100
AcDbEntity
  8
0
 62
     5
100
AcDbPolyline
 90
        5
 70
     1
 43
0.0
 10
104440.0860134985
 20
4208.394785135535
 10
104420.4467101797
 20
4238.067508890775
 10
104435.9754748795
 20
4383.235631328475
 10
104468.4031765208
 20
4310.195065713716
 10
104461.300726984
 20
4219.720080105796
  0
LWPOLYLINE
  5
512F
330
1D
100
AcDbEntity
  8
0
 62
     5
100
AcDbPolyline
 90
        4
 70
     1
 43
0.0
 10
105249.3885678734
 20
2713.478836459584
 42
0.0635521796025961
 10
105786.4547187374
 20
3207.157533532706
 10
105786.4547187374
 20
2650.707192234011
 42
-0.0816326836804104
 10
105377.7643207836
 20
2295.308951113816
  0
LWPOLYLINE
  5
5130
330
1D
100
AcDbEntity
  8
0
 62
     5
100
AcDbPolyline
 90
        4
 70
     1
 43
0.0
 10
103952.5930882977
 20
4465.122736882268
 10
103932.4160370934
 20
4642.490034548479
 10
103984.6694289167
 20
4705.576946333453
 10
104009.5027142857
 20
4534.932023497128
  0
LWPOLYLINE
  5
5131
330
1D
100
AcDbEntity
  8
0
 62
     5
100
AcDbPolyline
 90
        4
 70
     1
 43
0.0
 10
104108.9760673763
 20
4392.253963852404
 10
104108.9760673763
 20
4544.705772352657
 10
104179.3730697921
 20
4560.993356670801
 10
104179.3730697921
 20
4407.238538670466
  0
LWPOLYLINE
  5
5132
330
1D
100
AcDbEntity
  8
0
 62
     5
100
AcDbPolyline
 90
        4
 70
     1
 43
0.0
 10
103761.4208139874
 20
4490.772225120987
 10
103698.0495650926
 20
4609.36950399511
 10
103692.6494036588
 20
4750.286954777872
 10
103761.4208139874
 20
4608.87186606638
  0
LWPOLYLINE
  5
5133
330
1D
100
AcDbEntity
  8
0
 62
     5
100
AcDbPolyline
 90
        4
 70
     1
 43
0.0
 10
104907.0485340841
 20
3637.443871522263
 10
104807.7950443651
 20
3841.752428031318
 42
0.0550351153837344
 10
105158.960343587
 20
4113.985000819935
 10
105311.5517286274
 20
3961.393615779602
 42
-0.0942643942790519
  0
LWPOLYLINE
  5
5134
330
1D
100
AcDbEntity
  8
0
 62
     5
100
AcDbPolyline
 90
        4
 70
     1
 43
0.0
 10
103833.3080574287
 20
4447.315229617426
 10
103787.7365897712
 20
4591.323845075858
 10
103804.1106527229
 20
4705.576946333457
 10
103848.4985320517
 20
4544.394512781892
  0
LWPOLYLINE
  5
5135
330
1D
100
AcDbEntity
  8
0
 62
     5
100
AcDbPolyline
 90
        4
 70
     1
 43
0.0
 10
104363.2353796249
 20
4174.777635867039
 10
104363.2353796249
 20
4275.810930661896
 10
104407.9396984386
 20
4217.752364284871
 10
104407.370203701
 20
4191.569083580792
  0
LWPOLYLINE
  5
5136
330
1D
100
AcDbEntity
  8
0
 62
     5
100
AcDbPolyline
 90
        4
 70
     1
 43
0.0
 10
105090.4370714119
 20
3181.377806323186
 42
0.0704551697211834
 10
105585.5050363579
 20
3607.640068633653
 10
105761.9120249194
 20
3335.039738153991
 42
-0.0966478259078742
 10
105210.850275932
 20
2833.974235393274
  0
LWPOLYLINE
  5
5137
330
1D
100
AcDbEntity
  8
0
 62
     5
100
AcDbPolyline
 90
        4
 70
     1
 43
0.0
 10
104941.0997478465
 20
3558.845768268569
 42
0.0754413100523272
 10
105363.6410877502
 20
3902.553546711976
 10
105529.774816872
 20
3689.640251804862
 42
-0.0932726199986398
 10
105054.3589853519
 20
3282.018249366327
  0
LWPOLYLINE
  5
5138
330
1D
100
AcDbEntity
  8
0
 62
     5
100
AcDbPolyline
 90
        4
 70
     1
 43
0.0
 10
103718.7818140039
 20
4464.518811502429
 10
103641.6325188826
 20
4546.103141750053
 10
103593.1899535001
 20
4707.478730052729
 10
103679.3100770337
 20
4601.688062937021
  0
LWPOLYLINE
  5
5139
330
1D
100
AcDbEntity
  8
0
 62
     5
100
AcDbPolyline
 90
        4
 70
     1
 43
0.0
 10
104342.875220603
 20
4170.405144022804
 42
0.0439699857407266
 10
104286.0577531749
 20
4212.114129720183
 10
104286.0577531749
 20
4336.503392908473
 42
-0.0974961088451093
 10
104343.2474301871
 20
4298.755205625097
  0
LWPOLYLINE
  5
513A
330
1D
100
AcDbEntity
  8
0
 62
     5
100
AcDbPolyline
 90
        4
 70
     1
 43
0.0
 10
104034.0162979071
 20
4343.391197124812
 10
104027.4980561318
 20
4497.146015125149
 42
-0.1715833140956737
 10
104089.4213420503
 20
4535.584719625234
 10
104089.4213420503
 20
4375.966365761104
  0
LWPOLYLINE
  5
513B
330
1D
100
AcDbEntity
  8
0
 62
     5
100
AcDbPolyline
 90
        4
 70
     1
 43
0.0
 10
104200.4165473258
 20
4232.915191298376
 10
104200.4165473257
 20
4357.835285723306
 42
-0.1732860656071123
 10
104265.8764325663
 20
4346.620520336451
 10
104267.8035166532
 20
4219.832489000763
 42
0.1677245860342696
  0
LWPOLYLINE
  5
513C
330
1D
100
AcDbEntity
  8
0
 62
     5
100
AcDbPolyline
 90
        4
 70
     1
 43
0.0
 10
103902.4091314481
 20
4364.804200060105
 10
103876.0237534279
 20
4523.03858580842
 10
103911.7216216719
 20
4602.155785569158
 10
103938.1069996922
 20
4439.267450134483
  0
LWPOLYLINE
  5
513D
330
1D
100
AcDbEntity
  8
0
 62
     5
100
AcDbPolyline
 90
        3
 70
     1
 43
0.0
 10
104287.3259194965
 20
4156.420676057548
 10
104287.3259194965
 20
4174.823431613435
 10
104310.8363682752
 20
4160.667463682265
  0
LWPOLYLINE
  5
513E
330
1D
100
AcDbEntity
  8
0
 62
     5
100
AcDbPolyline
 90
        4
 70
     1
 43
0.0
 10
104338.8810119403
 20
1065.336476944346
 42
0.1083203484230212
 10
105319.2654035915
 20
1369.714152178876
 10
105383.0753939821
 20
1006.814646661254
 10
104338.8810119403
 20
1006.814646661254
  0
LWPOLYLINE
  5
513F
330
1D
100
AcDbEntity
  8
0
 62
     5
100
AcDbPolyline
 90
        4
 70
     1
 43
0.0
 10
104109.7262719559
 20
4219.832489000762
 10
104111.6533560428
 20
4346.620520336451
 42
-0.1732860656071123
 10
104177.1132412833
 20
4357.835285723306
 10
104177.1132412833
 20
4232.915191298375
 42
0.1677245860342718
  0
LWPOLYLINE
  5
5140
330
1D
100
AcDbEntity
  8
0
 62
     5
100
AcDbPolyline
 90
        4
 70
     1
 43
0.0
 10
103734.505701425
 20
4370.605990861917
 10
103664.7452343406
 20
4397.011157122217
 42
-0.0751159623625304
 10
103547.5146407947
 20
4574.008273652826
 10
103644.9316079623
 20
4508.820528486348
 42
0.0481591111740428
  0
LWPOLYLINE
  5
5141
330
1D
100
AcDbEntity
  8
0
 62
     5
100
AcDbPolyline
 90
        4
 70
     1
 43
0.0
 10
103795.7066698282
 20
4348.730154765157
 10
103753.5985428947
 20
4415.330006606816
 10
103716.5803997029
 20
4536.042263894485
 10
103773.0330680704
 20
4432.442479059515
  0
LWPOLYLINE
  5
5142
330
1D
100
AcDbEntity
  8
0
 62
     5
100
AcDbPolyline
 90
        4
 70
     1
 43
0.0
 10
103526.9641371379
 20
4407.726631801526
 42
-0.0798339908465678
 10
103376.4517859465
 20
4637.071192598634
 10
103501.3427635338
 20
4601.153251258058
 42
0.0389740605233585
 10
103623.249799758
 20
4407.726631801526
  0
LWPOLYLINE
  5
5143
330
1D
100
AcDbEntity
  8
0
 62
     5
100
AcDbPolyline
 90
        4
 70
     1
 43
0.0
 10
104201.517987938
 20
4144.121081747646
 10
104201.517987938
 20
4202.415596073998
 42
-0.0988341018004093
 10
104266.639604996
 20
4185.606752863193
 10
104267.7130426953
 20
4151.631418878678
  0
LWPOLYLINE
  5
5144
330
1D
100
AcDbEntity
  8
0
 62
     5
100
AcDbPolyline
 90
        4
 70
     1
 43
0.0
 10
103831.7993594402
 20
4319.592710976208
 10
103789.2284947697
 20
4437.992469008508
 10
103783.2130574482
 20
4536.967255332743
 10
103831.7993594402
 20
4403.305035270562
  0
LWPOLYLINE
  5
5145
330
1D
100
AcDbEntity
  8
0
 62
     5
100
AcDbPolyline
 90
        4
 70
     1
 43
0.0
 10
103968.5012826159
 20
4264.544708761192
 10
103958.4113448262
 20
4413.913093099905
 10
104008.3073905689
 20
4477.155958339446
 10
104017.3712044161
 20
4323.433672535497
  0
LWPOLYLINE
  5
5146
330
1D
100
AcDbEntity
  8
0
 62
     5
100
AcDbPolyline
 90
        4
 70
     1
 43
0.0
 10
103787.8403253472
 20
4330.692690874203
 10
103751.2848979981
 20
4369.542606744033
 10
103683.2640927247
 20
4468.517406841424
 10
103739.2540233551
 20
4420.417493950104
  0
LWPOLYLINE
  5
5147
330
1D
100
AcDbEntity
  8
0
 62
     5
100
AcDbPolyline
 90
        4
 70
     1
 43
0.0
 10
104231.3626343275
 20
4089.204489221764
 10
104225.4400948635
 20
4131.928711463518
 42
0.0676797538643272
 10
104443.3572091371
 20
4186.469365674252
 10
104492.975809287
 20
4145.285877619133
 42
-0.0935106739165281
  0
LWPOLYLINE
  5
5148
330
1D
100
AcDbEntity
  8
0
 62
     5
100
AcDbPolyline
 90
        4
 70
     1
 43
0.0
 10
104109.8167459138
 20
4151.631418878677
 10
104110.8901836131
 20
4185.606752863193
 42
-0.0988341018004093
 10
104176.0118006711
 20
4202.415596073998
 10
104176.0118006711
 20
4144.121081747647
  0
LWPOLYLINE
  5
5149
330
1D
100
AcDbEntity
  8
0
 62
     5
100
AcDbPolyline
 90
        4
 70
     1
 43
0.0
 10
103874.7351377547
 20
4255.498719738388
 10
103847.478319592
 20
4383.384932348306
 10
103863.8447414049
 20
4472.771631970808
 10
103890.7456226197
 20
4325.586072616101
  0
LWPOLYLINE
  5
514A
330
1D
100
AcDbEntity
  8
0
 62
     5
100
AcDbPolyline
 90
        3
 70
     1
 43
0.0
 10
104066.6934203338
 20
4160.667463682265
 10
104090.2038691125
 20
4174.823431613434
 10
104090.2038691125
 20
4156.420676057546
  0
LWPOLYLINE
  5
514B
330
1D
100
AcDbEntity
  8
0
 62
     5
100
AcDbPolyline
 90
        4
 70
     1
 43
0.0
 10
103368.649701473
 20
4359.137372421884
 42
-0.0750640898801527
 10
103184.7622568911
 20
4649.315391271842
 10
103327.0247616282
 20
4649.315391271842
 42
0.0435472525371707
 10
103486.1479757179
 20
4401.268481211897
  0
LWPOLYLINE
  5
514C
330
1D
100
AcDbEntity
  8
0
 62
     5
100
AcDbPolyline
 90
        4
 70
     1
 43
0.0
 10
104034.6545680061
 20
4170.405144022804
 10
104034.282358422
 20
4298.755205625097
 42
-0.0974961088451093
 10
104091.4720354342
 20
4336.503392908473
 10
104091.4720354342
 20
4212.114129720183
 42
0.0439699857407263
  0
LWPOLYLINE
  5
514D
330
1D
100
AcDbEntity
  8
0
 62
     5
100
AcDbPolyline
 90
        5
 70
     1
 43
0.0
 10
103937.4437751106
 20
4208.394785135534
 10
103916.2290616251
 20
4219.720080105794
 10
103909.1266120883
 20
4310.195065713712
 10
103941.5543137295
 20
4383.235631328476
 10
103957.0830784294
 20
4238.067508890775
  0
LWPOLYLINE
  5
514E
330
1D
100
AcDbEntity
  8
0
 62
     5
100
AcDbPolyline
 90
        4
 70
     1
 43
0.0
 10
103970.1595849081
 20
4191.569083580794
 10
103969.5900901704
 20
4217.752364284867
 10
104014.2944089841
 20
4275.810930661894
 10
104014.2944089841
 20
4174.77763586704
  0
LWPOLYLINE
  5
514F
330
1D
100
AcDbEntity
  8
0
 62
     5
100
AcDbPolyline
 90
        4
 70
     1
 43
0.0
 10
103884.2677759769
 20
4220.624797457224
 42
-0.0567859856778608
 10
103722.1624158632
 20
4339.732922717462
 10
103795.4512718768
 20
4310.85029610267
 42
0.0497028070418285
 10
103909.4138663637
 20
4220.624797457224
  0
LWPOLYLINE
  5
5150
330
1D
100
AcDbEntity
  8
0
 62
     5
100
AcDbPolyline
 90
        4
 70
     1
 43
0.0
 10
104243.1582319549
 20
3959.621396146447
 10
104237.8941659919
 20
4063.389323679767
 42
0.0629574891117821
 10
104511.7047661488
 20
4124.06440420245
 10
104568.5898266416
 20
4034.040682304283
 42
-0.0848704576951423
  0
LWPOLYLINE
  5
5151
330
1D
100
AcDbEntity
  8
0
 62
     5
100
AcDbPolyline
 90
        4
 70
     1
 43
0.0
 10
103809.9580068834
 20
4181.417027427142
 42
-0.0921569861478172
 10
103591.983003867
 20
4343.337536905879
 10
103682.0359712254
 20
4350.4702967161
 42
0.0785037985906271
 10
103859.2273916604
 20
4211.574910631042
  0
LWPOLYLINE
  5
5152
330
1D
100
AcDbEntity
  8
0
 62
     5
100
AcDbPolyline
 90
        4
 70
     1
 43
0.0
 10
103884.553979322
 20
4145.285877619131
 10
103934.1725794719
 20
4186.469365674252
 42
0.0676797538643272
 10
104152.0896937456
 20
4131.928711463518
 10
104146.1671542816
 20
4089.204489221764
 42
-0.0935106739165278
  0
LWPOLYLINE
  5
5153
330
1D
100
AcDbEntity
  8
0
 62
     5
100
AcDbPolyline
 90
        4
 70
     1
 43
0.0
 10
103178.8921763634
 20
4256.372860681699
 42
-0.0859489399523538
 10
102965.3333137324
 20
4619.394654281908
 10
103133.7741194367
 20
4648.706975842883
 42
0.0744416713225445
 10
103324.0219692031
 20
4343.558224197457
  0
LWPOLYLINE
  5
5154
330
1D
100
AcDbEntity
  8
0
 62
     5
100
AcDbPolyline
 90
        4
 70
     1
 43
0.0
 10
103714.4357137425
 20
4079.439321042926
 42
-0.0729108379058235
 10
103440.701962862
 20
4282.215724042039
 10
103549.683585729
 20
4334.922826752339
 42
0.0712751996370064
 10
103783.4390731406
 20
4157.96884774886
  0
LWPOLYLINE
  5
5155
330
1D
100
AcDbEntity
  8
0
 62
     5
100
AcDbPolyline
 90
        4
 70
     1
 43
0.0
 10
103808.9399619674
 20
4034.040682304282
 10
103865.8250224603
 20
4124.06440420245
 42
0.0629574891117821
 10
104139.6356226171
 20
4063.389323679767
 10
104134.3715566541
 20
3959.621396146447
 42
-0.0848704576951423
  0
LWPOLYLINE
  5
5156
330
1D
100
AcDbEntity
  8
0
 62
     5
100
AcDbPolyline
 90
        4
 70
     1
 43
0.0
 10
104254.1140049257
 20
3745.84659028082
 10
104247.5123893485
 20
3912.691375194641
 42
0.0813505582438195
 10
104594.0632380206
 20
3994.000875871261
 10
104662.6091362274
 20
3843.698960737071
 42
-0.072948763750441
  0
LWPOLYLINE
  5
5157
330
1D
100
AcDbEntity
  8
0
 62
     5
100
AcDbPolyline
 90
        4
 70
     1
 43
0.0
 10
102967.3789057256
 20
4080.441786488242
 42
-0.0674348234048206
 10
102718.9147295394
 20
4526.482370844759
 10
102905.8210370218
 20
4599.509796867926
 42
0.0598977744471999
 10
103124.9508591507
 20
4219.097161542714
  0
LWPOLYLINE
  5
5158
330
1D
100
AcDbEntity
  8
0
 62
     5
100
AcDbPolyline
 90
        4
 70
     1
 43
0.0
 10
103599.2736356063
 20
3896.014657877123
 42
-0.0806660044067115
 10
103264.291208467
 20
4161.35030925063
 10
103397.71836722
 20
4258.53860695125
 42
0.0517033753659942
 10
103683.8810544798
 20
4035.855075343594
  0
LWPOLYLINE
  5
5159
330
1D
100
AcDbEntity
  8
0
 62
     5
100
AcDbPolyline
 90
        4
 70
     1
 43
0.0
 10
104320.8021430317
 20
1771.152764732998
 42
0.0984351679371009
 10
105183.1145181905
 20
2018.828254073227
 10
105284.5181893595
 20
1523.832774343213
 42
-0.1146602987028071
 10
104337.5983953274
 20
1235.029633325575
  0
LWPOLYLINE
  5
515A
330
1D
100
AcDbEntity
  8
0
 62
     5
100
AcDbPolyline
 90
        4
 70
     1
 43
0.0
 10
103714.9206523817
 20
3843.698960737071
 10
103783.4665505885
 20
3994.000875871261
 42
0.0813505582438195
 10
104130.0173992606
 20
3912.691375194641
 10
104123.4157836834
 20
3745.84659028082
 42
-0.0729487637504406
  0
LWPOLYLINE
  5
515B
330
1D
100
AcDbEntity
  8
0
 62
     5
100
AcDbPolyline
 90
        4
 70
     1
 43
0.0
 10
104269.0635756773
 20
3445.275512579335
 10
104258.8169398045
 20
3683.599510505541
 42
0.0766431726491787
 10
104685.5968785602
 20
3785.477361502875
 10
104770.8713535318
 20
3565.965650177171
 42
-0.0876059825445182
  0
LWPOLYLINE
  5
515C
330
1D
100
AcDbEntity
  8
0
 62
     5
100
AcDbPolyline
 90
        5
 70
     1
 43
0.0
 10
102734.2429855004
 20
3831.68345155955
 42
-0.0391246102872966
 10
102591.0750698716
 20
4067.960923661555
 10
102591.0750698716
 20
4455.398048011299
 10
102658.0862283414
 20
4492.564085275755
 42
0.0538205099947469
 10
102910.8146416995
 20
4025.527425213762
  0
LWPOLYLINE
  5
515D
330
1D
100
AcDbEntity
  8
0
 62
     5
100
AcDbPolyline
 90
        3
 70
     1
 43
0.0
 10
102591.0750698716
 20
3652.409315425513
 10
102591.0750698716
 20
3906.460881113938
 42
0.0236590775775548
 10
102677.3276231845
 20
3759.056631575381
  0
LWPOLYLINE
  5
515E
330
1D
100
AcDbEntity
  8
0
 62
     5
100
AcDbPolyline
 90
        4
 70
     1
 43
0.0
 10
103058.2643850176
 20
1369.714152178876
 42
0.1083203484230212
 10
104038.6487766687
 20
1065.336476944345
 10
104038.6487766687
 20
1006.814646661254
 10
102994.454394627
 20
1006.814646661254
  0
LWPOLYLINE
  5
515F
330
1D
100
AcDbEntity
  8
0
 62
     5
100
AcDbPolyline
 90
        4
 70
     1
 43
0.0
 10
104284.0857700898
 20
3041.043084031934
 10
104274.9839257032
 20
3358.554001438648
 42
0.0820984082831862
 10
104795.8454635578
 20
3484.638092891972
 10
104890.2333869378
 20
3194.038780721486
 42
-0.0949989191248141
  0
LWPOLYLINE
  5
5160
330
1D
100
AcDbEntity
  8
0
 62
     5
100
AcDbPolyline
 90
        4
 70
     1
 43
0.0
 10
104308.6419601761
 20
2404.074110493847
 42
0.0993727865438593
 10
105048.4096690602
 20
2599.098319728332
 10
105151.2340884904
 20
2163.48210060877
 42
-0.1099418011309299
 10
104318.3448928917
 20
1924.559011680768
  0
LWPOLYLINE
  5
5161
330
1D
100
AcDbEntity
  8
0
 62
     5
100
AcDbPolyline
 90
        4
 70
     1
 43
0.0
 10
103470.481254525
 20
3637.443871522263
 42
-0.0942643942790519
 10
103065.9780599817
 20
3961.393615779602
 10
103218.569445022
 20
4113.985000819935
 42
0.0550351153837345
 10
103569.734744244
 20
3841.752428031318
  0
LWPOLYLINE
  5
5162
330
1D
100
AcDbEntity
  8
0
 62
     5
100
AcDbPolyline
 90
        4
 70
     1
 43
0.0
 10
102591.0750698716
 20
1714.235855324017
 42
0.0003180564640542
 10
102802.6225083079
 20
1535.7281953665
 10
102684.3780297783
 20
1027.358030025406
 10
102591.0750698716
 20
1110.518312421631
  0
LWPOLYLINE
  5
5163
330
1D
100
AcDbEntity
  8
0
 62
     5
100
AcDbPolyline
 90
        4
 70
     1
 43
0.0
 10
104288.5812776054
 20
2931.449056075028
 42
0.0878668587560876
 10
104917.7195925276
 20
3089.696719146509
 10
105013.6883339863
 20
2723.145898442458
 42
-0.098182788358196
 10
104302.1274623398
 20
2530.402620387936
  0
LWPOLYLINE
  5
5164
330
1D
100
AcDbEntity
  8
0
 62
     5
100
AcDbPolyline
 90
        4
 70
     1
 43
0.0
 10
103606.6584350773
 20
3565.965650177171
 10
103691.9329100489
 20
3785.477361502875
 42
0.0766431726491787
 10
104118.7128488046
 20
3683.599510505541
 10
104108.4662129318
 20
3445.275512579335
 42
-0.0876059825445182
  0
LWPOLYLINE
  5
5165
330
1D
100
AcDbEntity
  8
0
 62
     5
100
AcDbPolyline
 90
        4
 70
     1
 43
0.0
 10
103323.1708032572
 20
3282.018249366327
 42
-0.0932726199986398
 10
102847.7549717371
 20
3689.640251804862
 10
103013.8887008589
 20
3902.553546711976
 42
0.0754413100523272
 10
103436.4300407626
 20
3558.845768268569
  0
LWPOLYLINE
  5
5166
330
1D
100
AcDbEntity
  8
0
 62
     5
100
AcDbPolyline
 90
        4
 70
     1
 43
0.0
 10
103487.2964016713
 20
3194.038780721486
 10
103581.6843250513
 20
3484.638092891972
 42
0.0820984082831861
 10
104102.5458629059
 20
3358.554001438649
 10
104093.4440185193
 20
3041.043084031934
 42
-0.0949989191248142
  0
LWPOLYLINE
  5
5167
330
1D
100
AcDbEntity
  8
0
 62
     5
100
AcDbPolyline
 90
        4
 70
     1
 43
0.0
 10
103194.4152704186
 20
2018.828254073227
 42
0.0984351679371009
 10
104056.7276455774
 20
1771.152764732999
 10
104039.9313932817
 20
1235.029633325575
 42
-0.1146602987028071
 10
103093.0115992495
 20
1523.832774343213
  0
LWPOLYLINE
  5
5168
330
1D
100
AcDbEntity
  8
0
 62
     5
100
AcDbPolyline
 90
        4
 70
     1
 43
0.0
 10
102966.2064397423
 20
2160.898380349482
 10
102836.8552045923
 20
1687.25285004288
 10
102591.0750698716
 20
1890.472335496596
 10
102591.0750698716
 20
2485.729262313791
 42
0.0526564735750793
  0
LWPOLYLINE
  5
5169
330
1D
100
AcDbEntity
  8
0
 62
     5
100
AcDbPolyline
 90
        4
 70
     1
 43
0.0
 10
103166.6795126771
 20
2833.974235393274
 42
-0.0966478259078742
 10
102615.6177636896
 20
3335.039738153991
 10
102792.0247522511
 20
3607.640068633653
 42
0.0704551697211835
 10
103287.0927171972
 20
3181.377806323186
  0
LWPOLYLINE
  5
516A
330
1D
100
AcDbEntity
  8
0
 62
     5
100
AcDbPolyline
 90
        4
 70
     1
 43
0.0
 10
103363.8414546227
 20
2723.145898442455
 10
103459.8101960815
 20
3089.696719146509
 42
0.0878668587560876
 10
104088.9485110036
 20
2931.449056075028
 10
104075.4023262692
 20
2530.402620387936
 42
-0.0981827883581962
  0
LWPOLYLINE
  5
516B
330
1D
100
AcDbEntity
  8
0
 62
     5
100
AcDbPolyline
 90
        4
 70
     1
 43
0.0
 10
102999.7654678254
 20
2295.308951113816
 42
-0.0816326836804104
 10
102591.0750698716
 20
2650.707192234011
 10
102591.0750698716
 20
3207.157533532707
 42
0.0635521796025962
 10
103128.1412207356
 20
2713.478836459584
  0
LWPOLYLINE
  5
516C
330
1D
100
AcDbEntity
  8
0
 62
     5
100
AcDbPolyline
 90
        4
 70
     1
 43
0.0
 10
103329.1201195488
 20
2599.098319728332
 42
0.0993727865438593
 10
104068.8878284329
 20
2404.074110493847
 10
104059.1848957173
 20
1924.559011680768
 42
-0.1099418011309299
 10
103226.2957001187
 20
2163.48210060877
  0
LWPOLYLINE
  5
516D
330
1D
100
AcDbEntity
  8
0
 62
     5
100
AcDbPolyline
 90
        4
 70
     1
 43
0.0
 10
105851.909264192
 20
6941.093473618913
 10
102525.6205244171
 20
6941.093473618915
 10
102525.6205244171
 20
941.3601012067083
 10
105851.909264192
 20
941.3601012067083
  0
ENDSEC
  0
SECTION
  2
OBJECTS
  0
DICTIONARY
  5
C
330
0
100
AcDbDictionary
281
     1
  3
ACAD_COLOR
350
131A
  3
ACAD_DETAILVIEWSTYLE
350
1314
  3
ACAD_GROUP
350
D
  3
ACAD_LAYOUT
350
1A
  3
ACAD_MATERIAL
350
12C7
  3
ACAD_MLEADERSTYLE
350
12CD
  3
ACAD_MLINESTYLE
350
17
  3
ACAD_PLOTSETTINGS
350
19
  3
ACAD_PLOTSTYLENAME
350
E
  3
ACAD_SCALELIST
350
1288
  3
ACAD_SECTIONVIEWSTYLE
350
1315
  3
ACAD_TABLESTYLE
350
12CB
  3
ACAD_VISUALSTYLE
350
12AE
  3
ACDB_RECOMPOSE_DATA
350
1310
  3
AcDbVariableDictionary
350
12D1
  0
DICTIONARY
  5
4580
330
2
100
AcDbDictionary
280
     1
281
     1
  3
ACAD_LAYERSTATES
360
4581
  0
DICTIONARY
  5
1382
330
1D
100
AcDbDictionary
280
     1
281
     1
  3
ACAD_SORTENTS
360
1383
  0
DICTIONARY
  5
131A
102
{ACAD_REACTORS
330
C
102
}
330
C
100
AcDbDictionary
281
     1
  0
DICTIONARY
  5
1314
102
{ACAD_REACTORS
330
C
102
}
330
C
100
AcDbDictionary
281
     1
  0
DICTIONARY
  5
D
102
{ACAD_REACTORS
330
C
102
}
330
C
100
AcDbDictionary
281
     1
  0
DICTIONARY
  5
1A
102
{ACAD_REACTORS
330
C
102
}
330
C
100
AcDbDictionary
281
     1
  3
Layout1
350
1C
  3
Model
350
1E
  0
DICTIONARY
  5
12C7
102
{ACAD_REACTORS
330
C
102
}
330
C
100
AcDbDictionary
281
     1
  3
ByBlock
350
12C9
  3
ByLayer
350
12C8
  3
Global
350
12CA
  0
DICTIONARY
  5
12CD
102
{ACAD_REACTORS
330
C
102
}
330
C
100
AcDbDictionary
281
     1
  3
Standard
350
12CE
  0
DICTIONARY
  5
17
102
{ACAD_REACTORS
330
C
102
}
330
C
100
AcDbDictionary
281
     1
  3
Standard
350
18
  0
DICTIONARY
  5
19
102
{ACAD_REACTORS
330
C
102
}
330
C
100
AcDbDictionary
281
     1
  0
ACDBDICTIONARYWDFLT
  5
E
102
{ACAD_REACTORS
330
C
102
}
330
C
100
AcDbDictionary
281
     1
  3
Normal
350
F
100
AcDbDictionaryWithDefault
340
F
  0
DICTIONARY
  5
1288
102
{ACAD_REACTORS
330
C
102
}
330
C
100
AcDbDictionary
281
     1
  3
A0
350
1289
  3
A1
350
128A
  3
A2
350
128B
  3
A3
350
128C
  3
A4
350
128D
  3
A5
350
128E
  3
A6
350
128F
  3
A7
350
1290
  3
A8
350
1291
  3
A9
350
1292
  3
B0
350
1293
  3
B1
350
1294
  3
B2
350
1295
  3
B3
350
1296
  3
B4
350
1297
  3
B5
350
1298
  3
B6
350
1299
  3
B7
350
129A
  3
B8
350
129B
  3
B9
350
129C
  3
C0
350
129D
  3
C1
350
129E
  3
C2
350
129F
  3
C3
350
12A0
  3
C4
350
12A1
  3
C5
350
12A2
  3
C6
350
12A3
  3
C7
350
12A4
  3
C8
350
12A5
  3
C9
350
12A6
  3
D0
350
12A7
  3
D1
350
12A8
  3
D2
350
12A9
  0
DICTIONARY
  5
1315
102
{ACAD_REACTORS
330
C
102
}
330
C
100
AcDbDictionary
281
     1
  0
DICTIONARY
  5
12CB
102
{ACAD_REACTORS
330
C
102
}
330
C
100
AcDbDictionary
281
     1
  3
Standard
350
12CC
  0
DICTIONARY
  5
12AE
102
{ACAD_REACTORS
330
C
102
}
330
C
100
AcDbDictionary
281
     1
  3
2dWireframe
350
12B3
  3
3D Hidden
350
1319
  3
3dWireframe
350
1318
  3
Basic
350
12B6
  3
Brighten
350
12BA
  3
ColorChange
350
12BE
  3
Conceptual
350
12B8
  3
Dim
350
12B9
  3
EdgeColorOff
350
12C1
  3
Facepattern
350
12BD
  3
Flat
350
12AF
  3
FlatWithEdges
350
12B0
  3
Gouraud
350
12B1
  3
GouraudWithEdges
350
12B2
  3
Hidden
350
12B5
  3
JitterOff
350
12BF
  3
Linepattern
350
12BC
  3
OverhangOff
350
12C0
  3
Realistic
350
12B7
  3
Shaded
350
12C6
  3
Shaded with edges
350
12C5
  3
Shades of Gray
350
12C2
  3
Sketchy
350
12C3
  3
Thicken
350
12BB
  3
Wireframe
350
12B4
  3
X-Ray
350
12C4
  0
XRECORD
  5
1310
102
{ACAD_REACTORS
330
C
102
}
330
C
100
AcDbXrecord
280
     1
 90
        1
330
12CC
  0
DICTIONARY
  5
12D1
102
{ACAD_REACTORS
330
C
102
}
330
C
100
AcDbDictionary
281
     1
  3
CANNOSCALE
350
12D2
  3
CMLEADERSTYLE
350
1312
  3
CTABLESTYLE
350
1311
  3
MSLTSCALE
350
1313
  3
XCLIPFRAME
350
12D3
  0
DICTIONARY
  5
4581
102
{ACAD_REACTORS
330
4580
102
}
330
4580
100
AcDbDictionary
281
     1
  0
SORTENTSTABLE
  5
1383
102
{ACAD_REACTORS
330
1382
102
}
330
1382
100
AcDbSortentsTable
330
1D
  0
LAYOUT
  5
1C
102
{ACAD_REACTORS
330
1A
102
}
330
1A
100
AcDbPlotSettings
  1

  2
none_device
  4

  6

 40
0.0
 41
0.0
 42
0.0
 43
0.0
 44
0.0
 45
0.0
 46
0.0
 47
0.0
 48
0.0
 49
0.0
140
0.0
141
0.0
142
1.0
143
1.0
 70
   688
 72
     0
 73
     0
 74
     5
  7
monochrome.ctb
 75
    16
147
1.0
 76
     0
 77
     2
 78
   300
148
0.0
149
0.0
100
AcDbLayout
  1
Layout1
 70
     1
 71
     1
 10
0.0
 20
0.0
 11
12.0
 21
9.0
 12
0.0
 22
0.0
 32
0.0
 14
1.000000000000000E+20
 24
1.000000000000000E+20
 34
1.000000000000000E+20
 15
-1.000000000000000E+20
 25
-1.000000000000000E+20
 35
-1.000000000000000E+20
146
0.0
 13
0.0
 23
0.0
 33
0.0
 16
1.0
 26
0.0
 36
0.0
 17
0.0
 27
1.0
 37
0.0
 76
     0
330
1B
  0
LAYOUT
  5
1E
102
{ACAD_REACTORS
330
1A
102
}
330
1A
100
AcDbPlotSettings
  1

  2
none_device
  4
Letter_(8.50_x_11.00_Inches)
  6

 40
6.349999999999997
 41
6.349999999999997
 42
6.350005079999997
 43
6.350005079999997
 44
215.9
 45
279.4
 46
0.0
 47
0.0
 48
0.0
 49
0.0
140
0.0
141
0.0
142
1.0
143
1.0
 70
  1712
 72
     0
 73
     0
 74
     0
  7
monochrome.ctb
 75
     0
147
1.0
 76
     0
 77
     2
 78
   300
148
0.0
149
0.0
100
AcDbLayout
  1
Model
 70
     1
 71
     0
 10
0.0
 20
0.0
 11
12.0
 21
9.0
 12
0.0
 22
0.0
 32
0.0
 14
0.0
 24
0.0
 34
0.0
 15
22.3344
 25
40.608
 35
0.0
146
0.0
 13
0.0
 23
0.0
 33
0.0
 16
1.0
 26
0.0
 36
0.0
 17
0.0
 27
1.0
 37
0.0
 76
     0
330
1D
331
21
  0
MATERIAL
  5
12C9
102
{ACAD_XDICTIONARY
360
1306
102
}
102
{ACAD_REACTORS
330
12C7
102
}
330
12C7
100
AcDbMaterial
  1
ByBlock
  0
MATERIAL
  5
12C8
102
{ACAD_XDICTIONARY
360
1304
102
}
102
{ACAD_REACTORS
330
12C7
102
}
330
12C7
100
AcDbMaterial
  1
ByLayer
  0
MATERIAL
  5
12CA
102
{ACAD_XDICTIONARY
360
1308
102
}
102
{ACAD_REACTORS
330
12C7
102
}
330
12C7
100
AcDbMaterial
  1
Global
  0
ACAD_PROXY_OBJECT
  5
12CE
102
{ACAD_XDICTIONARY
360
130E
102
}
102
{ACAD_REACTORS
330
12CD
102
}
330
12CD
100
AcDbProxyObject
 90
      499
 91
      505
 95
       25
 70
     1
100
AcDbMLeaderStyle
170
     2
171
     1
172
     0
 90
        2
 40
0.0
 41
0.0
173
     1
 91
-1056964608
340
14
 92
       -2
290
     1
 42
0.09
291
     1
 43
0.36
  3
Standard
341
0
 44
0.18
300

342
11
174
     1
178
     6
175
     1
176
     0
 93
-1056964608
 45
0.18
292
     0
297
     0
 46
0.18
343
0
 94
-1056964608
 47
1.0
 49
1.0
140
1.0
293
     1
141
0.0
294
     1
177
     0
142
1.0
295
     0
296
     0
143
0.125
1001
ACAD_MLEADERVER
1070
     2
  0
MLINESTYLE
  5
18
102
{ACAD_REACTORS
330
17
102
}
330
17
100
AcDbMlineStyle
  2
STANDARD
 70
     0
  3

 62
   256
 51
90.0
 52
90.0
 71
     2
 49
0.5
 62
   256
  6
BYLAYER
 49
-0.5
 62
   256
  6
BYLAYER
  0
ACDBPLACEHOLDER
  5
F
102
{ACAD_REACTORS
330
E
102
}
330
E
  0
ACAD_PROXY_OBJECT
  5
1289
102
{ACAD_REACTORS
330
1288
102
}
330
1288
100
AcDbProxyObject
 90
      499
 91
      501
 95
       25
 70
     1
100
AcDbScale
 70
     0
300
1:1
140
1.0
141
1.0
290
     1
  0
ACAD_PROXY_OBJECT
  5
128A
102
{ACAD_REACTORS
330
1288
102
}
330
1288
100
AcDbProxyObject
 90
      499
 91
      501
 95
       25
 70
     1
100
AcDbScale
 70
     0
300
1:2
140
1.0
141
2.0
290
     0
  0
ACAD_PROXY_OBJECT
  5
128B
102
{ACAD_REACTORS
330
1288
102
}
330
1288
100
AcDbProxyObject
 90
      499
 91
      501
 95
       25
 70
     1
100
AcDbScale
 70
     0
300
1:4
140
1.0
141
4.0
290
     0
  0
ACAD_PROXY_OBJECT
  5
128C
102
{ACAD_REACTORS
330
1288
102
}
330
1288
100
AcDbProxyObject
 90
      499
 91
      501
 95
       25
 70
     1
100
AcDbScale
 70
     0
300
1:5
140
1.0
141
5.0
290
     0
  0
ACAD_PROXY_OBJECT
  5
128D
102
{ACAD_REACTORS
330
1288
102
}
330
1288
100
AcDbProxyObject
 90
      499
 91
      501
 95
       25
 70
     1
100
AcDbScale
 70
     0
300
1:8
140
1.0
141
8.0
290
     0
  0
ACAD_PROXY_OBJECT
  5
128E
102
{ACAD_REACTORS
330
1288
102
}
330
1288
100
AcDbProxyObject
 90
      499
 91
      501
 95
       25
 70
     1
100
AcDbScale
 70
     0
300
1:10
140
1.0
141
10.0
290
     0
  0
ACAD_PROXY_OBJECT
  5
128F
102
{ACAD_REACTORS
330
1288
102
}
330
1288
100
AcDbProxyObject
 90
      499
 91
      501
 95
       25
 70
     1
100
AcDbScale
 70
     0
300
1:16
140
1.0
141
16.0
290
     0
  0
ACAD_PROXY_OBJECT
  5
1290
102
{ACAD_REACTORS
330
1288
102
}
330
1288
100
AcDbProxyObject
 90
      499
 91
      501
 95
       25
 70
     1
100
AcDbScale
 70
     0
300
1:20
140
1.0
141
20.0
290
     0
  0
ACAD_PROXY_OBJECT
  5
1291
102
{ACAD_REACTORS
330
1288
102
}
330
1288
100
AcDbProxyObject
 90
      499
 91
      501
 95
       25
 70
     1
100
AcDbScale
 70
     0
300
1:30
140
1.0
141
30.0
290
     0
  0
ACAD_PROXY_OBJECT
  5
1292
102
{ACAD_REACTORS
330
1288
102
}
330
1288
100
AcDbProxyObject
 90
      499
 91
      501
 95
       25
 70
     1
100
AcDbScale
 70
     0
300
1:40
140
1.0
141
40.0
290
     0
  0
ACAD_PROXY_OBJECT
  5
1293
102
{ACAD_REACTORS
330
1288
102
}
330
1288
100
AcDbProxyObject
 90
      499
 91
      501
 95
       25
 70
     1
100
AcDbScale
 70
     0
300
1:50
140
1.0
141
50.0
290
     0
  0
ACAD_PROXY_OBJECT
  5
1294
102
{ACAD_REACTORS
330
1288
102
}
330
1288
100
AcDbProxyObject
 90
      499
 91
      501
 95
       25
 70
     1
100
AcDbScale
 70
     0
300
1:100
140
1.0
141
100.0
290
     0
  0
ACAD_PROXY_OBJECT
  5
1295
102
{ACAD_REACTORS
330
1288
102
}
330
1288
100
AcDbProxyObject
 90
      499
 91
      501
 95
       25
 70
     1
100
AcDbScale
 70
     0
300
2:1
140
2.0
141
1.0
290
     0
  0
ACAD_PROXY_OBJECT
  5
1296
102
{ACAD_REACTORS
330
1288
102
}
330
1288
100
AcDbProxyObject
 90
      499
 91
      501
 95
       25
 70
     1
100
AcDbScale
 70
     0
300
4:1
140
4.0
141
1.0
290
     0
  0
ACAD_PROXY_OBJECT
  5
1297
102
{ACAD_REACTORS
330
1288
102
}
330
1288
100
AcDbProxyObject
 90
      499
 91
      501
 95
       25
 70
     1
100
AcDbScale
 70
     0
300
8:1
140
8.0
141
1.0
290
     0
  0
ACAD_PROXY_OBJECT
  5
1298
102
{ACAD_REACTORS
330
1288
102
}
330
1288
100
AcDbProxyObject
 90
      499
 91
      501
 95
       25
 70
     1
100
AcDbScale
 70
     0
300
10:1
140
10.0
141
1.0
290
     0
  0
ACAD_PROXY_OBJECT
  5
1299
102
{ACAD_REACTORS
330
1288
102
}
330
1288
100
AcDbProxyObject
 90
      499
 91
      501
 95
       25
 70
     1
100
AcDbScale
 70
     0
300
100:1
140
100.0
141
1.0
290
     0
  0
ACAD_PROXY_OBJECT
  5
129A
102
{ACAD_REACTORS
330
1288
102
}
330
1288
100
AcDbProxyObject
 90
      499
 91
      501
 95
       25
 70
     1
100
AcDbScale
 70
     0
300
1/128" = 1'-0"
140
0.0078125
141
12.0
290
     0
  0
ACAD_PROXY_OBJECT
  5
129B
102
{ACAD_REACTORS
330
1288
102
}
330
1288
100
AcDbProxyObject
 90
      499
 91
      501
 95
       25
 70
     1
100
AcDbScale
 70
     0
300
1/64" = 1'-0"
140
0.015625
141
12.0
290
     0
  0
ACAD_PROXY_OBJECT
  5
129C
102
{ACAD_REACTORS
330
1288
102
}
330
1288
100
AcDbProxyObject
 90
      499
 91
      501
 95
       25
 70
     1
100
AcDbScale
 70
     0
300
1/32" = 1'-0"
140
0.03125
141
12.0
290
     0
  0
ACAD_PROXY_OBJECT
  5
129D
102
{ACAD_REACTORS
330
1288
102
}
330
1288
100
AcDbProxyObject
 90
      499
 91
      501
 95
       25
 70
     1
100
AcDbScale
 70
     0
300
1/16" = 1'-0"
140
0.0625
141
12.0
290
     0
  0
ACAD_PROXY_OBJECT
  5
129E
102
{ACAD_REACTORS
330
1288
102
}
330
1288
100
AcDbProxyObject
 90
      499
 91
      501
 95
       25
 70
     1
100
AcDbScale
 70
     0
300
3/32" = 1'-0"
140
0.09375
141
12.0
290
     0
  0
ACAD_PROXY_OBJECT
  5
129F
102
{ACAD_REACTORS
330
1288
102
}
330
1288
100
AcDbProxyObject
 90
      499
 91
      501
 95
       25
 70
     1
100
AcDbScale
 70
     0
300
1/8" = 1'-0"
140
0.125
141
12.0
290
     0
  0
ACAD_PROXY_OBJECT
  5
12A0
102
{ACAD_REACTORS
330
1288
102
}
330
1288
100
AcDbProxyObject
 90
      499
 91
      501
 95
       25
 70
     1
100
AcDbScale
 70
     0
300
3/16" = 1'-0"
140
0.1875
141
12.0
290
     0
  0
ACAD_PROXY_OBJECT
  5
12A1
102
{ACAD_REACTORS
330
1288
102
}
330
1288
100
AcDbProxyObject
 90
      499
 91
      501
 95
       25
 70
     1
100
AcDbScale
 70
     0
300
1/4" = 1'-0"
140
0.25
141
12.0
290
     0
  0
ACAD_PROXY_OBJECT
  5
12A2
102
{ACAD_REACTORS
330
1288
102
}
330
1288
100
AcDbProxyObject
 90
      499
 91
      501
 95
       25
 70
     1
100
AcDbScale
 70
     0
300
3/8" = 1'-0"
140
0.375
141
12.0
290
     0
  0
ACAD_PROXY_OBJECT
  5
12A3
102
{ACAD_REACTORS
330
1288
102
}
330
1288
100
AcDbProxyObject
 90
      499
 91
      501
 95
       25
 70
     1
100
AcDbScale
 70
     0
300
1/2" = 1'-0"
140
0.5
141
12.0
290
     0
  0
ACAD_PROXY_OBJECT
  5
12A4
102
{ACAD_REACTORS
330
1288
102
}
330
1288
100
AcDbProxyObject
 90
      499
 91
      501
 95
       25
 70
     1
100
AcDbScale
 70
     0
300
3/4" = 1'-0"
140
0.75
141
12.0
290
     0
  0
ACAD_PROXY_OBJECT
  5
12A5
102
{ACAD_REACTORS
330
1288
102
}
330
1288
100
AcDbProxyObject
 90
      499
 91
      501
 95
       25
 70
     1
100
AcDbScale
 70
     0
300
1" = 1'-0"
140
1.0
141
12.0
290
     0
  0
ACAD_PROXY_OBJECT
  5
12A6
102
{ACAD_REACTORS
330
1288
102
}
330
1288
100
AcDbProxyObject
 90
      499
 91
      501
 95
       25
 70
     1
100
AcDbScale
 70
     0
300
1-1/2" = 1'-0"
140
1.5
141
12.0
290
     0
  0
ACAD_PROXY_OBJECT
  5
12A7
102
{ACAD_REACTORS
330
1288
102
}
330
1288
100
AcDbProxyObject
 90
      499
 91
      501
 95
       25
 70
     1
100
AcDbScale
 70
     0
300
3" = 1'-0"
140
3.0
141
12.0
290
     0
  0
ACAD_PROXY_OBJECT
  5
12A8
102
{ACAD_REACTORS
330
1288
102
}
330
1288
100
AcDbProxyObject
 90
      499
 91
      501
 95
       25
 70
     1
100
AcDbScale
 70
     0
300
6" = 1'-0"
140
6.0
141
12.0
290
     0
  0
ACAD_PROXY_OBJECT
  5
12A9
102
{ACAD_REACTORS
330
1288
102
}
330
1288
100
AcDbProxyObject
 90
      499
 91
      501
 95
       25
 70
     1
100
AcDbScale
 70
     0
300
1'-0" = 1'-0"
140
12.0
141
12.0
290
     0
  0
TABLESTYLE
  5
12CC
102
{ACAD_XDICTIONARY
360
130A
102
}
102
{ACAD_REACTORS
330
12CB
102
}
330
12CB
100
AcDbTableStyle
  3
Standard
 70
     0
 71
     0
 40
0.06
 41
0.06
280
     0
281
     0
  7
Standard
140
0.18
170
     2
 62
     0
 63
   257
283
     0
 90
        4
 91
        0
  1

274
    -2
284
     1
 64
     0
275
    -2
285
     1
 65
     0
276
    -2
286
     1
 66
     0
277
    -2
287
     1
 67
     0
278
    -2
288
     1
 68
     0
279
    -2
289
     1
 69
     0
  7
Standard
140
0.25
170
     5
 62
     0
 63
   257
283
     0
 90
        4
 91
        0
  1

274
    -2
284
     1
 64
     0
275
    -2
285
     1
 65
     0
276
    -2
286
     1
 66
     0
277
    -2
287
     1
 67
     0
278
    -2
288
     1
 68
     0
279
    -2
289
     1
 69
     0
  7
Standard
140
0.18
170
     5
 62
     0
 63
   257
283
     0
 90
        4
 91
        0
  1

274
    -2
284
     1
 64
     0
275
    -2
285
     1
 65
     0
276
    -2
286
     1
 66
     0
277
    -2
287
     1
 67
     0
278
    -2
288
     1
 68
     0
279
    -2
289
     1
 69
     0
  0
VISUALSTYLE
  5
12B3
102
{ACAD_XDICTIONARY
360
12DC
102
}
102
{ACAD_REACTORS
330
12AE
102
}
330
12AE
100
AcDbVisualStyle
  2
2dWireframe
 70
     4
 71
     0
 72
     2
 73
     0
 90
        0
 40
-0.6
 41
-30.0
 62
     5
 63
     7
421
 16777215
 74
     1
 91
        4
 64
     7
 65
   257
 75
     1
175
     1
 42
1.0
 92
        0
 66
   257
 43
1.0
 76
     1
 77
     6
 78
     2
 67
     7
 79
     5
170
     0
171
     0
290
     0
174
     0
 93
        1
 44
0.0
173
     0
291
     0
 45
0.0
  0
VISUALSTYLE
  5
1319
102
{ACAD_REACTORS
330
12AE
102
}
330
12AE
100
AcDbVisualStyle
  2
3D Hidden
 70
     6
 71
     1
 72
     2
 73
     2
 90
        0
 40
-0.6
 41
-30.0
 62
     5
 63
     7
421
 16777215
 74
     2
 91
        2
 64
     7
 65
   257
 75
     2
175
     1
 42
40.0
 92
        0
 66
   257
 43
1.0
 76
     1
 77
     6
 78
     2
 67
     7
 79
     3
170
     0
171
     0
290
     0
174
     0
 93
        1
 44
0.0
173
     0
291
     0
 45
0.0
  0
VISUALSTYLE
  5
1318
102
{ACAD_REACTORS
330
12AE
102
}
330
12AE
100
AcDbVisualStyle
  2
3dWireframe
 70
     5
 71
     0
 72
     2
 73
     0
 90
        0
 40
-0.6
 41
-30.0
 62
     5
 63
     7
421
 16777215
 74
     1
 91
        4
 64
     7
 65
   257
 75
     1
175
     1
 42
1.0
 92
        0
 66
   257
 43
1.0
 76
     1
 77
     6
 78
     2
 67
     7
 79
     5
170
     0
171
     0
290
     0
174
     0
 93
        1
 44
0.0
173
     0
291
     0
 45
0.0
  0
VISUALSTYLE
  5
12B6
102
{ACAD_XDICTIONARY
360
12E2
102
}
102
{ACAD_REACTORS
330
12AE
102
}
330
12AE
100
AcDbVisualStyle
  2
Basic
 70
     7
 71
     1
 72
     0
 73
     1
 90
        0
 40
-0.6
 41
-30.0
 62
     5
 63
     7
421
 16777215
 74
     0
 91
        4
 64
     7
 65
   257
 75
     1
175
     1
 42
1.0
 92
        8
 66
     7
 43
1.0
 76
     1
 77
     6
 78
     2
 67
     7
 79
     5
170
     0
171
     0
290
     0
174
     0
 93
        1
 44
0.0
173
     0
291
     1
 45
0.0
  0
VISUALSTYLE
  5
12BA
102
{ACAD_XDICTIONARY
360
12EA
102
}
102
{ACAD_REACTORS
330
12AE
102
}
330
12AE
100
AcDbVisualStyle
  2
Brighten
 70
    12
 71
     2
 72
     2
 73
     0
 90
        0
 40
-0.6
 41
-30.0
 62
     5
 63
     7
421
 16777215
 74
     1
 91
        4
 64
     7
 65
   257
 75
     1
175
     1
 42
1.0
 92
        8
 66
     7
 43
1.0
 76
     1
 77
     6
 78
     2
 67
     7
 79
     5
170
     0
171
     0
290
     0
174
     0
 93
        1
 44
50.0
173
     0
291
     1
 45
0.0
  0
VISUALSTYLE
  5
12BE
102
{ACAD_XDICTIONARY
360
12F2
102
}
102
{ACAD_REACTORS
330
12AE
102
}
330
12AE
100
AcDbVisualStyle
  2
ColorChange
 70
    16
 71
     2
 72
     2
 73
     3
 90
        0
 40
-0.6
 41
-30.0
 62
     5
 63
     8
421
  8421504
 74
     1
 91
        4
 64
     7
 65
   257
 75
     1
175
     1
 42
1.0
 92
        8
 66
     8
424
  8421504
 43
1.0
 76
     1
 77
     6
 78
     2
 67
     7
 79
     5
170
     0
171
     0
290
     0
174
     0
 93
        1
 44
0.0
173
     0
291
     1
 45
0.0
  0
VISUALSTYLE
  5
12B8
102
{ACAD_XDICTIONARY
360
12E6
102
}
102
{ACAD_REACTORS
330
12AE
102
}
330
12AE
100
AcDbVisualStyle
  2
Conceptual
 70
     9
 71
     3
 72
     2
 73
     0
 90
        0
 40
-0.6
 41
-30.0
 62
     5
 63
     7
421
 16777215
 74
     2
 91
        2
 64
     7
 65
   257
 75
     1
175
     1
 42
179.0
 92
        8
 66
     7
 43
1.0
 76
     1
 77
     6
 78
     2
 67
     7
 79
     3
170
     0
171
     0
290
     0
174
     0
 93
        1
 44
0.0
173
     0
291
     0
 45
0.0
  0
VISUALSTYLE
  5
12B9
102
{ACAD_XDICTIONARY
360
12E8
102
}
102
{ACAD_REACTORS
330
12AE
102
}
330
12AE
100
AcDbVisualStyle
  2
Dim
 70
    11
 71
     2
 72
     2
 73
     0
 90
        0
 40
-0.6
 41
-30.0
 62
     5
 63
     7
421
 16777215
 74
     1
 91
        4
 64
     7
 65
   257
 75
     1
175
     1
 42
1.0
 92
        8
 66
     7
 43
1.0
 76
     1
 77
     6
 78
     2
 67
     7
 79
     5
170
     0
171
     0
290
     0
174
     0
 93
        1
 44
-50.0
173
     0
291
     1
 45
0.0
  0
VISUALSTYLE
  5
12C1
102
{ACAD_XDICTIONARY
360
12F8
102
}
102
{ACAD_REACTORS
330
12AE
102
}
330
12AE
100
AcDbVisualStyle
  2
EdgeColorOff
 70
    22
 71
     2
 72
     2
 73
     0
 90
        0
 40
-0.6
 41
-30.0
 62
     5
 63
     7
421
 16777215
 74
     1
 91
        4
 64
     7
 65
   257
 75
     1
175
     1
 42
1.0
 92
        8
 66
     7
 43
1.0
 76
     1
 77
     6
 78
     2
 67
     7
 79
     5
170
     0
171
     0
290
     0
174
     0
 93
        1
 44
0.0
173
     0
291
     1
 45
0.0
  0
VISUALSTYLE
  5
12BD
102
{ACAD_XDICTIONARY
360
12F0
102
}
102
{ACAD_REACTORS
330
12AE
102
}
330
12AE
100
AcDbVisualStyle
  2
Facepattern
 70
    15
 71
     2
 72
     2
 73
     0
 90
        0
 40
-0.6
 41
-30.0
 62
     5
 63
     7
421
 16777215
 74
     1
 91
        4
 64
     7
 65
   257
 75
     1
175
     1
 42
1.0
 92
        8
 66
     7
 43
1.0
 76
     1
 77
     6
 78
     2
 67
     7
 79
     5
170
     0
171
     0
290
     0
174
     0
 93
        1
 44
0.0
173
     0
291
     1
 45
0.0
  0
VISUALSTYLE
  5
12AF
102
{ACAD_XDICTIONARY
360
12D4
102
}
102
{ACAD_REACTORS
330
12AE
102
}
330
12AE
100
AcDbVisualStyle
  2
Flat
 70
     0
 71
     2
 72
     1
 73
     1
 90
        2
 40
-0.6
 41
30.0
 62
     5
 63
     7
421
 16777215
 74
     0
 91
        0
 64
     7
 65
   257
 75
     1
175
     1
 42
1.0
 92
        8
 66
     7
 43
1.0
 76
     1
 77
     6
 78
     2
 67
     7
 79
     5
170
     0
171
     0
290
     0
174
     0
 93
       13
 44
0.0
173
     0
291
     1
 45
0.0
  0
VISUALSTYLE
  5
12B0
102
{ACAD_XDICTIONARY
360
12D6
102
}
102
{ACAD_REACTORS
330
12AE
102
}
330
12AE
100
AcDbVisualStyle
  2
FlatWithEdges
 70
     1
 71
     2
 72
     1
 73
     1
 90
        2
 40
-0.6
 41
30.0
 62
     5
 63
     7
421
 16777215
 74
     1
 91
        0
 64
     7
 65
   257
 75
     1
175
     1
 42
1.0
 92
        0
 66
   257
 43
1.0
 76
     1
 77
     6
 78
     2
 67
     7
 79
     5
170
     0
171
     0
290
     0
174
     0
 93
       13
 44
0.0
173
     0
291
     1
 45
0.0
  0
VISUALSTYLE
  5
12B1
102
{ACAD_XDICTIONARY
360
12D8
102
}
102
{ACAD_REACTORS
330
12AE
102
}
330
12AE
100
AcDbVisualStyle
  2
Gouraud
 70
     2
 71
     2
 72
     2
 73
     1
 90
        2
 40
-0.6
 41
30.0
 62
     5
 63
     7
421
 16777215
 74
     0
 91
        0
 64
     7
 65
   257
 75
     1
175
     1
 42
1.0
 92
        0
 66
     7
 43
1.0
 76
     1
 77
     6
 78
     2
 67
     7
 79
     5
170
     0
171
     0
290
     0
174
     0
 93
       13
 44
0.0
173
     0
291
     1
 45
0.0
  0
VISUALSTYLE
  5
12B2
102
{ACAD_XDICTIONARY
360
12DA
102
}
102
{ACAD_REACTORS
330
12AE
102
}
330
12AE
100
AcDbVisualStyle
  2
GouraudWithEdges
 70
     3
 71
     2
 72
     2
 73
     1
 90
        2
 40
-0.6
 41
30.0
 62
     5
 63
     7
421
 16777215
 74
     1
 91
        0
 64
     7
 65
   257
 75
     1
175
     1
 42
1.0
 92
        0
 66
   257
 43
1.0
 76
     1
 77
     6
 78
     2
 67
     7
 79
     5
170
     0
171
     0
290
     0
174
     0
 93
       13
 44
0.0
173
     0
291
     1
 45
0.0
  0
VISUALSTYLE
  5
12B5
102
{ACAD_XDICTIONARY
360
12E0
102
}
102
{ACAD_REACTORS
330
12AE
102
}
330
12AE
100
AcDbVisualStyle
  2
Hidden
 70
     6
 71
     1
 72
     2
 73
     2
 90
        0
 40
-0.6
 41
-30.0
 62
     5
 63
     7
421
 16777215
 74
     2
 91
        2
 64
     7
 65
   257
 75
     2
175
     1
 42
40.0
 92
        0
 66
   257
 43
1.0
 76
     1
 77
     6
 78
     2
 67
     7
 79
     3
170
     0
171
     0
290
     0
174
     0
 93
        1
 44
0.0
173
     0
291
     0
 45
0.0
  0
VISUALSTYLE
  5
12BF
102
{ACAD_XDICTIONARY
360
12F4
102
}
102
{ACAD_REACTORS
330
12AE
102
}
330
12AE
100
AcDbVisualStyle
  2
JitterOff
 70
    20
 71
     2
 72
     2
 73
     0
 90
        0
 40
-0.6
 41
-30.0
 62
     5
 63
     7
421
 16777215
 74
     1
 91
        4
 64
     7
 65
   257
 75
     1
175
     1
 42
1.0
 92
       10
 66
     7
 43
1.0
 76
     1
 77
     6
 78
     2
 67
     7
 79
     5
170
     0
171
     0
290
     0
174
     0
 93
        1
 44
0.0
173
     0
291
     1
 45
0.0
  0
VISUALSTYLE
  5
12BC
102
{ACAD_XDICTIONARY
360
12EE
102
}
102
{ACAD_REACTORS
330
12AE
102
}
330
12AE
100
AcDbVisualStyle
  2
Linepattern
 70
    14
 71
     2
 72
     2
 73
     0
 90
        0
 40
-0.6
 41
-30.0
 62
     5
 63
     7
421
 16777215
 74
     1
 91
        4
 64
     7
 65
   257
 75
     7
175
     7
 42
1.0
 92
        8
 66
     7
 43
1.0
 76
     1
 77
     6
 78
     2
 67
     7
 79
     5
170
     0
171
     0
290
     0
174
     0
 93
        1
 44
0.0
173
     0
291
     1
 45
0.0
  0
VISUALSTYLE
  5
12C0
102
{ACAD_XDICTIONARY
360
12F6
102
}
102
{ACAD_REACTORS
330
12AE
102
}
330
12AE
100
AcDbVisualStyle
  2
OverhangOff
 70
    21
 71
     2
 72
     2
 73
     0
 90
        0
 40
-0.6
 41
-30.0
 62
     5
 63
     7
421
 16777215
 74
     1
 91
        4
 64
     7
 65
   257
 75
     1
175
     1
 42
1.0
 92
        9
 66
     7
 43
1.0
 76
     1
 77
     6
 78
     2
 67
     7
 79
     5
170
     0
171
     0
290
     0
174
     0
 93
        1
 44
0.0
173
     0
291
     1
 45
0.0
  0
VISUALSTYLE
  5
12B7
102
{ACAD_XDICTIONARY
360
12E4
102
}
102
{ACAD_REACTORS
330
12AE
102
}
330
12AE
100
AcDbVisualStyle
  2
Realistic
 70
     8
 71
     2
 72
     3
 73
     0
 90
        2
 40
-0.6
 41
30.0
 62
     5
 63
     7
421
 16777215
 74
     0
 91
        0
 64
     7
 65
   257
 75
     1
175
     1
 42
1.0
 92
        8
 66
   257
 43
1.0
 76
     1
 77
     6
 78
     2
 67
     7
 79
     3
170
     0
171
     0
290
     0
174
     0
 93
       13
 44
0.0
173
     0
291
     0
 45
0.0
  0
VISUALSTYLE
  5
12C6
102
{ACAD_XDICTIONARY
360
1302
102
}
102
{ACAD_REACTORS
330
12AE
102
}
330
12AE
100
AcDbVisualStyle
  2
Shaded
 70
    27
 71
     2
 72
     2
 73
     1
 90
        2
 40
-0.6
 41
30.0
 62
     5
 63
     7
421
 16777215
 74
     0
 91
        4
 64
     7
 65
   257
 75
     1
175
     1
 42
1.0
 92
        8
 66
   257
 43
1.0
 76
     1
 77
     6
 78
     2
 67
     8
425
  7895160
 79
     3
170
     0
171
     0
290
     0
174
     0
 93
        5
 44
0.0
173
     0
291
     0
 45
0.0
  0
VISUALSTYLE
  5
12C5
102
{ACAD_XDICTIONARY
360
1300
102
}
102
{ACAD_REACTORS
330
12AE
102
}
330
12AE
100
AcDbVisualStyle
  2
Shaded with edges
 70
    26
 71
     2
 72
     2
 73
     1
 90
        2
 40
-0.6
 41
30.0
 62
     5
 63
     7
421
 16777215
 74
     1
 91
       10
 64
     7
 65
   257
 75
     2
175
     1
 42
1.0
 92
        8
 66
   257
 43
1.0
 76
     1
 77
     6
 78
     2
 67
     7
 79
     3
170
     0
171
     0
290
     0
174
     0
 93
        5
 44
0.0
173
     0
291
     0
 45
0.0
  0
VISUALSTYLE
  5
12C2
102
{ACAD_XDICTIONARY
360
12FA
102
}
102
{ACAD_REACTORS
330
12AE
102
}
330
12AE
100
AcDbVisualStyle
  2
Shades of Gray
 70
    23
 71
     2
 72
     2
 73
     3
 90
        0
 40
-0.6
 41
-30.0
 62
     5
 63
     7
421
 16777215
 74
     2
 91
        2
 64
     7
 65
     7
 75
     1
175
     1
 42
40.0
 92
        8
 66
     7
 43
1.0
 76
     1
 77
     6
 78
     2
 67
     7
 79
     3
170
     0
171
     0
290
     0
174
     0
 93
        1
 44
0.0
173
     0
291
     0
 45
0.0
  0
VISUALSTYLE
  5
12C3
102
{ACAD_XDICTIONARY
360
12FC
102
}
102
{ACAD_REACTORS
330
12AE
102
}
330
12AE
100
AcDbVisualStyle
  2
Sketchy
 70
    24
 71
     1
 72
     2
 73
     2
 90
        0
 40
-0.6
 41
-30.0
 62
     5
 63
     7
421
 16777215
 74
     2
 91
        2
 64
     7
 65
     7
 75
     1
175
     1
 42
40.0
 92
       11
 66
     7
 43
1.0
 76
     1
 77
     6
 78
     2
 67
     7
 79
     6
170
     0
171
     0
290
     0
174
     0
 93
        1
 44
0.0
173
     0
291
     0
 45
0.0
  0
VISUALSTYLE
  5
12BB
102
{ACAD_XDICTIONARY
360
12EC
102
}
102
{ACAD_REACTORS
330
12AE
102
}
330
12AE
100
AcDbVisualStyle
  2
Thicken
 70
    13
 71
     2
 72
     2
 73
     0
 90
        0
 40
-0.6
 41
-30.0
 62
     5
 63
     7
421
 16777215
 74
     1
 91
        4
 64
     7
 65
   257
 75
     1
175
     1
 42
1.0
 92
       12
 66
     7
 43
1.0
 76
     1
 77
     6
 78
     2
 67
     7
 79
     5
170
     0
171
     0
290
     0
174
     0
 93
        1
 44
0.0
173
     0
291
     1
 45
0.0
  0
VISUALSTYLE
  5
12B4
102
{ACAD_XDICTIONARY
360
12DE
102
}
102
{ACAD_REACTORS
330
12AE
102
}
330
12AE
100
AcDbVisualStyle
  2
Wireframe
 70
     5
 71
     0
 72
     2
 73
     0
 90
        0
 40
-0.6
 41
-30.0
 62
     5
 63
     7
421
 16777215
 74
     1
 91
        4
 64
     7
 65
   257
 75
     1
175
     1
 42
1.0
 92
        0
 66
   257
 43
1.0
 76
     1
 77
     6
 78
     2
 67
     7
 79
     3
170
     0
171
     0
290
     0
174
     0
 93
        1
 44
0.0
173
     0
291
     0
 45
0.0
  0
VISUALSTYLE
  5
12C4
102
{ACAD_XDICTIONARY
360
12FE
102
}
102
{ACAD_REACTORS
330
12AE
102
}
330
12AE
100
AcDbVisualStyle
  2
X-Ray
 70
    25
 71
     2
 72
     2
 73
     1
 90
        1
 40
0.5
 41
-30.0
 62
     5
 63
     7
421
 16777215
 74
     1
 91
        0
 64
     7
 65
   257
 75
     1
175
     1
 42
1.0
 92
        8
 66
     7
 43
1.0
 76
     1
 77
     6
 78
     2
 67
     7
 79
     3
170
     0
171
     0
290
     0
174
     0
 93
       13
 44
0.0
173
     0
291
     0
 45
0.0
  0
DICTIONARYVAR
  5
12D2
102
{ACAD_REACTORS
330
12D1
102
}
330
12D1
100
DictionaryVariables
280
     0
  1
1:1
  0
DICTIONARYVAR
  5
1312
102
{ACAD_REACTORS
330
12D1
102
}
330
12D1
100
DictionaryVariables
280
     0
  1
Standard
  0
DICTIONARYVAR
  5
1311
102
{ACAD_REACTORS
330
12D1
102
}
330
12D1
100
DictionaryVariables
280
     0
  1
STANDARD
  0
DICTIONARYVAR
  5
1313
102
{ACAD_REACTORS
330
12D1
102
}
330
12D1
100
DictionaryVariables
280
     0
  1
0
  0
DICTIONARYVAR
  5
12D3
102
{ACAD_REACTORS
330
12D1
102
}
330
12D1
100
DictionaryVariables
280
     0
  1
2
  0
DICTIONARY
  5
1306
330
12C9
100
AcDbDictionary
280
     1
281
     1
  3
ACAD_XREC_ROUNDTRIP
360
1307
  0
DICTIONARY
  5
1304
330
12C8
100
AcDbDictionary
280
     1
281
     1
  3
ACAD_XREC_ROUNDTRIP
360
1305
  0
DICTIONARY
  5
1308
330
12CA
100
AcDbDictionary
280
     1
281
     1
  3
ACAD_XREC_ROUNDTRIP
360
1309
  0
DICTIONARY
  5
130E
330
12CE
100
AcDbDictionary
280
     1
281
     1
  3
ACAD_XREC_ROUNDTRIP
360
130F
  0
DICTIONARY
  5
130A
330
12CC
100
AcDbDictionary
280
     1
281
     1
  3
ACAD_ROUNDTRIP_2008_TABLESTYLE_CELLSTYLEMAP
360
130C
  0
DICTIONARY
  5
12DC
330
12B3
100
AcDbDictionary
280
     1
281
     1
  3
ACAD_XREC_ROUNDTRIP
360
12DD
  0
DICTIONARY
  5
12E2
330
12B6
100
AcDbDictionary
280
     1
281
     1
  3
ACAD_XREC_ROUNDTRIP
360
12E3
  0
DICTIONARY
  5
12EA
330
12BA
100
AcDbDictionary
280
     1
281
     1
  3
ACAD_XREC_ROUNDTRIP
360
12EB
  0
DICTIONARY
  5
12F2
330
12BE
100
AcDbDictionary
280
     1
281
     1
  3
ACAD_XREC_ROUNDTRIP
360
12F3
  0
DICTIONARY
  5
12E6
330
12B8
100
AcDbDictionary
280
     1
281
     1
  3
ACAD_XREC_ROUNDTRIP
360
12E7
  0
DICTIONARY
  5
12E8
330
12B9
100
AcDbDictionary
280
     1
281
     1
  3
ACAD_XREC_ROUNDTRIP
360
12E9
  0
DICTIONARY
  5
12F8
330
12C1
100
AcDbDictionary
280
     1
281
     1
  3
ACAD_XREC_ROUNDTRIP
360
12F9
  0
DICTIONARY
  5
12F0
330
12BD
100
AcDbDictionary
280
     1
281
     1
  3
ACAD_XREC_ROUNDTRIP
360
12F1
  0
DICTIONARY
  5
12D4
330
12AF
100
AcDbDictionary
280
     1
281
     1
  3
ACAD_XREC_ROUNDTRIP
360
12D5
  0
DICTIONARY
  5
12D6
330
12B0
100
AcDbDictionary
280
     1
281
     1
  3
ACAD_XREC_ROUNDTRIP
360
12D7
  0
DICTIONARY
  5
12D8
330
12B1
100
AcDbDictionary
280
     1
281
     1
  3
ACAD_XREC_ROUNDTRIP
360
12D9
  0
DICTIONARY
  5
12DA
330
12B2
100
AcDbDictionary
280
     1
281
     1
  3
ACAD_XREC_ROUNDTRIP
360
12DB
  0
DICTIONARY
  5
12E0
330
12B5
100
AcDbDictionary
280
     1
281
     1
  3
ACAD_XREC_ROUNDTRIP
360
12E1
  0
DICTIONARY
  5
12F4
330
12BF
100
AcDbDictionary
280
     1
281
     1
  3
ACAD_XREC_ROUNDTRIP
360
12F5
  0
DICTIONARY
  5
12EE
330
12BC
100
AcDbDictionary
280
     1
281
     1
  3
ACAD_XREC_ROUNDTRIP
360
12EF
  0
DICTIONARY
  5
12F6
330
12C0
100
AcDbDictionary
280
     1
281
     1
  3
ACAD_XREC_ROUNDTRIP
360
12F7
  0
DICTIONARY
  5
12E4
330
12B7
100
AcDbDictionary
280
     1
281
     1
  3
ACAD_XREC_ROUNDTRIP
360
12E5
  0
DICTIONARY
  5
1302
330
12C6
100
AcDbDictionary
280
     1
281
     1
  3
ACAD_XREC_ROUNDTRIP
360
1303
  0
DICTIONARY
  5
1300
330
12C5
100
AcDbDictionary
280
     1
281
     1
  3
ACAD_XREC_ROUNDTRIP
360
1301
  0
DICTIONARY
  5
12FA
330
12C2
100
AcDbDictionary
280
     1
281
     1
  3
ACAD_XREC_ROUNDTRIP
360
12FB
  0
DICTIONARY
  5
12FC
330
12C3
100
AcDbDictionary
280
     1
281
     1
  3
ACAD_XREC_ROUNDTRIP
360
12FD
  0
DICTIONARY
  5
12EC
330
12BB
100
AcDbDictionary
280
     1
281
     1
  3
ACAD_XREC_ROUNDTRIP
360
12ED
  0
DICTIONARY
  5
12DE
330
12B4
100
AcDbDictionary
280
     1
281
     1
  3
ACAD_XREC_ROUNDTRIP
360
12DF
  0
DICTIONARY
  5
12FE
330
12C4
100
AcDbDictionary
280
     1
281
     1
  3
ACAD_XREC_ROUNDTRIP
360
12FF
  0
XRECORD
  5
1307
102
{ACAD_REACTORS
330
1306
102
}
330
1306
100
AcDbXrecord
280
     1
102
MATERIAL
148
0.0
149
0.0
149
0.0
 93
        0
 94
      127
282
     0
 72
     1
 77
     1
171
     1
175
     1
179
     1
273
     0
  0
XRECORD
  5
1305
102
{ACAD_REACTORS
330
1304
102
}
330
1304
100
AcDbXrecord
280
     1
102
MATERIAL
148
0.0
149
0.0
149
0.0
 93
        0
 94
      127
282
     0
 72
     1
 77
     1
171
     1
175
     1
179
     1
273
     0
  0
XRECORD
  5
1309
102
{ACAD_REACTORS
330
1308
102
}
330
1308
100
AcDbXrecord
280
     1
102
MATERIAL
148
0.0
149
0.0
149
0.0
 93
        0
 94
      127
282
     0
 72
     1
 77
     1
171
     1
175
     1
179
     1
273
     0
  0
XRECORD
  5
130F
102
{ACAD_REACTORS
330
130E
102
}
330
130E
100
AcDbXrecord
280
     1
102
ACAD_ROUNDTRIP_2010_MLEADER_STYLE
  0
ACAD_PROXY_OBJECT
  5
130C
102
{ACAD_REACTORS
330
130A
102
}
330
130A
100
AcDbProxyObject
 90
      499
 91
      507
 95
       25
 70
     1
100
AcDbCellStyleMap
 90
        3
300
CELLSTYLE
  1
TABLEFORMAT_BEGIN
 90
        5
170
     1
 91
        0
 92
    32768
 62
   257
 93
        1
300
CONTENTFORMAT
  1
CONTENTFORMAT_BEGIN
 90
        0
 91
        0
 92
        4
 93
        0
300

 40
0.0
140
1.0
 94
        5
 62
     0
340
11
144
0.25
309
CONTENTFORMAT_END
171
     1
301
MARGIN
  1
CELLMARGIN_BEGIN
 40
0.06
 40
0.06
 40
0.06
 40
0.06
 40
0.06
 40
0.06
309
CELLMARGIN_END
 94
        6
 95
        1
302
GRIDFORMAT
  1
GRIDFORMAT_BEGIN
 90
        0
 91
        1
 62
     0
 92
       -2
340
14
 93
        0
 40
0.045
309
GRIDFORMAT_END
 95
        2
302
GRIDFORMAT
  1
GRIDFORMAT_BEGIN
 90
        0
 91
        1
 62
     0
 92
       -2
340
14
 93
        0
 40
0.045
309
GRIDFORMAT_END
 95
        4
302
GRIDFORMAT
  1
GRIDFORMAT_BEGIN
 90
        0
 91
        1
 62
     0
 92
       -2
340
14
 93
        0
 40
0.045
309
GRIDFORMAT_END
 95
        8
302
GRIDFORMAT
  1
GRIDFORMAT_BEGIN
 90
        0
 91
        1
 62
     0
 92
       -2
340
14
 93
        0
 40
0.045
309
GRIDFORMAT_END
 95
       16
302
GRIDFORMAT
  1
GRIDFORMAT_BEGIN
 90
        0
 91
        1
 62
     0
 92
       -2
340
14
 93
        0
 40
0.045
309
GRIDFORMAT_END
 95
       32
302
GRIDFORMAT
  1
GRIDFORMAT_BEGIN
 90
        0
 91
        1
 62
     0
 92
       -2
340
14
 93
        0
 40
0.045
309
GRIDFORMAT_END
309
TABLEFORMAT_END
  1
CELLSTYLE_BEGIN
 90
        1
 91
        1
300
_TITLE
309
CELLSTYLE_END
300
CELLSTYLE
  1
TABLEFORMAT_BEGIN
 90
        5
170
     1
 91
        0
 92
        0
 62
   257
 93
        1
300
CONTENTFORMAT
  1
CONTENTFORMAT_BEGIN
 90
        0
 91
        0
 92
        4
 93
        0
300

 40
0.0
140
1.0
 94
        5
 62
     0
340
11
144
0.18
309
CONTENTFORMAT_END
171
     1
301
MARGIN
  1
CELLMARGIN_BEGIN
 40
0.06
 40
0.06
 40
0.06
 40
0.06
 40
0.06
 40
0.06
309
CELLMARGIN_END
 94
        6
 95
        1
302
GRIDFORMAT
  1
GRIDFORMAT_BEGIN
 90
        0
 91
        1
 62
     0
 92
       -2
340
14
 93
        0
 40
0.045
309
GRIDFORMAT_END
 95
        2
302
GRIDFORMAT
  1
GRIDFORMAT_BEGIN
 90
        0
 91
        1
 62
     0
 92
       -2
340
14
 93
        0
 40
0.045
309
GRIDFORMAT_END
 95
        4
302
GRIDFORMAT
  1
GRIDFORMAT_BEGIN
 90
        0
 91
        1
 62
     0
 92
       -2
340
14
 93
        0
 40
0.045
309
GRIDFORMAT_END
 95
        8
302
GRIDFORMAT
  1
GRIDFORMAT_BEGIN
 90
        0
 91
        1
 62
     0
 92
       -2
340
14
 93
        0
 40
0.045
309
GRIDFORMAT_END
 95
       16
302
GRIDFORMAT
  1
GRIDFORMAT_BEGIN
 90
        0
 91
        1
 62
     0
 92
       -2
340
14
 93
        0
 40
0.045
309
GRIDFORMAT_END
 95
       32
302
GRIDFORMAT
  1
GRIDFORMAT_BEGIN
 90
        0
 91
        1
 62
     0
 92
       -2
340
14
 93
        0
 40
0.045
309
GRIDFORMAT_END
309
TABLEFORMAT_END
  1
CELLSTYLE_BEGIN
 90
        2
 91
        1
300
_HEADER
309
CELLSTYLE_END
300
CELLSTYLE
  1
TABLEFORMAT_BEGIN
 90
        5
170
     1
 91
        0
 92
        0
 62
   257
 93
        1
300
CONTENTFORMAT
  1
CONTENTFORMAT_BEGIN
 90
        0
 91
        0
 92
        4
 93
        0
300

 40
0.0
140
1.0
 94
        2
 62
     0
340
11
144
0.18
309
CONTENTFORMAT_END
171
     1
301
MARGIN
  1
CELLMARGIN_BEGIN
 40
0.06
 40
0.06
 40
0.06
 40
0.06
 40
0.06
 40
0.06
309
CELLMARGIN_END
 94
        6
 95
        1
302
GRIDFORMAT
  1
GRIDFORMAT_BEGIN
 90
        0
 91
        1
 62
     0
 92
       -2
340
14
 93
        0
 40
0.045
309
GRIDFORMAT_END
 95
        2
302
GRIDFORMAT
  1
GRIDFORMAT_BEGIN
 90
        0
 91
        1
 62
     0
 92
       -2
340
14
 93
        0
 40
0.045
309
GRIDFORMAT_END
 95
        4
302
GRIDFORMAT
  1
GRIDFORMAT_BEGIN
 90
        0
 91
        1
 62
     0
 92
       -2
340
14
 93
        0
 40
0.045
309
GRIDFORMAT_END
 95
        8
302
GRIDFORMAT
  1
GRIDFORMAT_BEGIN
 90
        0
 91
        1
 62
     0
 92
       -2
340
14
 93
        0
 40
0.045
309
GRIDFORMAT_END
 95
       16
302
GRIDFORMAT
  1
GRIDFORMAT_BEGIN
 90
        0
 91
        1
 62
     0
 92
       -2
340
14
 93
        0
 40
0.045
309
GRIDFORMAT_END
 95
       32
302
GRIDFORMAT
  1
GRIDFORMAT_BEGIN
 90
        0
 91
        1
 62
     0
 92
       -2
340
14
 93
        0
 40
0.045
309
GRIDFORMAT_END
309
TABLEFORMAT_END
  1
CELLSTYLE_BEGIN
 90
        3
 91
        2
300
_DATA
309
CELLSTYLE_END
  0
XRECORD
  5
12DD
102
{ACAD_REACTORS
330
12DC
102
}
330
12DC
100
AcDbXrecord
280
     1
102
RTVSPropertyOp0
 70
     1
102
RTVSPropertyOp1
 70
     1
102
RTVSPropertyOp2
 70
     1
102
RTVSPropertyOp3
 70
     1
102
RTVSPropertyOp4
 70
     1
102
RTVSPropertyOp5
 70
     1
102
RTVSPropertyOp6
 70
     1
102
RTVSPropertyOp7
 70
     1
102
RTVSPropertyOp8
 70
     1
102
RTVSPropertyOp9
 70
     1
102
RTVSPropertyOp10
 70
     1
102
RTVSPropertyOp11
 70
     1
102
RTVSPropertyOp12
 70
     1
102
RTVSPropertyOp13
 70
     1
102
RTVSPropertyOp14
 70
     1
102
RTVSPropertyOp15
 70
     1
102
RTVSPropertyOp16
 70
     1
102
RTVSPropertyOp17
 70
     1
102
RTVSPropertyOp18
 70
     1
102
RTVSPropertyOp19
 70
     1
102
RTVSPropertyOp20
 70
     1
102
RTVSPropertyOp21
 70
     1
102
RTVSPropertyOp22
 70
     1
102
RTVSPropertyOp23
 70
     1
102
RTVSPropertyOp24
 70
     1
102
RTVSPropertyOp25
 70
     1
102
RTVSPropertyOp26
 70
     1
102
RTVSPropertyOp27
 70
     1
102
RTVSPropertyOp28
 70
     1
102
RTVSPropertyOp29
 70
     1
102
RTVSPropertyOp30
 70
     1
102
RTVSPropertyOp31
 70
     1
102
RTVSPropertyOp32
 70
     1
102
RTVSPropertyOp33
 70
     1
102
RTVSPropertyOp34
 70
     1
102
RTVSPropertyOp35
 70
     1
102
RTVSPropertyOp36
 70
     1
102
RTVSPropertyOp37
 70
     1
102
RTVSPropertyOp38
 70
     1
102
RTVSPropertyOp39
 70
     1
102
RTVSPropertyOp40
 70
     1
102
RTVSPropertyOp41
 70
     1
102
RTVSPropertyOp42
 70
     1
102
RTVSPropertyOp43
 70
     1
102
RTVSPropertyOp44
 70
     1
102
RTVSPropertyOp45
 70
     1
102
RTVSPropertyOp46
 70
     1
102
RTVSPropertyOp47
 70
     1
102
RTVSPropertyOp48
 70
     1
102
RTVSPropertyOp49
 70
     1
102
RTVSPropertyOp50
 70
     1
102
RTVSPropertyOp51
 70
     0
102
RTVSPropertyOp52
 70
     0
102
RTVSPropertyOp53
 70
     1
102
RTVSPropertyOp54
 70
     1
102
RTVSPropertyOp55
 70
     1
102
RTVSPropertyOp56
 70
     1
102
RTVSPropertyOp57
 70
     1
102
RTVSPost2010Prop28
280
     1
102
RTVSPost2010PropOp28
 70
     1
102
RTVSPost2010Prop29
280
     1
102
RTVSPost2010PropOp29
 70
     1
102
RTVSPost2010Prop30
280
     0
102
RTVSPost2010PropOp30
 70
     1
102
RTVSPost2010Prop31
280
     0
102
RTVSPost2010PropOp31
 70
     1
102
RTVSPost2010Prop32
280
     0
102
RTVSPost2010PropOp32
 70
     1
102
RTVSPost2010Prop33
280
     0
102
RTVSPost2010PropOp33
 70
     1
102
RTVSPost2010Prop34
280
     0
102
RTVSPost2010PropOp34
 70
     1
102
RTVSPost2010Prop35
280
     0
102
RTVSPost2010PropOp35
 70
     1
102
RTVSPost2010Prop36
280
     0
102
RTVSPost2010PropOp36
 70
     1
102
RTVSPost2010Prop37
 90
       50
102
RTVSPost2010PropOp37
 70
     1
102
RTVSPost2010Prop38
140
0.0
102
RTVSPost2010PropOp38
 70
     1
102
RTVSPost2010Prop39
140
1.0
102
RTVSPost2010PropOp39
 70
     1
102
RTVSPost2010Prop40
 90
        0
102
RTVSPost2010PropOp40
 70
     1
102
RTVSPost2010Prop41ColorIndex
 90
       18
102
RTVSPost2010Prop41ColorRGB
 90
        0
102
RTVSPost2010PropOp41
 70
     1
102
RTVSPost2010Prop42
 90
       50
102
RTVSPost2010PropOp42
 70
     1
102
RTVSPost2010Prop43
 90
        3
102
RTVSPost2010PropOp43
 70
     1
102
RTVSPost2010Prop44ColorIndex
 90
        5
102
RTVSPost2010Prop44ColorRGB
 90
      255
102
RTVSPost2010PropOp44
 70
     1
102
RTVSPost2010Prop45
280
     0
102
RTVSPost2010PropOp45
 70
     1
102
RTVSPost2010Prop46
 90
       50
102
RTVSPost2010PropOp46
 70
     1
102
RTVSPost2010Prop47
 90
       50
102
RTVSPost2010PropOp47
 70
     1
102
RTVSPost2010Prop48
 90
       50
102
RTVSPost2010PropOp48
 70
     1
102
RTVSPost2010Prop49
280
     0
102
RTVSPost2010PropOp49
 70
     1
102
RTVSPost2010Prop50
 90
       50
102
RTVSPost2010PropOp50
 70
     1
102
RTVSPost2010Prop51ColorIndex
 90
      256
102
RTVSPost2010Prop51ColorRGB
 90
-16777216
102
RTVSPost2010PropOp51
 70
     0
102
RTVSPost2010Prop52
140
1.0
102
RTVSPost2010PropOp52
 70
     0
102
RTVSPost2010Prop53
 90
        2
102
RTVSPost2010PropOp53
 70
     1
102
RTVSPost2010Prop54
  1
strokes_ogs.tif
102
RTVSPost2010PropOp54
 70
     1
102
RTVSPost2010Prop55
280
     0
102
RTVSPost2010PropOp55
 70
     1
102
RTVSPost2010Prop56
140
1.0
102
RTVSPost2010PropOp56
 70
     1
102
RTVSPost2010Prop57
140
1.0
102
RTVSPost2010PropOp57
 70
     1
  0
XRECORD
  5
12E3
102
{ACAD_REACTORS
330
12E2
102
}
330
12E2
100
AcDbXrecord
280
     1
102
RTVSPropertyOp0
 70
     1
102
RTVSPropertyOp1
 70
     1
102
RTVSPropertyOp2
 70
     1
102
RTVSPropertyOp3
 70
     1
102
RTVSPropertyOp4
 70
     1
102
RTVSPropertyOp5
 70
     1
102
RTVSPropertyOp6
 70
     1
102
RTVSPropertyOp7
 70
     1
102
RTVSPropertyOp8
 70
     1
102
RTVSPropertyOp9
 70
     1
102
RTVSPropertyOp10
 70
     1
102
RTVSPropertyOp11
 70
     1
102
RTVSPropertyOp12
 70
     1
102
RTVSPropertyOp13
 70
     1
102
RTVSPropertyOp14
 70
     1
102
RTVSPropertyOp15
 70
     1
102
RTVSPropertyOp16
 70
     1
102
RTVSPropertyOp17
 70
     1
102
RTVSPropertyOp18
 70
     1
102
RTVSPropertyOp19
 70
     1
102
RTVSPropertyOp20
 70
     1
102
RTVSPropertyOp21
 70
     1
102
RTVSPropertyOp22
 70
     1
102
RTVSPropertyOp23
 70
     1
102
RTVSPropertyOp24
 70
     1
102
RTVSPropertyOp25
 70
     1
102
RTVSPropertyOp26
 70
     1
102
RTVSPropertyOp27
 70
     1
102
RTVSPropertyOp28
 70
     1
102
RTVSPropertyOp29
 70
     1
102
RTVSPropertyOp30
 70
     1
102
RTVSPropertyOp31
 70
     1
102
RTVSPropertyOp32
 70
     1
102
RTVSPropertyOp33
 70
     1
102
RTVSPropertyOp34
 70
     1
102
RTVSPropertyOp35
 70
     1
102
RTVSPropertyOp36
 70
     1
102
RTVSPropertyOp37
 70
     1
102
RTVSPropertyOp38
 70
     1
102
RTVSPropertyOp39
 70
     1
102
RTVSPropertyOp40
 70
     1
102
RTVSPropertyOp41
 70
     1
102
RTVSPropertyOp42
 70
     1
102
RTVSPropertyOp43
 70
     1
102
RTVSPropertyOp44
 70
     1
102
RTVSPropertyOp45
 70
     1
102
RTVSPropertyOp46
 70
     1
102
RTVSPropertyOp47
 70
     1
102
RTVSPropertyOp48
 70
     1
102
RTVSPropertyOp49
 70
     1
102
RTVSPropertyOp50
 70
     1
102
RTVSPropertyOp51
 70
     0
102
RTVSPropertyOp52
 70
     0
102
RTVSPropertyOp53
 70
     1
102
RTVSPropertyOp54
 70
     1
102
RTVSPropertyOp55
 70
     1
102
RTVSPropertyOp56
 70
     1
102
RTVSPropertyOp57
 70
     1
102
RTVSPost2010Prop28
280
     0
102
RTVSPost2010PropOp28
 70
     1
102
RTVSPost2010Prop29
280
     1
102
RTVSPost2010PropOp29
 70
     1
102
RTVSPost2010Prop30
280
     1
102
RTVSPost2010PropOp30
 70
     1
102
RTVSPost2010Prop31
280
     0
102
RTVSPost2010PropOp31
 70
     1
102
RTVSPost2010Prop32
280
     0
102
RTVSPost2010PropOp32
 70
     1
102
RTVSPost2010Prop33
280
     0
102
RTVSPost2010PropOp33
 70
     1
102
RTVSPost2010Prop34
280
     0
102
RTVSPost2010PropOp34
 70
     1
102
RTVSPost2010Prop35
280
     0
102
RTVSPost2010PropOp35
 70
     1
102
RTVSPost2010Prop36
280
     0
102
RTVSPost2010PropOp36
 70
     1
102
RTVSPost2010Prop37
 90
       50
102
RTVSPost2010PropOp37
 70
     1
102
RTVSPost2010Prop38
140
0.0
102
RTVSPost2010PropOp38
 70
     1
102
RTVSPost2010Prop39
140
1.0
102
RTVSPost2010PropOp39
 70
     1
102
RTVSPost2010Prop40
 90
        0
102
RTVSPost2010PropOp40
 70
     1
102
RTVSPost2010Prop41ColorIndex
 90
       18
102
RTVSPost2010Prop41ColorRGB
 90
        0
102
RTVSPost2010PropOp41
 70
     1
102
RTVSPost2010Prop42
 90
       50
102
RTVSPost2010PropOp42
 70
     1
102
RTVSPost2010Prop43
 90
        3
102
RTVSPost2010PropOp43
 70
     1
102
RTVSPost2010Prop44ColorIndex
 90
        5
102
RTVSPost2010Prop44ColorRGB
 90
      255
102
RTVSPost2010PropOp44
 70
     1
102
RTVSPost2010Prop45
280
     0
102
RTVSPost2010PropOp45
 70
     1
102
RTVSPost2010Prop46
 90
       50
102
RTVSPost2010PropOp46
 70
     1
102
RTVSPost2010Prop47
 90
       50
102
RTVSPost2010PropOp47
 70
     1
102
RTVSPost2010Prop48
 90
       50
102
RTVSPost2010PropOp48
 70
     1
102
RTVSPost2010Prop49
280
     0
102
RTVSPost2010PropOp49
 70
     1
102
RTVSPost2010Prop50
 90
       50
102
RTVSPost2010PropOp50
 70
     1
102
RTVSPost2010Prop51ColorIndex
 90
      256
102
RTVSPost2010Prop51ColorRGB
 90
-16777216
102
RTVSPost2010PropOp51
 70
     0
102
RTVSPost2010Prop52
140
1.0
102
RTVSPost2010PropOp52
 70
     0
102
RTVSPost2010Prop53
 90
        2
102
RTVSPost2010PropOp53
 70
     1
102
RTVSPost2010Prop54
  1
strokes_ogs.tif
102
RTVSPost2010PropOp54
 70
     1
102
RTVSPost2010Prop55
280
     0
102
RTVSPost2010PropOp55
 70
     1
102
RTVSPost2010Prop56
140
1.0
102
RTVSPost2010PropOp56
 70
     1
102
RTVSPost2010Prop57
140
1.0
102
RTVSPost2010PropOp57
 70
     1
  0
XRECORD
  5
12EB
102
{ACAD_REACTORS
330
12EA
102
}
330
12EA
100
AcDbXrecord
280
     1
102
RTVSPropertyOp0
 70
     1
102
RTVSPropertyOp1
 70
     1
102
RTVSPropertyOp2
 70
     1
102
RTVSPropertyOp3
 70
     1
102
RTVSPropertyOp4
 70
     1
102
RTVSPropertyOp5
 70
     1
102
RTVSPropertyOp6
 70
     1
102
RTVSPropertyOp7
 70
     1
102
RTVSPropertyOp8
 70
     1
102
RTVSPropertyOp9
 70
     1
102
RTVSPropertyOp10
 70
     1
102
RTVSPropertyOp11
 70
     1
102
RTVSPropertyOp12
 70
     1
102
RTVSPropertyOp13
 70
     1
102
RTVSPropertyOp14
 70
     1
102
RTVSPropertyOp15
 70
     1
102
RTVSPropertyOp16
 70
     1
102
RTVSPropertyOp17
 70
     1
102
RTVSPropertyOp18
 70
     1
102
RTVSPropertyOp19
 70
     1
102
RTVSPropertyOp20
 70
     1
102
RTVSPropertyOp21
 70
     1
102
RTVSPropertyOp22
 70
     1
102
RTVSPropertyOp23
 70
     1
102
RTVSPropertyOp24
 70
     1
102
RTVSPropertyOp25
 70
     1
102
RTVSPropertyOp26
 70
     1
102
RTVSPropertyOp27
 70
     1
102
RTVSPropertyOp28
 70
     1
102
RTVSPropertyOp29
 70
     1
102
RTVSPropertyOp30
 70
     1
102
RTVSPropertyOp31
 70
     1
102
RTVSPropertyOp32
 70
     1
102
RTVSPropertyOp33
 70
     1
102
RTVSPropertyOp34
 70
     1
102
RTVSPropertyOp35
 70
     1
102
RTVSPropertyOp36
 70
     1
102
RTVSPropertyOp37
 70
     1
102
RTVSPropertyOp38
 70
     1
102
RTVSPropertyOp39
 70
     1
102
RTVSPropertyOp40
 70
     1
102
RTVSPropertyOp41
 70
     1
102
RTVSPropertyOp42
 70
     1
102
RTVSPropertyOp43
 70
     1
102
RTVSPropertyOp44
 70
     1
102
RTVSPropertyOp45
 70
     1
102
RTVSPropertyOp46
 70
     1
102
RTVSPropertyOp47
 70
     1
102
RTVSPropertyOp48
 70
     1
102
RTVSPropertyOp49
 70
     1
102
RTVSPropertyOp50
 70
     1
102
RTVSPropertyOp51
 70
     0
102
RTVSPropertyOp52
 70
     0
102
RTVSPropertyOp53
 70
     1
102
RTVSPropertyOp54
 70
     1
102
RTVSPropertyOp55
 70
     1
102
RTVSPropertyOp56
 70
     1
102
RTVSPropertyOp57
 70
     1
102
RTVSPost2010Prop28
280
     0
102
RTVSPost2010PropOp28
 70
     1
102
RTVSPost2010Prop29
280
     1
102
RTVSPost2010PropOp29
 70
     1
102
RTVSPost2010Prop30
280
     1
102
RTVSPost2010PropOp30
 70
     1
102
RTVSPost2010Prop31
280
     0
102
RTVSPost2010PropOp31
 70
     1
102
RTVSPost2010Prop32
280
     0
102
RTVSPost2010PropOp32
 70
     1
102
RTVSPost2010Prop33
280
     0
102
RTVSPost2010PropOp33
 70
     1
102
RTVSPost2010Prop34
280
     0
102
RTVSPost2010PropOp34
 70
     1
102
RTVSPost2010Prop35
280
     0
102
RTVSPost2010PropOp35
 70
     1
102
RTVSPost2010Prop36
280
     0
102
RTVSPost2010PropOp36
 70
     1
102
RTVSPost2010Prop37
 90
       50
102
RTVSPost2010PropOp37
 70
     1
102
RTVSPost2010Prop38
140
0.0
102
RTVSPost2010PropOp38
 70
     1
102
RTVSPost2010Prop39
140
1.0
102
RTVSPost2010PropOp39
 70
     1
102
RTVSPost2010Prop40
 90
        0
102
RTVSPost2010PropOp40
 70
     1
102
RTVSPost2010Prop41ColorIndex
 90
       18
102
RTVSPost2010Prop41ColorRGB
 90
        0
102
RTVSPost2010PropOp41
 70
     1
102
RTVSPost2010Prop42
 90
       50
102
RTVSPost2010PropOp42
 70
     1
102
RTVSPost2010Prop43
 90
        3
102
RTVSPost2010PropOp43
 70
     1
102
RTVSPost2010Prop44ColorIndex
 90
        5
102
RTVSPost2010Prop44ColorRGB
 90
      255
102
RTVSPost2010PropOp44
 70
     1
102
RTVSPost2010Prop45
280
     0
102
RTVSPost2010PropOp45
 70
     1
102
RTVSPost2010Prop46
 90
       50
102
RTVSPost2010PropOp46
 70
     1
102
RTVSPost2010Prop47
 90
       50
102
RTVSPost2010PropOp47
 70
     1
102
RTVSPost2010Prop48
 90
       50
102
RTVSPost2010PropOp48
 70
     1
102
RTVSPost2010Prop49
280
     0
102
RTVSPost2010PropOp49
 70
     1
102
RTVSPost2010Prop50
 90
       50
102
RTVSPost2010PropOp50
 70
     1
102
RTVSPost2010Prop51ColorIndex
 90
      256
102
RTVSPost2010Prop51ColorRGB
 90
-16777216
102
RTVSPost2010PropOp51
 70
     0
102
RTVSPost2010Prop52
140
1.0
102
RTVSPost2010PropOp52
 70
     0
102
RTVSPost2010Prop53
 90
        2
102
RTVSPost2010PropOp53
 70
     1
102
RTVSPost2010Prop54
  1
strokes_ogs.tif
102
RTVSPost2010PropOp54
 70
     1
102
RTVSPost2010Prop55
280
     0
102
RTVSPost2010PropOp55
 70
     1
102
RTVSPost2010Prop56
140
1.0
102
RTVSPost2010PropOp56
 70
     1
102
RTVSPost2010Prop57
140
1.0
102
RTVSPost2010PropOp57
 70
     1
  0
XRECORD
  5
12F3
102
{ACAD_REACTORS
330
12F2
102
}
330
12F2
100
AcDbXrecord
280
     1
102
RTVSPropertyOp0
 70
     1
102
RTVSPropertyOp1
 70
     1
102
RTVSPropertyOp2
 70
     1
102
RTVSPropertyOp3
 70
     1
102
RTVSPropertyOp4
 70
     1
102
RTVSPropertyOp5
 70
     1
102
RTVSPropertyOp6
 70
     1
102
RTVSPropertyOp7
 70
     1
102
RTVSPropertyOp8
 70
     1
102
RTVSPropertyOp9
 70
     1
102
RTVSPropertyOp10
 70
     1
102
RTVSPropertyOp11
 70
     1
102
RTVSPropertyOp12
 70
     1
102
RTVSPropertyOp13
 70
     1
102
RTVSPropertyOp14
 70
     1
102
RTVSPropertyOp15
 70
     1
102
RTVSPropertyOp16
 70
     1
102
RTVSPropertyOp17
 70
     1
102
RTVSPropertyOp18
 70
     1
102
RTVSPropertyOp19
 70
     1
102
RTVSPropertyOp20
 70
     1
102
RTVSPropertyOp21
 70
     1
102
RTVSPropertyOp22
 70
     1
102
RTVSPropertyOp23
 70
     1
102
RTVSPropertyOp24
 70
     1
102
RTVSPropertyOp25
 70
     1
102
RTVSPropertyOp26
 70
     1
102
RTVSPropertyOp27
 70
     1
102
RTVSPropertyOp28
 70
     1
102
RTVSPropertyOp29
 70
     1
102
RTVSPropertyOp30
 70
     1
102
RTVSPropertyOp31
 70
     1
102
RTVSPropertyOp32
 70
     1
102
RTVSPropertyOp33
 70
     1
102
RTVSPropertyOp34
 70
     1
102
RTVSPropertyOp35
 70
     1
102
RTVSPropertyOp36
 70
     1
102
RTVSPropertyOp37
 70
     1
102
RTVSPropertyOp38
 70
     1
102
RTVSPropertyOp39
 70
     1
102
RTVSPropertyOp40
 70
     1
102
RTVSPropertyOp41
 70
     1
102
RTVSPropertyOp42
 70
     1
102
RTVSPropertyOp43
 70
     1
102
RTVSPropertyOp44
 70
     1
102
RTVSPropertyOp45
 70
     1
102
RTVSPropertyOp46
 70
     1
102
RTVSPropertyOp47
 70
     1
102
RTVSPropertyOp48
 70
     1
102
RTVSPropertyOp49
 70
     1
102
RTVSPropertyOp50
 70
     1
102
RTVSPropertyOp51
 70
     0
102
RTVSPropertyOp52
 70
     0
102
RTVSPropertyOp53
 70
     1
102
RTVSPropertyOp54
 70
     1
102
RTVSPropertyOp55
 70
     1
102
RTVSPropertyOp56
 70
     1
102
RTVSPropertyOp57
 70
     1
102
RTVSPost2010Prop28
280
     0
102
RTVSPost2010PropOp28
 70
     1
102
RTVSPost2010Prop29
280
     1
102
RTVSPost2010PropOp29
 70
     1
102
RTVSPost2010Prop30
280
     1
102
RTVSPost2010PropOp30
 70
     1
102
RTVSPost2010Prop31
280
     0
102
RTVSPost2010PropOp31
 70
     1
102
RTVSPost2010Prop32
280
     0
102
RTVSPost2010PropOp32
 70
     1
102
RTVSPost2010Prop33
280
     0
102
RTVSPost2010PropOp33
 70
     1
102
RTVSPost2010Prop34
280
     0
102
RTVSPost2010PropOp34
 70
     1
102
RTVSPost2010Prop35
280
     0
102
RTVSPost2010PropOp35
 70
     1
102
RTVSPost2010Prop36
280
     0
102
RTVSPost2010PropOp36
 70
     1
102
RTVSPost2010Prop37
 90
       50
102
RTVSPost2010PropOp37
 70
     1
102
RTVSPost2010Prop38
140
0.0
102
RTVSPost2010PropOp38
 70
     1
102
RTVSPost2010Prop39
140
1.0
102
RTVSPost2010PropOp39
 70
     1
102
RTVSPost2010Prop40
 90
        0
102
RTVSPost2010PropOp40
 70
     1
102
RTVSPost2010Prop41ColorIndex
 90
       18
102
RTVSPost2010Prop41ColorRGB
 90
        0
102
RTVSPost2010PropOp41
 70
     1
102
RTVSPost2010Prop42
 90
       50
102
RTVSPost2010PropOp42
 70
     1
102
RTVSPost2010Prop43
 90
        3
102
RTVSPost2010PropOp43
 70
     1
102
RTVSPost2010Prop44ColorIndex
 90
        5
102
RTVSPost2010Prop44ColorRGB
 90
      255
102
RTVSPost2010PropOp44
 70
     1
102
RTVSPost2010Prop45
280
     0
102
RTVSPost2010PropOp45
 70
     1
102
RTVSPost2010Prop46
 90
       50
102
RTVSPost2010PropOp46
 70
     1
102
RTVSPost2010Prop47
 90
       50
102
RTVSPost2010PropOp47
 70
     1
102
RTVSPost2010Prop48
 90
       50
102
RTVSPost2010PropOp48
 70
     1
102
RTVSPost2010Prop49
280
     0
102
RTVSPost2010PropOp49
 70
     1
102
RTVSPost2010Prop50
 90
       50
102
RTVSPost2010PropOp50
 70
     1
102
RTVSPost2010Prop51ColorIndex
 90
      256
102
RTVSPost2010Prop51ColorRGB
 90
-16777216
102
RTVSPost2010PropOp51
 70
     0
102
RTVSPost2010Prop52
140
1.0
102
RTVSPost2010PropOp52
 70
     0
102
RTVSPost2010Prop53
 90
        2
102
RTVSPost2010PropOp53
 70
     1
102
RTVSPost2010Prop54
  1
strokes_ogs.tif
102
RTVSPost2010PropOp54
 70
     1
102
RTVSPost2010Prop55
280
     0
102
RTVSPost2010PropOp55
 70
     1
102
RTVSPost2010Prop56
140
1.0
102
RTVSPost2010PropOp56
 70
     1
102
RTVSPost2010Prop57
140
1.0
102
RTVSPost2010PropOp57
 70
     1
  0
XRECORD
  5
12E7
102
{ACAD_REACTORS
330
12E6
102
}
330
12E6
100
AcDbXrecord
280
     1
102
RTVSPropertyOp0
 70
     1
102
RTVSPropertyOp1
 70
     1
102
RTVSPropertyOp2
 70
     1
102
RTVSPropertyOp3
 70
     1
102
RTVSPropertyOp4
 70
     1
102
RTVSPropertyOp5
 70
     1
102
RTVSPropertyOp6
 70
     1
102
RTVSPropertyOp7
 70
     1
102
RTVSPropertyOp8
 70
     1
102
RTVSPropertyOp9
 70
     1
102
RTVSPropertyOp10
 70
     1
102
RTVSPropertyOp11
 70
     1
102
RTVSPropertyOp12
 70
     1
102
RTVSPropertyOp13
 70
     1
102
RTVSPropertyOp14
 70
     1
102
RTVSPropertyOp15
 70
     1
102
RTVSPropertyOp16
 70
     1
102
RTVSPropertyOp17
 70
     1
102
RTVSPropertyOp18
 70
     1
102
RTVSPropertyOp19
 70
     1
102
RTVSPropertyOp20
 70
     1
102
RTVSPropertyOp21
 70
     1
102
RTVSPropertyOp22
 70
     1
102
RTVSPropertyOp23
 70
     1
102
RTVSPropertyOp24
 70
     1
102
RTVSPropertyOp25
 70
     1
102
RTVSPropertyOp26
 70
     1
102
RTVSPropertyOp27
 70
     1
102
RTVSPropertyOp28
 70
     1
102
RTVSPropertyOp29
 70
     1
102
RTVSPropertyOp30
 70
     1
102
RTVSPropertyOp31
 70
     1
102
RTVSPropertyOp32
 70
     1
102
RTVSPropertyOp33
 70
     1
102
RTVSPropertyOp34
 70
     1
102
RTVSPropertyOp35
 70
     1
102
RTVSPropertyOp36
 70
     1
102
RTVSPropertyOp37
 70
     1
102
RTVSPropertyOp38
 70
     1
102
RTVSPropertyOp39
 70
     1
102
RTVSPropertyOp40
 70
     1
102
RTVSPropertyOp41
 70
     1
102
RTVSPropertyOp42
 70
     1
102
RTVSPropertyOp43
 70
     1
102
RTVSPropertyOp44
 70
     1
102
RTVSPropertyOp45
 70
     1
102
RTVSPropertyOp46
 70
     1
102
RTVSPropertyOp47
 70
     1
102
RTVSPropertyOp48
 70
     1
102
RTVSPropertyOp49
 70
     1
102
RTVSPropertyOp50
 70
     1
102
RTVSPropertyOp51
 70
     0
102
RTVSPropertyOp52
 70
     0
102
RTVSPropertyOp53
 70
     1
102
RTVSPropertyOp54
 70
     1
102
RTVSPropertyOp55
 70
     1
102
RTVSPropertyOp56
 70
     1
102
RTVSPropertyOp57
 70
     1
102
RTVSPost2010Prop28
280
     0
102
RTVSPost2010PropOp28
 70
     1
102
RTVSPost2010Prop29
280
     1
102
RTVSPost2010PropOp29
 70
     1
102
RTVSPost2010Prop30
280
     1
102
RTVSPost2010PropOp30
 70
     1
102
RTVSPost2010Prop31
280
     0
102
RTVSPost2010PropOp31
 70
     1
102
RTVSPost2010Prop32
280
     0
102
RTVSPost2010PropOp32
 70
     1
102
RTVSPost2010Prop33
280
     0
102
RTVSPost2010PropOp33
 70
     1
102
RTVSPost2010Prop34
280
     0
102
RTVSPost2010PropOp34
 70
     1
102
RTVSPost2010Prop35
280
     0
102
RTVSPost2010PropOp35
 70
     1
102
RTVSPost2010Prop36
280
     0
102
RTVSPost2010PropOp36
 70
     1
102
RTVSPost2010Prop37
 90
       50
102
RTVSPost2010PropOp37
 70
     1
102
RTVSPost2010Prop38
140
0.0
102
RTVSPost2010PropOp38
 70
     1
102
RTVSPost2010Prop39
140
1.0
102
RTVSPost2010PropOp39
 70
     1
102
RTVSPost2010Prop40
 90
        0
102
RTVSPost2010PropOp40
 70
     1
102
RTVSPost2010Prop41ColorIndex
 90
       18
102
RTVSPost2010Prop41ColorRGB
 90
        0
102
RTVSPost2010PropOp41
 70
     1
102
RTVSPost2010Prop42
 90
       50
102
RTVSPost2010PropOp42
 70
     1
102
RTVSPost2010Prop43
 90
        3
102
RTVSPost2010PropOp43
 70
     1
102
RTVSPost2010Prop44ColorIndex
 90
        5
102
RTVSPost2010Prop44ColorRGB
 90
      255
102
RTVSPost2010PropOp44
 70
     1
102
RTVSPost2010Prop45
280
     0
102
RTVSPost2010PropOp45
 70
     1
102
RTVSPost2010Prop46
 90
       50
102
RTVSPost2010PropOp46
 70
     1
102
RTVSPost2010Prop47
 90
       50
102
RTVSPost2010PropOp47
 70
     1
102
RTVSPost2010Prop48
 90
       50
102
RTVSPost2010PropOp48
 70
     1
102
RTVSPost2010Prop49
280
     0
102
RTVSPost2010PropOp49
 70
     1
102
RTVSPost2010Prop50
 90
       50
102
RTVSPost2010PropOp50
 70
     1
102
RTVSPost2010Prop51ColorIndex
 90
      256
102
RTVSPost2010Prop51ColorRGB
 90
-16777216
102
RTVSPost2010PropOp51
 70
     0
102
RTVSPost2010Prop52
140
1.0
102
RTVSPost2010PropOp52
 70
     0
102
RTVSPost2010Prop53
 90
        2
102
RTVSPost2010PropOp53
 70
     1
102
RTVSPost2010Prop54
  1
strokes_ogs.tif
102
RTVSPost2010PropOp54
 70
     1
102
RTVSPost2010Prop55
280
     0
102
RTVSPost2010PropOp55
 70
     1
102
RTVSPost2010Prop56
140
1.0
102
RTVSPost2010PropOp56
 70
     1
102
RTVSPost2010Prop57
140
1.0
102
RTVSPost2010PropOp57
 70
     1
  0
XRECORD
  5
12E9
102
{ACAD_REACTORS
330
12E8
102
}
330
12E8
100
AcDbXrecord
280
     1
102
RTVSPropertyOp0
 70
     1
102
RTVSPropertyOp1
 70
     1
102
RTVSPropertyOp2
 70
     1
102
RTVSPropertyOp3
 70
     1
102
RTVSPropertyOp4
 70
     1
102
RTVSPropertyOp5
 70
     1
102
RTVSPropertyOp6
 70
     1
102
RTVSPropertyOp7
 70
     1
102
RTVSPropertyOp8
 70
     1
102
RTVSPropertyOp9
 70
     1
102
RTVSPropertyOp10
 70
     1
102
RTVSPropertyOp11
 70
     1
102
RTVSPropertyOp12
 70
     1
102
RTVSPropertyOp13
 70
     1
102
RTVSPropertyOp14
 70
     1
102
RTVSPropertyOp15
 70
     1
102
RTVSPropertyOp16
 70
     1
102
RTVSPropertyOp17
 70
     1
102
RTVSPropertyOp18
 70
     1
102
RTVSPropertyOp19
 70
     1
102
RTVSPropertyOp20
 70
     1
102
RTVSPropertyOp21
 70
     1
102
RTVSPropertyOp22
 70
     1
102
RTVSPropertyOp23
 70
     1
102
RTVSPropertyOp24
 70
     1
102
RTVSPropertyOp25
 70
     1
102
RTVSPropertyOp26
 70
     1
102
RTVSPropertyOp27
 70
     1
102
RTVSPropertyOp28
 70
     1
102
RTVSPropertyOp29
 70
     1
102
RTVSPropertyOp30
 70
     1
102
RTVSPropertyOp31
 70
     1
102
RTVSPropertyOp32
 70
     1
102
RTVSPropertyOp33
 70
     1
102
RTVSPropertyOp34
 70
     1
102
RTVSPropertyOp35
 70
     1
102
RTVSPropertyOp36
 70
     1
102
RTVSPropertyOp37
 70
     1
102
RTVSPropertyOp38
 70
     1
102
RTVSPropertyOp39
 70
     1
102
RTVSPropertyOp40
 70
     1
102
RTVSPropertyOp41
 70
     1
102
RTVSPropertyOp42
 70
     1
102
RTVSPropertyOp43
 70
     1
102
RTVSPropertyOp44
 70
     1
102
RTVSPropertyOp45
 70
     1
102
RTVSPropertyOp46
 70
     1
102
RTVSPropertyOp47
 70
     1
102
RTVSPropertyOp48
 70
     1
102
RTVSPropertyOp49
 70
     1
102
RTVSPropertyOp50
 70
     1
102
RTVSPropertyOp51
 70
     0
102
RTVSPropertyOp52
 70
     0
102
RTVSPropertyOp53
 70
     1
102
RTVSPropertyOp54
 70
     1
102
RTVSPropertyOp55
 70
     1
102
RTVSPropertyOp56
 70
     1
102
RTVSPropertyOp57
 70
     1
102
RTVSPost2010Prop28
280
     0
102
RTVSPost2010PropOp28
 70
     1
102
RTVSPost2010Prop29
280
     1
102
RTVSPost2010PropOp29
 70
     1
102
RTVSPost2010Prop30
280
     1
102
RTVSPost2010PropOp30
 70
     1
102
RTVSPost2010Prop31
280
     0
102
RTVSPost2010PropOp31
 70
     1
102
RTVSPost2010Prop32
280
     0
102
RTVSPost2010PropOp32
 70
     1
102
RTVSPost2010Prop33
280
     0
102
RTVSPost2010PropOp33
 70
     1
102
RTVSPost2010Prop34
280
     0
102
RTVSPost2010PropOp34
 70
     1
102
RTVSPost2010Prop35
280
     0
102
RTVSPost2010PropOp35
 70
     1
102
RTVSPost2010Prop36
280
     0
102
RTVSPost2010PropOp36
 70
     1
102
RTVSPost2010Prop37
 90
       50
102
RTVSPost2010PropOp37
 70
     1
102
RTVSPost2010Prop38
140
0.0
102
RTVSPost2010PropOp38
 70
     1
102
RTVSPost2010Prop39
140
1.0
102
RTVSPost2010PropOp39
 70
     1
102
RTVSPost2010Prop40
 90
        0
102
RTVSPost2010PropOp40
 70
     1
102
RTVSPost2010Prop41ColorIndex
 90
       18
102
RTVSPost2010Prop41ColorRGB
 90
        0
102
RTVSPost2010PropOp41
 70
     1
102
RTVSPost2010Prop42
 90
       50
102
RTVSPost2010PropOp42
 70
     1
102
RTVSPost2010Prop43
 90
        3
102
RTVSPost2010PropOp43
 70
     1
102
RTVSPost2010Prop44ColorIndex
 90
        5
102
RTVSPost2010Prop44ColorRGB
 90
      255
102
RTVSPost2010PropOp44
 70
     1
102
RTVSPost2010Prop45
280
     0
102
RTVSPost2010PropOp45
 70
     1
102
RTVSPost2010Prop46
 90
       50
102
RTVSPost2010PropOp46
 70
     1
102
RTVSPost2010Prop47
 90
       50
102
RTVSPost2010PropOp47
 70
     1
102
RTVSPost2010Prop48
 90
       50
102
RTVSPost2010PropOp48
 70
     1
102
RTVSPost2010Prop49
280
     0
102
RTVSPost2010PropOp49
 70
     1
102
RTVSPost2010Prop50
 90
       50
102
RTVSPost2010PropOp50
 70
     1
102
RTVSPost2010Prop51ColorIndex
 90
      256
102
RTVSPost2010Prop51ColorRGB
 90
-16777216
102
RTVSPost2010PropOp51
 70
     0
102
RTVSPost2010Prop52
140
1.0
102
RTVSPost2010PropOp52
 70
     0
102
RTVSPost2010Prop53
 90
        2
102
RTVSPost2010PropOp53
 70
     1
102
RTVSPost2010Prop54
  1
strokes_ogs.tif
102
RTVSPost2010PropOp54
 70
     1
102
RTVSPost2010Prop55
280
     0
102
RTVSPost2010PropOp55
 70
     1
102
RTVSPost2010Prop56
140
1.0
102
RTVSPost2010PropOp56
 70
     1
102
RTVSPost2010Prop57
140
1.0
102
RTVSPost2010PropOp57
 70
     1
  0
XRECORD
  5
12F9
102
{ACAD_REACTORS
330
12F8
102
}
330
12F8
100
AcDbXrecord
280
     1
102
RTVSPropertyOp0
 70
     0
102
RTVSPropertyOp1
 70
     0
102
RTVSPropertyOp2
 70
     0
102
RTVSPropertyOp3
 70
     0
102
RTVSPropertyOp4
 70
     0
102
RTVSPropertyOp5
 70
     0
102
RTVSPropertyOp6
 70
     0
102
RTVSPropertyOp7
 70
     0
102
RTVSPropertyOp8
 70
     0
102
RTVSPropertyOp9
 70
     0
102
RTVSPropertyOp10
 70
     0
102
RTVSPropertyOp11
 70
     0
102
RTVSPropertyOp12
 70
     0
102
RTVSPropertyOp13
 70
     0
102
RTVSPropertyOp14
 70
     2
102
RTVSPropertyOp15
 70
     0
102
RTVSPropertyOp16
 70
     0
102
RTVSPropertyOp17
 70
     0
102
RTVSPropertyOp18
 70
     0
102
RTVSPropertyOp19
 70
     0
102
RTVSPropertyOp20
 70
     0
102
RTVSPropertyOp21
 70
     0
102
RTVSPropertyOp22
 70
     0
102
RTVSPropertyOp23
 70
     0
102
RTVSPropertyOp24
 70
     0
102
RTVSPropertyOp25
 70
     0
102
RTVSPropertyOp26
 70
     0
102
RTVSPropertyOp27
 70
     0
102
RTVSPropertyOp28
 70
     0
102
RTVSPropertyOp29
 70
     0
102
RTVSPropertyOp30
 70
     0
102
RTVSPropertyOp31
 70
     0
102
RTVSPropertyOp32
 70
     0
102
RTVSPropertyOp33
 70
     0
102
RTVSPropertyOp34
 70
     0
102
RTVSPropertyOp35
 70
     0
102
RTVSPropertyOp36
 70
     0
102
RTVSPropertyOp37
 70
     0
102
RTVSPropertyOp38
 70
     0
102
RTVSPropertyOp39
 70
     0
102
RTVSPropertyOp40
 70
     0
102
RTVSPropertyOp41
 70
     0
102
RTVSPropertyOp42
 70
     0
102
RTVSPropertyOp43
 70
     0
102
RTVSPropertyOp44
 70
     0
102
RTVSPropertyOp45
 70
     0
102
RTVSPropertyOp46
 70
     0
102
RTVSPropertyOp47
 70
     0
102
RTVSPropertyOp48
 70
     0
102
RTVSPropertyOp49
 70
     0
102
RTVSPropertyOp50
 70
     0
102
RTVSPropertyOp51
 70
     0
102
RTVSPropertyOp52
 70
     0
102
RTVSPropertyOp53
 70
     0
102
RTVSPropertyOp54
 70
     0
102
RTVSPropertyOp55
 70
     0
102
RTVSPropertyOp56
 70
     0
102
RTVSPropertyOp57
 70
     0
102
RTVSPost2010Prop28
280
     0
102
RTVSPost2010PropOp28
 70
     0
102
RTVSPost2010Prop29
280
     1
102
RTVSPost2010PropOp29
 70
     0
102
RTVSPost2010Prop30
280
     1
102
RTVSPost2010PropOp30
 70
     0
102
RTVSPost2010Prop31
280
     0
102
RTVSPost2010PropOp31
 70
     0
102
RTVSPost2010Prop32
280
     0
102
RTVSPost2010PropOp32
 70
     0
102
RTVSPost2010Prop33
280
     0
102
RTVSPost2010PropOp33
 70
     0
102
RTVSPost2010Prop34
280
     0
102
RTVSPost2010PropOp34
 70
     0
102
RTVSPost2010Prop35
280
     0
102
RTVSPost2010PropOp35
 70
     0
102
RTVSPost2010Prop36
280
     0
102
RTVSPost2010PropOp36
 70
     0
102
RTVSPost2010Prop37
 90
       50
102
RTVSPost2010PropOp37
 70
     0
102
RTVSPost2010Prop38
140
0.0
102
RTVSPost2010PropOp38
 70
     0
102
RTVSPost2010Prop39
140
1.0
102
RTVSPost2010PropOp39
 70
     0
102
RTVSPost2010Prop40
 90
        0
102
RTVSPost2010PropOp40
 70
     0
102
RTVSPost2010Prop41ColorIndex
 90
       18
102
RTVSPost2010Prop41ColorRGB
 90
        0
102
RTVSPost2010PropOp41
 70
     0
102
RTVSPost2010Prop42
 90
       50
102
RTVSPost2010PropOp42
 70
     0
102
RTVSPost2010Prop43
 90
        3
102
RTVSPost2010PropOp43
 70
     0
102
RTVSPost2010Prop44ColorIndex
 90
        5
102
RTVSPost2010Prop44ColorRGB
 90
      255
102
RTVSPost2010PropOp44
 70
     0
102
RTVSPost2010Prop45
280
     0
102
RTVSPost2010PropOp45
 70
     0
102
RTVSPost2010Prop46
 90
       50
102
RTVSPost2010PropOp46
 70
     0
102
RTVSPost2010Prop47
 90
       50
102
RTVSPost2010PropOp47
 70
     0
102
RTVSPost2010Prop48
 90
       50
102
RTVSPost2010PropOp48
 70
     0
102
RTVSPost2010Prop49
280
     0
102
RTVSPost2010PropOp49
 70
     0
102
RTVSPost2010Prop50
 90
       50
102
RTVSPost2010PropOp50
 70
     0
102
RTVSPost2010Prop51ColorIndex
 90
      256
102
RTVSPost2010Prop51ColorRGB
 90
-16777216
102
RTVSPost2010PropOp51
 70
     0
102
RTVSPost2010Prop52
140
1.0
102
RTVSPost2010PropOp52
 70
     0
102
RTVSPost2010Prop53
 90
        2
102
RTVSPost2010PropOp53
 70
     0
102
RTVSPost2010Prop54
  1
strokes_ogs.tif
102
RTVSPost2010PropOp54
 70
     0
102
RTVSPost2010Prop55
280
     0
102
RTVSPost2010PropOp55
 70
     0
102
RTVSPost2010Prop56
140
1.0
102
RTVSPost2010PropOp56
 70
     0
102
RTVSPost2010Prop57
140
1.0
102
RTVSPost2010PropOp57
 70
     0
  0
XRECORD
  5
12F1
102
{ACAD_REACTORS
330
12F0
102
}
330
12F0
100
AcDbXrecord
280
     1
102
RTVSPropertyOp0
 70
     1
102
RTVSPropertyOp1
 70
     1
102
RTVSPropertyOp2
 70
     1
102
RTVSPropertyOp3
 70
     1
102
RTVSPropertyOp4
 70
     1
102
RTVSPropertyOp5
 70
     1
102
RTVSPropertyOp6
 70
     1
102
RTVSPropertyOp7
 70
     1
102
RTVSPropertyOp8
 70
     1
102
RTVSPropertyOp9
 70
     1
102
RTVSPropertyOp10
 70
     1
102
RTVSPropertyOp11
 70
     1
102
RTVSPropertyOp12
 70
     1
102
RTVSPropertyOp13
 70
     1
102
RTVSPropertyOp14
 70
     1
102
RTVSPropertyOp15
 70
     1
102
RTVSPropertyOp16
 70
     1
102
RTVSPropertyOp17
 70
     1
102
RTVSPropertyOp18
 70
     1
102
RTVSPropertyOp19
 70
     1
102
RTVSPropertyOp20
 70
     1
102
RTVSPropertyOp21
 70
     1
102
RTVSPropertyOp22
 70
     1
102
RTVSPropertyOp23
 70
     1
102
RTVSPropertyOp24
 70
     1
102
RTVSPropertyOp25
 70
     1
102
RTVSPropertyOp26
 70
     1
102
RTVSPropertyOp27
 70
     1
102
RTVSPropertyOp28
 70
     1
102
RTVSPropertyOp29
 70
     1
102
RTVSPropertyOp30
 70
     1
102
RTVSPropertyOp31
 70
     1
102
RTVSPropertyOp32
 70
     1
102
RTVSPropertyOp33
 70
     1
102
RTVSPropertyOp34
 70
     1
102
RTVSPropertyOp35
 70
     1
102
RTVSPropertyOp36
 70
     1
102
RTVSPropertyOp37
 70
     1
102
RTVSPropertyOp38
 70
     1
102
RTVSPropertyOp39
 70
     1
102
RTVSPropertyOp40
 70
     1
102
RTVSPropertyOp41
 70
     1
102
RTVSPropertyOp42
 70
     1
102
RTVSPropertyOp43
 70
     1
102
RTVSPropertyOp44
 70
     1
102
RTVSPropertyOp45
 70
     1
102
RTVSPropertyOp46
 70
     1
102
RTVSPropertyOp47
 70
     1
102
RTVSPropertyOp48
 70
     1
102
RTVSPropertyOp49
 70
     1
102
RTVSPropertyOp50
 70
     1
102
RTVSPropertyOp51
 70
     0
102
RTVSPropertyOp52
 70
     0
102
RTVSPropertyOp53
 70
     1
102
RTVSPropertyOp54
 70
     1
102
RTVSPropertyOp55
 70
     1
102
RTVSPropertyOp56
 70
     1
102
RTVSPropertyOp57
 70
     1
102
RTVSPost2010Prop28
280
     0
102
RTVSPost2010PropOp28
 70
     1
102
RTVSPost2010Prop29
280
     1
102
RTVSPost2010PropOp29
 70
     1
102
RTVSPost2010Prop30
280
     1
102
RTVSPost2010PropOp30
 70
     1
102
RTVSPost2010Prop31
280
     0
102
RTVSPost2010PropOp31
 70
     1
102
RTVSPost2010Prop32
280
     0
102
RTVSPost2010PropOp32
 70
     1
102
RTVSPost2010Prop33
280
     0
102
RTVSPost2010PropOp33
 70
     1
102
RTVSPost2010Prop34
280
     0
102
RTVSPost2010PropOp34
 70
     1
102
RTVSPost2010Prop35
280
     0
102
RTVSPost2010PropOp35
 70
     1
102
RTVSPost2010Prop36
280
     0
102
RTVSPost2010PropOp36
 70
     1
102
RTVSPost2010Prop37
 90
       50
102
RTVSPost2010PropOp37
 70
     1
102
RTVSPost2010Prop38
140
0.0
102
RTVSPost2010PropOp38
 70
     1
102
RTVSPost2010Prop39
140
1.0
102
RTVSPost2010PropOp39
 70
     1
102
RTVSPost2010Prop40
 90
        0
102
RTVSPost2010PropOp40
 70
     1
102
RTVSPost2010Prop41ColorIndex
 90
       18
102
RTVSPost2010Prop41ColorRGB
 90
        0
102
RTVSPost2010PropOp41
 70
     1
102
RTVSPost2010Prop42
 90
       50
102
RTVSPost2010PropOp42
 70
     1
102
RTVSPost2010Prop43
 90
        3
102
RTVSPost2010PropOp43
 70
     1
102
RTVSPost2010Prop44ColorIndex
 90
        5
102
RTVSPost2010Prop44ColorRGB
 90
      255
102
RTVSPost2010PropOp44
 70
     1
102
RTVSPost2010Prop45
280
     0
102
RTVSPost2010PropOp45
 70
     1
102
RTVSPost2010Prop46
 90
       50
102
RTVSPost2010PropOp46
 70
     1
102
RTVSPost2010Prop47
 90
       50
102
RTVSPost2010PropOp47
 70
     1
102
RTVSPost2010Prop48
 90
       50
102
RTVSPost2010PropOp48
 70
     1
102
RTVSPost2010Prop49
280
     0
102
RTVSPost2010PropOp49
 70
     1
102
RTVSPost2010Prop50
 90
       50
102
RTVSPost2010PropOp50
 70
     1
102
RTVSPost2010Prop51ColorIndex
 90
      256
102
RTVSPost2010Prop51ColorRGB
 90
-16777216
102
RTVSPost2010PropOp51
 70
     0
102
RTVSPost2010Prop52
140
1.0
102
RTVSPost2010PropOp52
 70
     0
102
RTVSPost2010Prop53
 90
        2
102
RTVSPost2010PropOp53
 70
     1
102
RTVSPost2010Prop54
  1
strokes_ogs.tif
102
RTVSPost2010PropOp54
 70
     1
102
RTVSPost2010Prop55
280
     0
102
RTVSPost2010PropOp55
 70
     1
102
RTVSPost2010Prop56
140
1.0
102
RTVSPost2010PropOp56
 70
     1
102
RTVSPost2010Prop57
140
1.0
102
RTVSPost2010PropOp57
 70
     1
  0
XRECORD
  5
12D5
102
{ACAD_REACTORS
330
12D4
102
}
330
12D4
100
AcDbXrecord
280
     1
102
RTVSPropertyOp0
 70
     1
102
RTVSPropertyOp1
 70
     1
102
RTVSPropertyOp2
 70
     1
102
RTVSPropertyOp3
 70
     1
102
RTVSPropertyOp4
 70
     1
102
RTVSPropertyOp5
 70
     1
102
RTVSPropertyOp6
 70
     1
102
RTVSPropertyOp7
 70
     1
102
RTVSPropertyOp8
 70
     1
102
RTVSPropertyOp9
 70
     1
102
RTVSPropertyOp10
 70
     1
102
RTVSPropertyOp11
 70
     1
102
RTVSPropertyOp12
 70
     1
102
RTVSPropertyOp13
 70
     1
102
RTVSPropertyOp14
 70
     1
102
RTVSPropertyOp15
 70
     1
102
RTVSPropertyOp16
 70
     1
102
RTVSPropertyOp17
 70
     1
102
RTVSPropertyOp18
 70
     1
102
RTVSPropertyOp19
 70
     1
102
RTVSPropertyOp20
 70
     1
102
RTVSPropertyOp21
 70
     1
102
RTVSPropertyOp22
 70
     1
102
RTVSPropertyOp23
 70
     1
102
RTVSPropertyOp24
 70
     1
102
RTVSPropertyOp25
 70
     1
102
RTVSPropertyOp26
 70
     1
102
RTVSPropertyOp27
 70
     1
102
RTVSPropertyOp28
 70
     1
102
RTVSPropertyOp29
 70
     1
102
RTVSPropertyOp30
 70
     1
102
RTVSPropertyOp31
 70
     1
102
RTVSPropertyOp32
 70
     1
102
RTVSPropertyOp33
 70
     1
102
RTVSPropertyOp34
 70
     1
102
RTVSPropertyOp35
 70
     1
102
RTVSPropertyOp36
 70
     1
102
RTVSPropertyOp37
 70
     1
102
RTVSPropertyOp38
 70
     1
102
RTVSPropertyOp39
 70
     1
102
RTVSPropertyOp40
 70
     1
102
RTVSPropertyOp41
 70
     1
102
RTVSPropertyOp42
 70
     1
102
RTVSPropertyOp43
 70
     1
102
RTVSPropertyOp44
 70
     1
102
RTVSPropertyOp45
 70
     1
102
RTVSPropertyOp46
 70
     1
102
RTVSPropertyOp47
 70
     1
102
RTVSPropertyOp48
 70
     1
102
RTVSPropertyOp49
 70
     1
102
RTVSPropertyOp50
 70
     1
102
RTVSPropertyOp51
 70
     0
102
RTVSPropertyOp52
 70
     0
102
RTVSPropertyOp53
 70
     1
102
RTVSPropertyOp54
 70
     1
102
RTVSPropertyOp55
 70
     1
102
RTVSPropertyOp56
 70
     1
102
RTVSPropertyOp57
 70
     1
102
RTVSPost2010Prop28
280
     0
102
RTVSPost2010PropOp28
 70
     1
102
RTVSPost2010Prop29
280
     1
102
RTVSPost2010PropOp29
 70
     1
102
RTVSPost2010Prop30
280
     1
102
RTVSPost2010PropOp30
 70
     1
102
RTVSPost2010Prop31
280
     0
102
RTVSPost2010PropOp31
 70
     1
102
RTVSPost2010Prop32
280
     0
102
RTVSPost2010PropOp32
 70
     1
102
RTVSPost2010Prop33
280
     0
102
RTVSPost2010PropOp33
 70
     1
102
RTVSPost2010Prop34
280
     0
102
RTVSPost2010PropOp34
 70
     1
102
RTVSPost2010Prop35
280
     0
102
RTVSPost2010PropOp35
 70
     1
102
RTVSPost2010Prop36
280
     0
102
RTVSPost2010PropOp36
 70
     1
102
RTVSPost2010Prop37
 90
       50
102
RTVSPost2010PropOp37
 70
     1
102
RTVSPost2010Prop38
140
0.0
102
RTVSPost2010PropOp38
 70
     1
102
RTVSPost2010Prop39
140
1.0
102
RTVSPost2010PropOp39
 70
     1
102
RTVSPost2010Prop40
 90
        0
102
RTVSPost2010PropOp40
 70
     1
102
RTVSPost2010Prop41ColorIndex
 90
       18
102
RTVSPost2010Prop41ColorRGB
 90
        0
102
RTVSPost2010PropOp41
 70
     1
102
RTVSPost2010Prop42
 90
       50
102
RTVSPost2010PropOp42
 70
     1
102
RTVSPost2010Prop43
 90
        3
102
RTVSPost2010PropOp43
 70
     1
102
RTVSPost2010Prop44ColorIndex
 90
        5
102
RTVSPost2010Prop44ColorRGB
 90
      255
102
RTVSPost2010PropOp44
 70
     1
102
RTVSPost2010Prop45
280
     0
102
RTVSPost2010PropOp45
 70
     1
102
RTVSPost2010Prop46
 90
       50
102
RTVSPost2010PropOp46
 70
     1
102
RTVSPost2010Prop47
 90
       50
102
RTVSPost2010PropOp47
 70
     1
102
RTVSPost2010Prop48
 90
       50
102
RTVSPost2010PropOp48
 70
     1
102
RTVSPost2010Prop49
280
     0
102
RTVSPost2010PropOp49
 70
     1
102
RTVSPost2010Prop50
 90
       50
102
RTVSPost2010PropOp50
 70
     1
102
RTVSPost2010Prop51ColorIndex
 90
      256
102
RTVSPost2010Prop51ColorRGB
 90
-16777216
102
RTVSPost2010PropOp51
 70
     0
102
RTVSPost2010Prop52
140
1.0
102
RTVSPost2010PropOp52
 70
     0
102
RTVSPost2010Prop53
 90
        2
102
RTVSPost2010PropOp53
 70
     1
102
RTVSPost2010Prop54
  1
strokes_ogs.tif
102
RTVSPost2010PropOp54
 70
     1
102
RTVSPost2010Prop55
280
     0
102
RTVSPost2010PropOp55
 70
     1
102
RTVSPost2010Prop56
140
1.0
102
RTVSPost2010PropOp56
 70
     1
102
RTVSPost2010Prop57
140
1.0
102
RTVSPost2010PropOp57
 70
     1
  0
XRECORD
  5
12D7
102
{ACAD_REACTORS
330
12D6
102
}
330
12D6
100
AcDbXrecord
280
     1
102
RTVSPropertyOp0
 70
     1
102
RTVSPropertyOp1
 70
     1
102
RTVSPropertyOp2
 70
     1
102
RTVSPropertyOp3
 70
     1
102
RTVSPropertyOp4
 70
     1
102
RTVSPropertyOp5
 70
     1
102
RTVSPropertyOp6
 70
     1
102
RTVSPropertyOp7
 70
     1
102
RTVSPropertyOp8
 70
     1
102
RTVSPropertyOp9
 70
     1
102
RTVSPropertyOp10
 70
     1
102
RTVSPropertyOp11
 70
     1
102
RTVSPropertyOp12
 70
     1
102
RTVSPropertyOp13
 70
     1
102
RTVSPropertyOp14
 70
     1
102
RTVSPropertyOp15
 70
     1
102
RTVSPropertyOp16
 70
     1
102
RTVSPropertyOp17
 70
     1
102
RTVSPropertyOp18
 70
     1
102
RTVSPropertyOp19
 70
     1
102
RTVSPropertyOp20
 70
     1
102
RTVSPropertyOp21
 70
     1
102
RTVSPropertyOp22
 70
     1
102
RTVSPropertyOp23
 70
     1
102
RTVSPropertyOp24
 70
     1
102
RTVSPropertyOp25
 70
     1
102
RTVSPropertyOp26
 70
     1
102
RTVSPropertyOp27
 70
     1
102
RTVSPropertyOp28
 70
     1
102
RTVSPropertyOp29
 70
     1
102
RTVSPropertyOp30
 70
     1
102
RTVSPropertyOp31
 70
     1
102
RTVSPropertyOp32
 70
     1
102
RTVSPropertyOp33
 70
     1
102
RTVSPropertyOp34
 70
     1
102
RTVSPropertyOp35
 70
     1
102
RTVSPropertyOp36
 70
     1
102
RTVSPropertyOp37
 70
     1
102
RTVSPropertyOp38
 70
     1
102
RTVSPropertyOp39
 70
     1
102
RTVSPropertyOp40
 70
     1
102
RTVSPropertyOp41
 70
     1
102
RTVSPropertyOp42
 70
     1
102
RTVSPropertyOp43
 70
     1
102
RTVSPropertyOp44
 70
     1
102
RTVSPropertyOp45
 70
     1
102
RTVSPropertyOp46
 70
     1
102
RTVSPropertyOp47
 70
     1
102
RTVSPropertyOp48
 70
     1
102
RTVSPropertyOp49
 70
     1
102
RTVSPropertyOp50
 70
     1
102
RTVSPropertyOp51
 70
     0
102
RTVSPropertyOp52
 70
     0
102
RTVSPropertyOp53
 70
     1
102
RTVSPropertyOp54
 70
     1
102
RTVSPropertyOp55
 70
     1
102
RTVSPropertyOp56
 70
     1
102
RTVSPropertyOp57
 70
     1
102
RTVSPost2010Prop28
280
     0
102
RTVSPost2010PropOp28
 70
     1
102
RTVSPost2010Prop29
280
     1
102
RTVSPost2010PropOp29
 70
     1
102
RTVSPost2010Prop30
280
     1
102
RTVSPost2010PropOp30
 70
     1
102
RTVSPost2010Prop31
280
     0
102
RTVSPost2010PropOp31
 70
     1
102
RTVSPost2010Prop32
280
     0
102
RTVSPost2010PropOp32
 70
     1
102
RTVSPost2010Prop33
280
     0
102
RTVSPost2010PropOp33
 70
     1
102
RTVSPost2010Prop34
280
     0
102
RTVSPost2010PropOp34
 70
     1
102
RTVSPost2010Prop35
280
     0
102
RTVSPost2010PropOp35
 70
     1
102
RTVSPost2010Prop36
280
     0
102
RTVSPost2010PropOp36
 70
     1
102
RTVSPost2010Prop37
 90
       50
102
RTVSPost2010PropOp37
 70
     1
102
RTVSPost2010Prop38
140
0.0
102
RTVSPost2010PropOp38
 70
     1
102
RTVSPost2010Prop39
140
1.0
102
RTVSPost2010PropOp39
 70
     1
102
RTVSPost2010Prop40
 90
        0
102
RTVSPost2010PropOp40
 70
     1
102
RTVSPost2010Prop41ColorIndex
 90
       18
102
RTVSPost2010Prop41ColorRGB
 90
        0
102
RTVSPost2010PropOp41
 70
     1
102
RTVSPost2010Prop42
 90
       50
102
RTVSPost2010PropOp42
 70
     1
102
RTVSPost2010Prop43
 90
        3
102
RTVSPost2010PropOp43
 70
     1
102
RTVSPost2010Prop44ColorIndex
 90
        5
102
RTVSPost2010Prop44ColorRGB
 90
      255
102
RTVSPost2010PropOp44
 70
     1
102
RTVSPost2010Prop45
280
     0
102
RTVSPost2010PropOp45
 70
     1
102
RTVSPost2010Prop46
 90
       50
102
RTVSPost2010PropOp46
 70
     1
102
RTVSPost2010Prop47
 90
       50
102
RTVSPost2010PropOp47
 70
     1
102
RTVSPost2010Prop48
 90
       50
102
RTVSPost2010PropOp48
 70
     1
102
RTVSPost2010Prop49
280
     0
102
RTVSPost2010PropOp49
 70
     1
102
RTVSPost2010Prop50
 90
       50
102
RTVSPost2010PropOp50
 70
     1
102
RTVSPost2010Prop51ColorIndex
 90
      256
102
RTVSPost2010Prop51ColorRGB
 90
-16777216
102
RTVSPost2010PropOp51
 70
     0
102
RTVSPost2010Prop52
140
1.0
102
RTVSPost2010PropOp52
 70
     0
102
RTVSPost2010Prop53
 90
        2
102
RTVSPost2010PropOp53
 70
     1
102
RTVSPost2010Prop54
  1
strokes_ogs.tif
102
RTVSPost2010PropOp54
 70
     1
102
RTVSPost2010Prop55
280
     0
102
RTVSPost2010PropOp55
 70
     1
102
RTVSPost2010Prop56
140
1.0
102
RTVSPost2010PropOp56
 70
     1
102
RTVSPost2010Prop57
140
1.0
102
RTVSPost2010PropOp57
 70
     1
  0
XRECORD
  5
12D9
102
{ACAD_REACTORS
330
12D8
102
}
330
12D8
100
AcDbXrecord
280
     1
102
RTVSPropertyOp0
 70
     1
102
RTVSPropertyOp1
 70
     1
102
RTVSPropertyOp2
 70
     1
102
RTVSPropertyOp3
 70
     1
102
RTVSPropertyOp4
 70
     1
102
RTVSPropertyOp5
 70
     1
102
RTVSPropertyOp6
 70
     1
102
RTVSPropertyOp7
 70
     1
102
RTVSPropertyOp8
 70
     1
102
RTVSPropertyOp9
 70
     1
102
RTVSPropertyOp10
 70
     1
102
RTVSPropertyOp11
 70
     1
102
RTVSPropertyOp12
 70
     1
102
RTVSPropertyOp13
 70
     1
102
RTVSPropertyOp14
 70
     1
102
RTVSPropertyOp15
 70
     1
102
RTVSPropertyOp16
 70
     1
102
RTVSPropertyOp17
 70
     1
102
RTVSPropertyOp18
 70
     1
102
RTVSPropertyOp19
 70
     1
102
RTVSPropertyOp20
 70
     1
102
RTVSPropertyOp21
 70
     1
102
RTVSPropertyOp22
 70
     1
102
RTVSPropertyOp23
 70
     1
102
RTVSPropertyOp24
 70
     1
102
RTVSPropertyOp25
 70
     1
102
RTVSPropertyOp26
 70
     1
102
RTVSPropertyOp27
 70
     1
102
RTVSPropertyOp28
 70
     1
102
RTVSPropertyOp29
 70
     1
102
RTVSPropertyOp30
 70
     1
102
RTVSPropertyOp31
 70
     1
102
RTVSPropertyOp32
 70
     1
102
RTVSPropertyOp33
 70
     1
102
RTVSPropertyOp34
 70
     1
102
RTVSPropertyOp35
 70
     1
102
RTVSPropertyOp36
 70
     1
102
RTVSPropertyOp37
 70
     1
102
RTVSPropertyOp38
 70
     1
102
RTVSPropertyOp39
 70
     1
102
RTVSPropertyOp40
 70
     1
102
RTVSPropertyOp41
 70
     1
102
RTVSPropertyOp42
 70
     1
102
RTVSPropertyOp43
 70
     1
102
RTVSPropertyOp44
 70
     1
102
RTVSPropertyOp45
 70
     1
102
RTVSPropertyOp46
 70
     1
102
RTVSPropertyOp47
 70
     1
102
RTVSPropertyOp48
 70
     1
102
RTVSPropertyOp49
 70
     1
102
RTVSPropertyOp50
 70
     1
102
RTVSPropertyOp51
 70
     0
102
RTVSPropertyOp52
 70
     0
102
RTVSPropertyOp53
 70
     1
102
RTVSPropertyOp54
 70
     1
102
RTVSPropertyOp55
 70
     1
102
RTVSPropertyOp56
 70
     1
102
RTVSPropertyOp57
 70
     1
102
RTVSPost2010Prop28
280
     0
102
RTVSPost2010PropOp28
 70
     1
102
RTVSPost2010Prop29
280
     1
102
RTVSPost2010PropOp29
 70
     1
102
RTVSPost2010Prop30
280
     1
102
RTVSPost2010PropOp30
 70
     1
102
RTVSPost2010Prop31
280
     0
102
RTVSPost2010PropOp31
 70
     1
102
RTVSPost2010Prop32
280
     0
102
RTVSPost2010PropOp32
 70
     1
102
RTVSPost2010Prop33
280
     0
102
RTVSPost2010PropOp33
 70
     1
102
RTVSPost2010Prop34
280
     0
102
RTVSPost2010PropOp34
 70
     1
102
RTVSPost2010Prop35
280
     0
102
RTVSPost2010PropOp35
 70
     1
102
RTVSPost2010Prop36
280
     0
102
RTVSPost2010PropOp36
 70
     1
102
RTVSPost2010Prop37
 90
       50
102
RTVSPost2010PropOp37
 70
     1
102
RTVSPost2010Prop38
140
0.0
102
RTVSPost2010PropOp38
 70
     1
102
RTVSPost2010Prop39
140
1.0
102
RTVSPost2010PropOp39
 70
     1
102
RTVSPost2010Prop40
 90
        0
102
RTVSPost2010PropOp40
 70
     1
102
RTVSPost2010Prop41ColorIndex
 90
       18
102
RTVSPost2010Prop41ColorRGB
 90
        0
102
RTVSPost2010PropOp41
 70
     1
102
RTVSPost2010Prop42
 90
       50
102
RTVSPost2010PropOp42
 70
     1
102
RTVSPost2010Prop43
 90
        3
102
RTVSPost2010PropOp43
 70
     1
102
RTVSPost2010Prop44ColorIndex
 90
        5
102
RTVSPost2010Prop44ColorRGB
 90
      255
102
RTVSPost2010PropOp44
 70
     1
102
RTVSPost2010Prop45
280
     0
102
RTVSPost2010PropOp45
 70
     1
102
RTVSPost2010Prop46
 90
       50
102
RTVSPost2010PropOp46
 70
     1
102
RTVSPost2010Prop47
 90
       50
102
RTVSPost2010PropOp47
 70
     1
102
RTVSPost2010Prop48
 90
       50
102
RTVSPost2010PropOp48
 70
     1
102
RTVSPost2010Prop49
280
     0
102
RTVSPost2010PropOp49
 70
     1
102
RTVSPost2010Prop50
 90
       50
102
RTVSPost2010PropOp50
 70
     1
102
RTVSPost2010Prop51ColorIndex
 90
      256
102
RTVSPost2010Prop51ColorRGB
 90
-16777216
102
RTVSPost2010PropOp51
 70
     0
102
RTVSPost2010Prop52
140
1.0
102
RTVSPost2010PropOp52
 70
     0
102
RTVSPost2010Prop53
 90
        2
102
RTVSPost2010PropOp53
 70
     1
102
RTVSPost2010Prop54
  1
strokes_ogs.tif
102
RTVSPost2010PropOp54
 70
     1
102
RTVSPost2010Prop55
280
     0
102
RTVSPost2010PropOp55
 70
     1
102
RTVSPost2010Prop56
140
1.0
102
RTVSPost2010PropOp56
 70
     1
102
RTVSPost2010Prop57
140
1.0
102
RTVSPost2010PropOp57
 70
     1
  0
XRECORD
  5
12DB
102
{ACAD_REACTORS
330
12DA
102
}
330
12DA
100
AcDbXrecord
280
     1
102
RTVSPropertyOp0
 70
     1
102
RTVSPropertyOp1
 70
     1
102
RTVSPropertyOp2
 70
     1
102
RTVSPropertyOp3
 70
     1
102
RTVSPropertyOp4
 70
     1
102
RTVSPropertyOp5
 70
     1
102
RTVSPropertyOp6
 70
     1
102
RTVSPropertyOp7
 70
     1
102
RTVSPropertyOp8
 70
     1
102
RTVSPropertyOp9
 70
     1
102
RTVSPropertyOp10
 70
     1
102
RTVSPropertyOp11
 70
     1
102
RTVSPropertyOp12
 70
     1
102
RTVSPropertyOp13
 70
     1
102
RTVSPropertyOp14
 70
     1
102
RTVSPropertyOp15
 70
     1
102
RTVSPropertyOp16
 70
     1
102
RTVSPropertyOp17
 70
     1
102
RTVSPropertyOp18
 70
     1
102
RTVSPropertyOp19
 70
     1
102
RTVSPropertyOp20
 70
     1
102
RTVSPropertyOp21
 70
     1
102
RTVSPropertyOp22
 70
     1
102
RTVSPropertyOp23
 70
     1
102
RTVSPropertyOp24
 70
     1
102
RTVSPropertyOp25
 70
     1
102
RTVSPropertyOp26
 70
     1
102
RTVSPropertyOp27
 70
     1
102
RTVSPropertyOp28
 70
     1
102
RTVSPropertyOp29
 70
     1
102
RTVSPropertyOp30
 70
     1
102
RTVSPropertyOp31
 70
     1
102
RTVSPropertyOp32
 70
     1
102
RTVSPropertyOp33
 70
     1
102
RTVSPropertyOp34
 70
     1
102
RTVSPropertyOp35
 70
     1
102
RTVSPropertyOp36
 70
     1
102
RTVSPropertyOp37
 70
     1
102
RTVSPropertyOp38
 70
     1
102
RTVSPropertyOp39
 70
     1
102
RTVSPropertyOp40
 70
     1
102
RTVSPropertyOp41
 70
     1
102
RTVSPropertyOp42
 70
     1
102
RTVSPropertyOp43
 70
     1
102
RTVSPropertyOp44
 70
     1
102
RTVSPropertyOp45
 70
     1
102
RTVSPropertyOp46
 70
     1
102
RTVSPropertyOp47
 70
     1
102
RTVSPropertyOp48
 70
     1
102
RTVSPropertyOp49
 70
     1
102
RTVSPropertyOp50
 70
     1
102
RTVSPropertyOp51
 70
     0
102
RTVSPropertyOp52
 70
     0
102
RTVSPropertyOp53
 70
     1
102
RTVSPropertyOp54
 70
     1
102
RTVSPropertyOp55
 70
     1
102
RTVSPropertyOp56
 70
     1
102
RTVSPropertyOp57
 70
     1
102
RTVSPost2010Prop28
280
     0
102
RTVSPost2010PropOp28
 70
     1
102
RTVSPost2010Prop29
280
     1
102
RTVSPost2010PropOp29
 70
     1
102
RTVSPost2010Prop30
280
     1
102
RTVSPost2010PropOp30
 70
     1
102
RTVSPost2010Prop31
280
     0
102
RTVSPost2010PropOp31
 70
     1
102
RTVSPost2010Prop32
280
     0
102
RTVSPost2010PropOp32
 70
     1
102
RTVSPost2010Prop33
280
     0
102
RTVSPost2010PropOp33
 70
     1
102
RTVSPost2010Prop34
280
     0
102
RTVSPost2010PropOp34
 70
     1
102
RTVSPost2010Prop35
280
     0
102
RTVSPost2010PropOp35
 70
     1
102
RTVSPost2010Prop36
280
     0
102
RTVSPost2010PropOp36
 70
     1
102
RTVSPost2010Prop37
 90
       50
102
RTVSPost2010PropOp37
 70
     1
102
RTVSPost2010Prop38
140
0.0
102
RTVSPost2010PropOp38
 70
     1
102
RTVSPost2010Prop39
140
1.0
102
RTVSPost2010PropOp39
 70
     1
102
RTVSPost2010Prop40
 90
        0
102
RTVSPost2010PropOp40
 70
     1
102
RTVSPost2010Prop41ColorIndex
 90
       18
102
RTVSPost2010Prop41ColorRGB
 90
        0
102
RTVSPost2010PropOp41
 70
     1
102
RTVSPost2010Prop42
 90
       50
102
RTVSPost2010PropOp42
 70
     1
102
RTVSPost2010Prop43
 90
        3
102
RTVSPost2010PropOp43
 70
     1
102
RTVSPost2010Prop44ColorIndex
 90
        5
102
RTVSPost2010Prop44ColorRGB
 90
      255
102
RTVSPost2010PropOp44
 70
     1
102
RTVSPost2010Prop45
280
     0
102
RTVSPost2010PropOp45
 70
     1
102
RTVSPost2010Prop46
 90
       50
102
RTVSPost2010PropOp46
 70
     1
102
RTVSPost2010Prop47
 90
       50
102
RTVSPost2010PropOp47
 70
     1
102
RTVSPost2010Prop48
 90
       50
102
RTVSPost2010PropOp48
 70
     1
102
RTVSPost2010Prop49
280
     0
102
RTVSPost2010PropOp49
 70
     1
102
RTVSPost2010Prop50
 90
       50
102
RTVSPost2010PropOp50
 70
     1
102
RTVSPost2010Prop51ColorIndex
 90
      256
102
RTVSPost2010Prop51ColorRGB
 90
-16777216
102
RTVSPost2010PropOp51
 70
     0
102
RTVSPost2010Prop52
140
1.0
102
RTVSPost2010PropOp52
 70
     0
102
RTVSPost2010Prop53
 90
        2
102
RTVSPost2010PropOp53
 70
     1
102
RTVSPost2010Prop54
  1
strokes_ogs.tif
102
RTVSPost2010PropOp54
 70
     1
102
RTVSPost2010Prop55
280
     0
102
RTVSPost2010PropOp55
 70
     1
102
RTVSPost2010Prop56
140
1.0
102
RTVSPost2010PropOp56
 70
     1
102
RTVSPost2010Prop57
140
1.0
102
RTVSPost2010PropOp57
 70
     1
  0
XRECORD
  5
12E1
102
{ACAD_REACTORS
330
12E0
102
}
330
12E0
100
AcDbXrecord
280
     1
102
RTVSPropertyOp0
 70
     1
102
RTVSPropertyOp1
 70
     1
102
RTVSPropertyOp2
 70
     1
102
RTVSPropertyOp3
 70
     1
102
RTVSPropertyOp4
 70
     1
102
RTVSPropertyOp5
 70
     1
102
RTVSPropertyOp6
 70
     1
102
RTVSPropertyOp7
 70
     1
102
RTVSPropertyOp8
 70
     1
102
RTVSPropertyOp9
 70
     1
102
RTVSPropertyOp10
 70
     1
102
RTVSPropertyOp11
 70
     1
102
RTVSPropertyOp12
 70
     1
102
RTVSPropertyOp13
 70
     1
102
RTVSPropertyOp14
 70
     1
102
RTVSPropertyOp15
 70
     1
102
RTVSPropertyOp16
 70
     1
102
RTVSPropertyOp17
 70
     1
102
RTVSPropertyOp18
 70
     1
102
RTVSPropertyOp19
 70
     1
102
RTVSPropertyOp20
 70
     1
102
RTVSPropertyOp21
 70
     1
102
RTVSPropertyOp22
 70
     1
102
RTVSPropertyOp23
 70
     1
102
RTVSPropertyOp24
 70
     1
102
RTVSPropertyOp25
 70
     1
102
RTVSPropertyOp26
 70
     1
102
RTVSPropertyOp27
 70
     1
102
RTVSPropertyOp28
 70
     1
102
RTVSPropertyOp29
 70
     1
102
RTVSPropertyOp30
 70
     1
102
RTVSPropertyOp31
 70
     1
102
RTVSPropertyOp32
 70
     1
102
RTVSPropertyOp33
 70
     1
102
RTVSPropertyOp34
 70
     1
102
RTVSPropertyOp35
 70
     1
102
RTVSPropertyOp36
 70
     1
102
RTVSPropertyOp37
 70
     1
102
RTVSPropertyOp38
 70
     1
102
RTVSPropertyOp39
 70
     1
102
RTVSPropertyOp40
 70
     1
102
RTVSPropertyOp41
 70
     1
102
RTVSPropertyOp42
 70
     1
102
RTVSPropertyOp43
 70
     1
102
RTVSPropertyOp44
 70
     1
102
RTVSPropertyOp45
 70
     1
102
RTVSPropertyOp46
 70
     1
102
RTVSPropertyOp47
 70
     1
102
RTVSPropertyOp48
 70
     1
102
RTVSPropertyOp49
 70
     1
102
RTVSPropertyOp50
 70
     1
102
RTVSPropertyOp51
 70
     0
102
RTVSPropertyOp52
 70
     0
102
RTVSPropertyOp53
 70
     1
102
RTVSPropertyOp54
 70
     1
102
RTVSPropertyOp55
 70
     1
102
RTVSPropertyOp56
 70
     1
102
RTVSPropertyOp57
 70
     1
102
RTVSPost2010Prop28
280
     0
102
RTVSPost2010PropOp28
 70
     1
102
RTVSPost2010Prop29
280
     1
102
RTVSPost2010PropOp29
 70
     1
102
RTVSPost2010Prop30
280
     1
102
RTVSPost2010PropOp30
 70
     1
102
RTVSPost2010Prop31
280
     0
102
RTVSPost2010PropOp31
 70
     1
102
RTVSPost2010Prop32
280
     0
102
RTVSPost2010PropOp32
 70
     1
102
RTVSPost2010Prop33
280
     0
102
RTVSPost2010PropOp33
 70
     1
102
RTVSPost2010Prop34
280
     0
102
RTVSPost2010PropOp34
 70
     1
102
RTVSPost2010Prop35
280
     0
102
RTVSPost2010PropOp35
 70
     1
102
RTVSPost2010Prop36
280
     0
102
RTVSPost2010PropOp36
 70
     1
102
RTVSPost2010Prop37
 90
       50
102
RTVSPost2010PropOp37
 70
     1
102
RTVSPost2010Prop38
140
0.0
102
RTVSPost2010PropOp38
 70
     1
102
RTVSPost2010Prop39
140
1.0
102
RTVSPost2010PropOp39
 70
     1
102
RTVSPost2010Prop40
 90
        0
102
RTVSPost2010PropOp40
 70
     1
102
RTVSPost2010Prop41ColorIndex
 90
       18
102
RTVSPost2010Prop41ColorRGB
 90
        0
102
RTVSPost2010PropOp41
 70
     1
102
RTVSPost2010Prop42
 90
       50
102
RTVSPost2010PropOp42
 70
     1
102
RTVSPost2010Prop43
 90
        3
102
RTVSPost2010PropOp43
 70
     1
102
RTVSPost2010Prop44ColorIndex
 90
        5
102
RTVSPost2010Prop44ColorRGB
 90
      255
102
RTVSPost2010PropOp44
 70
     1
102
RTVSPost2010Prop45
280
     0
102
RTVSPost2010PropOp45
 70
     1
102
RTVSPost2010Prop46
 90
       50
102
RTVSPost2010PropOp46
 70
     1
102
RTVSPost2010Prop47
 90
       50
102
RTVSPost2010PropOp47
 70
     1
102
RTVSPost2010Prop48
 90
       50
102
RTVSPost2010PropOp48
 70
     1
102
RTVSPost2010Prop49
280
     0
102
RTVSPost2010PropOp49
 70
     1
102
RTVSPost2010Prop50
 90
       50
102
RTVSPost2010PropOp50
 70
     1
102
RTVSPost2010Prop51ColorIndex
 90
      256
102
RTVSPost2010Prop51ColorRGB
 90
-16777216
102
RTVSPost2010PropOp51
 70
     0
102
RTVSPost2010Prop52
140
1.0
102
RTVSPost2010PropOp52
 70
     0
102
RTVSPost2010Prop53
 90
        2
102
RTVSPost2010PropOp53
 70
     1
102
RTVSPost2010Prop54
  1
strokes_ogs.tif
102
RTVSPost2010PropOp54
 70
     1
102
RTVSPost2010Prop55
280
     0
102
RTVSPost2010PropOp55
 70
     1
102
RTVSPost2010Prop56
140
1.0
102
RTVSPost2010PropOp56
 70
     1
102
RTVSPost2010Prop57
140
1.0
102
RTVSPost2010PropOp57
 70
     1
  0
XRECORD
  5
12F5
102
{ACAD_REACTORS
330
12F4
102
}
330
12F4
100
AcDbXrecord
280
     1
102
RTVSPropertyOp0
 70
     0
102
RTVSPropertyOp1
 70
     0
102
RTVSPropertyOp2
 70
     0
102
RTVSPropertyOp3
 70
     0
102
RTVSPropertyOp4
 70
     0
102
RTVSPropertyOp5
 70
     0
102
RTVSPropertyOp6
 70
     0
102
RTVSPropertyOp7
 70
     0
102
RTVSPropertyOp8
 70
     0
102
RTVSPropertyOp9
 70
     0
102
RTVSPropertyOp10
 70
     0
102
RTVSPropertyOp11
 70
     0
102
RTVSPropertyOp12
 70
     0
102
RTVSPropertyOp13
 70
     0
102
RTVSPropertyOp14
 70
     2
102
RTVSPropertyOp15
 70
     0
102
RTVSPropertyOp16
 70
     0
102
RTVSPropertyOp17
 70
     0
102
RTVSPropertyOp18
 70
     0
102
RTVSPropertyOp19
 70
     0
102
RTVSPropertyOp20
 70
     0
102
RTVSPropertyOp21
 70
     0
102
RTVSPropertyOp22
 70
     0
102
RTVSPropertyOp23
 70
     0
102
RTVSPropertyOp24
 70
     0
102
RTVSPropertyOp25
 70
     0
102
RTVSPropertyOp26
 70
     0
102
RTVSPropertyOp27
 70
     0
102
RTVSPropertyOp28
 70
     0
102
RTVSPropertyOp29
 70
     0
102
RTVSPropertyOp30
 70
     0
102
RTVSPropertyOp31
 70
     0
102
RTVSPropertyOp32
 70
     0
102
RTVSPropertyOp33
 70
     0
102
RTVSPropertyOp34
 70
     0
102
RTVSPropertyOp35
 70
     0
102
RTVSPropertyOp36
 70
     0
102
RTVSPropertyOp37
 70
     0
102
RTVSPropertyOp38
 70
     0
102
RTVSPropertyOp39
 70
     0
102
RTVSPropertyOp40
 70
     0
102
RTVSPropertyOp41
 70
     0
102
RTVSPropertyOp42
 70
     0
102
RTVSPropertyOp43
 70
     0
102
RTVSPropertyOp44
 70
     0
102
RTVSPropertyOp45
 70
     0
102
RTVSPropertyOp46
 70
     0
102
RTVSPropertyOp47
 70
     0
102
RTVSPropertyOp48
 70
     0
102
RTVSPropertyOp49
 70
     0
102
RTVSPropertyOp50
 70
     0
102
RTVSPropertyOp51
 70
     0
102
RTVSPropertyOp52
 70
     0
102
RTVSPropertyOp53
 70
     0
102
RTVSPropertyOp54
 70
     0
102
RTVSPropertyOp55
 70
     0
102
RTVSPropertyOp56
 70
     0
102
RTVSPropertyOp57
 70
     0
102
RTVSPost2010Prop28
280
     0
102
RTVSPost2010PropOp28
 70
     0
102
RTVSPost2010Prop29
280
     1
102
RTVSPost2010PropOp29
 70
     0
102
RTVSPost2010Prop30
280
     1
102
RTVSPost2010PropOp30
 70
     0
102
RTVSPost2010Prop31
280
     0
102
RTVSPost2010PropOp31
 70
     0
102
RTVSPost2010Prop32
280
     0
102
RTVSPost2010PropOp32
 70
     0
102
RTVSPost2010Prop33
280
     0
102
RTVSPost2010PropOp33
 70
     0
102
RTVSPost2010Prop34
280
     0
102
RTVSPost2010PropOp34
 70
     0
102
RTVSPost2010Prop35
280
     0
102
RTVSPost2010PropOp35
 70
     0
102
RTVSPost2010Prop36
280
     0
102
RTVSPost2010PropOp36
 70
     0
102
RTVSPost2010Prop37
 90
       50
102
RTVSPost2010PropOp37
 70
     0
102
RTVSPost2010Prop38
140
0.0
102
RTVSPost2010PropOp38
 70
     0
102
RTVSPost2010Prop39
140
1.0
102
RTVSPost2010PropOp39
 70
     0
102
RTVSPost2010Prop40
 90
        0
102
RTVSPost2010PropOp40
 70
     0
102
RTVSPost2010Prop41ColorIndex
 90
       18
102
RTVSPost2010Prop41ColorRGB
 90
        0
102
RTVSPost2010PropOp41
 70
     0
102
RTVSPost2010Prop42
 90
       50
102
RTVSPost2010PropOp42
 70
     0
102
RTVSPost2010Prop43
 90
        3
102
RTVSPost2010PropOp43
 70
     0
102
RTVSPost2010Prop44ColorIndex
 90
        5
102
RTVSPost2010Prop44ColorRGB
 90
      255
102
RTVSPost2010PropOp44
 70
     0
102
RTVSPost2010Prop45
280
     0
102
RTVSPost2010PropOp45
 70
     0
102
RTVSPost2010Prop46
 90
       50
102
RTVSPost2010PropOp46
 70
     0
102
RTVSPost2010Prop47
 90
       50
102
RTVSPost2010PropOp47
 70
     0
102
RTVSPost2010Prop48
 90
       50
102
RTVSPost2010PropOp48
 70
     0
102
RTVSPost2010Prop49
280
     0
102
RTVSPost2010PropOp49
 70
     0
102
RTVSPost2010Prop50
 90
       50
102
RTVSPost2010PropOp50
 70
     0
102
RTVSPost2010Prop51ColorIndex
 90
      256
102
RTVSPost2010Prop51ColorRGB
 90
-16777216
102
RTVSPost2010PropOp51
 70
     0
102
RTVSPost2010Prop52
140
1.0
102
RTVSPost2010PropOp52
 70
     0
102
RTVSPost2010Prop53
 90
        2
102
RTVSPost2010PropOp53
 70
     0
102
RTVSPost2010Prop54
  1
strokes_ogs.tif
102
RTVSPost2010PropOp54
 70
     0
102
RTVSPost2010Prop55
280
     0
102
RTVSPost2010PropOp55
 70
     0
102
RTVSPost2010Prop56
140
1.0
102
RTVSPost2010PropOp56
 70
     0
102
RTVSPost2010Prop57
140
1.0
102
RTVSPost2010PropOp57
 70
     0
  0
XRECORD
  5
12EF
102
{ACAD_REACTORS
330
12EE
102
}
330
12EE
100
AcDbXrecord
280
     1
102
RTVSPropertyOp0
 70
     1
102
RTVSPropertyOp1
 70
     1
102
RTVSPropertyOp2
 70
     1
102
RTVSPropertyOp3
 70
     1
102
RTVSPropertyOp4
 70
     1
102
RTVSPropertyOp5
 70
     1
102
RTVSPropertyOp6
 70
     1
102
RTVSPropertyOp7
 70
     1
102
RTVSPropertyOp8
 70
     1
102
RTVSPropertyOp9
 70
     1
102
RTVSPropertyOp10
 70
     1
102
RTVSPropertyOp11
 70
     1
102
RTVSPropertyOp12
 70
     1
102
RTVSPropertyOp13
 70
     1
102
RTVSPropertyOp14
 70
     1
102
RTVSPropertyOp15
 70
     1
102
RTVSPropertyOp16
 70
     1
102
RTVSPropertyOp17
 70
     1
102
RTVSPropertyOp18
 70
     1
102
RTVSPropertyOp19
 70
     1
102
RTVSPropertyOp20
 70
     1
102
RTVSPropertyOp21
 70
     1
102
RTVSPropertyOp22
 70
     1
102
RTVSPropertyOp23
 70
     1
102
RTVSPropertyOp24
 70
     1
102
RTVSPropertyOp25
 70
     1
102
RTVSPropertyOp26
 70
     1
102
RTVSPropertyOp27
 70
     1
102
RTVSPropertyOp28
 70
     1
102
RTVSPropertyOp29
 70
     1
102
RTVSPropertyOp30
 70
     1
102
RTVSPropertyOp31
 70
     1
102
RTVSPropertyOp32
 70
     1
102
RTVSPropertyOp33
 70
     1
102
RTVSPropertyOp34
 70
     1
102
RTVSPropertyOp35
 70
     1
102
RTVSPropertyOp36
 70
     1
102
RTVSPropertyOp37
 70
     1
102
RTVSPropertyOp38
 70
     1
102
RTVSPropertyOp39
 70
     1
102
RTVSPropertyOp40
 70
     1
102
RTVSPropertyOp41
 70
     1
102
RTVSPropertyOp42
 70
     1
102
RTVSPropertyOp43
 70
     1
102
RTVSPropertyOp44
 70
     1
102
RTVSPropertyOp45
 70
     1
102
RTVSPropertyOp46
 70
     1
102
RTVSPropertyOp47
 70
     1
102
RTVSPropertyOp48
 70
     1
102
RTVSPropertyOp49
 70
     1
102
RTVSPropertyOp50
 70
     1
102
RTVSPropertyOp51
 70
     0
102
RTVSPropertyOp52
 70
     0
102
RTVSPropertyOp53
 70
     1
102
RTVSPropertyOp54
 70
     1
102
RTVSPropertyOp55
 70
     1
102
RTVSPropertyOp56
 70
     1
102
RTVSPropertyOp57
 70
     1
102
RTVSPost2010Prop28
280
     0
102
RTVSPost2010PropOp28
 70
     1
102
RTVSPost2010Prop29
280
     1
102
RTVSPost2010PropOp29
 70
     1
102
RTVSPost2010Prop30
280
     1
102
RTVSPost2010PropOp30
 70
     1
102
RTVSPost2010Prop31
280
     0
102
RTVSPost2010PropOp31
 70
     1
102
RTVSPost2010Prop32
280
     0
102
RTVSPost2010PropOp32
 70
     1
102
RTVSPost2010Prop33
280
     0
102
RTVSPost2010PropOp33
 70
     1
102
RTVSPost2010Prop34
280
     0
102
RTVSPost2010PropOp34
 70
     1
102
RTVSPost2010Prop35
280
     0
102
RTVSPost2010PropOp35
 70
     1
102
RTVSPost2010Prop36
280
     0
102
RTVSPost2010PropOp36
 70
     1
102
RTVSPost2010Prop37
 90
       50
102
RTVSPost2010PropOp37
 70
     1
102
RTVSPost2010Prop38
140
0.0
102
RTVSPost2010PropOp38
 70
     1
102
RTVSPost2010Prop39
140
1.0
102
RTVSPost2010PropOp39
 70
     1
102
RTVSPost2010Prop40
 90
        0
102
RTVSPost2010PropOp40
 70
     1
102
RTVSPost2010Prop41ColorIndex
 90
       18
102
RTVSPost2010Prop41ColorRGB
 90
        0
102
RTVSPost2010PropOp41
 70
     1
102
RTVSPost2010Prop42
 90
       50
102
RTVSPost2010PropOp42
 70
     1
102
RTVSPost2010Prop43
 90
        3
102
RTVSPost2010PropOp43
 70
     1
102
RTVSPost2010Prop44ColorIndex
 90
        5
102
RTVSPost2010Prop44ColorRGB
 90
      255
102
RTVSPost2010PropOp44
 70
     1
102
RTVSPost2010Prop45
280
     0
102
RTVSPost2010PropOp45
 70
     1
102
RTVSPost2010Prop46
 90
       50
102
RTVSPost2010PropOp46
 70
     1
102
RTVSPost2010Prop47
 90
       50
102
RTVSPost2010PropOp47
 70
     1
102
RTVSPost2010Prop48
 90
       50
102
RTVSPost2010PropOp48
 70
     1
102
RTVSPost2010Prop49
280
     0
102
RTVSPost2010PropOp49
 70
     1
102
RTVSPost2010Prop50
 90
       50
102
RTVSPost2010PropOp50
 70
     1
102
RTVSPost2010Prop51ColorIndex
 90
      256
102
RTVSPost2010Prop51ColorRGB
 90
-16777216
102
RTVSPost2010PropOp51
 70
     0
102
RTVSPost2010Prop52
140
1.0
102
RTVSPost2010PropOp52
 70
     0
102
RTVSPost2010Prop53
 90
        2
102
RTVSPost2010PropOp53
 70
     1
102
RTVSPost2010Prop54
  1
strokes_ogs.tif
102
RTVSPost2010PropOp54
 70
     1
102
RTVSPost2010Prop55
280
     0
102
RTVSPost2010PropOp55
 70
     1
102
RTVSPost2010Prop56
140
1.0
102
RTVSPost2010PropOp56
 70
     1
102
RTVSPost2010Prop57
140
1.0
102
RTVSPost2010PropOp57
 70
     1
  0
XRECORD
  5
12F7
102
{ACAD_REACTORS
330
12F6
102
}
330
12F6
100
AcDbXrecord
280
     1
102
RTVSPropertyOp0
 70
     0
102
RTVSPropertyOp1
 70
     0
102
RTVSPropertyOp2
 70
     0
102
RTVSPropertyOp3
 70
     0
102
RTVSPropertyOp4
 70
     0
102
RTVSPropertyOp5
 70
     0
102
RTVSPropertyOp6
 70
     0
102
RTVSPropertyOp7
 70
     0
102
RTVSPropertyOp8
 70
     0
102
RTVSPropertyOp9
 70
     0
102
RTVSPropertyOp10
 70
     0
102
RTVSPropertyOp11
 70
     0
102
RTVSPropertyOp12
 70
     0
102
RTVSPropertyOp13
 70
     0
102
RTVSPropertyOp14
 70
     2
102
RTVSPropertyOp15
 70
     0
102
RTVSPropertyOp16
 70
     0
102
RTVSPropertyOp17
 70
     0
102
RTVSPropertyOp18
 70
     0
102
RTVSPropertyOp19
 70
     0
102
RTVSPropertyOp20
 70
     0
102
RTVSPropertyOp21
 70
     0
102
RTVSPropertyOp22
 70
     0
102
RTVSPropertyOp23
 70
     0
102
RTVSPropertyOp24
 70
     0
102
RTVSPropertyOp25
 70
     0
102
RTVSPropertyOp26
 70
     0
102
RTVSPropertyOp27
 70
     0
102
RTVSPropertyOp28
 70
     0
102
RTVSPropertyOp29
 70
     0
102
RTVSPropertyOp30
 70
     0
102
RTVSPropertyOp31
 70
     0
102
RTVSPropertyOp32
 70
     0
102
RTVSPropertyOp33
 70
     0
102
RTVSPropertyOp34
 70
     0
102
RTVSPropertyOp35
 70
     0
102
RTVSPropertyOp36
 70
     0
102
RTVSPropertyOp37
 70
     0
102
RTVSPropertyOp38
 70
     0
102
RTVSPropertyOp39
 70
     0
102
RTVSPropertyOp40
 70
     0
102
RTVSPropertyOp41
 70
     0
102
RTVSPropertyOp42
 70
     0
102
RTVSPropertyOp43
 70
     0
102
RTVSPropertyOp44
 70
     0
102
RTVSPropertyOp45
 70
     0
102
RTVSPropertyOp46
 70
     0
102
RTVSPropertyOp47
 70
     0
102
RTVSPropertyOp48
 70
     0
102
RTVSPropertyOp49
 70
     0
102
RTVSPropertyOp50
 70
     0
102
RTVSPropertyOp51
 70
     0
102
RTVSPropertyOp52
 70
     0
102
RTVSPropertyOp53
 70
     0
102
RTVSPropertyOp54
 70
     0
102
RTVSPropertyOp55
 70
     0
102
RTVSPropertyOp56
 70
     0
102
RTVSPropertyOp57
 70
     0
102
RTVSPost2010Prop28
280
     0
102
RTVSPost2010PropOp28
 70
     0
102
RTVSPost2010Prop29
280
     1
102
RTVSPost2010PropOp29
 70
     0
102
RTVSPost2010Prop30
280
     1
102
RTVSPost2010PropOp30
 70
     0
102
RTVSPost2010Prop31
280
     0
102
RTVSPost2010PropOp31
 70
     0
102
RTVSPost2010Prop32
280
     0
102
RTVSPost2010PropOp32
 70
     0
102
RTVSPost2010Prop33
280
     0
102
RTVSPost2010PropOp33
 70
     0
102
RTVSPost2010Prop34
280
     0
102
RTVSPost2010PropOp34
 70
     0
102
RTVSPost2010Prop35
280
     0
102
RTVSPost2010PropOp35
 70
     0
102
RTVSPost2010Prop36
280
     0
102
RTVSPost2010PropOp36
 70
     0
102
RTVSPost2010Prop37
 90
       50
102
RTVSPost2010PropOp37
 70
     0
102
RTVSPost2010Prop38
140
0.0
102
RTVSPost2010PropOp38
 70
     0
102
RTVSPost2010Prop39
140
1.0
102
RTVSPost2010PropOp39
 70
     0
102
RTVSPost2010Prop40
 90
        0
102
RTVSPost2010PropOp40
 70
     0
102
RTVSPost2010Prop41ColorIndex
 90
       18
102
RTVSPost2010Prop41ColorRGB
 90
        0
102
RTVSPost2010PropOp41
 70
     0
102
RTVSPost2010Prop42
 90
       50
102
RTVSPost2010PropOp42
 70
     0
102
RTVSPost2010Prop43
 90
        3
102
RTVSPost2010PropOp43
 70
     0
102
RTVSPost2010Prop44ColorIndex
 90
        5
102
RTVSPost2010Prop44ColorRGB
 90
      255
102
RTVSPost2010PropOp44
 70
     0
102
RTVSPost2010Prop45
280
     0
102
RTVSPost2010PropOp45
 70
     0
102
RTVSPost2010Prop46
 90
       50
102
RTVSPost2010PropOp46
 70
     0
102
RTVSPost2010Prop47
 90
       50
102
RTVSPost2010PropOp47
 70
     0
102
RTVSPost2010Prop48
 90
       50
102
RTVSPost2010PropOp48
 70
     0
102
RTVSPost2010Prop49
280
     0
102
RTVSPost2010PropOp49
 70
     0
102
RTVSPost2010Prop50
 90
       50
102
RTVSPost2010PropOp50
 70
     0
102
RTVSPost2010Prop51ColorIndex
 90
      256
102
RTVSPost2010Prop51ColorRGB
 90
-16777216
102
RTVSPost2010PropOp51
 70
     0
102
RTVSPost2010Prop52
140
1.0
102
RTVSPost2010PropOp52
 70
     0
102
RTVSPost2010Prop53
 90
        2
102
RTVSPost2010PropOp53
 70
     0
102
RTVSPost2010Prop54
  1
strokes_ogs.tif
102
RTVSPost2010PropOp54
 70
     0
102
RTVSPost2010Prop55
280
     0
102
RTVSPost2010PropOp55
 70
     0
102
RTVSPost2010Prop56
140
1.0
102
RTVSPost2010PropOp56
 70
     0
102
RTVSPost2010Prop57
140
1.0
102
RTVSPost2010PropOp57
 70
     0
  0
XRECORD
  5
12E5
102
{ACAD_REACTORS
330
12E4
102
}
330
12E4
100
AcDbXrecord
280
     1
102
RTVSPropertyOp0
 70
     1
102
RTVSPropertyOp1
 70
     1
102
RTVSPropertyOp2
 70
     1
102
RTVSPropertyOp3
 70
     1
102
RTVSPropertyOp4
 70
     1
102
RTVSPropertyOp5
 70
     1
102
RTVSPropertyOp6
 70
     1
102
RTVSPropertyOp7
 70
     1
102
RTVSPropertyOp8
 70
     1
102
RTVSPropertyOp9
 70
     1
102
RTVSPropertyOp10
 70
     1
102
RTVSPropertyOp11
 70
     1
102
RTVSPropertyOp12
 70
     1
102
RTVSPropertyOp13
 70
     1
102
RTVSPropertyOp14
 70
     1
102
RTVSPropertyOp15
 70
     1
102
RTVSPropertyOp16
 70
     1
102
RTVSPropertyOp17
 70
     1
102
RTVSPropertyOp18
 70
     1
102
RTVSPropertyOp19
 70
     1
102
RTVSPropertyOp20
 70
     1
102
RTVSPropertyOp21
 70
     1
102
RTVSPropertyOp22
 70
     1
102
RTVSPropertyOp23
 70
     1
102
RTVSPropertyOp24
 70
     1
102
RTVSPropertyOp25
 70
     1
102
RTVSPropertyOp26
 70
     1
102
RTVSPropertyOp27
 70
     1
102
RTVSPropertyOp28
 70
     1
102
RTVSPropertyOp29
 70
     1
102
RTVSPropertyOp30
 70
     1
102
RTVSPropertyOp31
 70
     1
102
RTVSPropertyOp32
 70
     1
102
RTVSPropertyOp33
 70
     1
102
RTVSPropertyOp34
 70
     1
102
RTVSPropertyOp35
 70
     1
102
RTVSPropertyOp36
 70
     1
102
RTVSPropertyOp37
 70
     1
102
RTVSPropertyOp38
 70
     1
102
RTVSPropertyOp39
 70
     1
102
RTVSPropertyOp40
 70
     1
102
RTVSPropertyOp41
 70
     1
102
RTVSPropertyOp42
 70
     1
102
RTVSPropertyOp43
 70
     1
102
RTVSPropertyOp44
 70
     1
102
RTVSPropertyOp45
 70
     1
102
RTVSPropertyOp46
 70
     1
102
RTVSPropertyOp47
 70
     1
102
RTVSPropertyOp48
 70
     1
102
RTVSPropertyOp49
 70
     1
102
RTVSPropertyOp50
 70
     1
102
RTVSPropertyOp51
 70
     0
102
RTVSPropertyOp52
 70
     0
102
RTVSPropertyOp53
 70
     1
102
RTVSPropertyOp54
 70
     1
102
RTVSPropertyOp55
 70
     1
102
RTVSPropertyOp56
 70
     1
102
RTVSPropertyOp57
 70
     1
102
RTVSPost2010Prop28
280
     0
102
RTVSPost2010PropOp28
 70
     1
102
RTVSPost2010Prop29
280
     1
102
RTVSPost2010PropOp29
 70
     1
102
RTVSPost2010Prop30
280
     1
102
RTVSPost2010PropOp30
 70
     1
102
RTVSPost2010Prop31
280
     0
102
RTVSPost2010PropOp31
 70
     1
102
RTVSPost2010Prop32
280
     0
102
RTVSPost2010PropOp32
 70
     1
102
RTVSPost2010Prop33
280
     0
102
RTVSPost2010PropOp33
 70
     1
102
RTVSPost2010Prop34
280
     0
102
RTVSPost2010PropOp34
 70
     1
102
RTVSPost2010Prop35
280
     0
102
RTVSPost2010PropOp35
 70
     1
102
RTVSPost2010Prop36
280
     0
102
RTVSPost2010PropOp36
 70
     1
102
RTVSPost2010Prop37
 90
       50
102
RTVSPost2010PropOp37
 70
     1
102
RTVSPost2010Prop38
140
0.0
102
RTVSPost2010PropOp38
 70
     1
102
RTVSPost2010Prop39
140
1.0
102
RTVSPost2010PropOp39
 70
     1
102
RTVSPost2010Prop40
 90
        0
102
RTVSPost2010PropOp40
 70
     1
102
RTVSPost2010Prop41ColorIndex
 90
       18
102
RTVSPost2010Prop41ColorRGB
 90
        0
102
RTVSPost2010PropOp41
 70
     1
102
RTVSPost2010Prop42
 90
       50
102
RTVSPost2010PropOp42
 70
     1
102
RTVSPost2010Prop43
 90
        3
102
RTVSPost2010PropOp43
 70
     1
102
RTVSPost2010Prop44ColorIndex
 90
        5
102
RTVSPost2010Prop44ColorRGB
 90
      255
102
RTVSPost2010PropOp44
 70
     1
102
RTVSPost2010Prop45
280
     0
102
RTVSPost2010PropOp45
 70
     1
102
RTVSPost2010Prop46
 90
       50
102
RTVSPost2010PropOp46
 70
     1
102
RTVSPost2010Prop47
 90
       50
102
RTVSPost2010PropOp47
 70
     1
102
RTVSPost2010Prop48
 90
       50
102
RTVSPost2010PropOp48
 70
     1
102
RTVSPost2010Prop49
280
     0
102
RTVSPost2010PropOp49
 70
     1
102
RTVSPost2010Prop50
 90
       50
102
RTVSPost2010PropOp50
 70
     1
102
RTVSPost2010Prop51ColorIndex
 90
      256
102
RTVSPost2010Prop51ColorRGB
 90
-16777216
102
RTVSPost2010PropOp51
 70
     0
102
RTVSPost2010Prop52
140
1.0
102
RTVSPost2010PropOp52
 70
     0
102
RTVSPost2010Prop53
 90
        2
102
RTVSPost2010PropOp53
 70
     1
102
RTVSPost2010Prop54
  1
strokes_ogs.tif
102
RTVSPost2010PropOp54
 70
     1
102
RTVSPost2010Prop55
280
     0
102
RTVSPost2010PropOp55
 70
     1
102
RTVSPost2010Prop56
140
1.0
102
RTVSPost2010PropOp56
 70
     1
102
RTVSPost2010Prop57
140
1.0
102
RTVSPost2010PropOp57
 70
     1
  0
XRECORD
  5
1303
102
{ACAD_REACTORS
330
1302
102
}
330
1302
100
AcDbXrecord
280
     1
102
RTVSPropertyOp0
 70
     1
102
RTVSPropertyOp1
 70
     1
102
RTVSPropertyOp2
 70
     1
102
RTVSPropertyOp3
 70
     1
102
RTVSPropertyOp4
 70
     1
102
RTVSPropertyOp5
 70
     1
102
RTVSPropertyOp6
 70
     1
102
RTVSPropertyOp7
 70
     1
102
RTVSPropertyOp8
 70
     1
102
RTVSPropertyOp9
 70
     1
102
RTVSPropertyOp10
 70
     1
102
RTVSPropertyOp11
 70
     1
102
RTVSPropertyOp12
 70
     1
102
RTVSPropertyOp13
 70
     1
102
RTVSPropertyOp14
 70
     1
102
RTVSPropertyOp15
 70
     1
102
RTVSPropertyOp16
 70
     1
102
RTVSPropertyOp17
 70
     1
102
RTVSPropertyOp18
 70
     1
102
RTVSPropertyOp19
 70
     1
102
RTVSPropertyOp20
 70
     1
102
RTVSPropertyOp21
 70
     1
102
RTVSPropertyOp22
 70
     1
102
RTVSPropertyOp23
 70
     1
102
RTVSPropertyOp24
 70
     1
102
RTVSPropertyOp25
 70
     1
102
RTVSPropertyOp26
 70
     1
102
RTVSPropertyOp27
 70
     1
102
RTVSPropertyOp28
 70
     1
102
RTVSPropertyOp29
 70
     1
102
RTVSPropertyOp30
 70
     1
102
RTVSPropertyOp31
 70
     1
102
RTVSPropertyOp32
 70
     1
102
RTVSPropertyOp33
 70
     1
102
RTVSPropertyOp34
 70
     1
102
RTVSPropertyOp35
 70
     1
102
RTVSPropertyOp36
 70
     1
102
RTVSPropertyOp37
 70
     1
102
RTVSPropertyOp38
 70
     1
102
RTVSPropertyOp39
 70
     1
102
RTVSPropertyOp40
 70
     1
102
RTVSPropertyOp41
 70
     1
102
RTVSPropertyOp42
 70
     1
102
RTVSPropertyOp43
 70
     1
102
RTVSPropertyOp44
 70
     1
102
RTVSPropertyOp45
 70
     1
102
RTVSPropertyOp46
 70
     1
102
RTVSPropertyOp47
 70
     1
102
RTVSPropertyOp48
 70
     1
102
RTVSPropertyOp49
 70
     1
102
RTVSPropertyOp50
 70
     1
102
RTVSPropertyOp51
 70
     0
102
RTVSPropertyOp52
 70
     0
102
RTVSPropertyOp53
 70
     1
102
RTVSPropertyOp54
 70
     1
102
RTVSPropertyOp55
 70
     1
102
RTVSPropertyOp56
 70
     1
102
RTVSPropertyOp57
 70
     1
102
RTVSPost2010Prop28
280
     0
102
RTVSPost2010PropOp28
 70
     1
102
RTVSPost2010Prop29
280
     1
102
RTVSPost2010PropOp29
 70
     1
102
RTVSPost2010Prop30
280
     1
102
RTVSPost2010PropOp30
 70
     1
102
RTVSPost2010Prop31
280
     0
102
RTVSPost2010PropOp31
 70
     1
102
RTVSPost2010Prop32
280
     0
102
RTVSPost2010PropOp32
 70
     1
102
RTVSPost2010Prop33
280
     0
102
RTVSPost2010PropOp33
 70
     1
102
RTVSPost2010Prop34
280
     0
102
RTVSPost2010PropOp34
 70
     1
102
RTVSPost2010Prop35
280
     0
102
RTVSPost2010PropOp35
 70
     1
102
RTVSPost2010Prop36
280
     0
102
RTVSPost2010PropOp36
 70
     1
102
RTVSPost2010Prop37
 90
       50
102
RTVSPost2010PropOp37
 70
     1
102
RTVSPost2010Prop38
140
0.0
102
RTVSPost2010PropOp38
 70
     1
102
RTVSPost2010Prop39
140
1.0
102
RTVSPost2010PropOp39
 70
     1
102
RTVSPost2010Prop40
 90
        0
102
RTVSPost2010PropOp40
 70
     1
102
RTVSPost2010Prop41ColorIndex
 90
       18
102
RTVSPost2010Prop41ColorRGB
 90
        0
102
RTVSPost2010PropOp41
 70
     1
102
RTVSPost2010Prop42
 90
       50
102
RTVSPost2010PropOp42
 70
     1
102
RTVSPost2010Prop43
 90
        3
102
RTVSPost2010PropOp43
 70
     1
102
RTVSPost2010Prop44ColorIndex
 90
        5
102
RTVSPost2010Prop44ColorRGB
 90
      255
102
RTVSPost2010PropOp44
 70
     1
102
RTVSPost2010Prop45
280
     0
102
RTVSPost2010PropOp45
 70
     1
102
RTVSPost2010Prop46
 90
       50
102
RTVSPost2010PropOp46
 70
     1
102
RTVSPost2010Prop47
 90
       50
102
RTVSPost2010PropOp47
 70
     1
102
RTVSPost2010Prop48
 90
       50
102
RTVSPost2010PropOp48
 70
     1
102
RTVSPost2010Prop49
280
     0
102
RTVSPost2010PropOp49
 70
     1
102
RTVSPost2010Prop50
 90
       50
102
RTVSPost2010PropOp50
 70
     1
102
RTVSPost2010Prop51ColorIndex
 90
      256
102
RTVSPost2010Prop51ColorRGB
 90
-16777216
102
RTVSPost2010PropOp51
 70
     0
102
RTVSPost2010Prop52
140
1.0
102
RTVSPost2010PropOp52
 70
     0
102
RTVSPost2010Prop53
 90
        2
102
RTVSPost2010PropOp53
 70
     1
102
RTVSPost2010Prop54
  1
strokes_ogs.tif
102
RTVSPost2010PropOp54
 70
     1
102
RTVSPost2010Prop55
280
     0
102
RTVSPost2010PropOp55
 70
     1
102
RTVSPost2010Prop56
140
1.0
102
RTVSPost2010PropOp56
 70
     1
102
RTVSPost2010Prop57
140
1.0
102
RTVSPost2010PropOp57
 70
     1
  0
XRECORD
  5
1301
102
{ACAD_REACTORS
330
1300
102
}
330
1300
100
AcDbXrecord
280
     1
102
RTVSPropertyOp0
 70
     1
102
RTVSPropertyOp1
 70
     1
102
RTVSPropertyOp2
 70
     1
102
RTVSPropertyOp3
 70
     1
102
RTVSPropertyOp4
 70
     1
102
RTVSPropertyOp5
 70
     1
102
RTVSPropertyOp6
 70
     1
102
RTVSPropertyOp7
 70
     1
102
RTVSPropertyOp8
 70
     1
102
RTVSPropertyOp9
 70
     1
102
RTVSPropertyOp10
 70
     1
102
RTVSPropertyOp11
 70
     1
102
RTVSPropertyOp12
 70
     1
102
RTVSPropertyOp13
 70
     1
102
RTVSPropertyOp14
 70
     1
102
RTVSPropertyOp15
 70
     1
102
RTVSPropertyOp16
 70
     1
102
RTVSPropertyOp17
 70
     1
102
RTVSPropertyOp18
 70
     1
102
RTVSPropertyOp19
 70
     1
102
RTVSPropertyOp20
 70
     1
102
RTVSPropertyOp21
 70
     1
102
RTVSPropertyOp22
 70
     1
102
RTVSPropertyOp23
 70
     1
102
RTVSPropertyOp24
 70
     1
102
RTVSPropertyOp25
 70
     1
102
RTVSPropertyOp26
 70
     1
102
RTVSPropertyOp27
 70
     1
102
RTVSPropertyOp28
 70
     1
102
RTVSPropertyOp29
 70
     1
102
RTVSPropertyOp30
 70
     1
102
RTVSPropertyOp31
 70
     1
102
RTVSPropertyOp32
 70
     1
102
RTVSPropertyOp33
 70
     1
102
RTVSPropertyOp34
 70
     1
102
RTVSPropertyOp35
 70
     1
102
RTVSPropertyOp36
 70
     1
102
RTVSPropertyOp37
 70
     1
102
RTVSPropertyOp38
 70
     1
102
RTVSPropertyOp39
 70
     1
102
RTVSPropertyOp40
 70
     1
102
RTVSPropertyOp41
 70
     1
102
RTVSPropertyOp42
 70
     1
102
RTVSPropertyOp43
 70
     1
102
RTVSPropertyOp44
 70
     1
102
RTVSPropertyOp45
 70
     1
102
RTVSPropertyOp46
 70
     1
102
RTVSPropertyOp47
 70
     1
102
RTVSPropertyOp48
 70
     1
102
RTVSPropertyOp49
 70
     1
102
RTVSPropertyOp50
 70
     1
102
RTVSPropertyOp51
 70
     0
102
RTVSPropertyOp52
 70
     0
102
RTVSPropertyOp53
 70
     1
102
RTVSPropertyOp54
 70
     1
102
RTVSPropertyOp55
 70
     1
102
RTVSPropertyOp56
 70
     1
102
RTVSPropertyOp57
 70
     1
102
RTVSPost2010Prop28
280
     0
102
RTVSPost2010PropOp28
 70
     1
102
RTVSPost2010Prop29
280
     1
102
RTVSPost2010PropOp29
 70
     1
102
RTVSPost2010Prop30
280
     1
102
RTVSPost2010PropOp30
 70
     1
102
RTVSPost2010Prop31
280
     0
102
RTVSPost2010PropOp31
 70
     1
102
RTVSPost2010Prop32
280
     0
102
RTVSPost2010PropOp32
 70
     1
102
RTVSPost2010Prop33
280
     0
102
RTVSPost2010PropOp33
 70
     1
102
RTVSPost2010Prop34
280
     0
102
RTVSPost2010PropOp34
 70
     1
102
RTVSPost2010Prop35
280
     0
102
RTVSPost2010PropOp35
 70
     1
102
RTVSPost2010Prop36
280
     0
102
RTVSPost2010PropOp36
 70
     1
102
RTVSPost2010Prop37
 90
       50
102
RTVSPost2010PropOp37
 70
     1
102
RTVSPost2010Prop38
140
0.0
102
RTVSPost2010PropOp38
 70
     1
102
RTVSPost2010Prop39
140
1.0
102
RTVSPost2010PropOp39
 70
     1
102
RTVSPost2010Prop40
 90
        0
102
RTVSPost2010PropOp40
 70
     1
102
RTVSPost2010Prop41ColorIndex
 90
       18
102
RTVSPost2010Prop41ColorRGB
 90
        0
102
RTVSPost2010PropOp41
 70
     1
102
RTVSPost2010Prop42
 90
       50
102
RTVSPost2010PropOp42
 70
     1
102
RTVSPost2010Prop43
 90
        3
102
RTVSPost2010PropOp43
 70
     1
102
RTVSPost2010Prop44ColorIndex
 90
        5
102
RTVSPost2010Prop44ColorRGB
 90
      255
102
RTVSPost2010PropOp44
 70
     1
102
RTVSPost2010Prop45
280
     0
102
RTVSPost2010PropOp45
 70
     1
102
RTVSPost2010Prop46
 90
       50
102
RTVSPost2010PropOp46
 70
     1
102
RTVSPost2010Prop47
 90
       50
102
RTVSPost2010PropOp47
 70
     1
102
RTVSPost2010Prop48
 90
       50
102
RTVSPost2010PropOp48
 70
     1
102
RTVSPost2010Prop49
280
     0
102
RTVSPost2010PropOp49
 70
     1
102
RTVSPost2010Prop50
 90
       50
102
RTVSPost2010PropOp50
 70
     1
102
RTVSPost2010Prop51ColorIndex
 90
      256
102
RTVSPost2010Prop51ColorRGB
 90
-16777216
102
RTVSPost2010PropOp51
 70
     0
102
RTVSPost2010Prop52
140
1.0
102
RTVSPost2010PropOp52
 70
     0
102
RTVSPost2010Prop53
 90
        2
102
RTVSPost2010PropOp53
 70
     1
102
RTVSPost2010Prop54
  1
strokes_ogs.tif
102
RTVSPost2010PropOp54
 70
     1
102
RTVSPost2010Prop55
280
     0
102
RTVSPost2010PropOp55
 70
     1
102
RTVSPost2010Prop56
140
1.0
102
RTVSPost2010PropOp56
 70
     1
102
RTVSPost2010Prop57
140
1.0
102
RTVSPost2010PropOp57
 70
     1
  0
XRECORD
  5
12FB
102
{ACAD_REACTORS
330
12FA
102
}
330
12FA
100
AcDbXrecord
280
     1
102
RTVSPropertyOp0
 70
     1
102
RTVSPropertyOp1
 70
     1
102
RTVSPropertyOp2
 70
     1
102
RTVSPropertyOp3
 70
     1
102
RTVSPropertyOp4
 70
     1
102
RTVSPropertyOp5
 70
     1
102
RTVSPropertyOp6
 70
     1
102
RTVSPropertyOp7
 70
     1
102
RTVSPropertyOp8
 70
     1
102
RTVSPropertyOp9
 70
     1
102
RTVSPropertyOp10
 70
     1
102
RTVSPropertyOp11
 70
     1
102
RTVSPropertyOp12
 70
     1
102
RTVSPropertyOp13
 70
     1
102
RTVSPropertyOp14
 70
     1
102
RTVSPropertyOp15
 70
     1
102
RTVSPropertyOp16
 70
     1
102
RTVSPropertyOp17
 70
     1
102
RTVSPropertyOp18
 70
     1
102
RTVSPropertyOp19
 70
     1
102
RTVSPropertyOp20
 70
     1
102
RTVSPropertyOp21
 70
     1
102
RTVSPropertyOp22
 70
     1
102
RTVSPropertyOp23
 70
     1
102
RTVSPropertyOp24
 70
     1
102
RTVSPropertyOp25
 70
     1
102
RTVSPropertyOp26
 70
     1
102
RTVSPropertyOp27
 70
     1
102
RTVSPropertyOp28
 70
     1
102
RTVSPropertyOp29
 70
     1
102
RTVSPropertyOp30
 70
     1
102
RTVSPropertyOp31
 70
     1
102
RTVSPropertyOp32
 70
     1
102
RTVSPropertyOp33
 70
     1
102
RTVSPropertyOp34
 70
     1
102
RTVSPropertyOp35
 70
     1
102
RTVSPropertyOp36
 70
     1
102
RTVSPropertyOp37
 70
     1
102
RTVSPropertyOp38
 70
     1
102
RTVSPropertyOp39
 70
     1
102
RTVSPropertyOp40
 70
     1
102
RTVSPropertyOp41
 70
     1
102
RTVSPropertyOp42
 70
     1
102
RTVSPropertyOp43
 70
     1
102
RTVSPropertyOp44
 70
     1
102
RTVSPropertyOp45
 70
     1
102
RTVSPropertyOp46
 70
     1
102
RTVSPropertyOp47
 70
     1
102
RTVSPropertyOp48
 70
     1
102
RTVSPropertyOp49
 70
     1
102
RTVSPropertyOp50
 70
     1
102
RTVSPropertyOp51
 70
     0
102
RTVSPropertyOp52
 70
     0
102
RTVSPropertyOp53
 70
     1
102
RTVSPropertyOp54
 70
     1
102
RTVSPropertyOp55
 70
     1
102
RTVSPropertyOp56
 70
     1
102
RTVSPropertyOp57
 70
     1
102
RTVSPost2010Prop28
280
     0
102
RTVSPost2010PropOp28
 70
     1
102
RTVSPost2010Prop29
280
     1
102
RTVSPost2010PropOp29
 70
     1
102
RTVSPost2010Prop30
280
     1
102
RTVSPost2010PropOp30
 70
     1
102
RTVSPost2010Prop31
280
     0
102
RTVSPost2010PropOp31
 70
     1
102
RTVSPost2010Prop32
280
     0
102
RTVSPost2010PropOp32
 70
     1
102
RTVSPost2010Prop33
280
     0
102
RTVSPost2010PropOp33
 70
     1
102
RTVSPost2010Prop34
280
     0
102
RTVSPost2010PropOp34
 70
     1
102
RTVSPost2010Prop35
280
     0
102
RTVSPost2010PropOp35
 70
     1
102
RTVSPost2010Prop36
280
     0
102
RTVSPost2010PropOp36
 70
     1
102
RTVSPost2010Prop37
 90
       50
102
RTVSPost2010PropOp37
 70
     1
102
RTVSPost2010Prop38
140
0.0
102
RTVSPost2010PropOp38
 70
     1
102
RTVSPost2010Prop39
140
1.0
102
RTVSPost2010PropOp39
 70
     1
102
RTVSPost2010Prop40
 90
        0
102
RTVSPost2010PropOp40
 70
     1
102
RTVSPost2010Prop41ColorIndex
 90
       18
102
RTVSPost2010Prop41ColorRGB
 90
        0
102
RTVSPost2010PropOp41
 70
     1
102
RTVSPost2010Prop42
 90
       50
102
RTVSPost2010PropOp42
 70
     1
102
RTVSPost2010Prop43
 90
        3
102
RTVSPost2010PropOp43
 70
     1
102
RTVSPost2010Prop44ColorIndex
 90
        5
102
RTVSPost2010Prop44ColorRGB
 90
      255
102
RTVSPost2010PropOp44
 70
     1
102
RTVSPost2010Prop45
280
     0
102
RTVSPost2010PropOp45
 70
     1
102
RTVSPost2010Prop46
 90
       50
102
RTVSPost2010PropOp46
 70
     1
102
RTVSPost2010Prop47
 90
       50
102
RTVSPost2010PropOp47
 70
     1
102
RTVSPost2010Prop48
 90
       50
102
RTVSPost2010PropOp48
 70
     1
102
RTVSPost2010Prop49
280
     0
102
RTVSPost2010PropOp49
 70
     1
102
RTVSPost2010Prop50
 90
       50
102
RTVSPost2010PropOp50
 70
     1
102
RTVSPost2010Prop51ColorIndex
 90
      256
102
RTVSPost2010Prop51ColorRGB
 90
-16777216
102
RTVSPost2010PropOp51
 70
     0
102
RTVSPost2010Prop52
140
1.0
102
RTVSPost2010PropOp52
 70
     0
102
RTVSPost2010Prop53
 90
        2
102
RTVSPost2010PropOp53
 70
     1
102
RTVSPost2010Prop54
  1
strokes_ogs.tif
102
RTVSPost2010PropOp54
 70
     1
102
RTVSPost2010Prop55
280
     0
102
RTVSPost2010PropOp55
 70
     1
102
RTVSPost2010Prop56
140
1.0
102
RTVSPost2010PropOp56
 70
     1
102
RTVSPost2010Prop57
140
1.0
102
RTVSPost2010PropOp57
 70
     1
  0
XRECORD
  5
12FD
102
{ACAD_REACTORS
330
12FC
102
}
330
12FC
100
AcDbXrecord
280
     1
102
RTVSPropertyOp0
 70
     1
102
RTVSPropertyOp1
 70
     1
102
RTVSPropertyOp2
 70
     1
102
RTVSPropertyOp3
 70
     1
102
RTVSPropertyOp4
 70
     1
102
RTVSPropertyOp5
 70
     1
102
RTVSPropertyOp6
 70
     1
102
RTVSPropertyOp7
 70
     1
102
RTVSPropertyOp8
 70
     1
102
RTVSPropertyOp9
 70
     1
102
RTVSPropertyOp10
 70
     1
102
RTVSPropertyOp11
 70
     1
102
RTVSPropertyOp12
 70
     1
102
RTVSPropertyOp13
 70
     1
102
RTVSPropertyOp14
 70
     1
102
RTVSPropertyOp15
 70
     1
102
RTVSPropertyOp16
 70
     1
102
RTVSPropertyOp17
 70
     1
102
RTVSPropertyOp18
 70
     1
102
RTVSPropertyOp19
 70
     1
102
RTVSPropertyOp20
 70
     1
102
RTVSPropertyOp21
 70
     1
102
RTVSPropertyOp22
 70
     1
102
RTVSPropertyOp23
 70
     1
102
RTVSPropertyOp24
 70
     1
102
RTVSPropertyOp25
 70
     1
102
RTVSPropertyOp26
 70
     1
102
RTVSPropertyOp27
 70
     1
102
RTVSPropertyOp28
 70
     1
102
RTVSPropertyOp29
 70
     1
102
RTVSPropertyOp30
 70
     1
102
RTVSPropertyOp31
 70
     1
102
RTVSPropertyOp32
 70
     1
102
RTVSPropertyOp33
 70
     1
102
RTVSPropertyOp34
 70
     1
102
RTVSPropertyOp35
 70
     1
102
RTVSPropertyOp36
 70
     1
102
RTVSPropertyOp37
 70
     1
102
RTVSPropertyOp38
 70
     1
102
RTVSPropertyOp39
 70
     1
102
RTVSPropertyOp40
 70
     1
102
RTVSPropertyOp41
 70
     1
102
RTVSPropertyOp42
 70
     1
102
RTVSPropertyOp43
 70
     1
102
RTVSPropertyOp44
 70
     1
102
RTVSPropertyOp45
 70
     1
102
RTVSPropertyOp46
 70
     1
102
RTVSPropertyOp47
 70
     1
102
RTVSPropertyOp48
 70
     1
102
RTVSPropertyOp49
 70
     1
102
RTVSPropertyOp50
 70
     1
102
RTVSPropertyOp51
 70
     0
102
RTVSPropertyOp52
 70
     0
102
RTVSPropertyOp53
 70
     1
102
RTVSPropertyOp54
 70
     1
102
RTVSPropertyOp55
 70
     1
102
RTVSPropertyOp56
 70
     1
102
RTVSPropertyOp57
 70
     1
102
RTVSPost2010Prop28
280
     0
102
RTVSPost2010PropOp28
 70
     1
102
RTVSPost2010Prop29
280
     1
102
RTVSPost2010PropOp29
 70
     1
102
RTVSPost2010Prop30
280
     1
102
RTVSPost2010PropOp30
 70
     1
102
RTVSPost2010Prop31
280
     0
102
RTVSPost2010PropOp31
 70
     1
102
RTVSPost2010Prop32
280
     0
102
RTVSPost2010PropOp32
 70
     1
102
RTVSPost2010Prop33
280
     0
102
RTVSPost2010PropOp33
 70
     1
102
RTVSPost2010Prop34
280
     0
102
RTVSPost2010PropOp34
 70
     1
102
RTVSPost2010Prop35
280
     0
102
RTVSPost2010PropOp35
 70
     1
102
RTVSPost2010Prop36
280
     0
102
RTVSPost2010PropOp36
 70
     1
102
RTVSPost2010Prop37
 90
       50
102
RTVSPost2010PropOp37
 70
     1
102
RTVSPost2010Prop38
140
0.0
102
RTVSPost2010PropOp38
 70
     1
102
RTVSPost2010Prop39
140
1.0
102
RTVSPost2010PropOp39
 70
     1
102
RTVSPost2010Prop40
 90
        0
102
RTVSPost2010PropOp40
 70
     1
102
RTVSPost2010Prop41ColorIndex
 90
       18
102
RTVSPost2010Prop41ColorRGB
 90
        0
102
RTVSPost2010PropOp41
 70
     1
102
RTVSPost2010Prop42
 90
       50
102
RTVSPost2010PropOp42
 70
     1
102
RTVSPost2010Prop43
 90
        3
102
RTVSPost2010PropOp43
 70
     1
102
RTVSPost2010Prop44ColorIndex
 90
        5
102
RTVSPost2010Prop44ColorRGB
 90
      255
102
RTVSPost2010PropOp44
 70
     1
102
RTVSPost2010Prop45
280
     0
102
RTVSPost2010PropOp45
 70
     1
102
RTVSPost2010Prop46
 90
       50
102
RTVSPost2010PropOp46
 70
     1
102
RTVSPost2010Prop47
 90
       50
102
RTVSPost2010PropOp47
 70
     1
102
RTVSPost2010Prop48
 90
       50
102
RTVSPost2010PropOp48
 70
     1
102
RTVSPost2010Prop49
280
     0
102
RTVSPost2010PropOp49
 70
     1
102
RTVSPost2010Prop50
 90
       50
102
RTVSPost2010PropOp50
 70
     1
102
RTVSPost2010Prop51ColorIndex
 90
      256
102
RTVSPost2010Prop51ColorRGB
 90
-16777216
102
RTVSPost2010PropOp51
 70
     0
102
RTVSPost2010Prop52
140
1.0
102
RTVSPost2010PropOp52
 70
     0
102
RTVSPost2010Prop53
 90
        2
102
RTVSPost2010PropOp53
 70
     1
102
RTVSPost2010Prop54
  1
strokes_ogs.tif
102
RTVSPost2010PropOp54
 70
     1
102
RTVSPost2010Prop55
280
     0
102
RTVSPost2010PropOp55
 70
     1
102
RTVSPost2010Prop56
140
1.0
102
RTVSPost2010PropOp56
 70
     1
102
RTVSPost2010Prop57
140
1.0
102
RTVSPost2010PropOp57
 70
     1
  0
XRECORD
  5
12ED
102
{ACAD_REACTORS
330
12EC
102
}
330
12EC
100
AcDbXrecord
280
     1
102
RTVSPropertyOp0
 70
     1
102
RTVSPropertyOp1
 70
     1
102
RTVSPropertyOp2
 70
     1
102
RTVSPropertyOp3
 70
     1
102
RTVSPropertyOp4
 70
     1
102
RTVSPropertyOp5
 70
     1
102
RTVSPropertyOp6
 70
     1
102
RTVSPropertyOp7
 70
     1
102
RTVSPropertyOp8
 70
     1
102
RTVSPropertyOp9
 70
     1
102
RTVSPropertyOp10
 70
     1
102
RTVSPropertyOp11
 70
     1
102
RTVSPropertyOp12
 70
     1
102
RTVSPropertyOp13
 70
     1
102
RTVSPropertyOp14
 70
     1
102
RTVSPropertyOp15
 70
     1
102
RTVSPropertyOp16
 70
     1
102
RTVSPropertyOp17
 70
     1
102
RTVSPropertyOp18
 70
     1
102
RTVSPropertyOp19
 70
     1
102
RTVSPropertyOp20
 70
     1
102
RTVSPropertyOp21
 70
     1
102
RTVSPropertyOp22
 70
     1
102
RTVSPropertyOp23
 70
     1
102
RTVSPropertyOp24
 70
     1
102
RTVSPropertyOp25
 70
     1
102
RTVSPropertyOp26
 70
     1
102
RTVSPropertyOp27
 70
     1
102
RTVSPropertyOp28
 70
     1
102
RTVSPropertyOp29
 70
     1
102
RTVSPropertyOp30
 70
     1
102
RTVSPropertyOp31
 70
     1
102
RTVSPropertyOp32
 70
     1
102
RTVSPropertyOp33
 70
     1
102
RTVSPropertyOp34
 70
     1
102
RTVSPropertyOp35
 70
     1
102
RTVSPropertyOp36
 70
     1
102
RTVSPropertyOp37
 70
     1
102
RTVSPropertyOp38
 70
     1
102
RTVSPropertyOp39
 70
     1
102
RTVSPropertyOp40
 70
     1
102
RTVSPropertyOp41
 70
     1
102
RTVSPropertyOp42
 70
     1
102
RTVSPropertyOp43
 70
     1
102
RTVSPropertyOp44
 70
     1
102
RTVSPropertyOp45
 70
     1
102
RTVSPropertyOp46
 70
     1
102
RTVSPropertyOp47
 70
     1
102
RTVSPropertyOp48
 70
     1
102
RTVSPropertyOp49
 70
     1
102
RTVSPropertyOp50
 70
     1
102
RTVSPropertyOp51
 70
     0
102
RTVSPropertyOp52
 70
     0
102
RTVSPropertyOp53
 70
     1
102
RTVSPropertyOp54
 70
     1
102
RTVSPropertyOp55
 70
     1
102
RTVSPropertyOp56
 70
     1
102
RTVSPropertyOp57
 70
     1
102
RTVSPost2010Prop28
280
     0
102
RTVSPost2010PropOp28
 70
     1
102
RTVSPost2010Prop29
280
     1
102
RTVSPost2010PropOp29
 70
     1
102
RTVSPost2010Prop30
280
     1
102
RTVSPost2010PropOp30
 70
     1
102
RTVSPost2010Prop31
280
     0
102
RTVSPost2010PropOp31
 70
     1
102
RTVSPost2010Prop32
280
     0
102
RTVSPost2010PropOp32
 70
     1
102
RTVSPost2010Prop33
280
     0
102
RTVSPost2010PropOp33
 70
     1
102
RTVSPost2010Prop34
280
     0
102
RTVSPost2010PropOp34
 70
     1
102
RTVSPost2010Prop35
280
     0
102
RTVSPost2010PropOp35
 70
     1
102
RTVSPost2010Prop36
280
     0
102
RTVSPost2010PropOp36
 70
     1
102
RTVSPost2010Prop37
 90
       50
102
RTVSPost2010PropOp37
 70
     1
102
RTVSPost2010Prop38
140
0.0
102
RTVSPost2010PropOp38
 70
     1
102
RTVSPost2010Prop39
140
1.0
102
RTVSPost2010PropOp39
 70
     1
102
RTVSPost2010Prop40
 90
        0
102
RTVSPost2010PropOp40
 70
     1
102
RTVSPost2010Prop41ColorIndex
 90
       18
102
RTVSPost2010Prop41ColorRGB
 90
        0
102
RTVSPost2010PropOp41
 70
     1
102
RTVSPost2010Prop42
 90
       50
102
RTVSPost2010PropOp42
 70
     1
102
RTVSPost2010Prop43
 90
        3
102
RTVSPost2010PropOp43
 70
     1
102
RTVSPost2010Prop44ColorIndex
 90
        5
102
RTVSPost2010Prop44ColorRGB
 90
      255
102
RTVSPost2010PropOp44
 70
     1
102
RTVSPost2010Prop45
280
     0
102
RTVSPost2010PropOp45
 70
     1
102
RTVSPost2010Prop46
 90
       50
102
RTVSPost2010PropOp46
 70
     1
102
RTVSPost2010Prop47
 90
       50
102
RTVSPost2010PropOp47
 70
     1
102
RTVSPost2010Prop48
 90
       50
102
RTVSPost2010PropOp48
 70
     1
102
RTVSPost2010Prop49
280
     0
102
RTVSPost2010PropOp49
 70
     1
102
RTVSPost2010Prop50
 90
       50
102
RTVSPost2010PropOp50
 70
     1
102
RTVSPost2010Prop51ColorIndex
 90
      256
102
RTVSPost2010Prop51ColorRGB
 90
-16777216
102
RTVSPost2010PropOp51
 70
     0
102
RTVSPost2010Prop52
140
1.0
102
RTVSPost2010PropOp52
 70
     0
102
RTVSPost2010Prop53
 90
        2
102
RTVSPost2010PropOp53
 70
     1
102
RTVSPost2010Prop54
  1
strokes_ogs.tif
102
RTVSPost2010PropOp54
 70
     1
102
RTVSPost2010Prop55
280
     0
102
RTVSPost2010PropOp55
 70
     1
102
RTVSPost2010Prop56
140
1.0
102
RTVSPost2010PropOp56
 70
     1
102
RTVSPost2010Prop57
140
1.0
102
RTVSPost2010PropOp57
 70
     1
  0
XRECORD
  5
12DF
102
{ACAD_REACTORS
330
12DE
102
}
330
12DE
100
AcDbXrecord
280
     1
102
RTVSPropertyOp0
 70
     1
102
RTVSPropertyOp1
 70
     1
102
RTVSPropertyOp2
 70
     1
102
RTVSPropertyOp3
 70
     1
102
RTVSPropertyOp4
 70
     1
102
RTVSPropertyOp5
 70
     1
102
RTVSPropertyOp6
 70
     1
102
RTVSPropertyOp7
 70
     1
102
RTVSPropertyOp8
 70
     1
102
RTVSPropertyOp9
 70
     1
102
RTVSPropertyOp10
 70
     1
102
RTVSPropertyOp11
 70
     1
102
RTVSPropertyOp12
 70
     1
102
RTVSPropertyOp13
 70
     1
102
RTVSPropertyOp14
 70
     1
102
RTVSPropertyOp15
 70
     1
102
RTVSPropertyOp16
 70
     1
102
RTVSPropertyOp17
 70
     1
102
RTVSPropertyOp18
 70
     1
102
RTVSPropertyOp19
 70
     1
102
RTVSPropertyOp20
 70
     1
102
RTVSPropertyOp21
 70
     1
102
RTVSPropertyOp22
 70
     1
102
RTVSPropertyOp23
 70
     1
102
RTVSPropertyOp24
 70
     1
102
RTVSPropertyOp25
 70
     1
102
RTVSPropertyOp26
 70
     1
102
RTVSPropertyOp27
 70
     1
102
RTVSPropertyOp28
 70
     1
102
RTVSPropertyOp29
 70
     1
102
RTVSPropertyOp30
 70
     1
102
RTVSPropertyOp31
 70
     1
102
RTVSPropertyOp32
 70
     1
102
RTVSPropertyOp33
 70
     1
102
RTVSPropertyOp34
 70
     1
102
RTVSPropertyOp35
 70
     1
102
RTVSPropertyOp36
 70
     1
102
RTVSPropertyOp37
 70
     1
102
RTVSPropertyOp38
 70
     1
102
RTVSPropertyOp39
 70
     1
102
RTVSPropertyOp40
 70
     1
102
RTVSPropertyOp41
 70
     1
102
RTVSPropertyOp42
 70
     1
102
RTVSPropertyOp43
 70
     1
102
RTVSPropertyOp44
 70
     1
102
RTVSPropertyOp45
 70
     1
102
RTVSPropertyOp46
 70
     1
102
RTVSPropertyOp47
 70
     1
102
RTVSPropertyOp48
 70
     1
102
RTVSPropertyOp49
 70
     1
102
RTVSPropertyOp50
 70
     1
102
RTVSPropertyOp51
 70
     0
102
RTVSPropertyOp52
 70
     0
102
RTVSPropertyOp53
 70
     1
102
RTVSPropertyOp54
 70
     1
102
RTVSPropertyOp55
 70
     1
102
RTVSPropertyOp56
 70
     1
102
RTVSPropertyOp57
 70
     1
102
RTVSPost2010Prop28
280
     0
102
RTVSPost2010PropOp28
 70
     1
102
RTVSPost2010Prop29
280
     1
102
RTVSPost2010PropOp29
 70
     1
102
RTVSPost2010Prop30
280
     1
102
RTVSPost2010PropOp30
 70
     1
102
RTVSPost2010Prop31
280
     0
102
RTVSPost2010PropOp31
 70
     1
102
RTVSPost2010Prop32
280
     0
102
RTVSPost2010PropOp32
 70
     1
102
RTVSPost2010Prop33
280
     0
102
RTVSPost2010PropOp33
 70
     1
102
RTVSPost2010Prop34
280
     0
102
RTVSPost2010PropOp34
 70
     1
102
RTVSPost2010Prop35
280
     0
102
RTVSPost2010PropOp35
 70
     1
102
RTVSPost2010Prop36
280
     0
102
RTVSPost2010PropOp36
 70
     1
102
RTVSPost2010Prop37
 90
       50
102
RTVSPost2010PropOp37
 70
     1
102
RTVSPost2010Prop38
140
0.0
102
RTVSPost2010PropOp38
 70
     1
102
RTVSPost2010Prop39
140
1.0
102
RTVSPost2010PropOp39
 70
     1
102
RTVSPost2010Prop40
 90
        0
102
RTVSPost2010PropOp40
 70
     1
102
RTVSPost2010Prop41ColorIndex
 90
       18
102
RTVSPost2010Prop41ColorRGB
 90
        0
102
RTVSPost2010PropOp41
 70
     1
102
RTVSPost2010Prop42
 90
       50
102
RTVSPost2010PropOp42
 70
     1
102
RTVSPost2010Prop43
 90
        3
102
RTVSPost2010PropOp43
 70
     1
102
RTVSPost2010Prop44ColorIndex
 90
        5
102
RTVSPost2010Prop44ColorRGB
 90
      255
102
RTVSPost2010PropOp44
 70
     1
102
RTVSPost2010Prop45
280
     0
102
RTVSPost2010PropOp45
 70
     1
102
RTVSPost2010Prop46
 90
       50
102
RTVSPost2010PropOp46
 70
     1
102
RTVSPost2010Prop47
 90
       50
102
RTVSPost2010PropOp47
 70
     1
102
RTVSPost2010Prop48
 90
       50
102
RTVSPost2010PropOp48
 70
     1
102
RTVSPost2010Prop49
280
     0
102
RTVSPost2010PropOp49
 70
     1
102
RTVSPost2010Prop50
 90
       50
102
RTVSPost2010PropOp50
 70
     1
102
RTVSPost2010Prop51ColorIndex
 90
      256
102
RTVSPost2010Prop51ColorRGB
 90
-16777216
102
RTVSPost2010PropOp51
 70
     0
102
RTVSPost2010Prop52
140
1.0
102
RTVSPost2010PropOp52
 70
     0
102
RTVSPost2010Prop53
 90
        2
102
RTVSPost2010PropOp53
 70
     1
102
RTVSPost2010Prop54
  1
strokes_ogs.tif
102
RTVSPost2010PropOp54
 70
     1
102
RTVSPost2010Prop55
280
     0
102
RTVSPost2010PropOp55
 70
     1
102
RTVSPost2010Prop56
140
1.0
102
RTVSPost2010PropOp56
 70
     1
102
RTVSPost2010Prop57
140
1.0
102
RTVSPost2010PropOp57
 70
     1
  0
XRECORD
  5
12FF
102
{ACAD_REACTORS
330
12FE
102
}
330
12FE
100
AcDbXrecord
280
     1
102
RTVSPropertyOp0
 70
     1
102
RTVSPropertyOp1
 70
     1
102
RTVSPropertyOp2
 70
     1
102
RTVSPropertyOp3
 70
     1
102
RTVSPropertyOp4
 70
     1
102
RTVSPropertyOp5
 70
     1
102
RTVSPropertyOp6
 70
     1
102
RTVSPropertyOp7
 70
     1
102
RTVSPropertyOp8
 70
     1
102
RTVSPropertyOp9
 70
     1
102
RTVSPropertyOp10
 70
     1
102
RTVSPropertyOp11
 70
     1
102
RTVSPropertyOp12
 70
     1
102
RTVSPropertyOp13
 70
     1
102
RTVSPropertyOp14
 70
     1
102
RTVSPropertyOp15
 70
     1
102
RTVSPropertyOp16
 70
     1
102
RTVSPropertyOp17
 70
     1
102
RTVSPropertyOp18
 70
     1
102
RTVSPropertyOp19
 70
     1
102
RTVSPropertyOp20
 70
     1
102
RTVSPropertyOp21
 70
     1
102
RTVSPropertyOp22
 70
     1
102
RTVSPropertyOp23
 70
     1
102
RTVSPropertyOp24
 70
     1
102
RTVSPropertyOp25
 70
     1
102
RTVSPropertyOp26
 70
     1
102
RTVSPropertyOp27
 70
     1
102
RTVSPropertyOp28
 70
     1
102
RTVSPropertyOp29
 70
     1
102
RTVSPropertyOp30
 70
     1
102
RTVSPropertyOp31
 70
     1
102
RTVSPropertyOp32
 70
     1
102
RTVSPropertyOp33
 70
     1
102
RTVSPropertyOp34
 70
     1
102
RTVSPropertyOp35
 70
     1
102
RTVSPropertyOp36
 70
     1
102
RTVSPropertyOp37
 70
     1
102
RTVSPropertyOp38
 70
     1
102
RTVSPropertyOp39
 70
     1
102
RTVSPropertyOp40
 70
     1
102
RTVSPropertyOp41
 70
     1
102
RTVSPropertyOp42
 70
     1
102
RTVSPropertyOp43
 70
     1
102
RTVSPropertyOp44
 70
     1
102
RTVSPropertyOp45
 70
     1
102
RTVSPropertyOp46
 70
     1
102
RTVSPropertyOp47
 70
     1
102
RTVSPropertyOp48
 70
     1
102
RTVSPropertyOp49
 70
     1
102
RTVSPropertyOp50
 70
     1
102
RTVSPropertyOp51
 70
     0
102
RTVSPropertyOp52
 70
     0
102
RTVSPropertyOp53
 70
     1
102
RTVSPropertyOp54
 70
     1
102
RTVSPropertyOp55
 70
     1
102
RTVSPropertyOp56
 70
     1
102
RTVSPropertyOp57
 70
     1
102
RTVSPost2010Prop28
280
     0
102
RTVSPost2010PropOp28
 70
     1
102
RTVSPost2010Prop29
280
     1
102
RTVSPost2010PropOp29
 70
     1
102
RTVSPost2010Prop30
280
     1
102
RTVSPost2010PropOp30
 70
     1
102
RTVSPost2010Prop31
280
     0
102
RTVSPost2010PropOp31
 70
     1
102
RTVSPost2010Prop32
280
     0
102
RTVSPost2010PropOp32
 70
     1
102
RTVSPost2010Prop33
280
     0
102
RTVSPost2010PropOp33
 70
     1
102
RTVSPost2010Prop34
280
     0
102
RTVSPost2010PropOp34
 70
     1
102
RTVSPost2010Prop35
280
     0
102
RTVSPost2010PropOp35
 70
     1
102
RTVSPost2010Prop36
280
     0
102
RTVSPost2010PropOp36
 70
     1
102
RTVSPost2010Prop37
 90
       50
102
RTVSPost2010PropOp37
 70
     1
102
RTVSPost2010Prop38
140
0.0
102
RTVSPost2010PropOp38
 70
     1
102
RTVSPost2010Prop39
140
1.0
102
RTVSPost2010PropOp39
 70
     1
102
RTVSPost2010Prop40
 90
        0
102
RTVSPost2010PropOp40
 70
     1
102
RTVSPost2010Prop41ColorIndex
 90
       18
102
RTVSPost2010Prop41ColorRGB
 90
        0
102
RTVSPost2010PropOp41
 70
     1
102
RTVSPost2010Prop42
 90
       50
102
RTVSPost2010PropOp42
 70
     1
102
RTVSPost2010Prop43
 90
        3
102
RTVSPost2010PropOp43
 70
     1
102
RTVSPost2010Prop44ColorIndex
 90
        5
102
RTVSPost2010Prop44ColorRGB
 90
      255
102
RTVSPost2010PropOp44
 70
     1
102
RTVSPost2010Prop45
280
     0
102
RTVSPost2010PropOp45
 70
     1
102
RTVSPost2010Prop46
 90
       50
102
RTVSPost2010PropOp46
 70
     1
102
RTVSPost2010Prop47
 90
       50
102
RTVSPost2010PropOp47
 70
     1
102
RTVSPost2010Prop48
 90
       50
102
RTVSPost2010PropOp48
 70
     1
102
RTVSPost2010Prop49
280
     0
102
RTVSPost2010PropOp49
 70
     1
102
RTVSPost2010Prop50
 90
       50
102
RTVSPost2010PropOp50
 70
     1
102
RTVSPost2010Prop51ColorIndex
 90
      256
102
RTVSPost2010Prop51ColorRGB
 90
-16777216
102
RTVSPost2010PropOp51
 70
     0
102
RTVSPost2010Prop52
140
1.0
102
RTVSPost2010PropOp52
 70
     0
102
RTVSPost2010Prop53
 90
        2
102
RTVSPost2010PropOp53
 70
     1
102
RTVSPost2010Prop54
  1
strokes_ogs.tif
102
RTVSPost2010PropOp54
 70
     1
102
RTVSPost2010Prop55
280
     0
102
RTVSPost2010PropOp55
 70
     1
102
RTVSPost2010Prop56
140
1.0
102
RTVSPost2010PropOp56
 70
     1
102
RTVSPost2010Prop57
140
1.0
102
RTVSPost2010PropOp57
 70
     1
  0
ENDSEC
  0
EOF
