  0
SECTION
  2
HEADER
  9
$ACADVER
  1
AC1021
  9
$ACADMAINTVER
 70
     1
  9
$DWGCODEPAGE
  3
ANSI_1254
  9
$LASTSAVEDBY
  1
uretim
  9
$INSBASE
 10
0.0
 20
0.0
 30
0.0
  9
$EXTMIN
 10
1215.72279630935
 20
337.2004784463879
 30
-0.0015258207003583
  9
$EXTMAX
 10
4323.640115994105
 20
6446.745623818697
 30
0.0000000349246037
  9
$LIMMIN
 10
0.0
 20
0.0
  9
$LIMMAX
 10
420.0
 20
297.0
  9
$ORTHOMODE
 70
     0
  9
$REGENMODE
 70
     1
  9
$FILLMODE
 70
     1
  9
$QTEXTMODE
 70
     0
  9
$MIRRTEXT
 70
     0
  9
$LTSCALE
 40
1.0
  9
$ATTMODE
 70
     1
  9
$TEXTSIZE
 40
2.5
  9
$TRACEWID
 40
1.0
  9
$TEXTSTYLE
  7
Standard
  9
$CLAYER
  8
0
  9
$CELTYPE
  6
ByLayer
  9
$CECOLOR
 62
   256
  9
$CELTSCALE
 40
1.0
  9
$DISPSILH
 70
     0
  9
$DIMSCALE
 40
1.0
  9
$DIMASZ
 40
2.5
  9
$DIMEXO
 40
0.625
  9
$DIMDLI
 40
3.75
  9
$DIMRND
 40
0.0
  9
$DIMDLE
 40
0.0
  9
$DIMEXE
 40
1.25
  9
$DIMTP
 40
0.0
  9
$DIMTM
 40
0.0
  9
$DIMTXT
 40
2.5
  9
$DIMCEN
 40
2.5
  9
$DIMTSZ
 40
0.0
  9
$DIMTOL
 70
     0
  9
$DIMLIM
 70
     0
  9
$DIMTIH
 70
     0
  9
$DIMTOH
 70
     0
  9
$DIMSE1
 70
     0
  9
$DIMSE2
 70
     0
  9
$DIMTAD
 70
     1
  9
$DIMZIN
 70
     8
  9
$DIMBLK
  1

  9
$DIMASO
 70
     1
  9
$DIMSHO
 70
     1
  9
$DIMPOST
  1

  9
$DIMAPOST
  1

  9
$DIMALT
 70
     0
  9
$DIMALTD
 70
     3
  9
$DIMALTF
 40
0.03937007874016
  9
$DIMLFAC
 40
1.0
  9
$DIMTOFL
 70
     1
  9
$DIMTVP
 40
0.0
  9
$DIMTIX
 70
     0
  9
$DIMSOXD
 70
     0
  9
$DIMSAH
 70
     0
  9
$DIMBLK1
  1

  9
$DIMBLK2
  1

  9
$DIMSTYLE
  2
ISO-25
  9
$DIMCLRD
 70
     0
  9
$DIMCLRE
 70
     0
  9
$DIMCLRT
 70
     0
  9
$DIMTFAC
 40
1.0
  9
$DIMGAP
 40
0.625
  9
$DIMJUST
 70
     0
  9
$DIMSD1
 70
     0
  9
$DIMSD2
 70
     0
  9
$DIMTOLJ
 70
     0
  9
$DIMTZIN
 70
     8
  9
$DIMALTZ
 70
     0
  9
$DIMALTTZ
 70
     0
  9
$DIMUPT
 70
     0
  9
$DIMDEC
 70
     2
  9
$DIMTDEC
 70
     2
  9
$DIMALTU
 70
     2
  9
$DIMALTTD
 70
     3
  9
$DIMTXSTY
  7
Standard
  9
$DIMAUNIT
 70
     0
  9
$DIMADEC
 70
     0
  9
$DIMALTRND
 40
0.0
  9
$DIMAZIN
 70
     0
  9
$DIMDSEP
 70
    44
  9
$DIMATFIT
 70
     3
  9
$DIMFRAC
 70
     0
  9
$DIMLDRBLK
  1

  9
$DIMLUNIT
 70
     2
  9
$DIMLWD
 70
    -2
  9
$DIMLWE
 70
    -2
  9
$DIMTMOVE
 70
     0
  9
$DIMFXL
 40
1.0
  9
$DIMFXLON
 70
     0
  9
$DIMJOGANG
 40
0.7853981633974483
  9
$DIMTFILL
 70
     0
  9
$DIMTFILLCLR
 70
     0
  9
$DIMARCSYM
 70
     0
  9
$DIMLTYPE
  6

  9
$DIMLTEX1
  6

  9
$DIMLTEX2
  6

  9
$LUNITS
 70
     2
  9
$LUPREC
 70
     4
  9
$SKETCHINC
 40
1.0
  9
$FILLETRAD
 40
0.0
  9
$AUNITS
 70
     0
  9
$AUPREC
 70
     0
  9
$MENU
  1
.
  9
$ELEVATION
 40
0.0
  9
$PELEVATION
 40
0.0
  9
$THICKNESS
 40
0.0
  9
$LIMCHECK
 70
     0
  9
$CHAMFERA
 40
0.0
  9
$CHAMFERB
 40
0.0
  9
$CHAMFERC
 40
0.0
  9
$CHAMFERD
 40
0.0
  9
$SKPOLY
 70
     0
  9
$TDCREATE
 40
2457891.422820394
  9
$TDUCREATE
 40
2457891.297820394
  9
$TDUPDATE
 40
2457891.424069595
  9
$TDUUPDATE
 40
2457891.299069595
  9
$TDINDWG
 40
0.0012497569
  9
$TDUSRTIMER
 40
0.0012497454
  9
$USRTIMER
 70
     1
  9
$ANGBASE
 50
0.0
  9
$ANGDIR
 70
     0
  9
$PDMODE
 70
     0
  9
$PDSIZE
 40
0.0
  9
$PLINEWID
 40
0.0
  9
$SPLFRAME
 70
     0
  9
$SPLINETYPE
 70
     6
  9
$SPLINESEGS
 70
     8
  9
$HANDSEED
  5
6D6
  9
$SURFTAB1
 70
     6
  9
$SURFTAB2
 70
     6
  9
$SURFTYPE
 70
     6
  9
$SURFU
 70
     6
  9
$SURFV
 70
     6
  9
$UCSBASE
  2

  9
$UCSNAME
  2

  9
$UCSORG
 10
0.0
 20
0.0
 30
0.0
  9
$UCSXDIR
 10
1.0
 20
0.0
 30
0.0
  9
$UCSYDIR
 10
0.0
 20
1.0
 30
0.0
  9
$UCSORTHOREF
  2

  9
$UCSORTHOVIEW
 70
     0
  9
$UCSORGTOP
 10
0.0
 20
0.0
 30
0.0
  9
$UCSORGBOTTOM
 10
0.0
 20
0.0
 30
0.0
  9
$UCSORGLEFT
 10
0.0
 20
0.0
 30
0.0
  9
$UCSORGRIGHT
 10
0.0
 20
0.0
 30
0.0
  9
$UCSORGFRONT
 10
0.0
 20
0.0
 30
0.0
  9
$UCSORGBACK
 10
0.0
 20
0.0
 30
0.0
  9
$PUCSBASE
  2

  9
$PUCSNAME
  2

  9
$PUCSORG
 10
0.0
 20
0.0
 30
0.0
  9
$PUCSXDIR
 10
1.0
 20
0.0
 30
0.0
  9
$PUCSYDIR
 10
0.0
 20
1.0
 30
0.0
  9
$PUCSORTHOREF
  2

  9
$PUCSORTHOVIEW
 70
     0
  9
$PUCSORGTOP
 10
0.0
 20
0.0
 30
0.0
  9
$PUCSORGBOTTOM
 10
0.0
 20
0.0
 30
0.0
  9
$PUCSORGLEFT
 10
0.0
 20
0.0
 30
0.0
  9
$PUCSORGRIGHT
 10
0.0
 20
0.0
 30
0.0
  9
$PUCSORGFRONT
 10
0.0
 20
0.0
 30
0.0
  9
$PUCSORGBACK
 10
0.0
 20
0.0
 30
0.0
  9
$USERI1
 70
     0
  9
$USERI2
 70
     0
  9
$USERI3
 70
     0
  9
$USERI4
 70
     0
  9
$USERI5
 70
     0
  9
$USERR1
 40
0.0
  9
$USERR2
 40
0.0
  9
$USERR3
 40
0.0
  9
$USERR4
 40
0.0
  9
$USERR5
 40
0.0
  9
$WORLDVIEW
 70
     1
  9
$SHADEDGE
 70
     3
  9
$SHADEDIF
 70
    70
  9
$TILEMODE
 70
     1
  9
$MAXACTVP
 70
    64
  9
$PINSBASE
 10
0.0
 20
0.0
 30
0.0
  9
$PLIMCHECK
 70
     0
  9
$PEXTMIN
 10
0.0
 20
0.0
 30
0.0
  9
$PEXTMAX
 10
0.0
 20
0.0
 30
0.0
  9
$PLIMMIN
 10
0.0
 20
0.0
  9
$PLIMMAX
 10
12.0
 20
9.0
  9
$UNITMODE
 70
     0
  9
$VISRETAIN
 70
     1
  9
$PLINEGEN
 70
     0
  9
$PSLTSCALE
 70
     1
  9
$TREEDEPTH
 70
  3020
  9
$CMLSTYLE
  2
Standard
  9
$CMLJUST
 70
     0
  9
$CMLSCALE
 40
20.0
  9
$PROXYGRAPHICS
 70
     1
  9
$MEASUREMENT
 70
     1
  9
$CELWEIGHT
370
    -1
  9
$ENDCAPS
280
     0
  9
$JOINSTYLE
280
     0
  9
$LWDISPLAY
290
     0
  9
$INSUNITS
 70
     4
  9
$HYPERLINKBASE
  1

  9
$STYLESHEET
  1

  9
$XEDIT
290
     1
  9
$CEPSNTYPE
380
     0
  9
$PSTYLEMODE
290
     1
  9
$FINGERPRINTGUID
  2
{CAD5A5FD-6AA4-4179-A88E-3A6257EF500C}
  9
$VERSIONGUID
  2
{8DE87088-CED1-47DC-AC56-67440FFFEE0E}
  9
$EXTNAMES
290
     1
  9
$PSVPSCALE
 40
0.0
  9
$OLESTARTUP
290
     0
  9
$SORTENTS
280
   127
  9
$INDEXCTL
280
     0
  9
$HIDETEXT
280
     1
  9
$XCLIPFRAME
290
     0
  9
$HALOGAP
280
     0
  9
$OBSCOLOR
 70
   257
  9
$OBSLTYPE
280
     0
  9
$INTERSECTIONDISPLAY
280
     0
  9
$INTERSECTIONCOLOR
 70
   257
  9
$DIMASSOC
280
     2
  9
$PROJECTNAME
  1

  9
$CAMERADISPLAY
290
     0
  9
$LENSLENGTH
 40
50.0
  9
$CAMERAHEIGHT
 40
0.0
  9
$STEPSPERSEC
 40
2.0
  9
$STEPSIZE
 40
6.0
  9
$3DDWFPREC
 40
2.0
  9
$PSOLWIDTH
 40
5.0
  9
$PSOLHEIGHT
 40
80.0
  9
$LOFTANG1
 40
1.570796326794896
  9
$LOFTANG2
 40
1.570796326794896
  9
$LOFTMAG1
 40
0.0
  9
$LOFTMAG2
 40
0.0
  9
$LOFTPARAM
 70
     7
  9
$LOFTNORMALS
280
     1
  9
$LATITUDE
 40
37.795
  9
$LONGITUDE
 40
-122.394
  9
$NORTHDIRECTION
 40
0.0
  9
$TIMEZONE
 70
 -8000
  9
$LIGHTGLYPHDISPLAY
280
     1
  9
$TILEMODELIGHTSYNCH
280
     1
  9
$CMATERIAL
347
EC
  9
$SOLIDHIST
280
     1
  9
$SHOWHIST
280
     1
  9
$DWFFRAME
280
     2
  9
$DGNFRAME
280
     0
  9
$REALWORLDSCALE
290
     1
  9
$INTERFERECOLOR
 62
     1
  9
$INTERFEREOBJVS
345
F9
  9
$INTERFEREVPVS
346
F6
  9
$CSHADOW
280
     0
  9
$SHADOWPLANELOCATION
 40
0.0
  0
ENDSEC
  0
SECTION
  2
CLASSES
  0
CLASS
  1
ACDBDICTIONARYWDFLT
  2
AcDbDictionaryWithDefault
  3
ObjectDBX Classes
 90
        0
 91
        1
280
     0
281
     0
  0
CLASS
  1
DICTIONARYVAR
  2
AcDbDictionaryVar
  3
ObjectDBX Classes
 90
        0
 91
        3
280
     0
281
     0
  0
CLASS
  1
TABLESTYLE
  2
AcDbTableStyle
  3
ObjectDBX Classes
 90
     4095
 91
        1
280
     0
281
     0
  0
CLASS
  1
MATERIAL
  2
AcDbMaterial
  3
ObjectDBX Classes
 90
     1024
 91
        3
280
     0
281
     0
  0
CLASS
  1
VISUALSTYLE
  2
AcDbVisualStyle
  3
ObjectDBX Classes
 90
     4095
 91
       16
280
     0
281
     0
  0
CLASS
  1
SORTENTSTABLE
  2
AcDbSortentsTable
  3
ObjectDBX Classes
 90
        0
 91
        2
280
     0
281
     0
  0
ENDSEC
  0
SECTION
  2
TABLES
  0
TABLE
  2
VPORT
  5
8
330
0
100
AcDbSymbolTable
 70
     1
  0
VPORT
  5
EA
330
8
100
AcDbSymbolTableRecord
100
AcDbViewportTableRecord
  2
*Active
 70
     0
 10
0.0
 20
0.0
 11
1.0
 21
1.0
 12
2161.754081464682
 22
3223.27443787499
 13
0.0
 23
0.0
 14
10.0
 24
10.0
 15
10.0
 25
10.0
 16
0.0
 26
0.0
 36
1.0
 17
0.0
 27
0.0
 37
0.0
 40
6502.687182360283
 41
1.739825581395348
 42
50.0
 43
0.0
 44
0.0
 50
0.0
 51
0.0
 71
     0
 72
  1000
 73
     1
 74
     3
 75
     0
 76
     0
 77
     0
 78
     0
281
     0
 65
     1
110
0.0
120
0.0
130
0.0
111
1.0
121
0.0
131
0.0
112
0.0
122
1.0
132
0.0
 79
     0
146
0.0
348
F5
 60
     2
 61
     5
292
     1
282
     1
141
0.0
142
0.0
 63
   250
421
  3355443
  0
ENDTAB
  0
TABLE
  2
LTYPE
  5
5
330
0
100
AcDbSymbolTable
 70
     1
  0
LTYPE
  5
14
330
5
100
AcDbSymbolTableRecord
100
AcDbLinetypeTableRecord
  2
ByBlock
 70
     0
  3

 72
    65
 73
     0
 40
0.0
  0
LTYPE
  5
15
330
5
100
AcDbSymbolTableRecord
100
AcDbLinetypeTableRecord
  2
ByLayer
 70
     0
  3

 72
    65
 73
     0
 40
0.0
  0
LTYPE
  5
16
330
5
100
AcDbSymbolTableRecord
100
AcDbLinetypeTableRecord
  2
Continuous
 70
     0
  3
Solid line
 72
    65
 73
     0
 40
0.0
  0
ENDTAB
  0
TABLE
  2
LAYER
  5
2
102
{ACAD_XDICTIONARY
360
110
102
}
330
0
100
AcDbSymbolTable
 70
     1
  0
LAYER
  5
10
330
2
100
AcDbSymbolTableRecord
100
AcDbLayerTableRecord
  2
0
 70
     0
 62
     7
  6
Continuous
370
    -3
390
F
347
EE
  0
ENDTAB
  0
TABLE
  2
STYLE
  5
3
330
0
100
AcDbSymbolTable
 70
     1
  0
STYLE
  5
11
330
3
100
AcDbSymbolTableRecord
100
AcDbTextStyleTableRecord
  2
Standard
 70
     0
 40
0.0
 41
1.0
 50
0.0
 71
     0
 42
2.5
  3
txt
  4

  0
ENDTAB
  0
TABLE
  2
VIEW
  5
6
330
0
100
AcDbSymbolTable
 70
     1
  0
ENDTAB
  0
TABLE
  2
UCS
  5
7
330
0
100
AcDbSymbolTable
 70
     0
  0
ENDTAB
  0
TABLE
  2
APPID
  5
9
330
0
100
AcDbSymbolTable
 70
     2
  0
APPID
  5
12
330
9
100
AcDbSymbolTableRecord
100
AcDbRegAppTableRecord
  2
ACAD
 70
     0
  0
APPID
  5
9E
330
9
100
AcDbSymbolTableRecord
100
AcDbRegAppTableRecord
  2
ACAD_PSEXT
 70
     0
  0
ENDTAB
  0
TABLE
  2
DIMSTYLE
  5
A
330
0
100
AcDbSymbolTable
 70
     2
100
AcDbDimStyleTable
 71
     1
340
27
  0
DIMSTYLE
105
27
330
A
100
AcDbSymbolTableRecord
100
AcDbDimStyleTableRecord
  2
ISO-25
 70
     0
 41
2.5
 42
0.625
 43
3.75
 44
1.25
 73
     0
 74
     0
 77
     1
 78
     8
140
2.5
141
2.5
143
0.03937007874016
147
0.625
171
     3
172
     1
271
     2
272
     2
274
     3
278
    44
283
     0
284
     8
340
11
  0
DIMSTYLE
105
10F
330
A
100
AcDbSymbolTableRecord
100
AcDbDimStyleTableRecord
  2
Standard
 70
     0
140
15.0
271
     1
272
     1
340
11
  0
ENDTAB
  0
TABLE
  2
BLOCK_RECORD
  5
1
330
0
100
AcDbSymbolTable
 70
     2
  0
BLOCK_RECORD
  5
1F
330
1
100
AcDbSymbolTableRecord
100
AcDbBlockTableRecord
  2
*Model_Space
340
22
 70
     0
280
     1
281
     0
  0
BLOCK_RECORD
  5
D2
330
1
100
AcDbSymbolTableRecord
100
AcDbBlockTableRecord
  2
*Paper_Space
340
D3
 70
     0
280
     1
281
     0
  0
BLOCK_RECORD
  5
D6
330
1
100
AcDbSymbolTableRecord
100
AcDbBlockTableRecord
  2
*Paper_Space0
340
D7
 70
     0
280
     1
281
     0
  0
ENDTAB
  0
ENDSEC
  0
SECTION
  2
BLOCKS
  0
BLOCK
  5
20
330
1F
100
AcDbEntity
  8
0
100
AcDbBlockBegin
  2
*Model_Space
 70
     0
 10
0.0
 20
0.0
 30
0.0
  3
*Model_Space
  1

  0
ENDBLK
  5
21
330
1F
100
AcDbEntity
  8
0
100
AcDbBlockEnd
  0
BLOCK
  5
D4
330
D2
100
AcDbEntity
 67
     1
  8
0
100
AcDbBlockBegin
  2
*Paper_Space
 70
     0
 10
0.0
 20
0.0
 30
0.0
  3
*Paper_Space
  1

  0
ENDBLK
  5
D5
330
D2
100
AcDbEntity
 67
     1
  8
0
100
AcDbBlockEnd
  0
BLOCK
  5
D8
330
D6
100
AcDbEntity
 67
     1
  8
0
100
AcDbBlockBegin
  2
*Paper_Space0
 70
     0
 10
0.0
 20
0.0
 30
0.0
  3
*Paper_Space0
  1

  0
ENDBLK
  5
D9
330
D6
100
AcDbEntity
 67
     1
  8
0
100
AcDbBlockEnd
  0
ENDSEC
  0
SECTION
  2
ENTITIES
  0
LWPOLYLINE
  5
1CD
330
1F
100
AcDbEntity
  8
0
 62
     5
100
AcDbPolyline
 90
        8
 70
     1
 43
0.0
 10
2442.177283827005
 20
6190.709371047855
 10
2418.095666206421
 20
6396.548875749979
 10
2208.858186476115
 20
6396.548875749979
 10
2170.715934718298
 20
6278.976212550665
 10
1893.912188969342
 20
6396.548875749979
 10
1839.423257886717
 20
6396.548875749978
 10
2013.506459322213
 20
5834.121508446708
 10
2277.514233957694
 20
5767.096409255209
  0
LWPOLYLINE
  5
1CE
330
1F
100
AcDbEntity
  8
0
 62
     5
100
AcDbPolyline
 90
        5
 70
     1
 43
0.0
 10
3003.220926589195
 20
6234.097005980254
 10
3016.561856713445
 20
6396.548875749979
 10
2522.931313172704
 20
6396.548875749979
 10
2536.265307996998
 20
6234.162037990278
 10
2769.731826528173
 20
5964.655863872514
  0
LWPOLYLINE
  5
1CF
330
1F
100
AcDbEntity
  8
0
 62
     5
100
AcDbPolyline
 90
        6
 70
     1
 43
0.0
 10
2992.395853356423
 20
6102.280605573503
 10
2769.731826528173
 20
5799.618464425231
 10
2547.116302878765
 20
6102.014188181235
 10
2590.241410570067
 20
5576.819004118585
 10
2769.731826528173
 20
5372.460611686801
 10
2949.564074076575
 20
5580.720072329624
  0
LWPOLYLINE
  5
1D0
330
1F
100
AcDbEntity
  8
0
 62
     5
100
AcDbPolyline
 90
        6
 70
     1
 43
0.0
 10
2455.908991323836
 20
6073.336530302803
 10
2310.528794693551
 20
5616.838585927066
 10
2046.782642241692
 20
5726.612938986987
 10
2185.671116569539
 20
5277.892566654447
 10
2392.373842738926
 20
5219.188452507529
 10
2517.110763272279
 20
5550.209611536666
  0
LWPOLYLINE
  5
1D1
330
1F
100
AcDbEntity
  8
0
 62
     5
100
AcDbPolyline
 90
        6
 70
     1
 43
0.0
 10
2575.383859675401
 20
5052.11577539713
 10
2528.739564585159
 20
5450.81152540146
 10
2411.898230090134
 20
5104.81619122434
 10
2211.644222347642
 20
5193.978751978384
 10
2320.328787065396
 20
4842.841059790686
 10
2477.072303177957
 20
4804.286312505103
  0
LWPOLYLINE
  5
1D2
330
1F
100
AcDbEntity
  8
0
 62
     5
100
AcDbPolyline
 90
        6
 70
     1
 43
0.0
 10
2941.496160071075
 20
5482.477468318546
 10
2769.731826528173
 20
5247.217088363592
 10
2598.219084070698
 20
5479.663636239841
 10
2631.211818371631
 20
5077.864635807332
 10
2769.731826528173
 20
4918.712659739328
 10
2908.294591211868
 20
5078.183548012229
  0
LWPOLYLINE
  5
1D3
330
1F
100
AcDbEntity
  8
0
 62
     5
100
AcDbPolyline
 90
        6
 70
     1
 43
0.0
 10
2848.307345569753
 20
4347.721719179106
 10
2769.731826528173
 20
4237.691292034085
 10
2691.552621145596
 20
4343.0096820249
 10
2706.499106157681
 20
4160.985279832123
 10
2769.731826528173
 20
4088.089890303194
 10
2832.729951101582
 20
4158.036529771356
  0
LWPOLYLINE
  5
1D4
330
1F
100
AcDbEntity
  8
0
 62
     5
100
AcDbPolyline
 90
        6
 70
     1
 43
0.0
 10
2681.292201157056
 20
4146.855966945683
 10
2659.650614612206
 20
4331.839115733517
 10
2606.936463765445
 20
4172.460020885279
 10
2515.285819676174
 20
4212.97459545431
 10
2564.238409209161
 20
4054.818749130906
 10
2637.057394287703
 20
4035.383519264025
  0
LWPOLYLINE
  5
1D5
330
1F
100
AcDbEntity
  8
0
 62
     5
100
AcDbPolyline
 90
        6
 70
     1
 43
0.0
 10
2654.592493761587
 20
4375.073798179745
 10
2626.773991319679
 20
4612.854617326378
 10
2559.674131368034
 20
4402.974160661901
 10
2439.394164272418
 20
4458.165076770441
 10
2503.261348704059
 20
4251.823212071498
 10
2598.30774547306
 20
4227.315034331101
  0
LWPOLYLINE
  5
1D6
330
1F
100
AcDbEntity
  8
0
 62
     5
100
AcDbPolyline
 90
        6
 70
     1
 43
0.0
 10
2871.561879240363
 20
4630.891066460728
 10
2769.731826528173
 20
4491.734359369796
 10
2668.102161704862
 20
4628.598959864824
 10
2687.65185387202
 20
4390.514819887936
 10
2769.731826528173
 20
4297.387202808113
 10
2851.595351057426
 20
4387.75960516691
  0
LWPOLYLINE
  5
1D7
330
1F
100
AcDbEntity
  8
0
 62
     5
100
AcDbPolyline
 90
        6
 70
     1
 43
0.0
 10
2902.085868223622
 20
5002.580224336299
 10
2769.731826528173
 20
4820.94399481738
 10
2637.823031269896
 20
4997.35058353346
 10
2663.207714578989
 20
4688.205537025327
 10
2769.731826528173
 20
4565.568910933985
 10
2876.58060849469
 20
4692.00389320057
  0
LWPOLYLINE
  5
1D8
330
1F
100
AcDbEntity
  8
0
 62
     5
100
AcDbPolyline
 90
        6
 70
     1
 43
0.0
 10
2620.066881032698
 20
4670.184165582038
 10
2584.073069651925
 20
4977.844075463982
 10
2494.131837210772
 20
4709.978950797776
 10
2340.454840463653
 20
4777.817880450915
 10
2423.193192457774
 20
4510.507116957685
 10
2542.825297110635
 20
4479.340459923081
  0
LWPOLYLINE
  5
1D9
330
1F
100
AcDbEntity
  8
0
 62
     5
100
AcDbPolyline
 90
        6
 70
     1
 43
0.0
 10
2701.41805848857
 20
3974.828631818377
 10
2685.08536991034
 20
4114.433561203304
 10
2643.534557890257
 20
3992.799734205529
 10
2573.250001117625
 20
4025.704131117817
 10
2611.310997818693
 20
3902.736802880515
 10
2667.325677101043
 20
3887.344482913263
  0
LWPOLYLINE
  5
1DA
330
1F
100
AcDbEntity
  8
0
 62
     5
100
AcDbPolyline
 90
        6
 70
     1
 43
0.0
 10
2818.431844824599
 20
3983.929171646416
 10
2830.100014189034
 20
4126.011913433443
 10
2769.731826528173
 20
4042.519307071655
 10
2709.389152204844
 20
4125.789118084302
 10
2721.00246353668
 20
3984.357467034126
 10
2769.731826528173
 20
3927.034041341644
  0
LWPOLYLINE
  5
1DB
330
1F
100
AcDbEntity
  8
0
 62
     5
100
AcDbPolyline
 90
        6
 70
     1
 43
0.0
 10
2816.314282358545
 20
3958.143714503529
 10
2769.731826528173
 20
3892.255857158093
 10
2723.37124463761
 20
3955.509482810806
 10
2732.33154440691
 20
3846.387290693071
 10
2769.731826528173
 20
3803.896792390879
 10
2807.061320276823
 20
3845.470836594525
  0
LWPOLYLINE
  5
1DC
330
1F
100
AcDbEntity
  8
0
 62
     5
100
AcDbPolyline
 90
        6
 70
     1
 43
0.0
 10
2717.18366223055
 20
3840.070904297368
 10
2704.451898969543
 20
3948.896643702376
 10
2672.668726687343
 20
3854.47670035753
 10
2618.169861090523
 20
3880.577212633701
 10
2648.005535420752
 20
3784.184225677484
 10
2689.577420510214
 20
3772.678850170274
  0
LWPOLYLINE
  5
1DD
330
1F
100
AcDbEntity
  8
0
 62
     5
100
AcDbPolyline
 90
        6
 70
     1
 43
0.0
 10
2729.194831527807
 20
3737.404497995519
 10
2719.561676913415
 20
3819.744638337683
 10
2694.298097642569
 20
3747.389764442232
 10
2653.187514428334
 20
3767.442306947701
 10
2676.206432774366
 20
3693.072870168196
 10
2709.219144399927
 20
3684.69224574245
  0
LWPOLYLINE
  5
1DE
330
1F
100
AcDbEntity
  8
0
 62
     5
100
AcDbPolyline
 90
        6
 70
     1
 43
0.0
 10
2805.609921411707
 20
3827.797221844607
 10
2769.731826528173
 20
3779.105760481843
 10
2733.93965598118
 20
3826.803050804587
 10
2741.004045416682
 20
3740.770029474457
 10
2769.731826528173
 20
3708.822090665111
 10
2798.68776999326
 20
3743.506514204129
  0
LWPOLYLINE
  5
1DF
330
1F
100
AcDbEntity
  8
0
 62
     5
100
AcDbPolyline
 90
        6
 70
     1
 43
0.0
 10
2797.256754740106
 20
3726.081109724989
 10
2769.731826528173
 20
3687.873688396544
 10
2742.213085080447
 20
3726.045850388372
 10
2747.541675279187
 20
3661.152101478755
 10
2769.731826528173
 20
3635.04490042148
 10
2791.893102585638
 20
3660.768173282499
  0
LWPOLYLINE
  5
1E0
330
1F
100
AcDbEntity
  8
0
 62
     5
100
AcDbPolyline
 90
        6
 70
     1
 43
0.0
 10
2738.651512728285
 20
3656.572777921613
 10
2731.26472731487
 20
3719.711902327387
 10
2710.529668510274
 20
3666.271722846524
 10
2680.453958501204
 20
3679.349979662973
 10
2697.499896714589
 20
3624.278025140603
 10
2723.599170726674
 20
3616.197958296879
  0
LWPOLYLINE
  5
1E1
330
1F
100
AcDbEntity
  8
0
 62
     5
100
AcDbPolyline
 90
        6
 70
     1
 43
0.0
 10
2740.358304455507
 20
3641.983842522949
 10
2724.513840607492
 20
3602.434855564022
 10
2700.610470692956
 20
3614.228394165092
 10
2713.153450706458
 20
3573.70458044295
 10
2733.988059910619
 20
3566.772081603912
 10
2745.504050377241
 20
3598.000177947785
  0
LWPOLYLINE
  5
1E2
330
1F
100
AcDbEntity
  8
0
 62
     5
100
AcDbPolyline
 90
        6
 70
     1
 43
0.0
 10
2787.145347733889
 20
3602.954988917557
 10
2790.987546010111
 20
3649.741254056795
 10
2769.731826528173
 20
3619.632536190348
 10
2748.662133829225
 20
3647.506699393356
 10
2752.193434403432
 20
3604.501077973818
 10
2769.731826528173
 20
3585.413353111269
  0
LWPOLYLINE
  5
1E3
330
1F
100
AcDbEntity
  8
0
 62
     5
100
AcDbPolyline
 90
        6
 70
     1
 43
0.0
 10
2707.726864255609
 20
3562.53137872261
 10
2693.32644109551
 20
3602.389490585286
 10
2688.051112122973
 20
3552.616273359704
 10
2663.147114525165
 20
3544.50688618231
 10
2683.214441416575
 20
3515.58856067329
 10
2702.798794574549
 20
3525.995001668312
  0
LWPOLYLINE
  5
1E4
330
1F
100
AcDbEntity
  8
0
 62
     5
100
AcDbPolyline
 90
        6
 70
     1
 43
0.0
 10
2689.227325847119
 20
3613.735198436496
 10
2670.176832353428
 20
3666.463975380612
 10
2664.172549312215
 20
3602.724344581501
 10
2632.427337652968
 20
3588.776086159068
 10
2658.095820304247
 20
3551.786130264629
 10
2683.971696244678
 20
3564.386751395355
  0
LWPOLYLINE
  5
1E5
330
1F
100
AcDbEntity
  8
0
 62
     5
100
AcDbPolyline
 90
        6
 70
     1
 43
0.0
 10
2665.601808990535
 20
3679.126922222203
 10
2640.988130808176
 20
3747.253721513894
 10
2631.717808057475
 20
3663.432146886323
 10
2591.453051543265
 20
3647.822702065224
 10
2624.797276548846
 20
3599.771501336037
 10
2658.338562862825
 20
3616.874576226738
  0
LWPOLYLINE
  5
1E6
330
1F
100
AcDbEntity
  8
0
 62
     5
100
AcDbPolyline
 90
        6
 70
     1
 43
0.0
 10
2634.651011042713
 20
3764.793874722605
 10
2602.173034219181
 20
3854.687818734721
 10
2591.593280572948
 20
3745.432335849417
 10
2536.710352940726
 20
3726.710497435101
 10
2582.621667404507
 20
3660.549302005597
 10
2624.491306841353
 20
3683.205129153505
  0
LWPOLYLINE
  5
1E7
330
1F
100
AcDbEntity
  8
0
 62
     5
100
AcDbPolyline
 90
        6
 70
     1
 43
0.0
 10
2595.639248244094
 20
3872.772313154509
 10
2552.670815250292
 20
3991.702193880142
 10
2536.430934737169
 20
3850.476062373548
 10
2467.001151399593
 20
3827.165998661
 10
2527.412986576042
 20
3740.108608123466
 10
2581.069934572655
 20
3769.125766019171
  0
LWPOLYLINE
  5
1E8
330
1F
100
AcDbEntity
  8
0
 62
     5
100
AcDbPolyline
 90
        6
 70
     1
 43
0.0
 10
2541.706924811785
 20
4022.048522365736
 10
2488.328579187256
 20
4169.791407924852
 10
2469.382178942332
 20
3992.040046127956
 10
2378.235179241217
 20
3955.083547963456
 10
2455.012216803379
 20
3844.442834536335
 10
2524.499059018687
 20
3884.107415449177
  0
LWPOLYLINE
  5
1E9
330
1F
100
AcDbEntity
  8
0
 62
     5
100
AcDbPolyline
 90
        6
 70
     1
 43
0.0
 10
2473.916293187774
 20
4209.682354265621
 10
2402.813213604263
 20
4406.484522390091
 10
2381.191255508406
 20
4169.68590996161
 10
2261.695371142757
 20
4123.025004420866
 10
2358.44072524152
 20
3983.608645856882
 10
2449.695873554324
 20
4032.442505674437
  0
LWPOLYLINE
  5
1EA
330
1F
100
AcDbEntity
  8
0
 62
     5
100
AcDbPolyline
 90
        6
 70
     1
 43
0.0
 10
2385.99284087035
 20
4453.04067497993
 10
2294.919257610827
 20
4705.118063882477
 10
2264.314753857799
 20
4395.576668005845
 10
2110.738576853816
 20
4340.563580369133
 10
2237.15852606862
 20
4158.384196836362
 10
2352.118641110611
 20
4221.81340179162
  0
LWPOLYLINE
  5
1EB
330
1F
100
AcDbEntity
  8
0
 62
     5
100
AcDbPolyline
 90
        6
 70
     1
 43
0.0
 10
2270.243679001048
 20
4773.416193845027
 10
2151.324552859712
 20
5102.565676443723
 10
2112.10325140859
 20
4703.542906158271
 10
1910.727714247704
 20
4628.792264811366
 10
2077.548595802445
 20
4388.392505510754
 10
2229.752646406568
 20
4467.125406946662
  0
LWPOLYLINE
  5
1EC
330
1F
100
AcDbEntity
  8
0
 62
     5
100
AcDbPolyline
 90
        6
 70
     1
 43
0.0
 10
2119.424084364139
 20
5190.861168015825
 10
1966.273450386311
 20
5614.758093339244
 10
1917.723153637104
 20
5092.633143690624
 10
1655.589817672205
 20
4996.462596927981
 10
1872.045512771286
 20
4684.535837423406
 10
2067.959757118669
 20
4790.343911526844
  0
LWPOLYLINE
  5
1ED
330
1F
100
AcDbEntity
  8
0
 62
     5
100
AcDbPolyline
 90
        6
 70
     1
 43
0.0
 10
1928.201443858933
 20
5720.135433861323
 10
1724.238060926779
 20
6284.674075706086
 10
1662.510139948595
 20
5598.974014653637
 10
1321.938864276476
 20
5477.275359330473
 10
1604.582852697445
 20
5069.966956743769
 10
1854.08376485439
 20
5207.054719050287
  0
LWPOLYLINE
  5
1EE
330
1F
100
AcDbEntity
  8
0
 62
     5
100
AcDbPolyline
 90
        6
 70
     1
 43
0.0
 10
1674.149341854901
 20
6396.54887574998
 10
1345.899858910744
 20
6396.54887574998
 10
1332.461924805445
 20
6261.653735832766
 10
1265.98500695677
 20
6233.244874178721
 10
1265.98500695677
 20
5581.154770844964
 10
1585.977950891139
 20
5752.999042806737
  0
LWPOLYLINE
  5
1EF
330
1F
100
AcDbEntity
  8
0
 62
     5
100
AcDbPolyline
 90
        8
 70
     1
 43
0.0
 10
1575.879544392353
 20
4372.662338125272
 10
1545.107827009248
 20
4903.812011388339
 10
1265.98500695677
 20
5248.640377600769
 10
1265.98500695677
 20
5128.795750334226
 10
1325.680045644848
 20
4589.006622275471
 10
1265.98500695677
 20
4506.998739017595
 10
1265.98500695677
 20
4093.238644130559
 10
1364.405338094883
 20
4047.271276612576
  0
LWPOLYLINE
  5
1F0
330
1F
100
AcDbEntity
  8
0
 62
     5
100
AcDbPolyline
 90
        6
 70
     1
 43
0.0
 10
1853.949455414878
 20
4148.659011768283
 10
1824.640638525737
 20
4558.477141670859
 10
1603.864523021119
 20
4831.223981910834
 10
1656.13427337027
 20
4313.943249839394
 10
1429.335819357752
 20
4016.945395152762
 10
1686.720539885232
 20
3896.73346429269
  0
LWPOLYLINE
  5
1F1
330
1F
100
AcDbEntity
  8
0
 62
     5
100
AcDbPolyline
 90
        6
 70
     1
 43
0.0
 10
2066.902401880486
 20
3978.209671258142
 10
2041.731178838011
 20
4290.283461476666
 10
1872.017112859271
 20
4499.948239454027
 10
1911.868804619073
 20
4100.342694736953
 10
1738.637483188046
 20
3872.485575816661
 10
1937.190351582766
 20
3779.751152271165
  0
LWPOLYLINE
  5
1F2
330
1F
100
AcDbEntity
  8
0
 62
     5
100
AcDbPolyline
 90
        6
 70
     1
 43
0.0
 10
2226.240410350446
 20
3841.7461013947
 10
2210.207535170332
 20
4082.147750148675
 10
2076.938606227058
 20
4246.788201351306
 10
2107.800731536329
 20
3940.01296131537
 10
1976.001529507187
 20
3761.624331736958
 10
2129.836429835931
 20
3689.775504175301
  0
LWPOLYLINE
  5
1F3
330
1F
100
AcDbEntity
  8
0
 62
     5
100
AcDbPolyline
 90
        6
 70
     1
 43
0.0
 10
2348.399979207818
 20
3734.05106206804
 10
2339.395772142097
 20
3922.548586309384
 10
2237.277028789053
 20
4048.706094403764
 10
2260.226642745119
 20
3810.575397908673
 10
2155.39553924172
 20
3677.838082690307
 10
2279.298881538919
 20
3619.968835490869
  0
LWPOLYLINE
  5
1F4
330
1F
100
AcDbEntity
  8
0
 62
     5
100
AcDbPolyline
 90
        6
 70
     1
 43
0.0
 10
2447.53520606235
 20
3654.46678284103
 10
2438.078196928321
 20
3800.636306594973
 10
2359.8304740791
 20
3897.303553023861
 10
2378.156004639874
 20
3716.08303429522
 10
2297.147468415505
 20
3611.63262545027
 10
2392.106007457443
 20
3567.282093272257
  0
LWPOLYLINE
  5
1F5
330
1F
100
AcDbEntity
  8
0
 62
     5
100
AcDbPolyline
 90
        6
 70
     1
 43
0.0
 10
2514.778170355589
 20
3705.881149992261
 10
2453.551361379033
 20
3781.520757330046
 10
2468.079588619287
 20
3640.478357273792
 10
2407.032559881286
 20
3560.310623931433
 10
2478.382196378059
 20
3526.986666115045
 10
2521.361995306937
 20
3596.232929255507
  0
LWPOLYLINE
  5
1F6
330
1F
100
AcDbEntity
  8
0
 62
     5
100
AcDbPolyline
 90
        6
 70
     1
 43
0.0
 10
2575.063488624227
 20
3631.404660390786
 10
2526.066574515841
 20
3691.935454104712
 10
2537.516733708145
 20
3584.301732225707
 10
2490.419766693457
 20
3521.364500325584
 10
2543.403197274333
 20
3496.618507320781
 10
2579.412902916019
 20
3549.554325221289
  0
LWPOLYLINE
  5
1F7
330
1F
100
AcDbEntity
  8
0
 62
     5
100
AcDbPolyline
 90
        6
 70
     1
 43
0.0
 10
2653.949335198771
 20
3533.949075833175
 10
2625.973932452508
 20
3568.509891825622
 10
2631.2772249528
 20
3504.752282035815
 10
2604.969553431475
 20
3467.863845682352
 10
2634.696496535145
 20
3453.979831037908
 10
2655.927330156448
 20
3481.890809842705
  0
LWPOLYLINE
  5
1F8
330
1F
100
AcDbEntity
  8
0
 62
     5
100
AcDbPolyline
 90
        6
 70
     1
 43
0.0
 10
2680.28612812247
 20
3501.412598616997
 10
2660.368161364685
 20
3526.019257198567
 10
2663.057250407649
 20
3480.67443360432
 10
2641.629223067322
 20
3450.741890414039
 10
2664.63064723956
 20
3439.999039763822
 10
2682.502840267648
 20
3463.696202735988
  0
LWPOLYLINE
  5
1F9
330
1F
100
AcDbEntity
  8
0
 62
     5
100
AcDbPolyline
 90
        6
 70
     1
 43
0.0
 10
2664.840738841545
 20
3425.475455290069
 10
2641.715088474776
 20
3433.095901673764
 10
2653.928384198801
 20
3390.91137180878
 10
2641.760077828696
 20
3348.906570688193
 10
2665.672496231077
 20
3356.755462256089
 10
2674.37068372161
 20
3390.911371808778
  0
LWPOLYLINE
  5
1FA
330
1F
100
AcDbEntity
  8
0
 62
     5
100
AcDbPolyline
 90
        6
 70
     1
 43
0.0
 10
2633.800277285505
 20
3435.704018347172
 10
2603.318942796113
 20
3445.748335868886
 10
2619.721160211725
 20
3390.911371808778
 10
2604.285812490395
 20
3336.60620690745
 10
2635.105562272956
 20
3346.722326077089
 10
2646.653789002689
 20
3390.911371808778
  0
LWPOLYLINE
  5
1FB
330
1F
100
AcDbEntity
  8
0
 62
     5
100
AcDbPolyline
 90
        6
 70
     1
 43
0.0
 10
2593.396434165502
 20
3449.018036128647
 10
2551.063558733215
 20
3462.967715483964
 10
2575.313198157507
 20
3390.91137180878
 10
2552.329987283193
 20
3319.552488981074
 10
2593.260705124784
 20
3332.987381292201
 10
2610.992913417352
 20
3390.911371808777
  0
LWPOLYLINE
  5
1FC
330
1F
100
AcDbEntity
  8
0
 62
     5
100
AcDbPolyline
 90
        6
 70
     1
 43
0.0
 10
2542.045438254726
 20
3465.939398550086
 10
2489.53701388099
 20
3483.242160906451
 10
2518.801838289693
 20
3390.91137180878
 10
2486.347346403237
 20
3297.894679849634
 10
2541.613883047286
 20
3316.035088994063
 10
2562.232397048961
 20
3390.911371808778
  0
LWPOLYLINE
  5
1FD
330
1F
100
AcDbEntity
  8
0
 62
     5
100
AcDbPolyline
 90
        6
 70
     1
 43
0.0
 10
2474.137536126867
 20
3488.316651470007
 10
2404.088770735057
 20
3511.399369250764
 10
2443.124708081807
 20
3390.911371808782
 10
2399.127578625217
 20
3269.266103335676
 10
2471.400821018114
 20
3292.988707768915
 10
2498.718352280478
 20
3390.911371808782
  0
LWPOLYLINE
  5
1FE
330
1F
100
AcDbEntity
  8
0
 62
     5
100
AcDbPolyline
 90
        6
 70
     1
 43
0.0
 10
2387.138866024711
 20
3516.984762007524
 10
2295.147560294231
 20
3547.298063556566
 10
2346.835230024525
 20
3390.91137180878
 10
2288.603598463765
 20
3232.988269728824
 10
2384.765233254578
 20
3264.551879555468
 10
2423.437297367397
 20
3390.911371808775
  0
LWPOLYLINE
  5
1FF
330
1F
100
AcDbEntity
  8
0
 62
     5
100
AcDbPolyline
 90
        6
 70
     1
 43
0.0
 10
2319.75957199686
 20
3390.911371808775
 10
2269.936334201259
 20
3555.605756255447
 10
2155.242909251313
 20
3593.399940701378
 10
2214.706378449025
 20
3390.911371808777
 10
2150.008660887566
 20
3187.496566690291
 10
2273.37802898026
 20
3227.990705621151
  0
LWPOLYLINE
  5
200
330
1F
100
AcDbEntity
  8
0
 62
     5
100
AcDbPolyline
 90
        6
 70
     1
 43
0.0
 10
2118.001363838376
 20
3605.671906919165
 10
1970.585862337998
 20
3654.248786163346
 10
2051.638531998186
 20
3390.91137180878
 10
1964.958083000886
 20
3126.756498665066
 10
2115.516385263146
 20
3176.174996167797
 10
2184.131158774669
 20
3390.91137180878
  0
LWPOLYLINE
  5
201
330
1F
100
AcDbEntity
  8
0
 62
     5
100
AcDbPolyline
 90
        6
 70
     1
 43
0.0
 10
1926.187706315651
 20
3668.879024108551
 10
1727.740461216185
 20
3734.272064619374
 10
1838.268017779913
 20
3390.91137180878
 10
1726.856558607172
 20
3048.603255623377
 10
1930.825669680366
 20
3115.553047529548
 10
2005.775714768047
 20
3390.91137180878
  0
LWPOLYLINE
  5
202
330
1F
100
AcDbEntity
  8
0
 62
     5
100
AcDbPolyline
 90
        6
 70
     1
 43
0.0
 10
1775.071938573682
 20
3390.911371808778
 10
1674.15892063085
 20
3751.928444038359
 10
1412.769024419621
 20
3838.062570332188
 10
1562.893997857035
 20
3390.911371808778
 10
1415.828576143562
 20
2946.512999930389
 10
1677.242495811436
 20
3032.318185975738
  0
LWPOLYLINE
  5
203
330
1F
100
AcDbEntity
  8
0
 62
     5
100
AcDbPolyline
 90
        5
 70
     1
 43
0.0
 10
1479.975825250099
 20
3390.911371808777
 10
1347.560154244486
 20
3859.550428663962
 10
1265.98500695677
 20
3886.431360715135
 10
1265.98500695677
 20
2897.329102806212
 10
1347.811370480828
 20
2924.187375519909
  0
LWPOLYLINE
  5
204
330
1F
100
AcDbEntity
  8
0
 62
     5
100
AcDbPolyline
 90
        8
 70
     1
 43
0.0
 10
3097.315886059144
 20
6190.709371047855
 10
3121.397503679729
 20
6396.548875749979
 10
3330.63498341002
 20
6396.548875749979
 10
3368.777235167851
 20
6278.976212550665
 10
3645.580980916807
 20
6396.548875749979
 10
3700.069911999418
 20
6396.548875749978
 10
3525.986710563922
 20
5834.121508446708
 10
3261.978935928456
 20
5767.096409255209
  0
LWPOLYLINE
  5
205
330
1F
100
AcDbEntity
  8
0
 62
     5
100
AcDbPolyline
 90
        6
 70
     1
 43
0.0
 10
3083.584178562299
 20
6073.336530302803
 10
3228.964375192599
 20
5616.838585927066
 10
3492.710527644457
 20
5726.612938986987
 10
3353.822053316611
 20
5277.892566654447
 10
3147.119327147209
 20
5219.188452507529
 10
3022.38240661387
 20
5550.209611536666
  0
LWPOLYLINE
  5
206
330
1F
100
AcDbEntity
  8
0
 62
     5
100
AcDbPolyline
 90
        6
 70
     1
 43
0.0
 10
2964.109310210734
 20
5052.11577539713
 10
3010.753605300977
 20
5450.81152540146
 10
3127.594939796001
 20
5104.81619122434
 10
3327.848947538493
 20
5193.978751978384
 10
3219.164382820739
 20
4842.841059790686
 10
3062.420866708178
 20
4804.286312505103
  0
LWPOLYLINE
  5
207
330
1F
100
AcDbEntity
  8
0
 62
     5
100
AcDbPolyline
 90
        6
 70
     1
 43
0.0
 10
2858.200968729079
 20
4146.855966945683
 10
2879.842555273929
 20
4331.839115733517
 10
2932.556706120705
 20
4172.460020885279
 10
3024.207350209975
 20
4212.97459545431
 10
2975.254760676974
 20
4054.818749130906
 10
2902.435775598432
 20
4035.383519264025
  0
LWPOLYLINE
  5
208
330
1F
100
AcDbEntity
  8
0
 62
     5
100
AcDbPolyline
 90
        6
 70
     1
 43
0.0
 10
2884.900676124563
 20
4375.073798179745
 10
2912.71917856647
 20
4612.854617326378
 10
2979.819038518116
 20
4402.974160661901
 10
3100.099005613732
 20
4458.165076770441
 10
3036.23182118209
 20
4251.823212071498
 10
2941.18542441309
 20
4227.315034331101
  0
LWPOLYLINE
  5
209
330
1F
100
AcDbEntity
  8
0
 62
     5
100
AcDbPolyline
 90
        6
 70
     1
 43
0.0
 10
2919.426288853437
 20
4670.184165582038
 10
2955.42010023421
 20
4977.844075463982
 10
3045.361332675363
 20
4709.978950797776
 10
3199.038329422497
 20
4777.817880450915
 10
3116.299977428376
 20
4510.507116957685
 10
2996.6678727755
 20
4479.340459923081
  0
LWPOLYLINE
  5
20A
330
1F
100
AcDbEntity
  8
0
 62
     5
100
AcDbPolyline
 90
        6
 70
     1
 43
0.0
 10
2838.075111397579
 20
3974.828631818377
 10
2854.407799975795
 20
4114.433561203304
 10
2895.958611995892
 20
3992.799734205529
 10
2966.243168768511
 20
4025.704131117817
 10
2928.182172067442
 20
3902.736802880515
 10
2872.167492785092
 20
3887.344482913263
  0
LWPOLYLINE
  5
20B
330
1F
100
AcDbEntity
  8
0
 62
     5
100
AcDbPolyline
 90
        6
 70
     1
 43
0.0
 10
2822.309507655599
 20
3840.070904297368
 10
2835.041270916591
 20
3948.896643702376
 10
2866.824443198792
 20
3854.47670035753
 10
2921.323308795626
 20
3880.577212633701
 10
2891.487634465398
 20
3784.184225677484
 10
2849.91574937592
 20
3772.678850170274
  0
LWPOLYLINE
  5
20C
330
1F
100
AcDbEntity
  8
0
 62
     5
100
AcDbPolyline
 90
        6
 70
     1
 43
0.0
 10
2810.298338358343
 20
3737.404497995519
 10
2819.931492972735
 20
3819.744638337683
 10
2845.19507224358
 20
3747.389764442232
 10
2886.305655457815
 20
3767.442306947701
 10
2863.286737111783
 20
3693.072870168196
 10
2830.274025486208
 20
3684.69224574245
  0
LWPOLYLINE
  5
20D
330
1F
100
AcDbEntity
  8
0
 62
     5
100
AcDbPolyline
 90
        6
 70
     1
 43
0.0
 10
2800.84165715785
 20
3656.572777921613
 10
2808.22844257128
 20
3719.711902327387
 10
2828.963501375861
 20
3666.271722846524
 10
2859.039211384946
 20
3679.349979662973
 10
2841.993273171561
 20
3624.278025140603
 10
2815.893999159461
 20
3616.197958296879
  0
LWPOLYLINE
  5
20E
330
1F
100
AcDbEntity
  8
0
 62
     5
100
AcDbPolyline
 90
        6
 70
     1
 43
0.0
 10
2799.134865430629
 20
3641.983842522949
 10
2814.979329278643
 20
3602.434855564022
 10
2838.88269919318
 20
3614.228394165092
 10
2826.339719179676
 20
3573.70458044295
 10
2805.505109975531
 20
3566.772081603912
 10
2793.989119508909
 20
3598.000177947785
  0
LWPOLYLINE
  5
20F
330
1F
100
AcDbEntity
  8
0
 62
     5
100
AcDbPolyline
 90
        6
 70
     1
 43
0.0
 10
2831.766305630526
 20
3562.53137872261
 10
2846.16672879064
 20
3602.389490585286
 10
2851.442057763162
 20
3552.616273359704
 10
2876.346055360971
 20
3544.50688618231
 10
2856.27872846956
 20
3515.58856067329
 10
2836.694375311586
 20
3525.995001668312
  0
LWPOLYLINE
  5
210
330
1F
100
AcDbEntity
  8
0
 62
     5
100
AcDbPolyline
 90
        6
 70
     1
 43
0.0
 10
2850.265844039031
 20
3613.735198436496
 10
2869.316337532707
 20
3666.463975380612
 10
2875.32062057392
 20
3602.724344581501
 10
2907.065832233181
 20
3588.776086159068
 10
2881.397349581888
 20
3551.786130264629
 10
2855.521473641458
 20
3564.386751395355
  0
LWPOLYLINE
  5
211
330
1F
100
AcDbEntity
  8
0
 62
     5
100
AcDbPolyline
 90
        6
 70
     1
 43
0.0
 10
2873.891360895615
 20
3679.126922222203
 10
2898.505039077973
 20
3747.253721513894
 10
2907.77536182866
 20
3663.432146886323
 10
2948.040118342885
 20
3647.822702065224
 10
2914.695893337304
 20
3599.771501336037
 10
2881.154607023324
 20
3616.874576226738
  0
LWPOLYLINE
  5
212
330
1F
100
AcDbEntity
  8
0
 62
     5
100
AcDbPolyline
 90
        6
 70
     1
 43
0.0
 10
2904.842158843422
 20
3764.793874722605
 10
2937.320135666968
 20
3854.687818734721
 10
2947.899889313188
 20
3745.432335849417
 10
3002.782816945409
 20
3726.710497435101
 10
2956.871502481642
 20
3660.549302005597
 10
2915.001863044782
 20
3683.205129153505
  0
LWPOLYLINE
  5
213
330
1F
100
AcDbEntity
  8
0
 62
     5
100
AcDbPolyline
 90
        6
 70
     1
 43
0.0
 10
2943.853921642041
 20
3872.772313154509
 10
2986.822354635843
 20
3991.702193880142
 10
3003.062235148981
 20
3850.476062373548
 10
3072.492018486542
 20
3827.165998661
 10
3012.080183310093
 20
3740.108608123466
 10
2958.423235313495
 20
3769.125766019171
  0
LWPOLYLINE
  5
214
330
1F
100
AcDbEntity
  8
0
 62
     5
100
AcDbPolyline
 90
        6
 70
     1
 43
0.0
 10
2997.78624507435
 20
4022.048522365736
 10
3051.164590698894
 20
4169.791407924852
 10
3070.110990943817
 20
3992.040046127956
 10
3161.257990644918
 20
3955.083547963456
 10
3084.480953082756
 20
3844.442834536335
 10
3014.994110867448
 20
3884.107415449177
  0
LWPOLYLINE
  5
215
330
1F
100
AcDbEntity
  8
0
 62
     5
100
AcDbPolyline
 90
        6
 70
     1
 43
0.0
 10
3065.576876698376
 20
4209.682354265621
 10
3136.679956281872
 20
4406.484522390091
 10
3158.301914377728
 20
4169.68590996161
 10
3277.797798743392
 20
4123.025004420866
 10
3181.05244464463
 20
3983.608645856882
 10
3089.797296331826
 20
4032.442505674437
  0
LWPOLYLINE
  5
216
330
1F
100
AcDbEntity
  8
0
 62
     5
100
AcDbPolyline
 90
        6
 70
     1
 43
0.0
 10
3153.500329015785
 20
4453.04067497993
 10
3244.573912275309
 20
4705.118063882477
 10
3275.178416028336
 20
4395.576668005845
 10
3428.754593032333
 20
4340.563580369133
 10
3302.334643817515
 20
4158.384196836362
 10
3187.374528775524
 20
4221.81340179162
  0
LWPOLYLINE
  5
217
330
1F
100
AcDbEntity
  8
0
 62
     5
100
AcDbPolyline
 90
        6
 70
     1
 43
0.0
 10
3269.249490885101
 20
4773.416193845027
 10
3388.168617026437
 20
5102.565676443723
 10
3427.38991847756
 20
4703.542906158271
 10
3628.765455638431
 20
4628.792264811366
 10
3461.944574083704
 20
4388.392505510754
 10
3309.740523479567
 20
4467.125406946662
  0
LWPOLYLINE
  5
218
330
1F
100
AcDbEntity
  8
0
 62
     5
100
AcDbPolyline
 90
        6
 70
     1
 43
0.0
 10
3420.069085522011
 20
5190.861168015825
 10
3573.219719499824
 20
5614.758093339244
 10
3621.770016249044
 20
5092.633143690624
 10
3883.903352213945
 20
4996.462596927981
 10
3667.447657114864
 20
4684.535837423406
 10
3471.533412767481
 20
4790.343911526844
  0
LWPOLYLINE
  5
219
330
1F
100
AcDbEntity
  8
0
 62
     5
100
AcDbPolyline
 90
        6
 70
     1
 43
0.0
 10
3611.291726027217
 20
5720.135433861323
 10
3815.255108959355
 20
6284.674075706086
 10
3876.983029937554
 20
5598.974014653637
 10
4217.554305609673
 20
5477.275359330473
 10
3934.910317188704
 20
5069.966956743769
 10
3685.409405031759
 20
5207.054719050287
  0
LWPOLYLINE
  5
21A
330
1F
100
AcDbEntity
  8
0
 62
     5
100
AcDbPolyline
 90
        6
 70
     1
 43
0.0
 10
3865.343828031249
 20
6396.54887574998
 10
4193.593310975405
 20
6396.54887574998
 10
4207.031245080704
 20
6261.653735832766
 10
4273.508162929364
 20
6233.244874178721
 10
4273.508162929364
 20
5581.154770844964
 10
3953.515218994996
 20
5752.999042806737
  0
LWPOLYLINE
  5
21B
330
1F
100
AcDbEntity
  8
0
 62
     5
100
AcDbPolyline
 90
        8
 70
     1
 43
0.0
 10
3963.613625493797
 20
4372.662338125272
 10
3994.385342876886
 20
4903.812011388339
 10
4273.508162929364
 20
5248.640377600769
 10
4273.508162929364
 20
5128.795750334226
 10
4213.813124241286
 20
4589.006622275471
 10
4273.508162929364
 20
4506.998739017595
 10
4273.508162929364
 20
4093.238644130559
 10
4175.087831791265
 20
4047.271276612576
  0
LWPOLYLINE
  5
21C
330
1F
100
AcDbEntity
  8
0
 62
     5
100
AcDbPolyline
 90
        6
 70
     1
 43
0.0
 10
3685.543714471257
 20
4148.659011768283
 10
3714.852531360413
 20
4558.477141670859
 10
3935.62864686503
 20
4831.223981910834
 10
3883.358896515864
 20
4313.943249839394
 10
4110.157350528382
 20
4016.945395152762
 10
3852.772630000903
 20
3896.73346429269
  0
LWPOLYLINE
  5
21D
330
1F
100
AcDbEntity
  8
0
 62
     5
100
AcDbPolyline
 90
        6
 70
     1
 43
0.0
 10
3472.590768005664
 20
3978.209671258142
 10
3497.761991048138
 20
4290.283461476666
 10
3667.476057026878
 20
4499.948239454027
 10
3627.624365267076
 20
4100.342694736953
 10
3800.855686698088
 20
3872.485575816661
 10
3602.302818303369
 20
3779.751152271165
  0
LWPOLYLINE
  5
21E
330
1F
100
AcDbEntity
  8
0
 62
     5
100
AcDbPolyline
 90
        6
 70
     1
 43
0.0
 10
3313.252759535689
 20
3841.7461013947
 10
3329.285634715817
 20
4082.147750148675
 10
3462.554563659092
 20
4246.788201351306
 10
3431.69243834982
 20
3940.01296131537
 10
3563.491640378948
 20
3761.624331736958
 10
3409.656740050218
 20
3689.775504175301
  0
LWPOLYLINE
  5
21F
330
1F
100
AcDbEntity
  8
0
 62
     5
100
AcDbPolyline
 90
        6
 70
     1
 43
0.0
 10
3191.093190678316
 20
3734.05106206804
 10
3200.097397744038
 20
3922.548586309384
 10
3302.216141097081
 20
4048.706094403764
 10
3279.266527141016
 20
3810.575397908673
 10
3384.097630644429
 20
3677.838082690307
 10
3260.194288347216
 20
3619.968835490869
  0
LWPOLYLINE
  5
220
330
1F
100
AcDbEntity
  8
0
 62
     5
100
AcDbPolyline
 90
        6
 70
     1
 43
0.0
 10
3091.957963823786
 20
3654.46678284103
 10
3101.414972957829
 20
3800.636306594973
 10
3179.66269580705
 20
3897.303553023861
 10
3161.337165246275
 20
3716.08303429522
 10
3242.34570147063
 20
3611.63262545027
 10
3147.387162428692
 20
3567.282093272257
  0
LWPOLYLINE
  5
221
330
1F
100
AcDbEntity
  8
0
 62
     5
100
AcDbPolyline
 90
        6
 70
     1
 43
0.0
 10
3024.71499953056
 20
3705.881149992261
 10
3085.941808507102
 20
3781.520757330046
 10
3071.413581266862
 20
3640.478357273792
 10
3132.460610004863
 20
3560.310623931433
 10
3061.110973508091
 20
3526.986666115045
 10
3018.131174579213
 20
3596.232929255507
  0
LWPOLYLINE
  5
222
330
1F
100
AcDbEntity
  8
0
 62
     5
100
AcDbPolyline
 90
        6
 70
     1
 43
0.0
 10
2964.429681261908
 20
3631.404660390786
 10
3013.426595370294
 20
3691.935454104712
 10
3001.97643617799
 20
3584.301732225707
 10
3049.073403192678
 20
3521.364500325584
 10
2996.089972611816
 20
3496.618507320781
 10
2960.080266970131
 20
3549.554325221289
  0
LWPOLYLINE
  5
223
330
1F
100
AcDbEntity
  8
0
 62
     5
100
AcDbPolyline
 90
        6
 70
     1
 43
0.0
 10
2885.543834687365
 20
3533.949075833175
 10
2913.519237433627
 20
3568.509891825622
 10
2908.215944933349
 20
3504.752282035815
 10
2934.523616454674
 20
3467.863845682352
 10
2904.796673351005
 20
3453.979831037908
 10
2883.565839729702
 20
3481.890809842705
  0
LWPOLYLINE
  5
224
330
1F
100
AcDbEntity
  8
0
 62
     5
100
AcDbPolyline
 90
        6
 70
     1
 43
0.0
 10
2859.20704176368
 20
3501.412598616997
 10
2879.12500852145
 20
3526.019257198567
 10
2876.4359194785
 20
3480.67443360432
 10
2897.863946818813
 20
3450.741890414039
 10
2874.862522646589
 20
3439.999039763822
 10
2856.990329618487
 20
3463.696202735988
  0
LWPOLYLINE
  5
225
330
1F
100
AcDbEntity
  8
0
 62
     5
100
AcDbPolyline
 90
        6
 70
     1
 43
0.0
 10
2874.652431044605
 20
3425.475455290069
 10
2897.778081411359
 20
3433.095901673764
 10
2885.564785687348
 20
3390.91137180878
 10
2897.733092057454
 20
3348.906570688193
 10
2873.820673655057
 20
3356.755462256089
 10
2865.12248616454
 20
3390.911371808778
  0
LWPOLYLINE
  5
226
330
1F
100
AcDbEntity
  8
0
 62
     5
100
AcDbPolyline
 90
        6
 70
     1
 43
0.0
 10
2905.692892600645
 20
3435.704018347172
 10
2936.174227090022
 20
3445.748335868886
 10
2919.772009674424
 20
3390.911371808778
 10
2935.20735739574
 20
3336.60620690745
 10
2904.387607613194
 20
3346.722326077089
 10
2892.839380883446
 20
3390.911371808778
  0
LWPOLYLINE
  5
227
330
1F
100
AcDbEntity
  8
0
 62
     5
100
AcDbPolyline
 90
        6
 70
     1
 43
0.0
 10
2946.096735720633
 20
3449.018036128647
 10
2988.429611152934
 20
3462.967715483964
 10
2964.179971728642
 20
3390.91137180878
 10
2987.163182602941
 20
3319.552488981074
 10
2946.232464761351
 20
3332.987381292201
 10
2928.500256468798
 20
3390.911371808777
  0
LWPOLYLINE
  5
228
330
1F
100
AcDbEntity
  8
0
 62
     5
100
AcDbPolyline
 90
        6
 70
     1
 43
0.0
 10
2997.447731631409
 20
3465.939398550086
 10
3049.956156005146
 20
3483.242160906451
 10
3020.691331596442
 20
3390.91137180878
 10
3053.145823482913
 20
3297.894679849634
 10
2997.879286838864
 20
3316.035088994063
 10
2977.260772837174
 20
3390.911371808778
  0
LWPOLYLINE
  5
229
330
1F
100
AcDbEntity
  8
0
 62
     5
100
AcDbPolyline
 90
        6
 70
     1
 43
0.0
 10
3065.355633759268
 20
3488.316651470007
 10
3135.404399151093
 20
3511.399369250764
 10
3096.368461804342
 20
3390.911371808782
 10
3140.365591260933
 20
3269.266103335676
 10
3068.092348868021
 20
3292.988707768915
 10
3040.774817605657
 20
3390.911371808782
  0
LWPOLYLINE
  5
22A
330
1F
100
AcDbEntity
  8
0
 62
     5
100
AcDbPolyline
 90
        6
 70
     1
 43
0.0
 10
3152.354303861424
 20
3516.984762007524
 10
3244.345609591904
 20
3547.298063556566
 10
3192.657939861624
 20
3390.91137180878
 10
3250.88957142237
 20
3232.988269728824
 10
3154.727936631572
 20
3264.551879555468
 10
3116.055872518752
 20
3390.911371808775
  0
LWPOLYLINE
  5
22B
330
1F
100
AcDbEntity
  8
0
 62
     5
100
AcDbPolyline
 90
        6
 70
     1
 43
0.0
 10
3219.733597889289
 20
3390.911371808775
 10
3269.55683568489
 20
3555.605756255447
 10
3384.250260634822
 20
3593.399940701378
 10
3324.78679143711
 20
3390.911371808777
 10
3389.484508998584
 20
3187.496566690291
 10
3266.115140905874
 20
3227.990705621151
  0
LWPOLYLINE
  5
22C
330
1F
100
AcDbEntity
  8
0
 62
     5
100
AcDbPolyline
 90
        6
 70
     1
 43
0.0
 10
3421.491806047759
 20
3605.671906919165
 10
3568.907307548137
 20
3654.248786163346
 10
3487.854637887963
 20
3390.91137180878
 10
3574.535086885263
 20
3126.756498665066
 10
3423.976784623004
 20
3176.174996167797
 10
3355.362011111466
 20
3390.91137180878
  0
LWPOLYLINE
  5
22D
330
1F
100
AcDbEntity
  8
0
 62
     5
100
AcDbPolyline
 90
        6
 70
     1
 43
0.0
 10
3613.305463570484
 20
3668.879024108551
 10
3811.752708669964
 20
3734.272064619374
 10
3701.225152106236
 20
3390.91137180878
 10
3812.636611278978
 20
3048.603255623377
 10
3608.667500205783
 20
3115.553047529548
 10
3533.717455118102
 20
3390.91137180878
  0
LWPOLYLINE
  5
22E
330
1F
100
AcDbEntity
  8
0
 62
     5
100
AcDbPolyline
 90
        6
 70
     1
 43
0.0
 10
3764.421231312468
 20
3390.911371808778
 10
3865.334249255285
 20
3751.928444038359
 10
4126.724145466513
 20
3838.062570332188
 10
3976.5991720291
 20
3390.911371808778
 10
4123.664593742572
 20
2946.512999930389
 10
3862.250674074699
 20
3032.318185975738
  0
LWPOLYLINE
  5
22F
330
1F
100
AcDbEntity
  8
0
 62
     5
100
AcDbPolyline
 90
        5
 70
     1
 43
0.0
 10
4059.517344636036
 20
3390.911371808777
 10
4191.933015641662
 20
3859.550428663962
 10
4273.508162929364
 20
3886.431360715135
 10
4273.508162929364
 20
2897.329102806212
 10
4191.681799405321
 20
2924.187375519909
  0
LWPOLYLINE
  5
230
330
1F
100
AcDbEntity
  8
0
 62
     5
100
AcDbPolyline
 90
        8
 70
     1
 43
0.0
 10
2442.177283827005
 20
593.0510924734917
 10
2418.095666206421
 20
387.2115877713677
 10
2208.858186476115
 20
387.2115877713677
 10
2170.715934718298
 20
504.7842509706815
 10
1893.912188969342
 20
387.2115877713677
 10
1839.423257886717
 20
387.2115877713686
 10
2013.506459322213
 20
949.6389550746389
 10
2277.514233957694
 20
1016.664054266137
  0
LWPOLYLINE
  5
231
330
1F
100
AcDbEntity
  8
0
 62
     5
100
AcDbPolyline
 90
        5
 70
     1
 43
0.0
 10
3003.220926589195
 20
549.6634575410935
 10
3016.561856713445
 20
387.2115877713677
 10
2522.931313172704
 20
387.2115877713677
 10
2536.265307996998
 20
549.5984255310686
 10
2769.731826528173
 20
819.1045996488329
  0
LWPOLYLINE
  5
232
330
1F
100
AcDbEntity
  8
0
 62
     5
100
AcDbPolyline
 90
        6
 70
     1
 43
0.0
 10
2992.395853356423
 20
681.4798579478438
 10
2769.731826528173
 20
984.1419990961158
 10
2547.116302878765
 20
681.7462753401123
 10
2590.241410570067
 20
1206.941459402761
 10
2769.731826528173
 20
1411.299851834546
 10
2949.564074076575
 20
1203.040391191724
  0
LWPOLYLINE
  5
233
330
1F
100
AcDbEntity
  8
0
 62
     5
100
AcDbPolyline
 90
        6
 70
     1
 43
0.0
 10
2455.908991323836
 20
710.4239332185434
 10
2310.528794693551
 20
1166.921877594281
 10
2046.782642241692
 20
1057.14752453436
 10
2185.671116569539
 20
1505.867896866901
 10
2392.373842738926
 20
1564.572011013818
 10
2517.110763272279
 20
1233.550851984681
  0
LWPOLYLINE
  5
234
330
1F
100
AcDbEntity
  8
0
 62
     5
100
AcDbPolyline
 90
        6
 70
     1
 43
0.0
 10
2575.383859675401
 20
1731.644688124216
 10
2528.739564585159
 20
1332.948938119886
 10
2411.898230090134
 20
1678.944272297006
 10
2211.644222347642
 20
1589.781711542961
 10
2320.328787065396
 20
1940.919403730663
 10
2477.072303177957
 20
1979.474151016243
  0
LWPOLYLINE
  5
235
330
1F
100
AcDbEntity
  8
0
 62
     5
100
AcDbPolyline
 90
        6
 70
     1
 43
0.0
 10
2941.496160071075
 20
1301.282995202799
 10
2769.731826528173
 20
1536.543375157755
 10
2598.219084070698
 20
1304.096827281505
 10
2631.211818371631
 20
1705.895827714014
 10
2769.731826528173
 20
1865.047803782018
 10
2908.294591211868
 20
1705.576915509118
  0
LWPOLYLINE
  5
236
330
1F
100
AcDbEntity
  8
0
 62
     5
100
AcDbPolyline
 90
        6
 70
     1
 43
0.0
 10
2848.307345569753
 20
2436.038744342241
 10
2769.731826528173
 20
2546.069171487261
 10
2691.552621145596
 20
2440.750781496447
 10
2706.499106157681
 20
2622.775183689223
 10
2769.731826528173
 20
2695.670573218152
 10
2832.729951101582
 20
2625.723933749992
  0
LWPOLYLINE
  5
237
330
1F
100
AcDbEntity
  8
0
 62
     5
100
AcDbPolyline
 90
        6
 70
     1
 43
0.0
 10
2681.292201157056
 20
2636.904496575665
 10
2659.650614612206
 20
2451.921347787829
 10
2606.936463765445
 20
2611.300442636068
 10
2515.285819676174
 20
2570.785868067036
 10
2564.238409209161
 20
2728.94171439044
 10
2637.057394287703
 20
2748.37694425732
  0
LWPOLYLINE
  5
238
330
1F
100
AcDbEntity
  8
0
 62
     5
100
AcDbPolyline
 90
        6
 70
     1
 43
0.0
 10
2654.592493761587
 20
2408.686665341601
 10
2626.773991319679
 20
2170.905846194969
 10
2559.674131368034
 20
2380.786302859445
 10
2439.394164272418
 20
2325.595386750906
 10
2503.261348704059
 20
2531.937251449849
 10
2598.30774547306
 20
2556.445429190247
  0
LWPOLYLINE
  5
239
330
1F
100
AcDbEntity
  8
0
 62
     5
100
AcDbPolyline
 90
        6
 70
     1
 43
0.0
 10
2871.561879240363
 20
2152.869397060618
 10
2769.731826528173
 20
2292.026104151551
 10
2668.102161704862
 20
2155.161503656523
 10
2687.65185387202
 20
2393.245643633409
 10
2769.731826528173
 20
2486.373260713234
 10
2851.595351057426
 20
2396.000858354437
  0
LWPOLYLINE
  5
23A
330
1F
100
AcDbEntity
  8
0
 62
     5
100
AcDbPolyline
 90
        6
 70
     1
 43
0.0
 10
2902.085868223622
 20
1781.180239185047
 10
2769.731826528173
 20
1962.816468703966
 10
2637.823031269896
 20
1786.409879987886
 10
2663.207714578989
 20
2095.55492649602
 10
2769.731826528173
 20
2218.191552587362
 10
2876.58060849469
 20
2091.756570320777
  0
LWPOLYLINE
  5
23B
330
1F
100
AcDbEntity
  8
0
 62
     5
100
AcDbPolyline
 90
        6
 70
     1
 43
0.0
 10
2620.066881032698
 20
2113.576297939308
 10
2584.073069651925
 20
1805.916388057364
 10
2494.131837210772
 20
2073.781512723571
 10
2340.454840463653
 20
2005.942583070432
 10
2423.193192457774
 20
2273.253346563663
 10
2542.825297110635
 20
2304.420003598266
  0
LWPOLYLINE
  5
23C
330
1F
100
AcDbEntity
  8
0
 62
     5
100
AcDbPolyline
 90
        6
 70
     1
 43
0.0
 10
2701.41805848857
 20
2808.93183170297
 10
2685.08536991034
 20
2669.326902318043
 10
2643.534557890257
 20
2790.960729315818
 10
2573.250001117625
 20
2758.056332403529
 10
2611.310997818693
 20
2881.023660640832
 10
2667.325677101043
 20
2896.415980608083
  0
LWPOLYLINE
  5
23D
330
1F
100
AcDbEntity
  8
0
 62
     5
100
AcDbPolyline
 90
        6
 70
     1
 43
0.0
 10
2818.431844824599
 20
2799.831291874932
 10
2830.100014189034
 20
2657.748550087903
 10
2769.731826528173
 20
2741.241156449692
 10
2709.389152204844
 20
2657.971345437044
 10
2721.00246353668
 20
2799.402996487222
 10
2769.731826528173
 20
2856.726422179702
  0
LWPOLYLINE
  5
23E
330
1F
100
AcDbEntity
  8
0
 62
     5
100
AcDbPolyline
 90
        6
 70
     1
 43
0.0
 10
2816.314282358545
 20
2825.616749017818
 10
2769.731826528173
 20
2891.504606363254
 10
2723.37124463761
 20
2828.250980710541
 10
2732.33154440691
 20
2937.373172828276
 10
2769.731826528173
 20
2979.863671130467
 10
2807.061320276823
 20
2938.289626926822
  0
LWPOLYLINE
  5
23F
330
1F
100
AcDbEntity
  8
0
 62
     5
100
AcDbPolyline
 90
        6
 70
     1
 43
0.0
 10
2717.18366223055
 20
2943.689559223979
 10
2704.451898969543
 20
2834.86381981897
 10
2672.668726687343
 20
2929.283763163817
 10
2618.169861090523
 20
2903.183250887646
 10
2648.005535420752
 20
2999.576237843864
 10
2689.577420510214
 20
3011.081613351074
  0
LWPOLYLINE
  5
240
330
1F
100
AcDbEntity
  8
0
 62
     5
100
AcDbPolyline
 90
        6
 70
     1
 43
0.0
 10
2729.194831527807
 20
3046.355965525828
 10
2719.561676913415
 20
2964.015825183665
 10
2694.298097642569
 20
3036.370699079115
 10
2653.187514428334
 20
3016.318156573646
 10
2676.206432774366
 20
3090.687593353151
 10
2709.219144399927
 20
3099.068217778896
  0
LWPOLYLINE
  5
241
330
1F
100
AcDbEntity
  8
0
 62
     5
100
AcDbPolyline
 90
        6
 70
     1
 43
0.0
 10
2805.609921411707
 20
2955.96324167674
 10
2769.731826528173
 20
3004.654703039505
 10
2733.93965598118
 20
2956.95741271676
 10
2741.004045416682
 20
3042.99043404689
 10
2769.731826528173
 20
3074.938372856237
 10
2798.68776999326
 20
3040.253949317219
  0
LWPOLYLINE
  5
242
330
1F
100
AcDbEntity
  8
0
 62
     5
100
AcDbPolyline
 90
        6
 70
     1
 43
0.0
 10
2797.256754740106
 20
3057.679353796358
 10
2769.731826528173
 20
3095.886775124803
 10
2742.213085080447
 20
3057.714613132975
 10
2747.541675279187
 20
3122.608362042592
 10
2769.731826528173
 20
3148.715563099867
 10
2791.893102585638
 20
3122.992290238849
  0
LWPOLYLINE
  5
243
330
1F
100
AcDbEntity
  8
0
 62
     5
100
AcDbPolyline
 90
        6
 70
     1
 43
0.0
 10
2738.651512728285
 20
3127.187685599735
 10
2731.26472731487
 20
3064.04856119396
 10
2710.529668510274
 20
3117.488740674823
 10
2680.453958501204
 20
3104.410483858375
 10
2697.499896714589
 20
3159.482438380744
 10
2723.599170726674
 20
3167.562505224468
  0
LWPOLYLINE
  5
244
330
1F
100
AcDbEntity
  8
0
 62
     5
100
AcDbPolyline
 90
        6
 70
     1
 43
0.0
 10
2740.358304455507
 20
3141.776620998398
 10
2724.513840607492
 20
3181.325607957326
 10
2700.610470692956
 20
3169.532069356256
 10
2713.153450706458
 20
3210.055883078397
 10
2733.988059910619
 20
3216.988381917435
 10
2745.504050377241
 20
3185.760285573561
  0
LWPOLYLINE
  5
245
330
1F
100
AcDbEntity
  8
0
 62
     5
100
AcDbPolyline
 90
        6
 70
     1
 43
0.0
 10
2787.145347733889
 20
3180.80547460379
 10
2790.987546010111
 20
3134.019209464552
 10
2769.731826528173
 20
3164.127927330998
 10
2748.662133829225
 20
3136.253764127991
 10
2752.193434403432
 20
3179.259385547528
 10
2769.731826528173
 20
3198.347110410078
  0
LWPOLYLINE
  5
246
330
1F
100
AcDbEntity
  8
0
 62
     5
100
AcDbPolyline
 90
        6
 70
     1
 43
0.0
 10
2707.726864255609
 20
3221.229084798736
 10
2693.32644109551
 20
3181.370972936061
 10
2688.051112122973
 20
3231.144190161643
 10
2663.147114525165
 20
3239.253577339037
 10
2683.214441416575
 20
3268.171902848057
 10
2702.798794574549
 20
3257.765461853036
  0
LWPOLYLINE
  5
247
330
1F
100
AcDbEntity
  8
0
 62
     5
100
AcDbPolyline
 90
        6
 70
     1
 43
0.0
 10
2689.227325847119
 20
3170.025265084851
 10
2670.176832353428
 20
3117.296488140735
 10
2664.172549312215
 20
3181.036118939846
 10
2632.427337652968
 20
3194.98437736228
 10
2658.095820304247
 20
3231.974333256718
 10
2683.971696244678
 20
3219.373712125992
  0
LWPOLYLINE
  5
248
330
1F
100
AcDbEntity
  8
0
 62
     5
100
AcDbPolyline
 90
        6
 70
     1
 43
0.0
 10
2665.601808990535
 20
3104.633541299144
 10
2640.988130808176
 20
3036.506742007453
 10
2631.717808057475
 20
3120.328316635024
 10
2591.453051543265
 20
3135.937761456123
 10
2624.797276548846
 20
3183.98896218531
 10
2658.338562862825
 20
3166.885887294609
  0
LWPOLYLINE
  5
249
330
1F
100
AcDbEntity
  8
0
 62
     5
100
AcDbPolyline
 90
        6
 70
     1
 43
0.0
 10
2634.651011042713
 20
3018.966588798742
 10
2602.173034219181
 20
2929.072644786627
 10
2591.593280572948
 20
3038.328127671931
 10
2536.710352940726
 20
3057.049966086246
 10
2582.621667404507
 20
3123.21116151575
 10
2624.491306841353
 20
3100.555334367842
  0
LWPOLYLINE
  5
24A
330
1F
100
AcDbEntity
  8
0
 62
     5
100
AcDbPolyline
 90
        6
 70
     1
 43
0.0
 10
2595.639248244094
 20
2910.988150366838
 10
2552.670815250292
 20
2792.058269641205
 10
2536.430934737169
 20
2933.284401147798
 10
2467.001151399593
 20
2956.594464860346
 10
2527.412986576042
 20
3043.651855397881
 10
2581.069934572655
 20
3014.634697502176
  0
LWPOLYLINE
  5
24B
330
1F
100
AcDbEntity
  8
0
 62
     5
100
AcDbPolyline
 90
        6
 70
     1
 43
0.0
 10
2541.706924811785
 20
2761.711941155612
 10
2488.328579187256
 20
2613.969055596494
 10
2469.382178942332
 20
2791.720417393391
 10
2378.235179241217
 20
2828.67691555789
 10
2455.012216803379
 20
2939.317628985012
 10
2524.499059018687
 20
2899.653048072171
  0
LWPOLYLINE
  5
24C
330
1F
100
AcDbEntity
  8
0
 62
     5
100
AcDbPolyline
 90
        6
 70
     1
 43
0.0
 10
2473.916293187774
 20
2574.078109255726
 10
2402.813213604263
 20
2377.275941131256
 10
2381.191255508406
 20
2614.074553559737
 10
2261.695371142757
 20
2660.735459100481
 10
2358.44072524152
 20
2800.151817664465
 10
2449.695873554324
 20
2751.31795784691
  0
LWPOLYLINE
  5
24D
330
1F
100
AcDbEntity
  8
0
 62
     5
100
AcDbPolyline
 90
        6
 70
     1
 43
0.0
 10
2385.99284087035
 20
2330.719788541417
 10
2294.919257610827
 20
2078.642399638869
 10
2264.314753857799
 20
2388.183795515502
 10
2110.738576853816
 20
2443.196883152214
 10
2237.15852606862
 20
2625.376266684984
 10
2352.118641110611
 20
2561.947061729727
  0
LWPOLYLINE
  5
24E
330
1F
100
AcDbEntity
  8
0
 62
     5
100
AcDbPolyline
 90
        6
 70
     1
 43
0.0
 10
2270.243679001048
 20
2010.344269676321
 10
2151.324552859712
 20
1681.194787077624
 10
2112.10325140859
 20
2080.217557363075
 10
1910.727714247704
 20
2154.968198709982
 10
2077.548595802445
 20
2395.367958010592
 10
2229.752646406568
 20
2316.635056574686
  0
LWPOLYLINE
  5
24F
330
1F
100
AcDbEntity
  8
0
 62
     5
100
AcDbPolyline
 90
        6
 70
     1
 43
0.0
 10
2119.424084364139
 20
1592.899295505523
 10
1966.273450386311
 20
1169.002370182103
 10
1917.723153637104
 20
1691.127319830723
 10
1655.589817672205
 20
1787.297866593365
 10
1872.045512771286
 20
2099.22462609794
 10
2067.959757118669
 20
1993.416551994502
  0
LWPOLYLINE
  5
250
330
1F
100
AcDbEntity
  8
0
 62
     5
100
AcDbPolyline
 90
        6
 70
     1
 43
0.0
 10
1928.201443858933
 20
1063.625029660023
 10
1724.238060926779
 20
499.0863878152613
 10
1662.510139948595
 20
1184.78644886771
 10
1321.938864276476
 20
1306.485104190875
 10
1604.582852697445
 20
1713.793506777577
 10
1854.08376485439
 20
1576.70574447106
  0
LWPOLYLINE
  5
251
330
1F
100
AcDbEntity
  8
0
 62
     5
100
AcDbPolyline
 90
        6
 70
     1
 43
0.0
 10
1674.149341854901
 20
387.2115877713677
 10
1345.899858910744
 20
387.2115877713677
 10
1332.461924805445
 20
522.1067276885805
 10
1265.98500695677
 20
550.5155893426254
 10
1265.98500695677
 20
1202.605692676383
 10
1585.977950891139
 20
1030.76142071461
  0
LWPOLYLINE
  5
252
330
1F
100
AcDbEntity
  8
0
 62
     5
100
AcDbPolyline
 90
        8
 70
     1
 43
0.0
 10
1575.879544392353
 20
2411.098125396075
 10
1545.107827009248
 20
1879.948452133008
 10
1265.98500695677
 20
1535.120085920577
 10
1265.98500695677
 20
1654.964713187119
 10
1325.680045644848
 20
2194.753841245875
 10
1265.98500695677
 20
2276.761724503752
 10
1265.98500695677
 20
2690.521819390787
 10
1364.405338094883
 20
2736.48918690877
  0
LWPOLYLINE
  5
253
330
1F
100
AcDbEntity
  8
0
 62
     5
100
AcDbPolyline
 90
        6
 70
     1
 43
0.0
 10
1853.949455414878
 20
2635.101451753063
 10
1824.640638525737
 20
2225.283321850488
 10
1603.864523021119
 20
1952.536481610512
 10
1656.13427337027
 20
2469.817213681953
 10
1429.335819357752
 20
2766.815068368585
 10
1686.720539885232
 20
2887.026999228657
  0
LWPOLYLINE
  5
254
330
1F
100
AcDbEntity
  8
0
 62
     5
100
AcDbPolyline
 90
        6
 70
     1
 43
0.0
 10
2066.902401880486
 20
2805.550792263205
 10
2041.731178838011
 20
2493.477002044681
 10
1872.017112859271
 20
2283.81222406732
 10
1911.868804619073
 20
2683.417768784393
 10
1738.637483188046
 20
2911.274887704686
 10
1937.190351582766
 20
3004.009311250182
  0
LWPOLYLINE
  5
255
330
1F
100
AcDbEntity
  8
0
 62
     5
100
AcDbPolyline
 90
        6
 70
     1
 43
0.0
 10
2226.240410350446
 20
2942.014362126648
 10
2210.207535170332
 20
2701.612713372671
 10
2076.938606227058
 20
2536.972262170041
 10
2107.800731536329
 20
2843.747502205976
 10
1976.001529507187
 20
3022.136131784389
 10
2129.836429835931
 20
3093.984959346045
  0
LWPOLYLINE
  5
256
330
1F
100
AcDbEntity
  8
0
 62
     5
100
AcDbPolyline
 90
        6
 70
     1
 43
0.0
 10
2348.399979207818
 20
3049.709401453307
 10
2339.395772142097
 20
2861.211877211962
 10
2237.277028789053
 20
2735.054369117582
 10
2260.226642745119
 20
2973.185065612675
 10
2155.39553924172
 20
3105.922380831039
 10
2279.298881538919
 20
3163.791628030477
  0
LWPOLYLINE
  5
257
330
1F
100
AcDbEntity
  8
0
 62
     5
100
AcDbPolyline
 90
        6
 70
     1
 43
0.0
 10
2447.53520606235
 20
3129.293680680317
 10
2438.078196928321
 20
2983.124156926374
 10
2359.8304740791
 20
2886.456910497486
 10
2378.156004639874
 20
3067.677429226126
 10
2297.147468415505
 20
3172.127838071077
 10
2392.106007457443
 20
3216.478370249091
  0
LWPOLYLINE
  5
258
330
1F
100
AcDbEntity
  8
0
 62
     5
100
AcDbPolyline
 90
        6
 70
     1
 43
0.0
 10
2514.778170355589
 20
3077.879313529086
 10
2453.551361379033
 20
3002.239706191301
 10
2468.079588619287
 20
3143.282106247555
 10
2407.032559881286
 20
3223.449839589914
 10
2478.382196378059
 20
3256.773797406302
 10
2521.361995306937
 20
3187.527534265841
  0
LWPOLYLINE
  5
259
330
1F
100
AcDbEntity
  8
0
 62
     5
100
AcDbPolyline
 90
        6
 70
     1
 43
0.0
 10
2575.063488624227
 20
3152.35580313056
 10
2526.066574515841
 20
3091.825009416636
 10
2537.516733708145
 20
3199.45873129564
 10
2490.419766693457
 20
3262.395963195763
 10
2543.403197274333
 20
3287.141956200566
 10
2579.412902916019
 20
3234.206138300058
  0
LWPOLYLINE
  5
25A
330
1F
100
AcDbEntity
  8
0
 62
     5
100
AcDbPolyline
 90
        6
 70
     1
 43
0.0
 10
2653.949335198771
 20
3249.811387688172
 10
2625.973932452508
 20
3215.250571695725
 10
2631.2772249528
 20
3279.008181485532
 10
2604.969553431475
 20
3315.896617838995
 10
2634.696496535145
 20
3329.780632483441
 10
2655.927330156448
 20
3301.869653678642
  0
LWPOLYLINE
  5
25B
330
1F
100
AcDbEntity
  8
0
 62
     5
100
AcDbPolyline
 90
        6
 70
     1
 43
0.0
 10
2680.28612812247
 20
3282.34786490435
 10
2660.368161364685
 20
3257.74120632278
 10
2663.057250407649
 20
3303.086029917027
 10
2641.629223067322
 20
3333.018573107308
 10
2664.63064723956
 20
3343.761423757526
 10
2682.502840267648
 20
3320.064260785359
  0
LWPOLYLINE
  5
25C
330
1F
100
AcDbEntity
  8
0
 62
     5
100
AcDbPolyline
 90
        8
 70
     1
 43
0.0
 10
3097.315886059144
 20
593.0510924734917
 10
3121.397503679729
 20
387.2115877713677
 10
3330.63498341002
 20
387.2115877713677
 10
3368.777235167851
 20
504.7842509706815
 10
3645.580980916807
 20
387.2115877713677
 10
3700.069911999418
 20
387.2115877713686
 10
3525.986710563922
 20
949.6389550746389
 10
3261.978935928456
 20
1016.664054266137
  0
LWPOLYLINE
  5
25D
330
1F
100
AcDbEntity
  8
0
 62
     5
100
AcDbPolyline
 90
        6
 70
     1
 43
0.0
 10
3083.584178562299
 20
710.4239332185434
 10
3228.964375192599
 20
1166.921877594281
 10
3492.710527644457
 20
1057.14752453436
 10
3353.822053316611
 20
1505.867896866901
 10
3147.119327147209
 20
1564.572011013818
 10
3022.38240661387
 20
1233.550851984681
  0
LWPOLYLINE
  5
25E
330
1F
100
AcDbEntity
  8
0
 62
     5
100
AcDbPolyline
 90
        6
 70
     1
 43
0.0
 10
2964.109310210734
 20
1731.644688124216
 10
3010.753605300977
 20
1332.948938119886
 10
3127.594939796001
 20
1678.944272297006
 10
3327.848947538493
 20
1589.781711542961
 10
3219.164382820739
 20
1940.919403730663
 10
3062.420866708178
 20
1979.474151016243
  0
LWPOLYLINE
  5
25F
330
1F
100
AcDbEntity
  8
0
 62
     5
100
AcDbPolyline
 90
        6
 70
     1
 43
0.0
 10
2858.200968729079
 20
2636.904496575665
 10
2879.842555273929
 20
2451.921347787829
 10
2932.556706120705
 20
2611.300442636068
 10
3024.207350209975
 20
2570.785868067036
 10
2975.254760676974
 20
2728.94171439044
 10
2902.435775598432
 20
2748.37694425732
  0
LWPOLYLINE
  5
260
330
1F
100
AcDbEntity
  8
0
 62
     5
100
AcDbPolyline
 90
        6
 70
     1
 43
0.0
 10
2884.900676124563
 20
2408.686665341601
 10
2912.71917856647
 20
2170.905846194969
 10
2979.819038518116
 20
2380.786302859445
 10
3100.099005613732
 20
2325.595386750906
 10
3036.23182118209
 20
2531.937251449849
 10
2941.18542441309
 20
2556.445429190247
  0
LWPOLYLINE
  5
261
330
1F
100
AcDbEntity
  8
0
 62
     5
100
AcDbPolyline
 90
        6
 70
     1
 43
0.0
 10
2919.426288853437
 20
2113.576297939308
 10
2955.42010023421
 20
1805.916388057364
 10
3045.361332675363
 20
2073.781512723571
 10
3199.038329422497
 20
2005.942583070432
 10
3116.299977428376
 20
2273.253346563663
 10
2996.6678727755
 20
2304.420003598266
  0
LWPOLYLINE
  5
262
330
1F
100
AcDbEntity
  8
0
 62
     5
100
AcDbPolyline
 90
        6
 70
     1
 43
0.0
 10
2838.075111397579
 20
2808.93183170297
 10
2854.407799975795
 20
2669.326902318043
 10
2895.958611995892
 20
2790.960729315818
 10
2966.243168768511
 20
2758.056332403529
 10
2928.182172067442
 20
2881.023660640832
 10
2872.167492785092
 20
2896.415980608083
  0
LWPOLYLINE
  5
263
330
1F
100
AcDbEntity
  8
0
 62
     5
100
AcDbPolyline
 90
        6
 70
     1
 43
0.0
 10
2822.309507655599
 20
2943.689559223979
 10
2835.041270916591
 20
2834.86381981897
 10
2866.824443198792
 20
2929.283763163817
 10
2921.323308795626
 20
2903.183250887646
 10
2891.487634465398
 20
2999.576237843864
 10
2849.91574937592
 20
3011.081613351074
  0
LWPOLYLINE
  5
264
330
1F
100
AcDbEntity
  8
0
 62
     5
100
AcDbPolyline
 90
        6
 70
     1
 43
0.0
 10
2810.298338358343
 20
3046.355965525828
 10
2819.931492972735
 20
2964.015825183665
 10
2845.19507224358
 20
3036.370699079115
 10
2886.305655457815
 20
3016.318156573646
 10
2863.286737111783
 20
3090.687593353151
 10
2830.274025486208
 20
3099.068217778896
  0
LWPOLYLINE
  5
265
330
1F
100
AcDbEntity
  8
0
 62
     5
100
AcDbPolyline
 90
        6
 70
     1
 43
0.0
 10
2800.84165715785
 20
3127.187685599735
 10
2808.22844257128
 20
3064.04856119396
 10
2828.963501375861
 20
3117.488740674823
 10
2859.039211384946
 20
3104.410483858375
 10
2841.993273171561
 20
3159.482438380744
 10
2815.893999159461
 20
3167.562505224468
  0
LWPOLYLINE
  5
266
330
1F
100
AcDbEntity
  8
0
 62
     5
100
AcDbPolyline
 90
        6
 70
     1
 43
0.0
 10
2799.134865430629
 20
3141.776620998398
 10
2814.979329278643
 20
3181.325607957326
 10
2838.88269919318
 20
3169.532069356256
 10
2826.339719179676
 20
3210.055883078397
 10
2805.505109975531
 20
3216.988381917435
 10
2793.989119508909
 20
3185.760285573561
  0
LWPOLYLINE
  5
267
330
1F
100
AcDbEntity
  8
0
 62
     5
100
AcDbPolyline
 90
        6
 70
     1
 43
0.0
 10
2831.766305630526
 20
3221.229084798736
 10
2846.16672879064
 20
3181.370972936061
 10
2851.442057763162
 20
3231.144190161643
 10
2876.346055360971
 20
3239.253577339037
 10
2856.27872846956
 20
3268.171902848057
 10
2836.694375311586
 20
3257.765461853036
  0
LWPOLYLINE
  5
268
330
1F
100
AcDbEntity
  8
0
 62
     5
100
AcDbPolyline
 90
        6
 70
     1
 43
0.0
 10
2850.265844039031
 20
3170.025265084851
 10
2869.316337532707
 20
3117.296488140735
 10
2875.32062057392
 20
3181.036118939846
 10
2907.065832233181
 20
3194.98437736228
 10
2881.397349581888
 20
3231.974333256718
 10
2855.521473641458
 20
3219.373712125992
  0
LWPOLYLINE
  5
269
330
1F
100
AcDbEntity
  8
0
 62
     5
100
AcDbPolyline
 90
        6
 70
     1
 43
0.0
 10
2873.891360895615
 20
3104.633541299144
 10
2898.505039077973
 20
3036.506742007453
 10
2907.77536182866
 20
3120.328316635024
 10
2948.040118342885
 20
3135.937761456123
 10
2914.695893337304
 20
3183.98896218531
 10
2881.154607023324
 20
3166.885887294609
  0
LWPOLYLINE
  5
26A
330
1F
100
AcDbEntity
  8
0
 62
     5
100
AcDbPolyline
 90
        6
 70
     1
 43
0.0
 10
2904.842158843422
 20
3018.966588798742
 10
2937.320135666968
 20
2929.072644786627
 10
2947.899889313188
 20
3038.328127671931
 10
3002.782816945409
 20
3057.049966086246
 10
2956.871502481642
 20
3123.21116151575
 10
2915.001863044782
 20
3100.555334367842
  0
LWPOLYLINE
  5
26B
330
1F
100
AcDbEntity
  8
0
 62
     5
100
AcDbPolyline
 90
        6
 70
     1
 43
0.0
 10
2943.853921642041
 20
2910.988150366838
 10
2986.822354635843
 20
2792.058269641205
 10
3003.062235148981
 20
2933.284401147798
 10
3072.492018486542
 20
2956.594464860346
 10
3012.080183310093
 20
3043.651855397881
 10
2958.423235313495
 20
3014.634697502176
  0
LWPOLYLINE
  5
26C
330
1F
100
AcDbEntity
  8
0
 62
     5
100
AcDbPolyline
 90
        6
 70
     1
 43
0.0
 10
2997.78624507435
 20
2761.711941155612
 10
3051.164590698894
 20
2613.969055596494
 10
3070.110990943817
 20
2791.720417393391
 10
3161.257990644918
 20
2828.67691555789
 10
3084.480953082756
 20
2939.317628985012
 10
3014.994110867448
 20
2899.653048072171
  0
LWPOLYLINE
  5
26D
330
1F
100
AcDbEntity
  8
0
 62
     5
100
AcDbPolyline
 90
        6
 70
     1
 43
0.0
 10
3065.576876698376
 20
2574.078109255726
 10
3136.679956281872
 20
2377.275941131256
 10
3158.301914377728
 20
2614.074553559737
 10
3277.797798743392
 20
2660.735459100481
 10
3181.05244464463
 20
2800.151817664465
 10
3089.797296331826
 20
2751.31795784691
  0
LWPOLYLINE
  5
26E
330
1F
100
AcDbEntity
  8
0
 62
     5
100
AcDbPolyline
 90
        6
 70
     1
 43
0.0
 10
3153.500329015785
 20
2330.719788541417
 10
3244.573912275309
 20
2078.642399638869
 10
3275.178416028336
 20
2388.183795515502
 10
3428.754593032333
 20
2443.196883152214
 10
3302.334643817515
 20
2625.376266684984
 10
3187.374528775524
 20
2561.947061729727
  0
LWPOLYLINE
  5
26F
330
1F
100
AcDbEntity
  8
0
 62
     5
100
AcDbPolyline
 90
        6
 70
     1
 43
0.0
 10
3269.249490885101
 20
2010.344269676321
 10
3388.168617026437
 20
1681.194787077624
 10
3427.38991847756
 20
2080.217557363075
 10
3628.765455638431
 20
2154.968198709982
 10
3461.944574083704
 20
2395.367958010592
 10
3309.740523479567
 20
2316.635056574686
  0
LWPOLYLINE
  5
270
330
1F
100
AcDbEntity
  8
0
 62
     5
100
AcDbPolyline
 90
        6
 70
     1
 43
0.0
 10
3420.069085522011
 20
1592.899295505523
 10
3573.219719499824
 20
1169.002370182103
 10
3621.770016249044
 20
1691.127319830723
 10
3883.903352213945
 20
1787.297866593365
 10
3667.447657114864
 20
2099.22462609794
 10
3471.533412767481
 20
1993.416551994502
  0
LWPOLYLINE
  5
271
330
1F
100
AcDbEntity
  8
0
 62
     5
100
AcDbPolyline
 90
        6
 70
     1
 43
0.0
 10
3611.291726027217
 20
1063.625029660023
 10
3815.255108959355
 20
499.0863878152613
 10
3876.983029937554
 20
1184.78644886771
 10
4217.554305609673
 20
1306.485104190875
 10
3934.910317188704
 20
1713.793506777577
 10
3685.409405031759
 20
1576.70574447106
  0
LWPOLYLINE
  5
272
330
1F
100
AcDbEntity
  8
0
 62
     5
100
AcDbPolyline
 90
        6
 70
     1
 43
0.0
 10
3865.343828031249
 20
387.2115877713677
 10
4193.593310975405
 20
387.2115877713677
 10
4207.031245080704
 20
522.1067276885805
 10
4273.508162929364
 20
550.5155893426254
 10
4273.508162929364
 20
1202.605692676383
 10
3953.515218994996
 20
1030.76142071461
  0
LWPOLYLINE
  5
273
330
1F
100
AcDbEntity
  8
0
 62
     5
100
AcDbPolyline
 90
        8
 70
     1
 43
0.0
 10
3963.613625493797
 20
2411.098125396075
 10
3994.385342876886
 20
1879.948452133008
 10
4273.508162929364
 20
1535.120085920577
 10
4273.508162929364
 20
1654.964713187119
 10
4213.813124241286
 20
2194.753841245875
 10
4273.508162929364
 20
2276.761724503752
 10
4273.508162929364
 20
2690.521819390787
 10
4175.087831791265
 20
2736.48918690877
  0
LWPOLYLINE
  5
274
330
1F
100
AcDbEntity
  8
0
 62
     5
100
AcDbPolyline
 90
        6
 70
     1
 43
0.0
 10
3685.543714471257
 20
2635.101451753063
 10
3714.852531360413
 20
2225.283321850488
 10
3935.62864686503
 20
1952.536481610512
 10
3883.358896515864
 20
2469.817213681953
 10
4110.157350528382
 20
2766.815068368585
 10
3852.772630000903
 20
2887.026999228657
  0
LWPOLYLINE
  5
275
330
1F
100
AcDbEntity
  8
0
 62
     5
100
AcDbPolyline
 90
        6
 70
     1
 43
0.0
 10
3472.590768005664
 20
2805.550792263205
 10
3497.761991048138
 20
2493.477002044681
 10
3667.476057026878
 20
2283.81222406732
 10
3627.624365267076
 20
2683.417768784393
 10
3800.855686698088
 20
2911.274887704686
 10
3602.302818303369
 20
3004.009311250182
  0
LWPOLYLINE
  5
276
330
1F
100
AcDbEntity
  8
0
 62
     5
100
AcDbPolyline
 90
        6
 70
     1
 43
0.0
 10
3313.252759535689
 20
2942.014362126648
 10
3329.285634715817
 20
2701.612713372671
 10
3462.554563659092
 20
2536.972262170041
 10
3431.69243834982
 20
2843.747502205976
 10
3563.491640378948
 20
3022.136131784389
 10
3409.656740050218
 20
3093.984959346045
  0
LWPOLYLINE
  5
277
330
1F
100
AcDbEntity
  8
0
 62
     5
100
AcDbPolyline
 90
        6
 70
     1
 43
0.0
 10
3191.093190678316
 20
3049.709401453307
 10
3200.097397744038
 20
2861.211877211962
 10
3302.216141097081
 20
2735.054369117582
 10
3279.266527141016
 20
2973.185065612675
 10
3384.097630644429
 20
3105.922380831039
 10
3260.194288347216
 20
3163.791628030477
  0
LWPOLYLINE
  5
278
330
1F
100
AcDbEntity
  8
0
 62
     5
100
AcDbPolyline
 90
        6
 70
     1
 43
0.0
 10
3091.957963823786
 20
3129.293680680317
 10
3101.414972957829
 20
2983.124156926374
 10
3179.66269580705
 20
2886.456910497486
 10
3161.337165246275
 20
3067.677429226126
 10
3242.34570147063
 20
3172.127838071077
 10
3147.387162428692
 20
3216.478370249091
  0
LWPOLYLINE
  5
279
330
1F
100
AcDbEntity
  8
0
 62
     5
100
AcDbPolyline
 90
        6
 70
     1
 43
0.0
 10
3024.71499953056
 20
3077.879313529086
 10
3085.941808507102
 20
3002.239706191301
 10
3071.413581266862
 20
3143.282106247555
 10
3132.460610004863
 20
3223.449839589914
 10
3061.110973508091
 20
3256.773797406302
 10
3018.131174579213
 20
3187.527534265841
  0
LWPOLYLINE
  5
27A
330
1F
100
AcDbEntity
  8
0
 62
     5
100
AcDbPolyline
 90
        6
 70
     1
 43
0.0
 10
2964.429681261908
 20
3152.35580313056
 10
3013.426595370294
 20
3091.825009416636
 10
3001.97643617799
 20
3199.45873129564
 10
3049.073403192678
 20
3262.395963195763
 10
2996.089972611816
 20
3287.141956200566
 10
2960.080266970131
 20
3234.206138300058
  0
LWPOLYLINE
  5
27B
330
1F
100
AcDbEntity
  8
0
 62
     5
100
AcDbPolyline
 90
        6
 70
     1
 43
0.0
 10
2885.543834687365
 20
3249.811387688172
 10
2913.519237433627
 20
3215.250571695725
 10
2908.215944933349
 20
3279.008181485532
 10
2934.523616454674
 20
3315.896617838995
 10
2904.796673351005
 20
3329.780632483441
 10
2883.565839729702
 20
3301.869653678642
  0
LWPOLYLINE
  5
27C
330
1F
100
AcDbEntity
  8
0
 62
     5
100
AcDbPolyline
 90
        6
 70
     1
 43
0.0
 10
2859.20704176368
 20
3282.34786490435
 10
2879.12500852145
 20
3257.74120632278
 10
2876.4359194785
 20
3303.086029917027
 10
2897.863946818813
 20
3333.018573107308
 10
2874.862522646589
 20
3343.761423757526
 10
2856.990329618487
 20
3320.064260785359
  0
LWPOLYLINE
  5
27D
330
1F
100
AcDbEntity
  8
0
 62
     5
100
AcDbPolyline
 90
        4
 70
     1
 43
0.0
 10
1215.98500695677
 20
337.2115877713677
 10
4323.508162929364
 20
337.2115877713677
 10
4323.508162929364
 20
6446.548875749979
 10
1215.98500695677
 20
6446.548875749979
  0
LWPOLYLINE
  5
27E
330
1F
100
AcDbEntity
  8
0
 62
     5
100
AcDbPolyline
 90
        7
 70
     0
 43
0.0
 10
2557.843546916885
 20
3489.874119739157
 10
2592.083505114578
 20
3474.894281711665
 10
2617.868412093122
 20
3516.525738963573
 10
2614.30322382274
 20
3583.539501076594
 10
2591.166698269379
 20
3612.312113543873
 10
2591.166698269379
 20
3541.776706167005
 10
2557.843546916885
 20
3489.874119739157
  0
LWPOLYLINE
  5
27F
330
1F
100
AcDbEntity
  8
0
 62
     5
100
AcDbPolyline
 90
        7
 70
     0
 43
0.0
 10
2981.620106139462
 20
3489.874119739157
 10
2947.380147941768
 20
3474.894281711665
 10
2921.595240963224
 20
3516.525738963573
 10
2925.160429233606
 20
3583.539501076594
 10
2948.296954786966
 20
3612.312113543873
 10
2948.296954786966
 20
3541.776706167005
 10
2981.620106139462
 20
3489.874119739157
  0
LWPOLYLINE
  5
280
330
1F
100
AcDbEntity
  8
0
 62
     5
100
AcDbPolyline
 90
        7
 70
     0
 43
0.0
 10
2557.843546916885
 20
3291.948623878398
 10
2592.083505114578
 20
3306.92846190589
 10
2617.868412093122
 20
3265.297004653982
 10
2614.30322382274
 20
3198.283242540961
 10
2591.166698269379
 20
3169.510630073682
 10
2591.166698269379
 20
3240.04603745055
 10
2557.843546916885
 20
3291.948623878398
  0
LWPOLYLINE
  5
281
330
1F
100
AcDbEntity
  8
0
 62
     5
100
AcDbPolyline
 90
        7
 70
     0
 43
0.0
 10
2981.620106139462
 20
3291.948623878398
 10
2947.380147941768
 20
3306.92846190589
 10
2921.595240963224
 20
3265.297004653982
 10
2925.160429233606
 20
3198.283242540961
 10
2948.296954786966
 20
3169.510630073682
 10
2948.296954786966
 20
3240.04603745055
 10
2981.620106139462
 20
3291.948623878398
  0
ENDSEC
  0
SECTION
  2
OBJECTS
  0
DICTIONARY
  5
C
330
0
100
AcDbDictionary
281
     1
  3
ACAD_COLOR
350
6B
  3
ACAD_GROUP
350
D
  3
ACAD_LAYOUT
350
1A
  3
ACAD_MATERIAL
350
6A
  3
ACAD_MLINESTYLE
350
17
  3
ACAD_PLOTSETTINGS
350
19
  3
ACAD_PLOTSTYLENAME
350
E
  3
ACAD_TABLESTYLE
350
7E
  3
ACAD_VISUALSTYLE
350
EF
  3
AcDbVariableDictionary
350
5E
  0
DICTIONARY
  5
110
330
2
100
AcDbDictionary
280
     1
281
     1
  3
ACAD_LAYERSTATES
360
111
  0
DICTIONARY
  5
6B
102
{ACAD_REACTORS
330
C
102
}
330
C
100
AcDbDictionary
281
     1
  0
DICTIONARY
  5
D
102
{ACAD_REACTORS
330
C
102
}
330
C
100
AcDbDictionary
281
     1
  0
DICTIONARY
  5
1A
102
{ACAD_REACTORS
330
C
102
}
330
C
100
AcDbDictionary
281
     1
  3
Layout1
350
D3
  3
Layout2
350
D7
  3
Model
350
22
  0
DICTIONARY
  5
6A
102
{ACAD_REACTORS
330
C
102
}
330
C
100
AcDbDictionary
281
     1
  3
ByBlock
350
ED
  3
ByLayer
350
EC
  3
Global
350
EE
  0
DICTIONARY
  5
17
102
{ACAD_REACTORS
330
C
102
}
330
C
100
AcDbDictionary
281
     1
  3
Standard
350
18
  0
DICTIONARY
  5
19
102
{ACAD_REACTORS
330
C
102
}
330
C
100
AcDbDictionary
281
     1
  0
ACDBDICTIONARYWDFLT
  5
E
102
{ACAD_REACTORS
330
C
102
}
330
C
100
AcDbDictionary
281
     1
  3
Normal
350
F
100
AcDbDictionaryWithDefault
340
F
  0
DICTIONARY
  5
7E
102
{ACAD_REACTORS
330
C
102
}
330
C
100
AcDbDictionary
281
     1
  3
Standard
350
7F
  0
DICTIONARY
  5
EF
102
{ACAD_REACTORS
330
C
102
}
330
C
100
AcDbDictionary
281
     1
  3
2dWireframe
350
F5
  3
3D Hidden
350
F7
  3
3dWireframe
350
F6
  3
Basic
350
F4
  3
Brighten
350
FB
  3
ColorChange
350
FF
  3
Conceptual
350
F8
  3
Dim
350
FA
  3
Facepattern
350
FE
  3
Flat
350
F0
  3
FlatWithEdges
350
F1
  3
Gouraud
350
F2
  3
GouraudWithEdges
350
F3
  3
Linepattern
350
FD
  3
Realistic
350
F9
  3
Thicken
350
FC
  0
DICTIONARY
  5
5E
102
{ACAD_REACTORS
330
C
102
}
330
C
100
AcDbDictionary
281
     1
  3
CTABLESTYLE
350
84
  3
DIMASSOC
350
5F
  3
HIDETEXT
350
63
  0
DICTIONARY
  5
111
102
{ACAD_REACTORS
330
110
102
}
330
110
100
AcDbDictionary
281
     1
  0
LAYOUT
  5
D3
102
{ACAD_REACTORS
330
1A
102
}
330
1A
100
AcDbPlotSettings
  1

  2
C:\Documents and Settings\basas\Application Data\Autodesk\AutoCAD 2005\R16.1\enu\plotters\Default Windows System Printer.pc3
  4

  6

 40
0.0
 41
0.0
 42
0.0
 43
0.0
 44
0.0
 45
0.0
 46
0.0
 47
0.0
 48
0.0
 49
0.0
140
0.0
141
0.0
142
1.0
143
1.0
 70
   688
 72
     0
 73
     0
 74
     5
  7

 75
    16
147
1.0
 76
     0
 77
     2
 78
   300
148
0.0
149
0.0
100
AcDbLayout
  1
Layout1
 70
     1
 71
     1
 10
0.0
 20
0.0
 11
12.0
 21
9.0
 12
0.0
 22
0.0
 32
0.0
 14
0.0
 24
0.0
 34
0.0
 15
0.0
 25
0.0
 35
0.0
146
0.0
 13
0.0
 23
0.0
 33
0.0
 16
1.0
 26
0.0
 36
0.0
 17
0.0
 27
1.0
 37
0.0
 76
     0
330
D2
  0
LAYOUT
  5
D7
102
{ACAD_REACTORS
330
1A
102
}
330
1A
100
AcDbPlotSettings
  1

  2
C:\Documents and Settings\basas\Application Data\Autodesk\AutoCAD 2005\R16.1\enu\plotters\Default Windows System Printer.pc3
  4

  6

 40
0.0
 41
0.0
 42
0.0
 43
0.0
 44
0.0
 45
0.0
 46
0.0
 47
0.0
 48
0.0
 49
0.0
140
0.0
141
0.0
142
1.0
143
1.0
 70
   688
 72
     0
 73
     0
 74
     5
  7

 75
    16
147
1.0
 76
     0
 77
     2
 78
   300
148
0.0
149
0.0
100
AcDbLayout
  1
Layout2
 70
     1
 71
     2
 10
0.0
 20
0.0
 11
12.0
 21
9.0
 12
0.0
 22
0.0
 32
0.0
 14
0.0
 24
0.0
 34
0.0
 15
0.0
 25
0.0
 35
0.0
146
0.0
 13
0.0
 23
0.0
 33
0.0
 16
1.0
 26
0.0
 36
0.0
 17
0.0
 27
1.0
 37
0.0
 76
     0
330
D6
  0
LAYOUT
  5
22
102
{ACAD_REACTORS
330
1A
102
}
330
1A
100
AcDbPlotSettings
  1

  2
none_device
  4
ISO_A4_(210.00_x_297.00_MM)
  6

 40
7.5
 41
20.0
 42
7.5
 43
20.0
 44
210.0
 45
297.0
 46
11.54999923706054
 47
-13.65000009536743
 48
0.0
 49
0.0
140
0.0
141
0.0
142
1.0
143
8.704084754739808
 70
 11952
 72
     1
 73
     0
 74
     0
  7

 75
     0
147
0.1148885871608098
 76
     0
 77
     2
 78
   300
148
0.0
149
0.0
100
AcDbLayout
  1
Model
 70
     1
 71
     0
 10
0.0
 20
0.0
 11
12.0
 21
9.0
 12
0.0
 22
0.0
 32
0.0
 14
0.0
 24
0.0
 34
0.0
 15
0.0
 25
0.0
 35
0.0
146
0.0
 13
0.0
 23
0.0
 33
0.0
 16
1.0
 26
0.0
 36
0.0
 17
0.0
 27
1.0
 37
0.0
 76
     0
330
1F
331
EA
1001
ACAD_PSEXT
1000
None
1000
None
1000
Not applicable
1000
The layout will not be plotted unless a new plotter configuration name is selected.
1070
     0
  0
MATERIAL
  5
ED
102
{ACAD_REACTORS
330
6A
102
}
330
6A
100
AcDbMaterial
  1
ByBlock
  0
MATERIAL
  5
EC
102
{ACAD_REACTORS
330
6A
102
}
330
6A
100
AcDbMaterial
  1
ByLayer
  0
MATERIAL
  5
EE
102
{ACAD_REACTORS
330
6A
102
}
330
6A
100
AcDbMaterial
  1
Global
  0
MLINESTYLE
  5
18
102
{ACAD_REACTORS
330
17
102
}
330
17
100
AcDbMlineStyle
  2
STANDARD
 70
     0
  3

 62
   256
 51
90.0
 52
90.0
 71
     2
 49
0.5
 62
   256
  6
BYLAYER
 49
-0.5
 62
   256
  6
BYLAYER
  0
ACDBPLACEHOLDER
  5
F
102
{ACAD_REACTORS
330
E
102
}
330
E
  0
TABLESTYLE
  5
7F
102
{ACAD_REACTORS
330
7E
102
}
330
7E
100
AcDbTableStyle
  3
Standard
 70
     0
 71
     0
 40
1.5
 41
1.5
280
     0
281
     0
  7
Standard
140
4.5
170
     2
 62
     0
 63
     7
283
     0
 90
      512
 91
        0
  1

274
    -2
284
     1
 64
     0
275
    -2
285
     1
 65
     0
276
    -2
286
     1
 66
     0
277
    -2
287
     1
 67
     0
278
    -2
288
     1
 68
     0
279
    -2
289
     1
 69
     0
  7
Standard
140
6.0
170
     5
 62
     0
 63
     7
283
     0
 90
      512
 91
        0
  1

274
    -2
284
     1
 64
     0
275
    -2
285
     1
 65
     0
276
    -2
286
     1
 66
     0
277
    -2
287
     1
 67
     0
278
    -2
288
     1
 68
     0
279
    -2
289
     1
 69
     0
  7
Standard
140
4.5
170
     5
 62
     0
 63
     7
283
     0
 90
      512
 91
        0
  1

274
    -2
284
     1
 64
     0
275
    -2
285
     1
 65
     0
276
    -2
286
     1
 66
     0
277
    -2
287
     1
 67
     0
278
    -2
288
     1
 68
     0
279
    -2
289
     1
 69
     0
  0
VISUALSTYLE
  5
F5
102
{ACAD_REACTORS
330
EF
102
}
330
EF
100
AcDbVisualStyle
  2
2dWireframe
 70
     4
 71
     0
 72
     2
 73
     1
 90
        0
 40
-0.6
 41
-30.0
 62
     5
 63
     7
421
 16777215
 74
     1
 91
        4
 64
     7
 65
   257
 75
     1
175
     1
 42
1.0
 92
        0
 66
   257
 43
1.0
 76
     1
 77
     6
 78
     2
 67
     7
 79
     5
170
     0
171
     0
290
     0
174
     0
 93
        1
 44
0.0
173
     0
291
     0
 45
0.0
  0
VISUALSTYLE
  5
F7
102
{ACAD_REACTORS
330
EF
102
}
330
EF
100
AcDbVisualStyle
  2
3D Hidden
 70
     6
 71
     1
 72
     2
 73
     2
 90
        0
 40
-0.6
 41
-30.0
 62
     5
 63
     7
421
 16777215
 74
     2
 91
        2
 64
     7
 65
   257
 75
     2
175
     1
 42
40.0
 92
        0
 66
   257
 43
1.0
 76
     1
 77
     6
 78
     2
 67
     7
 79
     3
170
     0
171
     0
290
     0
174
     0
 93
        1
 44
0.0
173
     0
291
     0
 45
0.0
  0
VISUALSTYLE
  5
F6
102
{ACAD_REACTORS
330
EF
102
}
330
EF
100
AcDbVisualStyle
  2
3dWireframe
 70
     5
 71
     0
 72
     2
 73
     1
 90
        0
 40
-0.6
 41
-30.0
 62
     5
 63
     7
421
 16777215
 74
     1
 91
        4
 64
     7
 65
   257
 75
     1
175
     1
 42
1.0
 92
        0
 66
   257
 43
1.0
 76
     1
 77
     6
 78
     2
 67
     7
 79
     5
170
     0
171
     0
290
     0
174
     0
 93
        1
 44
0.0
173
     0
291
     0
 45
0.0
  0
VISUALSTYLE
  5
F4
102
{ACAD_REACTORS
330
EF
102
}
330
EF
100
AcDbVisualStyle
  2
Basic
 70
     7
 71
     1
 72
     0
 73
     1
 90
        0
 40
-0.6
 41
-30.0
 62
     5
 63
     7
421
 16777215
 74
     0
 91
        4
 64
     7
 65
   257
 75
     1
175
     1
 42
1.0
 92
        8
 66
     7
 43
1.0
 76
     1
 77
     6
 78
     2
 67
     7
 79
     5
170
     0
171
     0
290
     0
174
     0
 93
        1
 44
0.0
173
     0
291
     1
 45
0.0
  0
VISUALSTYLE
  5
FB
102
{ACAD_REACTORS
330
EF
102
}
330
EF
100
AcDbVisualStyle
  2
Brighten
 70
    12
 71
     2
 72
     2
 73
     1
 90
        0
 40
-0.6
 41
-30.0
 62
     5
 63
     7
421
 16777215
 74
     1
 91
        4
 64
     7
 65
   257
 75
     1
175
     1
 42
1.0
 92
        8
 66
     7
 43
1.0
 76
     1
 77
     6
 78
     2
 67
     7
 79
     5
170
     0
171
     0
290
     0
174
     0
 93
        1
 44
50.0
173
     0
291
     1
 45
0.0
  0
VISUALSTYLE
  5
FF
102
{ACAD_REACTORS
330
EF
102
}
330
EF
100
AcDbVisualStyle
  2
ColorChange
 70
    16
 71
     2
 72
     2
 73
     3
 90
        0
 40
-0.6
 41
-30.0
 62
     5
 63
     8
421
  8421504
 74
     1
 91
        4
 64
     7
 65
   257
 75
     1
175
     1
 42
1.0
 92
        8
 66
     8
424
  8421504
 43
1.0
 76
     1
 77
     6
 78
     2
 67
     7
 79
     5
170
     0
171
     0
290
     0
174
     0
 93
        1
 44
0.0
173
     0
291
     1
 45
0.0
  0
VISUALSTYLE
  5
F8
102
{ACAD_REACTORS
330
EF
102
}
330
EF
100
AcDbVisualStyle
  2
Conceptual
 70
     9
 71
     3
 72
     2
 73
     1
 90
        0
 40
-0.6
 41
-30.0
 62
     5
 63
     7
421
 16777215
 74
     2
 91
        2
 64
     7
 65
   257
 75
     1
175
     1
 42
40.0
 92
        8
 66
     7
 43
1.0
 76
     1
 77
     6
 78
     2
 67
     7
 79
     3
170
     0
171
     0
290
     0
174
     0
 93
        1
 44
0.0
173
     0
291
     0
 45
0.0
  0
VISUALSTYLE
  5
FA
102
{ACAD_REACTORS
330
EF
102
}
330
EF
100
AcDbVisualStyle
  2
Dim
 70
    11
 71
     2
 72
     2
 73
     1
 90
        0
 40
-0.6
 41
-30.0
 62
     5
 63
     7
421
 16777215
 74
     1
 91
        4
 64
     7
 65
   257
 75
     1
175
     1
 42
1.0
 92
        8
 66
     7
 43
1.0
 76
     1
 77
     6
 78
     2
 67
     7
 79
     5
170
     0
171
     0
290
     0
174
     0
 93
        1
 44
-50.0
173
     0
291
     1
 45
0.0
  0
VISUALSTYLE
  5
FE
102
{ACAD_REACTORS
330
EF
102
}
330
EF
100
AcDbVisualStyle
  2
Facepattern
 70
    15
 71
     2
 72
     2
 73
     1
 90
        0
 40
-0.6
 41
-30.0
 62
     5
 63
     7
421
 16777215
 74
     1
 91
        4
 64
     7
 65
   257
 75
     1
175
     1
 42
1.0
 92
        8
 66
     7
 43
1.0
 76
     1
 77
     6
 78
     2
 67
     7
 79
     5
170
     0
171
     0
290
     0
174
     0
 93
        1
 44
0.0
173
     0
291
     1
 45
0.0
  0
VISUALSTYLE
  5
F0
102
{ACAD_REACTORS
330
EF
102
}
330
EF
100
AcDbVisualStyle
  2
Flat
 70
     0
 71
     2
 72
     1
 73
     1
 90
        2
 40
-0.6
 41
30.0
 62
     5
 63
     7
421
 16777215
 74
     0
 91
        4
 64
     7
 65
   257
 75
     1
175
     1
 42
1.0
 92
        8
 66
     7
 43
1.0
 76
     1
 77
     6
 78
     2
 67
     7
 79
     5
170
     0
171
     0
290
     0
174
     0
 93
        1
 44
0.0
173
     0
291
     1
 45
0.0
  0
VISUALSTYLE
  5
F1
102
{ACAD_REACTORS
330
EF
102
}
330
EF
100
AcDbVisualStyle
  2
FlatWithEdges
 70
     1
 71
     2
 72
     1
 73
     1
 90
        2
 40
-0.6
 41
30.0
 62
     5
 63
     7
421
 16777215
 74
     1
 91
        4
 64
     7
 65
   257
 75
     1
175
     1
 42
1.0
 92
        0
 66
   257
 43
1.0
 76
     1
 77
     6
 78
     2
 67
     7
 79
     5
170
     0
171
     0
290
     0
174
     0
 93
        1
 44
0.0
173
     0
291
     1
 45
0.0
  0
VISUALSTYLE
  5
F2
102
{ACAD_REACTORS
330
EF
102
}
330
EF
100
AcDbVisualStyle
  2
Gouraud
 70
     2
 71
     2
 72
     2
 73
     1
 90
        2
 40
-0.6
 41
30.0
 62
     5
 63
     7
421
 16777215
 74
     0
 91
        4
 64
     7
 65
   257
 75
     1
175
     1
 42
1.0
 92
        0
 66
     7
 43
1.0
 76
     1
 77
     6
 78
     2
 67
     7
 79
     5
170
     0
171
     0
290
     0
174
     0
 93
        1
 44
0.0
173
     0
291
     1
 45
0.0
  0
VISUALSTYLE
  5
F3
102
{ACAD_REACTORS
330
EF
102
}
330
EF
100
AcDbVisualStyle
  2
GouraudWithEdges
 70
     3
 71
     2
 72
     2
 73
     1
 90
        2
 40
-0.6
 41
30.0
 62
     5
 63
     7
421
 16777215
 74
     1
 91
        4
 64
     7
 65
   257
 75
     1
175
     1
 42
1.0
 92
        0
 66
   257
 43
1.0
 76
     1
 77
     6
 78
     2
 67
     7
 79
     5
170
     0
171
     0
290
     0
174
     0
 93
        1
 44
0.0
173
     0
291
     1
 45
0.0
  0
VISUALSTYLE
  5
FD
102
{ACAD_REACTORS
330
EF
102
}
330
EF
100
AcDbVisualStyle
  2
Linepattern
 70
    14
 71
     2
 72
     2
 73
     1
 90
        0
 40
-0.6
 41
-30.0
 62
     5
 63
     7
421
 16777215
 74
     1
 91
        4
 64
     7
 65
   257
 75
     7
175
     7
 42
1.0
 92
        8
 66
     7
 43
1.0
 76
     1
 77
     6
 78
     2
 67
     7
 79
     5
170
     0
171
     0
290
     0
174
     0
 93
        1
 44
0.0
173
     0
291
     1
 45
0.0
  0
VISUALSTYLE
  5
F9
102
{ACAD_REACTORS
330
EF
102
}
330
EF
100
AcDbVisualStyle
  2
Realistic
 70
     8
 71
     2
 72
     2
 73
     1
 90
        0
 40
-0.6
 41
-30.0
 62
     5
 63
     7
421
 16777215
 74
     1
 91
        0
 64
     7
 65
   257
 75
     1
175
     1
 42
1.0
 92
        8
 66
     8
424
  7895160
 43
1.0
 76
     1
 77
     6
 78
     2
 67
     7
 79
     5
170
     0
171
     0
290
     0
174
     0
 93
       13
 44
0.0
173
     0
291
     0
 45
0.0
  0
VISUALSTYLE
  5
FC
102
{ACAD_REACTORS
330
EF
102
}
330
EF
100
AcDbVisualStyle
  2
Thicken
 70
    13
 71
     2
 72
     2
 73
     1
 90
        0
 40
-0.6
 41
-30.0
 62
     5
 63
     7
421
 16777215
 74
     1
 91
        4
 64
     7
 65
   257
 75
     1
175
     1
 42
1.0
 92
       12
 66
     7
 43
1.0
 76
     1
 77
     6
 78
     2
 67
     7
 79
     5
170
     0
171
     0
290
     0
174
     0
 93
        1
 44
0.0
173
     0
291
     1
 45
0.0
  0
DICTIONARYVAR
  5
84
102
{ACAD_REACTORS
330
5E
102
}
330
5E
100
DictionaryVariables
280
     0
  1
STANDARD
  0
DICTIONARYVAR
  5
5F
102
{ACAD_REACTORS
330
5E
102
}
330
5E
100
DictionaryVariables
280
     0
  1
2
  0
DICTIONARYVAR
  5
63
102
{ACAD_REACTORS
330
5E
102
}
330
5E
100
DictionaryVariables
280
     0
  1
1
  0
ENDSEC
  0
EOF
