  0
SECTION
  2
HEADER
  9
$ACADVER
  1
AC1021
  9
$ACADMAINTVER
 70
    25
  9
$DWGCODEPAGE
  3
ANSI_1256
  9
$INSBASE
 10
0.0
 20
0.0
 30
0.0
  9
$EXTMIN
 10
-5.927724409448819
 20
-2.809767716535433
 30
0.0
  9
$EXTMAX
 10
5.937307086614173
 20
2.805917322834646
 30
0.0
  9
$LIMMIN
 10
0.0
 20
0.0
  9
$LIMMAX
 10
12.0
 20
9.0
  9
$ORTHOMODE
 70
     0
  9
$REGENMODE
 70
     1
  9
$FILLMODE
 70
     1
  9
$QTEXTMODE
 70
     0
  9
$MIRRTEXT
 70
     1
  9
$LTSCALE
 40
1.0
  9
$ATTMODE
 70
     1
  9
$TEXTSIZE
 40
0.2
  9
$TRACEWID
 40
0.05
  9
$TEXTSTYLE
  7
Standard
  9
$CLAYER
  8
0
  9
$CELTYPE
  6
ByLayer
  9
$CECOLOR
 62
   256
  9
$CELTSCALE
 40
1.0
  9
$DISPSILH
 70
     0
  9
$DIMSCALE
 40
1.0
  9
$DIMASZ
 40
0.18
  9
$DIMEXO
 40
0.0625
  9
$DIMDLI
 40
0.38
  9
$DIMRND
 40
0.0
  9
$DIMDLE
 40
0.0
  9
$DIMEXE
 40
0.18
  9
$DIMTP
 40
0.0
  9
$DIMTM
 40
0.0
  9
$DIMTXT
 40
0.18
  9
$DIMCEN
 40
0.09
  9
$DIMTSZ
 40
0.0
  9
$DIMTOL
 70
     0
  9
$DIMLIM
 70
     0
  9
$DIMTIH
 70
     1
  9
$DIMTOH
 70
     1
  9
$DIMSE1
 70
     0
  9
$DIMSE2
 70
     0
  9
$DIMTAD
 70
     0
  9
$DIMZIN
 70
     0
  9
$DIMBLK
  1

  9
$DIMASO
 70
     1
  9
$DIMSHO
 70
     1
  9
$DIMPOST
  1

  9
$DIMAPOST
  1

  9
$DIMALT
 70
     0
  9
$DIMALTD
 70
     2
  9
$DIMALTF
 40
25.4
  9
$DIMLFAC
 40
1.0
  9
$DIMTOFL
 70
     0
  9
$DIMTVP
 40
0.0
  9
$DIMTIX
 70
     0
  9
$DIMSOXD
 70
     0
  9
$DIMSAH
 70
     0
  9
$DIMBLK1
  1

  9
$DIMBLK2
  1

  9
$DIMSTYLE
  2
Standard
  9
$DIMCLRD
 70
     0
  9
$DIMCLRE
 70
     0
  9
$DIMCLRT
 70
     0
  9
$DIMTFAC
 40
1.0
  9
$DIMGAP
 40
0.09
  9
$DIMJUST
 70
     0
  9
$DIMSD1
 70
     0
  9
$DIMSD2
 70
     0
  9
$DIMTOLJ
 70
     1
  9
$DIMTZIN
 70
     0
  9
$DIMALTZ
 70
     0
  9
$DIMALTTZ
 70
     0
  9
$DIMUPT
 70
     0
  9
$DIMDEC
 70
     4
  9
$DIMTDEC
 70
     4
  9
$DIMALTU
 70
     2
  9
$DIMALTTD
 70
     2
  9
$DIMTXSTY
  7
Standard
  9
$DIMAUNIT
 70
     0
  9
$DIMADEC
 70
     0
  9
$DIMALTRND
 40
0.0
  9
$DIMAZIN
 70
     0
  9
$DIMDSEP
 70
    46
  9
$DIMATFIT
 70
     3
  9
$DIMFRAC
 70
     0
  9
$DIMLDRBLK
  1

  9
$DIMLUNIT
 70
     2
  9
$DIMLWD
 70
    -2
  9
$DIMLWE
 70
    -2
  9
$DIMTMOVE
 70
     0
  9
$DIMFXL
 40
1.0
  9
$DIMFXLON
 70
     0
  9
$DIMJOGANG
 40
0.7853981633974483
  9
$DIMTFILL
 70
     0
  9
$DIMTFILLCLR
 70
     0
  9
$DIMARCSYM
 70
     0
  9
$DIMLTYPE
  6

  9
$DIMLTEX1
  6

  9
$DIMLTEX2
  6

  9
$LUNITS
 70
     2
  9
$LUPREC
 70
     4
  9
$SKETCHINC
 40
0.1
  9
$FILLETRAD
 40
0.5
  9
$AUNITS
 70
     0
  9
$AUPREC
 70
     0
  9
$MENU
  1
.
  9
$ELEVATION
 40
0.0
  9
$PELEVATION
 40
0.0
  9
$THICKNESS
 40
0.0
  9
$LIMCHECK
 70
     0
  9
$CHAMFERA
 40
0.0
  9
$CHAMFERB
 40
0.0
  9
$CHAMFERC
 40
0.0
  9
$CHAMFERD
 40
0.0
  9
$SKPOLY
 70
     0
  9
$TDCREATE
 40
2458112.700242998
  9
$TDUCREATE
 40
2458112.575242998
  9
$TDUPDATE
 40
2458112.700243287
  9
$TDUUPDATE
 40
2458112.575243287
  9
$TDINDWG
 40
0.0000000116
  9
$TDUSRTIMER
 40
0.0000000116
  9
$USRTIMER
 70
     1
  9
$ANGBASE
 50
0.0
  9
$ANGDIR
 70
     0
  9
$PDMODE
 70
     0
  9
$PDSIZE
 40
0.0
  9
$PLINEWID
 40
0.0
  9
$SPLFRAME
 70
     0
  9
$SPLINETYPE
 70
     6
  9
$SPLINESEGS
 70
     8
  9
$HANDSEED
  5
F2
  9
$SURFTAB1
 70
     6
  9
$SURFTAB2
 70
     6
  9
$SURFTYPE
 70
     6
  9
$SURFU
 70
     6
  9
$SURFV
 70
     6
  9
$UCSBASE
  2

  9
$UCSNAME
  2

  9
$UCSORG
 10
0.0
 20
0.0
 30
0.0
  9
$UCSXDIR
 10
1.0
 20
0.0
 30
0.0
  9
$UCSYDIR
 10
0.0
 20
1.0
 30
0.0
  9
$UCSORTHOREF
  2

  9
$UCSORTHOVIEW
 70
     0
  9
$UCSORGTOP
 10
0.0
 20
0.0
 30
0.0
  9
$UCSORGBOTTOM
 10
0.0
 20
0.0
 30
0.0
  9
$UCSORGLEFT
 10
0.0
 20
0.0
 30
0.0
  9
$UCSORGRIGHT
 10
0.0
 20
0.0
 30
0.0
  9
$UCSORGFRONT
 10
0.0
 20
0.0
 30
0.0
  9
$UCSORGBACK
 10
0.0
 20
0.0
 30
0.0
  9
$PUCSBASE
  2

  9
$PUCSNAME
  2

  9
$PUCSORG
 10
0.0
 20
0.0
 30
0.0
  9
$PUCSXDIR
 10
1.0
 20
0.0
 30
0.0
  9
$PUCSYDIR
 10
0.0
 20
1.0
 30
0.0
  9
$PUCSORTHOREF
  2

  9
$PUCSORTHOVIEW
 70
     0
  9
$PUCSORGTOP
 10
0.0
 20
0.0
 30
0.0
  9
$PUCSORGBOTTOM
 10
0.0
 20
0.0
 30
0.0
  9
$PUCSORGLEFT
 10
0.0
 20
0.0
 30
0.0
  9
$PUCSORGRIGHT
 10
0.0
 20
0.0
 30
0.0
  9
$PUCSORGFRONT
 10
0.0
 20
0.0
 30
0.0
  9
$PUCSORGBACK
 10
0.0
 20
0.0
 30
0.0
  9
$USERI1
 70
     0
  9
$USERI2
 70
     0
  9
$USERI3
 70
     0
  9
$USERI4
 70
     0
  9
$USERI5
 70
     0
  9
$USERR1
 40
0.0
  9
$USERR2
 40
0.0
  9
$USERR3
 40
0.0
  9
$USERR4
 40
0.0
  9
$USERR5
 40
0.0
  9
$WORLDVIEW
 70
     1
  9
$SHADEDGE
 70
     3
  9
$SHADEDIF
 70
    70
  9
$TILEMODE
 70
     1
  9
$MAXACTVP
 70
    64
  9
$PINSBASE
 10
0.0
 20
0.0
 30
0.0
  9
$PLIMCHECK
 70
     0
  9
$PEXTMIN
 10
1.000000000000000E+20
 20
1.000000000000000E+20
 30
1.000000000000000E+20
  9
$PEXTMAX
 10
-1.000000000000000E+20
 20
-1.000000000000000E+20
 30
-1.000000000000000E+20
  9
$PLIMMIN
 10
0.0
 20
0.0
  9
$PLIMMAX
 10
12.0
 20
9.0
  9
$UNITMODE
 70
     0
  9
$VISRETAIN
 70
     1
  9
$PLINEGEN
 70
     0
  9
$PSLTSCALE
 70
     1
  9
$TREEDEPTH
 70
  3020
  9
$CMLSTYLE
  2
Standard
  9
$CMLJUST
 70
     0
  9
$CMLSCALE
 40
1.0
  9
$PROXYGRAPHICS
 70
     1
  9
$MEASUREMENT
 70
     0
  9
$CELWEIGHT
370
    -1
  9
$ENDCAPS
280
     0
  9
$JOINSTYLE
280
     0
  9
$LWDISPLAY
290
     0
  9
$INSUNITS
 70
     1
  9
$HYPERLINKBASE
  1

  9
$STYLESHEET
  1

  9
$XEDIT
290
     1
  9
$CEPSNTYPE
380
     0
  9
$PSTYLEMODE
290
     1
  9
$FINGERPRINTGUID
  2
{6AED9396-FBD9-438C-8359-A75846AF3422}
  9
$VERSIONGUID
  2
{FAEB1C32-E019-11D5-929B-00C0DF256EC4}
  9
$EXTNAMES
290
     1
  9
$PSVPSCALE
 40
0.0
  9
$OLESTARTUP
290
     0
  9
$SORTENTS
280
   127
  9
$INDEXCTL
280
     0
  9
$HIDETEXT
280
     1
  9
$XCLIPFRAME
290
     0
  9
$HALOGAP
280
     0
  9
$OBSCOLOR
 70
   257
  9
$OBSLTYPE
280
     0
  9
$INTERSECTIONDISPLAY
280
     0
  9
$INTERSECTIONCOLOR
 70
   257
  9
$DIMASSOC
280
     2
  9
$PROJECTNAME
  1

  9
$CAMERADISPLAY
290
     0
  9
$LENSLENGTH
 40
50.0
  9
$CAMERAHEIGHT
 40
0.0
  9
$STEPSPERSEC
 40
2.0
  9
$STEPSIZE
 40
6.0
  9
$3DDWFPREC
 40
2.0
  9
$PSOLWIDTH
 40
0.25
  9
$PSOLHEIGHT
 40
4.0
  9
$LOFTANG1
 40
1.570796326794897
  9
$LOFTANG2
 40
1.570796326794897
  9
$LOFTMAG1
 40
0.0
  9
$LOFTMAG2
 40
0.0
  9
$LOFTPARAM
 70
     7
  9
$LOFTNORMALS
280
     1
  9
$LATITUDE
 40
37.795
  9
$LONGITUDE
 40
-122.394
  9
$NORTHDIRECTION
 40
0.0
  9
$TIMEZONE
 70
 -8000
  9
$LIGHTGLYPHDISPLAY
280
     1
  9
$TILEMODELIGHTSYNCH
280
     1
  9
$CMATERIAL
347
44
  9
$SOLIDHIST
280
     0
  9
$SHOWHIST
280
     1
  9
$DWFFRAME
280
     2
  9
$DGNFRAME
280
     2
  9
$REALWORLDSCALE
290
     1
  9
$INTERFERECOLOR
 62
   256
  9
$CSHADOW
280
     0
  9
$SHADOWPLANELOCATION
 40
0.0
  0
ENDSEC
  0
SECTION
  2
CLASSES
  0
CLASS
  1
ACDBDICTIONARYWDFLT
  2
AcDbDictionaryWithDefault
  3
ObjectDBX Classes
 90
        0
 91
        4
280
     0
281
     0
  0
CLASS
  1
VISUALSTYLE
  2
AcDbVisualStyle
  3
ObjectDBX Classes
 90
     4095
 91
        4
280
     0
281
     0
  0
CLASS
  1
MATERIAL
  2
AcDbMaterial
  3
ObjectDBX Classes
 90
     1153
 91
        4
280
     0
281
     0
  0
CLASS
  1
SCALE
  2
AcDbScale
  3
ObjectDBX Classes
 90
     1153
 91
        4
280
     0
281
     0
  0
CLASS
  1
TABLESTYLE
  2
AcDbTableStyle
  3
ObjectDBX Classes
 90
     4095
 91
        4
280
     0
281
     0
  0
CLASS
  1
MLEADERSTYLE
  2
AcDbMLeaderStyle
  3
ACDB_MLEADERSTYLE_CLASS
 90
     4095
 91
        4
280
     0
281
     0
  0
CLASS
  1
SUN
  2
AcDbSun
  3
SCENEOE
 90
     1153
 91
        4
280
     0
281
     0
  0
CLASS
  1
DICTIONARYVAR
  2
AcDbDictionaryVar
  3
ObjectDBX Classes
 90
        0
 91
        4
280
     0
281
     0
  0
CLASS
  1
CELLSTYLEMAP
  2
AcDbCellStyleMap
  3
ObjectDBX Classes
 90
     1152
 91
        4
280
     0
281
     0
  0
ENDSEC
  0
SECTION
  2
TABLES
  0
TABLE
  2
VPORT
  5
8
330
0
100
AcDbSymbolTable
 70
     1
  0
VPORT
  5
29
330
8
100
AcDbSymbolTableRecord
100
AcDbViewportTableRecord
  2
*Active
 70
     0
 10
0.0
 20
0.0
 11
1.0
 21
1.0
 12
10.42990654205607
 22
4.5
 13
0.0
 23
0.0
 14
0.5
 24
0.5
 15
0.5
 25
0.5
 16
0.0
 26
0.0
 36
1.0
 17
0.0
 27
0.0
 37
0.0
 40
9.0
 41
1.972972972850329
 42
50.0
 43
0.0
 44
0.0
 50
0.0
 51
0.0
 71
     0
 72
   100
 73
     1
 74
     3
 75
     0
 76
     0
 77
     0
 78
     0
281
     0
 65
     1
110
0.0
120
0.0
130
0.0
111
1.0
121
0.0
131
0.0
112
0.0
122
1.0
132
0.0
 79
     0
146
0.0
348
2F
 60
     3
 61
     5
292
     1
282
     1
141
0.0
142
0.0
 63
   250
361
6D
  0
ENDTAB
  0
TABLE
  2
LTYPE
  5
5
330
0
100
AcDbSymbolTable
 70
     1
  0
LTYPE
  5
14
330
5
100
AcDbSymbolTableRecord
100
AcDbLinetypeTableRecord
  2
ByBlock
 70
     0
  3

 72
    65
 73
     0
 40
0.0
  0
LTYPE
  5
15
330
5
100
AcDbSymbolTableRecord
100
AcDbLinetypeTableRecord
  2
ByLayer
 70
     0
  3

 72
    65
 73
     0
 40
0.0
  0
LTYPE
  5
16
330
5
100
AcDbSymbolTableRecord
100
AcDbLinetypeTableRecord
  2
Continuous
 70
     0
  3
Solid line
 72
    65
 73
     0
 40
0.0
  0
ENDTAB
  0
TABLE
  2
LAYER
  5
2
330
0
100
AcDbSymbolTable
 70
     2
  0
LAYER
  5
10
330
2
100
AcDbSymbolTableRecord
100
AcDbLayerTableRecord
  2
0
 70
     0
 62
     7
  6
Continuous
370
    -3
390
F
347
46
  0
LAYER
  5
6F
330
2
100
AcDbSymbolTableRecord
100
AcDbLayerTableRecord
  2
Layer 1
 70
     0
 62
     7
  6
Continuous
370
    -3
390
F
347
46
  0
ENDTAB
  0
TABLE
  2
STYLE
  5
3
330
0
100
AcDbSymbolTable
 70
     1
  0
STYLE
  5
11
330
3
100
AcDbSymbolTableRecord
100
AcDbTextStyleTableRecord
  2
Standard
 70
     0
 40
0.0
 41
1.0
 50
0.0
 71
     0
 42
0.2
  3
txt
  4

  0
ENDTAB
  0
TABLE
  2
VIEW
  5
6
330
0
100
AcDbSymbolTable
 70
     0
  0
ENDTAB
  0
TABLE
  2
UCS
  5
7
330
0
100
AcDbSymbolTable
 70
     0
  0
ENDTAB
  0
TABLE
  2
APPID
  5
9
330
0
100
AcDbSymbolTable
 70
     3
  0
APPID
  5
12
330
9
100
AcDbSymbolTableRecord
100
AcDbRegAppTableRecord
  2
ACAD
 70
     0
  0
APPID
  5
6E
330
9
100
AcDbSymbolTableRecord
100
AcDbRegAppTableRecord
  2
ODA
 70
     0
  0
APPID
  5
EA
330
9
100
AcDbSymbolTableRecord
100
AcDbRegAppTableRecord
  2
ACAD_MLEADERVER
 70
     0
  0
ENDTAB
  0
TABLE
  2
DIMSTYLE
  5
A
330
0
100
AcDbSymbolTable
 70
     1
100
AcDbDimStyleTable
  0
DIMSTYLE
105
27
330
A
100
AcDbSymbolTableRecord
100
AcDbDimStyleTableRecord
  2
Standard
 70
     0
178
     0
340
11
  0
ENDTAB
  0
TABLE
  2
BLOCK_RECORD
  5
1
330
0
100
AcDbSymbolTable
 70
     1
  0
BLOCK_RECORD
  5
1F
330
1
100
AcDbSymbolTableRecord
100
AcDbBlockTableRecord
  2
*Model_Space
340
22
 70
     0
280
     1
281
     0
  0
BLOCK_RECORD
  5
1B
330
1
100
AcDbSymbolTableRecord
100
AcDbBlockTableRecord
  2
*Paper_Space
340
1E
 70
     0
280
     1
281
     0
  0
BLOCK_RECORD
  5
23
330
1
100
AcDbSymbolTableRecord
100
AcDbBlockTableRecord
  2
*Paper_Space0
340
26
 70
     0
280
     1
281
     0
  0
ENDTAB
  0
ENDSEC
  0
SECTION
  2
BLOCKS
  0
BLOCK
  5
20
330
1F
100
AcDbEntity
  8
0
100
AcDbBlockBegin
  2
*Model_Space
 70
     0
 10
0.0
 20
0.0
 30
0.0
  3
*Model_Space
  1

  0
ENDBLK
  5
21
330
1F
100
AcDbEntity
  8
0
100
AcDbBlockEnd
  0
BLOCK
  5
1C
330
1B
100
AcDbEntity
 67
     1
  8
0
100
AcDbBlockBegin
  2
*Paper_Space
 70
     0
 10
0.0
 20
0.0
 30
0.0
  3
*Paper_Space
  1

  0
ENDBLK
  5
1D
330
1B
100
AcDbEntity
 67
     1
  8
0
100
AcDbBlockEnd
  0
BLOCK
  5
24
330
23
100
AcDbEntity
  8
0
100
AcDbBlockBegin
  2
*Paper_Space0
 70
     0
 10
0.0
 20
0.0
 30
0.0
  3
*Paper_Space0
  1

  0
ENDBLK
  5
25
330
23
100
AcDbEntity
  8
0
100
AcDbBlockEnd
  0
ENDSEC
  0
SECTION
  2
ENTITIES
  0
SPLINE
  5
70
330
1F
100
AcDbEntity
  8
Layer 1
 62
     1
370
     9
100
AcDbSpline
210
0.0
220
0.0
230
1.0
 70
    11
 71
     3
 72
    20
 73
    16
 74
     0
 42
0.000000001
 43
0.0000000001
 40
0.0
 40
0.0
 40
0.0
 40
0.0
 40
0.2
 40
0.2
 40
0.2
 40
0.2
 40
0.4
 40
0.4
 40
0.4
 40
0.4
 40
0.6
 40
0.6
 40
0.6
 40
0.6
 40
1.0
 40
1.0
 40
1.0
 40
1.0
 10
-3.308110236220473
 20
-0.8943897637795276
 30
0.0
 10
-3.308110236220473
 20
-0.8943897637795276
 30
0.0
 10
-2.914409448818898
 20
-0.8943897637795276
 30
0.0
 10
-2.914409448818898
 20
-0.8943897637795276
 30
0.0
 10
-2.914409448818898
 20
-0.8943897637795276
 30
0.0
 10
-2.914409448818898
 20
-0.8943897637795276
 30
0.0
 10
-2.914409448818898
 20
-0.7802165354330709
 30
0.0
 10
-2.914409448818898
 20
-0.7802165354330709
 30
0.0
 10
-2.914409448818898
 20
-0.7802165354330709
 30
0.0
 10
-2.914409448818898
 20
-0.7802165354330709
 30
0.0
 10
-3.308110236220473
 20
-0.7802165354330709
 30
0.0
 10
-3.308110236220473
 20
-0.7802165354330709
 30
0.0
 10
-3.308110236220473
 20
-0.7802165354330709
 30
0.0
 10
-3.308110236220473
 20
-0.7802165354330709
 30
0.0
 10
-3.308110236220473
 20
-0.8943897637795276
 30
0.0
 10
-3.308110236220473
 20
-0.8943897637795276
 30
0.0
  0
SPLINE
  5
71
330
1F
100
AcDbEntity
  8
Layer 1
 62
     1
370
     9
100
AcDbSpline
210
0.0
220
0.0
230
1.0
 70
    11
 71
     3
 72
    20
 73
    16
 74
     0
 42
0.000000001
 43
0.0000000001
 40
0.0
 40
0.0
 40
0.0
 40
0.0
 40
0.2
 40
0.2
 40
0.2
 40
0.2
 40
0.4
 40
0.4
 40
0.4
 40
0.4
 40
0.6
 40
0.6
 40
0.6
 40
0.6
 40
1.0
 40
1.0
 40
1.0
 40
1.0
 10
-2.341582677165354
 20
-0.2073897637795276
 30
0.0
 10
-2.341582677165354
 20
-0.2073897637795276
 30
0.0
 10
-2.227413385826772
 20
-0.2073897637795276
 30
0.0
 10
-2.227413385826772
 20
-0.2073897637795276
 30
0.0
 10
-2.227413385826772
 20
-0.2073897637795276
 30
0.0
 10
-2.227413385826772
 20
-0.2073897637795276
 30
0.0
 10
-2.227413385826772
 20
0.1863110236220472
 30
0.0
 10
-2.227413385826772
 20
0.1863110236220472
 30
0.0
 10
-2.227413385826772
 20
0.1863110236220472
 30
0.0
 10
-2.227413385826772
 20
0.1863110236220472
 30
0.0
 10
-2.341582677165354
 20
0.1863110236220472
 30
0.0
 10
-2.341582677165354
 20
0.1863110236220472
 30
0.0
 10
-2.341582677165354
 20
0.1863110236220472
 30
0.0
 10
-2.341582677165354
 20
0.1863110236220472
 30
0.0
 10
-2.341582677165354
 20
-0.2073897637795276
 30
0.0
 10
-2.341582677165354
 20
-0.2073897637795276
 30
0.0
  0
SPLINE
  5
72
330
1F
100
AcDbEntity
  8
Layer 1
 62
     1
370
     9
100
AcDbSpline
210
0.0
220
0.0
230
1.0
 70
    11
 71
     3
 72
    20
 73
    16
 74
     0
 42
0.000000001
 43
0.0000000001
 40
0.0
 40
0.0
 40
0.0
 40
0.0
 40
0.2
 40
0.2
 40
0.2
 40
0.2
 40
0.4
 40
0.4
 40
0.4
 40
0.4
 40
0.6
 40
0.6
 40
0.6
 40
0.6
 40
1.0
 40
1.0
 40
1.0
 40
1.0
 10
-5.079767716535433
 20
2.530807086614173
 30
0.0
 10
-5.079767716535433
 20
2.530807086614173
 30
0.0
 10
-4.686066929133858
 20
2.530807086614173
 30
0.0
 10
-4.686066929133858
 20
2.530807086614173
 30
0.0
 10
-4.686066929133858
 20
2.530807086614173
 30
0.0
 10
-4.686066929133858
 20
2.530807086614173
 30
0.0
 10
-4.686066929133858
 20
2.64498031496063
 30
0.0
 10
-4.686066929133858
 20
2.64498031496063
 30
0.0
 10
-4.686066929133858
 20
2.64498031496063
 30
0.0
 10
-4.686066929133858
 20
2.64498031496063
 30
0.0
 10
-5.079767716535433
 20
2.64498031496063
 30
0.0
 10
-5.079767716535433
 20
2.64498031496063
 30
0.0
 10
-5.079767716535433
 20
2.64498031496063
 30
0.0
 10
-5.079767716535433
 20
2.64498031496063
 30
0.0
 10
-5.079767716535433
 20
2.530807086614173
 30
0.0
 10
-5.079767716535433
 20
2.530807086614173
 30
0.0
  0
SPLINE
  5
73
330
1F
100
AcDbEntity
  8
Layer 1
 62
     1
370
     9
100
AcDbSpline
210
0.0
220
0.0
230
1.0
 70
    11
 71
     3
 72
    20
 73
    16
 74
     0
 42
0.000000001
 43
0.0000000001
 40
0.0
 40
0.0
 40
0.0
 40
0.0
 40
0.2
 40
0.2
 40
0.2
 40
0.2
 40
0.4
 40
0.4
 40
0.4
 40
0.4
 40
0.6
 40
0.6
 40
0.6
 40
0.6
 40
1.0
 40
1.0
 40
1.0
 40
1.0
 10
-5.766779527559055
 20
1.564263779527559
 30
0.0
 10
-5.766779527559055
 20
1.564263779527559
 30
0.0
 10
-5.652602362204725
 20
1.564263779527559
 30
0.0
 10
-5.652602362204725
 20
1.564263779527559
 30
0.0
 10
-5.652602362204725
 20
1.564263779527559
 30
0.0
 10
-5.652602362204725
 20
1.564263779527559
 30
0.0
 10
-5.652602362204725
 20
1.957964566929134
 30
0.0
 10
-5.652602362204725
 20
1.957964566929134
 30
0.0
 10
-5.652602362204725
 20
1.957964566929134
 30
0.0
 10
-5.652602362204725
 20
1.957964566929134
 30
0.0
 10
-5.766779527559055
 20
1.957964566929134
 30
0.0
 10
-5.766779527559055
 20
1.957964566929134
 30
0.0
 10
-5.766779527559055
 20
1.957964566929134
 30
0.0
 10
-5.766779527559055
 20
1.957964566929134
 30
0.0
 10
-5.766779527559055
 20
1.564263779527559
 30
0.0
 10
-5.766779527559055
 20
1.564263779527559
 30
0.0
  0
SPLINE
  5
74
330
1F
100
AcDbEntity
  8
Layer 1
 62
     1
370
     9
100
AcDbSpline
210
0.0
220
0.0
230
1.0
 70
    11
 71
     3
 72
    20
 73
    16
 74
     0
 42
0.000000001
 43
0.0000000001
 40
0.0
 40
0.0
 40
0.0
 40
0.0
 40
0.2
 40
0.2
 40
0.2
 40
0.2
 40
0.4
 40
0.4
 40
0.4
 40
0.4
 40
0.6
 40
0.6
 40
0.6
 40
0.6
 40
1.0
 40
1.0
 40
1.0
 40
1.0
 10
-5.079767716535433
 20
-0.8943897637795276
 30
0.0
 10
-5.079767716535433
 20
-0.8943897637795276
 30
0.0
 10
-4.686066929133858
 20
-0.8943897637795276
 30
0.0
 10
-4.686066929133858
 20
-0.8943897637795276
 30
0.0
 10
-4.686066929133858
 20
-0.8943897637795276
 30
0.0
 10
-4.686066929133858
 20
-0.8943897637795276
 30
0.0
 10
-4.686066929133858
 20
-0.7802165354330709
 30
0.0
 10
-4.686066929133858
 20
-0.7802165354330709
 30
0.0
 10
-4.686066929133858
 20
-0.7802165354330709
 30
0.0
 10
-4.686066929133858
 20
-0.7802165354330709
 30
0.0
 10
-5.079767716535433
 20
-0.7802165354330709
 30
0.0
 10
-5.079767716535433
 20
-0.7802165354330709
 30
0.0
 10
-5.079767716535433
 20
-0.7802165354330709
 30
0.0
 10
-5.079767716535433
 20
-0.7802165354330709
 30
0.0
 10
-5.079767716535433
 20
-0.8943897637795276
 30
0.0
 10
-5.079767716535433
 20
-0.8943897637795276
 30
0.0
  0
SPLINE
  5
75
330
1F
100
AcDbEntity
  8
Layer 1
 62
     1
370
     9
100
AcDbSpline
210
0.0
220
0.0
230
1.0
 70
    11
 71
     3
 72
    20
 73
    16
 74
     0
 42
0.000000001
 43
0.0000000001
 40
0.0
 40
0.0
 40
0.0
 40
0.0
 40
0.2
 40
0.2
 40
0.2
 40
0.2
 40
0.4
 40
0.4
 40
0.4
 40
0.4
 40
0.6
 40
0.6
 40
0.6
 40
0.6
 40
1.0
 40
1.0
 40
1.0
 40
1.0
 10
-5.766779527559055
 20
-0.2073897637795276
 30
0.0
 10
-5.766779527559055
 20
-0.2073897637795276
 30
0.0
 10
-5.652602362204725
 20
-0.2073897637795276
 30
0.0
 10
-5.652602362204725
 20
-0.2073897637795276
 30
0.0
 10
-5.652602362204725
 20
-0.2073897637795276
 30
0.0
 10
-5.652602362204725
 20
-0.2073897637795276
 30
0.0
 10
-5.652602362204725
 20
0.1863110236220472
 30
0.0
 10
-5.652602362204725
 20
0.1863110236220472
 30
0.0
 10
-5.652602362204725
 20
0.1863110236220472
 30
0.0
 10
-5.652602362204725
 20
0.1863110236220472
 30
0.0
 10
-5.766779527559055
 20
0.1863110236220472
 30
0.0
 10
-5.766779527559055
 20
0.1863110236220472
 30
0.0
 10
-5.766779527559055
 20
0.1863110236220472
 30
0.0
 10
-5.766779527559055
 20
0.1863110236220472
 30
0.0
 10
-5.766779527559055
 20
-0.2073897637795276
 30
0.0
 10
-5.766779527559055
 20
-0.2073897637795276
 30
0.0
  0
SPLINE
  5
76
330
1F
100
AcDbEntity
  8
Layer 1
 62
     1
370
     9
100
AcDbSpline
210
0.0
220
0.0
230
1.0
 70
    11
 71
     3
 72
    20
 73
    16
 74
     0
 42
0.000000001
 43
0.0000000001
 40
0.0
 40
0.0
 40
0.0
 40
0.0
 40
0.2
 40
0.2
 40
0.2
 40
0.2
 40
0.4
 40
0.4
 40
0.4
 40
0.4
 40
0.6
 40
0.6
 40
0.6
 40
0.6
 40
1.0
 40
1.0
 40
1.0
 40
1.0
 10
-3.308110236220473
 20
2.530807086614173
 30
0.0
 10
-3.308110236220473
 20
2.530807086614173
 30
0.0
 10
-2.914409448818898
 20
2.530807086614173
 30
0.0
 10
-2.914409448818898
 20
2.530807086614173
 30
0.0
 10
-2.914409448818898
 20
2.530807086614173
 30
0.0
 10
-2.914409448818898
 20
2.530807086614173
 30
0.0
 10
-2.914409448818898
 20
2.64498031496063
 30
0.0
 10
-2.914409448818898
 20
2.64498031496063
 30
0.0
 10
-2.914409448818898
 20
2.64498031496063
 30
0.0
 10
-2.914409448818898
 20
2.64498031496063
 30
0.0
 10
-3.308110236220473
 20
2.64498031496063
 30
0.0
 10
-3.308110236220473
 20
2.64498031496063
 30
0.0
 10
-3.308110236220473
 20
2.64498031496063
 30
0.0
 10
-3.308110236220473
 20
2.64498031496063
 30
0.0
 10
-3.308110236220473
 20
2.530807086614173
 30
0.0
 10
-3.308110236220473
 20
2.530807086614173
 30
0.0
  0
SPLINE
  5
77
330
1F
100
AcDbEntity
  8
Layer 1
 62
     1
370
     9
100
AcDbSpline
210
0.0
220
0.0
230
1.0
 70
    11
 71
     3
 72
    20
 73
    16
 74
     0
 42
0.000000001
 43
0.0000000001
 40
0.0
 40
0.0
 40
0.0
 40
0.0
 40
0.2
 40
0.2
 40
0.2
 40
0.2
 40
0.4
 40
0.4
 40
0.4
 40
0.4
 40
0.6
 40
0.6
 40
0.6
 40
0.6
 40
1.0
 40
1.0
 40
1.0
 40
1.0
 10
-2.341582677165354
 20
1.564263779527559
 30
0.0
 10
-2.341582677165354
 20
1.564263779527559
 30
0.0
 10
-2.227413385826772
 20
1.564263779527559
 30
0.0
 10
-2.227413385826772
 20
1.564263779527559
 30
0.0
 10
-2.227413385826772
 20
1.564263779527559
 30
0.0
 10
-2.227413385826772
 20
1.564263779527559
 30
0.0
 10
-2.227413385826772
 20
1.957964566929134
 30
0.0
 10
-2.227413385826772
 20
1.957964566929134
 30
0.0
 10
-2.227413385826772
 20
1.957964566929134
 30
0.0
 10
-2.227413385826772
 20
1.957964566929134
 30
0.0
 10
-2.341582677165354
 20
1.957964566929134
 30
0.0
 10
-2.341582677165354
 20
1.957964566929134
 30
0.0
 10
-2.341582677165354
 20
1.957964566929134
 30
0.0
 10
-2.341582677165354
 20
1.957964566929134
 30
0.0
 10
-2.341582677165354
 20
1.564263779527559
 30
0.0
 10
-2.341582677165354
 20
1.564263779527559
 30
0.0
  0
SPLINE
  5
78
330
1F
100
AcDbEntity
  8
Layer 1
 62
     1
370
     9
100
AcDbSpline
210
0.0
220
0.0
230
1.0
 70
    11
 71
     3
 72
    36
 73
    32
 74
     0
 42
0.000000001
 43
0.0000000001
 40
0.0
 40
0.0
 40
0.0
 40
0.0
 40
0.1111111111111111
 40
0.1111111111111111
 40
0.1111111111111111
 40
0.1111111111111111
 40
0.2222222222222222
 40
0.2222222222222222
 40
0.2222222222222222
 40
0.2222222222222222
 40
0.3333333333333333
 40
0.3333333333333333
 40
0.3333333333333333
 40
0.3333333333333333
 40
0.4444444444444444
 40
0.4444444444444444
 40
0.4444444444444444
 40
0.4444444444444444
 40
0.5555555555555556
 40
0.5555555555555556
 40
0.5555555555555556
 40
0.5555555555555556
 40
0.6666666666666666
 40
0.6666666666666666
 40
0.6666666666666666
 40
0.6666666666666666
 40
0.7777777777777778
 40
0.7777777777777778
 40
0.7777777777777778
 40
0.7777777777777778
 40
1.0
 40
1.0
 40
1.0
 40
1.0
 10
-5.742503937007874
 20
2.804417322834646
 30
0.0
 10
-5.742503937007874
 20
2.804417322834646
 30
0.0
 10
-2.251681102362205
 20
2.804417322834646
 30
0.0
 10
-2.251681102362205
 20
2.804417322834646
 30
0.0
 10
-2.251681102362205
 20
2.804417322834646
 30
0.0
 10
-2.15063779527559
 20
2.804417322834646
 30
0.0
 10
-2.067956692913386
 20
2.721748031496063
 30
0.0
 10
-2.067956692913386
 20
2.620692913385827
 30
0.0
 10
-2.067956692913386
 20
2.620692913385827
 30
0.0
 10
-2.067956692913386
 20
2.620692913385827
 30
0.0
 10
-2.067956692913386
 20
-0.8701102362204725
 30
0.0
 10
-2.067956692913386
 20
-0.8701102362204725
 30
0.0
 10
-2.067956692913386
 20
-0.8701102362204725
 30
0.0
 10
-2.067956692913386
 20
-0.9711653543307086
 30
0.0
 10
-2.15063779527559
 20
-1.053846456692913
 30
0.0
 10
-2.251681102362205
 20
-1.053846456692913
 30
0.0
 10
-2.251681102362205
 20
-1.053846456692913
 30
0.0
 10
-2.251681102362205
 20
-1.053846456692913
 30
0.0
 10
-5.742503937007874
 20
-1.053846456692913
 30
0.0
 10
-5.742503937007874
 20
-1.053846456692913
 30
0.0
 10
-5.742503937007874
 20
-1.053846456692913
 30
0.0
 10
-5.843555118110237
 20
-1.053846456692913
 30
0.0
 10
-5.926224409448819
 20
-0.9711653543307086
 30
0.0
 10
-5.926224409448819
 20
-0.8701102362204725
 30
0.0
 10
-5.926224409448819
 20
-0.8701102362204725
 30
0.0
 10
-5.926224409448819
 20
-0.8701102362204725
 30
0.0
 10
-5.926224409448819
 20
2.620692913385827
 30
0.0
 10
-5.926224409448819
 20
2.620692913385827
 30
0.0
 10
-5.926224409448819
 20
2.620692913385827
 30
0.0
 10
-5.926224409448819
 20
2.721748031496063
 30
0.0
 10
-5.843555118110237
 20
2.804417322834646
 30
0.0
 10
-5.742503937007874
 20
2.804417322834646
 30
0.0
  0
SPLINE
  5
79
330
1F
100
AcDbEntity
  8
Layer 1
 62
     1
370
     9
100
AcDbSpline
210
0.0
220
0.0
230
1.0
 70
    11
 71
     3
 72
   124
 73
   120
 74
     0
 42
0.000000001
 43
0.0000000001
 40
0.0
 40
0.0
 40
0.0
 40
0.0
 40
0.032258064516129
 40
0.032258064516129
 40
0.032258064516129
 40
0.032258064516129
 40
0.0645161290322581
 40
0.0645161290322581
 40
0.0645161290322581
 40
0.0645161290322581
 40
0.0967741935483871
 40
0.0967741935483871
 40
0.0967741935483871
 40
0.0967741935483871
 40
0.1290322580645161
 40
0.1290322580645161
 40
0.1290322580645161
 40
0.1290322580645161
 40
0.1612903225806452
 40
0.1612903225806452
 40
0.1612903225806452
 40
0.1612903225806452
 40
0.1935483870967742
 40
0.1935483870967742
 40
0.1935483870967742
 40
0.1935483870967742
 40
0.2258064516129032
 40
0.2258064516129032
 40
0.2258064516129032
 40
0.2258064516129032
 40
0.2580645161290323
 40
0.2580645161290323
 40
0.2580645161290323
 40
0.2580645161290323
 40
0.2903225806451613
 40
0.2903225806451613
 40
0.2903225806451613
 40
0.2903225806451613
 40
0.3225806451612903
 40
0.3225806451612903
 40
0.3225806451612903
 40
0.3225806451612903
 40
0.3548387096774194
 40
0.3548387096774194
 40
0.3548387096774194
 40
0.3548387096774194
 40
0.3870967741935484
 40
0.3870967741935484
 40
0.3870967741935484
 40
0.3870967741935484
 40
0.4193548387096774
 40
0.4193548387096774
 40
0.4193548387096774
 40
0.4193548387096774
 40
0.4516129032258064
 40
0.4516129032258064
 40
0.4516129032258064
 40
0.4516129032258064
 40
0.4838709677419355
 40
0.4838709677419355
 40
0.4838709677419355
 40
0.4838709677419355
 40
0.5161290322580645
 40
0.5161290322580645
 40
0.5161290322580645
 40
0.5161290322580645
 40
0.5483870967741935
 40
0.5483870967741935
 40
0.5483870967741935
 40
0.5483870967741935
 40
0.5806451612903226
 40
0.5806451612903226
 40
0.5806451612903226
 40
0.5806451612903226
 40
0.6129032258064516
 40
0.6129032258064516
 40
0.6129032258064516
 40
0.6129032258064516
 40
0.6451612903225806
 40
0.6451612903225806
 40
0.6451612903225806
 40
0.6451612903225806
 40
0.6774193548387096
 40
0.6774193548387096
 40
0.6774193548387096
 40
0.6774193548387096
 40
0.7096774193548387
 40
0.7096774193548387
 40
0.7096774193548387
 40
0.7096774193548387
 40
0.7419354838709677
 40
0.7419354838709677
 40
0.7419354838709677
 40
0.7419354838709677
 40
0.7741935483870968
 40
0.7741935483870968
 40
0.7741935483870968
 40
0.7741935483870968
 40
0.8064516129032258
 40
0.8064516129032258
 40
0.8064516129032258
 40
0.8064516129032258
 40
0.8387096774193549
 40
0.8387096774193549
 40
0.8387096774193549
 40
0.8387096774193549
 40
0.8709677419354839
 40
0.8709677419354839
 40
0.8709677419354839
 40
0.8709677419354839
 40
0.9032258064516129
 40
0.9032258064516129
 40
0.9032258064516129
 40
0.9032258064516129
 40
0.9354838709677419
 40
0.9354838709677419
 40
0.9354838709677419
 40
0.9354838709677419
 40
1.0
 40
1.0
 40
1.0
 40
1.0
 10
-0.8385157480314961
 20
1.298527559055118
 30
0.0
 10
-0.8045708661417322
 20
1.190444881889764
 30
0.0
 10
-0.7334724409448818
 20
1.153263779527559
 30
0.0
 10
-0.6799291338582677
 20
1.069625984251968
 30
0.0
 10
-0.6799291338582677
 20
1.069625984251968
 30
0.0
 10
-0.6788464566929134
 20
1.065956692913386
 30
0.0
 10
-0.6540551181102362
 20
0.9967204724409449
 30
0.0
 10
-0.6536377952755905
 20
0.9960275590551181
 30
0.0
 10
-0.6536377952755905
 20
0.9960275590551181
 30
0.0
 10
-0.6507204724409449
 20
1.033011811023622
 30
0.0
 10
-0.6558740157480315
 20
1.074984251968504
 30
0.0
 10
-0.6557204724409449
 20
1.112972440944882
 30
0.0
 10
-0.6557204724409449
 20
1.112972440944882
 30
0.0
 10
-0.6555551181102363
 20
1.154818897637795
 30
0.0
 10
-0.6519015748031496
 20
1.186956692913386
 30
0.0
 10
-0.6472795275590552
 20
1.226291338582677
 30
0.0
 10
-0.6472795275590552
 20
1.226291338582677
 30
0.0
 10
-0.628
 20
1.278275590551181
 30
0.0
 10
-0.6290157480314961
 20
1.310220472440945
 30
0.0
 10
-0.5755551181102362
 20
1.358153543307087
 30
0.0
 10
-0.5755551181102362
 20
1.358153543307087
 30
0.0
 10
-0.4834724409448819
 20
1.440720472440945
 30
0.0
 10
-0.2790826771653543
 20
1.432456692913386
 30
0.0
 10
-0.3074448818897638
 20
1.239653543307087
 30
0.0
 10
-0.3074448818897638
 20
1.239653543307087
 30
0.0
 10
-0.3211102362204725
 20
1.207011811023622
 30
0.0
 10
-0.3264448818897638
 20
1.187484251968504
 30
0.0
 10
-0.3507086614173228
 20
1.166610236220472
 30
0.0
 10
-0.3507086614173228
 20
1.166610236220472
 30
0.0
 10
-0.3741377952755905
 20
1.146444881889764
 30
0.0
 10
-0.4013346456692913
 20
1.13940157480315
 30
0.0
 10
-0.4384724409448819
 20
1.150011811023622
 30
0.0
 10
-0.4384724409448819
 20
1.150011811023622
 30
0.0
 10
-0.4384724409448819
 20
1.150011811023622
 30
0.0
 10
-0.4526259842519685
 20
1.156984251968504
 30
0.0
 10
-0.4526259842519685
 20
1.156984251968504
 30
0.0
 10
-0.4526259842519685
 20
1.156984251968504
 30
0.0
 10
-0.4255
 20
1.109846456692913
 30
0.0
 10
-0.2670826771653543
 20
0.8924566929133858
 30
0.0
 10
-0.4379566929133858
 20
0.8501377952755905
 30
0.0
 10
-0.4379566929133858
 20
0.8501377952755905
 30
0.0
 10
-0.4620157480314961
 20
0.8441811023622047
 30
0.0
 10
-0.4806102362204724
 20
0.8539173228346457
 30
0.0
 10
-0.4938622047244094
 20
0.866236220472441
 30
0.0
 10
-0.4938622047244094
 20
0.866236220472441
 30
0.0
 10
-0.5093464566929133
 20
0.8806535433070866
 30
0.0
 10
-0.5139448818897637
 20
0.8974448818897638
 30
0.0
 10
-0.527248031496063
 20
0.9101259842519686
 30
0.0
 10
-0.527248031496063
 20
0.9101259842519686
 30
0.0
 10
-0.5481653543307087
 20
0.8467637795275591
 30
0.0
 10
-0.5470433070866142
 20
0.787
 30
0.0
 10
-0.4977204724409449
 20
0.739011811023622
 30
0.0
 10
-0.4977204724409449
 20
0.739011811023622
 30
0.0
 10
-0.4704173228346457
 20
0.7124448818897637
 30
0.0
 10
-0.4407362204724409
 20
0.6722204724409448
 30
0.0
 10
-0.4559724409448819
 20
0.6318188976377953
 30
0.0
 10
-0.4559724409448819
 20
0.6318188976377953
 30
0.0
 10
-0.4735708661417323
 20
0.5851259842519685
 30
0.0
 10
-0.5155
 20
0.6314448818897638
 30
0.0
 10
-0.5317795275590551
 20
0.6521535433070866
 30
0.0
 10
-0.5317795275590551
 20
0.6521535433070866
 30
0.0
 10
-0.5362362204724409
 20
0.6566377952755905
 30
0.0
 10
-0.532748031496063
 20
0.6538188976377953
 30
0.0
 10
-0.5380708661417323
 20
0.6575826771653543
 30
0.0
 10
-0.5380708661417323
 20
0.6575826771653543
 30
0.0
 10
-0.5380708661417323
 20
0.6575826771653543
 30
0.0
 10
-0.5308622047244095
 20
0.5729724409448819
 30
0.0
 10
-0.5308622047244095
 20
0.5729724409448819
 30
0.0
 10
-0.5308622047244095
 20
0.5729724409448819
 30
0.0
 10
-0.5188464566929134
 20
0.4470826771653543
 30
0.0
 10
-0.4606811023622047
 20
0.3259566929133858
 30
0.0
 10
-0.3543346456692913
 20
0.2559173228346457
 30
0.0
 10
-0.3543346456692913
 20
0.2559173228346457
 30
0.0
 10
-0.3231535433070866
 20
0.2353897637795276
 30
0.0
 10
-0.262248031496063
 20
0.2061929133858268
 30
0.0
 10
-0.2263740157480315
 20
0.1988622047244094
 30
0.0
 10
-0.2263740157480315
 20
0.1988622047244094
 30
0.0
 10
-0.2588897637795275
 20
0.2240393700787402
 30
0.0
 10
-0.2954173228346457
 20
0.253248031496063
 30
0.0
 10
-0.3211259842519685
 20
0.2855984251968504
 30
0.0
 10
-0.3211259842519685
 20
0.2855984251968504
 30
0.0
 10
-0.4011259842519685
 20
0.3863070866141732
 30
0.0
 10
-0.4084448818897638
 20
0.4523622047244095
 30
0.0
 10
-0.3997204724409449
 20
0.5729724409448819
 30
0.0
 10
-0.3997204724409449
 20
0.5729724409448819
 30
0.0
 10
-0.3945
 20
0.5980984251968504
 30
0.0
 10
-0.3898740157480315
 20
0.6231929133858267
 30
0.0
 10
-0.3825551181102362
 20
0.6486259842519685
 30
0.0
 10
-0.3825551181102362
 20
0.6486259842519685
 30
0.0
 10
-0.3704566929133858
 20
0.6907204724409449
 30
0.0
 10
-0.3200826771653543
 20
0.8113070866141733
 30
0.0
 10
-0.293
 20
0.8521535433070866
 30
0.0
 10
-0.293
 20
0.8521535433070866
 30
0.0
 10
-0.2306811023622047
 20
0.9625984251968503
 30
0.0
 10
-0.1994566929133858
 20
0.9835275590551181
 30
0.0
 10
-0.1484291338582677
 20
1.134555118110236
 30
0.0
 10
-0.1484291338582677
 20
1.134555118110236
 30
0.0
 10
-0.1189291338582677
 20
1.221862204724409
 30
0.0
 10
-0.1018188976377953
 20
1.333956692913386
 30
0.0
 10
-0.1251929133858268
 20
1.428429133858268
 30
0.0
 10
-0.1251929133858268
 20
1.428429133858268
 30
0.0
 10
-0.1521535433070866
 20
1.537472440944882
 30
0.0
 10
-0.2515433070866142
 20
1.662444881889764
 30
0.0
 10
-0.3620984251968504
 20
1.684
 30
0.0
 10
-0.3620984251968504
 20
1.684
 30
0.0
 10
-0.3819173228346457
 20
1.699275590551181
 30
0.0
 10
-0.4607913385826772
 20
1.70509842519685
 30
0.0
 10
-0.4895
 20
1.706736220472441
 30
0.0
 10
-0.4895
 20
1.706736220472441
 30
0.0
 10
-0.5509015748031496
 20
1.708791338582677
 30
0.0
 10
-0.6115826771653543
 20
1.693236220472441
 30
0.0
 10
-0.6586811023622047
 20
1.671248031496063
 30
0.0
 10
-0.6586811023622047
 20
1.671248031496063
 30
0.0
 10
-0.7273740157480315
 20
1.639192913385827
 30
0.0
 10
-0.7822362204724409
 20
1.589362204724409
 30
0.0
 10
-0.8180551181102362
 20
1.523917322834646
 30
0.0
 10
-0.8180551181102362
 20
1.523917322834646
 30
0.0
 10
-0.8566653543307087
 20
1.453334645669291
 30
0.0
 10
-0.8628622047244094
 20
1.376070866141732
 30
0.0
 10
-0.8385157480314961
 20
1.298527559055118
 30
0.0
  0
SPLINE
  5
7A
330
1F
100
AcDbEntity
  8
Layer 1
 62
     1
370
     9
100
AcDbSpline
210
0.0
220
0.0
230
1.0
 70
    11
 71
     3
 72
    80
 73
    76
 74
     0
 42
0.000000001
 43
0.0000000001
 40
0.0
 40
0.0
 40
0.0
 40
0.0
 40
0.05
 40
0.05
 40
0.05
 40
0.05
 40
0.1
 40
0.1
 40
0.1
 40
0.1
 40
0.15
 40
0.15
 40
0.15
 40
0.15
 40
0.2
 40
0.2
 40
0.2
 40
0.2
 40
0.25
 40
0.25
 40
0.25
 40
0.25
 40
0.3
 40
0.3
 40
0.3
 40
0.3
 40
0.35
 40
0.35
 40
0.35
 40
0.35
 40
0.4
 40
0.4
 40
0.4
 40
0.4
 40
0.45
 40
0.45
 40
0.45
 40
0.45
 40
0.5
 40
0.5
 40
0.5
 40
0.5
 40
0.55
 40
0.55
 40
0.55
 40
0.55
 40
0.6
 40
0.6
 40
0.6
 40
0.6
 40
0.65
 40
0.65
 40
0.65
 40
0.65
 40
0.7
 40
0.7
 40
0.7
 40
0.7
 40
0.75
 40
0.75
 40
0.75
 40
0.75
 40
0.8
 40
0.8
 40
0.8
 40
0.8
 40
0.85
 40
0.85
 40
0.85
 40
0.85
 40
0.9
 40
0.9
 40
0.9
 40
0.9
 40
1.0
 40
1.0
 40
1.0
 40
1.0
 10
0.1078346456692913
 20
-0.1620984251968504
 30
0.0
 10
0.1209015748031496
 20
-0.1756653543307087
 30
0.0
 10
0.1319173228346457
 20
-0.1872795275590551
 30
0.0
 10
0.1472204724409449
 20
-0.1994606299212598
 30
0.0
 10
0.1472204724409449
 20
-0.1994606299212598
 30
0.0
 10
0.1799015748031496
 20
-0.2254606299212598
 30
0.0
 10
0.2179566929133858
 20
-0.2538070866141732
 30
0.0
 10
0.2556102362204725
 20
-0.2711811023622047
 30
0.0
 10
0.2556102362204725
 20
-0.2711811023622047
 30
0.0
 10
0.2613464566929134
 20
-0.2738188976377953
 30
0.0
 10
0.2688070866141732
 20
-0.2769173228346457
 30
0.0
 10
0.275751968503937
 20
-0.2792086614173228
 30
0.0
 10
0.275751968503937
 20
-0.2792086614173228
 30
0.0
 10
0.2083464566929134
 20
-0.1450708661417323
 30
0.0
 10
0.1405708661417323
 20
-0.1780275590551181
 30
0.0
 10
0.0895157480314961
 20
0.0227637795275591
 30
0.0
 10
0.0895157480314961
 20
0.0227637795275591
 30
0.0
 10
0.0790984251968504
 20
0.0813346456692913
 30
0.0
 10
0.0732086614173228
 20
0.0939724409448819
 30
0.0
 10
0.078251968503937
 20
0.1555
 30
0.0
 10
0.078251968503937
 20
0.1555
 30
0.0
 10
0.0799291338582677
 20
0.1760984251968504
 30
0.0
 10
0.0828897637795276
 20
0.1949724409448819
 30
0.0
 10
0.0875433070866142
 20
0.2154015748031496
 30
0.0
 10
0.0875433070866142
 20
0.2154015748031496
 30
0.0
 10
0.1100157480314961
 20
0.3139842519685039
 30
0.0
 10
0.1101377952755905
 20
0.3498346456692913
 30
0.0
 10
0.1641259842519685
 20
0.2774015748031496
 30
0.0
 10
0.1641259842519685
 20
0.2774015748031496
 30
0.0
 10
0.1731653543307086
 20
0.265248031496063
 30
0.0
 10
0.1825826771653543
 20
0.2551811023622047
 30
0.0
 10
0.1911929133858268
 20
0.2493464566929134
 30
0.0
 10
0.1911929133858268
 20
0.2493464566929134
 30
0.0
 10
0.1911929133858268
 20
0.2493464566929134
 30
0.0
 10
0.2009448818897638
 20
0.2426377952755905
 30
0.0
 10
0.2009448818897638
 20
0.2426377952755905
 30
0.0
 10
0.2009448818897638
 20
0.2426377952755905
 30
0.0
 10
0.2212913385826772
 20
0.2301102362204724
 30
0.0
 10
0.2551811023622047
 20
0.2206259842519685
 30
0.0
 10
0.2784173228346457
 20
0.2275826771653543
 30
0.0
 10
0.2784173228346457
 20
0.2275826771653543
 30
0.0
 10
0.2926811023622047
 20
0.2292913385826772
 30
0.0
 10
0.3348740157480315
 20
0.2410984251968504
 30
0.0
 10
0.345015748031496
 20
0.2548897637795275
 30
0.0
 10
0.345015748031496
 20
0.2548897637795275
 30
0.0
 10
0.3782637795275591
 20
0.2714448818897638
 30
0.0
 10
0.4124448818897638
 20
0.3159015748031496
 30
0.0
 10
0.4295984251968504
 20
0.3496535433070866
 30
0.0
 10
0.4295984251968504
 20
0.3496535433070866
 30
0.0
 10
0.4360157480314961
 20
0.362248031496063
 30
0.0
 10
0.4401102362204725
 20
0.3710826771653543
 30
0.0
 10
0.4448897637795275
 20
0.3835826771653543
 30
0.0
 10
0.4448897637795275
 20
0.3835826771653543
 30
0.0
 10
0.4608346456692913
 20
0.4548464566929134
 30
0.0
 10
0.4649291338582677
 20
0.507248031496063
 30
0.0
 10
0.419515748031496
 20
0.5729173228346457
 30
0.0
 10
0.419515748031496
 20
0.5729173228346457
 30
0.0
 10
0.4172086614173228
 20
0.576248031496063
 30
0.0
 10
0.4148740157480315
 20
0.5799173228346457
 30
0.0
 10
0.4125275590551181
 20
0.5827204724409449
 30
0.0
 10
0.4125275590551181
 20
0.5827204724409449
 30
0.0
 10
0.3886653543307086
 20
0.6112637795275591
 30
0.0
 10
0.3414448818897638
 20
0.6543897637795275
 30
0.0
 10
0.3036535433070866
 20
0.6634448818897638
 30
0.0
 10
0.3036535433070866
 20
0.6634448818897638
 30
0.0
 10
0.0896653543307087
 20
0.7705708661417323
 30
0.0
 10
-0.0407204724409449
 20
0.4985393700787402
 30
0.0
 10
-0.0574448818897638
 20
0.3299173228346456
 30
0.0
 10
-0.0574448818897638
 20
0.3299173228346456
 30
0.0
 10
-0.0629173228346457
 20
0.2746535433070866
 30
0.0
 10
-0.0589173228346457
 20
0.1979291338582677
 30
0.0
 10
-0.0467913385826772
 20
0.1462913385826772
 30
0.0
 10
-0.0467913385826772
 20
0.1462913385826772
 30
0.0
 10
-0.0316535433070866
 20
0.0318740157480315
 30
0.0
 10
0.0285826771653543
 20
-0.0798346456692913
 30
0.0
 10
0.1078346456692913
 20
-0.1620984251968504
 30
0.0
  0
SPLINE
  5
7B
330
1F
100
AcDbEntity
  8
Layer 1
 62
     1
370
     9
100
AcDbSpline
210
0.0
220
0.0
230
1.0
 70
    11
 71
     3
 72
    96
 73
    92
 74
     0
 42
0.000000001
 43
0.0000000001
 40
0.0
 40
0.0
 40
0.0
 40
0.0
 40
0.0416666666666667
 40
0.0416666666666667
 40
0.0416666666666667
 40
0.0416666666666667
 40
0.0833333333333333
 40
0.0833333333333333
 40
0.0833333333333333
 40
0.0833333333333333
 40
0.125
 40
0.125
 40
0.125
 40
0.125
 40
0.1666666666666667
 40
0.1666666666666667
 40
0.1666666666666667
 40
0.1666666666666667
 40
0.2083333333333333
 40
0.2083333333333333
 40
0.2083333333333333
 40
0.2083333333333333
 40
0.25
 40
0.25
 40
0.25
 40
0.25
 40
0.2916666666666667
 40
0.2916666666666667
 40
0.2916666666666667
 40
0.2916666666666667
 40
0.3333333333333333
 40
0.3333333333333333
 40
0.3333333333333333
 40
0.3333333333333333
 40
0.375
 40
0.375
 40
0.375
 40
0.375
 40
0.4166666666666667
 40
0.4166666666666667
 40
0.4166666666666667
 40
0.4166666666666667
 40
0.4583333333333333
 40
0.4583333333333333
 40
0.4583333333333333
 40
0.4583333333333333
 40
0.5
 40
0.5
 40
0.5
 40
0.5
 40
0.5416666666666666
 40
0.5416666666666666
 40
0.5416666666666666
 40
0.5416666666666666
 40
0.5833333333333334
 40
0.5833333333333334
 40
0.5833333333333334
 40
0.5833333333333334
 40
0.625
 40
0.625
 40
0.625
 40
0.625
 40
0.6666666666666666
 40
0.6666666666666666
 40
0.6666666666666666
 40
0.6666666666666666
 40
0.7083333333333334
 40
0.7083333333333334
 40
0.7083333333333334
 40
0.7083333333333334
 40
0.75
 40
0.75
 40
0.75
 40
0.75
 40
0.7916666666666666
 40
0.7916666666666666
 40
0.7916666666666666
 40
0.7916666666666666
 40
0.8333333333333334
 40
0.8333333333333334
 40
0.8333333333333334
 40
0.8333333333333334
 40
0.875
 40
0.875
 40
0.875
 40
0.875
 40
0.9166666666666666
 40
0.9166666666666666
 40
0.9166666666666666
 40
0.9166666666666666
 40
1.0
 40
1.0
 40
1.0
 40
1.0
 10
-0.0144448818897638
 20
1.112555118110236
 30
0.0
 10
-0.0144448818897638
 20
1.112555118110236
 30
0.0
 10
-0.0218188976377953
 20
1.102681102362205
 30
0.0
 10
-0.0218188976377953
 20
1.102681102362205
 30
0.0
 10
-0.0218188976377953
 20
1.102681102362205
 30
0.0
 10
-0.115
 20
0.9768346456692913
 30
0.0
 10
-0.2158346456692913
 20
0.9256259842519685
 30
0.0
 10
-0.2900551181102362
 20
0.7793346456692913
 30
0.0
 10
-0.2900551181102362
 20
0.7793346456692913
 30
0.0
 10
-0.3063740157480315
 20
0.7471811023622047
 30
0.0
 10
-0.326
 20
0.7039566929133858
 30
0.0
 10
-0.3346102362204724
 20
0.666
 30
0.0
 10
-0.3346102362204724
 20
0.666
 30
0.0
 10
-0.3455275590551181
 20
0.6326377952755905
 30
0.0
 10
-0.3520708661417323
 20
0.5785275590551181
 30
0.0
 10
-0.3523740157480315
 20
0.5396377952755905
 30
0.0
 10
-0.3523740157480315
 20
0.5396377952755905
 30
0.0
 10
-0.3526653543307087
 20
0.5034842519685039
 30
0.0
 10
-0.3080157480314961
 20
0.3239015748031496
 30
0.0
 10
-0.286248031496063
 20
0.3054566929133858
 30
0.0
 10
-0.286248031496063
 20
0.3054566929133858
 30
0.0
 10
-0.286248031496063
 20
0.3054566929133858
 30
0.0
 10
-0.3037795275590551
 20
0.380511811023622
 30
0.0
 10
-0.3037795275590551
 20
0.380511811023622
 30
0.0
 10
-0.3037795275590551
 20
0.380511811023622
 30
0.0
 10
-0.3133070866141732
 20
0.4294291338582677
 30
0.0
 10
-0.3159291338582677
 20
0.4895826771653543
 30
0.0
 10
-0.3095
 20
0.5387913385826771
 30
0.0
 10
-0.3095
 20
0.5387913385826771
 30
0.0
 10
-0.3022204724409449
 20
0.5945393700787401
 30
0.0
 10
-0.287248031496063
 20
0.6405826771653543
 30
0.0
 10
-0.2631929133858268
 20
0.6891929133858268
 30
0.0
 10
-0.2631929133858268
 20
0.6891929133858268
 30
0.0
 10
-0.2515708661417323
 20
0.7126929133858267
 30
0.0
 10
-0.236484251968504
 20
0.7327204724409448
 30
0.0
 10
-0.2262086614173228
 20
0.7539291338582678
 30
0.0
 10
-0.2262086614173228
 20
0.7539291338582678
 30
0.0
 10
-0.2191102362204724
 20
0.7603464566929133
 30
0.0
 10
-0.2094173228346457
 20
0.7759724409448819
 30
0.0
 10
-0.2025708661417323
 20
0.7852086614173228
 30
0.0
 10
-0.2025708661417323
 20
0.7852086614173228
 30
0.0
 10
-0.1660984251968504
 20
0.8343740157480315
 30
0.0
 10
-0.1030275590551181
 20
0.8926653543307087
 30
0.0
 10
-0.0543740157480315
 20
0.9302086614173228
 30
0.0
 10
-0.0543740157480315
 20
0.9302086614173228
 30
0.0
 10
-0.0405826771653543
 20
0.9408622047244094
 30
0.0
 10
0.0052795275590551
 20
0.9699448818897638
 30
0.0
 10
0.0108188976377953
 20
0.9797755905511811
 30
0.0
 10
0.0108188976377953
 20
0.9797755905511811
 30
0.0
 10
0.0293622047244094
 20
0.986236220472441
 30
0.0
 10
0.0749291338582677
 20
1.028181102362205
 30
0.0
 10
0.0882795275590551
 20
1.040944881889764
 30
0.0
 10
0.0882795275590551
 20
1.040944881889764
 30
0.0
 10
0.1046377952755906
 20
1.05659842519685
 30
0.0
 10
0.1410984251968504
 20
1.097165354330709
 30
0.0
 10
0.1505
 20
1.122972440944882
 30
0.0
 10
0.1505
 20
1.122972440944882
 30
0.0
 10
0.1639291338582677
 20
1.129362204724409
 30
0.0
 10
0.1788622047244094
 20
1.185862204724409
 30
0.0
 10
0.1809015748031496
 20
1.209484251968504
 30
0.0
 10
0.1809015748031496
 20
1.209484251968504
 30
0.0
 10
0.1856377952755905
 20
1.264346456692913
 30
0.0
 10
0.1576102362204724
 20
1.366720472440945
 30
0.0
 10
0.1117086614173228
 20
1.400984251968504
 30
0.0
 10
0.1117086614173228
 20
1.400984251968504
 30
0.0
 10
0.1207204724409449
 20
1.296181102362205
 30
0.0
 10
0.0728070866141732
 20
1.231708661417323
 30
0.0
 10
0.0201259842519685
 20
1.155665354330709
 30
0.0
 10
0.0201259842519685
 20
1.155665354330709
 30
0.0
 10
0.0163188976377953
 20
1.150192913385827
 30
0.0
 10
0.0153740157480315
 20
1.148846456692913
 30
0.0
 10
0.0103897637795276
 20
1.142374015748032
 30
0.0
 10
0.0103897637795276
 20
1.142374015748032
 30
0.0
 10
0.0103897637795276
 20
1.142374015748032
 30
0.0
 10
-0.0013188976377953
 20
1.124748031496063
 30
0.0
 10
-0.0013188976377953
 20
1.124748031496063
 30
0.0
 10
-0.0013188976377953
 20
1.124748031496063
 30
0.0
 10
-0.0018740157480315
 20
1.124444881889764
 30
0.0
 10
-0.0026653543307087
 20
1.12440157480315
 30
0.0
 10
-0.0028464566929134
 20
1.123610236220473
 30
0.0
 10
-0.0028464566929134
 20
1.123610236220473
 30
0.0
 10
-0.0030275590551181
 20
1.122818897637795
 30
0.0
 10
-0.0041102362204724
 20
1.122637795275591
 30
0.0
 10
-0.0043622047244094
 20
1.122429133858268
 30
0.0
 10
-0.0043622047244094
 20
1.122429133858268
 30
0.0
 10
-0.0043622047244094
 20
1.122429133858268
 30
0.0
 10
-0.0073464566929134
 20
1.119748031496063
 30
0.0
 10
-0.0073464566929134
 20
1.119748031496063
 30
0.0
 10
-0.0073464566929134
 20
1.119748031496063
 30
0.0
 10
-0.0109566929133858
 20
1.116334645669291
 30
0.0
 10
-0.0094291338582677
 20
1.116834645669291
 30
0.0
 10
-0.0144448818897638
 20
1.112555118110236
 30
0.0
  0
SPLINE
  5
7C
330
1F
100
AcDbEntity
  8
Layer 1
 62
     1
370
     9
100
AcDbSpline
210
0.0
220
0.0
230
1.0
 70
    11
 71
     3
 72
    76
 73
    72
 74
     0
 42
0.000000001
 43
0.0000000001
 40
0.0
 40
0.0
 40
0.0
 40
0.0
 40
0.0526315789473684
 40
0.0526315789473684
 40
0.0526315789473684
 40
0.0526315789473684
 40
0.1052631578947368
 40
0.1052631578947368
 40
0.1052631578947368
 40
0.1052631578947368
 40
0.1578947368421053
 40
0.1578947368421053
 40
0.1578947368421053
 40
0.1578947368421053
 40
0.2105263157894737
 40
0.2105263157894737
 40
0.2105263157894737
 40
0.2105263157894737
 40
0.2631578947368421
 40
0.2631578947368421
 40
0.2631578947368421
 40
0.2631578947368421
 40
0.3157894736842105
 40
0.3157894736842105
 40
0.3157894736842105
 40
0.3157894736842105
 40
0.3684210526315789
 40
0.3684210526315789
 40
0.3684210526315789
 40
0.3684210526315789
 40
0.4210526315789473
 40
0.4210526315789473
 40
0.4210526315789473
 40
0.4210526315789473
 40
0.4736842105263158
 40
0.4736842105263158
 40
0.4736842105263158
 40
0.4736842105263158
 40
0.5263157894736842
 40
0.5263157894736842
 40
0.5263157894736842
 40
0.5263157894736842
 40
0.5789473684210527
 40
0.5789473684210527
 40
0.5789473684210527
 40
0.5789473684210527
 40
0.631578947368421
 40
0.631578947368421
 40
0.631578947368421
 40
0.631578947368421
 40
0.6842105263157895
 40
0.6842105263157895
 40
0.6842105263157895
 40
0.6842105263157895
 40
0.7368421052631579
 40
0.7368421052631579
 40
0.7368421052631579
 40
0.7368421052631579
 40
0.7894736842105263
 40
0.7894736842105263
 40
0.7894736842105263
 40
0.7894736842105263
 40
0.8421052631578947
 40
0.8421052631578947
 40
0.8421052631578947
 40
0.8421052631578947
 40
0.8947368421052632
 40
0.8947368421052632
 40
0.8947368421052632
 40
0.8947368421052632
 40
1.0
 40
1.0
 40
1.0
 40
1.0
 10
1.318681102362205
 20
2.006444881889764
 30
0.0
 10
1.318681102362205
 20
2.006444881889764
 30
0.0
 10
1.322889763779528
 20
2.004137795275591
 30
0.0
 10
1.322889763779528
 20
2.004137795275591
 30
0.0
 10
1.322889763779528
 20
2.004137795275591
 30
0.0
 10
1.323192913385827
 20
2.004192913385827
 30
0.0
 10
1.324637795275591
 20
2.004665354330708
 30
0.0
 10
1.324929133858268
 20
2.004763779527559
 30
0.0
 10
1.324929133858268
 20
2.004763779527559
 30
0.0
 10
1.325291338582677
 20
2.00486220472441
 30
0.0
 10
1.326236220472441
 20
2.005834645669291
 30
0.0
 10
1.326944881889764
 20
2.006307086614173
 30
0.0
 10
1.326944881889764
 20
2.006307086614173
 30
0.0
 10
1.326944881889764
 20
2.006307086614173
 30
0.0
 10
1.31940157480315
 20
2.010834645669291
 30
0.0
 10
1.31940157480315
 20
2.010834645669291
 30
0.0
 10
1.31940157480315
 20
2.010834645669291
 30
0.0
 10
1.302625984251969
 20
2.017181102362205
 30
0.0
 10
1.255055118110236
 20
2.044834645669291
 30
0.0
 10
1.213972440944882
 20
2.060889763779528
 30
0.0
 10
1.213972440944882
 20
2.060889763779528
 30
0.0
 10
1.076889763779528
 20
2.114456692913386
 30
0.0
 10
0.9595275590551181
 20
2.115389763779528
 30
0.0
 10
0.8409173228346457
 20
2.042889763779527
 30
0.0
 10
0.8409173228346457
 20
2.042889763779527
 30
0.0
 10
0.8409173228346457
 20
2.042889763779527
 30
0.0
 10
0.8402204724409449
 20
2.047153543307087
 30
0.0
 10
0.8402204724409449
 20
2.047153543307087
 30
0.0
 10
0.8402204724409449
 20
2.047153543307087
 30
0.0
 10
0.8496259842519686
 20
2.061874015748031
 30
0.0
 10
0.8795275590551181
 20
2.085472440944882
 30
0.0
 10
0.8715708661417323
 20
2.114681102362205
 30
0.0
 10
0.8715708661417323
 20
2.114681102362205
 30
0.0
 10
0.864236220472441
 20
2.14159842519685
 30
0.0
 10
0.8233740157480315
 20
2.146736220472441
 30
0.0
 10
0.8039724409448818
 20
2.128511811023622
 30
0.0
 10
0.8039724409448818
 20
2.128511811023622
 30
0.0
 10
0.7858188976377952
 20
2.111484251968504
 30
0.0
 10
0.7934842519685039
 20
2.068291338582677
 30
0.0
 10
0.7891811023622047
 20
2.040181102362205
 30
0.0
 10
0.7891811023622047
 20
2.040181102362205
 30
0.0
 10
0.7824173228346457
 20
1.99609842519685
 30
0.0
 10
0.7631535433070866
 20
1.980610236220472
 30
0.0
 10
0.7607362204724409
 20
1.96809842519685
 30
0.0
 10
0.7607362204724409
 20
1.96809842519685
 30
0.0
 10
0.8103740157480315
 20
2.00753937007874
 30
0.0
 10
0.9097204724409449
 20
2.01936220472441
 30
0.0
 10
0.9798188976377953
 20
1.989834645669291
 30
0.0
 10
0.9798188976377953
 20
1.989834645669291
 30
0.0
 10
1.056736220472441
 20
1.957417322834646
 30
0.0
 10
1.081192913385827
 20
1.918082677165354
 30
0.0
 10
1.121763779527559
 20
1.857318897637795
 30
0.0
 10
1.121763779527559
 20
1.857318897637795
 30
0.0
 10
1.127555118110236
 20
1.882181102362205
 30
0.0
 10
1.125818897637795
 20
1.910110236220472
 30
0.0
 10
1.120137795275591
 20
1.933511811023622
 30
0.0
 10
1.120137795275591
 20
1.933511811023622
 30
0.0
 10
1.112653543307087
 20
1.964417322834646
 30
0.0
 10
1.102279527559055
 20
1.973318897637795
 30
0.0
 10
1.09109842519685
 20
1.993220472440945
 30
0.0
 10
1.09109842519685
 20
1.993220472440945
 30
0.0
 10
1.09109842519685
 20
1.993220472440945
 30
0.0
 10
1.091751968503937
 20
1.996665354330709
 30
0.0
 10
1.091751968503937
 20
1.996665354330709
 30
0.0
 10
1.091751968503937
 20
1.996665354330709
 30
0.0
 10
1.134862204724409
 20
1.974374015748031
 30
0.0
 10
1.154456692913386
 20
1.961763779527559
 30
0.0
 10
1.199527559055118
 20
1.989748031496063
 30
0.0
 10
1.199527559055118
 20
1.989748031496063
 30
0.0
 10
1.237
 20
2.013027559055118
 30
0.0
 10
1.267543307086614
 20
2.01686220472441
 30
0.0
 10
1.318681102362205
 20
2.006444881889764
 30
0.0
  0
SPLINE
  5
7D
330
1F
100
AcDbEntity
  8
Layer 1
 62
     1
370
     9
100
AcDbSpline
210
0.0
220
0.0
230
1.0
 70
    11
 71
     3
 72
   108
 73
   104
 74
     0
 42
0.000000001
 43
0.0000000001
 40
0.0
 40
0.0
 40
0.0
 40
0.0
 40
0.037037037037037
 40
0.037037037037037
 40
0.037037037037037
 40
0.037037037037037
 40
0.0740740740740741
 40
0.0740740740740741
 40
0.0740740740740741
 40
0.0740740740740741
 40
0.1111111111111111
 40
0.1111111111111111
 40
0.1111111111111111
 40
0.1111111111111111
 40
0.1481481481481481
 40
0.1481481481481481
 40
0.1481481481481481
 40
0.1481481481481481
 40
0.1851851851851852
 40
0.1851851851851852
 40
0.1851851851851852
 40
0.1851851851851852
 40
0.2222222222222222
 40
0.2222222222222222
 40
0.2222222222222222
 40
0.2222222222222222
 40
0.2592592592592592
 40
0.2592592592592592
 40
0.2592592592592592
 40
0.2592592592592592
 40
0.2962962962962963
 40
0.2962962962962963
 40
0.2962962962962963
 40
0.2962962962962963
 40
0.3333333333333333
 40
0.3333333333333333
 40
0.3333333333333333
 40
0.3333333333333333
 40
0.3703703703703703
 40
0.3703703703703703
 40
0.3703703703703703
 40
0.3703703703703703
 40
0.4074074074074074
 40
0.4074074074074074
 40
0.4074074074074074
 40
0.4074074074074074
 40
0.4444444444444444
 40
0.4444444444444444
 40
0.4444444444444444
 40
0.4444444444444444
 40
0.4814814814814815
 40
0.4814814814814815
 40
0.4814814814814815
 40
0.4814814814814815
 40
0.5185185185185185
 40
0.5185185185185185
 40
0.5185185185185185
 40
0.5185185185185185
 40
0.5555555555555556
 40
0.5555555555555556
 40
0.5555555555555556
 40
0.5555555555555556
 40
0.5925925925925926
 40
0.5925925925925926
 40
0.5925925925925926
 40
0.5925925925925926
 40
0.6296296296296297
 40
0.6296296296296297
 40
0.6296296296296297
 40
0.6296296296296297
 40
0.6666666666666666
 40
0.6666666666666666
 40
0.6666666666666666
 40
0.6666666666666666
 40
0.7037037037037037
 40
0.7037037037037037
 40
0.7037037037037037
 40
0.7037037037037037
 40
0.7407407407407407
 40
0.7407407407407407
 40
0.7407407407407407
 40
0.7407407407407407
 40
0.7777777777777778
 40
0.7777777777777778
 40
0.7777777777777778
 40
0.7777777777777778
 40
0.8148148148148148
 40
0.8148148148148148
 40
0.8148148148148148
 40
0.8148148148148148
 40
0.8518518518518519
 40
0.8518518518518519
 40
0.8518518518518519
 40
0.8518518518518519
 40
0.8888888888888888
 40
0.8888888888888888
 40
0.8888888888888888
 40
0.8888888888888888
 40
0.9259259259259259
 40
0.9259259259259259
 40
0.9259259259259259
 40
0.9259259259259259
 40
1.0
 40
1.0
 40
1.0
 40
1.0
 10
1.267251968503937
 20
0.593236220472441
 30
0.0
 10
1.267251968503937
 20
0.593236220472441
 30
0.0
 10
1.268653543307087
 20
0.5891653543307087
 30
0.0
 10
1.268653543307087
 20
0.5891653543307087
 30
0.0
 10
1.268653543307087
 20
0.5891653543307087
 30
0.0
 10
1.253763779527559
 20
0.5542362204724409
 30
0.0
 10
1.187318897637795
 20
0.4736535433070866
 30
0.0
 10
1.159472440944882
 20
0.4464015748031496
 30
0.0
 10
1.159472440944882
 20
0.4464015748031496
 30
0.0
 10
1.127165354330709
 20
0.4147913385826771
 30
0.0
 10
1.092015748031496
 20
0.3867362204724409
 30
0.0
 10
1.050291338582677
 20
0.3656535433070866
 30
0.0
 10
1.050291338582677
 20
0.3656535433070866
 30
0.0
 10
1.033208661417323
 20
0.357
 30
0.0
 10
1.011236220472441
 20
0.3479842519685039
 30
0.0
 10
0.9903188976377952
 20
0.341984251968504
 30
0.0
 10
0.9903188976377952
 20
0.341984251968504
 30
0.0
 10
0.933984251968504
 20
0.3258070866141732
 30
0.0
 10
0.8981929133858267
 20
0.3304724409448819
 30
0.0
 10
0.8385826771653543
 20
0.3345
 30
0.0
 10
0.8385826771653543
 20
0.3345
 30
0.0
 10
0.8302086614173229
 20
0.3378464566929134
 30
0.0
 10
0.7859291338582677
 20
0.3463740157480315
 30
0.0
 10
0.7457204724409449
 20
0.3625275590551181
 30
0.0
 10
0.7457204724409449
 20
0.3625275590551181
 30
0.0
 10
0.7205433070866142
 20
0.3726377952755905
 30
0.0
 10
0.6834566929133858
 20
0.3957204724409449
 30
0.0
 10
0.6563070866141733
 20
0.3969566929133858
 30
0.0
 10
0.6563070866141733
 20
0.3969566929133858
 30
0.0
 10
0.6177204724409449
 20
0.3987086614173228
 30
0.0
 10
0.5916929133858267
 20
0.3769566929133858
 30
0.0
 10
0.5816811023622047
 20
0.3474724409448819
 30
0.0
 10
0.5816811023622047
 20
0.3474724409448819
 30
0.0
 10
0.5663346456692914
 20
0.3023070866141732
 30
0.0
 10
0.5922204724409449
 20
0.2798464566929134
 30
0.0
 10
0.6124173228346457
 20
0.2603897637795275
 30
0.0
 10
0.6124173228346457
 20
0.2603897637795275
 30
0.0
 10
0.6124173228346457
 20
0.2603897637795275
 30
0.0
 10
0.5680275590551181
 20
0.2604842519685039
 30
0.0
 10
0.5680275590551181
 20
0.2604842519685039
 30
0.0
 10
0.5680275590551181
 20
0.2604842519685039
 30
0.0
 10
0.5545708661417322
 20
0.2668622047244095
 30
0.0
 10
0.5355708661417323
 20
0.270248031496063
 30
0.0
 10
0.5204173228346457
 20
0.277263779527559
 30
0.0
 10
0.5204173228346457
 20
0.277263779527559
 30
0.0
 10
0.5031811023622047
 20
0.2852086614173228
 30
0.0
 10
0.4940275590551181
 20
0.2943346456692914
 30
0.0
 10
0.4807795275590551
 20
0.3015708661417323
 30
0.0
 10
0.4807795275590551
 20
0.3015708661417323
 30
0.0
 10
0.4801102362204724
 20
0.2739173228346456
 30
0.0
 10
0.4905984251968504
 20
0.2192204724409449
 30
0.0
 10
0.5134015748031496
 20
0.1986653543307087
 30
0.0
 10
0.5134015748031496
 20
0.1986653543307087
 30
0.0
 10
0.5154015748031496
 20
0.1925551181102362
 30
0.0
 10
0.5127362204724409
 20
0.1984173228346457
 30
0.0
 10
0.5160984251968503
 20
0.1925708661417323
 30
0.0
 10
0.5160984251968503
 20
0.1925708661417323
 30
0.0
 10
0.5363346456692913
 20
0.1574448818897638
 30
0.0
 10
0.5944448818897637
 20
0.1324015748031496
 30
0.0
 10
0.6322204724409449
 20
0.1250551181102362
 30
0.0
 10
0.6322204724409449
 20
0.1250551181102362
 30
0.0
 10
0.7369566929133858
 20
0.1046535433070866
 30
0.0
 10
0.8514724409448818
 20
0.1446259842519685
 30
0.0
 10
0.9392795275590551
 20
0.193248031496063
 30
0.0
 10
0.9392795275590551
 20
0.193248031496063
 30
0.0
 10
0.998236220472441
 20
0.2258897637795275
 30
0.0
 10
1.057807086614173
 20
0.2722086614173229
 30
0.0
 10
1.106027559055118
 20
0.3198897637795275
 30
0.0
 10
1.106027559055118
 20
0.3198897637795275
 30
0.0
 10
1.122346456692913
 20
0.3360393700787402
 30
0.0
 10
1.134779527559055
 20
0.350248031496063
 30
0.0
 10
1.152972440944882
 20
0.3696929133858268
 30
0.0
 10
1.152972440944882
 20
0.3696929133858268
 30
0.0
 10
1.192515748031496
 20
0.4119291338582677
 30
0.0
 10
1.234834645669291
 20
0.4747086614173228
 30
0.0
 10
1.265807086614173
 20
0.5267755905511811
 30
0.0
 10
1.265807086614173
 20
0.5267755905511811
 30
0.0
 10
1.30290157480315
 20
0.5891259842519685
 30
0.0
 10
1.373889763779528
 20
0.737484251968504
 30
0.0
 10
1.379570866141732
 20
0.796511811023622
 30
0.0
 10
1.379570866141732
 20
0.796511811023622
 30
0.0
 10
1.355334645669291
 20
0.7708346456692914
 30
0.0
 10
1.309665354330709
 20
0.6681102362204724
 30
0.0
 10
1.26709842519685
 20
0.6778070866141732
 30
0.0
 10
1.26709842519685
 20
0.6778070866141732
 30
0.0
 10
1.232015748031496
 20
0.6879015748031496
 30
0.0
 10
1.188720472440945
 20
0.6795275590551181
 30
0.0
 10
1.180279527559055
 20
0.6388188976377953
 30
0.0
 10
1.180279527559055
 20
0.6388188976377953
 30
0.0
 10
1.178043307086614
 20
0.6280275590551181
 30
0.0
 10
1.178192913385827
 20
0.618236220472441
 30
0.0
 10
1.181251968503937
 20
0.6076259842519685
 30
0.0
 10
1.181251968503937
 20
0.6076259842519685
 30
0.0
 10
1.182192913385827
 20
0.6043622047244095
 30
0.0
 10
1.184346456692913
 20
0.5999173228346457
 30
0.0
 10
1.186279527559055
 20
0.5960551181102363
 30
0.0
 10
1.186279527559055
 20
0.5960551181102363
 30
0.0
 10
1.201543307086614
 20
0.5637913385826772
 30
0.0
 10
1.244665354330709
 20
0.5691653543307087
 30
0.0
 10
1.266110236220472
 20
0.5934173228346457
 30
0.0
 10
1.266110236220472
 20
0.5934173228346457
 30
0.0
 10
1.266110236220472
 20
0.5934173228346457
 30
0.0
 10
1.267251968503937
 20
0.593236220472441
 30
0.0
 10
1.267251968503937
 20
0.593236220472441
 30
0.0
  0
SPLINE
  5
7E
330
1F
100
AcDbEntity
  8
Layer 1
 62
     1
370
     9
100
AcDbSpline
210
0.0
220
0.0
230
1.0
 70
    11
 71
     3
 72
    16
 73
    12
 74
     0
 42
0.000000001
 43
0.0000000001
 40
0.0
 40
0.0
 40
0.0
 40
0.0
 40
0.25
 40
0.25
 40
0.25
 40
0.25
 40
0.5
 40
0.5
 40
0.5
 40
0.5
 40
1.0
 40
1.0
 40
1.0
 40
1.0
 10
1.277736220472441
 20
1.108208661417323
 30
0.0
 10
1.268874015748032
 20
1.145291338582677
 30
0.0
 10
1.172653543307087
 20
1.215374015748031
 30
0.0
 10
1.129665354330709
 20
1.220610236220472
 30
0.0
 10
1.129665354330709
 20
1.220610236220472
 30
0.0
 10
1.075153543307087
 20
1.227236220472441
 30
0.0
 10
1.03159842519685
 20
1.176818897637795
 30
0.0
 10
1.121307086614173
 20
1.167444881889764
 30
0.0
 10
1.121307086614173
 20
1.167444881889764
 30
0.0
 10
1.197555118110236
 20
1.159456692913386
 30
0.0
 10
1.221763779527559
 20
1.124027559055118
 30
0.0
 10
1.277736220472441
 20
1.108208661417323
 30
0.0
  0
SPLINE
  5
7F
330
1F
100
AcDbEntity
  8
Layer 1
 62
     1
370
     9
100
AcDbSpline
210
0.0
220
0.0
230
1.0
 70
    11
 71
     3
 72
    44
 73
    40
 74
     0
 42
0.000000001
 43
0.0000000001
 40
0.0
 40
0.0
 40
0.0
 40
0.0
 40
0.0909090909090909
 40
0.0909090909090909
 40
0.0909090909090909
 40
0.0909090909090909
 40
0.1818181818181818
 40
0.1818181818181818
 40
0.1818181818181818
 40
0.1818181818181818
 40
0.2727272727272727
 40
0.2727272727272727
 40
0.2727272727272727
 40
0.2727272727272727
 40
0.3636363636363636
 40
0.3636363636363636
 40
0.3636363636363636
 40
0.3636363636363636
 40
0.4545454545454545
 40
0.4545454545454545
 40
0.4545454545454545
 40
0.4545454545454545
 40
0.5454545454545454
 40
0.5454545454545454
 40
0.5454545454545454
 40
0.5454545454545454
 40
0.6363636363636364
 40
0.6363636363636364
 40
0.6363636363636364
 40
0.6363636363636364
 40
0.7272727272727273
 40
0.7272727272727273
 40
0.7272727272727273
 40
0.7272727272727273
 40
0.8181818181818182
 40
0.8181818181818182
 40
0.8181818181818182
 40
0.8181818181818182
 40
1.0
 40
1.0
 40
1.0
 40
1.0
 10
-0.0774291338582677
 20
0.0360708661417323
 30
0.0
 10
-0.2285984251968504
 20
0.4462362204724409
 30
0.0
 10
-0.0930275590551181
 20
0.3089448818897638
 30
0.0
 10
-0.0958464566929134
 20
0.4374448818897638
 30
0.0
 10
-0.0958464566929134
 20
0.4374448818897638
 30
0.0
 10
-0.1132204724409449
 20
0.4388070866141732
 30
0.0
 10
-0.1272086614173228
 20
0.4409015748031496
 30
0.0
 10
-0.1399842519685039
 20
0.4496377952755906
 30
0.0
 10
-0.1399842519685039
 20
0.4496377952755906
 30
0.0
 10
-0.1300157480314961
 20
0.4628070866141732
 30
0.0
 10
-0.1205826771653543
 20
0.4695
 30
0.0
 10
-0.1089724409448819
 20
0.4882913385826771
 30
0.0
 10
-0.1089724409448819
 20
0.4882913385826771
 30
0.0
 10
-0.0985433070866142
 20
0.5051929133858267
 30
0.0
 10
-0.0914448818897638
 20
0.5217755905511811
 30
0.0
 10
-0.0883188976377953
 20
0.5440275590551181
 30
0.0
 10
-0.0883188976377953
 20
0.5440275590551181
 30
0.0
 10
-0.0777913385826772
 20
0.5759173228346457
 30
0.0
 10
-0.0936929133858268
 20
0.6429015748031496
 30
0.0
 10
-0.1227795275590551
 20
0.6492204724409448
 30
0.0
 10
-0.1227795275590551
 20
0.6492204724409448
 30
0.0
 10
-0.1385826771653543
 20
0.6626259842519685
 30
0.0
 10
-0.1662913385826772
 20
0.6541929133858267
 30
0.0
 10
-0.1828740157480315
 20
0.6455393700787402
 30
0.0
 10
-0.1828740157480315
 20
0.6455393700787402
 30
0.0
 10
-0.2371102362204724
 20
0.6172086614173228
 30
0.0
 10
-0.2543188976377952
 20
0.5403740157480315
 30
0.0
 10
-0.2571377952755906
 20
0.479736220472441
 30
0.0
 10
-0.2571377952755906
 20
0.479736220472441
 30
0.0
 10
-0.2641377952755906
 20
0.3288346456692913
 30
0.0
 10
-0.2065708661417323
 20
0.185763779527559
 30
0.0
 10
-0.1127795275590551
 20
0.0706102362204724
 30
0.0
 10
-0.1127795275590551
 20
0.0706102362204724
 30
0.0
 10
-0.1078897637795276
 20
0.0645984251968504
 30
0.0
 10
-0.1058188976377953
 20
0.0617637795275591
 30
0.0
 10
-0.1005433070866142
 20
0.0560708661417323
 30
0.0
 10
-0.1005433070866142
 20
0.0560708661417323
 30
0.0
 10
-0.0946653543307087
 20
0.0497086614173228
 30
0.0
 10
-0.0845984251968504
 20
0.0386929133858268
 30
0.0
 10
-0.0774291338582677
 20
0.0360708661417323
 30
0.0
  0
SPLINE
  5
80
330
1F
100
AcDbEntity
  8
Layer 1
 62
     1
370
     9
100
AcDbSpline
210
0.0
220
0.0
230
1.0
 70
    11
 71
     3
 72
    60
 73
    56
 74
     0
 42
0.000000001
 43
0.0000000001
 40
0.0
 40
0.0
 40
0.0
 40
0.0
 40
0.0666666666666667
 40
0.0666666666666667
 40
0.0666666666666667
 40
0.0666666666666667
 40
0.1333333333333333
 40
0.1333333333333333
 40
0.1333333333333333
 40
0.1333333333333333
 40
0.2
 40
0.2
 40
0.2
 40
0.2
 40
0.2666666666666667
 40
0.2666666666666667
 40
0.2666666666666667
 40
0.2666666666666667
 40
0.3333333333333333
 40
0.3333333333333333
 40
0.3333333333333333
 40
0.3333333333333333
 40
0.4
 40
0.4
 40
0.4
 40
0.4
 40
0.4666666666666667
 40
0.4666666666666667
 40
0.4666666666666667
 40
0.4666666666666667
 40
0.5333333333333333
 40
0.5333333333333333
 40
0.5333333333333333
 40
0.5333333333333333
 40
0.6
 40
0.6
 40
0.6
 40
0.6
 40
0.6666666666666666
 40
0.6666666666666666
 40
0.6666666666666666
 40
0.6666666666666666
 40
0.7333333333333333
 40
0.7333333333333333
 40
0.7333333333333333
 40
0.7333333333333333
 40
0.8
 40
0.8
 40
0.8
 40
0.8
 40
0.8666666666666667
 40
0.8666666666666667
 40
0.8666666666666667
 40
0.8666666666666667
 40
1.0
 40
1.0
 40
1.0
 40
1.0
 10
1.39009842519685
 20
0.6588188976377953
 30
0.0
 10
1.39009842519685
 20
0.6588188976377953
 30
0.0
 10
1.391582677165354
 20
0.6489724409448819
 30
0.0
 10
1.391582677165354
 20
0.6489724409448819
 30
0.0
 10
1.391582677165354
 20
0.6489724409448819
 30
0.0
 10
1.398307086614173
 20
0.6515984251968504
 30
0.0
 10
1.395515748031496
 20
0.6532637795275591
 30
0.0
 10
1.396374015748032
 20
0.6581102362204725
 30
0.0
 10
1.396374015748032
 20
0.6581102362204725
 30
0.0
 10
1.394236220472441
 20
0.6909724409448819
 30
0.0
 10
1.443692913385827
 20
0.7491377952755905
 30
0.0
 10
1.458555118110236
 20
0.7673188976377953
 30
0.0
 10
1.458555118110236
 20
0.7673188976377953
 30
0.0
 10
1.542015748031496
 20
0.8694448818897638
 30
0.0
 10
1.604874015748031
 20
0.9728622047244094
 30
0.0
 10
1.62963779527559
 20
1.116275590551181
 30
0.0
 10
1.62963779527559
 20
1.116275590551181
 30
0.0
 10
1.651417322834646
 20
1.242456692913386
 30
0.0
 10
1.637653543307087
 20
1.4725
 30
0.0
 10
1.47959842519685
 20
1.4735
 30
0.0
 10
1.47959842519685
 20
1.4735
 30
0.0
 10
1.345318897637795
 20
1.474334645669291
 30
0.0
 10
1.325472440944882
 20
1.248444881889764
 30
0.0
 10
1.439527559055118
 20
1.232
 30
0.0
 10
1.439527559055118
 20
1.232
 30
0.0
 10
1.454543307086614
 20
1.229834645669291
 30
0.0
 10
1.465251968503937
 20
1.230972440944882
 30
0.0
 10
1.480043307086614
 20
1.232736220472441
 30
0.0
 10
1.480043307086614
 20
1.232736220472441
 30
0.0
 10
1.470763779527559
 20
1.243011811023622
 30
0.0
 10
1.456692913385827
 20
1.246807086614173
 30
0.0
 10
1.455862204724409
 20
1.266389763779528
 30
0.0
 10
1.455862204724409
 20
1.266389763779528
 30
0.0
 10
1.455082677165354
 20
1.284625984251969
 30
0.0
 10
1.466153543307087
 20
1.296165354330709
 30
0.0
 10
1.48040157480315
 20
1.298736220472441
 30
0.0
 10
1.48040157480315
 20
1.298736220472441
 30
0.0
 10
1.570263779527559
 20
1.31490157480315
 30
0.0
 10
1.571846456692913
 20
1.103791338582677
 30
0.0
 10
1.451862204724409
 20
1.121625984251968
 30
0.0
 10
1.451862204724409
 20
1.121625984251968
 30
0.0
 10
1.45909842519685
 20
1.082956692913386
 30
0.0
 10
1.469956692913386
 20
1.089027559055118
 30
0.0
 10
1.505625984251969
 20
1.075720472440945
 30
0.0
 10
1.505625984251969
 20
1.075720472440945
 30
0.0
 10
1.542236220472441
 20
1.062070866141732
 30
0.0
 10
1.539791338582677
 20
1.012653543307087
 30
0.0
 10
1.523263779527559
 20
0.9825826771653543
 30
0.0
 10
1.523263779527559
 20
0.9825826771653543
 30
0.0
 10
1.511736220472441
 20
0.9616259842519685
 30
0.0
 10
1.504429133858268
 20
0.964511811023622
 30
0.0
 10
1.489236220472441
 20
0.9493346456692914
 30
0.0
 10
1.489236220472441
 20
0.9493346456692914
 30
0.0
 10
1.550681102362205
 20
0.9161929133858268
 30
0.0
 10
1.393653543307087
 20
0.8114448818897638
 30
0.0
 10
1.39009842519685
 20
0.6588188976377953
 30
0.0
  0
SPLINE
  5
81
330
1F
100
AcDbEntity
  8
Layer 1
 62
     1
370
     9
100
AcDbSpline
210
0.0
220
0.0
230
1.0
 70
    11
 71
     3
 72
    24
 73
    20
 74
     0
 42
0.000000001
 43
0.0000000001
 40
0.0
 40
0.0
 40
0.0
 40
0.0
 40
0.1666666666666667
 40
0.1666666666666667
 40
0.1666666666666667
 40
0.1666666666666667
 40
0.3333333333333333
 40
0.3333333333333333
 40
0.3333333333333333
 40
0.3333333333333333
 40
0.5
 40
0.5
 40
0.5
 40
0.5
 40
0.6666666666666666
 40
0.6666666666666666
 40
0.6666666666666666
 40
0.6666666666666666
 40
1.0
 40
1.0
 40
1.0
 40
1.0
 10
1.337984251968504
 20
1.20959842519685
 30
0.0
 10
1.307956692913386
 20
1.256110236220472
 30
0.0
 10
1.254720472440945
 20
1.23086220472441
 30
0.0
 10
1.250444881889764
 20
1.198763779527559
 30
0.0
 10
1.250444881889764
 20
1.198763779527559
 30
0.0
 10
1.245665354330709
 20
1.163011811023622
 30
0.0
 10
1.397972440944882
 20
1.073181102362205
 30
0.0
 10
1.438334645669291
 20
0.9637913385826772
 30
0.0
 10
1.438334645669291
 20
0.9637913385826772
 30
0.0
 10
1.460015748031496
 20
1.042165354330709
 30
0.0
 10
1.401555118110236
 20
1.063318897637795
 30
0.0
 10
1.409055118110236
 20
1.126389763779527
 30
0.0
 10
1.409055118110236
 20
1.126389763779527
 30
0.0
 10
1.412208661417323
 20
1.152929133858268
 30
0.0
 10
1.425665354330709
 20
1.190208661417323
 30
0.0
 10
1.41013779527559
 20
1.21359842519685
 30
0.0
 10
1.41013779527559
 20
1.21359842519685
 30
0.0
 10
1.383043307086614
 20
1.254362204724409
 30
0.0
 10
1.360291338582677
 20
1.209846456692913
 30
0.0
 10
1.337984251968504
 20
1.20959842519685
 30
0.0
  0
SPLINE
  5
82
330
1F
100
AcDbEntity
  8
Layer 1
 62
     1
370
     9
100
AcDbSpline
210
0.0
220
0.0
230
1.0
 70
    11
 71
     3
 72
    40
 73
    36
 74
     0
 42
0.000000001
 43
0.0000000001
 40
0.0
 40
0.0
 40
0.0
 40
0.0
 40
0.1
 40
0.1
 40
0.1
 40
0.1
 40
0.2
 40
0.2
 40
0.2
 40
0.2
 40
0.3
 40
0.3
 40
0.3
 40
0.3
 40
0.4
 40
0.4
 40
0.4
 40
0.4
 40
0.5
 40
0.5
 40
0.5
 40
0.5
 40
0.6
 40
0.6
 40
0.6
 40
0.6
 40
0.7
 40
0.7
 40
0.7
 40
0.7
 40
0.8
 40
0.8
 40
0.8
 40
0.8
 40
1.0
 40
1.0
 40
1.0
 40
1.0
 10
-0.5134842519685039
 20
0.1484724409448819
 30
0.0
 10
-0.5253188976377953
 20
0.1840275590551181
 30
0.0
 10
-0.5219566929133859
 20
0.1357755905511811
 30
0.0
 10
-0.4708740157480315
 20
0.0792086614173228
 30
0.0
 10
-0.4708740157480315
 20
0.0792086614173228
 30
0.0
 10
-0.3993897637795276
 20
0.0
 30
0.0
 10
-0.1836811023622047
 20
-0.0625708661417323
 30
0.0
 10
-0.1896535433070866
 20
-0.0711259842519685
 30
0.0
 10
-0.1896535433070866
 20
-0.0711259842519685
 30
0.0
 10
-0.2058188976377953
 20
-0.0943346456692913
 30
0.0
 10
-0.1869566929133858
 20
-0.1370708661417323
 30
0.0
 10
-0.1638622047244095
 20
-0.1537913385826772
 30
0.0
 10
-0.1638622047244095
 20
-0.1537913385826772
 30
0.0
 10
-0.1034173228346457
 20
-0.1976259842519685
 30
0.0
 10
0.0364015748031496
 20
-0.196751968503937
 30
0.0
 10
0.1110984251968504
 20
-0.2688188976377953
 30
0.0
 10
0.1110984251968504
 20
-0.2688188976377953
 30
0.0
 10
0.2020826771653543
 20
-0.3566535433070866
 30
0.0
 10
0.2196102362204724
 20
-0.6351653543307086
 30
0.0
 10
0.2099015748031496
 20
-0.4270433070866142
 30
0.0
 10
0.2099015748031496
 20
-0.4270433070866142
 30
0.0
 10
0.1897204724409449
 20
-0.3434724409448819
 30
0.0
 10
0.1469842519685039
 20
-0.2600984251968504
 30
0.0
 10
0.0926259842519685
 20
-0.1940708661417323
 30
0.0
 10
0.0926259842519685
 20
-0.1940708661417323
 30
0.0
 10
-0.0782913385826772
 20
0.0136377952755906
 30
0.0
 10
-0.1047637795275591
 20
-0.0221535433070866
 30
0.0
 10
-0.407515748031496
 20
0.0728188976377953
 30
0.0
 10
-0.407515748031496
 20
0.0728188976377953
 30
0.0
 10
-0.4395708661417323
 20
0.0828622047244094
 30
0.0
 10
-0.4700551181102362
 20
0.0993188976377953
 30
0.0
 10
-0.4942637795275591
 20
0.1224566929133858
 30
0.0
 10
-0.4942637795275591
 20
0.1224566929133858
 30
0.0
 10
-0.5024173228346457
 20
0.130263779527559
 30
0.0
 10
-0.5064291338582677
 20
0.1392637795275591
 30
0.0
 10
-0.5134842519685039
 20
0.1484724409448819
 30
0.0
  0
SPLINE
  5
83
330
1F
100
AcDbEntity
  8
Layer 1
 62
     1
370
     9
100
AcDbSpline
210
0.0
220
0.0
230
1.0
 70
    11
 71
     3
 72
    60
 73
    56
 74
     0
 42
0.000000001
 43
0.0000000001
 40
0.0
 40
0.0
 40
0.0
 40
0.0
 40
0.0666666666666667
 40
0.0666666666666667
 40
0.0666666666666667
 40
0.0666666666666667
 40
0.1333333333333333
 40
0.1333333333333333
 40
0.1333333333333333
 40
0.1333333333333333
 40
0.2
 40
0.2
 40
0.2
 40
0.2
 40
0.2666666666666667
 40
0.2666666666666667
 40
0.2666666666666667
 40
0.2666666666666667
 40
0.3333333333333333
 40
0.3333333333333333
 40
0.3333333333333333
 40
0.3333333333333333
 40
0.4
 40
0.4
 40
0.4
 40
0.4
 40
0.4666666666666667
 40
0.4666666666666667
 40
0.4666666666666667
 40
0.4666666666666667
 40
0.5333333333333333
 40
0.5333333333333333
 40
0.5333333333333333
 40
0.5333333333333333
 40
0.6
 40
0.6
 40
0.6
 40
0.6
 40
0.6666666666666666
 40
0.6666666666666666
 40
0.6666666666666666
 40
0.6666666666666666
 40
0.7333333333333333
 40
0.7333333333333333
 40
0.7333333333333333
 40
0.7333333333333333
 40
0.8
 40
0.8
 40
0.8
 40
0.8
 40
0.8666666666666667
 40
0.8666666666666667
 40
0.8666666666666667
 40
0.8666666666666667
 40
1.0
 40
1.0
 40
1.0
 40
1.0
 10
-0.1870984251968504
 20
0.9728464566929134
 30
0.0
 10
-0.1712204724409449
 20
0.9811811023622047
 30
0.0
 10
-0.1133188976377953
 20
1.058456692913386
 30
0.0
 10
-0.1020433070866142
 20
1.074736220472441
 30
0.0
 10
-0.1020433070866142
 20
1.074736220472441
 30
0.0
 10
-0.0863622047244094
 20
1.097374015748031
 30
0.0
 10
-0.0511811023622047
 20
1.149165354330709
 30
0.0
 10
-0.0424448818897638
 20
1.177748031496063
 30
0.0
 10
-0.0424448818897638
 20
1.177748031496063
 30
0.0
 10
-0.0396377952755906
 20
1.180472440944882
 30
0.0
 10
-0.0341929133858268
 20
1.187374015748031
 30
0.0
 10
-0.0338740157480315
 20
1.197862204724409
 30
0.0
 10
-0.0338740157480315
 20
1.197862204724409
 30
0.0
 10
-0.0338740157480315
 20
1.197862204724409
 30
0.0
 10
-0.0244173228346457
 20
1.213917322834646
 30
0.0
 10
-0.0244173228346457
 20
1.213917322834646
 30
0.0
 10
-0.0244173228346457
 20
1.213917322834646
 30
0.0
 10
-0.0215984251968504
 20
1.220192913385827
 30
0.0
 10
-0.0199566929133858
 20
1.224263779527559
 30
0.0
 10
-0.0175826771653543
 20
1.230374015748031
 30
0.0
 10
-0.0175826771653543
 20
1.230374015748031
 30
0.0
 10
0.0189291338582677
 20
1.32409842519685
 30
0.0
 10
0.0318897637795276
 20
1.405444881889764
 30
0.0
 10
0.0380275590551181
 20
1.508748031496063
 30
0.0
 10
0.0380275590551181
 20
1.508748031496063
 30
0.0
 10
0.1881535433070866
 20
1.45263779527559
 30
0.0
 10
0.2098070866141732
 20
1.646720472440945
 30
0.0
 10
0.1089724409448819
 20
1.682582677165354
 30
0.0
 10
0.1089724409448819
 20
1.682582677165354
 30
0.0
 10
0.117
 20
1.712307086614173
 30
0.0
 10
0.1388740157480315
 20
1.73403937007874
 30
0.0
 10
0.1119724409448819
 20
1.802125984251969
 30
0.0
 10
0.1119724409448819
 20
1.802125984251969
 30
0.0
 10
0.0961535433070866
 20
1.778307086614173
 30
0.0
 10
0.0933622047244095
 20
1.766374015748031
 30
0.0
 10
0.0725157480314961
 20
1.750165354330709
 30
0.0
 10
0.0725157480314961
 20
1.750165354330709
 30
0.0
 10
0.0531259842519685
 20
1.735070866141732
 30
0.0
 10
0.0367086614173228
 20
1.72859842519685
 30
0.0
 10
0.012751968503937
 20
1.71659842519685
 30
0.0
 10
0.012751968503937
 20
1.71659842519685
 30
0.0
 10
-0.0298070866141732
 20
1.695275590551181
 30
0.0
 10
-0.0482795275590551
 20
1.656736220472441
 30
0.0
 10
-0.0629015748031496
 20
1.599917322834646
 30
0.0
 10
-0.0629015748031496
 20
1.599917322834646
 30
0.0
 10
-0.0740275590551181
 20
1.498055118110236
 30
0.0
 10
-0.0574015748031496
 20
1.455972440944882
 30
0.0
 10
-0.0303622047244094
 20
1.372972440944882
 30
0.0
 10
-0.0303622047244094
 20
1.372972440944882
 30
0.0
 10
-0.0252795275590551
 20
1.289637795275591
 30
0.0
 10
-0.0504724409448819
 20
1.22063779527559
 30
0.0
 10
-0.0823188976377953
 20
1.15813779527559
 30
0.0
 10
-0.0823188976377953
 20
1.15813779527559
 30
0.0
 10
-0.1036811023622047
 20
1.116236220472441
 30
0.0
 10
-0.1799724409448819
 20
1.000444881889764
 30
0.0
 10
-0.1870984251968504
 20
0.9728464566929134
 30
0.0
  0
SPLINE
  5
84
330
1F
100
AcDbEntity
  8
Layer 1
 62
     1
370
     9
100
AcDbSpline
210
0.0
220
0.0
230
1.0
 70
    11
 71
     3
 72
    48
 73
    44
 74
     0
 42
0.000000001
 43
0.0000000001
 40
0.0
 40
0.0
 40
0.0
 40
0.0
 40
0.0833333333333333
 40
0.0833333333333333
 40
0.0833333333333333
 40
0.0833333333333333
 40
0.1666666666666667
 40
0.1666666666666667
 40
0.1666666666666667
 40
0.1666666666666667
 40
0.25
 40
0.25
 40
0.25
 40
0.25
 40
0.3333333333333333
 40
0.3333333333333333
 40
0.3333333333333333
 40
0.3333333333333333
 40
0.4166666666666667
 40
0.4166666666666667
 40
0.4166666666666667
 40
0.4166666666666667
 40
0.5
 40
0.5
 40
0.5
 40
0.5
 40
0.5833333333333334
 40
0.5833333333333334
 40
0.5833333333333334
 40
0.5833333333333334
 40
0.6666666666666666
 40
0.6666666666666666
 40
0.6666666666666666
 40
0.6666666666666666
 40
0.75
 40
0.75
 40
0.75
 40
0.75
 40
0.8333333333333334
 40
0.8333333333333334
 40
0.8333333333333334
 40
0.8333333333333334
 40
1.0
 40
1.0
 40
1.0
 40
1.0
 10
0.2964566929133858
 20
1.749692913385827
 30
0.0
 10
0.3301259842519685
 20
1.777846456692913
 30
0.0
 10
0.3250551181102362
 20
1.793984251968504
 30
0.0
 10
0.3780433070866142
 20
1.814389763779528
 30
0.0
 10
0.3780433070866142
 20
1.814389763779528
 30
0.0
 10
0.3963897637795276
 20
1.821456692913386
 30
0.0
 10
0.4152204724409449
 20
1.82559842519685
 30
0.0
 10
0.4361377952755905
 20
1.826444881889764
 30
0.0
 10
0.4361377952755905
 20
1.826444881889764
 30
0.0
 10
0.471751968503937
 20
1.827874015748032
 30
0.0
 10
0.5458070866141732
 20
1.82003937007874
 30
0.0
 10
0.5715
 20
1.827874015748032
 30
0.0
 10
0.5715
 20
1.827874015748032
 30
0.0
 10
0.6234173228346457
 20
1.832456692913386
 30
0.0
 10
0.667515748031496
 20
1.852555118110236
 30
0.0
 10
0.6964448818897638
 20
1.87940157480315
 30
0.0
 10
0.6964448818897638
 20
1.87940157480315
 30
0.0
 10
0.7093740157480315
 20
1.891417322834646
 30
0.0
 10
0.7262795275590551
 20
1.906763779527559
 30
0.0
 10
0.7315826771653543
 20
1.930956692913386
 30
0.0
 10
0.7315826771653543
 20
1.930956692913386
 30
0.0
 10
0.738015748031496
 20
1.960318897637795
 30
0.0
 10
0.7244015748031496
 20
1.979374015748032
 30
0.0
 10
0.706015748031496
 20
1.98863779527559
 30
0.0
 10
0.706015748031496
 20
1.98863779527559
 30
0.0
 10
0.706015748031496
 20
1.98863779527559
 30
0.0
 10
0.7234291338582677
 20
1.999153543307087
 30
0.0
 10
0.7234291338582677
 20
1.999153543307087
 30
0.0
 10
0.7234291338582677
 20
1.999153543307087
 30
0.0
 10
0.7417086614173228
 20
2.009181102362205
 30
0.0
 10
0.7543897637795276
 20
2.026
 30
0.0
 10
0.7539566929133859
 20
2.049665354330709
 30
0.0
 10
0.7539566929133859
 20
2.049665354330709
 30
0.0
 10
0.7521811023622047
 20
2.145834645669291
 30
0.0
 10
0.5748740157480315
 20
2.037248031496063
 30
0.0
 10
0.544515748031496
 20
2.018192913385827
 30
0.0
 10
0.544515748031496
 20
2.018192913385827
 30
0.0
 10
0.4972362204724409
 20
1.988511811023622
 30
0.0
 10
0.4588740157480315
 20
1.957818897637795
 30
0.0
 10
0.4246102362204724
 20
1.924625984251968
 30
0.0
 10
0.4246102362204724
 20
1.924625984251968
 30
0.0
 10
0.3786653543307086
 20
1.880137795275591
 30
0.0
 10
0.3275826771653543
 20
1.809889763779527
 30
0.0
 10
0.2964566929133858
 20
1.749692913385827
 30
0.0
  0
SPLINE
  5
85
330
1F
100
AcDbEntity
  8
Layer 1
 62
     1
370
     9
100
AcDbSpline
210
0.0
220
0.0
230
1.0
 70
    11
 71
     3
 72
    60
 73
    56
 74
     0
 42
0.000000001
 43
0.0000000001
 40
0.0
 40
0.0
 40
0.0
 40
0.0
 40
0.0666666666666667
 40
0.0666666666666667
 40
0.0666666666666667
 40
0.0666666666666667
 40
0.1333333333333333
 40
0.1333333333333333
 40
0.1333333333333333
 40
0.1333333333333333
 40
0.2
 40
0.2
 40
0.2
 40
0.2
 40
0.2666666666666667
 40
0.2666666666666667
 40
0.2666666666666667
 40
0.2666666666666667
 40
0.3333333333333333
 40
0.3333333333333333
 40
0.3333333333333333
 40
0.3333333333333333
 40
0.4
 40
0.4
 40
0.4
 40
0.4
 40
0.4666666666666667
 40
0.4666666666666667
 40
0.4666666666666667
 40
0.4666666666666667
 40
0.5333333333333333
 40
0.5333333333333333
 40
0.5333333333333333
 40
0.5333333333333333
 40
0.6
 40
0.6
 40
0.6
 40
0.6
 40
0.6666666666666666
 40
0.6666666666666666
 40
0.6666666666666666
 40
0.6666666666666666
 40
0.7333333333333333
 40
0.7333333333333333
 40
0.7333333333333333
 40
0.7333333333333333
 40
0.8
 40
0.8
 40
0.8
 40
0.8
 40
0.8666666666666667
 40
0.8666666666666667
 40
0.8666666666666667
 40
0.8666666666666667
 40
1.0
 40
1.0
 40
1.0
 40
1.0
 10
-0.5620551181102362
 20
0.3263346456692913
 30
0.0
 10
-0.5929448818897638
 20
0.3688188976377953
 30
0.0
 10
-0.6244173228346457
 20
0.4089291338582677
 30
0.0
 10
-0.6460433070866142
 20
0.4572204724409449
 30
0.0
 10
-0.6460433070866142
 20
0.4572204724409449
 30
0.0
 10
-0.653
 20
0.472763779527559
 30
0.0
 10
-0.6596929133858268
 20
0.4910551181102362
 30
0.0
 10
-0.6646929133858268
 20
0.5088622047244095
 30
0.0
 10
-0.6646929133858268
 20
0.5088622047244095
 30
0.0
 10
-0.7071653543307087
 20
0.6601377952755906
 30
0.0
 10
-0.6611535433070866
 20
0.665
 30
0.0
 10
-0.6464566929133858
 20
0.7861929133858268
 30
0.0
 10
-0.6464566929133858
 20
0.7861929133858268
 30
0.0
 10
-0.6291653543307086
 20
0.928748031496063
 30
0.0
 10
-0.7893070866141733
 20
0.9960826771653544
 30
0.0
 10
-0.8437362204724409
 20
0.8725551181102362
 30
0.0
 10
-0.8437362204724409
 20
0.8725551181102362
 30
0.0
 10
-0.8446259842519686
 20
0.9185
 30
0.0
 10
-0.8586929133858268
 20
0.9392204724409449
 30
0.0
 10
-0.9238622047244095
 20
0.9343070866141733
 30
0.0
 10
-0.9238622047244095
 20
0.9343070866141733
 30
0.0
 10
-0.9835551181102362
 20
0.9297913385826772
 30
0.0
 10
-0.9907795275590551
 20
0.8900393700787401
 30
0.0
 10
-0.9782086614173229
 20
0.8545551181102362
 30
0.0
 10
-0.9782086614173229
 20
0.8545551181102362
 30
0.0
 10
-1.009736220472441
 20
0.9076811023622047
 30
0.0
 10
-1.095779527559055
 20
0.9557755905511811
 30
0.0
 10
-1.156248031496063
 20
0.948263779527559
 30
0.0
 10
-1.156248031496063
 20
0.948263779527559
 30
0.0
 10
-1.156248031496063
 20
0.948263779527559
 30
0.0
 10
-1.170110236220472
 20
0.9429842519685039
 30
0.0
 10
-1.170110236220472
 20
0.9429842519685039
 30
0.0
 10
-1.170110236220472
 20
0.9429842519685039
 30
0.0
 10
-1.063015748031496
 20
0.8960275590551181
 30
0.0
 10
-0.9795157480314961
 20
0.7025551181102362
 30
0.0
 10
-0.9179724409448818
 20
0.5922913385826771
 30
0.0
 10
-0.9179724409448818
 20
0.5922913385826771
 30
0.0
 10
-0.815263779527559
 20
0.4083346456692913
 30
0.0
 10
-0.6339173228346456
 20
0.2874842519685039
 30
0.0
 10
-0.4523070866141732
 20
0.1909448818897638
 30
0.0
 10
-0.4523070866141732
 20
0.1909448818897638
 30
0.0
 10
-0.3775551181102362
 20
0.1512204724409449
 30
0.0
 10
-0.3109448818897638
 20
0.1201259842519685
 30
0.0
 10
-0.2343622047244094
 20
0.085511811023622
 30
0.0
 10
-0.2343622047244094
 20
0.085511811023622
 30
0.0
 10
-0.2614291338582677
 20
0.1092913385826772
 30
0.0
 10
-0.3152086614173228
 20
0.1349724409448819
 30
0.0
 10
-0.3497204724409449
 20
0.1570708661417323
 30
0.0
 10
-0.3497204724409449
 20
0.1570708661417323
 30
0.0
 10
-0.3914842519685039
 20
0.1838070866141732
 30
0.0
 10
-0.4120984251968504
 20
0.1972755905511811
 30
0.0
 10
-0.4480157480314961
 20
0.2254173228346457
 30
0.0
 10
-0.4480157480314961
 20
0.2254173228346457
 30
0.0
 10
-0.4841653543307087
 20
0.2529448818897638
 30
0.0
 10
-0.5309724409448819
 20
0.2947204724409449
 30
0.0
 10
-0.5620551181102362
 20
0.3263346456692913
 30
0.0
  0
SPLINE
  5
86
330
1F
100
AcDbEntity
  8
Layer 1
 62
     1
370
     9
100
AcDbSpline
210
0.0
220
0.0
230
1.0
 70
    11
 71
     3
 72
    28
 73
    24
 74
     0
 42
0.000000001
 43
0.0000000001
 40
0.0
 40
0.0
 40
0.0
 40
0.0
 40
0.1428571428571428
 40
0.1428571428571428
 40
0.1428571428571428
 40
0.1428571428571428
 40
0.2857142857142857
 40
0.2857142857142857
 40
0.2857142857142857
 40
0.2857142857142857
 40
0.4285714285714285
 40
0.4285714285714285
 40
0.4285714285714285
 40
0.4285714285714285
 40
0.5714285714285714
 40
0.5714285714285714
 40
0.5714285714285714
 40
0.5714285714285714
 40
0.7142857142857143
 40
0.7142857142857143
 40
0.7142857142857143
 40
0.7142857142857143
 40
1.0
 40
1.0
 40
1.0
 40
1.0
 10
-0.3745275590551181
 20
1.278874015748031
 30
0.0
 10
-0.4781259842519685
 20
1.512346456692913
 30
0.0
 10
-0.6999291338582677
 20
1.16813779527559
 30
0.0
 10
-0.5405
 20
1.175807086614173
 30
0.0
 10
-0.5405
 20
1.175807086614173
 30
0.0
 10
-0.5197086614173229
 20
1.176807086614173
 30
0.0
 10
-0.5045551181102362
 20
1.189570866141732
 30
0.0
 10
-0.5033464566929133
 20
1.209736220472441
 30
0.0
 10
-0.5033464566929133
 20
1.209736220472441
 30
0.0
 10
-0.5018188976377953
 20
1.235125984251968
 30
0.0
 10
-0.5192913385826772
 20
1.235818897637795
 30
0.0
 10
-0.5168897637795276
 20
1.272972440944882
 30
0.0
 10
-0.5168897637795276
 20
1.272972440944882
 30
0.0
 10
-0.5134566929133858
 20
1.277818897637795
 30
0.0
 10
-0.5120708661417323
 20
1.282
 30
0.0
 10
-0.5081653543307086
 20
1.28753937007874
 30
0.0
 10
-0.5081653543307086
 20
1.28753937007874
 30
0.0
 10
-0.5077204724409449
 20
1.288165354330709
 30
0.0
 10
-0.5025433070866142
 20
1.294236220472441
 30
0.0
 10
-0.5020826771653544
 20
1.294637795275591
 30
0.0
 10
-0.5020826771653544
 20
1.294637795275591
 30
0.0
 10
-0.4578346456692913
 20
1.332834645669291
 30
0.0
 10
-0.4092913385826772
 20
1.312862204724409
 30
0.0
 10
-0.3745275590551181
 20
1.278874015748031
 30
0.0
  0
SPLINE
  5
87
330
1F
100
AcDbEntity
  8
Layer 1
 62
     1
370
     9
100
AcDbSpline
210
0.0
220
0.0
230
1.0
 70
    11
 71
     3
 72
    40
 73
    36
 74
     0
 42
0.000000001
 43
0.0000000001
 40
0.0
 40
0.0
 40
0.0
 40
0.0
 40
0.1
 40
0.1
 40
0.1
 40
0.1
 40
0.2
 40
0.2
 40
0.2
 40
0.2
 40
0.3
 40
0.3
 40
0.3
 40
0.3
 40
0.4
 40
0.4
 40
0.4
 40
0.4
 40
0.5
 40
0.5
 40
0.5
 40
0.5
 40
0.6
 40
0.6
 40
0.6
 40
0.6
 40
0.7
 40
0.7
 40
0.7
 40
0.7
 40
0.8
 40
0.8
 40
0.8
 40
0.8
 40
1.0
 40
1.0
 40
1.0
 40
1.0
 10
-0.4428740157480315
 20
1.780125984251969
 30
0.0
 10
-0.4428740157480315
 20
1.780125984251969
 30
0.0
 10
-0.523763779527559
 20
1.779874015748032
 30
0.0
 10
-0.523763779527559
 20
1.779874015748032
 30
0.0
 10
-0.523763779527559
 20
1.779874015748032
 30
0.0
 10
-0.623515748031496
 20
1.772125984251969
 30
0.0
 10
-0.6756259842519685
 20
1.737736220472441
 30
0.0
 10
-0.7452795275590551
 20
1.66703937007874
 30
0.0
 10
-0.7452795275590551
 20
1.66703937007874
 30
0.0
 10
-0.7063070866141732
 20
1.693862204724409
 30
0.0
 10
-0.6865826771653544
 20
1.707681102362205
 30
0.0
 10
-0.6412913385826772
 20
1.723763779527559
 30
0.0
 10
-0.6412913385826772
 20
1.723763779527559
 30
0.0
 10
-0.5628346456692913
 20
1.751665354330709
 30
0.0
 10
-0.4841653543307087
 20
1.748055118110236
 30
0.0
 10
-0.4021811023622047
 20
1.734208661417323
 30
0.0
 10
-0.4021811023622047
 20
1.734208661417323
 30
0.0
 10
-0.3097795275590551
 20
1.71053937007874
 30
0.0
 10
-0.1793897637795276
 20
1.659374015748031
 30
0.0
 10
-0.0854842519685039
 20
1.674637795275591
 30
0.0
 10
-0.0854842519685039
 20
1.674637795275591
 30
0.0
 10
0.0021259842519685
 20
1.68890157480315
 30
0.0
 10
0.0454566929133858
 20
1.772456692913386
 30
0.0
 10
0.0296259842519685
 20
1.842555118110236
 30
0.0
 10
0.0296259842519685
 20
1.842555118110236
 30
0.0
 10
0.0129015748031496
 20
1.916653543307087
 30
0.0
 10
-0.1141259842519685
 20
1.908307086614173
 30
0.0
 10
-0.1471653543307087
 20
1.842818897637795
 30
0.0
 10
-0.1471653543307087
 20
1.842818897637795
 30
0.0
 10
-0.1643740157480315
 20
1.808708661417323
 30
0.0
 10
-0.1461259842519685
 20
1.791220472440945
 30
0.0
 10
-0.1415551181102362
 20
1.766307086614173
 30
0.0
 10
-0.1415551181102362
 20
1.766307086614173
 30
0.0
 10
-0.2450275590551181
 20
1.706192913385827
 30
0.0
 10
-0.3518070866141732
 20
1.779444881889764
 30
0.0
 10
-0.4428740157480315
 20
1.780125984251969
 30
0.0
  0
SPLINE
  5
88
330
1F
100
AcDbEntity
  8
Layer 1
 62
     1
370
     9
100
AcDbSpline
210
0.0
220
0.0
230
1.0
 70
    11
 71
     3
 72
    28
 73
    24
 74
     0
 42
0.000000001
 43
0.0000000001
 40
0.0
 40
0.0
 40
0.0
 40
0.0
 40
0.1428571428571428
 40
0.1428571428571428
 40
0.1428571428571428
 40
0.1428571428571428
 40
0.2857142857142857
 40
0.2857142857142857
 40
0.2857142857142857
 40
0.2857142857142857
 40
0.4285714285714285
 40
0.4285714285714285
 40
0.4285714285714285
 40
0.4285714285714285
 40
0.5714285714285714
 40
0.5714285714285714
 40
0.5714285714285714
 40
0.5714285714285714
 40
0.7142857142857143
 40
0.7142857142857143
 40
0.7142857142857143
 40
0.7142857142857143
 40
1.0
 40
1.0
 40
1.0
 40
1.0
 10
0.7461259842519685
 20
1.379555118110236
 30
0.0
 10
0.7762362204724409
 20
1.395137795275591
 30
0.0
 10
0.7844724409448819
 20
1.460692913385827
 30
0.0
 10
0.7779015748031496
 20
1.490972440944882
 30
0.0
 10
0.7779015748031496
 20
1.490972440944882
 30
0.0
 10
0.7708464566929134
 20
1.523484251968504
 30
0.0
 10
0.7546811023622048
 20
1.552011811023622
 30
0.0
 10
0.7391102362204724
 20
1.575763779527559
 30
0.0
 10
0.7391102362204724
 20
1.575763779527559
 30
0.0
 10
0.6834015748031496
 20
1.660708661417323
 30
0.0
 10
0.654736220472441
 20
1.672929133858268
 30
0.0
 10
0.6885157480314961
 20
1.787374015748032
 30
0.0
 10
0.6885157480314961
 20
1.787374015748032
 30
0.0
 10
0.6278622047244095
 20
1.767456692913386
 30
0.0
 10
0.6345275590551182
 20
1.704236220472441
 30
0.0
 10
0.6396102362204724
 20
1.652972440944882
 30
0.0
 10
0.6396102362204724
 20
1.652972440944882
 30
0.0
 10
0.6292637795275591
 20
1.646692913385827
 30
0.0
 10
0.582236220472441
 20
1.63603937007874
 30
0.0
 10
0.600263779527559
 20
1.590275590551181
 30
0.0
 10
0.600263779527559
 20
1.590275590551181
 30
0.0
 10
0.6213070866141732
 20
1.53690157480315
 30
0.0
 10
0.724015748031496
 20
1.529665354330709
 30
0.0
 10
0.7461259842519685
 20
1.379555118110236
 30
0.0
  0
SPLINE
  5
89
330
1F
100
AcDbEntity
  8
Layer 1
 62
     1
370
     9
100
AcDbSpline
210
0.0
220
0.0
230
1.0
 70
    11
 71
     3
 72
    68
 73
    64
 74
     0
 42
0.000000001
 43
0.0000000001
 40
0.0
 40
0.0
 40
0.0
 40
0.0
 40
0.0588235294117647
 40
0.0588235294117647
 40
0.0588235294117647
 40
0.0588235294117647
 40
0.1176470588235294
 40
0.1176470588235294
 40
0.1176470588235294
 40
0.1176470588235294
 40
0.1764705882352941
 40
0.1764705882352941
 40
0.1764705882352941
 40
0.1764705882352941
 40
0.2352941176470588
 40
0.2352941176470588
 40
0.2352941176470588
 40
0.2352941176470588
 40
0.2941176470588235
 40
0.2941176470588235
 40
0.2941176470588235
 40
0.2941176470588235
 40
0.3529411764705883
 40
0.3529411764705883
 40
0.3529411764705883
 40
0.3529411764705883
 40
0.4117647058823529
 40
0.4117647058823529
 40
0.4117647058823529
 40
0.4117647058823529
 40
0.4705882352941176
 40
0.4705882352941176
 40
0.4705882352941176
 40
0.4705882352941176
 40
0.5294117647058824
 40
0.5294117647058824
 40
0.5294117647058824
 40
0.5294117647058824
 40
0.5882352941176471
 40
0.5882352941176471
 40
0.5882352941176471
 40
0.5882352941176471
 40
0.6470588235294118
 40
0.6470588235294118
 40
0.6470588235294118
 40
0.6470588235294118
 40
0.7058823529411765
 40
0.7058823529411765
 40
0.7058823529411765
 40
0.7058823529411765
 40
0.7647058823529411
 40
0.7647058823529411
 40
0.7647058823529411
 40
0.7647058823529411
 40
0.8235294117647058
 40
0.8235294117647058
 40
0.8235294117647058
 40
0.8235294117647058
 40
0.8823529411764706
 40
0.8823529411764706
 40
0.8823529411764706
 40
0.8823529411764706
 40
1.0
 40
1.0
 40
1.0
 40
1.0
 10
0.5254724409448819
 20
1.08709842519685
 30
0.0
 10
0.4990551181102362
 20
1.060417322834646
 30
0.0
 10
0.4580157480314961
 20
1.035220472440945
 30
0.0
 10
0.4263622047244094
 20
1.012862204724409
 30
0.0
 10
0.4263622047244094
 20
1.012862204724409
 30
0.0
 10
0.416251968503937
 20
1.005736220472441
 30
0.0
 10
0.4095984251968504
 20
1.003318897637795
 30
0.0
 10
0.4023740157480315
 20
0.9964015748031496
 30
0.0
 10
0.4023740157480315
 20
0.9964015748031496
 30
0.0
 10
0.4276377952755905
 20
1.005511811023622
 30
0.0
 10
0.5282913385826772
 20
1.047192913385827
 30
0.0
 10
0.5478464566929134
 20
1.047889763779527
 30
0.0
 10
0.5478464566929134
 20
1.047889763779527
 30
0.0
 10
0.5548070866141732
 20
1.056429133858268
 30
0.0
 10
0.5615275590551181
 20
1.056153543307087
 30
0.0
 10
0.5726259842519685
 20
1.059984251968504
 30
0.0
 10
0.5726259842519685
 20
1.059984251968504
 30
0.0
 10
0.5849173228346457
 20
1.064220472440945
 30
0.0
 10
0.5932795275590551
 20
1.067984251968504
 30
0.0
 10
0.606251968503937
 20
1.070791338582677
 30
0.0
 10
0.606251968503937
 20
1.070791338582677
 30
0.0
 10
0.606251968503937
 20
1.070791338582677
 30
0.0
 10
0.8196102362204725
 20
1.149610236220473
 30
0.0
 10
0.8196102362204725
 20
1.149610236220473
 30
0.0
 10
0.8196102362204725
 20
1.149610236220473
 30
0.0
 10
0.8406929133858267
 20
1.154208661417323
 30
0.0
 10
0.8803464566929133
 20
1.170972440944882
 30
0.0
 10
0.9028897637795276
 20
1.179692913385827
 30
0.0
 10
0.9028897637795276
 20
1.179692913385827
 30
0.0
 10
0.9209724409448818
 20
1.186681102362205
 30
0.0
 10
0.9219448818897638
 20
1.184456692913386
 30
0.0
 10
0.9295
 20
1.194346456692913
 30
0.0
 10
0.9295
 20
1.194346456692913
 30
0.0
 10
0.9384015748031496
 20
1.19553937007874
 30
0.0
 10
0.9294842519685039
 20
1.191681102362205
 30
0.0
 10
0.9409724409448819
 20
1.198137795275591
 30
0.0
 10
0.9409724409448819
 20
1.198137795275591
 30
0.0
 10
0.9465826771653544
 20
1.201291338582677
 30
0.0
 10
0.9477519685039371
 20
1.202929133858268
 30
0.0
 10
0.9519566929133858
 20
1.207192913385827
 30
0.0
 10
0.9519566929133858
 20
1.207192913385827
 30
0.0
 10
0.9586535433070866
 20
1.213972440944882
 30
0.0
 10
0.9639448818897638
 20
1.219889763779528
 30
0.0
 10
0.9659173228346457
 20
1.228220472440945
 30
0.0
 10
0.9659173228346457
 20
1.228220472440945
 30
0.0
 10
0.9892795275590551
 20
1.249610236220472
 30
0.0
 10
0.9933897637795276
 20
1.312153543307087
 30
0.0
 10
0.9869173228346456
 20
1.34290157480315
 30
0.0
 10
0.9869173228346456
 20
1.34290157480315
 30
0.0
 10
0.983484251968504
 20
1.359125984251969
 30
0.0
 10
0.9694015748031496
 20
1.388318897637795
 30
0.0
 10
0.9583897637795276
 20
1.398417322834646
 30
0.0
 10
0.9583897637795276
 20
1.398417322834646
 30
0.0
 10
0.9492362204724409
 20
1.406791338582677
 30
0.0
 10
0.931984251968504
 20
1.415720472440945
 30
0.0
 10
0.9130275590551181
 20
1.417236220472441
 30
0.0
 10
0.9130275590551181
 20
1.417236220472441
 30
0.0
 10
0.8724291338582677
 20
1.420472440944882
 30
0.0
 10
0.8085275590551181
 20
1.382637795275591
 30
0.0
 10
0.7804842519685039
 20
1.352775590551181
 30
0.0
 10
0.7804842519685039
 20
1.352775590551181
 30
0.0
 10
0.6876259842519685
 20
1.278570866141732
 30
0.0
 10
0.6082086614173229
 20
1.170720472440945
 30
0.0
 10
0.5254724409448819
 20
1.08709842519685
 30
0.0
  0
SPLINE
  5
8A
330
1F
100
AcDbEntity
  8
Layer 1
 62
     1
370
     9
100
AcDbSpline
210
0.0
220
0.0
230
1.0
 70
    11
 71
     3
 72
    32
 73
    28
 74
     0
 42
0.000000001
 43
0.0000000001
 40
0.0
 40
0.0
 40
0.0
 40
0.0
 40
0.125
 40
0.125
 40
0.125
 40
0.125
 40
0.25
 40
0.25
 40
0.25
 40
0.25
 40
0.375
 40
0.375
 40
0.375
 40
0.375
 40
0.5
 40
0.5
 40
0.5
 40
0.5
 40
0.625
 40
0.625
 40
0.625
 40
0.625
 40
0.75
 40
0.75
 40
0.75
 40
0.75
 40
1.0
 40
1.0
 40
1.0
 40
1.0
 10
1.420279527559055
 20
0.9165984251968504
 30
0.0
 10
1.347653543307087
 20
1.030653543307087
 30
0.0
 10
1.243318897637795
 20
1.115110236220472
 30
0.0
 10
1.102944881889764
 20
1.122637795275591
 30
0.0
 10
1.102944881889764
 20
1.122637795275591
 30
0.0
 10
0.527751968503937
 20
1.16190157480315
 30
0.0
 10
0.7592204724409449
 20
0.5586259842519685
 30
0.0
 10
0.7960984251968504
 20
0.6362913385826772
 30
0.0
 10
0.7960984251968504
 20
0.6362913385826772
 30
0.0
 10
0.7642637795275591
 20
0.6959015748031496
 30
0.0
 10
0.7534291338582677
 20
0.7576259842519685
 30
0.0
 10
0.7887204724409449
 20
0.8205275590551181
 30
0.0
 10
0.7887204724409449
 20
0.8205275590551181
 30
0.0
 10
0.8118464566929133
 20
0.861763779527559
 30
0.0
 10
0.8413897637795276
 20
0.8855984251968504
 30
0.0
 10
0.8749724409448819
 20
0.9116259842519685
 30
0.0
 10
0.8749724409448819
 20
0.9116259842519685
 30
0.0
 10
0.8753464566929133
 20
0.8618070866141733
 30
0.0
 10
0.9008622047244095
 20
0.8374015748031496
 30
0.0
 10
0.9411259842519685
 20
0.8515118110236221
 30
0.0
 10
0.9411259842519685
 20
0.8515118110236221
 30
0.0
 10
1.000834645669291
 20
0.8724291338582677
 30
0.0
 10
1.047374015748032
 20
1.109110236220472
 30
0.0
 10
1.303334645669291
 20
0.9900551181102362
 30
0.0
 10
1.303334645669291
 20
0.9900551181102362
 30
0.0
 10
1.347192913385827
 20
0.9696535433070866
 30
0.0
 10
1.38413779527559
 20
0.9343897637795275
 30
0.0
 10
1.420279527559055
 20
0.9165984251968504
 30
0.0
  0
SPLINE
  5
8B
330
1F
100
AcDbEntity
  8
Layer 1
 62
     1
370
     9
100
AcDbSpline
210
0.0
220
0.0
230
1.0
 70
    11
 71
     3
 72
    28
 73
    24
 74
     0
 42
0.000000001
 43
0.0000000001
 40
0.0
 40
0.0
 40
0.0
 40
0.0
 40
0.1428571428571428
 40
0.1428571428571428
 40
0.1428571428571428
 40
0.1428571428571428
 40
0.2857142857142857
 40
0.2857142857142857
 40
0.2857142857142857
 40
0.2857142857142857
 40
0.4285714285714285
 40
0.4285714285714285
 40
0.4285714285714285
 40
0.4285714285714285
 40
0.5714285714285714
 40
0.5714285714285714
 40
0.5714285714285714
 40
0.5714285714285714
 40
0.7142857142857143
 40
0.7142857142857143
 40
0.7142857142857143
 40
0.7142857142857143
 40
1.0
 40
1.0
 40
1.0
 40
1.0
 10
-1.036834645669291
 20
1.792984251968504
 30
0.0
 10
-1.057779527559055
 20
1.789610236220472
 30
0.0
 10
-1.076417322834646
 20
1.78336220472441
 30
0.0
 10
-1.092318897637795
 20
1.775055118110236
 30
0.0
 10
-1.092318897637795
 20
1.775055118110236
 30
0.0
 10
-1.162874015748032
 20
1.730027559055118
 30
0.0
 10
-1.19009842519685
 20
1.684708661417323
 30
0.0
 10
-1.206192913385827
 20
1.599456692913386
 30
0.0
 10
-1.206192913385827
 20
1.599456692913386
 30
0.0
 10
-1.208484251968504
 20
1.563610236220472
 30
0.0
 10
-1.203807086614173
 20
1.606110236220472
 30
0.0
 10
-1.189208661417323
 20
1.610984251968504
 30
0.0
 10
-1.189208661417323
 20
1.610984251968504
 30
0.0
 10
-1.151417322834646
 20
1.623582677165354
 30
0.0
 10
-1.033944881889764
 20
1.595027559055118
 30
0.0
 10
-1.026555118110236
 20
1.546889763779528
 30
0.0
 10
-1.026555118110236
 20
1.546889763779528
 30
0.0
 10
-1.025984251968504
 20
1.543208661417323
 30
0.0
 10
-1.008015748031496
 20
1.492708661417323
 30
0.0
 10
-0.9374448818897638
 20
1.516444881889764
 30
0.0
 10
-0.9374448818897638
 20
1.516444881889764
 30
0.0
 10
-0.7692913385826772
 20
1.573027559055118
 30
0.0
 10
-0.8175157480314961
 20
1.828429133858268
 30
0.0
 10
-1.036834645669291
 20
1.792984251968504
 30
0.0
  0
SPLINE
  5
8C
330
1F
100
AcDbEntity
  8
Layer 1
 62
     1
370
     9
100
AcDbSpline
210
0.0
220
0.0
230
1.0
 70
    11
 71
     3
 72
    20
 73
    16
 74
     0
 42
0.000000001
 43
0.0000000001
 40
0.0
 40
0.0
 40
0.0
 40
0.0
 40
0.2
 40
0.2
 40
0.2
 40
0.2
 40
0.4
 40
0.4
 40
0.4
 40
0.4
 40
0.6
 40
0.6
 40
0.6
 40
0.6
 40
1.0
 40
1.0
 40
1.0
 40
1.0
 10
0.5646377952755905
 20
0.3023070866141732
 30
0.0
 10
0.5256535433070866
 20
0.3470275590551181
 30
0.0
 10
0.5436259842519685
 20
0.3355826771653543
 30
0.0
 10
0.5448188976377952
 20
0.3828622047244095
 30
0.0
 10
0.5448188976377952
 20
0.3828622047244095
 30
0.0
 10
0.5843346456692914
 20
0.4141929133858268
 30
0.0
 10
0.5095
 20
0.4692913385826772
 30
0.0
 10
0.4887086614173228
 20
0.4213740157480315
 30
0.0
 10
0.4887086614173228
 20
0.4213740157480315
 30
0.0
 10
0.4775984251968504
 20
0.4075826771653543
 30
0.0
 10
0.4885
 20
0.3735826771653543
 30
0.0
 10
0.4966535433070866
 20
0.3568346456692914
 30
0.0
 10
0.4966535433070866
 20
0.3568346456692914
 30
0.0
 10
0.5135551181102362
 20
0.3220551181102362
 30
0.0
 10
0.5321259842519686
 20
0.3155
 30
0.0
 10
0.5646377952755905
 20
0.3023070866141732
 30
0.0
  0
SPLINE
  5
8D
330
1F
100
AcDbEntity
  8
Layer 1
 62
     1
370
     9
100
AcDbSpline
210
0.0
220
0.0
230
1.0
 70
    11
 71
     3
 72
    20
 73
    16
 74
     0
 42
0.000000001
 43
0.0000000001
 40
0.0
 40
0.0
 40
0.0
 40
0.0
 40
0.2
 40
0.2
 40
0.2
 40
0.2
 40
0.4
 40
0.4
 40
0.4
 40
0.4
 40
0.6
 40
0.6
 40
0.6
 40
0.6
 40
1.0
 40
1.0
 40
1.0
 40
1.0
 10
-0.3633622047244094
 20
1.20190157480315
 30
0.0
 10
-0.3679015748031496
 20
1.258527559055118
 30
0.0
 10
-0.4290433070866142
 20
1.31240157480315
 30
0.0
 10
-0.4722204724409449
 20
1.261456692913386
 30
0.0
 10
-0.4722204724409449
 20
1.261456692913386
 30
0.0
 10
-0.4828464566929134
 20
1.248929133858268
 30
0.0
 10
-0.4955984251968504
 20
1.216681102362205
 30
0.0
 10
-0.4706535433070866
 20
1.205555118110236
 30
0.0
 10
-0.4706535433070866
 20
1.205555118110236
 30
0.0
 10
-0.4420826771653543
 20
1.192818897637795
 30
0.0
 10
-0.4414015748031496
 20
1.220972440944882
 30
0.0
 10
-0.4303897637795275
 20
1.236291338582677
 30
0.0
 10
-0.4303897637795275
 20
1.236291338582677
 30
0.0
 10
-0.3903070866141732
 20
1.236708661417323
 30
0.0
 10
-0.3891653543307086
 20
1.232055118110236
 30
0.0
 10
-0.3633622047244094
 20
1.20190157480315
 30
0.0
  0
SPLINE
  5
8E
330
1F
100
AcDbEntity
  8
Layer 1
 62
     1
370
     9
100
AcDbSpline
210
0.0
220
0.0
230
1.0
 70
    11
 71
     3
 72
    36
 73
    32
 74
     0
 42
0.000000001
 43
0.0000000001
 40
0.0
 40
0.0
 40
0.0
 40
0.0
 40
0.1111111111111111
 40
0.1111111111111111
 40
0.1111111111111111
 40
0.1111111111111111
 40
0.2222222222222222
 40
0.2222222222222222
 40
0.2222222222222222
 40
0.2222222222222222
 40
0.3333333333333333
 40
0.3333333333333333
 40
0.3333333333333333
 40
0.3333333333333333
 40
0.4444444444444444
 40
0.4444444444444444
 40
0.4444444444444444
 40
0.4444444444444444
 40
0.5555555555555556
 40
0.5555555555555556
 40
0.5555555555555556
 40
0.5555555555555556
 40
0.6666666666666666
 40
0.6666666666666666
 40
0.6666666666666666
 40
0.6666666666666666
 40
0.7777777777777778
 40
0.7777777777777778
 40
0.7777777777777778
 40
0.7777777777777778
 40
1.0
 40
1.0
 40
1.0
 40
1.0
 10
-0.2984173228346457
 20
1.86990157480315
 30
0.0
 10
-0.2938897637795276
 20
1.849917322834646
 30
0.0
 10
-0.2866811023622047
 20
1.849944881889764
 30
0.0
 10
-0.2850826771653543
 20
1.835775590551181
 30
0.0
 10
-0.2850826771653543
 20
1.835775590551181
 30
0.0
 10
-0.3007204724409449
 20
1.831944881889764
 30
0.0
 10
-0.3053188976377953
 20
1.830236220472441
 30
0.0
 10
-0.3237204724409449
 20
1.832625984251969
 30
0.0
 10
-0.3237204724409449
 20
1.832625984251969
 30
0.0
 10
-0.3920275590551181
 20
1.848055118110236
 30
0.0
 10
-0.4572913385826772
 20
1.872248031496063
 30
0.0
 10
-0.523736220472441
 20
1.807318897637795
 30
0.0
 10
-0.523736220472441
 20
1.807318897637795
 30
0.0
 10
-0.5014173228346457
 20
1.81353937007874
 30
0.0
 10
-0.4866377952755905
 20
1.815456692913386
 30
0.0
 10
-0.4603622047244095
 20
1.813720472440945
 30
0.0
 10
-0.4603622047244095
 20
1.813720472440945
 30
0.0
 10
-0.4145984251968504
 20
1.810681102362205
 30
0.0
 10
-0.3787637795275591
 20
1.799972440944882
 30
0.0
 10
-0.3347362204724409
 20
1.789275590551181
 30
0.0
 10
-0.3347362204724409
 20
1.789275590551181
 30
0.0
 10
-0.3007913385826771
 20
1.783181102362205
 30
0.0
 10
-0.275263779527559
 20
1.776692913385827
 30
0.0
 10
-0.2420826771653543
 20
1.791263779527559
 30
0.0
 10
-0.2420826771653543
 20
1.791263779527559
 30
0.0
 10
-0.2189291338582677
 20
1.801429133858268
 30
0.0
 10
-0.1963464566929134
 20
1.821570866141732
 30
0.0
 10
-0.1925551181102362
 20
1.852929133858268
 30
0.0
 10
-0.1925551181102362
 20
1.852929133858268
 30
0.0
 10
-0.1824566929133858
 20
1.936362204724409
 30
0.0
 10
-0.296748031496063
 20
1.946055118110236
 30
0.0
 10
-0.2984173228346457
 20
1.86990157480315
 30
0.0
  0
SPLINE
  5
8F
330
1F
100
AcDbEntity
  8
Layer 1
 62
     1
370
     9
100
AcDbSpline
210
0.0
220
0.0
230
1.0
 70
    11
 71
     3
 72
    16
 73
    12
 74
     0
 42
0.000000001
 43
0.0000000001
 40
0.0
 40
0.0
 40
0.0
 40
0.0
 40
0.25
 40
0.25
 40
0.25
 40
0.25
 40
0.5
 40
0.5
 40
0.5
 40
0.5
 40
1.0
 40
1.0
 40
1.0
 40
1.0
 10
0.7751535433070866
 20
1.391484251968504
 30
0.0
 10
0.8138188976377952
 20
1.410263779527559
 30
0.0
 10
0.8262795275590551
 20
1.444889763779527
 30
0.0
 10
0.8868897637795276
 20
1.447807086614173
 30
0.0
 10
0.8868897637795276
 20
1.447807086614173
 30
0.0
 10
0.9055
 20
1.448708661417323
 30
0.0
 10
0.9159173228346457
 20
1.444263779527559
 30
0.0
 10
0.9275708661417322
 20
1.458625984251968
 30
0.0
 10
0.9275708661417322
 20
1.458625984251968
 30
0.0
 10
0.9604566929133859
 20
1.526944881889764
 30
0.0
 10
0.8101259842519685
 20
1.541862204724409
 30
0.0
 10
0.7751535433070866
 20
1.391484251968504
 30
0.0
  0
SPLINE
  5
90
330
1F
100
AcDbEntity
  8
Layer 1
 62
     1
370
     9
100
AcDbSpline
210
0.0
220
0.0
230
1.0
 70
    11
 71
     3
 72
    84
 73
    80
 74
     0
 42
0.000000001
 43
0.0000000001
 40
0.0
 40
0.0
 40
0.0
 40
0.0
 40
0.0476190476190476
 40
0.0476190476190476
 40
0.0476190476190476
 40
0.0476190476190476
 40
0.0952380952380952
 40
0.0952380952380952
 40
0.0952380952380952
 40
0.0952380952380952
 40
0.1428571428571428
 40
0.1428571428571428
 40
0.1428571428571428
 40
0.1428571428571428
 40
0.1904761904761905
 40
0.1904761904761905
 40
0.1904761904761905
 40
0.1904761904761905
 40
0.2380952380952381
 40
0.2380952380952381
 40
0.2380952380952381
 40
0.2380952380952381
 40
0.2857142857142857
 40
0.2857142857142857
 40
0.2857142857142857
 40
0.2857142857142857
 40
0.3333333333333333
 40
0.3333333333333333
 40
0.3333333333333333
 40
0.3333333333333333
 40
0.3809523809523809
 40
0.3809523809523809
 40
0.3809523809523809
 40
0.3809523809523809
 40
0.4285714285714285
 40
0.4285714285714285
 40
0.4285714285714285
 40
0.4285714285714285
 40
0.4761904761904762
 40
0.4761904761904762
 40
0.4761904761904762
 40
0.4761904761904762
 40
0.5238095238095238
 40
0.5238095238095238
 40
0.5238095238095238
 40
0.5238095238095238
 40
0.5714285714285714
 40
0.5714285714285714
 40
0.5714285714285714
 40
0.5714285714285714
 40
0.6190476190476191
 40
0.6190476190476191
 40
0.6190476190476191
 40
0.6190476190476191
 40
0.6666666666666666
 40
0.6666666666666666
 40
0.6666666666666666
 40
0.6666666666666666
 40
0.7142857142857143
 40
0.7142857142857143
 40
0.7142857142857143
 40
0.7142857142857143
 40
0.7619047619047619
 40
0.7619047619047619
 40
0.7619047619047619
 40
0.7619047619047619
 40
0.8095238095238095
 40
0.8095238095238095
 40
0.8095238095238095
 40
0.8095238095238095
 40
0.8571428571428571
 40
0.8571428571428571
 40
0.8571428571428571
 40
0.8571428571428571
 40
0.9047619047619048
 40
0.9047619047619048
 40
0.9047619047619048
 40
0.9047619047619048
 40
1.0
 40
1.0
 40
1.0
 40
1.0
 10
0.6738622047244095
 20
1.349610236220472
 30
0.0
 10
0.6867795275590551
 20
1.8225
 30
0.0
 10
0.0779015748031496
 20
1.460791338582677
 30
0.0
 10
0.3067795275590551
 20
1.286625984251969
 30
0.0
 10
0.3067795275590551
 20
1.286625984251969
 30
0.0
 10
0.342251968503937
 20
1.259625984251969
 30
0.0
 10
0.3713897637795275
 20
1.280944881889764
 30
0.0
 10
0.402236220472441
 20
1.28859842519685
 30
0.0
 10
0.402236220472441
 20
1.28859842519685
 30
0.0
 10
0.4209566929133858
 20
1.234444881889764
 30
0.0
 10
0.4144015748031496
 20
1.186582677165354
 30
0.0
 10
0.3675826771653543
 20
1.151511811023622
 30
0.0
 10
0.3675826771653543
 20
1.151511811023622
 30
0.0
 10
0.3535275590551181
 20
1.140984251968504
 30
0.0
 10
0.3383622047244094
 20
1.137929133858268
 30
0.0
 10
0.326251968503937
 20
1.129736220472441
 30
0.0
 10
0.326251968503937
 20
1.129736220472441
 30
0.0
 10
0.2846102362204724
 20
1.12303937007874
 30
0.0
 10
0.2713346456692913
 20
1.121862204724409
 30
0.0
 10
0.2290433070866142
 20
1.129125984251969
 30
0.0
 10
0.2290433070866142
 20
1.129125984251969
 30
0.0
 10
0.2286102362204724
 20
1.075248031496063
 30
0.0
 10
0.2286653543307087
 20
1.048708661417323
 30
0.0
 10
0.1961535433070866
 20
1.019763779527559
 30
0.0
 10
0.1961535433070866
 20
1.019763779527559
 30
0.0
 10
0.1665157480314961
 20
0.9933740157480315
 30
0.0
 10
0.1281102362204724
 20
0.9892204724409449
 30
0.0
 10
0.0806259842519685
 20
0.9910551181102362
 30
0.0
 10
0.0806259842519685
 20
0.9910551181102362
 30
0.0
 10
0.0839173228346457
 20
0.9551535433070866
 30
0.0
 10
0.0809291338582677
 20
0.959248031496063
 30
0.0
 10
0.0716259842519685
 20
0.9317204724409449
 30
0.0
 10
0.0716259842519685
 20
0.9317204724409449
 30
0.0
 10
0.0702362204724409
 20
0.9308740157480315
 30
0.0
 10
0.0701259842519685
 20
0.9323740157480315
 30
0.0
 10
0.0674173228346457
 20
0.9284015748031496
 30
0.0
 10
0.0674173228346457
 20
0.9284015748031496
 30
0.0
 10
0.0643897637795276
 20
0.9239566929133858
 30
0.0
 10
0.0663070866141732
 20
0.9266102362204724
 30
0.0
 10
0.0648464566929134
 20
0.9226259842519685
 30
0.0
 10
0.0648464566929134
 20
0.9226259842519685
 30
0.0
 10
0.0535551181102362
 20
0.9175826771653544
 30
0.0
 10
0.0449448818897638
 20
0.9094015748031496
 30
0.0
 10
0.0305984251968504
 20
0.9020708661417323
 30
0.0
 10
0.0305984251968504
 20
0.9020708661417323
 30
0.0
 10
-0.0017637795275591
 20
0.8855551181102362
 30
0.0
 10
-0.0410275590551181
 20
0.8621811023622047
 30
0.0
 10
-0.0654724409448819
 20
0.8381259842519685
 30
0.0
 10
-0.0654724409448819
 20
0.8381259842519685
 30
0.0
 10
-0.0838740157480315
 20
0.8200118110236221
 30
0.0
 10
-0.0997362204724409
 20
0.8069291338582677
 30
0.0
 10
-0.1115826771653543
 20
0.7775826771653543
 30
0.0
 10
-0.1115826771653543
 20
0.7775826771653543
 30
0.0
 10
-0.1244173228346457
 20
0.7458070866141733
 30
0.0
 10
-0.1244724409448819
 20
0.7196929133858267
 30
0.0
 10
-0.1116653543307087
 20
0.6900551181102362
 30
0.0
 10
-0.1116653543307087
 20
0.6900551181102362
 30
0.0
 10
-0.1084173228346457
 20
0.7249015748031497
 30
0.0
 10
-0.1082086614173228
 20
0.7444448818897638
 30
0.0
 10
-0.0915708661417323
 20
0.7709566929133859
 30
0.0
 10
-0.0915708661417323
 20
0.7709566929133859
 30
0.0
 10
-0.0576653543307087
 20
0.8249291338582677
 30
0.0
 10
0.0071653543307087
 20
0.8675984251968504
 30
0.0
 10
0.0661811023622047
 20
0.8928897637795276
 30
0.0
 10
0.0661811023622047
 20
0.8928897637795276
 30
0.0
 10
0.0661811023622047
 20
0.8928897637795276
 30
0.0
 10
0.0837204724409449
 20
0.9036653543307087
 30
0.0
 10
0.0837204724409449
 20
0.9036653543307087
 30
0.0
 10
0.0837204724409449
 20
0.9036653543307087
 30
0.0
 10
0.0921811023622047
 20
0.9042362204724409
 30
0.0
 10
0.3076259842519685
 20
0.9824724409448818
 30
0.0
 10
0.3179173228346457
 20
0.9888070866141733
 30
0.0
 10
0.3179173228346457
 20
0.9888070866141733
 30
0.0
 10
0.3360551181102362
 20
0.9945118110236221
 30
0.0
 10
0.3585984251968504
 20
1.003389763779527
 30
0.0
 10
0.3759291338582677
 20
1.012862204724409
 30
0.0
 10
0.3759291338582677
 20
1.012862204724409
 30
0.0
 10
0.4984566929133858
 20
1.093807086614173
 30
0.0
 10
0.6548070866141732
 20
1.197862204724409
 30
0.0
 10
0.6738622047244095
 20
1.349610236220472
 30
0.0
  0
SPLINE
  5
91
330
1F
100
AcDbEntity
  8
Layer 1
 62
     1
370
     9
100
AcDbSpline
210
0.0
220
0.0
230
1.0
 70
    11
 71
     3
 72
    44
 73
    40
 74
     0
 42
0.000000001
 43
0.0000000001
 40
0.0
 40
0.0
 40
0.0
 40
0.0
 40
0.0909090909090909
 40
0.0909090909090909
 40
0.0909090909090909
 40
0.0909090909090909
 40
0.1818181818181818
 40
0.1818181818181818
 40
0.1818181818181818
 40
0.1818181818181818
 40
0.2727272727272727
 40
0.2727272727272727
 40
0.2727272727272727
 40
0.2727272727272727
 40
0.3636363636363636
 40
0.3636363636363636
 40
0.3636363636363636
 40
0.3636363636363636
 40
0.4545454545454545
 40
0.4545454545454545
 40
0.4545454545454545
 40
0.4545454545454545
 40
0.5454545454545454
 40
0.5454545454545454
 40
0.5454545454545454
 40
0.5454545454545454
 40
0.6363636363636364
 40
0.6363636363636364
 40
0.6363636363636364
 40
0.6363636363636364
 40
0.7272727272727273
 40
0.7272727272727273
 40
0.7272727272727273
 40
0.7272727272727273
 40
0.8181818181818182
 40
0.8181818181818182
 40
0.8181818181818182
 40
0.8181818181818182
 40
1.0
 40
1.0
 40
1.0
 40
1.0
 10
0.7797795275590551
 20
1.6065
 30
0.0
 10
0.7994448818897638
 20
1.587748031496063
 30
0.0
 10
0.808263779527559
 20
1.578318897637795
 30
0.0
 10
0.8325708661417323
 20
1.562511811023622
 30
0.0
 10
0.8325708661417323
 20
1.562511811023622
 30
0.0
 10
0.9247086614173229
 20
1.502625984251968
 30
0.0
 10
1.046055118110236
 20
1.48253937007874
 30
0.0
 10
1.150720472440945
 20
1.518334645669291
 30
0.0
 10
1.150720472440945
 20
1.518334645669291
 30
0.0
 10
1.199456692913386
 20
1.535
 30
0.0
 10
1.274972440944882
 20
1.588027559055118
 30
0.0
 10
1.295874015748032
 20
1.637220472440945
 30
0.0
 10
1.295874015748032
 20
1.637220472440945
 30
0.0
 10
1.253807086614173
 20
1.613917322834646
 30
0.0
 10
1.224153543307087
 20
1.595374015748031
 30
0.0
 10
1.17559842519685
 20
1.586653543307087
 30
0.0
 10
1.17559842519685
 20
1.586653543307087
 30
0.0
 10
1.132692913385827
 20
1.578944881889764
 30
0.0
 10
1.089318897637795
 20
1.582736220472441
 30
0.0
 10
1.051456692913386
 20
1.601362204724409
 30
0.0
 10
1.051456692913386
 20
1.601362204724409
 30
0.0
 10
1.037874015748032
 20
1.606153543307087
 30
0.0
 10
0.9967913385826772
 20
1.633929133858268
 30
0.0
 10
0.9882204724409449
 20
1.647153543307087
 30
0.0
 10
0.9882204724409449
 20
1.647153543307087
 30
0.0
 10
0.9773897637795276
 20
1.663748031496063
 30
0.0
 10
0.9711811023622047
 20
1.665208661417323
 30
0.0
 10
0.9649448818897638
 20
1.684070866141732
 30
0.0
 10
0.9649448818897638
 20
1.684070866141732
 30
0.0
 10
1.160610236220472
 20
1.64259842519685
 30
0.0
 10
1.135779527559055
 20
1.938736220472441
 30
0.0
 10
0.9262086614173228
 20
1.959791338582677
 30
0.0
 10
0.9262086614173228
 20
1.959791338582677
 30
0.0
 10
0.8916102362204724
 20
1.963263779527559
 30
0.0
 10
0.8570708661417323
 20
1.959692913385827
 30
0.0
 10
0.8279566929133858
 20
1.947984251968504
 30
0.0
 10
0.8279566929133858
 20
1.947984251968504
 30
0.0
 10
0.6816929133858268
 20
1.889248031496063
 30
0.0
 10
0.6731929133858268
 20
1.708055118110236
 30
0.0
 10
0.7797795275590551
 20
1.6065
 30
0.0
  0
SPLINE
  5
92
330
1F
100
AcDbEntity
  8
Layer 1
 62
     1
370
     9
100
AcDbSpline
210
0.0
220
0.0
230
1.0
 70
    11
 71
     3
 72
    48
 73
    44
 74
     0
 42
0.000000001
 43
0.0000000001
 40
0.0
 40
0.0
 40
0.0
 40
0.0
 40
0.0833333333333333
 40
0.0833333333333333
 40
0.0833333333333333
 40
0.0833333333333333
 40
0.1666666666666667
 40
0.1666666666666667
 40
0.1666666666666667
 40
0.1666666666666667
 40
0.25
 40
0.25
 40
0.25
 40
0.25
 40
0.3333333333333333
 40
0.3333333333333333
 40
0.3333333333333333
 40
0.3333333333333333
 40
0.4166666666666667
 40
0.4166666666666667
 40
0.4166666666666667
 40
0.4166666666666667
 40
0.5
 40
0.5
 40
0.5
 40
0.5
 40
0.5833333333333334
 40
0.5833333333333334
 40
0.5833333333333334
 40
0.5833333333333334
 40
0.6666666666666666
 40
0.6666666666666666
 40
0.6666666666666666
 40
0.6666666666666666
 40
0.75
 40
0.75
 40
0.75
 40
0.75
 40
0.8333333333333334
 40
0.8333333333333334
 40
0.8333333333333334
 40
0.8333333333333334
 40
1.0
 40
1.0
 40
1.0
 40
1.0
 10
-0.4930826771653543
 20
0.3301929133858268
 30
0.0
 10
-0.4752204724409449
 20
0.305748031496063
 30
0.0
 10
-0.4039173228346457
 20
0.2235393700787402
 30
0.0
 10
-0.3824448818897638
 20
0.2184724409448819
 30
0.0
 10
-0.3824448818897638
 20
0.2184724409448819
 30
0.0
 10
-0.3856653543307086
 20
0.2309724409448819
 30
0.0
 10
-0.4505
 20
0.2955118110236221
 30
0.0
 10
-0.4666535433070866
 20
0.3199566929133859
 30
0.0
 10
-0.4666535433070866
 20
0.3199566929133859
 30
0.0
 10
-0.469763779527559
 20
0.3246653543307086
 30
0.0
 10
-0.472248031496063
 20
0.327748031496063
 30
0.0
 10
-0.4751653543307087
 20
0.331248031496063
 30
0.0
 10
-0.4751653543307087
 20
0.331248031496063
 30
0.0
 10
-0.5141811023622047
 20
0.3928622047244095
 30
0.0
 10
-0.5443622047244094
 20
0.4343464566929134
 30
0.0
 10
-0.57
 20
0.5066653543307087
 30
0.0
 10
-0.57
 20
0.5066653543307087
 30
0.0
 10
-0.5774566929133859
 20
0.5276929133858268
 30
0.0
 10
-0.5844448818897637
 20
0.5514173228346456
 30
0.0
 10
-0.589484251968504
 20
0.5736929133858267
 30
0.0
 10
-0.589484251968504
 20
0.5736929133858267
 30
0.0
 10
-0.6082637795275591
 20
0.6567913385826771
 30
0.0
 10
-0.6065157480314961
 20
0.7598188976377953
 30
0.0
 10
-0.5893897637795276
 20
0.8418897637795275
 30
0.0
 10
-0.5893897637795276
 20
0.8418897637795275
 30
0.0
 10
-0.5855551181102362
 20
0.860248031496063
 30
0.0
 10
-0.5816102362204725
 20
0.8763346456692913
 30
0.0
 10
-0.5769448818897638
 20
0.8929015748031496
 30
0.0
 10
-0.5769448818897638
 20
0.8929015748031496
 30
0.0
 10
-0.5534724409448819
 20
0.976236220472441
 30
0.0
 10
-0.3682795275590551
 20
1.111456692913386
 30
0.0
 10
-0.5074842519685039
 20
1.122791338582677
 30
0.0
 10
-0.5074842519685039
 20
1.122791338582677
 30
0.0
 10
-0.6310157480314961
 20
1.132862204724409
 30
0.0
 10
-0.6351929133858267
 20
0.7520551181102362
 30
0.0
 10
-0.6318740157480315
 20
0.7060275590551182
 30
0.0
 10
-0.6318740157480315
 20
0.7060275590551182
 30
0.0
 10
-0.6311535433070866
 20
0.6961653543307087
 30
0.0
 10
-0.6303346456692913
 20
0.6864566929133858
 30
0.0
 10
-0.6294015748031496
 20
0.6766102362204724
 30
0.0
 10
-0.6294015748031496
 20
0.6766102362204724
 30
0.0
 10
-0.6167480314960629
 20
0.5437086614173229
 30
0.0
 10
-0.5703740157480315
 20
0.4356377952755905
 30
0.0
 10
-0.4930826771653543
 20
0.3301929133858268
 30
0.0
  0
SPLINE
  5
93
330
1F
100
AcDbEntity
  8
Layer 1
 62
     1
370
     9
100
AcDbSpline
210
0.0
220
0.0
230
1.0
 70
    11
 71
     3
 72
    48
 73
    44
 74
     0
 42
0.000000001
 43
0.0000000001
 40
0.0
 40
0.0
 40
0.0
 40
0.0
 40
0.0833333333333333
 40
0.0833333333333333
 40
0.0833333333333333
 40
0.0833333333333333
 40
0.1666666666666667
 40
0.1666666666666667
 40
0.1666666666666667
 40
0.1666666666666667
 40
0.25
 40
0.25
 40
0.25
 40
0.25
 40
0.3333333333333333
 40
0.3333333333333333
 40
0.3333333333333333
 40
0.3333333333333333
 40
0.4166666666666667
 40
0.4166666666666667
 40
0.4166666666666667
 40
0.4166666666666667
 40
0.5
 40
0.5
 40
0.5
 40
0.5
 40
0.5833333333333334
 40
0.5833333333333334
 40
0.5833333333333334
 40
0.5833333333333334
 40
0.6666666666666666
 40
0.6666666666666666
 40
0.6666666666666666
 40
0.6666666666666666
 40
0.75
 40
0.75
 40
0.75
 40
0.75
 40
0.8333333333333334
 40
0.8333333333333334
 40
0.8333333333333334
 40
0.8333333333333334
 40
1.0
 40
1.0
 40
1.0
 40
1.0
 10
1.336917322834646
 20
1.775862204724409
 30
0.0
 10
1.337334645669291
 20
1.776236220472441
 30
0.0
 10
1.341834645669291
 20
1.780720472440945
 30
0.0
 10
1.341834645669291
 20
1.780736220472441
 30
0.0
 10
1.341834645669291
 20
1.780736220472441
 30
0.0
 10
1.348944881889764
 20
1.78840157480315
 30
0.0
 10
1.35509842519685
 20
1.803275590551181
 30
0.0
 10
1.357515748031496
 20
1.812929133858268
 30
0.0
 10
1.357515748031496
 20
1.812929133858268
 30
0.0
 10
1.358429133858268
 20
1.831125984251968
 30
0.0
 10
1.357708661417323
 20
1.837720472440945
 30
0.0
 10
1.351291338582677
 20
1.853625984251968
 30
0.0
 10
1.351291338582677
 20
1.853625984251968
 30
0.0
 10
1.370192913385827
 20
1.852192913385827
 30
0.0
 10
1.384929133858268
 20
1.843681102362205
 30
0.0
 10
1.402917322834646
 20
1.839137795275591
 30
0.0
 10
1.402917322834646
 20
1.839137795275591
 30
0.0
 10
1.404917322834646
 20
1.835956692913386
 30
0.0
 10
1.444889763779527
 20
1.812929133858268
 30
0.0
 10
1.453220472440945
 20
1.806484251968504
 30
0.0
 10
1.453220472440945
 20
1.806484251968504
 30
0.0
 10
1.557763779527559
 20
1.725665354330709
 30
0.0
 10
1.606
 20
1.576917322834646
 30
0.0
 10
1.633110236220472
 20
1.449972440944882
 30
0.0
 10
1.633110236220472
 20
1.449972440944882
 30
0.0
 10
1.637751968503937
 20
1.428220472440945
 30
0.0
 10
1.642736220472441
 20
1.39390157480315
 30
0.0
 10
1.648917322834646
 20
1.376318897637795
 30
0.0
 10
1.648917322834646
 20
1.376318897637795
 30
0.0
 10
1.647055118110236
 20
1.486456692913386
 30
0.0
 10
1.589279527559055
 20
1.66790157480315
 30
0.0
 10
1.534846456692913
 20
1.764846456692913
 30
0.0
 10
1.534846456692913
 20
1.764846456692913
 30
0.0
 10
1.523456692913386
 20
1.785125984251968
 30
0.0
 10
1.515444881889764
 20
1.798248031496063
 30
0.0
 10
1.503236220472441
 20
1.816570866141732
 30
0.0
 10
1.503236220472441
 20
1.816570866141732
 30
0.0
 10
1.358625984251969
 20
2.033681102362205
 30
0.0
 10
1.158055118110236
 20
1.976653543307087
 30
0.0
 10
1.169653543307087
 20
1.849775590551181
 30
0.0
 10
1.169653543307087
 20
1.849775590551181
 30
0.0
 10
1.177874015748031
 20
1.759846456692913
 30
0.0
 10
1.283015748031496
 20
1.726484251968504
 30
0.0
 10
1.336917322834646
 20
1.775862204724409
 30
0.0
  0
SPLINE
  5
94
330
1F
100
AcDbEntity
  8
Layer 1
 62
     1
370
     9
100
AcDbSpline
210
0.0
220
0.0
230
1.0
 70
    11
 71
     3
 72
    60
 73
    56
 74
     0
 42
0.000000001
 43
0.0000000001
 40
0.0
 40
0.0
 40
0.0
 40
0.0
 40
0.0666666666666667
 40
0.0666666666666667
 40
0.0666666666666667
 40
0.0666666666666667
 40
0.1333333333333333
 40
0.1333333333333333
 40
0.1333333333333333
 40
0.1333333333333333
 40
0.2
 40
0.2
 40
0.2
 40
0.2
 40
0.2666666666666667
 40
0.2666666666666667
 40
0.2666666666666667
 40
0.2666666666666667
 40
0.3333333333333333
 40
0.3333333333333333
 40
0.3333333333333333
 40
0.3333333333333333
 40
0.4
 40
0.4
 40
0.4
 40
0.4
 40
0.4666666666666667
 40
0.4666666666666667
 40
0.4666666666666667
 40
0.4666666666666667
 40
0.5333333333333333
 40
0.5333333333333333
 40
0.5333333333333333
 40
0.5333333333333333
 40
0.6
 40
0.6
 40
0.6
 40
0.6
 40
0.6666666666666666
 40
0.6666666666666666
 40
0.6666666666666666
 40
0.6666666666666666
 40
0.7333333333333333
 40
0.7333333333333333
 40
0.7333333333333333
 40
0.7333333333333333
 40
0.8
 40
0.8
 40
0.8
 40
0.8
 40
0.8666666666666667
 40
0.8666666666666667
 40
0.8666666666666667
 40
0.8666666666666667
 40
1.0
 40
1.0
 40
1.0
 40
1.0
 10
-0.3775275590551181
 20
2.029263779527559
 30
0.0
 10
-0.3775275590551181
 20
2.029263779527559
 30
0.0
 10
-0.3673740157480315
 20
2.046598425196851
 30
0.0
 10
-0.3673740157480315
 20
2.046598425196851
 30
0.0
 10
-0.3673740157480315
 20
2.046598425196851
 30
0.0
 10
-0.3641259842519685
 20
2.054389763779528
 30
0.0
 10
-0.3621929133858268
 20
2.05786220472441
 30
0.0
 10
-0.3598740157480315
 20
2.067236220472441
 30
0.0
 10
-0.3598740157480315
 20
2.067236220472441
 30
0.0
 10
-0.3598740157480315
 20
2.067236220472441
 30
0.0
 10
-0.3909842519685039
 20
2.03490157480315
 30
0.0
 10
-0.3909842519685039
 20
2.03490157480315
 30
0.0
 10
-0.3909842519685039
 20
2.03490157480315
 30
0.0
 10
-0.405015748031496
 20
2.032374015748032
 30
0.0
 10
-0.4477086614173229
 20
1.975456692913386
 30
0.0
 10
-0.5607795275590551
 20
1.953153543307087
 30
0.0
 10
-0.5607795275590551
 20
1.953153543307087
 30
0.0
 10
-0.6870551181102362
 20
1.928220472440945
 30
0.0
 10
-0.8525826771653543
 20
1.994665354330709
 30
0.0
 10
-1.00490157480315
 20
1.904334645669291
 30
0.0
 10
-1.00490157480315
 20
1.904334645669291
 30
0.0
 10
-1.030472440944882
 20
1.889165354330709
 30
0.0
 10
-1.212889763779528
 20
1.721972440944882
 30
0.0
 10
-1.082708661417323
 20
1.808570866141732
 30
0.0
 10
-1.082708661417323
 20
1.808570866141732
 30
0.0
 10
-1.065917322834646
 20
1.819736220472441
 30
0.0
 10
-1.049763779527559
 20
1.830318897637795
 30
0.0
 10
-1.030181102362205
 20
1.83940157480315
 30
0.0
 10
-1.030181102362205
 20
1.83940157480315
 30
0.0
 10
-0.8695433070866142
 20
1.91390157480315
 30
0.0
 10
-0.7949291338582677
 20
1.66540157480315
 30
0.0
 10
-0.7591535433070866
 20
1.815055118110236
 30
0.0
 10
-0.7591535433070866
 20
1.815055118110236
 30
0.0
 10
-0.7591535433070866
 20
1.815055118110236
 30
0.0
 10
-0.7582637795275591
 20
1.816511811023622
 30
0.0
 10
-0.7582637795275591
 20
1.816511811023622
 30
0.0
 10
-0.7582637795275591
 20
1.816511811023622
 30
0.0
 10
-0.749248031496063
 20
1.792736220472441
 30
0.0
 10
-0.7303740157480315
 20
1.776027559055118
 30
0.0
 10
-0.703748031496063
 20
1.769511811023622
 30
0.0
 10
-0.703748031496063
 20
1.769511811023622
 30
0.0
 10
-0.663984251968504
 20
1.75509842519685
 30
0.0
 10
-0.6280551181102362
 20
1.773192913385827
 30
0.0
 10
-0.6005984251968504
 20
1.800444881889764
 30
0.0
 10
-0.6005984251968504
 20
1.800444881889764
 30
0.0
 10
-0.5769566929133858
 20
1.8225
 30
0.0
 10
-0.5955826771653543
 20
1.846846456692913
 30
0.0
 10
-0.6054448818897638
 20
1.867834645669291
 30
0.0
 10
-0.6054448818897638
 20
1.867834645669291
 30
0.0
 10
-0.5323622047244094
 20
1.864137795275591
 30
0.0
 10
-0.4975157480314961
 20
1.871625984251968
 30
0.0
 10
-0.4541259842519685
 20
1.91
 30
0.0
 10
-0.4541259842519685
 20
1.91
 30
0.0
 10
-0.4376929133858268
 20
1.924527559055118
 30
0.0
 10
-0.3800157480314961
 20
1.997791338582677
 30
0.0
 10
-0.3775275590551181
 20
2.029263779527559
 30
0.0
  0
SPLINE
  5
95
330
1F
100
AcDbEntity
  8
Layer 1
 62
     1
370
     9
100
AcDbSpline
210
0.0
220
0.0
230
1.0
 70
    11
 71
     3
 72
    24
 73
    20
 74
     0
 42
0.000000001
 43
0.0000000001
 40
0.0
 40
0.0
 40
0.0
 40
0.0
 40
0.1666666666666667
 40
0.1666666666666667
 40
0.1666666666666667
 40
0.1666666666666667
 40
0.3333333333333333
 40
0.3333333333333333
 40
0.3333333333333333
 40
0.3333333333333333
 40
0.5
 40
0.5
 40
0.5
 40
0.5
 40
0.6666666666666666
 40
0.6666666666666666
 40
0.6666666666666666
 40
0.6666666666666666
 40
1.0
 40
1.0
 40
1.0
 40
1.0
 10
0.2680275590551181
 20
-0.5182795275590552
 30
0.0
 10
0.2892086614173228
 20
-0.5258070866141732
 30
0.0
 10
0.3165157480314961
 20
-0.5103897637795276
 30
0.0
 10
0.3239291338582677
 20
-0.4956653543307087
 30
0.0
 10
0.3239291338582677
 20
-0.4956653543307087
 30
0.0
 10
0.3767795275590551
 20
-0.4223622047244094
 30
0.0
 10
0.2682362204724409
 20
-0.4301811023622047
 30
0.0
 10
0.3329015748031496
 20
-0.3603346456692914
 30
0.0
 10
0.3329015748031496
 20
-0.3603346456692914
 30
0.0
 10
0.354751968503937
 20
-0.336736220472441
 30
0.0
 10
0.4080984251968504
 20
-0.3073464566929134
 30
0.0
 10
0.4377086614173228
 20
-0.2916653543307087
 30
0.0
 10
0.4377086614173228
 20
-0.2916653543307087
 30
0.0
 10
0.3660708661417323
 20
-0.289751968503937
 30
0.0
 10
0.2455157480314961
 20
-0.3688740157480315
 30
0.0
 10
0.2300157480314961
 20
-0.442251968503937
 30
0.0
 10
0.2300157480314961
 20
-0.442251968503937
 30
0.0
 10
0.2309566929133858
 20
-0.4707913385826772
 30
0.0
 10
0.2339015748031496
 20
-0.5098346456692914
 30
0.0
 10
0.2680275590551181
 20
-0.5182795275590552
 30
0.0
  0
SPLINE
  5
96
330
1F
100
AcDbEntity
  8
Layer 1
 62
     1
370
     9
100
AcDbSpline
210
0.0
220
0.0
230
1.0
 70
    11
 71
     3
 72
    36
 73
    32
 74
     0
 42
0.000000001
 43
0.0000000001
 40
0.0
 40
0.0
 40
0.0
 40
0.0
 40
0.1111111111111111
 40
0.1111111111111111
 40
0.1111111111111111
 40
0.1111111111111111
 40
0.2222222222222222
 40
0.2222222222222222
 40
0.2222222222222222
 40
0.2222222222222222
 40
0.3333333333333333
 40
0.3333333333333333
 40
0.3333333333333333
 40
0.3333333333333333
 40
0.4444444444444444
 40
0.4444444444444444
 40
0.4444444444444444
 40
0.4444444444444444
 40
0.5555555555555556
 40
0.5555555555555556
 40
0.5555555555555556
 40
0.5555555555555556
 40
0.6666666666666666
 40
0.6666666666666666
 40
0.6666666666666666
 40
0.6666666666666666
 40
0.7777777777777778
 40
0.7777777777777778
 40
0.7777777777777778
 40
0.7777777777777778
 40
1.0
 40
1.0
 40
1.0
 40
1.0
 10
-0.121248031496063
 20
1.941263779527559
 30
0.0
 10
-0.1009448818897638
 20
1.945653543307087
 30
0.0
 10
-0.0917637795275591
 20
1.95340157480315
 30
0.0
 10
-0.0859566929133858
 20
1.96990157480315
 30
0.0
 10
-0.0859566929133858
 20
1.96990157480315
 30
0.0
 10
-0.0859566929133858
 20
1.96990157480315
 30
0.0
 10
-0.1170551181102362
 20
1.970417322834646
 30
0.0
 10
-0.1170551181102362
 20
1.970417322834646
 30
0.0
 10
-0.1170551181102362
 20
1.970417322834646
 30
0.0
 10
-0.1465984251968504
 20
1.985275590551181
 30
0.0
 10
-0.1636102362204724
 20
1.997248031496063
 30
0.0
 10
-0.2043070866141732
 20
1.994220472440945
 30
0.0
 10
-0.2043070866141732
 20
1.994220472440945
 30
0.0
 10
-0.1859291338582677
 20
2.065570866141732
 30
0.0
 10
-0.2824566929133858
 20
2.067984251968504
 30
0.0
 10
-0.3661535433070866
 20
1.95540157480315
 30
0.0
 10
-0.3661535433070866
 20
1.95540157480315
 30
0.0
 10
-0.3779015748031496
 20
1.93959842519685
 30
0.0
 10
-0.4026811023622047
 20
1.909862204724409
 30
0.0
 10
-0.4100433070866142
 20
1.895972440944882
 30
0.0
 10
-0.4100433070866142
 20
1.895972440944882
 30
0.0
 10
-0.3911929133858268
 20
1.903692913385827
 30
0.0
 10
-0.3734173228346457
 20
1.915555118110236
 30
0.0
 10
-0.3518897637795276
 20
1.924192913385827
 30
0.0
 10
-0.3518897637795276
 20
1.924192913385827
 30
0.0
 10
-0.3304291338582677
 20
1.932807086614173
 30
0.0
 10
-0.3089724409448819
 20
1.939220472440945
 30
0.0
 10
-0.2842086614173228
 20
1.943275590551181
 30
0.0
 10
-0.2842086614173228
 20
1.943275590551181
 30
0.0
 10
-0.2045157480314961
 20
1.956334645669291
 30
0.0
 10
-0.1440275590551181
 20
1.932484251968504
 30
0.0
 10
-0.121248031496063
 20
1.941263779527559
 30
0.0
  0
SPLINE
  5
97
330
1F
100
AcDbEntity
  8
Layer 1
 62
     1
370
     9
100
AcDbSpline
210
0.0
220
0.0
230
1.0
 70
    11
 71
     3
 72
    76
 73
    72
 74
     0
 42
0.000000001
 43
0.0000000001
 40
0.0
 40
0.0
 40
0.0
 40
0.0
 40
0.0526315789473684
 40
0.0526315789473684
 40
0.0526315789473684
 40
0.0526315789473684
 40
0.1052631578947368
 40
0.1052631578947368
 40
0.1052631578947368
 40
0.1052631578947368
 40
0.1578947368421053
 40
0.1578947368421053
 40
0.1578947368421053
 40
0.1578947368421053
 40
0.2105263157894737
 40
0.2105263157894737
 40
0.2105263157894737
 40
0.2105263157894737
 40
0.2631578947368421
 40
0.2631578947368421
 40
0.2631578947368421
 40
0.2631578947368421
 40
0.3157894736842105
 40
0.3157894736842105
 40
0.3157894736842105
 40
0.3157894736842105
 40
0.3684210526315789
 40
0.3684210526315789
 40
0.3684210526315789
 40
0.3684210526315789
 40
0.4210526315789473
 40
0.4210526315789473
 40
0.4210526315789473
 40
0.4210526315789473
 40
0.4736842105263158
 40
0.4736842105263158
 40
0.4736842105263158
 40
0.4736842105263158
 40
0.5263157894736842
 40
0.5263157894736842
 40
0.5263157894736842
 40
0.5263157894736842
 40
0.5789473684210527
 40
0.5789473684210527
 40
0.5789473684210527
 40
0.5789473684210527
 40
0.631578947368421
 40
0.631578947368421
 40
0.631578947368421
 40
0.631578947368421
 40
0.6842105263157895
 40
0.6842105263157895
 40
0.6842105263157895
 40
0.6842105263157895
 40
0.7368421052631579
 40
0.7368421052631579
 40
0.7368421052631579
 40
0.7368421052631579
 40
0.7894736842105263
 40
0.7894736842105263
 40
0.7894736842105263
 40
0.7894736842105263
 40
0.8421052631578947
 40
0.8421052631578947
 40
0.8421052631578947
 40
0.8421052631578947
 40
0.8947368421052632
 40
0.8947368421052632
 40
0.8947368421052632
 40
0.8947368421052632
 40
1.0
 40
1.0
 40
1.0
 40
1.0
 10
0.8286535433070866
 20
0.078011811023622
 30
0.0
 10
0.7058188976377953
 20
0.0361377952755906
 30
0.0
 10
0.6187362204724409
 20
0.0568622047244094
 30
0.0
 10
0.5009842519685039
 20
0.1211102362204724
 30
0.0
 10
0.5009842519685039
 20
0.1211102362204724
 30
0.0
 10
0.4788897637795276
 20
0.1331653543307087
 30
0.0
 10
0.3892086614173229
 20
0.1951377952755906
 30
0.0
 10
0.3696102362204725
 20
0.1999015748031496
 30
0.0
 10
0.3696102362204725
 20
0.1999015748031496
 30
0.0
 10
0.3609566929133858
 20
0.2050275590551181
 30
0.0
 10
0.3448897637795276
 20
0.2024566929133858
 30
0.0
 10
0.3389015748031496
 20
0.1974566929133858
 30
0.0
 10
0.3389015748031496
 20
0.1974566929133858
 30
0.0
 10
0.3191102362204725
 20
0.1905708661417323
 30
0.0
 10
0.302751968503937
 20
0.1712913385826772
 30
0.0
 10
0.3002913385826771
 20
0.1455551181102362
 30
0.0
 10
0.3002913385826771
 20
0.1455551181102362
 30
0.0
 10
0.2990826771653543
 20
0.1328897637795275
 30
0.0
 10
0.3016377952755905
 20
0.1201653543307087
 30
0.0
 10
0.3070826771653543
 20
0.1105826771653543
 30
0.0
 10
0.3070826771653543
 20
0.1105826771653543
 30
0.0
 10
0.3133070866141732
 20
0.0995984251968504
 30
0.0
 10
0.3199566929133859
 20
0.0937755905511811
 30
0.0
 10
0.3298897637795276
 20
0.0880984251968504
 30
0.0
 10
0.3298897637795276
 20
0.0880984251968504
 30
0.0
 10
0.3298897637795276
 20
0.0880984251968504
 30
0.0
 10
0.3411102362204724
 20
0.0849015748031496
 30
0.0
 10
0.3411102362204724
 20
0.0849015748031496
 30
0.0
 10
0.3411102362204724
 20
0.0849015748031496
 30
0.0
 10
0.3376811023622047
 20
0.0790551181102362
 30
0.0
 10
0.3386377952755906
 20
0.0717755905511811
 30
0.0
 10
0.3070275590551181
 20
0.0768188976377953
 30
0.0
 10
0.3070275590551181
 20
0.0768188976377953
 30
0.0
 10
0.2954015748031496
 20
0.0786653543307087
 30
0.0
 10
0.2825984251968504
 20
0.0836811023622047
 30
0.0
 10
0.2743070866141732
 20
0.0877913385826772
 30
0.0
 10
0.2743070866141732
 20
0.0877913385826772
 30
0.0
 10
0.211751968503937
 20
0.1188897637795276
 30
0.0
 10
0.1898897637795276
 20
0.1830708661417323
 30
0.0
 10
0.1505
 20
0.2321929133858268
 30
0.0
 10
0.1505
 20
0.2321929133858268
 30
0.0
 10
0.138515748031496
 20
0.181
 30
0.0
 10
0.1348346456692913
 20
0.0726535433070866
 30
0.0
 10
0.18
 20
0.0333188976377953
 30
0.0
 10
0.18
 20
0.0333188976377953
 30
0.0
 10
0.1963740157480315
 20
0.0190708661417323
 30
0.0
 10
0.2101259842519685
 20
0.021248031496063
 30
0.0
 10
0.2216259842519685
 20
0.0129724409448819
 30
0.0
 10
0.2216259842519685
 20
0.0129724409448819
 30
0.0
 10
0.2216259842519685
 20
0.0129724409448819
 30
0.0
 10
0.2128070866141732
 20
-0.007
 30
0.0
 10
0.2128070866141732
 20
-0.007
 30
0.0
 10
0.2128070866141732
 20
-0.007
 30
0.0
 10
0.1959724409448819
 20
-0.022251968503937
 30
0.0
 10
0.194763779527559
 20
-0.0745826771653543
 30
0.0
 10
0.2243622047244095
 20
-0.1088740157480315
 30
0.0
 10
0.2243622047244095
 20
-0.1088740157480315
 30
0.0
 10
0.2441102362204725
 20
-0.131763779527559
 30
0.0
 10
0.2786102362204724
 20
-0.144251968503937
 30
0.0
 10
0.3213188976377953
 20
-0.1490708661417323
 30
0.0
 10
0.3213188976377953
 20
-0.1490708661417323
 30
0.0
 10
0.3218622047244095
 20
-0.162
 30
0.0
 10
0.3122362204724409
 20
-0.1793897637795276
 30
0.0
 10
0.311751968503937
 20
-0.2003188976377953
 30
0.0
 10
0.311751968503937
 20
-0.2003188976377953
 30
0.0
 10
0.3101653543307087
 20
-0.2694015748031496
 30
0.0
 10
0.3752913385826772
 20
-0.2835275590551181
 30
0.0
 10
0.4361102362204725
 20
-0.2635275590551181
 30
0.0
 10
0.4361102362204725
 20
-0.2635275590551181
 30
0.0
 10
0.5573897637795275
 20
-0.2236377952755906
 30
0.0
 10
0.7308188976377953
 20
-0.0124448818897638
 30
0.0
 10
0.8286535433070866
 20
0.078011811023622
 30
0.0
  0
SPLINE
  5
98
330
1F
100
AcDbEntity
  8
Layer 1
 62
     1
370
     9
100
AcDbSpline
210
0.0
220
0.0
230
1.0
 70
    11
 71
     3
 72
    40
 73
    36
 74
     0
 42
0.000000001
 43
0.0000000001
 40
0.0
 40
0.0
 40
0.0
 40
0.0
 40
0.1
 40
0.1
 40
0.1
 40
0.1
 40
0.2
 40
0.2
 40
0.2
 40
0.2
 40
0.3
 40
0.3
 40
0.3
 40
0.3
 40
0.4
 40
0.4
 40
0.4
 40
0.4
 40
0.5
 40
0.5
 40
0.5
 40
0.5
 40
0.6
 40
0.6
 40
0.6
 40
0.6
 40
0.7
 40
0.7
 40
0.7
 40
0.7
 40
0.8
 40
0.8
 40
0.8
 40
0.8
 40
1.0
 40
1.0
 40
1.0
 40
1.0
 10
-1.249874015748031
 20
1.335307086614173
 30
0.0
 10
-1.254681102362205
 20
1.327236220472441
 30
0.0
 10
-1.253637795275591
 20
1.318263779527559
 30
0.0
 10
-1.252374015748031
 20
1.308775590551181
 30
0.0
 10
-1.252374015748031
 20
1.308775590551181
 30
0.0
 10
-1.237027559055118
 20
1.194346456692913
 30
0.0
 10
-1.201043307086614
 20
1.095165354330709
 30
0.0
 10
-1.113692913385827
 20
1.019708661417323
 30
0.0
 10
-1.113692913385827
 20
1.019708661417323
 30
0.0
 10
-1.092862204724409
 20
1.001708661417323
 30
0.0
 10
-1.071307086614173
 20
0.9833346456692913
 30
0.0
 10
-1.037082677165354
 20
0.9735
 30
0.0
 10
-1.037082677165354
 20
0.9735
 30
0.0
 10
-1.021417322834646
 20
0.9654566929133859
 30
0.0
 10
-0.9914173228346457
 20
0.9617913385826772
 30
0.0
 10
-0.9703897637795276
 20
0.9661929133858268
 30
0.0
 10
-0.9703897637795276
 20
0.9661929133858268
 30
0.0
 10
-0.9487913385826772
 20
0.9700275590551181
 30
0.0
 10
-0.9287086614173229
 20
0.9803740157480315
 30
0.0
 10
-0.9194448818897638
 20
0.9959724409448819
 30
0.0
 10
-0.9194448818897638
 20
0.9959724409448819
 30
0.0
 10
-0.9110708661417323
 20
1.000984251968504
 30
0.0
 10
-0.9084724409448819
 20
1.006484251968504
 30
0.0
 10
-0.9019173228346457
 20
1.021192913385827
 30
0.0
 10
-0.9019173228346457
 20
1.021192913385827
 30
0.0
 10
-0.8878897637795276
 20
1.052665354330709
 30
0.0
 10
-0.8812795275590551
 20
1.103570866141732
 30
0.0
 10
-0.8916102362204724
 20
1.135291338582677
 30
0.0
 10
-0.8916102362204724
 20
1.135291338582677
 30
0.0
 10
-0.917984251968504
 20
1.216165354330709
 30
0.0
 10
-1.056374015748031
 20
1.230472440944882
 30
0.0
 10
-1.081082677165354
 20
1.100637795275591
 30
0.0
 10
-1.081082677165354
 20
1.100637795275591
 30
0.0
 10
-1.172834645669291
 20
1.127236220472441
 30
0.0
 10
-1.23640157480315
 20
1.254417322834646
 30
0.0
 10
-1.249874015748031
 20
1.335307086614173
 30
0.0
  0
SPLINE
  5
99
330
1F
100
AcDbEntity
  8
Layer 1
 62
     1
370
     9
100
AcDbSpline
210
0.0
220
0.0
230
1.0
 70
    11
 71
     3
 72
    32
 73
    28
 74
     0
 42
0.000000001
 43
0.0000000001
 40
0.0
 40
0.0
 40
0.0
 40
0.0
 40
0.125
 40
0.125
 40
0.125
 40
0.125
 40
0.25
 40
0.25
 40
0.25
 40
0.25
 40
0.375
 40
0.375
 40
0.375
 40
0.375
 40
0.5
 40
0.5
 40
0.5
 40
0.5
 40
0.625
 40
0.625
 40
0.625
 40
0.625
 40
0.75
 40
0.75
 40
0.75
 40
0.75
 40
1.0
 40
1.0
 40
1.0
 40
1.0
 10
0.9651535433070866
 20
1.440374015748032
 30
0.0
 10
0.9623622047244095
 20
1.435972440944882
 30
0.0
 10
0.960751968503937
 20
1.429944881889764
 30
0.0
 10
0.9603464566929134
 20
1.425625984251969
 30
0.0
 10
0.9603464566929134
 20
1.425625984251969
 30
0.0
 10
0.9589842519685039
 20
1.411
 30
0.0
 10
0.9654015748031496
 20
1.404862204724409
 30
0.0
 10
0.973251968503937
 20
1.397917322834646
 30
0.0
 10
0.973251968503937
 20
1.397917322834646
 30
0.0
 10
1.019543307086614
 20
1.380582677165354
 30
0.0
 10
1.098956692913386
 20
1.448511811023622
 30
0.0
 10
1.137751968503937
 20
1.471389763779527
 30
0.0
 10
1.137751968503937
 20
1.471389763779527
 30
0.0
 10
1.137751968503937
 20
1.471389763779527
 30
0.0
 10
1.170582677165354
 20
1.488818897637795
 30
0.0
 10
1.170582677165354
 20
1.488818897637795
 30
0.0
 10
1.170582677165354
 20
1.488818897637795
 30
0.0
 10
1.176874015748032
 20
1.492834645669291
 30
0.0
 10
1.173692913385827
 20
1.490708661417323
 30
0.0
 10
1.177043307086614
 20
1.493610236220472
 30
0.0
 10
1.177043307086614
 20
1.493610236220472
 30
0.0
 10
1.150917322834646
 20
1.491263779527559
 30
0.0
 10
1.115417322834646
 20
1.481456692913386
 30
0.0
 10
1.086137795275591
 20
1.476889763779528
 30
0.0
 10
1.086137795275591
 20
1.476889763779528
 30
0.0
 10
1.05990157480315
 20
1.472791338582677
 30
0.0
 10
0.9822913385826771
 20
1.467429133858268
 30
0.0
 10
0.9651535433070866
 20
1.440374015748032
 30
0.0
  0
SPLINE
  5
9A
330
1F
100
AcDbEntity
  8
Layer 1
 62
     1
370
     9
100
AcDbSpline
210
0.0
220
0.0
230
1.0
 70
    11
 71
     3
 72
    24
 73
    20
 74
     0
 42
0.000000001
 43
0.0000000001
 40
0.0
 40
0.0
 40
0.0
 40
0.0
 40
0.1666666666666667
 40
0.1666666666666667
 40
0.1666666666666667
 40
0.1666666666666667
 40
0.3333333333333333
 40
0.3333333333333333
 40
0.3333333333333333
 40
0.3333333333333333
 40
0.5
 40
0.5
 40
0.5
 40
0.5
 40
0.6666666666666666
 40
0.6666666666666666
 40
0.6666666666666666
 40
0.6666666666666666
 40
1.0
 40
1.0
 40
1.0
 40
1.0
 10
1.137220472440945
 20
1.838082677165354
 30
0.0
 10
1.137874015748032
 20
1.809291338582677
 30
0.0
 10
1.154334645669291
 20
1.784637795275591
 30
0.0
 10
1.152346456692913
 20
1.740555118110236
 30
0.0
 10
1.152346456692913
 20
1.740555118110236
 30
0.0
 10
1.143515748031496
 20
1.701362204724409
 30
0.0
 10
1.130110236220472
 20
1.714484251968504
 30
0.0
 10
1.105444881889764
 20
1.697137795275591
 30
0.0
 10
1.105444881889764
 20
1.697137795275591
 30
0.0
 10
1.083665354330709
 20
1.681818897637795
 30
0.0
 10
1.088334645669291
 20
1.651791338582677
 30
0.0
 10
1.104263779527559
 20
1.634984251968504
 30
0.0
 10
1.104263779527559
 20
1.634984251968504
 30
0.0
 10
1.110070866141732
 20
1.629070866141732
 30
0.0
 10
1.114570866141732
 20
1.625263779527559
 30
0.0
 10
1.123472440944882
 20
1.623125984251969
 30
0.0
 10
1.123472440944882
 20
1.623125984251969
 30
0.0
 10
1.293055118110236
 20
1.598220472440945
 30
0.0
 10
1.193082677165354
 20
1.807153543307087
 30
0.0
 10
1.137220472440945
 20
1.838082677165354
 30
0.0
  0
SPLINE
  5
9B
330
1F
100
AcDbEntity
  8
Layer 1
 62
     1
370
     9
100
AcDbSpline
210
0.0
220
0.0
230
1.0
 70
    11
 71
     3
 72
    32
 73
    28
 74
     0
 42
0.000000001
 43
0.0000000001
 40
0.0
 40
0.0
 40
0.0
 40
0.0
 40
0.125
 40
0.125
 40
0.125
 40
0.125
 40
0.25
 40
0.25
 40
0.25
 40
0.25
 40
0.375
 40
0.375
 40
0.375
 40
0.375
 40
0.5
 40
0.5
 40
0.5
 40
0.5
 40
0.625
 40
0.625
 40
0.625
 40
0.625
 40
0.75
 40
0.75
 40
0.75
 40
0.75
 40
1.0
 40
1.0
 40
1.0
 40
1.0
 10
0.125763779527559
 20
-0.4235551181102362
 30
0.0
 10
0.1600433070866142
 20
-0.4303070866141732
 30
0.0
 10
0.1716811023622047
 20
-0.5190826771653543
 30
0.0
 10
0.1705826771653543
 20
-0.4637086614173228
 30
0.0
 10
0.1705826771653543
 20
-0.4637086614173228
 30
0.0
 10
0.1645157480314961
 20
-0.424
 30
0.0
 10
0.1587913385826772
 20
-0.3926259842519685
 30
0.0
 10
0.1351259842519685
 20
-0.358251968503937
 30
0.0
 10
0.1351259842519685
 20
-0.358251968503937
 30
0.0
 10
0.1195826771653543
 20
-0.3356653543307087
 30
0.0
 10
0.1091929133858268
 20
-0.326
 30
0.0
 10
0.0895826771653543
 20
-0.3103464566929134
 30
0.0
 10
0.0895826771653543
 20
-0.3103464566929134
 30
0.0
 10
0.0600984251968504
 20
-0.2868346456692913
 30
0.0
 10
0.0052795275590551
 20
-0.2626811023622047
 30
0.0
 10
-0.0403897637795276
 20
-0.2539881889763779
 30
0.0
 10
-0.0403897637795276
 20
-0.2539881889763779
 30
0.0
 10
-0.0403897637795276
 20
-0.2539881889763779
 30
0.0
 10
-0.0919842519685039
 20
-0.2436102362204725
 30
0.0
 10
-0.0919842519685039
 20
-0.2436102362204725
 30
0.0
 10
-0.0919842519685039
 20
-0.2436102362204725
 30
0.0
 10
-0.0328346456692913
 20
-0.2766102362204724
 30
0.0
 10
0.0225
 20
-0.2969015748031496
 30
0.0
 10
0.0344291338582677
 20
-0.3691535433070866
 30
0.0
 10
0.0344291338582677
 20
-0.3691535433070866
 30
0.0
 10
0.0468740157480315
 20
-0.4448346456692913
 30
0.0
 10
0.0813464566929134
 20
-0.4148188976377953
 30
0.0
 10
0.125763779527559
 20
-0.4235551181102362
 30
0.0
  0
SPLINE
  5
9C
330
1F
100
AcDbEntity
  8
Layer 1
 62
     1
370
     9
100
AcDbSpline
210
0.0
220
0.0
230
1.0
 70
    11
 71
     3
 72
    32
 73
    28
 74
     0
 42
0.000000001
 43
0.0000000001
 40
0.0
 40
0.0
 40
0.0
 40
0.0
 40
0.125
 40
0.125
 40
0.125
 40
0.125
 40
0.25
 40
0.25
 40
0.25
 40
0.25
 40
0.375
 40
0.375
 40
0.375
 40
0.375
 40
0.5
 40
0.5
 40
0.5
 40
0.5
 40
0.625
 40
0.625
 40
0.625
 40
0.625
 40
0.75
 40
0.75
 40
0.75
 40
0.75
 40
1.0
 40
1.0
 40
1.0
 40
1.0
 10
0.5733188976377953
 20
1.66703937007874
 30
0.0
 10
0.5733188976377953
 20
1.66703937007874
 30
0.0
 10
0.5835826771653543
 20
1.68159842519685
 30
0.0
 10
0.5835826771653543
 20
1.68159842519685
 30
0.0
 10
0.5835826771653543
 20
1.68159842519685
 30
0.0
 10
0.6420433070866142
 20
1.810775590551181
 30
0.0
 10
0.4419842519685039
 20
1.785748031496063
 30
0.0
 10
0.3811929133858268
 20
1.761444881889764
 30
0.0
 10
0.3811929133858268
 20
1.761444881889764
 30
0.0
 10
0.3528346456692913
 20
1.75009842519685
 30
0.0
 10
0.3310708661417323
 20
1.737248031496063
 30
0.0
 10
0.3092362204724409
 20
1.720070866141732
 30
0.0
 10
0.3092362204724409
 20
1.720070866141732
 30
0.0
 10
0.0419015748031496
 20
1.509527559055118
 30
0.0
 10
0.3089724409448819
 20
1.17553937007874
 30
0.0
 10
0.2458897637795276
 20
1.299
 30
0.0
 10
0.2458897637795276
 20
1.299
 30
0.0
 10
0.1706377952755906
 20
1.446208661417323
 30
0.0
 10
0.2347086614173228
 20
1.639220472440945
 30
0.0
 10
0.3914448818897638
 20
1.704389763779528
 30
0.0
 10
0.3914448818897638
 20
1.704389763779528
 30
0.0
 10
0.4924566929133858
 20
1.74640157480315
 30
0.0
 10
0.4949566929133858
 20
1.696334645669291
 30
0.0
 10
0.5262637795275591
 20
1.649846456692913
 30
0.0
 10
0.5262637795275591
 20
1.649846456692913
 30
0.0
 10
0.5505275590551181
 20
1.647929133858268
 30
0.0
 10
0.5611377952755906
 20
1.652610236220472
 30
0.0
 10
0.5733188976377953
 20
1.66703937007874
 30
0.0
  0
SPLINE
  5
9D
330
1F
100
AcDbEntity
  8
Layer 1
 62
     1
370
     9
100
AcDbSpline
210
0.0
220
0.0
230
1.0
 70
    11
 71
     3
 72
    24
 73
    20
 74
     0
 42
0.000000001
 43
0.0000000001
 40
0.0
 40
0.0
 40
0.0
 40
0.0
 40
0.1666666666666667
 40
0.1666666666666667
 40
0.1666666666666667
 40
0.1666666666666667
 40
0.3333333333333333
 40
0.3333333333333333
 40
0.3333333333333333
 40
0.3333333333333333
 40
0.5
 40
0.5
 40
0.5
 40
0.5
 40
0.6666666666666666
 40
0.6666666666666666
 40
0.6666666666666666
 40
0.6666666666666666
 40
1.0
 40
1.0
 40
1.0
 40
1.0
 10
-1.173165354330709
 20
1.372846456692913
 30
0.0
 10
-1.171208661417323
 20
1.376956692913386
 30
0.0
 10
-1.168417322834646
 20
1.380818897637795
 30
0.0
 10
-1.167874015748031
 20
1.386681102362205
 30
0.0
 10
-1.167874015748031
 20
1.386681102362205
 30
0.0
 10
-1.162681102362205
 20
1.426681102362205
 30
0.0
 10
-1.2
 20
1.431511811023622
 30
0.0
 10
-1.222220472440945
 20
1.475917322834646
 30
0.0
 10
-1.222220472440945
 20
1.475917322834646
 30
0.0
 10
-1.230610236220472
 20
1.515653543307087
 30
0.0
 10
-1.234543307086614
 20
1.537681102362205
 30
0.0
 10
-1.235665354330709
 20
1.567748031496063
 30
0.0
 10
-1.235665354330709
 20
1.567748031496063
 30
0.0
 10
-1.23640157480315
 20
1.547055118110236
 30
0.0
 10
-1.264456692913386
 20
1.509
 30
0.0
 10
-1.233082677165354
 20
1.444374015748032
 30
0.0
 10
-1.233082677165354
 20
1.444374015748032
 30
0.0
 10
-1.215248031496063
 20
1.421917322834646
 30
0.0
 10
-1.206834645669291
 20
1.369653543307087
 30
0.0
 10
-1.173165354330709
 20
1.372846456692913
 30
0.0
  0
SPLINE
  5
9E
330
1F
100
AcDbEntity
  8
Layer 1
 62
     1
370
     9
100
AcDbSpline
210
0.0
220
0.0
230
1.0
 70
    11
 71
     3
 72
    28
 73
    24
 74
     0
 42
0.000000001
 43
0.0000000001
 40
0.0
 40
0.0
 40
0.0
 40
0.0
 40
0.1428571428571428
 40
0.1428571428571428
 40
0.1428571428571428
 40
0.1428571428571428
 40
0.2857142857142857
 40
0.2857142857142857
 40
0.2857142857142857
 40
0.2857142857142857
 40
0.4285714285714285
 40
0.4285714285714285
 40
0.4285714285714285
 40
0.4285714285714285
 40
0.5714285714285714
 40
0.5714285714285714
 40
0.5714285714285714
 40
0.5714285714285714
 40
0.7142857142857143
 40
0.7142857142857143
 40
0.7142857142857143
 40
0.7142857142857143
 40
1.0
 40
1.0
 40
1.0
 40
1.0
 10
-1.046251968503937
 20
1.313736220472441
 30
0.0
 10
-1.035484251968504
 20
1.307291338582677
 30
0.0
 10
-1.020417322834646
 20
1.296653543307087
 30
0.0
 10
-1.008610236220473
 20
1.294444881889764
 30
0.0
 10
-1.008610236220473
 20
1.294444881889764
 30
0.0
 10
-1.023055118110236
 20
1.302
 30
0.0
 10
-1.053291338582677
 20
1.340181102362205
 30
0.0
 10
-1.063236220472441
 20
1.356775590551181
 30
0.0
 10
-1.063236220472441
 20
1.356775590551181
 30
0.0
 10
-1.07040157480315
 20
1.368736220472441
 30
0.0
 10
-1.067318897637795
 20
1.54513779527559
 30
0.0
 10
-1.076653543307087
 20
1.554555118110236
 30
0.0
 10
-1.076653543307087
 20
1.554555118110236
 30
0.0
 10
-1.076653543307087
 20
1.554555118110236
 30
0.0
 10
-1.097137795275591
 20
1.417944881889764
 30
0.0
 10
-1.097137795275591
 20
1.417944881889764
 30
0.0
 10
-1.097137795275591
 20
1.417944881889764
 30
0.0
 10
-1.142055118110236
 20
1.437555118110236
 30
0.0
 10
-1.118736220472441
 20
1.68303937007874
 30
0.0
 10
-1.192779527559055
 20
1.564972440944882
 30
0.0
 10
-1.192779527559055
 20
1.564972440944882
 30
0.0
 10
-1.247846456692913
 20
1.477181102362205
 30
0.0
 10
-1.119346456692913
 20
1.357555118110236
 30
0.0
 10
-1.046251968503937
 20
1.313736220472441
 30
0.0
  0
SPLINE
  5
9F
330
1F
100
AcDbEntity
  8
Layer 1
 62
     1
370
     9
100
AcDbSpline
210
0.0
220
0.0
230
1.0
 70
    11
 71
     3
 72
    32
 73
    28
 74
     0
 42
0.000000001
 43
0.0000000001
 40
0.0
 40
0.0
 40
0.0
 40
0.0
 40
0.125
 40
0.125
 40
0.125
 40
0.125
 40
0.25
 40
0.25
 40
0.25
 40
0.25
 40
0.375
 40
0.375
 40
0.375
 40
0.375
 40
0.5
 40
0.5
 40
0.5
 40
0.5
 40
0.625
 40
0.625
 40
0.625
 40
0.625
 40
0.75
 40
0.75
 40
0.75
 40
0.75
 40
1.0
 40
1.0
 40
1.0
 40
1.0
 10
0.5577637795275591
 20
1.023110236220472
 30
0.0
 10
0.5456259842519685
 20
0.9846811023622047
 30
0.0
 10
0.4429291338582677
 20
0.9352204724409449
 30
0.0
 10
0.4094842519685039
 20
0.9231102362204724
 30
0.0
 10
0.4094842519685039
 20
0.9231102362204724
 30
0.0
 10
0.3915157480314961
 20
0.9166102362204724
 30
0.0
 10
0.3616259842519685
 20
0.9100984251968504
 30
0.0
 10
0.346251968503937
 20
0.9031259842519685
 30
0.0
 10
0.346251968503937
 20
0.9031259842519685
 30
0.0
 10
0.2472204724409449
 20
0.8896811023622048
 30
0.0
 10
0.1021259842519685
 20
0.8856653543307087
 30
0.0
 10
0.0165433070866142
 20
0.8293188976377953
 30
0.0
 10
0.0165433070866142
 20
0.8293188976377953
 30
0.0
 10
-0.0184842519685039
 20
0.806263779527559
 30
0.0
 10
-0.0672204724409449
 20
0.757
 30
0.0
 10
-0.0784566929133858
 20
0.7149448818897638
 30
0.0
 10
-0.0784566929133858
 20
0.7149448818897638
 30
0.0
 10
0.0589724409448819
 20
0.7549173228346456
 30
0.0
 10
0.0998464566929134
 20
0.6673897637795275
 30
0.0
 10
0.1205551181102362
 20
0.7684448818897638
 30
0.0
 10
0.1205551181102362
 20
0.7684448818897638
 30
0.0
 10
0.1288622047244095
 20
0.7631811023622047
 30
0.0
 10
0.1313897637795275
 20
0.7600984251968504
 30
0.0
 10
0.1399842519685039
 20
0.7533188976377952
 30
0.0
 10
0.1399842519685039
 20
0.7533188976377952
 30
0.0
 10
0.2668188976377953
 20
0.6531377952755906
 30
0.0
 10
0.5084724409448819
 20
0.8398070866141732
 30
0.0
 10
0.5577637795275591
 20
1.023110236220472
 30
0.0
  0
SPLINE
  5
A0
330
1F
100
AcDbEntity
  8
Layer 1
 62
     1
370
     9
100
AcDbSpline
210
0.0
220
0.0
230
1.0
 70
    11
 71
     3
 72
    16
 73
    12
 74
     0
 42
0.000000001
 43
0.0000000001
 40
0.0
 40
0.0
 40
0.0
 40
0.0
 40
0.25
 40
0.25
 40
0.25
 40
0.25
 40
0.5
 40
0.5
 40
0.5
 40
0.5
 40
1.0
 40
1.0
 40
1.0
 40
1.0
 10
1.31959842519685
 20
1.631929133858268
 30
0.0
 10
1.284208661417323
 20
1.506
 30
0.0
 10
1.030055118110236
 20
1.370653543307087
 30
0.0
 10
1.101456692913386
 20
1.274846456692913
 30
0.0
 10
1.101456692913386
 20
1.274846456692913
 30
0.0
 10
1.163779527559055
 20
1.19803937007874
 30
0.0
 10
1.36809842519685
 20
1.228736220472441
 30
0.0
 10
1.2455
 20
1.415665354330709
 30
0.0
 10
1.2455
 20
1.415665354330709
 30
0.0
 10
1.225834645669291
 20
1.457862204724409
 30
0.0
 10
1.383110236220472
 20
1.555263779527559
 30
0.0
 10
1.31959842519685
 20
1.631929133858268
 30
0.0
  0
SPLINE
  5
A1
330
1F
100
AcDbEntity
  8
Layer 1
 62
     1
370
     9
100
AcDbSpline
210
0.0
220
0.0
230
1.0
 70
    11
 71
     3
 72
    36
 73
    32
 74
     0
 42
0.000000001
 43
0.0000000001
 40
0.0
 40
0.0
 40
0.0
 40
0.0
 40
0.1111111111111111
 40
0.1111111111111111
 40
0.1111111111111111
 40
0.1111111111111111
 40
0.2222222222222222
 40
0.2222222222222222
 40
0.2222222222222222
 40
0.2222222222222222
 40
0.3333333333333333
 40
0.3333333333333333
 40
0.3333333333333333
 40
0.3333333333333333
 40
0.4444444444444444
 40
0.4444444444444444
 40
0.4444444444444444
 40
0.4444444444444444
 40
0.5555555555555556
 40
0.5555555555555556
 40
0.5555555555555556
 40
0.5555555555555556
 40
0.6666666666666666
 40
0.6666666666666666
 40
0.6666666666666666
 40
0.6666666666666666
 40
0.7777777777777778
 40
0.7777777777777778
 40
0.7777777777777778
 40
0.7777777777777778
 40
1.0
 40
1.0
 40
1.0
 40
1.0
 10
-0.7446811023622047
 20
1.04703937007874
 30
0.0
 10
-0.8116811023622047
 20
1.160346456692913
 30
0.0
 10
-0.7975708661417323
 20
1.259582677165354
 30
0.0
 10
-1.006874015748032
 20
1.23853937007874
 30
0.0
 10
-1.006874015748032
 20
1.23853937007874
 30
0.0
 10
-0.9897362204724409
 20
1.231220472440945
 30
0.0
 10
-0.9684015748031496
 20
1.22790157480315
 30
0.0
 10
-0.9500708661417323
 20
1.219874015748031
 30
0.0
 10
-0.9500708661417323
 20
1.219874015748031
 30
0.0
 10
-0.9324173228346456
 20
1.212153543307087
 30
0.0
 10
-0.9125708661417323
 20
1.198846456692913
 30
0.0
 10
-0.9023346456692913
 20
1.187692913385827
 30
0.0
 10
-0.9023346456692913
 20
1.187692913385827
 30
0.0
 10
-0.8917795275590551
 20
1.176220472440945
 30
0.0
 10
-0.8807086614173228
 20
1.157610236220473
 30
0.0
 10
-0.8755
 20
1.137944881889764
 30
0.0
 10
-0.8755
 20
1.137944881889764
 30
0.0
 10
-0.8685275590551181
 20
1.111610236220473
 30
0.0
 10
-0.8723464566929134
 20
1.085511811023622
 30
0.0
 10
-0.8689015748031496
 20
1.066917322834646
 30
0.0
 10
-0.8689015748031496
 20
1.066917322834646
 30
0.0
 10
-0.8612637795275591
 20
1.03009842519685
 30
0.0
 10
-0.8354448818897637
 20
1.050748031496063
 30
0.0
 10
-0.8153346456692914
 20
1.039484251968504
 30
0.0
 10
-0.8153346456692914
 20
1.039484251968504
 30
0.0
 10
-0.7945826771653544
 20
1.009429133858268
 30
0.0
 10
-0.7480157480314961
 20
0.990763779527559
 30
0.0
 10
-0.7002086614173229
 20
1.002807086614173
 30
0.0
 10
-0.7002086614173229
 20
1.002807086614173
 30
0.0
 10
-0.7188897637795275
 20
1.0125
 30
0.0
 10
-0.7348622047244094
 20
1.027456692913386
 30
0.0
 10
-0.7446811023622047
 20
1.04703937007874
 30
0.0
  0
SPLINE
  5
A2
330
1F
100
AcDbEntity
  8
Layer 1
 62
     1
370
     9
100
AcDbSpline
210
0.0
220
0.0
230
1.0
 70
    11
 71
     3
 72
    48
 73
    44
 74
     0
 42
0.000000001
 43
0.0000000001
 40
0.0
 40
0.0
 40
0.0
 40
0.0
 40
0.0833333333333333
 40
0.0833333333333333
 40
0.0833333333333333
 40
0.0833333333333333
 40
0.1666666666666667
 40
0.1666666666666667
 40
0.1666666666666667
 40
0.1666666666666667
 40
0.25
 40
0.25
 40
0.25
 40
0.25
 40
0.3333333333333333
 40
0.3333333333333333
 40
0.3333333333333333
 40
0.3333333333333333
 40
0.4166666666666667
 40
0.4166666666666667
 40
0.4166666666666667
 40
0.4166666666666667
 40
0.5
 40
0.5
 40
0.5
 40
0.5
 40
0.5833333333333334
 40
0.5833333333333334
 40
0.5833333333333334
 40
0.5833333333333334
 40
0.6666666666666666
 40
0.6666666666666666
 40
0.6666666666666666
 40
0.6666666666666666
 40
0.75
 40
0.75
 40
0.75
 40
0.75
 40
0.8333333333333334
 40
0.8333333333333334
 40
0.8333333333333334
 40
0.8333333333333334
 40
1.0
 40
1.0
 40
1.0
 40
1.0
 10
0.9601535433070866
 20
0.6029724409448819
 30
0.0
 10
0.9210826771653543
 20
0.5719291338582677
 30
0.0
 10
0.8233346456692914
 20
0.5646259842519685
 30
0.0
 10
0.7768188976377953
 20
0.5713070866141732
 30
0.0
 10
0.7768188976377953
 20
0.5713070866141732
 30
0.0
 10
0.6644566929133858
 20
0.6141377952755905
 30
0.0
 10
0.6048188976377953
 20
0.6946377952755906
 30
0.0
 10
0.6223464566929134
 20
0.821511811023622
 30
0.0
 10
0.6223464566929134
 20
0.821511811023622
 30
0.0
 10
0.630236220472441
 20
0.8786377952755906
 30
0.0
 10
0.6447204724409449
 20
0.9044842519685039
 30
0.0
 10
0.6717637795275591
 20
0.9508188976377953
 30
0.0
 10
0.6717637795275591
 20
0.9508188976377953
 30
0.0
 10
0.694251968503937
 20
0.9857204724409449
 30
0.0
 10
0.7255157480314961
 20
1.018763779527559
 30
0.0
 10
0.7573070866141732
 20
1.045220472440945
 30
0.0
 10
0.7573070866141732
 20
1.045220472440945
 30
0.0
 10
0.8216377952755906
 20
1.098807086614173
 30
0.0
 10
0.9485275590551181
 20
1.161362204724409
 30
0.0
 10
1.025263779527559
 20
1.175070866141732
 30
0.0
 10
1.025263779527559
 20
1.175070866141732
 30
0.0
 10
0.8481929133858268
 20
1.157236220472441
 30
0.0
 10
0.6155
 20
1.019027559055118
 30
0.0
 10
0.5661535433070866
 20
0.8365
 30
0.0
 10
0.5661535433070866
 20
0.8365
 30
0.0
 10
0.5310433070866142
 20
0.7066259842519685
 30
0.0
 10
0.5655433070866142
 20
0.5523740157480315
 30
0.0
 10
0.6688740157480315
 20
0.4622086614173228
 30
0.0
 10
0.6688740157480315
 20
0.4622086614173228
 30
0.0
 10
0.7828070866141732
 20
0.3627637795275591
 30
0.0
 10
0.9596653543307087
 20
0.3376259842519685
 30
0.0
 10
1.078153543307087
 20
0.4477755905511811
 30
0.0
 10
1.078153543307087
 20
0.4477755905511811
 30
0.0
 10
1.148763779527559
 20
0.5134015748031496
 30
0.0
 10
1.16790157480315
 20
0.6360984251968504
 30
0.0
 10
1.122944881889764
 20
0.7196377952755906
 30
0.0
 10
1.122944881889764
 20
0.7196377952755906
 30
0.0
 10
1.110956692913386
 20
0.7419015748031496
 30
0.0
 10
1.093456692913386
 20
0.7605826771653543
 30
0.0
 10
1.067956692913386
 20
0.7715118110236221
 30
0.0
 10
1.067956692913386
 20
0.7715118110236221
 30
0.0
 10
0.9598622047244094
 20
0.8178346456692913
 30
0.0
 10
0.8753070866141732
 20
0.7327204724409448
 30
0.0
 10
0.9601535433070866
 20
0.6029724409448819
 30
0.0
  0
SPLINE
  5
A3
330
1F
100
AcDbEntity
  8
Layer 1
 62
     1
370
     9
100
AcDbSpline
210
0.0
220
0.0
230
1.0
 70
    11
 71
     3
 72
    24
 73
    20
 74
     0
 42
0.000000001
 43
0.0000000001
 40
0.0
 40
0.0
 40
0.0
 40
0.0
 40
0.1666666666666667
 40
0.1666666666666667
 40
0.1666666666666667
 40
0.1666666666666667
 40
0.3333333333333333
 40
0.3333333333333333
 40
0.3333333333333333
 40
0.3333333333333333
 40
0.5
 40
0.5
 40
0.5
 40
0.5
 40
0.6666666666666666
 40
0.6666666666666666
 40
0.6666666666666666
 40
0.6666666666666666
 40
1.0
 40
1.0
 40
1.0
 40
1.0
 10
-1.224984251968504
 20
1.369681102362205
 30
0.0
 10
-1.236944881889764
 20
1.396889763779527
 30
0.0
 10
-1.245472440944882
 20
1.42340157480315
 30
0.0
 10
-1.255956692913386
 20
1.449362204724409
 30
0.0
 10
-1.255956692913386
 20
1.449362204724409
 30
0.0
 10
-1.256708661417323
 20
1.420889763779527
 30
0.0
 10
-1.248665354330709
 20
1.375874015748032
 30
0.0
 10
-1.241625984251969
 20
1.349720472440945
 30
0.0
 10
-1.241625984251969
 20
1.349720472440945
 30
0.0
 10
-1.196192913385827
 20
1.166275590551181
 30
0.0
 10
-1.037208661417323
 20
1.195389763779528
 30
0.0
 10
-1.093889763779528
 20
1.289444881889764
 30
0.0
 10
-1.093889763779528
 20
1.289444881889764
 30
0.0
 10
-1.138708661417323
 20
1.363818897637795
 30
0.0
 10
-1.181807086614173
 20
1.31113779527559
 30
0.0
 10
-1.183736220472441
 20
1.310125984251969
 30
0.0
 10
-1.183736220472441
 20
1.310125984251969
 30
0.0
 10
-1.203279527559055
 20
1.329763779527559
 30
0.0
 10
-1.21359842519685
 20
1.345346456692913
 30
0.0
 10
-1.224984251968504
 20
1.369681102362205
 30
0.0
  0
SPLINE
  5
A4
330
1F
100
AcDbEntity
  8
Layer 1
 62
     1
370
     9
100
AcDbSpline
210
0.0
220
0.0
230
1.0
 70
    11
 71
     3
 72
    24
 73
    20
 74
     0
 42
0.000000001
 43
0.0000000001
 40
0.0
 40
0.0
 40
0.0
 40
0.0
 40
0.1666666666666667
 40
0.1666666666666667
 40
0.1666666666666667
 40
0.1666666666666667
 40
0.3333333333333333
 40
0.3333333333333333
 40
0.3333333333333333
 40
0.3333333333333333
 40
0.5
 40
0.5
 40
0.5
 40
0.5
 40
0.6666666666666666
 40
0.6666666666666666
 40
0.6666666666666666
 40
0.6666666666666666
 40
1.0
 40
1.0
 40
1.0
 40
1.0
 10
-0.9018897637795276
 20
1.308334645669291
 30
0.0
 10
-0.9018897637795276
 20
1.308334645669291
 30
0.0
 10
-0.9023740157480314
 20
1.318791338582677
 30
0.0
 10
-0.9023740157480314
 20
1.318791338582677
 30
0.0
 10
-0.9023740157480314
 20
1.318791338582677
 30
0.0
 10
-0.8634566929133858
 20
1.347153543307087
 30
0.0
 10
-0.8936535433070866
 20
1.409625984251969
 30
0.0
 10
-0.9322913385826772
 20
1.383389763779528
 30
0.0
 10
-0.9322913385826772
 20
1.383389763779528
 30
0.0
 10
-0.9560433070866142
 20
1.364807086614173
 30
0.0
 10
-0.9550551181102362
 20
1.338708661417323
 30
0.0
 10
-0.9419173228346457
 20
1.314763779527559
 30
0.0
 10
-0.9419173228346457
 20
1.314763779527559
 30
0.0
 10
-0.9273070866141733
 20
1.288165354330709
 30
0.0
 10
-0.8884842519685039
 20
1.263456692913386
 30
0.0
 10
-0.8601653543307086
 20
1.259236220472441
 30
0.0
 10
-0.8601653543307086
 20
1.259236220472441
 30
0.0
 10
-0.8746102362204724
 20
1.27536220472441
 30
0.0
 10
-0.8918622047244095
 20
1.289917322834646
 30
0.0
 10
-0.9018897637795276
 20
1.308334645669291
 30
0.0
  0
SPLINE
  5
A5
330
1F
100
AcDbEntity
  8
Layer 1
 62
     1
370
     9
100
AcDbSpline
210
0.0
220
0.0
230
1.0
 70
    11
 71
     3
 72
    24
 73
    20
 74
     0
 42
0.000000001
 43
0.0000000001
 40
0.0
 40
0.0
 40
0.0
 40
0.0
 40
0.1666666666666667
 40
0.1666666666666667
 40
0.1666666666666667
 40
0.1666666666666667
 40
0.3333333333333333
 40
0.3333333333333333
 40
0.3333333333333333
 40
0.3333333333333333
 40
0.5
 40
0.5
 40
0.5
 40
0.5
 40
0.6666666666666666
 40
0.6666666666666666
 40
0.6666666666666666
 40
0.6666666666666666
 40
1.0
 40
1.0
 40
1.0
 40
1.0
 10
0.2469173228346457
 20
1.515334645669291
 30
0.0
 10
0.2439173228346457
 20
1.499318897637795
 30
0.0
 10
0.2398346456692913
 20
1.473055118110236
 30
0.0
 10
0.2462637795275591
 20
1.459972440944882
 30
0.0
 10
0.2462637795275591
 20
1.459972440944882
 30
0.0
 10
0.2536377952755905
 20
1.472110236220473
 30
0.0
 10
0.2567204724409449
 20
1.490070866141732
 30
0.0
 10
0.2628188976377953
 20
1.502984251968504
 30
0.0
 10
0.2628188976377953
 20
1.502984251968504
 30
0.0
 10
0.2900826771653544
 20
1.560736220472441
 30
0.0
 10
0.3273346456692913
 20
1.584275590551181
 30
0.0
 10
0.3938897637795276
 20
1.581956692913386
 30
0.0
 10
0.3938897637795276
 20
1.581956692913386
 30
0.0
 10
0.4709448818897638
 20
1.573929133858268
 30
0.0
 10
0.4637795275590551
 20
1.64603937007874
 30
0.0
 10
0.4095551181102362
 20
1.649889763779528
 30
0.0
 10
0.4095551181102362
 20
1.649889763779528
 30
0.0
 10
0.3365551181102362
 20
1.655055118110236
 30
0.0
 10
0.2602637795275591
 20
1.586692913385827
 30
0.0
 10
0.2469173228346457
 20
1.515334645669291
 30
0.0
  0
SPLINE
  5
A6
330
1F
100
AcDbEntity
  8
Layer 1
 62
     1
370
     9
100
AcDbSpline
210
0.0
220
0.0
230
1.0
 70
    11
 71
     3
 72
    32
 73
    28
 74
     0
 42
0.000000001
 43
0.0000000001
 40
0.0
 40
0.0
 40
0.0
 40
0.0
 40
0.125
 40
0.125
 40
0.125
 40
0.125
 40
0.25
 40
0.25
 40
0.25
 40
0.25
 40
0.375
 40
0.375
 40
0.375
 40
0.375
 40
0.5
 40
0.5
 40
0.5
 40
0.5
 40
0.625
 40
0.625
 40
0.625
 40
0.625
 40
0.75
 40
0.75
 40
0.75
 40
0.75
 40
1.0
 40
1.0
 40
1.0
 40
1.0
 10
1.10259842519685
 20
0.8565551181102362
 30
0.0
 10
1.095137795275591
 20
0.7690984251968503
 30
0.0
 10
1.173165354330709
 20
0.7544842519685039
 30
0.0
 10
1.222929133858268
 20
0.7976102362204724
 30
0.0
 10
1.222929133858268
 20
0.7976102362204724
 30
0.0
 10
1.232181102362205
 20
0.7806259842519685
 30
0.0
 10
1.222291338582677
 20
0.7574566929133858
 30
0.0
 10
1.262807086614173
 20
0.7625118110236221
 30
0.0
 10
1.262807086614173
 20
0.7625118110236221
 30
0.0
 10
1.283929133858268
 20
0.7651535433070866
 30
0.0
 10
1.303220472440945
 20
0.7796259842519685
 30
0.0
 10
1.315944881889764
 20
0.7899566929133858
 30
0.0
 10
1.315944881889764
 20
0.7899566929133858
 30
0.0
 10
1.354929133858268
 20
0.8216377952755906
 30
0.0
 10
1.338291338582677
 20
0.8478346456692913
 30
0.0
 10
1.417791338582677
 20
0.8448897637795275
 30
0.0
 10
1.417791338582677
 20
0.8448897637795275
 30
0.0
 10
1.417791338582677
 20
0.8448897637795275
 30
0.0
 10
1.437818897637795
 20
0.8405708661417323
 30
0.0
 10
1.437818897637795
 20
0.8405708661417323
 30
0.0
 10
1.437818897637795
 20
0.8405708661417323
 30
0.0
 10
1.308582677165354
 20
0.9517204724409449
 30
0.0
 10
1.062153543307087
 20
1.017484251968504
 30
0.0
 10
0.9697204724409448
 20
0.8172362204724409
 30
0.0
 10
0.9697204724409448
 20
0.8172362204724409
 30
0.0
 10
1.052220472440945
 20
0.8100551181102362
 30
0.0
 10
1.04759842519685
 20
0.8343188976377953
 30
0.0
 10
1.10259842519685
 20
0.8565551181102362
 30
0.0
  0
SPLINE
  5
A7
330
1F
100
AcDbEntity
  8
Layer 1
 62
     1
370
     9
100
AcDbSpline
210
0.0
220
0.0
230
1.0
 70
    11
 71
     3
 72
    20
 73
    16
 74
     0
 42
0.000000001
 43
0.0000000001
 40
0.0
 40
0.0
 40
0.0
 40
0.0
 40
0.2
 40
0.2
 40
0.2
 40
0.2
 40
0.4
 40
0.4
 40
0.4
 40
0.4
 40
0.6
 40
0.6
 40
0.6
 40
0.6
 40
1.0
 40
1.0
 40
1.0
 40
1.0
 10
-1.026165354330709
 20
1.350472440944882
 30
0.0
 10
-1.009263779527559
 20
1.326055118110236
 30
0.0
 10
-0.9850708661417323
 20
1.298846456692913
 30
0.0
 10
-0.9541259842519685
 20
1.29403937007874
 30
0.0
 10
-0.9541259842519685
 20
1.29403937007874
 30
0.0
 10
-0.9723740157480315
 20
1.317708661417323
 30
0.0
 10
-0.9969173228346456
 20
1.316291338582677
 30
0.0
 10
-0.9939015748031496
 20
1.359527559055118
 30
0.0
 10
-0.9939015748031496
 20
1.359527559055118
 30
0.0
 10
-0.9908070866141733
 20
1.403956692913386
 30
0.0
 10
-0.9707362204724409
 20
1.383275590551181
 30
0.0
 10
-0.9512795275590551
 20
1.407208661417323
 30
0.0
 10
-0.9512795275590551
 20
1.407208661417323
 30
0.0
 10
-0.8728740157480315
 20
1.503570866141732
 30
0.0
 10
-1.148984251968504
 20
1.527917322834646
 30
0.0
 10
-1.026165354330709
 20
1.350472440944882
 30
0.0
  0
SPLINE
  5
A8
330
1F
100
AcDbEntity
  8
Layer 1
 62
     1
370
     9
100
AcDbSpline
210
0.0
220
0.0
230
1.0
 70
    11
 71
     3
 72
    20
 73
    16
 74
     0
 42
0.000000001
 43
0.0000000001
 40
0.0
 40
0.0
 40
0.0
 40
0.0
 40
0.2
 40
0.2
 40
0.2
 40
0.2
 40
0.4
 40
0.4
 40
0.4
 40
0.4
 40
0.6
 40
0.6
 40
0.6
 40
0.6
 40
1.0
 40
1.0
 40
1.0
 40
1.0
 10
1.552555118110236
 20
1.635181102362205
 30
0.0
 10
1.537251968503937
 20
1.73590157480315
 30
0.0
 10
1.434515748031496
 20
1.821318897637795
 30
0.0
 10
1.385070866141732
 20
1.784220472440945
 30
0.0
 10
1.385070866141732
 20
1.784220472440945
 30
0.0
 10
1.358043307086614
 20
1.763944881889764
 30
0.0
 10
1.381070866141732
 20
1.745807086614173
 30
0.0
 10
1.409527559055118
 20
1.741917322834646
 30
0.0
 10
1.409527559055118
 20
1.741917322834646
 30
0.0
 10
1.435417322834646
 20
1.738374015748031
 30
0.0
 10
1.451874015748031
 20
1.734248031496063
 30
0.0
 10
1.472082677165354
 20
1.722055118110236
 30
0.0
 10
1.472082677165354
 20
1.722055118110236
 30
0.0
 10
1.516984251968504
 20
1.694944881889764
 30
0.0
 10
1.53113779527559
 20
1.656834645669291
 30
0.0
 10
1.552555118110236
 20
1.635181102362205
 30
0.0
  0
SPLINE
  5
A9
330
1F
100
AcDbEntity
  8
Layer 1
 62
     1
370
     9
100
AcDbSpline
210
0.0
220
0.0
230
1.0
 70
    11
 71
     3
 72
    32
 73
    28
 74
     0
 42
0.000000001
 43
0.0000000001
 40
0.0
 40
0.0
 40
0.0
 40
0.0
 40
0.125
 40
0.125
 40
0.125
 40
0.125
 40
0.25
 40
0.25
 40
0.25
 40
0.25
 40
0.375
 40
0.375
 40
0.375
 40
0.375
 40
0.5
 40
0.5
 40
0.5
 40
0.5
 40
0.625
 40
0.625
 40
0.625
 40
0.625
 40
0.75
 40
0.75
 40
0.75
 40
0.75
 40
1.0
 40
1.0
 40
1.0
 40
1.0
 10
0.5043622047244094
 20
0.5414566929133858
 30
0.0
 10
0.5045551181102362
 20
0.4709291338582677
 30
0.0
 10
0.5643464566929134
 20
0.4509173228346457
 30
0.0
 10
0.6330826771653544
 20
0.4533188976377953
 30
0.0
 10
0.6330826771653544
 20
0.4533188976377953
 30
0.0
 10
0.6248622047244095
 20
0.4624448818897638
 30
0.0
 10
0.6051377952755905
 20
0.4765
 30
0.0
 10
0.5953740157480315
 20
0.4854842519685039
 30
0.0
 10
0.5953740157480315
 20
0.4854842519685039
 30
0.0
 10
0.5191653543307087
 20
0.5555551181102362
 30
0.0
 10
0.5041102362204725
 20
0.6543464566929134
 30
0.0
 10
0.5196377952755905
 20
0.756
 30
0.0
 10
0.5196377952755905
 20
0.756
 30
0.0
 10
0.5261377952755906
 20
0.7985826771653544
 30
0.0
 10
0.5432795275590551
 20
0.8366377952755906
 30
0.0
 10
0.5494291338582677
 20
0.8731929133858267
 30
0.0
 10
0.5494291338582677
 20
0.8731929133858267
 30
0.0
 10
0.528
 20
0.8433897637795276
 30
0.0
 10
0.489751968503937
 20
0.750763779527559
 30
0.0
 10
0.4762086614173228
 20
0.7093740157480315
 30
0.0
 10
0.4762086614173228
 20
0.7093740157480315
 30
0.0
 10
0.4640275590551181
 20
0.6721535433070867
 30
0.0
 10
0.4389566929133858
 20
0.5999015748031497
 30
0.0
 10
0.4665984251968504
 20
0.5632755905511811
 30
0.0
 10
0.4665984251968504
 20
0.5632755905511811
 30
0.0
 10
0.4783070866141732
 20
0.5477637795275591
 30
0.0
 10
0.4872795275590551
 20
0.5508346456692913
 30
0.0
 10
0.5043622047244094
 20
0.5414566929133858
 30
0.0
  0
SPLINE
  5
AA
330
1F
100
AcDbEntity
  8
Layer 1
 62
     1
370
     9
100
AcDbSpline
210
0.0
220
0.0
230
1.0
 70
    11
 71
     3
 72
    28
 73
    24
 74
     0
 42
0.000000001
 43
0.0000000001
 40
0.0
 40
0.0
 40
0.0
 40
0.0
 40
0.1428571428571428
 40
0.1428571428571428
 40
0.1428571428571428
 40
0.1428571428571428
 40
0.2857142857142857
 40
0.2857142857142857
 40
0.2857142857142857
 40
0.2857142857142857
 40
0.4285714285714285
 40
0.4285714285714285
 40
0.4285714285714285
 40
0.4285714285714285
 40
0.5714285714285714
 40
0.5714285714285714
 40
0.5714285714285714
 40
0.5714285714285714
 40
0.7142857142857143
 40
0.7142857142857143
 40
0.7142857142857143
 40
0.7142857142857143
 40
1.0
 40
1.0
 40
1.0
 40
1.0
 10
-0.6443897637795276
 20
2.049984251968504
 30
0.0
 10
-0.7252795275590551
 20
2.047956692913386
 30
0.0
 10
-0.7593346456692913
 20
2.059555118110236
 30
0.0
 10
-0.8379015748031496
 20
2.033889763779527
 30
0.0
 10
-0.8379015748031496
 20
2.033889763779527
 30
0.0
 10
-0.8964566929133858
 20
2.014763779527559
 30
0.0
 10
-0.9390984251968504
 20
1.981248031496063
 30
0.0
 10
-0.9691929133858268
 20
1.946511811023622
 30
0.0
 10
-0.9691929133858268
 20
1.946511811023622
 30
0.0
 10
-0.9428188976377953
 20
1.956125984251968
 30
0.0
 10
-0.9092204724409448
 20
1.994456692913386
 30
0.0
 10
-0.8104566929133858
 20
2.000653543307087
 30
0.0
 10
-0.8104566929133858
 20
2.000653543307087
 30
0.0
 10
-0.7098464566929134
 20
2.006956692913386
 30
0.0
 10
-0.6588740157480315
 20
1.980011811023622
 30
0.0
 10
-0.6137362204724409
 20
1.979834645669291
 30
0.0
 10
-0.6137362204724409
 20
1.979834645669291
 30
0.0
 10
-0.5512362204724409
 20
1.979582677165354
 30
0.0
 10
-0.4892913385826771
 20
2.024763779527559
 30
0.0
 10
-0.526515748031496
 20
2.090263779527559
 30
0.0
 10
-0.526515748031496
 20
2.090263779527559
 30
0.0
 10
-0.5515
 20
2.134220472440945
 30
0.0
 10
-0.653515748031496
 20
2.136807086614173
 30
0.0
 10
-0.6443897637795276
 20
2.049984251968504
 30
0.0
  0
SPLINE
  5
AB
330
1F
100
AcDbEntity
  8
Layer 1
 62
     1
370
     9
100
AcDbSpline
210
0.0
220
0.0
230
1.0
 70
    11
 71
     3
 72
    36
 73
    32
 74
     0
 42
0.000000001
 43
0.0000000001
 40
0.0
 40
0.0
 40
0.0
 40
0.0
 40
0.1111111111111111
 40
0.1111111111111111
 40
0.1111111111111111
 40
0.1111111111111111
 40
0.2222222222222222
 40
0.2222222222222222
 40
0.2222222222222222
 40
0.2222222222222222
 40
0.3333333333333333
 40
0.3333333333333333
 40
0.3333333333333333
 40
0.3333333333333333
 40
0.4444444444444444
 40
0.4444444444444444
 40
0.4444444444444444
 40
0.4444444444444444
 40
0.5555555555555556
 40
0.5555555555555556
 40
0.5555555555555556
 40
0.5555555555555556
 40
0.6666666666666666
 40
0.6666666666666666
 40
0.6666666666666666
 40
0.6666666666666666
 40
0.7777777777777778
 40
0.7777777777777778
 40
0.7777777777777778
 40
0.7777777777777778
 40
1.0
 40
1.0
 40
1.0
 40
1.0
 10
1.426043307086614
 20
1.592472440944882
 30
0.0
 10
1.414956692913386
 20
1.585472440944882
 30
0.0
 10
1.402346456692913
 20
1.581984251968504
 30
0.0
 10
1.395779527559055
 20
1.569972440944882
 30
0.0
 10
1.395779527559055
 20
1.569972440944882
 30
0.0
 10
1.388165354330709
 20
1.556027559055118
 30
0.0
 10
1.389665354330709
 20
1.540165354330709
 30
0.0
 10
1.397417322834646
 20
1.527763779527559
 30
0.0
 10
1.397417322834646
 20
1.527763779527559
 30
0.0
 10
1.417570866141732
 20
1.495511811023622
 30
0.0
 10
1.448055118110236
 20
1.517208661417323
 30
0.0
 10
1.482874015748032
 20
1.5195
 30
0.0
 10
1.482874015748032
 20
1.5195
 30
0.0
 10
1.553429133858268
 20
1.524125984251969
 30
0.0
 10
1.591027559055118
 20
1.465889763779528
 30
0.0
 10
1.622444881889764
 20
1.437125984251969
 30
0.0
 10
1.622444881889764
 20
1.437125984251969
 30
0.0
 10
1.618834645669291
 20
1.48459842519685
 30
0.0
 10
1.56159842519685
 20
1.600972440944882
 30
0.0
 10
1.518874015748032
 20
1.638929133858268
 30
0.0
 10
1.518874015748032
 20
1.638929133858268
 30
0.0
 10
1.435389763779528
 20
1.71309842519685
 30
0.0
 10
1.394318897637795
 20
1.662862204724409
 30
0.0
 10
1.344192913385827
 20
1.694318897637795
 30
0.0
 10
1.344192913385827
 20
1.694318897637795
 30
0.0
 10
1.326220472440945
 20
1.70559842519685
 30
0.0
 10
1.317637795275591
 20
1.72303937007874
 30
0.0
 10
1.306582677165354
 20
1.732346456692913
 30
0.0
 10
1.306582677165354
 20
1.732346456692913
 30
0.0
 10
1.299307086614173
 20
1.657807086614173
 30
0.0
 10
1.362708661417323
 20
1.603263779527559
 30
0.0
 10
1.426043307086614
 20
1.592472440944882
 30
0.0
  0
SPLINE
  5
AC
330
1F
100
AcDbEntity
  8
Layer 1
 62
     1
370
     9
100
AcDbSpline
210
0.0
220
0.0
230
1.0
 70
    11
 71
     3
 72
    84
 73
    80
 74
     0
 42
0.000000001
 43
0.0000000001
 40
0.0
 40
0.0
 40
0.0
 40
0.0
 40
0.0476190476190476
 40
0.0476190476190476
 40
0.0476190476190476
 40
0.0476190476190476
 40
0.0952380952380952
 40
0.0952380952380952
 40
0.0952380952380952
 40
0.0952380952380952
 40
0.1428571428571428
 40
0.1428571428571428
 40
0.1428571428571428
 40
0.1428571428571428
 40
0.1904761904761905
 40
0.1904761904761905
 40
0.1904761904761905
 40
0.1904761904761905
 40
0.2380952380952381
 40
0.2380952380952381
 40
0.2380952380952381
 40
0.2380952380952381
 40
0.2857142857142857
 40
0.2857142857142857
 40
0.2857142857142857
 40
0.2857142857142857
 40
0.3333333333333333
 40
0.3333333333333333
 40
0.3333333333333333
 40
0.3333333333333333
 40
0.3809523809523809
 40
0.3809523809523809
 40
0.3809523809523809
 40
0.3809523809523809
 40
0.4285714285714285
 40
0.4285714285714285
 40
0.4285714285714285
 40
0.4285714285714285
 40
0.4761904761904762
 40
0.4761904761904762
 40
0.4761904761904762
 40
0.4761904761904762
 40
0.5238095238095238
 40
0.5238095238095238
 40
0.5238095238095238
 40
0.5238095238095238
 40
0.5714285714285714
 40
0.5714285714285714
 40
0.5714285714285714
 40
0.5714285714285714
 40
0.6190476190476191
 40
0.6190476190476191
 40
0.6190476190476191
 40
0.6190476190476191
 40
0.6666666666666666
 40
0.6666666666666666
 40
0.6666666666666666
 40
0.6666666666666666
 40
0.7142857142857143
 40
0.7142857142857143
 40
0.7142857142857143
 40
0.7142857142857143
 40
0.7619047619047619
 40
0.7619047619047619
 40
0.7619047619047619
 40
0.7619047619047619
 40
0.8095238095238095
 40
0.8095238095238095
 40
0.8095238095238095
 40
0.8095238095238095
 40
0.8571428571428571
 40
0.8571428571428571
 40
0.8571428571428571
 40
0.8571428571428571
 40
0.9047619047619048
 40
0.9047619047619048
 40
0.9047619047619048
 40
0.9047619047619048
 40
1.0
 40
1.0
 40
1.0
 40
1.0
 10
1.763791338582677
 20
-1.689192913385827
 30
0.0
 10
1.763791338582677
 20
-1.689192913385827
 30
0.0
 10
1.877972440944882
 20
-1.689192913385827
 30
0.0
 10
1.877972440944882
 20
-1.689192913385827
 30
0.0
 10
1.877972440944882
 20
-1.689192913385827
 30
0.0
 10
1.877972440944882
 20
-1.689192913385827
 30
0.0
 10
1.877972440944882
 20
-1.807303149606299
 30
0.0
 10
1.877972440944882
 20
-1.807303149606299
 30
0.0
 10
1.877972440944882
 20
-1.807303149606299
 30
0.0
 10
1.877972440944882
 20
-1.807303149606299
 30
0.0
 10
1.763791338582677
 20
-1.807303149606299
 30
0.0
 10
1.763791338582677
 20
-1.807303149606299
 30
0.0
 10
1.763791338582677
 20
-1.807303149606299
 30
0.0
 10
1.763791338582677
 20
-1.807303149606299
 30
0.0
 10
1.763791338582677
 20
-1.945094488188976
 30
0.0
 10
1.763791338582677
 20
-1.945094488188976
 30
0.0
 10
1.763791338582677
 20
-1.945094488188976
 30
0.0
 10
1.763791338582677
 20
-1.945094488188976
 30
0.0
 10
1.192929133858268
 20
-1.945094488188976
 30
0.0
 10
1.192929133858268
 20
-1.945094488188976
 30
0.0
 10
1.192929133858268
 20
-1.945094488188976
 30
0.0
 10
1.192929133858268
 20
-1.945094488188976
 30
0.0
 10
1.192929133858268
 20
-2.058283464566929
 30
0.0
 10
1.192929133858268
 20
-2.058283464566929
 30
0.0
 10
1.192929133858268
 20
-2.058283464566929
 30
0.0
 10
1.192929133858268
 20
-2.058283464566929
 30
0.0
 10
0.7992204724409449
 20
-2.058283464566929
 30
0.0
 10
0.7992204724409449
 20
-2.058283464566929
 30
0.0
 10
0.7992204724409449
 20
-2.058283464566929
 30
0.0
 10
0.7992204724409449
 20
-2.058283464566929
 30
0.0
 10
0.7992204724409449
 20
-1.945094488188976
 30
0.0
 10
0.7992204724409449
 20
-1.945094488188976
 30
0.0
 10
0.7992204724409449
 20
-1.945094488188976
 30
0.0
 10
0.7992204724409449
 20
-1.945094488188976
 30
0.0
 10
-0.5787204724409449
 20
-1.945094488188976
 30
0.0
 10
-0.5787204724409449
 20
-1.945094488188976
 30
0.0
 10
-0.5787204724409449
 20
-1.945094488188976
 30
0.0
 10
-0.5787204724409449
 20
-1.945094488188976
 30
0.0
 10
-0.5787204724409449
 20
-2.058283464566929
 30
0.0
 10
-0.5787204724409449
 20
-2.058283464566929
 30
0.0
 10
-0.5787204724409449
 20
-2.058283464566929
 30
0.0
 10
-0.5787204724409449
 20
-2.058283464566929
 30
0.0
 10
-0.9724291338582677
 20
-2.058283464566929
 30
0.0
 10
-0.9724291338582677
 20
-2.058283464566929
 30
0.0
 10
-0.9724291338582677
 20
-2.058283464566929
 30
0.0
 10
-0.9724291338582677
 20
-2.058283464566929
 30
0.0
 10
-0.9724291338582677
 20
-1.945094488188976
 30
0.0
 10
-0.9724291338582677
 20
-1.945094488188976
 30
0.0
 10
-0.9724291338582677
 20
-1.945094488188976
 30
0.0
 10
-0.9724291338582677
 20
-1.945094488188976
 30
0.0
 10
-1.543291338582677
 20
-1.945094488188976
 30
0.0
 10
-1.543291338582677
 20
-1.945094488188976
 30
0.0
 10
-1.543291338582677
 20
-1.945094488188976
 30
0.0
 10
-1.543291338582677
 20
-1.945094488188976
 30
0.0
 10
-1.543291338582677
 20
-1.807303149606299
 30
0.0
 10
-1.543291338582677
 20
-1.807303149606299
 30
0.0
 10
-1.543291338582677
 20
-1.807303149606299
 30
0.0
 10
-1.543291338582677
 20
-1.807303149606299
 30
0.0
 10
-1.657456692913386
 20
-1.807303149606299
 30
0.0
 10
-1.657456692913386
 20
-1.807303149606299
 30
0.0
 10
-1.657456692913386
 20
-1.807303149606299
 30
0.0
 10
-1.657456692913386
 20
-1.807303149606299
 30
0.0
 10
-1.657456692913386
 20
-1.689192913385827
 30
0.0
 10
-1.657456692913386
 20
-1.689192913385827
 30
0.0
 10
-1.657456692913386
 20
-1.689192913385827
 30
0.0
 10
-1.657456692913386
 20
-1.689192913385827
 30
0.0
 10
-1.543291338582677
 20
-1.689192913385827
 30
0.0
 10
-1.543291338582677
 20
-1.689192913385827
 30
0.0
 10
-1.543291338582677
 20
-1.689192913385827
 30
0.0
 10
-1.543291338582677
 20
-1.689192913385827
 30
0.0
 10
-1.543291338582677
 20
-1.551393700787401
 30
0.0
 10
-1.543291338582677
 20
-1.551393700787401
 30
0.0
 10
-1.543291338582677
 20
-1.551393700787401
 30
0.0
 10
-1.543291338582677
 20
-1.551393700787401
 30
0.0
 10
1.763791338582677
 20
-1.551393700787401
 30
0.0
 10
1.763791338582677
 20
-1.551393700787401
 30
0.0
 10
1.763791338582677
 20
-1.551393700787401
 30
0.0
 10
1.763791338582677
 20
-1.551393700787401
 30
0.0
 10
1.763791338582677
 20
-1.689192913385827
 30
0.0
 10
1.763791338582677
 20
-1.689192913385827
 30
0.0
  0
SPLINE
  5
AD
330
1F
100
AcDbEntity
  8
Layer 1
 62
     1
370
     9
100
AcDbSpline
210
0.0
220
0.0
230
1.0
 70
    11
 71
     3
 72
    84
 73
    80
 74
     0
 42
0.000000001
 43
0.0000000001
 40
0.0
 40
0.0
 40
0.0
 40
0.0
 40
0.0476190476190476
 40
0.0476190476190476
 40
0.0476190476190476
 40
0.0476190476190476
 40
0.0952380952380952
 40
0.0952380952380952
 40
0.0952380952380952
 40
0.0952380952380952
 40
0.1428571428571428
 40
0.1428571428571428
 40
0.1428571428571428
 40
0.1428571428571428
 40
0.1904761904761905
 40
0.1904761904761905
 40
0.1904761904761905
 40
0.1904761904761905
 40
0.2380952380952381
 40
0.2380952380952381
 40
0.2380952380952381
 40
0.2380952380952381
 40
0.2857142857142857
 40
0.2857142857142857
 40
0.2857142857142857
 40
0.2857142857142857
 40
0.3333333333333333
 40
0.3333333333333333
 40
0.3333333333333333
 40
0.3333333333333333
 40
0.3809523809523809
 40
0.3809523809523809
 40
0.3809523809523809
 40
0.3809523809523809
 40
0.4285714285714285
 40
0.4285714285714285
 40
0.4285714285714285
 40
0.4285714285714285
 40
0.4761904761904762
 40
0.4761904761904762
 40
0.4761904761904762
 40
0.4761904761904762
 40
0.5238095238095238
 40
0.5238095238095238
 40
0.5238095238095238
 40
0.5238095238095238
 40
0.5714285714285714
 40
0.5714285714285714
 40
0.5714285714285714
 40
0.5714285714285714
 40
0.6190476190476191
 40
0.6190476190476191
 40
0.6190476190476191
 40
0.6190476190476191
 40
0.6666666666666666
 40
0.6666666666666666
 40
0.6666666666666666
 40
0.6666666666666666
 40
0.7142857142857143
 40
0.7142857142857143
 40
0.7142857142857143
 40
0.7142857142857143
 40
0.7619047619047619
 40
0.7619047619047619
 40
0.7619047619047619
 40
0.7619047619047619
 40
0.8095238095238095
 40
0.8095238095238095
 40
0.8095238095238095
 40
0.8095238095238095
 40
0.8571428571428571
 40
0.8571428571428571
 40
0.8571428571428571
 40
0.8571428571428571
 40
0.9047619047619048
 40
0.9047619047619048
 40
0.9047619047619048
 40
0.9047619047619048
 40
1.0
 40
1.0
 40
1.0
 40
1.0
 10
-0.4953897637795275
 20
-2.69507874015748
 30
0.0
 10
-0.4953897637795275
 20
-2.69507874015748
 30
0.0
 10
-0.4953897637795275
 20
-2.808267716535433
 30
0.0
 10
-0.4953897637795275
 20
-2.808267716535433
 30
0.0
 10
-0.4953897637795275
 20
-2.808267716535433
 30
0.0
 10
-0.4953897637795275
 20
-2.808267716535433
 30
0.0
 10
-0.8890984251968503
 20
-2.808267716535433
 30
0.0
 10
-0.8890984251968503
 20
-2.808267716535433
 30
0.0
 10
-0.8890984251968503
 20
-2.808267716535433
 30
0.0
 10
-0.8890984251968503
 20
-2.808267716535433
 30
0.0
 10
-0.8890984251968503
 20
-2.69507874015748
 30
0.0
 10
-0.8890984251968503
 20
-2.69507874015748
 30
0.0
 10
-0.8890984251968503
 20
-2.69507874015748
 30
0.0
 10
-0.8890984251968503
 20
-2.69507874015748
 30
0.0
 10
-1.578070866141732
 20
-2.69507874015748
 30
0.0
 10
-1.578070866141732
 20
-2.69507874015748
 30
0.0
 10
-1.578070866141732
 20
-2.69507874015748
 30
0.0
 10
-1.578070866141732
 20
-2.69507874015748
 30
0.0
 10
-1.578070866141732
 20
-2.555311023622047
 30
0.0
 10
-1.578070866141732
 20
-2.555311023622047
 30
0.0
 10
-1.578070866141732
 20
-2.555311023622047
 30
0.0
 10
-1.578070866141732
 20
-2.555311023622047
 30
0.0
 10
-1.459956692913386
 20
-2.555311023622047
 30
0.0
 10
-1.459956692913386
 20
-2.555311023622047
 30
0.0
 10
-1.459956692913386
 20
-2.555311023622047
 30
0.0
 10
-1.459956692913386
 20
-2.555311023622047
 30
0.0
 10
-1.459956692913386
 20
-2.441141732283465
 30
0.0
 10
-1.459956692913386
 20
-2.441141732283465
 30
0.0
 10
-1.459956692913386
 20
-2.441141732283465
 30
0.0
 10
-1.459956692913386
 20
-2.441141732283465
 30
0.0
 10
-1.578070866141732
 20
-2.441141732283465
 30
0.0
 10
-1.578070866141732
 20
-2.441141732283465
 30
0.0
 10
-1.578070866141732
 20
-2.441141732283465
 30
0.0
 10
-1.578070866141732
 20
-2.441141732283465
 30
0.0
 10
-1.578070866141732
 20
-2.301377952755906
 30
0.0
 10
-1.578070866141732
 20
-2.301377952755906
 30
0.0
 10
-1.578070866141732
 20
-2.301377952755906
 30
0.0
 10
-1.578070866141732
 20
-2.301377952755906
 30
0.0
 10
1.965236220472441
 20
-2.301377952755906
 30
0.0
 10
1.965236220472441
 20
-2.301377952755906
 30
0.0
 10
1.965236220472441
 20
-2.301377952755906
 30
0.0
 10
1.965236220472441
 20
-2.301377952755906
 30
0.0
 10
1.965236220472441
 20
-2.441141732283465
 30
0.0
 10
1.965236220472441
 20
-2.441141732283465
 30
0.0
 10
1.965236220472441
 20
-2.441141732283465
 30
0.0
 10
1.965236220472441
 20
-2.441141732283465
 30
0.0
 10
1.847125984251969
 20
-2.441141732283465
 30
0.0
 10
1.847125984251969
 20
-2.441141732283465
 30
0.0
 10
1.847125984251969
 20
-2.441141732283465
 30
0.0
 10
1.847125984251969
 20
-2.441141732283465
 30
0.0
 10
1.847125984251969
 20
-2.555311023622047
 30
0.0
 10
1.847125984251969
 20
-2.555311023622047
 30
0.0
 10
1.847125984251969
 20
-2.555311023622047
 30
0.0
 10
1.847125984251969
 20
-2.555311023622047
 30
0.0
 10
1.965236220472441
 20
-2.555311023622047
 30
0.0
 10
1.965236220472441
 20
-2.555311023622047
 30
0.0
 10
1.965236220472441
 20
-2.555311023622047
 30
0.0
 10
1.965236220472441
 20
-2.555311023622047
 30
0.0
 10
1.965236220472441
 20
-2.69507874015748
 30
0.0
 10
1.965236220472441
 20
-2.69507874015748
 30
0.0
 10
1.965236220472441
 20
-2.69507874015748
 30
0.0
 10
1.965236220472441
 20
-2.69507874015748
 30
0.0
 10
1.276263779527559
 20
-2.69507874015748
 30
0.0
 10
1.276263779527559
 20
-2.69507874015748
 30
0.0
 10
1.276263779527559
 20
-2.69507874015748
 30
0.0
 10
1.276263779527559
 20
-2.69507874015748
 30
0.0
 10
1.276263779527559
 20
-2.808267716535433
 30
0.0
 10
1.276263779527559
 20
-2.808267716535433
 30
0.0
 10
1.276263779527559
 20
-2.808267716535433
 30
0.0
 10
1.276263779527559
 20
-2.808267716535433
 30
0.0
 10
0.8825551181102362
 20
-2.808267716535433
 30
0.0
 10
0.8825551181102362
 20
-2.808267716535433
 30
0.0
 10
0.8825551181102362
 20
-2.808267716535433
 30
0.0
 10
0.8825551181102362
 20
-2.808267716535433
 30
0.0
 10
0.8825551181102362
 20
-2.69507874015748
 30
0.0
 10
0.8825551181102362
 20
-2.69507874015748
 30
0.0
 10
0.8825551181102362
 20
-2.69507874015748
 30
0.0
 10
0.8825551181102362
 20
-2.69507874015748
 30
0.0
 10
-0.4953897637795275
 20
-2.69507874015748
 30
0.0
 10
-0.4953897637795275
 20
-2.69507874015748
 30
0.0
  0
SPLINE
  5
AE
330
1F
100
AcDbEntity
  8
Layer 1
 62
     1
370
     9
100
AcDbSpline
210
0.0
220
0.0
230
1.0
 70
    11
 71
     3
 72
   100
 73
    96
 74
     0
 42
0.000000001
 43
0.0000000001
 40
0.0
 40
0.0
 40
0.0
 40
0.0
 40
0.04
 40
0.04
 40
0.04
 40
0.04
 40
0.08
 40
0.08
 40
0.08
 40
0.08
 40
0.12
 40
0.12
 40
0.12
 40
0.12
 40
0.16
 40
0.16
 40
0.16
 40
0.16
 40
0.2
 40
0.2
 40
0.2
 40
0.2
 40
0.24
 40
0.24
 40
0.24
 40
0.24
 40
0.28
 40
0.28
 40
0.28
 40
0.28
 40
0.32
 40
0.32
 40
0.32
 40
0.32
 40
0.36
 40
0.36
 40
0.36
 40
0.36
 40
0.4
 40
0.4
 40
0.4
 40
0.4
 40
0.44
 40
0.44
 40
0.44
 40
0.44
 40
0.48
 40
0.48
 40
0.48
 40
0.48
 40
0.52
 40
0.52
 40
0.52
 40
0.52
 40
0.56
 40
0.56
 40
0.56
 40
0.56
 40
0.6
 40
0.6
 40
0.6
 40
0.6
 40
0.64
 40
0.64
 40
0.64
 40
0.64
 40
0.68
 40
0.68
 40
0.68
 40
0.68
 40
0.72
 40
0.72
 40
0.72
 40
0.72
 40
0.76
 40
0.76
 40
0.76
 40
0.76
 40
0.8
 40
0.8
 40
0.8
 40
0.8
 40
0.84
 40
0.84
 40
0.84
 40
0.84
 40
0.88
 40
0.88
 40
0.88
 40
0.88
 40
0.92
 40
0.92
 40
0.92
 40
0.92
 40
1.0
 40
1.0
 40
1.0
 40
1.0
 10
-2.402110236220472
 20
-1.585177165354331
 30
0.0
 10
-2.402110236220472
 20
-1.585177165354331
 30
0.0
 10
-5.665948818897638
 20
-1.585177165354331
 30
0.0
 10
-5.665948818897638
 20
-1.585177165354331
 30
0.0
 10
-5.665948818897638
 20
-1.585177165354331
 30
0.0
 10
-5.65590157480315
 20
-1.567807086614173
 30
0.0
 10
-5.650141732283465
 20
-1.547633858267716
 30
0.0
 10
-5.650141732283465
 20
-1.52611811023622
 30
0.0
 10
-5.650141732283465
 20
-1.52611811023622
 30
0.0
 10
-5.650141732283465
 20
-1.460889763779528
 30
0.0
 10
-5.703023622047244
 20
-1.408015748031496
 30
0.0
 10
-5.768251968503937
 20
-1.408015748031496
 30
0.0
 10
-5.768251968503937
 20
-1.408015748031496
 30
0.0
 10
-5.833484251968504
 20
-1.408015748031496
 30
0.0
 10
-5.886362204724409
 20
-1.460889763779528
 30
0.0
 10
-5.886362204724409
 20
-1.52611811023622
 30
0.0
 10
-5.886362204724409
 20
-1.52611811023622
 30
0.0
 10
-5.886362204724409
 20
-1.569834645669291
 30
0.0
 10
-5.862610236220473
 20
-1.608007874015748
 30
0.0
 10
-5.827307086614173
 20
-1.628425196850394
 30
0.0
 10
-5.827307086614173
 20
-1.628425196850394
 30
0.0
 10
-5.827307086614173
 20
-1.628425196850394
 30
0.0
 10
-5.827307086614173
 20
-1.746566929133858
 30
0.0
 10
-5.827307086614173
 20
-1.746566929133858
 30
0.0
 10
-5.827307086614173
 20
-1.746566929133858
 30
0.0
 10
-5.827307086614173
 20
-1.746566929133858
 30
0.0
 10
-5.709196850393701
 20
-1.746566929133858
 30
0.0
 10
-5.709196850393701
 20
-1.746566929133858
 30
0.0
 10
-5.709196850393701
 20
-1.746566929133858
 30
0.0
 10
-5.709196850393701
 20
-1.746566929133858
 30
0.0
 10
-5.709196850393701
 20
-1.860736220472441
 30
0.0
 10
-5.709196850393701
 20
-1.860736220472441
 30
0.0
 10
-5.709196850393701
 20
-1.860736220472441
 30
0.0
 10
-5.709196850393701
 20
-1.860736220472441
 30
0.0
 10
-5.827307086614173
 20
-1.860736220472441
 30
0.0
 10
-5.827307086614173
 20
-1.860736220472441
 30
0.0
 10
-5.827307086614173
 20
-1.860736220472441
 30
0.0
 10
-5.827307086614173
 20
-1.860736220472441
 30
0.0
 10
-5.827307086614173
 20
-1.978874015748032
 30
0.0
 10
-5.827307086614173
 20
-1.978874015748032
 30
0.0
 10
-5.827307086614173
 20
-1.978874015748032
 30
0.0
 10
-5.827307086614173
 20
-1.978874015748032
 30
0.0
 10
-5.142267716535433
 20
-1.978874015748032
 30
0.0
 10
-5.142267716535433
 20
-1.978874015748032
 30
0.0
 10
-5.142267716535433
 20
-1.978874015748032
 30
0.0
 10
-5.142267716535433
 20
-1.978874015748032
 30
0.0
 10
-5.142267716535433
 20
-2.093051181102362
 30
0.0
 10
-5.142267716535433
 20
-2.093051181102362
 30
0.0
 10
-5.142267716535433
 20
-2.093051181102362
 30
0.0
 10
-5.142267716535433
 20
-2.093051181102362
 30
0.0
 10
-4.748566929133858
 20
-2.093051181102362
 30
0.0
 10
-4.748566929133858
 20
-2.093051181102362
 30
0.0
 10
-4.748566929133858
 20
-2.093051181102362
 30
0.0
 10
-4.748566929133858
 20
-2.093051181102362
 30
0.0
 10
-4.748566929133858
 20
-1.978874015748032
 30
0.0
 10
-4.748566929133858
 20
-1.978874015748032
 30
0.0
 10
-4.748566929133858
 20
-1.978874015748032
 30
0.0
 10
-4.748566929133858
 20
-1.978874015748032
 30
0.0
 10
-3.370610236220473
 20
-1.978874015748032
 30
0.0
 10
-3.370610236220473
 20
-1.978874015748032
 30
0.0
 10
-3.370610236220473
 20
-1.978874015748032
 30
0.0
 10
-3.370610236220473
 20
-1.978874015748032
 30
0.0
 10
-3.370610236220473
 20
-2.093051181102362
 30
0.0
 10
-3.370610236220473
 20
-2.093051181102362
 30
0.0
 10
-3.370610236220473
 20
-2.093051181102362
 30
0.0
 10
-3.370610236220473
 20
-2.093051181102362
 30
0.0
 10
-2.976917322834645
 20
-2.093051181102362
 30
0.0
 10
-2.976917322834645
 20
-2.093051181102362
 30
0.0
 10
-2.976917322834645
 20
-2.093051181102362
 30
0.0
 10
-2.976917322834645
 20
-2.093051181102362
 30
0.0
 10
-2.976917322834645
 20
-1.978874015748032
 30
0.0
 10
-2.976917322834645
 20
-1.978874015748032
 30
0.0
 10
-2.976917322834645
 20
-1.978874015748032
 30
0.0
 10
-2.976917322834645
 20
-1.978874015748032
 30
0.0
 10
-2.402110236220472
 20
-1.978874015748032
 30
0.0
 10
-2.402110236220472
 20
-1.978874015748032
 30
0.0
 10
-2.402110236220472
 20
-1.978874015748032
 30
0.0
 10
-2.402110236220472
 20
-1.978874015748032
 30
0.0
 10
-2.402110236220472
 20
-1.841082677165354
 30
0.0
 10
-2.402110236220472
 20
-1.841082677165354
 30
0.0
 10
-2.402110236220472
 20
-1.841082677165354
 30
0.0
 10
-2.402110236220472
 20
-1.841082677165354
 30
0.0
 10
-2.287929133858268
 20
-1.841082677165354
 30
0.0
 10
-2.287929133858268
 20
-1.841082677165354
 30
0.0
 10
-2.287929133858268
 20
-1.841082677165354
 30
0.0
 10
-2.287929133858268
 20
-1.841082677165354
 30
0.0
 10
-2.287929133858268
 20
-1.722972440944882
 30
0.0
 10
-2.287929133858268
 20
-1.722972440944882
 30
0.0
 10
-2.287929133858268
 20
-1.722972440944882
 30
0.0
 10
-2.287929133858268
 20
-1.722972440944882
 30
0.0
 10
-2.402110236220472
 20
-1.722972440944882
 30
0.0
 10
-2.402110236220472
 20
-1.722972440944882
 30
0.0
 10
-2.402110236220472
 20
-1.722972440944882
 30
0.0
 10
-2.402110236220472
 20
-1.722972440944882
 30
0.0
 10
-2.402110236220472
 20
-1.585177165354331
 30
0.0
 10
-2.402110236220472
 20
-1.585177165354331
 30
0.0
  0
SPLINE
  5
AF
330
1F
100
AcDbEntity
  8
Layer 1
 62
     1
370
     9
100
AcDbSpline
210
0.0
220
0.0
230
1.0
 70
    11
 71
     3
 72
    20
 73
    16
 74
     0
 42
0.000000001
 43
0.0000000001
 40
0.0
 40
0.0
 40
0.0
 40
0.0
 40
0.2
 40
0.2
 40
0.2
 40
0.2
 40
0.4
 40
0.4
 40
0.4
 40
0.4
 40
0.6
 40
0.6
 40
0.6
 40
0.6
 40
1.0
 40
1.0
 40
1.0
 40
1.0
 10
-5.768251968503937
 20
-1.43753937007874
 30
0.0
 10
-5.81717716535433
 20
-1.43753937007874
 30
0.0
 10
-5.856834645669291
 20
-1.477196850393701
 30
0.0
 10
-5.856834645669291
 20
-1.52611811023622
 30
0.0
 10
-5.856834645669291
 20
-1.52611811023622
 30
0.0
 10
-5.856834645669291
 20
-1.575043307086614
 30
0.0
 10
-5.81717716535433
 20
-1.614704724409449
 30
0.0
 10
-5.768251968503937
 20
-1.614704724409449
 30
0.0
 10
-5.768251968503937
 20
-1.614704724409449
 30
0.0
 10
-5.719326771653543
 20
-1.614704724409449
 30
0.0
 10
-5.679669291338583
 20
-1.575043307086614
 30
0.0
 10
-5.679669291338583
 20
-1.52611811023622
 30
0.0
 10
-5.679669291338583
 20
-1.52611811023622
 30
0.0
 10
-5.679669291338583
 20
-1.477196850393701
 30
0.0
 10
-5.719326771653543
 20
-1.43753937007874
 30
0.0
 10
-5.768251968503937
 20
-1.43753937007874
 30
0.0
  0
SPLINE
  5
B0
330
1F
100
AcDbEntity
  8
Layer 1
 62
     1
370
    18
100
AcDbSpline
210
0.0
220
0.0
230
1.0
 70
    11
 71
     3
 72
    28
 73
    24
 74
     0
 42
0.000000001
 43
0.0000000001
 40
0.0
 40
0.0
 40
0.0
 40
0.0
 40
0.1428571428571428
 40
0.1428571428571428
 40
0.1428571428571428
 40
0.1428571428571428
 40
0.2857142857142857
 40
0.2857142857142857
 40
0.2857142857142857
 40
0.2857142857142857
 40
0.4285714285714285
 40
0.4285714285714285
 40
0.4285714285714285
 40
0.4285714285714285
 40
0.5714285714285714
 40
0.5714285714285714
 40
0.5714285714285714
 40
0.5714285714285714
 40
0.7142857142857143
 40
0.7142857142857143
 40
0.7142857142857143
 40
0.7142857142857143
 40
1.0
 40
1.0
 40
1.0
 40
1.0
 10
4.282263779527559
 20
1.586748031496063
 30
0.0
 10
4.456901574803149
 20
1.911456692913386
 30
0.0
 10
4.631543307086615
 20
2.073818897637795
 30
0.0
 10
4.980818897637795
 20
2.073818897637795
 30
0.0
 10
4.980818897637795
 20
2.073818897637795
 30
0.0
 10
5.366417322834645
 20
2.073818897637795
 30
0.0
 10
5.679362204724409
 20
1.782889763779528
 30
0.0
 10
5.679362204724409
 20
1.42440157480315
 30
0.0
 10
5.679362204724409
 20
1.42440157480315
 30
0.0
 10
5.679362204724409
 20
0.774984251968504
 30
0.0
 10
4.980818897637795
 20
0.1255708661417323
 30
0.0
 10
4.282263779527559
 20
-0.5238346456692914
 30
0.0
 10
4.282263779527559
 20
-0.5238346456692914
 30
0.0
 10
3.583708661417323
 20
0.1255708661417323
 30
0.0
 10
2.885165354330709
 20
0.774984251968504
 30
0.0
 10
2.885165354330709
 20
1.42440157480315
 30
0.0
 10
2.885165354330709
 20
1.42440157480315
 30
0.0
 10
2.885165354330709
 20
1.782889763779528
 30
0.0
 10
3.198110236220472
 20
2.073818897637795
 30
0.0
 10
3.583708661417323
 20
2.073818897637795
 30
0.0
 10
3.583708661417323
 20
2.073818897637795
 30
0.0
 10
3.932984251968504
 20
2.073818897637795
 30
0.0
 10
4.107637795275591
 20
1.911456692913386
 30
0.0
 10
4.282263779527559
 20
1.586748031496063
 30
0.0
  0
SPLINE
  5
B1
330
1F
100
AcDbEntity
  8
Layer 1
 62
     1
370
     9
100
AcDbSpline
210
0.0
220
0.0
230
1.0
 70
    11
 71
     3
 72
    20
 73
    16
 74
     0
 42
0.000000001
 43
0.0000000001
 40
0.0
 40
0.0
 40
0.0
 40
0.0
 40
0.2
 40
0.2
 40
0.2
 40
0.2
 40
0.4
 40
0.4
 40
0.4
 40
0.4
 40
0.6
 40
0.6
 40
0.6
 40
0.6
 40
1.0
 40
1.0
 40
1.0
 40
1.0
 10
2.628720472440945
 20
-0.8785551181102362
 30
0.0
 10
2.628720472440945
 20
-0.8785551181102362
 30
0.0
 10
5.935807086614173
 20
-0.8785551181102362
 30
0.0
 10
5.935807086614173
 20
-0.8785551181102362
 30
0.0
 10
5.935807086614173
 20
-0.8785551181102362
 30
0.0
 10
5.935807086614173
 20
-0.8785551181102362
 30
0.0
 10
5.935807086614173
 20
2.42853937007874
 30
0.0
 10
5.935807086614173
 20
2.42853937007874
 30
0.0
 10
5.935807086614173
 20
2.42853937007874
 30
0.0
 10
5.935807086614173
 20
2.42853937007874
 30
0.0
 10
2.628720472440945
 20
2.42853937007874
 30
0.0
 10
2.628720472440945
 20
2.42853937007874
 30
0.0
 10
2.628720472440945
 20
2.42853937007874
 30
0.0
 10
2.628720472440945
 20
2.42853937007874
 30
0.0
 10
2.628720472440945
 20
-0.8785551181102362
 30
0.0
 10
2.628720472440945
 20
-0.8785551181102362
 30
0.0
  0
SPLINE
  5
B2
330
1F
100
AcDbEntity
  8
Layer 1
 62
     1
370
     9
100
AcDbSpline
210
0.0
220
0.0
230
1.0
 70
    11
 71
     3
 72
   100
 73
    96
 74
     0
 42
0.000000001
 43
0.0000000001
 40
0.0
 40
0.0
 40
0.0
 40
0.0
 40
0.04
 40
0.04
 40
0.04
 40
0.04
 40
0.08
 40
0.08
 40
0.08
 40
0.08
 40
0.12
 40
0.12
 40
0.12
 40
0.12
 40
0.16
 40
0.16
 40
0.16
 40
0.16
 40
0.2
 40
0.2
 40
0.2
 40
0.2
 40
0.24
 40
0.24
 40
0.24
 40
0.24
 40
0.28
 40
0.28
 40
0.28
 40
0.28
 40
0.32
 40
0.32
 40
0.32
 40
0.32
 40
0.36
 40
0.36
 40
0.36
 40
0.36
 40
0.4
 40
0.4
 40
0.4
 40
0.4
 40
0.44
 40
0.44
 40
0.44
 40
0.44
 40
0.48
 40
0.48
 40
0.48
 40
0.48
 40
0.52
 40
0.52
 40
0.52
 40
0.52
 40
0.56
 40
0.56
 40
0.56
 40
0.56
 40
0.6
 40
0.6
 40
0.6
 40
0.6
 40
0.64
 40
0.64
 40
0.64
 40
0.64
 40
0.68
 40
0.68
 40
0.68
 40
0.68
 40
0.72
 40
0.72
 40
0.72
 40
0.72
 40
0.76
 40
0.76
 40
0.76
 40
0.76
 40
0.8
 40
0.8
 40
0.8
 40
0.8
 40
0.84
 40
0.84
 40
0.84
 40
0.84
 40
0.88
 40
0.88
 40
0.88
 40
0.88
 40
0.92
 40
0.92
 40
0.92
 40
0.92
 40
1.0
 40
1.0
 40
1.0
 40
1.0
 10
-5.70551968503937
 20
-2.285177165354331
 30
0.0
 10
-5.70551968503937
 20
-2.285177165354331
 30
0.0
 10
-2.441681102362205
 20
-2.285177165354331
 30
0.0
 10
-2.441681102362205
 20
-2.285177165354331
 30
0.0
 10
-2.441681102362205
 20
-2.285177165354331
 30
0.0
 10
-2.451720472440945
 20
-2.267811023622047
 30
0.0
 10
-2.457484251968504
 20
-2.247641732283465
 30
0.0
 10
-2.457484251968504
 20
-2.226125984251969
 30
0.0
 10
-2.457484251968504
 20
-2.226125984251969
 30
0.0
 10
-2.457484251968504
 20
-2.160889763779528
 30
0.0
 10
-2.404610236220472
 20
-2.108015748031496
 30
0.0
 10
-2.339374015748032
 20
-2.108015748031496
 30
0.0
 10
-2.339374015748032
 20
-2.108015748031496
 30
0.0
 10
-2.27413779527559
 20
-2.108015748031496
 30
0.0
 10
-2.221263779527559
 20
-2.160889763779528
 30
0.0
 10
-2.221263779527559
 20
-2.226125984251969
 30
0.0
 10
-2.221263779527559
 20
-2.226125984251969
 30
0.0
 10
-2.221263779527559
 20
-2.26984251968504
 30
0.0
 10
-2.245015748031496
 20
-2.308007874015748
 30
0.0
 10
-2.280318897637795
 20
-2.328429133858268
 30
0.0
 10
-2.280318897637795
 20
-2.328429133858268
 30
0.0
 10
-2.280318897637795
 20
-2.328429133858268
 30
0.0
 10
-2.280318897637795
 20
-2.446570866141732
 30
0.0
 10
-2.280318897637795
 20
-2.446570866141732
 30
0.0
 10
-2.280318897637795
 20
-2.446570866141732
 30
0.0
 10
-2.280318897637795
 20
-2.446570866141732
 30
0.0
 10
-2.398429133858268
 20
-2.446570866141732
 30
0.0
 10
-2.398429133858268
 20
-2.446570866141732
 30
0.0
 10
-2.398429133858268
 20
-2.446570866141732
 30
0.0
 10
-2.398429133858268
 20
-2.446570866141732
 30
0.0
 10
-2.398429133858268
 20
-2.560740157480315
 30
0.0
 10
-2.398429133858268
 20
-2.560740157480315
 30
0.0
 10
-2.398429133858268
 20
-2.560740157480315
 30
0.0
 10
-2.398429133858268
 20
-2.560740157480315
 30
0.0
 10
-2.280318897637795
 20
-2.560740157480315
 30
0.0
 10
-2.280318897637795
 20
-2.560740157480315
 30
0.0
 10
-2.280318897637795
 20
-2.560740157480315
 30
0.0
 10
-2.280318897637795
 20
-2.560740157480315
 30
0.0
 10
-2.280318897637795
 20
-2.678877952755906
 30
0.0
 10
-2.280318897637795
 20
-2.678877952755906
 30
0.0
 10
-2.280318897637795
 20
-2.678877952755906
 30
0.0
 10
-2.280318897637795
 20
-2.678877952755906
 30
0.0
 10
-2.965362204724409
 20
-2.678877952755906
 30
0.0
 10
-2.965362204724409
 20
-2.678877952755906
 30
0.0
 10
-2.965362204724409
 20
-2.678877952755906
 30
0.0
 10
-2.965362204724409
 20
-2.678877952755906
 30
0.0
 10
-2.965362204724409
 20
-2.793055118110236
 30
0.0
 10
-2.965362204724409
 20
-2.793055118110236
 30
0.0
 10
-2.965362204724409
 20
-2.793055118110236
 30
0.0
 10
-2.965362204724409
 20
-2.793055118110236
 30
0.0
 10
-3.359055118110236
 20
-2.793055118110236
 30
0.0
 10
-3.359055118110236
 20
-2.793055118110236
 30
0.0
 10
-3.359055118110236
 20
-2.793055118110236
 30
0.0
 10
-3.359055118110236
 20
-2.793055118110236
 30
0.0
 10
-3.359055118110236
 20
-2.678877952755906
 30
0.0
 10
-3.359055118110236
 20
-2.678877952755906
 30
0.0
 10
-3.359055118110236
 20
-2.678877952755906
 30
0.0
 10
-3.359055118110236
 20
-2.678877952755906
 30
0.0
 10
-4.737015748031496
 20
-2.678877952755906
 30
0.0
 10
-4.737015748031496
 20
-2.678877952755906
 30
0.0
 10
-4.737015748031496
 20
-2.678877952755906
 30
0.0
 10
-4.737015748031496
 20
-2.678877952755906
 30
0.0
 10
-4.737015748031496
 20
-2.793055118110236
 30
0.0
 10
-4.737015748031496
 20
-2.793055118110236
 30
0.0
 10
-4.737015748031496
 20
-2.793055118110236
 30
0.0
 10
-4.737015748031496
 20
-2.793055118110236
 30
0.0
 10
-5.130716535433071
 20
-2.793055118110236
 30
0.0
 10
-5.130716535433071
 20
-2.793055118110236
 30
0.0
 10
-5.130716535433071
 20
-2.793055118110236
 30
0.0
 10
-5.130716535433071
 20
-2.793055118110236
 30
0.0
 10
-5.130716535433071
 20
-2.678877952755906
 30
0.0
 10
-5.130716535433071
 20
-2.678877952755906
 30
0.0
 10
-5.130716535433071
 20
-2.678877952755906
 30
0.0
 10
-5.130716535433071
 20
-2.678877952755906
 30
0.0
 10
-5.70551968503937
 20
-2.678877952755906
 30
0.0
 10
-5.70551968503937
 20
-2.678877952755906
 30
0.0
 10
-5.70551968503937
 20
-2.678877952755906
 30
0.0
 10
-5.70551968503937
 20
-2.678877952755906
 30
0.0
 10
-5.70551968503937
 20
-2.541086614173228
 30
0.0
 10
-5.70551968503937
 20
-2.541086614173228
 30
0.0
 10
-5.70551968503937
 20
-2.541086614173228
 30
0.0
 10
-5.70551968503937
 20
-2.541086614173228
 30
0.0
 10
-5.819692913385826
 20
-2.541086614173228
 30
0.0
 10
-5.819692913385826
 20
-2.541086614173228
 30
0.0
 10
-5.819692913385826
 20
-2.541086614173228
 30
0.0
 10
-5.819692913385826
 20
-2.541086614173228
 30
0.0
 10
-5.819692913385826
 20
-2.422976377952756
 30
0.0
 10
-5.819692913385826
 20
-2.422976377952756
 30
0.0
 10
-5.819692913385826
 20
-2.422976377952756
 30
0.0
 10
-5.819692913385826
 20
-2.422976377952756
 30
0.0
 10
-5.70551968503937
 20
-2.422976377952756
 30
0.0
 10
-5.70551968503937
 20
-2.422976377952756
 30
0.0
 10
-5.70551968503937
 20
-2.422976377952756
 30
0.0
 10
-5.70551968503937
 20
-2.422976377952756
 30
0.0
 10
-5.70551968503937
 20
-2.285177165354331
 30
0.0
 10
-5.70551968503937
 20
-2.285177165354331
 30
0.0
  0
SPLINE
  5
B3
330
1F
100
AcDbEntity
  8
Layer 1
 62
     1
370
     9
100
AcDbSpline
210
0.0
220
0.0
230
1.0
 70
    11
 71
     3
 72
    20
 73
    16
 74
     0
 42
0.000000001
 43
0.0000000001
 40
0.0
 40
0.0
 40
0.0
 40
0.0
 40
0.2
 40
0.2
 40
0.2
 40
0.2
 40
0.4
 40
0.4
 40
0.4
 40
0.4
 40
0.6
 40
0.6
 40
0.6
 40
0.6
 40
1.0
 40
1.0
 40
1.0
 40
1.0
 10
-2.339374015748032
 20
-2.137543307086614
 30
0.0
 10
-2.290444881889764
 20
-2.137543307086614
 30
0.0
 10
-2.250791338582677
 20
-2.177196850393701
 30
0.0
 10
-2.250791338582677
 20
-2.226125984251969
 30
0.0
 10
-2.250791338582677
 20
-2.226125984251969
 30
0.0
 10
-2.250791338582677
 20
-2.275047244094488
 30
0.0
 10
-2.290444881889764
 20
-2.314708661417323
 30
0.0
 10
-2.339374015748032
 20
-2.314708661417323
 30
0.0
 10
-2.339374015748032
 20
-2.314708661417323
 30
0.0
 10
-2.388307086614173
 20
-2.314708661417323
 30
0.0
 10
-2.427956692913386
 20
-2.275047244094488
 30
0.0
 10
-2.427956692913386
 20
-2.226125984251969
 30
0.0
 10
-2.427956692913386
 20
-2.226125984251969
 30
0.0
 10
-2.427956692913386
 20
-2.177196850393701
 30
0.0
 10
-2.388307086614173
 20
-2.137543307086614
 30
0.0
 10
-2.339374015748032
 20
-2.137543307086614
 30
0.0
  0
SPLINE
  5
B4
330
1F
100
AcDbEntity
  8
Layer 1
 62
     1
370
     9
100
AcDbSpline
210
0.0
220
0.0
230
1.0
 70
    11
 71
     3
 72
    60
 73
    56
 74
     0
 42
0.000000001
 43
0.0000000001
 40
0.0
 40
0.0
 40
0.0
 40
0.0
 40
0.0666666666666667
 40
0.0666666666666667
 40
0.0666666666666667
 40
0.0666666666666667
 40
0.1333333333333333
 40
0.1333333333333333
 40
0.1333333333333333
 40
0.1333333333333333
 40
0.2
 40
0.2
 40
0.2
 40
0.2
 40
0.2666666666666667
 40
0.2666666666666667
 40
0.2666666666666667
 40
0.2666666666666667
 40
0.3333333333333333
 40
0.3333333333333333
 40
0.3333333333333333
 40
0.3333333333333333
 40
0.4
 40
0.4
 40
0.4
 40
0.4
 40
0.4666666666666667
 40
0.4666666666666667
 40
0.4666666666666667
 40
0.4666666666666667
 40
0.5333333333333333
 40
0.5333333333333333
 40
0.5333333333333333
 40
0.5333333333333333
 40
0.6
 40
0.6
 40
0.6
 40
0.6
 40
0.6666666666666666
 40
0.6666666666666666
 40
0.6666666666666666
 40
0.6666666666666666
 40
0.7333333333333333
 40
0.7333333333333333
 40
0.7333333333333333
 40
0.7333333333333333
 40
0.8
 40
0.8
 40
0.8
 40
0.8
 40
0.8666666666666667
 40
0.8666666666666667
 40
0.8666666666666667
 40
0.8666666666666667
 40
1.0
 40
1.0
 40
1.0
 40
1.0
 10
-1.732681102362205
 20
2.463736220472441
 30
0.0
 10
-1.732681102362205
 20
2.463736220472441
 30
0.0
 10
-1.455582677165354
 20
2.463736220472441
 30
0.0
 10
-1.455582677165354
 20
2.463736220472441
 30
0.0
 10
-1.455582677165354
 20
2.463736220472441
 30
0.0
 10
-1.455582677165354
 20
2.463736220472441
 30
0.0
 10
-1.455582677165354
 20
2.545027559055118
 30
0.0
 10
-1.455582677165354
 20
2.545027559055118
 30
0.0
 10
-1.455582677165354
 20
2.545027559055118
 30
0.0
 10
-1.455582677165354
 20
2.545027559055118
 30
0.0
 10
-1.573692913385827
 20
2.545027559055118
 30
0.0
 10
-1.573692913385827
 20
2.545027559055118
 30
0.0
 10
-1.573692913385827
 20
2.545027559055118
 30
0.0
 10
-1.573692913385827
 20
2.545027559055118
 30
0.0
 10
-1.573692913385827
 20
2.659208661417323
 30
0.0
 10
-1.573692913385827
 20
2.659208661417323
 30
0.0
 10
-1.573692913385827
 20
2.659208661417323
 30
0.0
 10
-1.573692913385827
 20
2.659208661417323
 30
0.0
 10
1.969610236220472
 20
2.659208661417323
 30
0.0
 10
1.969610236220472
 20
2.659208661417323
 30
0.0
 10
1.969610236220472
 20
2.659208661417323
 30
0.0
 10
1.969610236220472
 20
2.659208661417323
 30
0.0
 10
1.969610236220472
 20
2.545027559055118
 30
0.0
 10
1.969610236220472
 20
2.545027559055118
 30
0.0
 10
1.969610236220472
 20
2.545027559055118
 30
0.0
 10
1.969610236220472
 20
2.545027559055118
 30
0.0
 10
1.8515
 20
2.545027559055118
 30
0.0
 10
1.8515
 20
2.545027559055118
 30
0.0
 10
1.8515
 20
2.545027559055118
 30
0.0
 10
1.8515
 20
2.545027559055118
 30
0.0
 10
1.8515
 20
2.463736220472441
 30
0.0
 10
1.8515
 20
2.463736220472441
 30
0.0
 10
1.8515
 20
2.463736220472441
 30
0.0
 10
1.8515
 20
2.463736220472441
 30
0.0
 10
2.12559842519685
 20
2.463736220472441
 30
0.0
 10
2.12559842519685
 20
2.463736220472441
 30
0.0
 10
2.12559842519685
 20
2.463736220472441
 30
0.0
 10
2.12559842519685
 20
2.463736220472441
 30
0.0
 10
2.12559842519685
 20
-0.8455275590551181
 30
0.0
 10
2.12559842519685
 20
-0.8455275590551181
 30
0.0
 10
2.12559842519685
 20
-0.8455275590551181
 30
0.0
 10
2.12559842519685
 20
-0.9525984251968503
 30
0.0
 10
2.038
 20
-1.040192913385827
 30
0.0
 10
1.930929133858268
 20
-1.040192913385827
 30
0.0
 10
1.930929133858268
 20
-1.040192913385827
 30
0.0
 10
1.930929133858268
 20
-1.040192913385827
 30
0.0
 10
-1.538015748031496
 20
-1.040192913385827
 30
0.0
 10
-1.538015748031496
 20
-1.040192913385827
 30
0.0
 10
-1.538015748031496
 20
-1.040192913385827
 30
0.0
 10
-1.645082677165354
 20
-1.040192913385827
 30
0.0
 10
-1.732681102362205
 20
-0.9525984251968503
 30
0.0
 10
-1.732681102362205
 20
-0.8455275590551181
 30
0.0
 10
-1.732681102362205
 20
-0.8455275590551181
 30
0.0
 10
-1.732681102362205
 20
-0.8455275590551181
 30
0.0
 10
-1.732681102362205
 20
2.463736220472441
 30
0.0
 10
-1.732681102362205
 20
2.463736220472441
 30
0.0
  0
ENDSEC
  0
SECTION
  2
OBJECTS
  0
DICTIONARY
  5
C
330
0
100
AcDbDictionary
281
     1
  3
ACAD_DETAILVIEWSTYLE
350
F0
  3
ACAD_GROUP
350
D
  3
ACAD_LAYOUT
350
1A
  3
ACAD_MATERIAL
350
43
  3
ACAD_MLEADERSTYLE
350
6B
  3
ACAD_MLINESTYLE
350
17
  3
ACAD_PLOTSETTINGS
350
19
  3
ACAD_PLOTSTYLENAME
350
E
  3
ACAD_SCALELIST
350
47
  3
ACAD_SECTIONVIEWSTYLE
350
F1
  3
ACAD_TABLESTYLE
350
69
  3
ACAD_VISUALSTYLE
350
2A
  3
ACDB_RECOMPOSE_DATA
350
ED
  3
AcDbVariableDictionary
350
B5
  0
SUN
  5
6D
330
29
100
AcDbSun
 90
        1
290
     0
 63
     7
421
 16777215
 40
1.0
291
     1
 91
  2455826
 92
 54000000
292
     0
 70
     2
 71
   256
280
     1
  0
DICTIONARY
  5
F0
102
{ACAD_REACTORS
330
C
102
}
330
C
100
AcDbDictionary
281
     1
  0
DICTIONARY
  5
D
102
{ACAD_REACTORS
330
C
102
}
330
C
100
AcDbDictionary
281
     1
  0
DICTIONARY
  5
1A
102
{ACAD_REACTORS
330
C
102
}
330
C
100
AcDbDictionary
281
     1
  3
Layout1
350
1E
  3
Layout2
350
26
  3
Model
350
22
  0
DICTIONARY
  5
43
102
{ACAD_REACTORS
330
C
102
}
330
C
100
AcDbDictionary
281
     1
  3
ByBlock
350
45
  3
ByLayer
350
44
  3
Global
350
46
  0
DICTIONARY
  5
6B
102
{ACAD_REACTORS
330
C
102
}
330
C
100
AcDbDictionary
281
     1
  3
Standard
350
6C
  0
DICTIONARY
  5
17
102
{ACAD_REACTORS
330
C
102
}
330
C
100
AcDbDictionary
281
     1
  3
Standard
350
18
  0
DICTIONARY
  5
19
102
{ACAD_REACTORS
330
C
102
}
330
C
100
AcDbDictionary
281
     1
  0
ACDBDICTIONARYWDFLT
  5
E
102
{ACAD_REACTORS
330
C
102
}
330
C
100
AcDbDictionary
281
     1
  3
Normal
350
F
100
AcDbDictionaryWithDefault
340
F
  0
DICTIONARY
  5
47
102
{ACAD_REACTORS
330
C
102
}
330
C
100
AcDbDictionary
281
     1
  3
A0
350
48
  3
A1
350
49
  3
A2
350
4A
  3
A3
350
4B
  3
A4
350
4C
  3
A5
350
4D
  3
A6
350
4E
  3
A7
350
4F
  3
A8
350
50
  3
A9
350
51
  3
B0
350
52
  3
B1
350
53
  3
B2
350
54
  3
B3
350
55
  3
B4
350
56
  3
B5
350
57
  3
B6
350
58
  3
B7
350
59
  3
B8
350
5A
  3
B9
350
5B
  3
C0
350
5C
  3
C1
350
5D
  3
C2
350
5E
  3
C3
350
5F
  3
C4
350
60
  3
C5
350
61
  3
C6
350
62
  3
C7
350
63
  3
C8
350
64
  3
C9
350
65
  3
D0
350
66
  3
D1
350
67
  3
D2
350
68
  0
DICTIONARY
  5
F1
102
{ACAD_REACTORS
330
C
102
}
330
C
100
AcDbDictionary
281
     1
  0
DICTIONARY
  5
69
102
{ACAD_REACTORS
330
C
102
}
330
C
100
AcDbDictionary
281
     1
  3
Standard
350
6A
  0
DICTIONARY
  5
2A
102
{ACAD_REACTORS
330
C
102
}
330
C
100
AcDbDictionary
281
     1
  3
2dWireframe
350
2F
  3
Basic
350
32
  3
Brighten
350
36
  3
ColorChange
350
3A
  3
Conceptual
350
34
  3
Dim
350
35
  3
EdgeColorOff
350
3D
  3
Facepattern
350
39
  3
Flat
350
2B
  3
FlatWithEdges
350
2C
  3
Gouraud
350
2D
  3
GouraudWithEdges
350
2E
  3
Hidden
350
31
  3
JitterOff
350
3B
  3
Linepattern
350
38
  3
OverhangOff
350
3C
  3
Realistic
350
33
  3
Shaded
350
42
  3
Shaded with edges
350
41
  3
Shades of Gray
350
3E
  3
Sketchy
350
3F
  3
Thicken
350
37
  3
Wireframe
350
30
  3
X-Ray
350
40
  0
XRECORD
  5
ED
102
{ACAD_REACTORS
330
C
102
}
330
C
100
AcDbXrecord
280
     1
 90
        1
330
6A
  0
DICTIONARY
  5
B5
102
{ACAD_REACTORS
330
C
102
}
330
C
100
AcDbDictionary
281
     1
  3
CANNOSCALE
350
B6
  3
CMLEADERSTYLE
350
EF
  3
CTABLESTYLE
350
EE
  3
XCLIPFRAME
350
B7
  0
LAYOUT
  5
1E
102
{ACAD_REACTORS
330
1A
102
}
330
1A
100
AcDbPlotSettings
  1

  2
none_device
  4

  6

 40
0.0
 41
0.0
 42
0.0
 43
0.0
 44
0.0
 45
0.0
 46
0.0
 47
0.0
 48
0.0
 49
0.0
140
0.0
141
0.0
142
1.0
143
1.0
 70
   688
 72
     0
 73
     0
 74
     5
  7

 75
    16
 76
     0
 77
     2
 78
   300
147
1.0
148
0.0
149
0.0
100
AcDbLayout
  1
Layout1
 70
     1
 71
     1
 10
0.0
 20
0.0
 11
12.0
 21
9.0
 12
0.0
 22
0.0
 32
0.0
 14
1.000000000000000E+20
 24
1.000000000000000E+20
 34
1.000000000000000E+20
 15
-1.000000000000000E+20
 25
-1.000000000000000E+20
 35
-1.000000000000000E+20
146
0.0
 13
0.0
 23
0.0
 33
0.0
 16
1.0
 26
0.0
 36
0.0
 17
0.0
 27
1.0
 37
0.0
 76
     0
330
1B
  0
LAYOUT
  5
26
102
{ACAD_REACTORS
330
1A
102
}
330
1A
100
AcDbPlotSettings
  1

  2
none_device
  4

  6

 40
0.0
 41
0.0
 42
0.0
 43
0.0
 44
0.0
 45
0.0
 46
0.0
 47
0.0
 48
0.0
 49
0.0
140
0.0
141
0.0
142
1.0
143
1.0
 70
   688
 72
     0
 73
     0
 74
     5
  7

 75
    16
 76
     0
 77
     2
 78
   300
147
1.0
148
0.0
149
0.0
100
AcDbLayout
  1
Layout2
 70
     1
 71
     2
 10
0.0
 20
0.0
 11
0.0
 21
0.0
 12
0.0
 22
0.0
 32
0.0
 14
0.0
 24
0.0
 34
0.0
 15
0.0
 25
0.0
 35
0.0
146
0.0
 13
0.0
 23
0.0
 33
0.0
 16
1.0
 26
0.0
 36
0.0
 17
0.0
 27
1.0
 37
0.0
 76
     0
330
23
  0
LAYOUT
  5
22
102
{ACAD_REACTORS
330
1A
102
}
330
1A
100
AcDbPlotSettings
  1

  2
none_device
  4
Letter_(8.50_x_11.00_Inches)
  6

 40
6.35
 41
6.35
 42
6.35000508
 43
6.35000508
 44
215.9
 45
279.4
 46
0.0
 47
0.0
 48
0.0
 49
0.0
140
0.0
141
0.0
142
1.0
143
1.0
 70
  1712
 72
     0
 73
     0
 74
     0
  7

 75
     0
 76
     0
 77
     2
 78
   300
147
1.0
148
0.0
149
0.0
100
AcDbLayout
  1
Model
 70
     1
 71
     0
 10
0.0
 20
0.0
 11
12.0
 21
9.0
 12
0.0
 22
0.0
 32
0.0
 14
-5.927724409448819
 24
-2.809767716535433
 34
0.0
 15
5.937307086614173
 25
2.805917322834646
 35
0.0
146
0.0
 13
0.0
 23
0.0
 33
0.0
 16
1.0
 26
0.0
 36
0.0
 17
0.0
 27
1.0
 37
0.0
 76
     0
330
1F
331
29
  0
MATERIAL
  5
45
102
{ACAD_REACTORS
330
43
102
}
330
43
100
AcDbMaterial
  1
ByBlock
 72
     1
 94
      127
  0
MATERIAL
  5
44
102
{ACAD_REACTORS
330
43
102
}
330
43
100
AcDbMaterial
  1
ByLayer
 72
     1
 94
      127
  0
MATERIAL
  5
46
102
{ACAD_REACTORS
330
43
102
}
330
43
100
AcDbMaterial
  1
Global
 72
     1
 94
      127
  0
MLEADERSTYLE
  5
6C
102
{ACAD_REACTORS
330
6B
102
}
102
{ACAD_XDICTIONARY
360
EB
102
}
330
6B
100
AcDbMLeaderStyle
170
     2
171
     1
172
     0
 90
        2
 40
0.0
 41
0.0
173
     1
 91
-1056964608
340
14
 92
       -2
290
     1
 42
0.09
291
     1
 43
0.36
  3
Standard
341
0
 44
0.18
300

342
11
174
     1
178
     6
175
     1
176
     0
 93
-1056964608
 45
0.18
292
     0
297
     0
 46
0.18
343
0
 94
-1056964608
 47
1.0
 49
1.0
140
1.0
293
     1
141
0.0
294
     1
177
     0
142
1.0
295
     0
296
     0
143
0.125
1001
ACAD_MLEADERVER
1070
     2
  0
MLINESTYLE
  5
18
102
{ACAD_REACTORS
330
17
102
}
330
17
100
AcDbMlineStyle
  2
Standard
 70
     0
  3

 62
   256
 51
90.0
 52
90.0
 71
     2
 49
0.5
 62
   256
  6
BYLAYER
 49
-0.5
 62
   256
  6
BYLAYER
  0
ACDBPLACEHOLDER
  5
F
102
{ACAD_REACTORS
330
E
102
}
330
E
  0
SCALE
  5
48
102
{ACAD_REACTORS
330
47
102
}
330
47
100
AcDbScale
 70
     0
300
1:1
140
1.0
141
1.0
290
     1
  0
SCALE
  5
49
102
{ACAD_REACTORS
330
47
102
}
330
47
100
AcDbScale
 70
     0
300
1:2
140
1.0
141
2.0
290
     0
  0
SCALE
  5
4A
102
{ACAD_REACTORS
330
47
102
}
330
47
100
AcDbScale
 70
     0
300
1:4
140
1.0
141
4.0
290
     0
  0
SCALE
  5
4B
102
{ACAD_REACTORS
330
47
102
}
330
47
100
AcDbScale
 70
     0
300
1:5
140
1.0
141
5.0
290
     0
  0
SCALE
  5
4C
102
{ACAD_REACTORS
330
47
102
}
330
47
100
AcDbScale
 70
     0
300
1:8
140
1.0
141
8.0
290
     0
  0
SCALE
  5
4D
102
{ACAD_REACTORS
330
47
102
}
330
47
100
AcDbScale
 70
     0
300
1:10
140
1.0
141
10.0
290
     0
  0
SCALE
  5
4E
102
{ACAD_REACTORS
330
47
102
}
330
47
100
AcDbScale
 70
     0
300
1:16
140
1.0
141
16.0
290
     0
  0
SCALE
  5
4F
102
{ACAD_REACTORS
330
47
102
}
330
47
100
AcDbScale
 70
     0
300
1:20
140
1.0
141
20.0
290
     0
  0
SCALE
  5
50
102
{ACAD_REACTORS
330
47
102
}
330
47
100
AcDbScale
 70
     0
300
1:30
140
1.0
141
30.0
290
     0
  0
SCALE
  5
51
102
{ACAD_REACTORS
330
47
102
}
330
47
100
AcDbScale
 70
     0
300
1:40
140
1.0
141
40.0
290
     0
  0
SCALE
  5
52
102
{ACAD_REACTORS
330
47
102
}
330
47
100
AcDbScale
 70
     0
300
1:50
140
1.0
141
50.0
290
     0
  0
SCALE
  5
53
102
{ACAD_REACTORS
330
47
102
}
330
47
100
AcDbScale
 70
     0
300
1:100
140
1.0
141
100.0
290
     0
  0
SCALE
  5
54
102
{ACAD_REACTORS
330
47
102
}
330
47
100
AcDbScale
 70
     0
300
2:1
140
2.0
141
1.0
290
     0
  0
SCALE
  5
55
102
{ACAD_REACTORS
330
47
102
}
330
47
100
AcDbScale
 70
     0
300
4:1
140
4.0
141
1.0
290
     0
  0
SCALE
  5
56
102
{ACAD_REACTORS
330
47
102
}
330
47
100
AcDbScale
 70
     0
300
8:1
140
8.0
141
1.0
290
     0
  0
SCALE
  5
57
102
{ACAD_REACTORS
330
47
102
}
330
47
100
AcDbScale
 70
     0
300
10:1
140
10.0
141
1.0
290
     0
  0
SCALE
  5
58
102
{ACAD_REACTORS
330
47
102
}
330
47
100
AcDbScale
 70
     0
300
100:1
140
100.0
141
1.0
290
     0
  0
SCALE
  5
59
102
{ACAD_REACTORS
330
47
102
}
330
47
100
AcDbScale
 70
     0
300
1/128" = 1'-0"
140
0.0078125
141
12.0
290
     0
  0
SCALE
  5
5A
102
{ACAD_REACTORS
330
47
102
}
330
47
100
AcDbScale
 70
     0
300
1/64" = 1'-0"
140
0.015625
141
12.0
290
     0
  0
SCALE
  5
5B
102
{ACAD_REACTORS
330
47
102
}
330
47
100
AcDbScale
 70
     0
300
1/32" = 1'-0"
140
0.03125
141
12.0
290
     0
  0
SCALE
  5
5C
102
{ACAD_REACTORS
330
47
102
}
330
47
100
AcDbScale
 70
     0
300
1/16" = 1'-0"
140
0.0625
141
12.0
290
     0
  0
SCALE
  5
5D
102
{ACAD_REACTORS
330
47
102
}
330
47
100
AcDbScale
 70
     0
300
3/32" = 1'-0"
140
0.09375
141
12.0
290
     0
  0
SCALE
  5
5E
102
{ACAD_REACTORS
330
47
102
}
330
47
100
AcDbScale
 70
     0
300
1/8" = 1'-0"
140
0.125
141
12.0
290
     0
  0
SCALE
  5
5F
102
{ACAD_REACTORS
330
47
102
}
330
47
100
AcDbScale
 70
     0
300
3/16" = 1'-0"
140
0.1875
141
12.0
290
     0
  0
SCALE
  5
60
102
{ACAD_REACTORS
330
47
102
}
330
47
100
AcDbScale
 70
     0
300
1/4" = 1'-0"
140
0.25
141
12.0
290
     0
  0
SCALE
  5
61
102
{ACAD_REACTORS
330
47
102
}
330
47
100
AcDbScale
 70
     0
300
3/8" = 1'-0"
140
0.375
141
12.0
290
     0
  0
SCALE
  5
62
102
{ACAD_REACTORS
330
47
102
}
330
47
100
AcDbScale
 70
     0
300
1/2" = 1'-0"
140
0.5
141
12.0
290
     0
  0
SCALE
  5
63
102
{ACAD_REACTORS
330
47
102
}
330
47
100
AcDbScale
 70
     0
300
3/4" = 1'-0"
140
0.75
141
12.0
290
     0
  0
SCALE
  5
64
102
{ACAD_REACTORS
330
47
102
}
330
47
100
AcDbScale
 70
     0
300
1" = 1'-0"
140
1.0
141
12.0
290
     0
  0
SCALE
  5
65
102
{ACAD_REACTORS
330
47
102
}
330
47
100
AcDbScale
 70
     0
300
1-1/2" = 1'-0"
140
1.5
141
12.0
290
     0
  0
SCALE
  5
66
102
{ACAD_REACTORS
330
47
102
}
330
47
100
AcDbScale
 70
     0
300
3" = 1'-0"
140
3.0
141
12.0
290
     0
  0
SCALE
  5
67
102
{ACAD_REACTORS
330
47
102
}
330
47
100
AcDbScale
 70
     0
300
6" = 1'-0"
140
6.0
141
12.0
290
     0
  0
SCALE
  5
68
102
{ACAD_REACTORS
330
47
102
}
330
47
100
AcDbScale
 70
     0
300
1'-0" = 1'-0"
140
12.0
141
12.0
290
     0
  0
TABLESTYLE
  5
6A
102
{ACAD_REACTORS
330
69
102
}
102
{ACAD_XDICTIONARY
360
E8
102
}
330
69
100
AcDbTableStyle
  3
Standard
 70
     0
 71
     0
 40
0.06
 41
0.06
280
     0
281
     0
  7
Standard
140
0.18
170
     2
 62
     0
 63
   257
283
     0
 90
        4
 91
        0
  1

274
    -2
284
     1
 64
     0
275
    -2
285
     1
 65
     0
276
    -2
286
     1
 66
     0
277
    -2
287
     1
 67
     0
278
    -2
288
     1
 68
     0
279
    -2
289
     1
 69
     0
  7
Standard
140
0.25
170
     5
 62
     0
 63
   257
283
     0
 90
        4
 91
        0
  1

274
    -2
284
     1
 64
     0
275
    -2
285
     1
 65
     0
276
    -2
286
     1
 66
     0
277
    -2
287
     1
 67
     0
278
    -2
288
     1
 68
     0
279
    -2
289
     1
 69
     0
  7
Standard
140
0.18
170
     5
 62
     0
 63
   257
283
     0
 90
        4
 91
        0
  1

274
    -2
284
     1
 64
     0
275
    -2
285
     1
 65
     0
276
    -2
286
     1
 66
     0
277
    -2
287
     1
 67
     0
278
    -2
288
     1
 68
     0
279
    -2
289
     1
 69
     0
  0
VISUALSTYLE
  5
2F
102
{ACAD_REACTORS
330
2A
102
}
102
{ACAD_XDICTIONARY
360
C0
102
}
330
2A
100
AcDbVisualStyle
  2
2dWireframe
 70
     4
 71
     0
 72
     2
 73
     0
 90
        0
 40
0.6
 41
30.0
 62
     5
 63
     7
421
 16777215
 74
     1
 91
        4
 64
     7
 65
   257
 75
     1
175
     1
 42
1.0
 92
        0
 66
   257
 43
1.0
 76
     1
 77
     6
 78
     2
 67
     7
 79
     5
170
     0
171
     0
290
     0
174
     0
 93
        1
 44
0.0
173
     0
291
     0
 45
0.0
  0
VISUALSTYLE
  5
32
102
{ACAD_REACTORS
330
2A
102
}
102
{ACAD_XDICTIONARY
360
C6
102
}
330
2A
100
AcDbVisualStyle
  2
Basic
 70
     7
 71
     1
 72
     0
 73
     1
 90
        0
 40
0.6
 41
30.0
 62
     5
 63
     7
421
 16777215
 74
     0
 91
        4
 64
     7
 65
   257
 75
     1
175
     1
 42
1.0
 92
        8
 66
     7
 43
1.0
 76
     1
 77
     6
 78
     2
 67
     7
 79
     5
170
     0
171
     0
290
     0
174
     0
 93
        1
 44
0.0
173
     0
291
     1
 45
0.0
  0
VISUALSTYLE
  5
36
102
{ACAD_REACTORS
330
2A
102
}
102
{ACAD_XDICTIONARY
360
CE
102
}
330
2A
100
AcDbVisualStyle
  2
Brighten
 70
    12
 71
     2
 72
     2
 73
     0
 90
        0
 40
0.6
 41
30.0
 62
     5
 63
     7
421
 16777215
 74
     1
 91
        4
 64
     7
 65
   257
 75
     1
175
     1
 42
1.0
 92
        8
 66
     7
 43
1.0
 76
     1
 77
     6
 78
     2
 67
     7
 79
     5
170
     0
171
     0
290
     0
174
     0
 93
        1
 44
50.0
173
     0
291
     1
 45
0.0
  0
VISUALSTYLE
  5
3A
102
{ACAD_REACTORS
330
2A
102
}
102
{ACAD_XDICTIONARY
360
D6
102
}
330
2A
100
AcDbVisualStyle
  2
ColorChange
 70
    16
 71
     2
 72
     2
 73
     3
 90
        0
 40
0.6
 41
30.0
 62
     5
 63
     8
421
  8421504
 74
     1
 91
        4
 64
     7
 65
   257
 75
     1
175
     1
 42
1.0
 92
        8
 66
     8
424
  8421504
 43
1.0
 76
     1
 77
     6
 78
     2
 67
     7
 79
     5
170
     0
171
     0
290
     0
174
     0
 93
        1
 44
0.0
173
     0
291
     1
 45
0.0
  0
VISUALSTYLE
  5
34
102
{ACAD_REACTORS
330
2A
102
}
102
{ACAD_XDICTIONARY
360
CA
102
}
330
2A
100
AcDbVisualStyle
  2
Conceptual
 70
     9
 71
     3
 72
     2
 73
     0
 90
        0
 40
0.6
 41
30.0
 62
     5
 63
     7
421
 16777215
 74
     2
 91
        2
 64
     7
 65
   257
 75
     1
175
     1
 42
179.0
 92
        8
 66
     7
 43
1.0
 76
     1
 77
     6
 78
     2
 67
     7
 79
     3
170
     0
171
     0
290
     0
174
     0
 93
        1
 44
0.0
173
     0
291
     0
 45
0.0
  0
VISUALSTYLE
  5
35
102
{ACAD_REACTORS
330
2A
102
}
102
{ACAD_XDICTIONARY
360
CC
102
}
330
2A
100
AcDbVisualStyle
  2
Dim
 70
    11
 71
     2
 72
     2
 73
     0
 90
        0
 40
0.6
 41
30.0
 62
     5
 63
     7
421
 16777215
 74
     1
 91
        4
 64
     7
 65
   257
 75
     1
175
     1
 42
1.0
 92
        8
 66
     7
 43
1.0
 76
     1
 77
     6
 78
     2
 67
     7
 79
     5
170
     0
171
     0
290
     0
174
     0
 93
        1
 44
-50.0
173
     0
291
     1
 45
0.0
  0
VISUALSTYLE
  5
3D
102
{ACAD_REACTORS
330
2A
102
}
102
{ACAD_XDICTIONARY
360
DC
102
}
330
2A
100
AcDbVisualStyle
  2
EdgeColorOff
 70
    22
 71
     2
 72
     2
 73
     0
 90
        0
 40
0.6
 41
30.0
 62
     5
 63
     7
421
 16777215
 74
     1
 91
        4
 64
     7
 65
   257
 75
     1
175
     1
 42
1.0
 92
        8
 66
     7
 43
1.0
 76
     1
 77
     6
 78
     2
 67
     7
 79
     5
170
     0
171
     0
290
     0
174
     0
 93
        1
 44
0.0
173
     0
291
     1
 45
0.0
  0
VISUALSTYLE
  5
39
102
{ACAD_REACTORS
330
2A
102
}
102
{ACAD_XDICTIONARY
360
D4
102
}
330
2A
100
AcDbVisualStyle
  2
Facepattern
 70
    15
 71
     2
 72
     2
 73
     0
 90
        0
 40
0.6
 41
30.0
 62
     5
 63
     7
421
 16777215
 74
     1
 91
        4
 64
     7
 65
   257
 75
     1
175
     1
 42
1.0
 92
        8
 66
     7
 43
1.0
 76
     1
 77
     6
 78
     2
 67
     7
 79
     5
170
     0
171
     0
290
     0
174
     0
 93
        1
 44
0.0
173
     0
291
     1
 45
0.0
  0
VISUALSTYLE
  5
2B
102
{ACAD_REACTORS
330
2A
102
}
102
{ACAD_XDICTIONARY
360
B8
102
}
330
2A
100
AcDbVisualStyle
  2
Flat
 70
     0
 71
     2
 72
     1
 73
     1
 90
        2
 40
0.6
 41
30.0
 62
     5
 63
     7
421
 16777215
 74
     0
 91
        0
 64
     7
 65
   257
 75
     1
175
     1
 42
1.0
 92
        8
 66
     7
 43
1.0
 76
     1
 77
     6
 78
     2
 67
     7
 79
     5
170
     0
171
     0
290
     0
174
     0
 93
       13
 44
0.0
173
     0
291
     1
 45
0.0
  0
VISUALSTYLE
  5
2C
102
{ACAD_REACTORS
330
2A
102
}
102
{ACAD_XDICTIONARY
360
BA
102
}
330
2A
100
AcDbVisualStyle
  2
FlatWithEdges
 70
     1
 71
     2
 72
     1
 73
     1
 90
        2
 40
0.6
 41
30.0
 62
     5
 63
     7
421
 16777215
 74
     1
 91
        0
 64
     7
 65
   257
 75
     1
175
     1
 42
1.0
 92
        0
 66
   257
 43
1.0
 76
     1
 77
     6
 78
     2
 67
     7
 79
     5
170
     0
171
     0
290
     0
174
     0
 93
       13
 44
0.0
173
     0
291
     1
 45
0.0
  0
VISUALSTYLE
  5
2D
102
{ACAD_REACTORS
330
2A
102
}
102
{ACAD_XDICTIONARY
360
BC
102
}
330
2A
100
AcDbVisualStyle
  2
Gouraud
 70
     2
 71
     2
 72
     2
 73
     1
 90
        2
 40
0.6
 41
30.0
 62
     5
 63
     7
421
 16777215
 74
     0
 91
        0
 64
     7
 65
   257
 75
     1
175
     1
 42
1.0
 92
        0
 66
     7
 43
1.0
 76
     1
 77
     6
 78
     2
 67
     7
 79
     5
170
     0
171
     0
290
     0
174
     0
 93
       13
 44
0.0
173
     0
291
     1
 45
0.0
  0
VISUALSTYLE
  5
2E
102
{ACAD_REACTORS
330
2A
102
}
102
{ACAD_XDICTIONARY
360
BE
102
}
330
2A
100
AcDbVisualStyle
  2
GouraudWithEdges
 70
     3
 71
     2
 72
     2
 73
     1
 90
        2
 40
0.6
 41
30.0
 62
     5
 63
     7
421
 16777215
 74
     1
 91
        0
 64
     7
 65
   257
 75
     1
175
     1
 42
1.0
 92
        0
 66
   257
 43
1.0
 76
     1
 77
     6
 78
     2
 67
     7
 79
     5
170
     0
171
     0
290
     0
174
     0
 93
       13
 44
0.0
173
     0
291
     1
 45
0.0
  0
VISUALSTYLE
  5
31
102
{ACAD_REACTORS
330
2A
102
}
102
{ACAD_XDICTIONARY
360
C4
102
}
330
2A
100
AcDbVisualStyle
  2
Hidden
 70
     6
 71
     1
 72
     2
 73
     2
 90
        0
 40
0.6
 41
30.0
 62
     5
 63
     7
421
 16777215
 74
     2
 91
        2
 64
     7
 65
   257
 75
     2
175
     1
 42
40.0
 92
        0
 66
   257
 43
1.0
 76
     1
 77
     6
 78
     2
 67
     7
 79
     3
170
     0
171
     0
290
     0
174
     0
 93
        1
 44
0.0
173
     0
291
     0
 45
0.0
  0
VISUALSTYLE
  5
3B
102
{ACAD_REACTORS
330
2A
102
}
102
{ACAD_XDICTIONARY
360
D8
102
}
330
2A
100
AcDbVisualStyle
  2
JitterOff
 70
    20
 71
     2
 72
     2
 73
     0
 90
        0
 40
0.6
 41
30.0
 62
     5
 63
     7
421
 16777215
 74
     1
 91
        4
 64
     7
 65
   257
 75
     1
175
     1
 42
1.0
 92
       10
 66
     7
 43
1.0
 76
     1
 77
     6
 78
     2
 67
     7
 79
     5
170
     0
171
     0
290
     0
174
     0
 93
        1
 44
0.0
173
     0
291
     1
 45
0.0
  0
VISUALSTYLE
  5
38
102
{ACAD_REACTORS
330
2A
102
}
102
{ACAD_XDICTIONARY
360
D2
102
}
330
2A
100
AcDbVisualStyle
  2
Linepattern
 70
    14
 71
     2
 72
     2
 73
     0
 90
        0
 40
0.6
 41
30.0
 62
     5
 63
     7
421
 16777215
 74
     1
 91
        4
 64
     7
 65
   257
 75
     7
175
     7
 42
1.0
 92
        8
 66
     7
 43
1.0
 76
     1
 77
     6
 78
     2
 67
     7
 79
     5
170
     0
171
     0
290
     0
174
     0
 93
        1
 44
0.0
173
     0
291
     1
 45
0.0
  0
VISUALSTYLE
  5
3C
102
{ACAD_REACTORS
330
2A
102
}
102
{ACAD_XDICTIONARY
360
DA
102
}
330
2A
100
AcDbVisualStyle
  2
OverhangOff
 70
    21
 71
     2
 72
     2
 73
     0
 90
        0
 40
0.6
 41
30.0
 62
     5
 63
     7
421
 16777215
 74
     1
 91
        4
 64
     7
 65
   257
 75
     1
175
     1
 42
1.0
 92
        9
 66
     7
 43
1.0
 76
     1
 77
     6
 78
     2
 67
     7
 79
     5
170
     0
171
     0
290
     0
174
     0
 93
        1
 44
0.0
173
     0
291
     1
 45
0.0
  0
VISUALSTYLE
  5
33
102
{ACAD_REACTORS
330
2A
102
}
102
{ACAD_XDICTIONARY
360
C8
102
}
330
2A
100
AcDbVisualStyle
  2
Realistic
 70
     8
 71
     2
 72
     3
 73
     0
 90
        2
 40
0.6
 41
30.0
 62
     5
 63
     7
421
 16777215
 74
     0
 91
        0
 64
     7
 65
   257
 75
     1
175
     1
 42
1.0
 92
        8
 66
   257
 43
1.0
 76
     1
 77
     6
 78
     2
 67
     7
 79
     3
170
     0
171
     0
290
     0
174
     0
 93
       13
 44
0.0
173
     0
291
     0
 45
0.0
  0
VISUALSTYLE
  5
42
102
{ACAD_REACTORS
330
2A
102
}
102
{ACAD_XDICTIONARY
360
E6
102
}
330
2A
100
AcDbVisualStyle
  2
Shaded
 70
    27
 71
     2
 72
     2
 73
     1
 90
        2
 40
0.6
 41
30.0
 62
     5
 63
     7
421
 16777215
 74
     0
 91
        4
 64
     7
 65
   257
 75
     1
175
     1
 42
1.0
 92
        8
 66
   257
 43
1.0
 76
     1
 77
     6
 78
     2
 67
     8
425
  7895160
 79
     3
170
     0
171
     0
290
     0
174
     0
 93
        5
 44
0.0
173
     0
291
     0
 45
0.0
  0
VISUALSTYLE
  5
41
102
{ACAD_REACTORS
330
2A
102
}
102
{ACAD_XDICTIONARY
360
E4
102
}
330
2A
100
AcDbVisualStyle
  2
Shaded with edges
 70
    26
 71
     2
 72
     2
 73
     1
 90
        2
 40
0.6
 41
30.0
 62
     5
 63
     7
421
 16777215
 74
     1
 91
       10
 64
     7
 65
   257
 75
     2
175
     1
 42
1.0
 92
        8
 66
   257
 43
1.0
 76
     1
 77
     6
 78
     2
 67
     7
 79
     3
170
     0
171
     0
290
     0
174
     0
 93
        5
 44
0.0
173
     0
291
     0
 45
0.0
  0
VISUALSTYLE
  5
3E
102
{ACAD_REACTORS
330
2A
102
}
102
{ACAD_XDICTIONARY
360
DE
102
}
330
2A
100
AcDbVisualStyle
  2
Shades of Gray
 70
    23
 71
     2
 72
     2
 73
     3
 90
        0
 40
0.6
 41
30.0
 62
     5
 63
     7
421
 16777215
 74
     2
 91
        2
 64
     7
 65
     7
 75
     1
175
     1
 42
40.0
 92
        8
 66
     7
 43
1.0
 76
     1
 77
     6
 78
     2
 67
     7
 79
     3
170
     0
171
     0
290
     0
174
     0
 93
        1
 44
0.0
173
     0
291
     0
 45
0.0
  0
VISUALSTYLE
  5
3F
102
{ACAD_REACTORS
330
2A
102
}
102
{ACAD_XDICTIONARY
360
E0
102
}
330
2A
100
AcDbVisualStyle
  2
Sketchy
 70
    24
 71
     1
 72
     2
 73
     2
 90
        0
 40
0.6
 41
30.0
 62
     5
 63
     7
421
 16777215
 74
     2
 91
        2
 64
     7
 65
     7
 75
     1
175
     1
 42
40.0
 92
       11
 66
     7
 43
1.0
 76
     1
 77
     6
 78
     2
 67
     7
 79
     6
170
     0
171
     0
290
     0
174
     0
 93
        1
 44
0.0
173
     0
291
     0
 45
0.0
  0
VISUALSTYLE
  5
37
102
{ACAD_REACTORS
330
2A
102
}
102
{ACAD_XDICTIONARY
360
D0
102
}
330
2A
100
AcDbVisualStyle
  2
Thicken
 70
    13
 71
     2
 72
     2
 73
     0
 90
        0
 40
0.6
 41
30.0
 62
     5
 63
     7
421
 16777215
 74
     1
 91
        4
 64
     7
 65
   257
 75
     1
175
     1
 42
1.0
 92
       12
 66
     7
 43
1.0
 76
     1
 77
     6
 78
     2
 67
     7
 79
     5
170
     0
171
     0
290
     0
174
     0
 93
        1
 44
0.0
173
     0
291
     1
 45
0.0
  0
VISUALSTYLE
  5
30
102
{ACAD_REACTORS
330
2A
102
}
102
{ACAD_XDICTIONARY
360
C2
102
}
330
2A
100
AcDbVisualStyle
  2
Wireframe
 70
     5
 71
     0
 72
     2
 73
     0
 90
        0
 40
0.6
 41
30.0
 62
     5
 63
     7
421
 16777215
 74
     1
 91
        4
 64
     7
 65
   257
 75
     1
175
     1
 42
1.0
 92
        0
 66
   257
 43
1.0
 76
     1
 77
     6
 78
     2
 67
     7
 79
     3
170
     0
171
     0
290
     0
174
     0
 93
        1
 44
0.0
173
     0
291
     0
 45
0.0
  0
VISUALSTYLE
  5
40
102
{ACAD_REACTORS
330
2A
102
}
102
{ACAD_XDICTIONARY
360
E2
102
}
330
2A
100
AcDbVisualStyle
  2
X-Ray
 70
    25
 71
     2
 72
     2
 73
     1
 90
        1
 40
0.5
 41
30.0
 62
     5
 63
     7
421
 16777215
 74
     1
 91
        0
 64
     7
 65
   257
 75
     1
175
     1
 42
1.0
 92
        8
 66
     7
 43
1.0
 76
     1
 77
     6
 78
     2
 67
     7
 79
     3
170
     0
171
     0
290
     0
174
     0
 93
       13
 44
0.0
173
     0
291
     0
 45
0.0
  0
DICTIONARYVAR
  5
B6
102
{ACAD_REACTORS
330
B5
102
}
330
B5
100
DictionaryVariables
280
     0
  1
1:1
  0
DICTIONARYVAR
  5
EF
102
{ACAD_REACTORS
330
B5
102
}
330
B5
100
DictionaryVariables
280
     0
  1
Standard
  0
DICTIONARYVAR
  5
EE
102
{ACAD_REACTORS
330
B5
102
}
330
B5
100
DictionaryVariables
280
     0
  1
Standard
  0
DICTIONARYVAR
  5
B7
102
{ACAD_REACTORS
330
B5
102
}
330
B5
100
DictionaryVariables
280
     0
  1
2
  0
DICTIONARY
  5
EB
330
6C
100
AcDbDictionary
280
     1
281
     1
  3
ACAD_XREC_ROUNDTRIP
360
EC
  0
DICTIONARY
  5
E8
330
6A
100
AcDbDictionary
280
     1
281
     1
  3
ACAD_ROUNDTRIP_2008_TABLESTYLE_CELLSTYLEMAP
360
E9
  0
DICTIONARY
  5
C0
330
2F
100
AcDbDictionary
280
     1
281
     1
  3
ACAD_XREC_ROUNDTRIP
360
C1
  0
DICTIONARY
  5
C6
330
32
100
AcDbDictionary
280
     1
281
     1
  3
ACAD_XREC_ROUNDTRIP
360
C7
  0
DICTIONARY
  5
CE
330
36
100
AcDbDictionary
280
     1
281
     1
  3
ACAD_XREC_ROUNDTRIP
360
CF
  0
DICTIONARY
  5
D6
330
3A
100
AcDbDictionary
280
     1
281
     1
  3
ACAD_XREC_ROUNDTRIP
360
D7
  0
DICTIONARY
  5
CA
330
34
100
AcDbDictionary
280
     1
281
     1
  3
ACAD_XREC_ROUNDTRIP
360
CB
  0
DICTIONARY
  5
CC
330
35
100
AcDbDictionary
280
     1
281
     1
  3
ACAD_XREC_ROUNDTRIP
360
CD
  0
DICTIONARY
  5
DC
330
3D
100
AcDbDictionary
280
     1
281
     1
  3
ACAD_XREC_ROUNDTRIP
360
DD
  0
DICTIONARY
  5
D4
330
39
100
AcDbDictionary
280
     1
281
     1
  3
ACAD_XREC_ROUNDTRIP
360
D5
  0
DICTIONARY
  5
B8
330
2B
100
AcDbDictionary
280
     1
281
     1
  3
ACAD_XREC_ROUNDTRIP
360
B9
  0
DICTIONARY
  5
BA
330
2C
100
AcDbDictionary
280
     1
281
     1
  3
ACAD_XREC_ROUNDTRIP
360
BB
  0
DICTIONARY
  5
BC
330
2D
100
AcDbDictionary
280
     1
281
     1
  3
ACAD_XREC_ROUNDTRIP
360
BD
  0
DICTIONARY
  5
BE
330
2E
100
AcDbDictionary
280
     1
281
     1
  3
ACAD_XREC_ROUNDTRIP
360
BF
  0
DICTIONARY
  5
C4
330
31
100
AcDbDictionary
280
     1
281
     1
  3
ACAD_XREC_ROUNDTRIP
360
C5
  0
DICTIONARY
  5
D8
330
3B
100
AcDbDictionary
280
     1
281
     1
  3
ACAD_XREC_ROUNDTRIP
360
D9
  0
DICTIONARY
  5
D2
330
38
100
AcDbDictionary
280
     1
281
     1
  3
ACAD_XREC_ROUNDTRIP
360
D3
  0
DICTIONARY
  5
DA
330
3C
100
AcDbDictionary
280
     1
281
     1
  3
ACAD_XREC_ROUNDTRIP
360
DB
  0
DICTIONARY
  5
C8
330
33
100
AcDbDictionary
280
     1
281
     1
  3
ACAD_XREC_ROUNDTRIP
360
C9
  0
DICTIONARY
  5
E6
330
42
100
AcDbDictionary
280
     1
281
     1
  3
ACAD_XREC_ROUNDTRIP
360
E7
  0
DICTIONARY
  5
E4
330
41
100
AcDbDictionary
280
     1
281
     1
  3
ACAD_XREC_ROUNDTRIP
360
E5
  0
DICTIONARY
  5
DE
330
3E
100
AcDbDictionary
280
     1
281
     1
  3
ACAD_XREC_ROUNDTRIP
360
DF
  0
DICTIONARY
  5
E0
330
3F
100
AcDbDictionary
280
     1
281
     1
  3
ACAD_XREC_ROUNDTRIP
360
E1
  0
DICTIONARY
  5
D0
330
37
100
AcDbDictionary
280
     1
281
     1
  3
ACAD_XREC_ROUNDTRIP
360
D1
  0
DICTIONARY
  5
C2
330
30
100
AcDbDictionary
280
     1
281
     1
  3
ACAD_XREC_ROUNDTRIP
360
C3
  0
DICTIONARY
  5
E2
330
40
100
AcDbDictionary
280
     1
281
     1
  3
ACAD_XREC_ROUNDTRIP
360
E3
  0
XRECORD
  5
EC
102
{ACAD_REACTORS
330
EB
102
}
330
EB
100
AcDbXrecord
280
     1
102
ACAD_ROUNDTRIP_2010_MLEADER_STYLE
  0
CELLSTYLEMAP
  5
E9
102
{ACAD_REACTORS
330
E8
102
}
330
E8
100
AcDbCellStyleMap
 90
        3
300
CELLSTYLE
  1
TABLEFORMAT_BEGIN
 90
        5
170
     1
 91
        0
 92
    32768
 62
   257
 93
        1
300
CONTENTFORMAT
  1
CONTENTFORMAT_BEGIN
 90
        0
 91
        0
 92
        4
 93
        0
300

 40
0.0
140
1.0
 94
        5
 62
     0
340
11
144
0.25
309
CONTENTFORMAT_END
171
     1
301
MARGIN
  1
CELLMARGIN_BEGIN
 40
0.06
 40
0.06
 40
0.06
 40
0.06
 40
0.06
 40
0.06
309
CELLMARGIN_END
 94
        6
 95
        1
302
GRIDFORMAT
  1
GRIDFORMAT_BEGIN
 90
        0
 91
        1
 62
     0
 92
       -2
340
14
 93
        0
 40
0.045
309
GRIDFORMAT_END
 95
        2
302
GRIDFORMAT
  1
GRIDFORMAT_BEGIN
 90
        0
 91
        1
 62
     0
 92
       -2
340
14
 93
        0
 40
0.045
309
GRIDFORMAT_END
 95
        4
302
GRIDFORMAT
  1
GRIDFORMAT_BEGIN
 90
        0
 91
        1
 62
     0
 92
       -2
340
14
 93
        0
 40
0.045
309
GRIDFORMAT_END
 95
        8
302
GRIDFORMAT
  1
GRIDFORMAT_BEGIN
 90
        0
 91
        1
 62
     0
 92
       -2
340
14
 93
        0
 40
0.045
309
GRIDFORMAT_END
 95
       16
302
GRIDFORMAT
  1
GRIDFORMAT_BEGIN
 90
        0
 91
        1
 62
     0
 92
       -2
340
14
 93
        0
 40
0.045
309
GRIDFORMAT_END
 95
       32
302
GRIDFORMAT
  1
GRIDFORMAT_BEGIN
 90
        0
 91
        1
 62
     0
 92
       -2
340
14
 93
        0
 40
0.045
309
GRIDFORMAT_END
309
TABLEFORMAT_END
  1
CELLSTYLE_BEGIN
 90
        1
 91
        1
300
_TITLE
309
CELLSTYLE_END
300
CELLSTYLE
  1
TABLEFORMAT_BEGIN
 90
        5
170
     1
 91
        0
 92
        0
 62
   257
 93
        1
300
CONTENTFORMAT
  1
CONTENTFORMAT_BEGIN
 90
        0
 91
        0
 92
        4
 93
        0
300

 40
0.0
140
1.0
 94
        5
 62
     0
340
11
144
0.18
309
CONTENTFORMAT_END
171
     1
301
MARGIN
  1
CELLMARGIN_BEGIN
 40
0.06
 40
0.06
 40
0.06
 40
0.06
 40
0.06
 40
0.06
309
CELLMARGIN_END
 94
        6
 95
        1
302
GRIDFORMAT
  1
GRIDFORMAT_BEGIN
 90
        0
 91
        1
 62
     0
 92
       -2
340
14
 93
        0
 40
0.045
309
GRIDFORMAT_END
 95
        2
302
GRIDFORMAT
  1
GRIDFORMAT_BEGIN
 90
        0
 91
        1
 62
     0
 92
       -2
340
14
 93
        0
 40
0.045
309
GRIDFORMAT_END
 95
        4
302
GRIDFORMAT
  1
GRIDFORMAT_BEGIN
 90
        0
 91
        1
 62
     0
 92
       -2
340
14
 93
        0
 40
0.045
309
GRIDFORMAT_END
 95
        8
302
GRIDFORMAT
  1
GRIDFORMAT_BEGIN
 90
        0
 91
        1
 62
     0
 92
       -2
340
14
 93
        0
 40
0.045
309
GRIDFORMAT_END
 95
       16
302
GRIDFORMAT
  1
GRIDFORMAT_BEGIN
 90
        0
 91
        1
 62
     0
 92
       -2
340
14
 93
        0
 40
0.045
309
GRIDFORMAT_END
 95
       32
302
GRIDFORMAT
  1
GRIDFORMAT_BEGIN
 90
        0
 91
        1
 62
     0
 92
       -2
340
14
 93
        0
 40
0.045
309
GRIDFORMAT_END
309
TABLEFORMAT_END
  1
CELLSTYLE_BEGIN
 90
        2
 91
        1
300
_HEADER
309
CELLSTYLE_END
300
CELLSTYLE
  1
TABLEFORMAT_BEGIN
 90
        5
170
     1
 91
        0
 92
        0
 62
   257
 93
        1
300
CONTENTFORMAT
  1
CONTENTFORMAT_BEGIN
 90
        0
 91
        0
 92
        4
 93
        0
300

 40
0.0
140
1.0
 94
        2
 62
     0
340
11
144
0.18
309
CONTENTFORMAT_END
171
     1
301
MARGIN
  1
CELLMARGIN_BEGIN
 40
0.06
 40
0.06
 40
0.06
 40
0.06
 40
0.06
 40
0.06
309
CELLMARGIN_END
 94
        6
 95
        1
302
GRIDFORMAT
  1
GRIDFORMAT_BEGIN
 90
        0
 91
        1
 62
     0
 92
       -2
340
14
 93
        0
 40
0.045
309
GRIDFORMAT_END
 95
        2
302
GRIDFORMAT
  1
GRIDFORMAT_BEGIN
 90
        0
 91
        1
 62
     0
 92
       -2
340
14
 93
        0
 40
0.045
309
GRIDFORMAT_END
 95
        4
302
GRIDFORMAT
  1
GRIDFORMAT_BEGIN
 90
        0
 91
        1
 62
     0
 92
       -2
340
14
 93
        0
 40
0.045
309
GRIDFORMAT_END
 95
        8
302
GRIDFORMAT
  1
GRIDFORMAT_BEGIN
 90
        0
 91
        1
 62
     0
 92
       -2
340
14
 93
        0
 40
0.045
309
GRIDFORMAT_END
 95
       16
302
GRIDFORMAT
  1
GRIDFORMAT_BEGIN
 90
        0
 91
        1
 62
     0
 92
       -2
340
14
 93
        0
 40
0.045
309
GRIDFORMAT_END
 95
       32
302
GRIDFORMAT
  1
GRIDFORMAT_BEGIN
 90
        0
 91
        1
 62
     0
 92
       -2
340
14
 93
        0
 40
0.045
309
GRIDFORMAT_END
309
TABLEFORMAT_END
  1
CELLSTYLE_BEGIN
 90
        3
 91
        2
300
_DATA
309
CELLSTYLE_END
  0
XRECORD
  5
C1
102
{ACAD_REACTORS
330
C0
102
}
330
C0
100
AcDbXrecord
280
     1
102
RTVSPropertyOp0
 70
     1
102
RTVSPropertyOp1
 70
     1
102
RTVSPropertyOp2
 70
     1
102
RTVSPropertyOp3
 70
     1
102
RTVSPropertyOp4
 70
     1
102
RTVSPropertyOp5
 70
     1
102
RTVSPropertyOp6
 70
     1
102
RTVSPropertyOp7
 70
     1
102
RTVSPropertyOp8
 70
     1
102
RTVSPropertyOp9
 70
     1
102
RTVSPropertyOp10
 70
     1
102
RTVSPropertyOp11
 70
     1
102
RTVSPropertyOp12
 70
     1
102
RTVSPropertyOp13
 70
     1
102
RTVSPropertyOp14
 70
     1
102
RTVSPropertyOp15
 70
     1
102
RTVSPropertyOp16
 70
     1
102
RTVSPropertyOp17
 70
     1
102
RTVSPropertyOp18
 70
     1
102
RTVSPropertyOp19
 70
     1
102
RTVSPropertyOp20
 70
     1
102
RTVSPropertyOp21
 70
     1
102
RTVSPropertyOp22
 70
     1
102
RTVSPropertyOp23
 70
     1
102
RTVSPropertyOp24
 70
     1
102
RTVSPropertyOp25
 70
     1
102
RTVSPropertyOp26
 70
     1
102
RTVSPropertyOp27
 70
     1
102
RTVSPropertyOp28
 70
     1
102
RTVSPropertyOp29
 70
     1
102
RTVSPropertyOp30
 70
     1
102
RTVSPropertyOp31
 70
     1
102
RTVSPropertyOp32
 70
     1
102
RTVSPropertyOp33
 70
     1
102
RTVSPropertyOp34
 70
     1
102
RTVSPropertyOp35
 70
     1
102
RTVSPropertyOp36
 70
     1
102
RTVSPropertyOp37
 70
     1
102
RTVSPropertyOp38
 70
     1
102
RTVSPropertyOp39
 70
     1
102
RTVSPropertyOp40
 70
     1
102
RTVSPropertyOp41
 70
     1
102
RTVSPropertyOp42
 70
     1
102
RTVSPropertyOp43
 70
     1
102
RTVSPropertyOp44
 70
     1
102
RTVSPropertyOp45
 70
     1
102
RTVSPropertyOp46
 70
     1
102
RTVSPropertyOp47
 70
     1
102
RTVSPropertyOp48
 70
     1
102
RTVSPropertyOp49
 70
     1
102
RTVSPropertyOp50
 70
     1
102
RTVSPropertyOp51
 70
     0
102
RTVSPropertyOp52
 70
     0
102
RTVSPropertyOp53
 70
     1
102
RTVSPropertyOp54
 70
     1
102
RTVSPropertyOp55
 70
     1
102
RTVSPropertyOp56
 70
     1
102
RTVSPropertyOp57
 70
     1
102
RTVSPost2010Prop28
280
     1
102
RTVSPost2010PropOp28
 70
     1
102
RTVSPost2010Prop29
280
     1
102
RTVSPost2010PropOp29
 70
     1
102
RTVSPost2010Prop30
280
     0
102
RTVSPost2010PropOp30
 70
     1
102
RTVSPost2010Prop31
280
     0
102
RTVSPost2010PropOp31
 70
     1
102
RTVSPost2010Prop32
280
     0
102
RTVSPost2010PropOp32
 70
     1
102
RTVSPost2010Prop33
280
     0
102
RTVSPost2010PropOp33
 70
     1
102
RTVSPost2010Prop34
280
     0
102
RTVSPost2010PropOp34
 70
     1
102
RTVSPost2010Prop35
280
     0
102
RTVSPost2010PropOp35
 70
     1
102
RTVSPost2010Prop36
280
     0
102
RTVSPost2010PropOp36
 70
     1
102
RTVSPost2010Prop37
 90
       50
102
RTVSPost2010PropOp37
 70
     1
102
RTVSPost2010Prop38
140
0.0
102
RTVSPost2010PropOp38
 70
     1
102
RTVSPost2010Prop39
140
1.0
102
RTVSPost2010PropOp39
 70
     1
102
RTVSPost2010Prop40
 90
        0
102
RTVSPost2010PropOp40
 70
     1
102
RTVSPost2010Prop41ColorIndex
 90
       18
102
RTVSPost2010Prop41ColorRGB
 90
        0
102
RTVSPost2010PropOp41
 70
     1
102
RTVSPost2010Prop42
 90
       50
102
RTVSPost2010PropOp42
 70
     1
102
RTVSPost2010Prop43
 90
        3
102
RTVSPost2010PropOp43
 70
     1
102
RTVSPost2010Prop44ColorIndex
 90
        5
102
RTVSPost2010Prop44ColorRGB
 90
      255
102
RTVSPost2010PropOp44
 70
     1
102
RTVSPost2010Prop45
280
     0
102
RTVSPost2010PropOp45
 70
     1
102
RTVSPost2010Prop46
 90
       50
102
RTVSPost2010PropOp46
 70
     1
102
RTVSPost2010Prop47
 90
       50
102
RTVSPost2010PropOp47
 70
     1
102
RTVSPost2010Prop48
 90
       50
102
RTVSPost2010PropOp48
 70
     1
102
RTVSPost2010Prop49
280
     0
102
RTVSPost2010PropOp49
 70
     1
102
RTVSPost2010Prop50
 90
       50
102
RTVSPost2010PropOp50
 70
     1
102
RTVSPost2010Prop51ColorIndex
 90
      256
102
RTVSPost2010Prop51ColorRGB
 90
-16777216
102
RTVSPost2010PropOp51
 70
     0
102
RTVSPost2010Prop52
140
1.0
102
RTVSPost2010PropOp52
 70
     0
102
RTVSPost2010Prop53
 90
        2
102
RTVSPost2010PropOp53
 70
     1
102
RTVSPost2010Prop54
  1
strokes_ogs.tif
102
RTVSPost2010PropOp54
 70
     1
102
RTVSPost2010Prop55
280
     0
102
RTVSPost2010PropOp55
 70
     1
102
RTVSPost2010Prop56
140
1.0
102
RTVSPost2010PropOp56
 70
     1
102
RTVSPost2010Prop57
140
1.0
102
RTVSPost2010PropOp57
 70
     1
  0
XRECORD
  5
C7
102
{ACAD_REACTORS
330
C6
102
}
330
C6
100
AcDbXrecord
280
     1
102
RTVSPropertyOp0
 70
     1
102
RTVSPropertyOp1
 70
     1
102
RTVSPropertyOp2
 70
     1
102
RTVSPropertyOp3
 70
     1
102
RTVSPropertyOp4
 70
     1
102
RTVSPropertyOp5
 70
     1
102
RTVSPropertyOp6
 70
     1
102
RTVSPropertyOp7
 70
     1
102
RTVSPropertyOp8
 70
     1
102
RTVSPropertyOp9
 70
     1
102
RTVSPropertyOp10
 70
     1
102
RTVSPropertyOp11
 70
     1
102
RTVSPropertyOp12
 70
     1
102
RTVSPropertyOp13
 70
     1
102
RTVSPropertyOp14
 70
     1
102
RTVSPropertyOp15
 70
     1
102
RTVSPropertyOp16
 70
     1
102
RTVSPropertyOp17
 70
     1
102
RTVSPropertyOp18
 70
     1
102
RTVSPropertyOp19
 70
     1
102
RTVSPropertyOp20
 70
     1
102
RTVSPropertyOp21
 70
     1
102
RTVSPropertyOp22
 70
     1
102
RTVSPropertyOp23
 70
     1
102
RTVSPropertyOp24
 70
     1
102
RTVSPropertyOp25
 70
     1
102
RTVSPropertyOp26
 70
     1
102
RTVSPropertyOp27
 70
     1
102
RTVSPropertyOp28
 70
     1
102
RTVSPropertyOp29
 70
     1
102
RTVSPropertyOp30
 70
     1
102
RTVSPropertyOp31
 70
     1
102
RTVSPropertyOp32
 70
     1
102
RTVSPropertyOp33
 70
     1
102
RTVSPropertyOp34
 70
     1
102
RTVSPropertyOp35
 70
     1
102
RTVSPropertyOp36
 70
     1
102
RTVSPropertyOp37
 70
     1
102
RTVSPropertyOp38
 70
     1
102
RTVSPropertyOp39
 70
     1
102
RTVSPropertyOp40
 70
     1
102
RTVSPropertyOp41
 70
     1
102
RTVSPropertyOp42
 70
     1
102
RTVSPropertyOp43
 70
     1
102
RTVSPropertyOp44
 70
     1
102
RTVSPropertyOp45
 70
     1
102
RTVSPropertyOp46
 70
     1
102
RTVSPropertyOp47
 70
     1
102
RTVSPropertyOp48
 70
     1
102
RTVSPropertyOp49
 70
     1
102
RTVSPropertyOp50
 70
     1
102
RTVSPropertyOp51
 70
     0
102
RTVSPropertyOp52
 70
     0
102
RTVSPropertyOp53
 70
     1
102
RTVSPropertyOp54
 70
     1
102
RTVSPropertyOp55
 70
     1
102
RTVSPropertyOp56
 70
     1
102
RTVSPropertyOp57
 70
     1
102
RTVSPost2010Prop28
280
     0
102
RTVSPost2010PropOp28
 70
     1
102
RTVSPost2010Prop29
280
     1
102
RTVSPost2010PropOp29
 70
     1
102
RTVSPost2010Prop30
280
     1
102
RTVSPost2010PropOp30
 70
     1
102
RTVSPost2010Prop31
280
     0
102
RTVSPost2010PropOp31
 70
     1
102
RTVSPost2010Prop32
280
     0
102
RTVSPost2010PropOp32
 70
     1
102
RTVSPost2010Prop33
280
     0
102
RTVSPost2010PropOp33
 70
     1
102
RTVSPost2010Prop34
280
     0
102
RTVSPost2010PropOp34
 70
     1
102
RTVSPost2010Prop35
280
     0
102
RTVSPost2010PropOp35
 70
     1
102
RTVSPost2010Prop36
280
     0
102
RTVSPost2010PropOp36
 70
     1
102
RTVSPost2010Prop37
 90
       50
102
RTVSPost2010PropOp37
 70
     1
102
RTVSPost2010Prop38
140
0.0
102
RTVSPost2010PropOp38
 70
     1
102
RTVSPost2010Prop39
140
1.0
102
RTVSPost2010PropOp39
 70
     1
102
RTVSPost2010Prop40
 90
        0
102
RTVSPost2010PropOp40
 70
     1
102
RTVSPost2010Prop41ColorIndex
 90
       18
102
RTVSPost2010Prop41ColorRGB
 90
        0
102
RTVSPost2010PropOp41
 70
     1
102
RTVSPost2010Prop42
 90
       50
102
RTVSPost2010PropOp42
 70
     1
102
RTVSPost2010Prop43
 90
        3
102
RTVSPost2010PropOp43
 70
     1
102
RTVSPost2010Prop44ColorIndex
 90
        5
102
RTVSPost2010Prop44ColorRGB
 90
      255
102
RTVSPost2010PropOp44
 70
     1
102
RTVSPost2010Prop45
280
     0
102
RTVSPost2010PropOp45
 70
     1
102
RTVSPost2010Prop46
 90
       50
102
RTVSPost2010PropOp46
 70
     1
102
RTVSPost2010Prop47
 90
       50
102
RTVSPost2010PropOp47
 70
     1
102
RTVSPost2010Prop48
 90
       50
102
RTVSPost2010PropOp48
 70
     1
102
RTVSPost2010Prop49
280
     0
102
RTVSPost2010PropOp49
 70
     1
102
RTVSPost2010Prop50
 90
       50
102
RTVSPost2010PropOp50
 70
     1
102
RTVSPost2010Prop51ColorIndex
 90
      256
102
RTVSPost2010Prop51ColorRGB
 90
-16777216
102
RTVSPost2010PropOp51
 70
     0
102
RTVSPost2010Prop52
140
1.0
102
RTVSPost2010PropOp52
 70
     0
102
RTVSPost2010Prop53
 90
        2
102
RTVSPost2010PropOp53
 70
     1
102
RTVSPost2010Prop54
  1
strokes_ogs.tif
102
RTVSPost2010PropOp54
 70
     1
102
RTVSPost2010Prop55
280
     0
102
RTVSPost2010PropOp55
 70
     1
102
RTVSPost2010Prop56
140
1.0
102
RTVSPost2010PropOp56
 70
     1
102
RTVSPost2010Prop57
140
1.0
102
RTVSPost2010PropOp57
 70
     1
  0
XRECORD
  5
CF
102
{ACAD_REACTORS
330
CE
102
}
330
CE
100
AcDbXrecord
280
     1
102
RTVSPropertyOp0
 70
     1
102
RTVSPropertyOp1
 70
     1
102
RTVSPropertyOp2
 70
     1
102
RTVSPropertyOp3
 70
     1
102
RTVSPropertyOp4
 70
     1
102
RTVSPropertyOp5
 70
     1
102
RTVSPropertyOp6
 70
     1
102
RTVSPropertyOp7
 70
     1
102
RTVSPropertyOp8
 70
     1
102
RTVSPropertyOp9
 70
     1
102
RTVSPropertyOp10
 70
     1
102
RTVSPropertyOp11
 70
     1
102
RTVSPropertyOp12
 70
     1
102
RTVSPropertyOp13
 70
     1
102
RTVSPropertyOp14
 70
     1
102
RTVSPropertyOp15
 70
     1
102
RTVSPropertyOp16
 70
     1
102
RTVSPropertyOp17
 70
     1
102
RTVSPropertyOp18
 70
     1
102
RTVSPropertyOp19
 70
     1
102
RTVSPropertyOp20
 70
     1
102
RTVSPropertyOp21
 70
     1
102
RTVSPropertyOp22
 70
     1
102
RTVSPropertyOp23
 70
     1
102
RTVSPropertyOp24
 70
     1
102
RTVSPropertyOp25
 70
     1
102
RTVSPropertyOp26
 70
     1
102
RTVSPropertyOp27
 70
     1
102
RTVSPropertyOp28
 70
     1
102
RTVSPropertyOp29
 70
     1
102
RTVSPropertyOp30
 70
     1
102
RTVSPropertyOp31
 70
     1
102
RTVSPropertyOp32
 70
     1
102
RTVSPropertyOp33
 70
     1
102
RTVSPropertyOp34
 70
     1
102
RTVSPropertyOp35
 70
     1
102
RTVSPropertyOp36
 70
     1
102
RTVSPropertyOp37
 70
     1
102
RTVSPropertyOp38
 70
     1
102
RTVSPropertyOp39
 70
     1
102
RTVSPropertyOp40
 70
     1
102
RTVSPropertyOp41
 70
     1
102
RTVSPropertyOp42
 70
     1
102
RTVSPropertyOp43
 70
     1
102
RTVSPropertyOp44
 70
     1
102
RTVSPropertyOp45
 70
     1
102
RTVSPropertyOp46
 70
     1
102
RTVSPropertyOp47
 70
     1
102
RTVSPropertyOp48
 70
     1
102
RTVSPropertyOp49
 70
     1
102
RTVSPropertyOp50
 70
     1
102
RTVSPropertyOp51
 70
     0
102
RTVSPropertyOp52
 70
     0
102
RTVSPropertyOp53
 70
     1
102
RTVSPropertyOp54
 70
     1
102
RTVSPropertyOp55
 70
     1
102
RTVSPropertyOp56
 70
     1
102
RTVSPropertyOp57
 70
     1
102
RTVSPost2010Prop28
280
     0
102
RTVSPost2010PropOp28
 70
     1
102
RTVSPost2010Prop29
280
     1
102
RTVSPost2010PropOp29
 70
     1
102
RTVSPost2010Prop30
280
     1
102
RTVSPost2010PropOp30
 70
     1
102
RTVSPost2010Prop31
280
     0
102
RTVSPost2010PropOp31
 70
     1
102
RTVSPost2010Prop32
280
     0
102
RTVSPost2010PropOp32
 70
     1
102
RTVSPost2010Prop33
280
     0
102
RTVSPost2010PropOp33
 70
     1
102
RTVSPost2010Prop34
280
     0
102
RTVSPost2010PropOp34
 70
     1
102
RTVSPost2010Prop35
280
     0
102
RTVSPost2010PropOp35
 70
     1
102
RTVSPost2010Prop36
280
     0
102
RTVSPost2010PropOp36
 70
     1
102
RTVSPost2010Prop37
 90
       50
102
RTVSPost2010PropOp37
 70
     1
102
RTVSPost2010Prop38
140
0.0
102
RTVSPost2010PropOp38
 70
     1
102
RTVSPost2010Prop39
140
1.0
102
RTVSPost2010PropOp39
 70
     1
102
RTVSPost2010Prop40
 90
        0
102
RTVSPost2010PropOp40
 70
     1
102
RTVSPost2010Prop41ColorIndex
 90
       18
102
RTVSPost2010Prop41ColorRGB
 90
        0
102
RTVSPost2010PropOp41
 70
     1
102
RTVSPost2010Prop42
 90
       50
102
RTVSPost2010PropOp42
 70
     1
102
RTVSPost2010Prop43
 90
        3
102
RTVSPost2010PropOp43
 70
     1
102
RTVSPost2010Prop44ColorIndex
 90
        5
102
RTVSPost2010Prop44ColorRGB
 90
      255
102
RTVSPost2010PropOp44
 70
     1
102
RTVSPost2010Prop45
280
     0
102
RTVSPost2010PropOp45
 70
     1
102
RTVSPost2010Prop46
 90
       50
102
RTVSPost2010PropOp46
 70
     1
102
RTVSPost2010Prop47
 90
       50
102
RTVSPost2010PropOp47
 70
     1
102
RTVSPost2010Prop48
 90
       50
102
RTVSPost2010PropOp48
 70
     1
102
RTVSPost2010Prop49
280
     0
102
RTVSPost2010PropOp49
 70
     1
102
RTVSPost2010Prop50
 90
       50
102
RTVSPost2010PropOp50
 70
     1
102
RTVSPost2010Prop51ColorIndex
 90
      256
102
RTVSPost2010Prop51ColorRGB
 90
-16777216
102
RTVSPost2010PropOp51
 70
     0
102
RTVSPost2010Prop52
140
1.0
102
RTVSPost2010PropOp52
 70
     0
102
RTVSPost2010Prop53
 90
        2
102
RTVSPost2010PropOp53
 70
     1
102
RTVSPost2010Prop54
  1
strokes_ogs.tif
102
RTVSPost2010PropOp54
 70
     1
102
RTVSPost2010Prop55
280
     0
102
RTVSPost2010PropOp55
 70
     1
102
RTVSPost2010Prop56
140
1.0
102
RTVSPost2010PropOp56
 70
     1
102
RTVSPost2010Prop57
140
1.0
102
RTVSPost2010PropOp57
 70
     1
  0
XRECORD
  5
D7
102
{ACAD_REACTORS
330
D6
102
}
330
D6
100
AcDbXrecord
280
     1
102
RTVSPropertyOp0
 70
     1
102
RTVSPropertyOp1
 70
     1
102
RTVSPropertyOp2
 70
     1
102
RTVSPropertyOp3
 70
     1
102
RTVSPropertyOp4
 70
     1
102
RTVSPropertyOp5
 70
     1
102
RTVSPropertyOp6
 70
     1
102
RTVSPropertyOp7
 70
     1
102
RTVSPropertyOp8
 70
     1
102
RTVSPropertyOp9
 70
     1
102
RTVSPropertyOp10
 70
     1
102
RTVSPropertyOp11
 70
     1
102
RTVSPropertyOp12
 70
     1
102
RTVSPropertyOp13
 70
     1
102
RTVSPropertyOp14
 70
     1
102
RTVSPropertyOp15
 70
     1
102
RTVSPropertyOp16
 70
     1
102
RTVSPropertyOp17
 70
     1
102
RTVSPropertyOp18
 70
     1
102
RTVSPropertyOp19
 70
     1
102
RTVSPropertyOp20
 70
     1
102
RTVSPropertyOp21
 70
     1
102
RTVSPropertyOp22
 70
     1
102
RTVSPropertyOp23
 70
     1
102
RTVSPropertyOp24
 70
     1
102
RTVSPropertyOp25
 70
     1
102
RTVSPropertyOp26
 70
     1
102
RTVSPropertyOp27
 70
     1
102
RTVSPropertyOp28
 70
     1
102
RTVSPropertyOp29
 70
     1
102
RTVSPropertyOp30
 70
     1
102
RTVSPropertyOp31
 70
     1
102
RTVSPropertyOp32
 70
     1
102
RTVSPropertyOp33
 70
     1
102
RTVSPropertyOp34
 70
     1
102
RTVSPropertyOp35
 70
     1
102
RTVSPropertyOp36
 70
     1
102
RTVSPropertyOp37
 70
     1
102
RTVSPropertyOp38
 70
     1
102
RTVSPropertyOp39
 70
     1
102
RTVSPropertyOp40
 70
     1
102
RTVSPropertyOp41
 70
     1
102
RTVSPropertyOp42
 70
     1
102
RTVSPropertyOp43
 70
     1
102
RTVSPropertyOp44
 70
     1
102
RTVSPropertyOp45
 70
     1
102
RTVSPropertyOp46
 70
     1
102
RTVSPropertyOp47
 70
     1
102
RTVSPropertyOp48
 70
     1
102
RTVSPropertyOp49
 70
     1
102
RTVSPropertyOp50
 70
     1
102
RTVSPropertyOp51
 70
     0
102
RTVSPropertyOp52
 70
     0
102
RTVSPropertyOp53
 70
     1
102
RTVSPropertyOp54
 70
     1
102
RTVSPropertyOp55
 70
     1
102
RTVSPropertyOp56
 70
     1
102
RTVSPropertyOp57
 70
     1
102
RTVSPost2010Prop28
280
     0
102
RTVSPost2010PropOp28
 70
     1
102
RTVSPost2010Prop29
280
     1
102
RTVSPost2010PropOp29
 70
     1
102
RTVSPost2010Prop30
280
     1
102
RTVSPost2010PropOp30
 70
     1
102
RTVSPost2010Prop31
280
     0
102
RTVSPost2010PropOp31
 70
     1
102
RTVSPost2010Prop32
280
     0
102
RTVSPost2010PropOp32
 70
     1
102
RTVSPost2010Prop33
280
     0
102
RTVSPost2010PropOp33
 70
     1
102
RTVSPost2010Prop34
280
     0
102
RTVSPost2010PropOp34
 70
     1
102
RTVSPost2010Prop35
280
     0
102
RTVSPost2010PropOp35
 70
     1
102
RTVSPost2010Prop36
280
     0
102
RTVSPost2010PropOp36
 70
     1
102
RTVSPost2010Prop37
 90
       50
102
RTVSPost2010PropOp37
 70
     1
102
RTVSPost2010Prop38
140
0.0
102
RTVSPost2010PropOp38
 70
     1
102
RTVSPost2010Prop39
140
1.0
102
RTVSPost2010PropOp39
 70
     1
102
RTVSPost2010Prop40
 90
        0
102
RTVSPost2010PropOp40
 70
     1
102
RTVSPost2010Prop41ColorIndex
 90
       18
102
RTVSPost2010Prop41ColorRGB
 90
        0
102
RTVSPost2010PropOp41
 70
     1
102
RTVSPost2010Prop42
 90
       50
102
RTVSPost2010PropOp42
 70
     1
102
RTVSPost2010Prop43
 90
        3
102
RTVSPost2010PropOp43
 70
     1
102
RTVSPost2010Prop44ColorIndex
 90
        5
102
RTVSPost2010Prop44ColorRGB
 90
      255
102
RTVSPost2010PropOp44
 70
     1
102
RTVSPost2010Prop45
280
     0
102
RTVSPost2010PropOp45
 70
     1
102
RTVSPost2010Prop46
 90
       50
102
RTVSPost2010PropOp46
 70
     1
102
RTVSPost2010Prop47
 90
       50
102
RTVSPost2010PropOp47
 70
     1
102
RTVSPost2010Prop48
 90
       50
102
RTVSPost2010PropOp48
 70
     1
102
RTVSPost2010Prop49
280
     0
102
RTVSPost2010PropOp49
 70
     1
102
RTVSPost2010Prop50
 90
       50
102
RTVSPost2010PropOp50
 70
     1
102
RTVSPost2010Prop51ColorIndex
 90
      256
102
RTVSPost2010Prop51ColorRGB
 90
-16777216
102
RTVSPost2010PropOp51
 70
     0
102
RTVSPost2010Prop52
140
1.0
102
RTVSPost2010PropOp52
 70
     0
102
RTVSPost2010Prop53
 90
        2
102
RTVSPost2010PropOp53
 70
     1
102
RTVSPost2010Prop54
  1
strokes_ogs.tif
102
RTVSPost2010PropOp54
 70
     1
102
RTVSPost2010Prop55
280
     0
102
RTVSPost2010PropOp55
 70
     1
102
RTVSPost2010Prop56
140
1.0
102
RTVSPost2010PropOp56
 70
     1
102
RTVSPost2010Prop57
140
1.0
102
RTVSPost2010PropOp57
 70
     1
  0
XRECORD
  5
CB
102
{ACAD_REACTORS
330
CA
102
}
330
CA
100
AcDbXrecord
280
     1
102
RTVSPropertyOp0
 70
     1
102
RTVSPropertyOp1
 70
     1
102
RTVSPropertyOp2
 70
     1
102
RTVSPropertyOp3
 70
     1
102
RTVSPropertyOp4
 70
     1
102
RTVSPropertyOp5
 70
     1
102
RTVSPropertyOp6
 70
     1
102
RTVSPropertyOp7
 70
     1
102
RTVSPropertyOp8
 70
     1
102
RTVSPropertyOp9
 70
     1
102
RTVSPropertyOp10
 70
     1
102
RTVSPropertyOp11
 70
     1
102
RTVSPropertyOp12
 70
     1
102
RTVSPropertyOp13
 70
     1
102
RTVSPropertyOp14
 70
     1
102
RTVSPropertyOp15
 70
     1
102
RTVSPropertyOp16
 70
     1
102
RTVSPropertyOp17
 70
     1
102
RTVSPropertyOp18
 70
     1
102
RTVSPropertyOp19
 70
     1
102
RTVSPropertyOp20
 70
     1
102
RTVSPropertyOp21
 70
     1
102
RTVSPropertyOp22
 70
     1
102
RTVSPropertyOp23
 70
     1
102
RTVSPropertyOp24
 70
     1
102
RTVSPropertyOp25
 70
     1
102
RTVSPropertyOp26
 70
     1
102
RTVSPropertyOp27
 70
     1
102
RTVSPropertyOp28
 70
     1
102
RTVSPropertyOp29
 70
     1
102
RTVSPropertyOp30
 70
     1
102
RTVSPropertyOp31
 70
     1
102
RTVSPropertyOp32
 70
     1
102
RTVSPropertyOp33
 70
     1
102
RTVSPropertyOp34
 70
     1
102
RTVSPropertyOp35
 70
     1
102
RTVSPropertyOp36
 70
     1
102
RTVSPropertyOp37
 70
     1
102
RTVSPropertyOp38
 70
     1
102
RTVSPropertyOp39
 70
     1
102
RTVSPropertyOp40
 70
     1
102
RTVSPropertyOp41
 70
     1
102
RTVSPropertyOp42
 70
     1
102
RTVSPropertyOp43
 70
     1
102
RTVSPropertyOp44
 70
     1
102
RTVSPropertyOp45
 70
     1
102
RTVSPropertyOp46
 70
     1
102
RTVSPropertyOp47
 70
     1
102
RTVSPropertyOp48
 70
     1
102
RTVSPropertyOp49
 70
     1
102
RTVSPropertyOp50
 70
     1
102
RTVSPropertyOp51
 70
     0
102
RTVSPropertyOp52
 70
     0
102
RTVSPropertyOp53
 70
     1
102
RTVSPropertyOp54
 70
     1
102
RTVSPropertyOp55
 70
     1
102
RTVSPropertyOp56
 70
     1
102
RTVSPropertyOp57
 70
     1
102
RTVSPost2010Prop28
280
     0
102
RTVSPost2010PropOp28
 70
     1
102
RTVSPost2010Prop29
280
     1
102
RTVSPost2010PropOp29
 70
     1
102
RTVSPost2010Prop30
280
     1
102
RTVSPost2010PropOp30
 70
     1
102
RTVSPost2010Prop31
280
     0
102
RTVSPost2010PropOp31
 70
     1
102
RTVSPost2010Prop32
280
     0
102
RTVSPost2010PropOp32
 70
     1
102
RTVSPost2010Prop33
280
     0
102
RTVSPost2010PropOp33
 70
     1
102
RTVSPost2010Prop34
280
     0
102
RTVSPost2010PropOp34
 70
     1
102
RTVSPost2010Prop35
280
     0
102
RTVSPost2010PropOp35
 70
     1
102
RTVSPost2010Prop36
280
     0
102
RTVSPost2010PropOp36
 70
     1
102
RTVSPost2010Prop37
 90
       50
102
RTVSPost2010PropOp37
 70
     1
102
RTVSPost2010Prop38
140
0.0
102
RTVSPost2010PropOp38
 70
     1
102
RTVSPost2010Prop39
140
1.0
102
RTVSPost2010PropOp39
 70
     1
102
RTVSPost2010Prop40
 90
        0
102
RTVSPost2010PropOp40
 70
     1
102
RTVSPost2010Prop41ColorIndex
 90
       18
102
RTVSPost2010Prop41ColorRGB
 90
        0
102
RTVSPost2010PropOp41
 70
     1
102
RTVSPost2010Prop42
 90
       50
102
RTVSPost2010PropOp42
 70
     1
102
RTVSPost2010Prop43
 90
        3
102
RTVSPost2010PropOp43
 70
     1
102
RTVSPost2010Prop44ColorIndex
 90
        5
102
RTVSPost2010Prop44ColorRGB
 90
      255
102
RTVSPost2010PropOp44
 70
     1
102
RTVSPost2010Prop45
280
     0
102
RTVSPost2010PropOp45
 70
     1
102
RTVSPost2010Prop46
 90
       50
102
RTVSPost2010PropOp46
 70
     1
102
RTVSPost2010Prop47
 90
       50
102
RTVSPost2010PropOp47
 70
     1
102
RTVSPost2010Prop48
 90
       50
102
RTVSPost2010PropOp48
 70
     1
102
RTVSPost2010Prop49
280
     0
102
RTVSPost2010PropOp49
 70
     1
102
RTVSPost2010Prop50
 90
       50
102
RTVSPost2010PropOp50
 70
     1
102
RTVSPost2010Prop51ColorIndex
 90
      256
102
RTVSPost2010Prop51ColorRGB
 90
-16777216
102
RTVSPost2010PropOp51
 70
     0
102
RTVSPost2010Prop52
140
1.0
102
RTVSPost2010PropOp52
 70
     0
102
RTVSPost2010Prop53
 90
        2
102
RTVSPost2010PropOp53
 70
     1
102
RTVSPost2010Prop54
  1
strokes_ogs.tif
102
RTVSPost2010PropOp54
 70
     1
102
RTVSPost2010Prop55
280
     0
102
RTVSPost2010PropOp55
 70
     1
102
RTVSPost2010Prop56
140
1.0
102
RTVSPost2010PropOp56
 70
     1
102
RTVSPost2010Prop57
140
1.0
102
RTVSPost2010PropOp57
 70
     1
  0
XRECORD
  5
CD
102
{ACAD_REACTORS
330
CC
102
}
330
CC
100
AcDbXrecord
280
     1
102
RTVSPropertyOp0
 70
     1
102
RTVSPropertyOp1
 70
     1
102
RTVSPropertyOp2
 70
     1
102
RTVSPropertyOp3
 70
     1
102
RTVSPropertyOp4
 70
     1
102
RTVSPropertyOp5
 70
     1
102
RTVSPropertyOp6
 70
     1
102
RTVSPropertyOp7
 70
     1
102
RTVSPropertyOp8
 70
     1
102
RTVSPropertyOp9
 70
     1
102
RTVSPropertyOp10
 70
     1
102
RTVSPropertyOp11
 70
     1
102
RTVSPropertyOp12
 70
     1
102
RTVSPropertyOp13
 70
     1
102
RTVSPropertyOp14
 70
     1
102
RTVSPropertyOp15
 70
     1
102
RTVSPropertyOp16
 70
     1
102
RTVSPropertyOp17
 70
     1
102
RTVSPropertyOp18
 70
     1
102
RTVSPropertyOp19
 70
     1
102
RTVSPropertyOp20
 70
     1
102
RTVSPropertyOp21
 70
     1
102
RTVSPropertyOp22
 70
     1
102
RTVSPropertyOp23
 70
     1
102
RTVSPropertyOp24
 70
     1
102
RTVSPropertyOp25
 70
     1
102
RTVSPropertyOp26
 70
     1
102
RTVSPropertyOp27
 70
     1
102
RTVSPropertyOp28
 70
     1
102
RTVSPropertyOp29
 70
     1
102
RTVSPropertyOp30
 70
     1
102
RTVSPropertyOp31
 70
     1
102
RTVSPropertyOp32
 70
     1
102
RTVSPropertyOp33
 70
     1
102
RTVSPropertyOp34
 70
     1
102
RTVSPropertyOp35
 70
     1
102
RTVSPropertyOp36
 70
     1
102
RTVSPropertyOp37
 70
     1
102
RTVSPropertyOp38
 70
     1
102
RTVSPropertyOp39
 70
     1
102
RTVSPropertyOp40
 70
     1
102
RTVSPropertyOp41
 70
     1
102
RTVSPropertyOp42
 70
     1
102
RTVSPropertyOp43
 70
     1
102
RTVSPropertyOp44
 70
     1
102
RTVSPropertyOp45
 70
     1
102
RTVSPropertyOp46
 70
     1
102
RTVSPropertyOp47
 70
     1
102
RTVSPropertyOp48
 70
     1
102
RTVSPropertyOp49
 70
     1
102
RTVSPropertyOp50
 70
     1
102
RTVSPropertyOp51
 70
     0
102
RTVSPropertyOp52
 70
     0
102
RTVSPropertyOp53
 70
     1
102
RTVSPropertyOp54
 70
     1
102
RTVSPropertyOp55
 70
     1
102
RTVSPropertyOp56
 70
     1
102
RTVSPropertyOp57
 70
     1
102
RTVSPost2010Prop28
280
     0
102
RTVSPost2010PropOp28
 70
     1
102
RTVSPost2010Prop29
280
     1
102
RTVSPost2010PropOp29
 70
     1
102
RTVSPost2010Prop30
280
     1
102
RTVSPost2010PropOp30
 70
     1
102
RTVSPost2010Prop31
280
     0
102
RTVSPost2010PropOp31
 70
     1
102
RTVSPost2010Prop32
280
     0
102
RTVSPost2010PropOp32
 70
     1
102
RTVSPost2010Prop33
280
     0
102
RTVSPost2010PropOp33
 70
     1
102
RTVSPost2010Prop34
280
     0
102
RTVSPost2010PropOp34
 70
     1
102
RTVSPost2010Prop35
280
     0
102
RTVSPost2010PropOp35
 70
     1
102
RTVSPost2010Prop36
280
     0
102
RTVSPost2010PropOp36
 70
     1
102
RTVSPost2010Prop37
 90
       50
102
RTVSPost2010PropOp37
 70
     1
102
RTVSPost2010Prop38
140
0.0
102
RTVSPost2010PropOp38
 70
     1
102
RTVSPost2010Prop39
140
1.0
102
RTVSPost2010PropOp39
 70
     1
102
RTVSPost2010Prop40
 90
        0
102
RTVSPost2010PropOp40
 70
     1
102
RTVSPost2010Prop41ColorIndex
 90
       18
102
RTVSPost2010Prop41ColorRGB
 90
        0
102
RTVSPost2010PropOp41
 70
     1
102
RTVSPost2010Prop42
 90
       50
102
RTVSPost2010PropOp42
 70
     1
102
RTVSPost2010Prop43
 90
        3
102
RTVSPost2010PropOp43
 70
     1
102
RTVSPost2010Prop44ColorIndex
 90
        5
102
RTVSPost2010Prop44ColorRGB
 90
      255
102
RTVSPost2010PropOp44
 70
     1
102
RTVSPost2010Prop45
280
     0
102
RTVSPost2010PropOp45
 70
     1
102
RTVSPost2010Prop46
 90
       50
102
RTVSPost2010PropOp46
 70
     1
102
RTVSPost2010Prop47
 90
       50
102
RTVSPost2010PropOp47
 70
     1
102
RTVSPost2010Prop48
 90
       50
102
RTVSPost2010PropOp48
 70
     1
102
RTVSPost2010Prop49
280
     0
102
RTVSPost2010PropOp49
 70
     1
102
RTVSPost2010Prop50
 90
       50
102
RTVSPost2010PropOp50
 70
     1
102
RTVSPost2010Prop51ColorIndex
 90
      256
102
RTVSPost2010Prop51ColorRGB
 90
-16777216
102
RTVSPost2010PropOp51
 70
     0
102
RTVSPost2010Prop52
140
1.0
102
RTVSPost2010PropOp52
 70
     0
102
RTVSPost2010Prop53
 90
        2
102
RTVSPost2010PropOp53
 70
     1
102
RTVSPost2010Prop54
  1
strokes_ogs.tif
102
RTVSPost2010PropOp54
 70
     1
102
RTVSPost2010Prop55
280
     0
102
RTVSPost2010PropOp55
 70
     1
102
RTVSPost2010Prop56
140
1.0
102
RTVSPost2010PropOp56
 70
     1
102
RTVSPost2010Prop57
140
1.0
102
RTVSPost2010PropOp57
 70
     1
  0
XRECORD
  5
DD
102
{ACAD_REACTORS
330
DC
102
}
330
DC
100
AcDbXrecord
280
     1
102
RTVSPropertyOp0
 70
     0
102
RTVSPropertyOp1
 70
     0
102
RTVSPropertyOp2
 70
     0
102
RTVSPropertyOp3
 70
     0
102
RTVSPropertyOp4
 70
     0
102
RTVSPropertyOp5
 70
     0
102
RTVSPropertyOp6
 70
     0
102
RTVSPropertyOp7
 70
     0
102
RTVSPropertyOp8
 70
     0
102
RTVSPropertyOp9
 70
     0
102
RTVSPropertyOp10
 70
     0
102
RTVSPropertyOp11
 70
     0
102
RTVSPropertyOp12
 70
     0
102
RTVSPropertyOp13
 70
     0
102
RTVSPropertyOp14
 70
     2
102
RTVSPropertyOp15
 70
     0
102
RTVSPropertyOp16
 70
     0
102
RTVSPropertyOp17
 70
     0
102
RTVSPropertyOp18
 70
     0
102
RTVSPropertyOp19
 70
     0
102
RTVSPropertyOp20
 70
     0
102
RTVSPropertyOp21
 70
     0
102
RTVSPropertyOp22
 70
     0
102
RTVSPropertyOp23
 70
     0
102
RTVSPropertyOp24
 70
     0
102
RTVSPropertyOp25
 70
     0
102
RTVSPropertyOp26
 70
     0
102
RTVSPropertyOp27
 70
     0
102
RTVSPropertyOp28
 70
     0
102
RTVSPropertyOp29
 70
     0
102
RTVSPropertyOp30
 70
     0
102
RTVSPropertyOp31
 70
     0
102
RTVSPropertyOp32
 70
     0
102
RTVSPropertyOp33
 70
     0
102
RTVSPropertyOp34
 70
     0
102
RTVSPropertyOp35
 70
     0
102
RTVSPropertyOp36
 70
     0
102
RTVSPropertyOp37
 70
     0
102
RTVSPropertyOp38
 70
     0
102
RTVSPropertyOp39
 70
     0
102
RTVSPropertyOp40
 70
     0
102
RTVSPropertyOp41
 70
     0
102
RTVSPropertyOp42
 70
     0
102
RTVSPropertyOp43
 70
     0
102
RTVSPropertyOp44
 70
     0
102
RTVSPropertyOp45
 70
     0
102
RTVSPropertyOp46
 70
     0
102
RTVSPropertyOp47
 70
     0
102
RTVSPropertyOp48
 70
     0
102
RTVSPropertyOp49
 70
     0
102
RTVSPropertyOp50
 70
     0
102
RTVSPropertyOp51
 70
     0
102
RTVSPropertyOp52
 70
     0
102
RTVSPropertyOp53
 70
     0
102
RTVSPropertyOp54
 70
     0
102
RTVSPropertyOp55
 70
     0
102
RTVSPropertyOp56
 70
     0
102
RTVSPropertyOp57
 70
     0
102
RTVSPost2010Prop28
280
     0
102
RTVSPost2010PropOp28
 70
     0
102
RTVSPost2010Prop29
280
     1
102
RTVSPost2010PropOp29
 70
     0
102
RTVSPost2010Prop30
280
     1
102
RTVSPost2010PropOp30
 70
     0
102
RTVSPost2010Prop31
280
     0
102
RTVSPost2010PropOp31
 70
     0
102
RTVSPost2010Prop32
280
     0
102
RTVSPost2010PropOp32
 70
     0
102
RTVSPost2010Prop33
280
     0
102
RTVSPost2010PropOp33
 70
     0
102
RTVSPost2010Prop34
280
     0
102
RTVSPost2010PropOp34
 70
     0
102
RTVSPost2010Prop35
280
     0
102
RTVSPost2010PropOp35
 70
     0
102
RTVSPost2010Prop36
280
     0
102
RTVSPost2010PropOp36
 70
     0
102
RTVSPost2010Prop37
 90
       50
102
RTVSPost2010PropOp37
 70
     0
102
RTVSPost2010Prop38
140
0.0
102
RTVSPost2010PropOp38
 70
     0
102
RTVSPost2010Prop39
140
1.0
102
RTVSPost2010PropOp39
 70
     0
102
RTVSPost2010Prop40
 90
        0
102
RTVSPost2010PropOp40
 70
     0
102
RTVSPost2010Prop41ColorIndex
 90
       18
102
RTVSPost2010Prop41ColorRGB
 90
        0
102
RTVSPost2010PropOp41
 70
     0
102
RTVSPost2010Prop42
 90
       50
102
RTVSPost2010PropOp42
 70
     0
102
RTVSPost2010Prop43
 90
        3
102
RTVSPost2010PropOp43
 70
     0
102
RTVSPost2010Prop44ColorIndex
 90
        5
102
RTVSPost2010Prop44ColorRGB
 90
      255
102
RTVSPost2010PropOp44
 70
     0
102
RTVSPost2010Prop45
280
     0
102
RTVSPost2010PropOp45
 70
     0
102
RTVSPost2010Prop46
 90
       50
102
RTVSPost2010PropOp46
 70
     0
102
RTVSPost2010Prop47
 90
       50
102
RTVSPost2010PropOp47
 70
     0
102
RTVSPost2010Prop48
 90
       50
102
RTVSPost2010PropOp48
 70
     0
102
RTVSPost2010Prop49
280
     0
102
RTVSPost2010PropOp49
 70
     0
102
RTVSPost2010Prop50
 90
       50
102
RTVSPost2010PropOp50
 70
     0
102
RTVSPost2010Prop51ColorIndex
 90
      256
102
RTVSPost2010Prop51ColorRGB
 90
-16777216
102
RTVSPost2010PropOp51
 70
     0
102
RTVSPost2010Prop52
140
1.0
102
RTVSPost2010PropOp52
 70
     0
102
RTVSPost2010Prop53
 90
        2
102
RTVSPost2010PropOp53
 70
     0
102
RTVSPost2010Prop54
  1
strokes_ogs.tif
102
RTVSPost2010PropOp54
 70
     0
102
RTVSPost2010Prop55
280
     0
102
RTVSPost2010PropOp55
 70
     0
102
RTVSPost2010Prop56
140
1.0
102
RTVSPost2010PropOp56
 70
     0
102
RTVSPost2010Prop57
140
1.0
102
RTVSPost2010PropOp57
 70
     0
  0
XRECORD
  5
D5
102
{ACAD_REACTORS
330
D4
102
}
330
D4
100
AcDbXrecord
280
     1
102
RTVSPropertyOp0
 70
     1
102
RTVSPropertyOp1
 70
     1
102
RTVSPropertyOp2
 70
     1
102
RTVSPropertyOp3
 70
     1
102
RTVSPropertyOp4
 70
     1
102
RTVSPropertyOp5
 70
     1
102
RTVSPropertyOp6
 70
     1
102
RTVSPropertyOp7
 70
     1
102
RTVSPropertyOp8
 70
     1
102
RTVSPropertyOp9
 70
     1
102
RTVSPropertyOp10
 70
     1
102
RTVSPropertyOp11
 70
     1
102
RTVSPropertyOp12
 70
     1
102
RTVSPropertyOp13
 70
     1
102
RTVSPropertyOp14
 70
     1
102
RTVSPropertyOp15
 70
     1
102
RTVSPropertyOp16
 70
     1
102
RTVSPropertyOp17
 70
     1
102
RTVSPropertyOp18
 70
     1
102
RTVSPropertyOp19
 70
     1
102
RTVSPropertyOp20
 70
     1
102
RTVSPropertyOp21
 70
     1
102
RTVSPropertyOp22
 70
     1
102
RTVSPropertyOp23
 70
     1
102
RTVSPropertyOp24
 70
     1
102
RTVSPropertyOp25
 70
     1
102
RTVSPropertyOp26
 70
     1
102
RTVSPropertyOp27
 70
     1
102
RTVSPropertyOp28
 70
     1
102
RTVSPropertyOp29
 70
     1
102
RTVSPropertyOp30
 70
     1
102
RTVSPropertyOp31
 70
     1
102
RTVSPropertyOp32
 70
     1
102
RTVSPropertyOp33
 70
     1
102
RTVSPropertyOp34
 70
     1
102
RTVSPropertyOp35
 70
     1
102
RTVSPropertyOp36
 70
     1
102
RTVSPropertyOp37
 70
     1
102
RTVSPropertyOp38
 70
     1
102
RTVSPropertyOp39
 70
     1
102
RTVSPropertyOp40
 70
     1
102
RTVSPropertyOp41
 70
     1
102
RTVSPropertyOp42
 70
     1
102
RTVSPropertyOp43
 70
     1
102
RTVSPropertyOp44
 70
     1
102
RTVSPropertyOp45
 70
     1
102
RTVSPropertyOp46
 70
     1
102
RTVSPropertyOp47
 70
     1
102
RTVSPropertyOp48
 70
     1
102
RTVSPropertyOp49
 70
     1
102
RTVSPropertyOp50
 70
     1
102
RTVSPropertyOp51
 70
     0
102
RTVSPropertyOp52
 70
     0
102
RTVSPropertyOp53
 70
     1
102
RTVSPropertyOp54
 70
     1
102
RTVSPropertyOp55
 70
     1
102
RTVSPropertyOp56
 70
     1
102
RTVSPropertyOp57
 70
     1
102
RTVSPost2010Prop28
280
     0
102
RTVSPost2010PropOp28
 70
     1
102
RTVSPost2010Prop29
280
     1
102
RTVSPost2010PropOp29
 70
     1
102
RTVSPost2010Prop30
280
     1
102
RTVSPost2010PropOp30
 70
     1
102
RTVSPost2010Prop31
280
     0
102
RTVSPost2010PropOp31
 70
     1
102
RTVSPost2010Prop32
280
     0
102
RTVSPost2010PropOp32
 70
     1
102
RTVSPost2010Prop33
280
     0
102
RTVSPost2010PropOp33
 70
     1
102
RTVSPost2010Prop34
280
     0
102
RTVSPost2010PropOp34
 70
     1
102
RTVSPost2010Prop35
280
     0
102
RTVSPost2010PropOp35
 70
     1
102
RTVSPost2010Prop36
280
     0
102
RTVSPost2010PropOp36
 70
     1
102
RTVSPost2010Prop37
 90
       50
102
RTVSPost2010PropOp37
 70
     1
102
RTVSPost2010Prop38
140
0.0
102
RTVSPost2010PropOp38
 70
     1
102
RTVSPost2010Prop39
140
1.0
102
RTVSPost2010PropOp39
 70
     1
102
RTVSPost2010Prop40
 90
        0
102
RTVSPost2010PropOp40
 70
     1
102
RTVSPost2010Prop41ColorIndex
 90
       18
102
RTVSPost2010Prop41ColorRGB
 90
        0
102
RTVSPost2010PropOp41
 70
     1
102
RTVSPost2010Prop42
 90
       50
102
RTVSPost2010PropOp42
 70
     1
102
RTVSPost2010Prop43
 90
        3
102
RTVSPost2010PropOp43
 70
     1
102
RTVSPost2010Prop44ColorIndex
 90
        5
102
RTVSPost2010Prop44ColorRGB
 90
      255
102
RTVSPost2010PropOp44
 70
     1
102
RTVSPost2010Prop45
280
     0
102
RTVSPost2010PropOp45
 70
     1
102
RTVSPost2010Prop46
 90
       50
102
RTVSPost2010PropOp46
 70
     1
102
RTVSPost2010Prop47
 90
       50
102
RTVSPost2010PropOp47
 70
     1
102
RTVSPost2010Prop48
 90
       50
102
RTVSPost2010PropOp48
 70
     1
102
RTVSPost2010Prop49
280
     0
102
RTVSPost2010PropOp49
 70
     1
102
RTVSPost2010Prop50
 90
       50
102
RTVSPost2010PropOp50
 70
     1
102
RTVSPost2010Prop51ColorIndex
 90
      256
102
RTVSPost2010Prop51ColorRGB
 90
-16777216
102
RTVSPost2010PropOp51
 70
     0
102
RTVSPost2010Prop52
140
1.0
102
RTVSPost2010PropOp52
 70
     0
102
RTVSPost2010Prop53
 90
        2
102
RTVSPost2010PropOp53
 70
     1
102
RTVSPost2010Prop54
  1
strokes_ogs.tif
102
RTVSPost2010PropOp54
 70
     1
102
RTVSPost2010Prop55
280
     0
102
RTVSPost2010PropOp55
 70
     1
102
RTVSPost2010Prop56
140
1.0
102
RTVSPost2010PropOp56
 70
     1
102
RTVSPost2010Prop57
140
1.0
102
RTVSPost2010PropOp57
 70
     1
  0
XRECORD
  5
B9
102
{ACAD_REACTORS
330
B8
102
}
330
B8
100
AcDbXrecord
280
     1
102
RTVSPropertyOp0
 70
     1
102
RTVSPropertyOp1
 70
     1
102
RTVSPropertyOp2
 70
     1
102
RTVSPropertyOp3
 70
     1
102
RTVSPropertyOp4
 70
     1
102
RTVSPropertyOp5
 70
     1
102
RTVSPropertyOp6
 70
     1
102
RTVSPropertyOp7
 70
     1
102
RTVSPropertyOp8
 70
     1
102
RTVSPropertyOp9
 70
     1
102
RTVSPropertyOp10
 70
     1
102
RTVSPropertyOp11
 70
     1
102
RTVSPropertyOp12
 70
     1
102
RTVSPropertyOp13
 70
     1
102
RTVSPropertyOp14
 70
     1
102
RTVSPropertyOp15
 70
     1
102
RTVSPropertyOp16
 70
     1
102
RTVSPropertyOp17
 70
     1
102
RTVSPropertyOp18
 70
     1
102
RTVSPropertyOp19
 70
     1
102
RTVSPropertyOp20
 70
     1
102
RTVSPropertyOp21
 70
     1
102
RTVSPropertyOp22
 70
     1
102
RTVSPropertyOp23
 70
     1
102
RTVSPropertyOp24
 70
     1
102
RTVSPropertyOp25
 70
     1
102
RTVSPropertyOp26
 70
     1
102
RTVSPropertyOp27
 70
     1
102
RTVSPropertyOp28
 70
     1
102
RTVSPropertyOp29
 70
     1
102
RTVSPropertyOp30
 70
     1
102
RTVSPropertyOp31
 70
     1
102
RTVSPropertyOp32
 70
     1
102
RTVSPropertyOp33
 70
     1
102
RTVSPropertyOp34
 70
     1
102
RTVSPropertyOp35
 70
     1
102
RTVSPropertyOp36
 70
     1
102
RTVSPropertyOp37
 70
     1
102
RTVSPropertyOp38
 70
     1
102
RTVSPropertyOp39
 70
     1
102
RTVSPropertyOp40
 70
     1
102
RTVSPropertyOp41
 70
     1
102
RTVSPropertyOp42
 70
     1
102
RTVSPropertyOp43
 70
     1
102
RTVSPropertyOp44
 70
     1
102
RTVSPropertyOp45
 70
     1
102
RTVSPropertyOp46
 70
     1
102
RTVSPropertyOp47
 70
     1
102
RTVSPropertyOp48
 70
     1
102
RTVSPropertyOp49
 70
     1
102
RTVSPropertyOp50
 70
     1
102
RTVSPropertyOp51
 70
     0
102
RTVSPropertyOp52
 70
     0
102
RTVSPropertyOp53
 70
     1
102
RTVSPropertyOp54
 70
     1
102
RTVSPropertyOp55
 70
     1
102
RTVSPropertyOp56
 70
     1
102
RTVSPropertyOp57
 70
     1
102
RTVSPost2010Prop28
280
     0
102
RTVSPost2010PropOp28
 70
     1
102
RTVSPost2010Prop29
280
     1
102
RTVSPost2010PropOp29
 70
     1
102
RTVSPost2010Prop30
280
     1
102
RTVSPost2010PropOp30
 70
     1
102
RTVSPost2010Prop31
280
     0
102
RTVSPost2010PropOp31
 70
     1
102
RTVSPost2010Prop32
280
     0
102
RTVSPost2010PropOp32
 70
     1
102
RTVSPost2010Prop33
280
     0
102
RTVSPost2010PropOp33
 70
     1
102
RTVSPost2010Prop34
280
     0
102
RTVSPost2010PropOp34
 70
     1
102
RTVSPost2010Prop35
280
     0
102
RTVSPost2010PropOp35
 70
     1
102
RTVSPost2010Prop36
280
     0
102
RTVSPost2010PropOp36
 70
     1
102
RTVSPost2010Prop37
 90
       50
102
RTVSPost2010PropOp37
 70
     1
102
RTVSPost2010Prop38
140
0.0
102
RTVSPost2010PropOp38
 70
     1
102
RTVSPost2010Prop39
140
1.0
102
RTVSPost2010PropOp39
 70
     1
102
RTVSPost2010Prop40
 90
        0
102
RTVSPost2010PropOp40
 70
     1
102
RTVSPost2010Prop41ColorIndex
 90
       18
102
RTVSPost2010Prop41ColorRGB
 90
        0
102
RTVSPost2010PropOp41
 70
     1
102
RTVSPost2010Prop42
 90
       50
102
RTVSPost2010PropOp42
 70
     1
102
RTVSPost2010Prop43
 90
        3
102
RTVSPost2010PropOp43
 70
     1
102
RTVSPost2010Prop44ColorIndex
 90
        5
102
RTVSPost2010Prop44ColorRGB
 90
      255
102
RTVSPost2010PropOp44
 70
     1
102
RTVSPost2010Prop45
280
     0
102
RTVSPost2010PropOp45
 70
     1
102
RTVSPost2010Prop46
 90
       50
102
RTVSPost2010PropOp46
 70
     1
102
RTVSPost2010Prop47
 90
       50
102
RTVSPost2010PropOp47
 70
     1
102
RTVSPost2010Prop48
 90
       50
102
RTVSPost2010PropOp48
 70
     1
102
RTVSPost2010Prop49
280
     0
102
RTVSPost2010PropOp49
 70
     1
102
RTVSPost2010Prop50
 90
       50
102
RTVSPost2010PropOp50
 70
     1
102
RTVSPost2010Prop51ColorIndex
 90
      256
102
RTVSPost2010Prop51ColorRGB
 90
-16777216
102
RTVSPost2010PropOp51
 70
     0
102
RTVSPost2010Prop52
140
1.0
102
RTVSPost2010PropOp52
 70
     0
102
RTVSPost2010Prop53
 90
        2
102
RTVSPost2010PropOp53
 70
     1
102
RTVSPost2010Prop54
  1
strokes_ogs.tif
102
RTVSPost2010PropOp54
 70
     1
102
RTVSPost2010Prop55
280
     0
102
RTVSPost2010PropOp55
 70
     1
102
RTVSPost2010Prop56
140
1.0
102
RTVSPost2010PropOp56
 70
     1
102
RTVSPost2010Prop57
140
1.0
102
RTVSPost2010PropOp57
 70
     1
  0
XRECORD
  5
BB
102
{ACAD_REACTORS
330
BA
102
}
330
BA
100
AcDbXrecord
280
     1
102
RTVSPropertyOp0
 70
     1
102
RTVSPropertyOp1
 70
     1
102
RTVSPropertyOp2
 70
     1
102
RTVSPropertyOp3
 70
     1
102
RTVSPropertyOp4
 70
     1
102
RTVSPropertyOp5
 70
     1
102
RTVSPropertyOp6
 70
     1
102
RTVSPropertyOp7
 70
     1
102
RTVSPropertyOp8
 70
     1
102
RTVSPropertyOp9
 70
     1
102
RTVSPropertyOp10
 70
     1
102
RTVSPropertyOp11
 70
     1
102
RTVSPropertyOp12
 70
     1
102
RTVSPropertyOp13
 70
     1
102
RTVSPropertyOp14
 70
     1
102
RTVSPropertyOp15
 70
     1
102
RTVSPropertyOp16
 70
     1
102
RTVSPropertyOp17
 70
     1
102
RTVSPropertyOp18
 70
     1
102
RTVSPropertyOp19
 70
     1
102
RTVSPropertyOp20
 70
     1
102
RTVSPropertyOp21
 70
     1
102
RTVSPropertyOp22
 70
     1
102
RTVSPropertyOp23
 70
     1
102
RTVSPropertyOp24
 70
     1
102
RTVSPropertyOp25
 70
     1
102
RTVSPropertyOp26
 70
     1
102
RTVSPropertyOp27
 70
     1
102
RTVSPropertyOp28
 70
     1
102
RTVSPropertyOp29
 70
     1
102
RTVSPropertyOp30
 70
     1
102
RTVSPropertyOp31
 70
     1
102
RTVSPropertyOp32
 70
     1
102
RTVSPropertyOp33
 70
     1
102
RTVSPropertyOp34
 70
     1
102
RTVSPropertyOp35
 70
     1
102
RTVSPropertyOp36
 70
     1
102
RTVSPropertyOp37
 70
     1
102
RTVSPropertyOp38
 70
     1
102
RTVSPropertyOp39
 70
     1
102
RTVSPropertyOp40
 70
     1
102
RTVSPropertyOp41
 70
     1
102
RTVSPropertyOp42
 70
     1
102
RTVSPropertyOp43
 70
     1
102
RTVSPropertyOp44
 70
     1
102
RTVSPropertyOp45
 70
     1
102
RTVSPropertyOp46
 70
     1
102
RTVSPropertyOp47
 70
     1
102
RTVSPropertyOp48
 70
     1
102
RTVSPropertyOp49
 70
     1
102
RTVSPropertyOp50
 70
     1
102
RTVSPropertyOp51
 70
     0
102
RTVSPropertyOp52
 70
     0
102
RTVSPropertyOp53
 70
     1
102
RTVSPropertyOp54
 70
     1
102
RTVSPropertyOp55
 70
     1
102
RTVSPropertyOp56
 70
     1
102
RTVSPropertyOp57
 70
     1
102
RTVSPost2010Prop28
280
     0
102
RTVSPost2010PropOp28
 70
     1
102
RTVSPost2010Prop29
280
     1
102
RTVSPost2010PropOp29
 70
     1
102
RTVSPost2010Prop30
280
     1
102
RTVSPost2010PropOp30
 70
     1
102
RTVSPost2010Prop31
280
     0
102
RTVSPost2010PropOp31
 70
     1
102
RTVSPost2010Prop32
280
     0
102
RTVSPost2010PropOp32
 70
     1
102
RTVSPost2010Prop33
280
     0
102
RTVSPost2010PropOp33
 70
     1
102
RTVSPost2010Prop34
280
     0
102
RTVSPost2010PropOp34
 70
     1
102
RTVSPost2010Prop35
280
     0
102
RTVSPost2010PropOp35
 70
     1
102
RTVSPost2010Prop36
280
     0
102
RTVSPost2010PropOp36
 70
     1
102
RTVSPost2010Prop37
 90
       50
102
RTVSPost2010PropOp37
 70
     1
102
RTVSPost2010Prop38
140
0.0
102
RTVSPost2010PropOp38
 70
     1
102
RTVSPost2010Prop39
140
1.0
102
RTVSPost2010PropOp39
 70
     1
102
RTVSPost2010Prop40
 90
        0
102
RTVSPost2010PropOp40
 70
     1
102
RTVSPost2010Prop41ColorIndex
 90
       18
102
RTVSPost2010Prop41ColorRGB
 90
        0
102
RTVSPost2010PropOp41
 70
     1
102
RTVSPost2010Prop42
 90
       50
102
RTVSPost2010PropOp42
 70
     1
102
RTVSPost2010Prop43
 90
        3
102
RTVSPost2010PropOp43
 70
     1
102
RTVSPost2010Prop44ColorIndex
 90
        5
102
RTVSPost2010Prop44ColorRGB
 90
      255
102
RTVSPost2010PropOp44
 70
     1
102
RTVSPost2010Prop45
280
     0
102
RTVSPost2010PropOp45
 70
     1
102
RTVSPost2010Prop46
 90
       50
102
RTVSPost2010PropOp46
 70
     1
102
RTVSPost2010Prop47
 90
       50
102
RTVSPost2010PropOp47
 70
     1
102
RTVSPost2010Prop48
 90
       50
102
RTVSPost2010PropOp48
 70
     1
102
RTVSPost2010Prop49
280
     0
102
RTVSPost2010PropOp49
 70
     1
102
RTVSPost2010Prop50
 90
       50
102
RTVSPost2010PropOp50
 70
     1
102
RTVSPost2010Prop51ColorIndex
 90
      256
102
RTVSPost2010Prop51ColorRGB
 90
-16777216
102
RTVSPost2010PropOp51
 70
     0
102
RTVSPost2010Prop52
140
1.0
102
RTVSPost2010PropOp52
 70
     0
102
RTVSPost2010Prop53
 90
        2
102
RTVSPost2010PropOp53
 70
     1
102
RTVSPost2010Prop54
  1
strokes_ogs.tif
102
RTVSPost2010PropOp54
 70
     1
102
RTVSPost2010Prop55
280
     0
102
RTVSPost2010PropOp55
 70
     1
102
RTVSPost2010Prop56
140
1.0
102
RTVSPost2010PropOp56
 70
     1
102
RTVSPost2010Prop57
140
1.0
102
RTVSPost2010PropOp57
 70
     1
  0
XRECORD
  5
BD
102
{ACAD_REACTORS
330
BC
102
}
330
BC
100
AcDbXrecord
280
     1
102
RTVSPropertyOp0
 70
     1
102
RTVSPropertyOp1
 70
     1
102
RTVSPropertyOp2
 70
     1
102
RTVSPropertyOp3
 70
     1
102
RTVSPropertyOp4
 70
     1
102
RTVSPropertyOp5
 70
     1
102
RTVSPropertyOp6
 70
     1
102
RTVSPropertyOp7
 70
     1
102
RTVSPropertyOp8
 70
     1
102
RTVSPropertyOp9
 70
     1
102
RTVSPropertyOp10
 70
     1
102
RTVSPropertyOp11
 70
     1
102
RTVSPropertyOp12
 70
     1
102
RTVSPropertyOp13
 70
     1
102
RTVSPropertyOp14
 70
     1
102
RTVSPropertyOp15
 70
     1
102
RTVSPropertyOp16
 70
     1
102
RTVSPropertyOp17
 70
     1
102
RTVSPropertyOp18
 70
     1
102
RTVSPropertyOp19
 70
     1
102
RTVSPropertyOp20
 70
     1
102
RTVSPropertyOp21
 70
     1
102
RTVSPropertyOp22
 70
     1
102
RTVSPropertyOp23
 70
     1
102
RTVSPropertyOp24
 70
     1
102
RTVSPropertyOp25
 70
     1
102
RTVSPropertyOp26
 70
     1
102
RTVSPropertyOp27
 70
     1
102
RTVSPropertyOp28
 70
     1
102
RTVSPropertyOp29
 70
     1
102
RTVSPropertyOp30
 70
     1
102
RTVSPropertyOp31
 70
     1
102
RTVSPropertyOp32
 70
     1
102
RTVSPropertyOp33
 70
     1
102
RTVSPropertyOp34
 70
     1
102
RTVSPropertyOp35
 70
     1
102
RTVSPropertyOp36
 70
     1
102
RTVSPropertyOp37
 70
     1
102
RTVSPropertyOp38
 70
     1
102
RTVSPropertyOp39
 70
     1
102
RTVSPropertyOp40
 70
     1
102
RTVSPropertyOp41
 70
     1
102
RTVSPropertyOp42
 70
     1
102
RTVSPropertyOp43
 70
     1
102
RTVSPropertyOp44
 70
     1
102
RTVSPropertyOp45
 70
     1
102
RTVSPropertyOp46
 70
     1
102
RTVSPropertyOp47
 70
     1
102
RTVSPropertyOp48
 70
     1
102
RTVSPropertyOp49
 70
     1
102
RTVSPropertyOp50
 70
     1
102
RTVSPropertyOp51
 70
     0
102
RTVSPropertyOp52
 70
     0
102
RTVSPropertyOp53
 70
     1
102
RTVSPropertyOp54
 70
     1
102
RTVSPropertyOp55
 70
     1
102
RTVSPropertyOp56
 70
     1
102
RTVSPropertyOp57
 70
     1
102
RTVSPost2010Prop28
280
     0
102
RTVSPost2010PropOp28
 70
     1
102
RTVSPost2010Prop29
280
     1
102
RTVSPost2010PropOp29
 70
     1
102
RTVSPost2010Prop30
280
     1
102
RTVSPost2010PropOp30
 70
     1
102
RTVSPost2010Prop31
280
     0
102
RTVSPost2010PropOp31
 70
     1
102
RTVSPost2010Prop32
280
     0
102
RTVSPost2010PropOp32
 70
     1
102
RTVSPost2010Prop33
280
     0
102
RTVSPost2010PropOp33
 70
     1
102
RTVSPost2010Prop34
280
     0
102
RTVSPost2010PropOp34
 70
     1
102
RTVSPost2010Prop35
280
     0
102
RTVSPost2010PropOp35
 70
     1
102
RTVSPost2010Prop36
280
     0
102
RTVSPost2010PropOp36
 70
     1
102
RTVSPost2010Prop37
 90
       50
102
RTVSPost2010PropOp37
 70
     1
102
RTVSPost2010Prop38
140
0.0
102
RTVSPost2010PropOp38
 70
     1
102
RTVSPost2010Prop39
140
1.0
102
RTVSPost2010PropOp39
 70
     1
102
RTVSPost2010Prop40
 90
        0
102
RTVSPost2010PropOp40
 70
     1
102
RTVSPost2010Prop41ColorIndex
 90
       18
102
RTVSPost2010Prop41ColorRGB
 90
        0
102
RTVSPost2010PropOp41
 70
     1
102
RTVSPost2010Prop42
 90
       50
102
RTVSPost2010PropOp42
 70
     1
102
RTVSPost2010Prop43
 90
        3
102
RTVSPost2010PropOp43
 70
     1
102
RTVSPost2010Prop44ColorIndex
 90
        5
102
RTVSPost2010Prop44ColorRGB
 90
      255
102
RTVSPost2010PropOp44
 70
     1
102
RTVSPost2010Prop45
280
     0
102
RTVSPost2010PropOp45
 70
     1
102
RTVSPost2010Prop46
 90
       50
102
RTVSPost2010PropOp46
 70
     1
102
RTVSPost2010Prop47
 90
       50
102
RTVSPost2010PropOp47
 70
     1
102
RTVSPost2010Prop48
 90
       50
102
RTVSPost2010PropOp48
 70
     1
102
RTVSPost2010Prop49
280
     0
102
RTVSPost2010PropOp49
 70
     1
102
RTVSPost2010Prop50
 90
       50
102
RTVSPost2010PropOp50
 70
     1
102
RTVSPost2010Prop51ColorIndex
 90
      256
102
RTVSPost2010Prop51ColorRGB
 90
-16777216
102
RTVSPost2010PropOp51
 70
     0
102
RTVSPost2010Prop52
140
1.0
102
RTVSPost2010PropOp52
 70
     0
102
RTVSPost2010Prop53
 90
        2
102
RTVSPost2010PropOp53
 70
     1
102
RTVSPost2010Prop54
  1
strokes_ogs.tif
102
RTVSPost2010PropOp54
 70
     1
102
RTVSPost2010Prop55
280
     0
102
RTVSPost2010PropOp55
 70
     1
102
RTVSPost2010Prop56
140
1.0
102
RTVSPost2010PropOp56
 70
     1
102
RTVSPost2010Prop57
140
1.0
102
RTVSPost2010PropOp57
 70
     1
  0
XRECORD
  5
BF
102
{ACAD_REACTORS
330
BE
102
}
330
BE
100
AcDbXrecord
280
     1
102
RTVSPropertyOp0
 70
     1
102
RTVSPropertyOp1
 70
     1
102
RTVSPropertyOp2
 70
     1
102
RTVSPropertyOp3
 70
     1
102
RTVSPropertyOp4
 70
     1
102
RTVSPropertyOp5
 70
     1
102
RTVSPropertyOp6
 70
     1
102
RTVSPropertyOp7
 70
     1
102
RTVSPropertyOp8
 70
     1
102
RTVSPropertyOp9
 70
     1
102
RTVSPropertyOp10
 70
     1
102
RTVSPropertyOp11
 70
     1
102
RTVSPropertyOp12
 70
     1
102
RTVSPropertyOp13
 70
     1
102
RTVSPropertyOp14
 70
     1
102
RTVSPropertyOp15
 70
     1
102
RTVSPropertyOp16
 70
     1
102
RTVSPropertyOp17
 70
     1
102
RTVSPropertyOp18
 70
     1
102
RTVSPropertyOp19
 70
     1
102
RTVSPropertyOp20
 70
     1
102
RTVSPropertyOp21
 70
     1
102
RTVSPropertyOp22
 70
     1
102
RTVSPropertyOp23
 70
     1
102
RTVSPropertyOp24
 70
     1
102
RTVSPropertyOp25
 70
     1
102
RTVSPropertyOp26
 70
     1
102
RTVSPropertyOp27
 70
     1
102
RTVSPropertyOp28
 70
     1
102
RTVSPropertyOp29
 70
     1
102
RTVSPropertyOp30
 70
     1
102
RTVSPropertyOp31
 70
     1
102
RTVSPropertyOp32
 70
     1
102
RTVSPropertyOp33
 70
     1
102
RTVSPropertyOp34
 70
     1
102
RTVSPropertyOp35
 70
     1
102
RTVSPropertyOp36
 70
     1
102
RTVSPropertyOp37
 70
     1
102
RTVSPropertyOp38
 70
     1
102
RTVSPropertyOp39
 70
     1
102
RTVSPropertyOp40
 70
     1
102
RTVSPropertyOp41
 70
     1
102
RTVSPropertyOp42
 70
     1
102
RTVSPropertyOp43
 70
     1
102
RTVSPropertyOp44
 70
     1
102
RTVSPropertyOp45
 70
     1
102
RTVSPropertyOp46
 70
     1
102
RTVSPropertyOp47
 70
     1
102
RTVSPropertyOp48
 70
     1
102
RTVSPropertyOp49
 70
     1
102
RTVSPropertyOp50
 70
     1
102
RTVSPropertyOp51
 70
     0
102
RTVSPropertyOp52
 70
     0
102
RTVSPropertyOp53
 70
     1
102
RTVSPropertyOp54
 70
     1
102
RTVSPropertyOp55
 70
     1
102
RTVSPropertyOp56
 70
     1
102
RTVSPropertyOp57
 70
     1
102
RTVSPost2010Prop28
280
     0
102
RTVSPost2010PropOp28
 70
     1
102
RTVSPost2010Prop29
280
     1
102
RTVSPost2010PropOp29
 70
     1
102
RTVSPost2010Prop30
280
     1
102
RTVSPost2010PropOp30
 70
     1
102
RTVSPost2010Prop31
280
     0
102
RTVSPost2010PropOp31
 70
     1
102
RTVSPost2010Prop32
280
     0
102
RTVSPost2010PropOp32
 70
     1
102
RTVSPost2010Prop33
280
     0
102
RTVSPost2010PropOp33
 70
     1
102
RTVSPost2010Prop34
280
     0
102
RTVSPost2010PropOp34
 70
     1
102
RTVSPost2010Prop35
280
     0
102
RTVSPost2010PropOp35
 70
     1
102
RTVSPost2010Prop36
280
     0
102
RTVSPost2010PropOp36
 70
     1
102
RTVSPost2010Prop37
 90
       50
102
RTVSPost2010PropOp37
 70
     1
102
RTVSPost2010Prop38
140
0.0
102
RTVSPost2010PropOp38
 70
     1
102
RTVSPost2010Prop39
140
1.0
102
RTVSPost2010PropOp39
 70
     1
102
RTVSPost2010Prop40
 90
        0
102
RTVSPost2010PropOp40
 70
     1
102
RTVSPost2010Prop41ColorIndex
 90
       18
102
RTVSPost2010Prop41ColorRGB
 90
        0
102
RTVSPost2010PropOp41
 70
     1
102
RTVSPost2010Prop42
 90
       50
102
RTVSPost2010PropOp42
 70
     1
102
RTVSPost2010Prop43
 90
        3
102
RTVSPost2010PropOp43
 70
     1
102
RTVSPost2010Prop44ColorIndex
 90
        5
102
RTVSPost2010Prop44ColorRGB
 90
      255
102
RTVSPost2010PropOp44
 70
     1
102
RTVSPost2010Prop45
280
     0
102
RTVSPost2010PropOp45
 70
     1
102
RTVSPost2010Prop46
 90
       50
102
RTVSPost2010PropOp46
 70
     1
102
RTVSPost2010Prop47
 90
       50
102
RTVSPost2010PropOp47
 70
     1
102
RTVSPost2010Prop48
 90
       50
102
RTVSPost2010PropOp48
 70
     1
102
RTVSPost2010Prop49
280
     0
102
RTVSPost2010PropOp49
 70
     1
102
RTVSPost2010Prop50
 90
       50
102
RTVSPost2010PropOp50
 70
     1
102
RTVSPost2010Prop51ColorIndex
 90
      256
102
RTVSPost2010Prop51ColorRGB
 90
-16777216
102
RTVSPost2010PropOp51
 70
     0
102
RTVSPost2010Prop52
140
1.0
102
RTVSPost2010PropOp52
 70
     0
102
RTVSPost2010Prop53
 90
        2
102
RTVSPost2010PropOp53
 70
     1
102
RTVSPost2010Prop54
  1
strokes_ogs.tif
102
RTVSPost2010PropOp54
 70
     1
102
RTVSPost2010Prop55
280
     0
102
RTVSPost2010PropOp55
 70
     1
102
RTVSPost2010Prop56
140
1.0
102
RTVSPost2010PropOp56
 70
     1
102
RTVSPost2010Prop57
140
1.0
102
RTVSPost2010PropOp57
 70
     1
  0
XRECORD
  5
C5
102
{ACAD_REACTORS
330
C4
102
}
330
C4
100
AcDbXrecord
280
     1
102
RTVSPropertyOp0
 70
     1
102
RTVSPropertyOp1
 70
     1
102
RTVSPropertyOp2
 70
     1
102
RTVSPropertyOp3
 70
     1
102
RTVSPropertyOp4
 70
     1
102
RTVSPropertyOp5
 70
     1
102
RTVSPropertyOp6
 70
     1
102
RTVSPropertyOp7
 70
     1
102
RTVSPropertyOp8
 70
     1
102
RTVSPropertyOp9
 70
     1
102
RTVSPropertyOp10
 70
     1
102
RTVSPropertyOp11
 70
     1
102
RTVSPropertyOp12
 70
     1
102
RTVSPropertyOp13
 70
     1
102
RTVSPropertyOp14
 70
     1
102
RTVSPropertyOp15
 70
     1
102
RTVSPropertyOp16
 70
     1
102
RTVSPropertyOp17
 70
     1
102
RTVSPropertyOp18
 70
     1
102
RTVSPropertyOp19
 70
     1
102
RTVSPropertyOp20
 70
     1
102
RTVSPropertyOp21
 70
     1
102
RTVSPropertyOp22
 70
     1
102
RTVSPropertyOp23
 70
     1
102
RTVSPropertyOp24
 70
     1
102
RTVSPropertyOp25
 70
     1
102
RTVSPropertyOp26
 70
     1
102
RTVSPropertyOp27
 70
     1
102
RTVSPropertyOp28
 70
     1
102
RTVSPropertyOp29
 70
     1
102
RTVSPropertyOp30
 70
     1
102
RTVSPropertyOp31
 70
     1
102
RTVSPropertyOp32
 70
     1
102
RTVSPropertyOp33
 70
     1
102
RTVSPropertyOp34
 70
     1
102
RTVSPropertyOp35
 70
     1
102
RTVSPropertyOp36
 70
     1
102
RTVSPropertyOp37
 70
     1
102
RTVSPropertyOp38
 70
     1
102
RTVSPropertyOp39
 70
     1
102
RTVSPropertyOp40
 70
     1
102
RTVSPropertyOp41
 70
     1
102
RTVSPropertyOp42
 70
     1
102
RTVSPropertyOp43
 70
     1
102
RTVSPropertyOp44
 70
     1
102
RTVSPropertyOp45
 70
     1
102
RTVSPropertyOp46
 70
     1
102
RTVSPropertyOp47
 70
     1
102
RTVSPropertyOp48
 70
     1
102
RTVSPropertyOp49
 70
     1
102
RTVSPropertyOp50
 70
     1
102
RTVSPropertyOp51
 70
     0
102
RTVSPropertyOp52
 70
     0
102
RTVSPropertyOp53
 70
     1
102
RTVSPropertyOp54
 70
     1
102
RTVSPropertyOp55
 70
     1
102
RTVSPropertyOp56
 70
     1
102
RTVSPropertyOp57
 70
     1
102
RTVSPost2010Prop28
280
     0
102
RTVSPost2010PropOp28
 70
     1
102
RTVSPost2010Prop29
280
     1
102
RTVSPost2010PropOp29
 70
     1
102
RTVSPost2010Prop30
280
     1
102
RTVSPost2010PropOp30
 70
     1
102
RTVSPost2010Prop31
280
     0
102
RTVSPost2010PropOp31
 70
     1
102
RTVSPost2010Prop32
280
     0
102
RTVSPost2010PropOp32
 70
     1
102
RTVSPost2010Prop33
280
     0
102
RTVSPost2010PropOp33
 70
     1
102
RTVSPost2010Prop34
280
     0
102
RTVSPost2010PropOp34
 70
     1
102
RTVSPost2010Prop35
280
     0
102
RTVSPost2010PropOp35
 70
     1
102
RTVSPost2010Prop36
280
     0
102
RTVSPost2010PropOp36
 70
     1
102
RTVSPost2010Prop37
 90
       50
102
RTVSPost2010PropOp37
 70
     1
102
RTVSPost2010Prop38
140
0.0
102
RTVSPost2010PropOp38
 70
     1
102
RTVSPost2010Prop39
140
1.0
102
RTVSPost2010PropOp39
 70
     1
102
RTVSPost2010Prop40
 90
        0
102
RTVSPost2010PropOp40
 70
     1
102
RTVSPost2010Prop41ColorIndex
 90
       18
102
RTVSPost2010Prop41ColorRGB
 90
        0
102
RTVSPost2010PropOp41
 70
     1
102
RTVSPost2010Prop42
 90
       50
102
RTVSPost2010PropOp42
 70
     1
102
RTVSPost2010Prop43
 90
        3
102
RTVSPost2010PropOp43
 70
     1
102
RTVSPost2010Prop44ColorIndex
 90
        5
102
RTVSPost2010Prop44ColorRGB
 90
      255
102
RTVSPost2010PropOp44
 70
     1
102
RTVSPost2010Prop45
280
     0
102
RTVSPost2010PropOp45
 70
     1
102
RTVSPost2010Prop46
 90
       50
102
RTVSPost2010PropOp46
 70
     1
102
RTVSPost2010Prop47
 90
       50
102
RTVSPost2010PropOp47
 70
     1
102
RTVSPost2010Prop48
 90
       50
102
RTVSPost2010PropOp48
 70
     1
102
RTVSPost2010Prop49
280
     0
102
RTVSPost2010PropOp49
 70
     1
102
RTVSPost2010Prop50
 90
       50
102
RTVSPost2010PropOp50
 70
     1
102
RTVSPost2010Prop51ColorIndex
 90
      256
102
RTVSPost2010Prop51ColorRGB
 90
-16777216
102
RTVSPost2010PropOp51
 70
     0
102
RTVSPost2010Prop52
140
1.0
102
RTVSPost2010PropOp52
 70
     0
102
RTVSPost2010Prop53
 90
        2
102
RTVSPost2010PropOp53
 70
     1
102
RTVSPost2010Prop54
  1
strokes_ogs.tif
102
RTVSPost2010PropOp54
 70
     1
102
RTVSPost2010Prop55
280
     0
102
RTVSPost2010PropOp55
 70
     1
102
RTVSPost2010Prop56
140
1.0
102
RTVSPost2010PropOp56
 70
     1
102
RTVSPost2010Prop57
140
1.0
102
RTVSPost2010PropOp57
 70
     1
  0
XRECORD
  5
D9
102
{ACAD_REACTORS
330
D8
102
}
330
D8
100
AcDbXrecord
280
     1
102
RTVSPropertyOp0
 70
     0
102
RTVSPropertyOp1
 70
     0
102
RTVSPropertyOp2
 70
     0
102
RTVSPropertyOp3
 70
     0
102
RTVSPropertyOp4
 70
     0
102
RTVSPropertyOp5
 70
     0
102
RTVSPropertyOp6
 70
     0
102
RTVSPropertyOp7
 70
     0
102
RTVSPropertyOp8
 70
     0
102
RTVSPropertyOp9
 70
     0
102
RTVSPropertyOp10
 70
     0
102
RTVSPropertyOp11
 70
     0
102
RTVSPropertyOp12
 70
     0
102
RTVSPropertyOp13
 70
     0
102
RTVSPropertyOp14
 70
     2
102
RTVSPropertyOp15
 70
     0
102
RTVSPropertyOp16
 70
     0
102
RTVSPropertyOp17
 70
     0
102
RTVSPropertyOp18
 70
     0
102
RTVSPropertyOp19
 70
     0
102
RTVSPropertyOp20
 70
     0
102
RTVSPropertyOp21
 70
     0
102
RTVSPropertyOp22
 70
     0
102
RTVSPropertyOp23
 70
     0
102
RTVSPropertyOp24
 70
     0
102
RTVSPropertyOp25
 70
     0
102
RTVSPropertyOp26
 70
     0
102
RTVSPropertyOp27
 70
     0
102
RTVSPropertyOp28
 70
     0
102
RTVSPropertyOp29
 70
     0
102
RTVSPropertyOp30
 70
     0
102
RTVSPropertyOp31
 70
     0
102
RTVSPropertyOp32
 70
     0
102
RTVSPropertyOp33
 70
     0
102
RTVSPropertyOp34
 70
     0
102
RTVSPropertyOp35
 70
     0
102
RTVSPropertyOp36
 70
     0
102
RTVSPropertyOp37
 70
     0
102
RTVSPropertyOp38
 70
     0
102
RTVSPropertyOp39
 70
     0
102
RTVSPropertyOp40
 70
     0
102
RTVSPropertyOp41
 70
     0
102
RTVSPropertyOp42
 70
     0
102
RTVSPropertyOp43
 70
     0
102
RTVSPropertyOp44
 70
     0
102
RTVSPropertyOp45
 70
     0
102
RTVSPropertyOp46
 70
     0
102
RTVSPropertyOp47
 70
     0
102
RTVSPropertyOp48
 70
     0
102
RTVSPropertyOp49
 70
     0
102
RTVSPropertyOp50
 70
     0
102
RTVSPropertyOp51
 70
     0
102
RTVSPropertyOp52
 70
     0
102
RTVSPropertyOp53
 70
     0
102
RTVSPropertyOp54
 70
     0
102
RTVSPropertyOp55
 70
     0
102
RTVSPropertyOp56
 70
     0
102
RTVSPropertyOp57
 70
     0
102
RTVSPost2010Prop28
280
     0
102
RTVSPost2010PropOp28
 70
     0
102
RTVSPost2010Prop29
280
     1
102
RTVSPost2010PropOp29
 70
     0
102
RTVSPost2010Prop30
280
     1
102
RTVSPost2010PropOp30
 70
     0
102
RTVSPost2010Prop31
280
     0
102
RTVSPost2010PropOp31
 70
     0
102
RTVSPost2010Prop32
280
     0
102
RTVSPost2010PropOp32
 70
     0
102
RTVSPost2010Prop33
280
     0
102
RTVSPost2010PropOp33
 70
     0
102
RTVSPost2010Prop34
280
     0
102
RTVSPost2010PropOp34
 70
     0
102
RTVSPost2010Prop35
280
     0
102
RTVSPost2010PropOp35
 70
     0
102
RTVSPost2010Prop36
280
     0
102
RTVSPost2010PropOp36
 70
     0
102
RTVSPost2010Prop37
 90
       50
102
RTVSPost2010PropOp37
 70
     0
102
RTVSPost2010Prop38
140
0.0
102
RTVSPost2010PropOp38
 70
     0
102
RTVSPost2010Prop39
140
1.0
102
RTVSPost2010PropOp39
 70
     0
102
RTVSPost2010Prop40
 90
        0
102
RTVSPost2010PropOp40
 70
     0
102
RTVSPost2010Prop41ColorIndex
 90
       18
102
RTVSPost2010Prop41ColorRGB
 90
        0
102
RTVSPost2010PropOp41
 70
     0
102
RTVSPost2010Prop42
 90
       50
102
RTVSPost2010PropOp42
 70
     0
102
RTVSPost2010Prop43
 90
        3
102
RTVSPost2010PropOp43
 70
     0
102
RTVSPost2010Prop44ColorIndex
 90
        5
102
RTVSPost2010Prop44ColorRGB
 90
      255
102
RTVSPost2010PropOp44
 70
     0
102
RTVSPost2010Prop45
280
     0
102
RTVSPost2010PropOp45
 70
     0
102
RTVSPost2010Prop46
 90
       50
102
RTVSPost2010PropOp46
 70
     0
102
RTVSPost2010Prop47
 90
       50
102
RTVSPost2010PropOp47
 70
     0
102
RTVSPost2010Prop48
 90
       50
102
RTVSPost2010PropOp48
 70
     0
102
RTVSPost2010Prop49
280
     0
102
RTVSPost2010PropOp49
 70
     0
102
RTVSPost2010Prop50
 90
       50
102
RTVSPost2010PropOp50
 70
     0
102
RTVSPost2010Prop51ColorIndex
 90
      256
102
RTVSPost2010Prop51ColorRGB
 90
-16777216
102
RTVSPost2010PropOp51
 70
     0
102
RTVSPost2010Prop52
140
1.0
102
RTVSPost2010PropOp52
 70
     0
102
RTVSPost2010Prop53
 90
        2
102
RTVSPost2010PropOp53
 70
     0
102
RTVSPost2010Prop54
  1
strokes_ogs.tif
102
RTVSPost2010PropOp54
 70
     0
102
RTVSPost2010Prop55
280
     0
102
RTVSPost2010PropOp55
 70
     0
102
RTVSPost2010Prop56
140
1.0
102
RTVSPost2010PropOp56
 70
     0
102
RTVSPost2010Prop57
140
1.0
102
RTVSPost2010PropOp57
 70
     0
  0
XRECORD
  5
D3
102
{ACAD_REACTORS
330
D2
102
}
330
D2
100
AcDbXrecord
280
     1
102
RTVSPropertyOp0
 70
     1
102
RTVSPropertyOp1
 70
     1
102
RTVSPropertyOp2
 70
     1
102
RTVSPropertyOp3
 70
     1
102
RTVSPropertyOp4
 70
     1
102
RTVSPropertyOp5
 70
     1
102
RTVSPropertyOp6
 70
     1
102
RTVSPropertyOp7
 70
     1
102
RTVSPropertyOp8
 70
     1
102
RTVSPropertyOp9
 70
     1
102
RTVSPropertyOp10
 70
     1
102
RTVSPropertyOp11
 70
     1
102
RTVSPropertyOp12
 70
     1
102
RTVSPropertyOp13
 70
     1
102
RTVSPropertyOp14
 70
     1
102
RTVSPropertyOp15
 70
     1
102
RTVSPropertyOp16
 70
     1
102
RTVSPropertyOp17
 70
     1
102
RTVSPropertyOp18
 70
     1
102
RTVSPropertyOp19
 70
     1
102
RTVSPropertyOp20
 70
     1
102
RTVSPropertyOp21
 70
     1
102
RTVSPropertyOp22
 70
     1
102
RTVSPropertyOp23
 70
     1
102
RTVSPropertyOp24
 70
     1
102
RTVSPropertyOp25
 70
     1
102
RTVSPropertyOp26
 70
     1
102
RTVSPropertyOp27
 70
     1
102
RTVSPropertyOp28
 70
     1
102
RTVSPropertyOp29
 70
     1
102
RTVSPropertyOp30
 70
     1
102
RTVSPropertyOp31
 70
     1
102
RTVSPropertyOp32
 70
     1
102
RTVSPropertyOp33
 70
     1
102
RTVSPropertyOp34
 70
     1
102
RTVSPropertyOp35
 70
     1
102
RTVSPropertyOp36
 70
     1
102
RTVSPropertyOp37
 70
     1
102
RTVSPropertyOp38
 70
     1
102
RTVSPropertyOp39
 70
     1
102
RTVSPropertyOp40
 70
     1
102
RTVSPropertyOp41
 70
     1
102
RTVSPropertyOp42
 70
     1
102
RTVSPropertyOp43
 70
     1
102
RTVSPropertyOp44
 70
     1
102
RTVSPropertyOp45
 70
     1
102
RTVSPropertyOp46
 70
     1
102
RTVSPropertyOp47
 70
     1
102
RTVSPropertyOp48
 70
     1
102
RTVSPropertyOp49
 70
     1
102
RTVSPropertyOp50
 70
     1
102
RTVSPropertyOp51
 70
     0
102
RTVSPropertyOp52
 70
     0
102
RTVSPropertyOp53
 70
     1
102
RTVSPropertyOp54
 70
     1
102
RTVSPropertyOp55
 70
     1
102
RTVSPropertyOp56
 70
     1
102
RTVSPropertyOp57
 70
     1
102
RTVSPost2010Prop28
280
     0
102
RTVSPost2010PropOp28
 70
     1
102
RTVSPost2010Prop29
280
     1
102
RTVSPost2010PropOp29
 70
     1
102
RTVSPost2010Prop30
280
     1
102
RTVSPost2010PropOp30
 70
     1
102
RTVSPost2010Prop31
280
     0
102
RTVSPost2010PropOp31
 70
     1
102
RTVSPost2010Prop32
280
     0
102
RTVSPost2010PropOp32
 70
     1
102
RTVSPost2010Prop33
280
     0
102
RTVSPost2010PropOp33
 70
     1
102
RTVSPost2010Prop34
280
     0
102
RTVSPost2010PropOp34
 70
     1
102
RTVSPost2010Prop35
280
     0
102
RTVSPost2010PropOp35
 70
     1
102
RTVSPost2010Prop36
280
     0
102
RTVSPost2010PropOp36
 70
     1
102
RTVSPost2010Prop37
 90
       50
102
RTVSPost2010PropOp37
 70
     1
102
RTVSPost2010Prop38
140
0.0
102
RTVSPost2010PropOp38
 70
     1
102
RTVSPost2010Prop39
140
1.0
102
RTVSPost2010PropOp39
 70
     1
102
RTVSPost2010Prop40
 90
        0
102
RTVSPost2010PropOp40
 70
     1
102
RTVSPost2010Prop41ColorIndex
 90
       18
102
RTVSPost2010Prop41ColorRGB
 90
        0
102
RTVSPost2010PropOp41
 70
     1
102
RTVSPost2010Prop42
 90
       50
102
RTVSPost2010PropOp42
 70
     1
102
RTVSPost2010Prop43
 90
        3
102
RTVSPost2010PropOp43
 70
     1
102
RTVSPost2010Prop44ColorIndex
 90
        5
102
RTVSPost2010Prop44ColorRGB
 90
      255
102
RTVSPost2010PropOp44
 70
     1
102
RTVSPost2010Prop45
280
     0
102
RTVSPost2010PropOp45
 70
     1
102
RTVSPost2010Prop46
 90
       50
102
RTVSPost2010PropOp46
 70
     1
102
RTVSPost2010Prop47
 90
       50
102
RTVSPost2010PropOp47
 70
     1
102
RTVSPost2010Prop48
 90
       50
102
RTVSPost2010PropOp48
 70
     1
102
RTVSPost2010Prop49
280
     0
102
RTVSPost2010PropOp49
 70
     1
102
RTVSPost2010Prop50
 90
       50
102
RTVSPost2010PropOp50
 70
     1
102
RTVSPost2010Prop51ColorIndex
 90
      256
102
RTVSPost2010Prop51ColorRGB
 90
-16777216
102
RTVSPost2010PropOp51
 70
     0
102
RTVSPost2010Prop52
140
1.0
102
RTVSPost2010PropOp52
 70
     0
102
RTVSPost2010Prop53
 90
        2
102
RTVSPost2010PropOp53
 70
     1
102
RTVSPost2010Prop54
  1
strokes_ogs.tif
102
RTVSPost2010PropOp54
 70
     1
102
RTVSPost2010Prop55
280
     0
102
RTVSPost2010PropOp55
 70
     1
102
RTVSPost2010Prop56
140
1.0
102
RTVSPost2010PropOp56
 70
     1
102
RTVSPost2010Prop57
140
1.0
102
RTVSPost2010PropOp57
 70
     1
  0
XRECORD
  5
DB
102
{ACAD_REACTORS
330
DA
102
}
330
DA
100
AcDbXrecord
280
     1
102
RTVSPropertyOp0
 70
     0
102
RTVSPropertyOp1
 70
     0
102
RTVSPropertyOp2
 70
     0
102
RTVSPropertyOp3
 70
     0
102
RTVSPropertyOp4
 70
     0
102
RTVSPropertyOp5
 70
     0
102
RTVSPropertyOp6
 70
     0
102
RTVSPropertyOp7
 70
     0
102
RTVSPropertyOp8
 70
     0
102
RTVSPropertyOp9
 70
     0
102
RTVSPropertyOp10
 70
     0
102
RTVSPropertyOp11
 70
     0
102
RTVSPropertyOp12
 70
     0
102
RTVSPropertyOp13
 70
     0
102
RTVSPropertyOp14
 70
     2
102
RTVSPropertyOp15
 70
     0
102
RTVSPropertyOp16
 70
     0
102
RTVSPropertyOp17
 70
     0
102
RTVSPropertyOp18
 70
     0
102
RTVSPropertyOp19
 70
     0
102
RTVSPropertyOp20
 70
     0
102
RTVSPropertyOp21
 70
     0
102
RTVSPropertyOp22
 70
     0
102
RTVSPropertyOp23
 70
     0
102
RTVSPropertyOp24
 70
     0
102
RTVSPropertyOp25
 70
     0
102
RTVSPropertyOp26
 70
     0
102
RTVSPropertyOp27
 70
     0
102
RTVSPropertyOp28
 70
     0
102
RTVSPropertyOp29
 70
     0
102
RTVSPropertyOp30
 70
     0
102
RTVSPropertyOp31
 70
     0
102
RTVSPropertyOp32
 70
     0
102
RTVSPropertyOp33
 70
     0
102
RTVSPropertyOp34
 70
     0
102
RTVSPropertyOp35
 70
     0
102
RTVSPropertyOp36
 70
     0
102
RTVSPropertyOp37
 70
     0
102
RTVSPropertyOp38
 70
     0
102
RTVSPropertyOp39
 70
     0
102
RTVSPropertyOp40
 70
     0
102
RTVSPropertyOp41
 70
     0
102
RTVSPropertyOp42
 70
     0
102
RTVSPropertyOp43
 70
     0
102
RTVSPropertyOp44
 70
     0
102
RTVSPropertyOp45
 70
     0
102
RTVSPropertyOp46
 70
     0
102
RTVSPropertyOp47
 70
     0
102
RTVSPropertyOp48
 70
     0
102
RTVSPropertyOp49
 70
     0
102
RTVSPropertyOp50
 70
     0
102
RTVSPropertyOp51
 70
     0
102
RTVSPropertyOp52
 70
     0
102
RTVSPropertyOp53
 70
     0
102
RTVSPropertyOp54
 70
     0
102
RTVSPropertyOp55
 70
     0
102
RTVSPropertyOp56
 70
     0
102
RTVSPropertyOp57
 70
     0
102
RTVSPost2010Prop28
280
     0
102
RTVSPost2010PropOp28
 70
     0
102
RTVSPost2010Prop29
280
     1
102
RTVSPost2010PropOp29
 70
     0
102
RTVSPost2010Prop30
280
     1
102
RTVSPost2010PropOp30
 70
     0
102
RTVSPost2010Prop31
280
     0
102
RTVSPost2010PropOp31
 70
     0
102
RTVSPost2010Prop32
280
     0
102
RTVSPost2010PropOp32
 70
     0
102
RTVSPost2010Prop33
280
     0
102
RTVSPost2010PropOp33
 70
     0
102
RTVSPost2010Prop34
280
     0
102
RTVSPost2010PropOp34
 70
     0
102
RTVSPost2010Prop35
280
     0
102
RTVSPost2010PropOp35
 70
     0
102
RTVSPost2010Prop36
280
     0
102
RTVSPost2010PropOp36
 70
     0
102
RTVSPost2010Prop37
 90
       50
102
RTVSPost2010PropOp37
 70
     0
102
RTVSPost2010Prop38
140
0.0
102
RTVSPost2010PropOp38
 70
     0
102
RTVSPost2010Prop39
140
1.0
102
RTVSPost2010PropOp39
 70
     0
102
RTVSPost2010Prop40
 90
        0
102
RTVSPost2010PropOp40
 70
     0
102
RTVSPost2010Prop41ColorIndex
 90
       18
102
RTVSPost2010Prop41ColorRGB
 90
        0
102
RTVSPost2010PropOp41
 70
     0
102
RTVSPost2010Prop42
 90
       50
102
RTVSPost2010PropOp42
 70
     0
102
RTVSPost2010Prop43
 90
        3
102
RTVSPost2010PropOp43
 70
     0
102
RTVSPost2010Prop44ColorIndex
 90
        5
102
RTVSPost2010Prop44ColorRGB
 90
      255
102
RTVSPost2010PropOp44
 70
     0
102
RTVSPost2010Prop45
280
     0
102
RTVSPost2010PropOp45
 70
     0
102
RTVSPost2010Prop46
 90
       50
102
RTVSPost2010PropOp46
 70
     0
102
RTVSPost2010Prop47
 90
       50
102
RTVSPost2010PropOp47
 70
     0
102
RTVSPost2010Prop48
 90
       50
102
RTVSPost2010PropOp48
 70
     0
102
RTVSPost2010Prop49
280
     0
102
RTVSPost2010PropOp49
 70
     0
102
RTVSPost2010Prop50
 90
       50
102
RTVSPost2010PropOp50
 70
     0
102
RTVSPost2010Prop51ColorIndex
 90
      256
102
RTVSPost2010Prop51ColorRGB
 90
-16777216
102
RTVSPost2010PropOp51
 70
     0
102
RTVSPost2010Prop52
140
1.0
102
RTVSPost2010PropOp52
 70
     0
102
RTVSPost2010Prop53
 90
        2
102
RTVSPost2010PropOp53
 70
     0
102
RTVSPost2010Prop54
  1
strokes_ogs.tif
102
RTVSPost2010PropOp54
 70
     0
102
RTVSPost2010Prop55
280
     0
102
RTVSPost2010PropOp55
 70
     0
102
RTVSPost2010Prop56
140
1.0
102
RTVSPost2010PropOp56
 70
     0
102
RTVSPost2010Prop57
140
1.0
102
RTVSPost2010PropOp57
 70
     0
  0
XRECORD
  5
C9
102
{ACAD_REACTORS
330
C8
102
}
330
C8
100
AcDbXrecord
280
     1
102
RTVSPropertyOp0
 70
     1
102
RTVSPropertyOp1
 70
     1
102
RTVSPropertyOp2
 70
     1
102
RTVSPropertyOp3
 70
     1
102
RTVSPropertyOp4
 70
     1
102
RTVSPropertyOp5
 70
     1
102
RTVSPropertyOp6
 70
     1
102
RTVSPropertyOp7
 70
     1
102
RTVSPropertyOp8
 70
     1
102
RTVSPropertyOp9
 70
     1
102
RTVSPropertyOp10
 70
     1
102
RTVSPropertyOp11
 70
     1
102
RTVSPropertyOp12
 70
     1
102
RTVSPropertyOp13
 70
     1
102
RTVSPropertyOp14
 70
     1
102
RTVSPropertyOp15
 70
     1
102
RTVSPropertyOp16
 70
     1
102
RTVSPropertyOp17
 70
     1
102
RTVSPropertyOp18
 70
     1
102
RTVSPropertyOp19
 70
     1
102
RTVSPropertyOp20
 70
     1
102
RTVSPropertyOp21
 70
     1
102
RTVSPropertyOp22
 70
     1
102
RTVSPropertyOp23
 70
     1
102
RTVSPropertyOp24
 70
     1
102
RTVSPropertyOp25
 70
     1
102
RTVSPropertyOp26
 70
     1
102
RTVSPropertyOp27
 70
     1
102
RTVSPropertyOp28
 70
     1
102
RTVSPropertyOp29
 70
     1
102
RTVSPropertyOp30
 70
     1
102
RTVSPropertyOp31
 70
     1
102
RTVSPropertyOp32
 70
     1
102
RTVSPropertyOp33
 70
     1
102
RTVSPropertyOp34
 70
     1
102
RTVSPropertyOp35
 70
     1
102
RTVSPropertyOp36
 70
     1
102
RTVSPropertyOp37
 70
     1
102
RTVSPropertyOp38
 70
     1
102
RTVSPropertyOp39
 70
     1
102
RTVSPropertyOp40
 70
     1
102
RTVSPropertyOp41
 70
     1
102
RTVSPropertyOp42
 70
     1
102
RTVSPropertyOp43
 70
     1
102
RTVSPropertyOp44
 70
     1
102
RTVSPropertyOp45
 70
     1
102
RTVSPropertyOp46
 70
     1
102
RTVSPropertyOp47
 70
     1
102
RTVSPropertyOp48
 70
     1
102
RTVSPropertyOp49
 70
     1
102
RTVSPropertyOp50
 70
     1
102
RTVSPropertyOp51
 70
     0
102
RTVSPropertyOp52
 70
     0
102
RTVSPropertyOp53
 70
     1
102
RTVSPropertyOp54
 70
     1
102
RTVSPropertyOp55
 70
     1
102
RTVSPropertyOp56
 70
     1
102
RTVSPropertyOp57
 70
     1
102
RTVSPost2010Prop28
280
     0
102
RTVSPost2010PropOp28
 70
     1
102
RTVSPost2010Prop29
280
     1
102
RTVSPost2010PropOp29
 70
     1
102
RTVSPost2010Prop30
280
     1
102
RTVSPost2010PropOp30
 70
     1
102
RTVSPost2010Prop31
280
     0
102
RTVSPost2010PropOp31
 70
     1
102
RTVSPost2010Prop32
280
     0
102
RTVSPost2010PropOp32
 70
     1
102
RTVSPost2010Prop33
280
     0
102
RTVSPost2010PropOp33
 70
     1
102
RTVSPost2010Prop34
280
     0
102
RTVSPost2010PropOp34
 70
     1
102
RTVSPost2010Prop35
280
     0
102
RTVSPost2010PropOp35
 70
     1
102
RTVSPost2010Prop36
280
     0
102
RTVSPost2010PropOp36
 70
     1
102
RTVSPost2010Prop37
 90
       50
102
RTVSPost2010PropOp37
 70
     1
102
RTVSPost2010Prop38
140
0.0
102
RTVSPost2010PropOp38
 70
     1
102
RTVSPost2010Prop39
140
1.0
102
RTVSPost2010PropOp39
 70
     1
102
RTVSPost2010Prop40
 90
        0
102
RTVSPost2010PropOp40
 70
     1
102
RTVSPost2010Prop41ColorIndex
 90
       18
102
RTVSPost2010Prop41ColorRGB
 90
        0
102
RTVSPost2010PropOp41
 70
     1
102
RTVSPost2010Prop42
 90
       50
102
RTVSPost2010PropOp42
 70
     1
102
RTVSPost2010Prop43
 90
        3
102
RTVSPost2010PropOp43
 70
     1
102
RTVSPost2010Prop44ColorIndex
 90
        5
102
RTVSPost2010Prop44ColorRGB
 90
      255
102
RTVSPost2010PropOp44
 70
     1
102
RTVSPost2010Prop45
280
     0
102
RTVSPost2010PropOp45
 70
     1
102
RTVSPost2010Prop46
 90
       50
102
RTVSPost2010PropOp46
 70
     1
102
RTVSPost2010Prop47
 90
       50
102
RTVSPost2010PropOp47
 70
     1
102
RTVSPost2010Prop48
 90
       50
102
RTVSPost2010PropOp48
 70
     1
102
RTVSPost2010Prop49
280
     0
102
RTVSPost2010PropOp49
 70
     1
102
RTVSPost2010Prop50
 90
       50
102
RTVSPost2010PropOp50
 70
     1
102
RTVSPost2010Prop51ColorIndex
 90
      256
102
RTVSPost2010Prop51ColorRGB
 90
-16777216
102
RTVSPost2010PropOp51
 70
     0
102
RTVSPost2010Prop52
140
1.0
102
RTVSPost2010PropOp52
 70
     0
102
RTVSPost2010Prop53
 90
        2
102
RTVSPost2010PropOp53
 70
     1
102
RTVSPost2010Prop54
  1
strokes_ogs.tif
102
RTVSPost2010PropOp54
 70
     1
102
RTVSPost2010Prop55
280
     0
102
RTVSPost2010PropOp55
 70
     1
102
RTVSPost2010Prop56
140
1.0
102
RTVSPost2010PropOp56
 70
     1
102
RTVSPost2010Prop57
140
1.0
102
RTVSPost2010PropOp57
 70
     1
  0
XRECORD
  5
E7
102
{ACAD_REACTORS
330
E6
102
}
330
E6
100
AcDbXrecord
280
     1
102
RTVSPropertyOp0
 70
     1
102
RTVSPropertyOp1
 70
     1
102
RTVSPropertyOp2
 70
     1
102
RTVSPropertyOp3
 70
     1
102
RTVSPropertyOp4
 70
     1
102
RTVSPropertyOp5
 70
     1
102
RTVSPropertyOp6
 70
     1
102
RTVSPropertyOp7
 70
     1
102
RTVSPropertyOp8
 70
     1
102
RTVSPropertyOp9
 70
     1
102
RTVSPropertyOp10
 70
     1
102
RTVSPropertyOp11
 70
     1
102
RTVSPropertyOp12
 70
     1
102
RTVSPropertyOp13
 70
     1
102
RTVSPropertyOp14
 70
     1
102
RTVSPropertyOp15
 70
     1
102
RTVSPropertyOp16
 70
     1
102
RTVSPropertyOp17
 70
     1
102
RTVSPropertyOp18
 70
     1
102
RTVSPropertyOp19
 70
     1
102
RTVSPropertyOp20
 70
     1
102
RTVSPropertyOp21
 70
     1
102
RTVSPropertyOp22
 70
     1
102
RTVSPropertyOp23
 70
     1
102
RTVSPropertyOp24
 70
     1
102
RTVSPropertyOp25
 70
     1
102
RTVSPropertyOp26
 70
     1
102
RTVSPropertyOp27
 70
     1
102
RTVSPropertyOp28
 70
     1
102
RTVSPropertyOp29
 70
     1
102
RTVSPropertyOp30
 70
     1
102
RTVSPropertyOp31
 70
     1
102
RTVSPropertyOp32
 70
     1
102
RTVSPropertyOp33
 70
     1
102
RTVSPropertyOp34
 70
     1
102
RTVSPropertyOp35
 70
     1
102
RTVSPropertyOp36
 70
     1
102
RTVSPropertyOp37
 70
     1
102
RTVSPropertyOp38
 70
     1
102
RTVSPropertyOp39
 70
     1
102
RTVSPropertyOp40
 70
     1
102
RTVSPropertyOp41
 70
     1
102
RTVSPropertyOp42
 70
     1
102
RTVSPropertyOp43
 70
     1
102
RTVSPropertyOp44
 70
     1
102
RTVSPropertyOp45
 70
     1
102
RTVSPropertyOp46
 70
     1
102
RTVSPropertyOp47
 70
     1
102
RTVSPropertyOp48
 70
     1
102
RTVSPropertyOp49
 70
     1
102
RTVSPropertyOp50
 70
     1
102
RTVSPropertyOp51
 70
     0
102
RTVSPropertyOp52
 70
     0
102
RTVSPropertyOp53
 70
     1
102
RTVSPropertyOp54
 70
     1
102
RTVSPropertyOp55
 70
     1
102
RTVSPropertyOp56
 70
     1
102
RTVSPropertyOp57
 70
     1
102
RTVSPost2010Prop28
280
     0
102
RTVSPost2010PropOp28
 70
     1
102
RTVSPost2010Prop29
280
     1
102
RTVSPost2010PropOp29
 70
     1
102
RTVSPost2010Prop30
280
     1
102
RTVSPost2010PropOp30
 70
     1
102
RTVSPost2010Prop31
280
     0
102
RTVSPost2010PropOp31
 70
     1
102
RTVSPost2010Prop32
280
     0
102
RTVSPost2010PropOp32
 70
     1
102
RTVSPost2010Prop33
280
     0
102
RTVSPost2010PropOp33
 70
     1
102
RTVSPost2010Prop34
280
     0
102
RTVSPost2010PropOp34
 70
     1
102
RTVSPost2010Prop35
280
     0
102
RTVSPost2010PropOp35
 70
     1
102
RTVSPost2010Prop36
280
     0
102
RTVSPost2010PropOp36
 70
     1
102
RTVSPost2010Prop37
 90
       50
102
RTVSPost2010PropOp37
 70
     1
102
RTVSPost2010Prop38
140
0.0
102
RTVSPost2010PropOp38
 70
     1
102
RTVSPost2010Prop39
140
1.0
102
RTVSPost2010PropOp39
 70
     1
102
RTVSPost2010Prop40
 90
        0
102
RTVSPost2010PropOp40
 70
     1
102
RTVSPost2010Prop41ColorIndex
 90
       18
102
RTVSPost2010Prop41ColorRGB
 90
        0
102
RTVSPost2010PropOp41
 70
     1
102
RTVSPost2010Prop42
 90
       50
102
RTVSPost2010PropOp42
 70
     1
102
RTVSPost2010Prop43
 90
        3
102
RTVSPost2010PropOp43
 70
     1
102
RTVSPost2010Prop44ColorIndex
 90
        5
102
RTVSPost2010Prop44ColorRGB
 90
      255
102
RTVSPost2010PropOp44
 70
     1
102
RTVSPost2010Prop45
280
     0
102
RTVSPost2010PropOp45
 70
     1
102
RTVSPost2010Prop46
 90
       50
102
RTVSPost2010PropOp46
 70
     1
102
RTVSPost2010Prop47
 90
       50
102
RTVSPost2010PropOp47
 70
     1
102
RTVSPost2010Prop48
 90
       50
102
RTVSPost2010PropOp48
 70
     1
102
RTVSPost2010Prop49
280
     0
102
RTVSPost2010PropOp49
 70
     1
102
RTVSPost2010Prop50
 90
       50
102
RTVSPost2010PropOp50
 70
     1
102
RTVSPost2010Prop51ColorIndex
 90
      256
102
RTVSPost2010Prop51ColorRGB
 90
-16777216
102
RTVSPost2010PropOp51
 70
     0
102
RTVSPost2010Prop52
140
1.0
102
RTVSPost2010PropOp52
 70
     0
102
RTVSPost2010Prop53
 90
        2
102
RTVSPost2010PropOp53
 70
     1
102
RTVSPost2010Prop54
  1
strokes_ogs.tif
102
RTVSPost2010PropOp54
 70
     1
102
RTVSPost2010Prop55
280
     0
102
RTVSPost2010PropOp55
 70
     1
102
RTVSPost2010Prop56
140
1.0
102
RTVSPost2010PropOp56
 70
     1
102
RTVSPost2010Prop57
140
1.0
102
RTVSPost2010PropOp57
 70
     1
  0
XRECORD
  5
E5
102
{ACAD_REACTORS
330
E4
102
}
330
E4
100
AcDbXrecord
280
     1
102
RTVSPropertyOp0
 70
     1
102
RTVSPropertyOp1
 70
     1
102
RTVSPropertyOp2
 70
     1
102
RTVSPropertyOp3
 70
     1
102
RTVSPropertyOp4
 70
     1
102
RTVSPropertyOp5
 70
     1
102
RTVSPropertyOp6
 70
     1
102
RTVSPropertyOp7
 70
     1
102
RTVSPropertyOp8
 70
     1
102
RTVSPropertyOp9
 70
     1
102
RTVSPropertyOp10
 70
     1
102
RTVSPropertyOp11
 70
     1
102
RTVSPropertyOp12
 70
     1
102
RTVSPropertyOp13
 70
     1
102
RTVSPropertyOp14
 70
     1
102
RTVSPropertyOp15
 70
     1
102
RTVSPropertyOp16
 70
     1
102
RTVSPropertyOp17
 70
     1
102
RTVSPropertyOp18
 70
     1
102
RTVSPropertyOp19
 70
     1
102
RTVSPropertyOp20
 70
     1
102
RTVSPropertyOp21
 70
     1
102
RTVSPropertyOp22
 70
     1
102
RTVSPropertyOp23
 70
     1
102
RTVSPropertyOp24
 70
     1
102
RTVSPropertyOp25
 70
     1
102
RTVSPropertyOp26
 70
     1
102
RTVSPropertyOp27
 70
     1
102
RTVSPropertyOp28
 70
     1
102
RTVSPropertyOp29
 70
     1
102
RTVSPropertyOp30
 70
     1
102
RTVSPropertyOp31
 70
     1
102
RTVSPropertyOp32
 70
     1
102
RTVSPropertyOp33
 70
     1
102
RTVSPropertyOp34
 70
     1
102
RTVSPropertyOp35
 70
     1
102
RTVSPropertyOp36
 70
     1
102
RTVSPropertyOp37
 70
     1
102
RTVSPropertyOp38
 70
     1
102
RTVSPropertyOp39
 70
     1
102
RTVSPropertyOp40
 70
     1
102
RTVSPropertyOp41
 70
     1
102
RTVSPropertyOp42
 70
     1
102
RTVSPropertyOp43
 70
     1
102
RTVSPropertyOp44
 70
     1
102
RTVSPropertyOp45
 70
     1
102
RTVSPropertyOp46
 70
     1
102
RTVSPropertyOp47
 70
     1
102
RTVSPropertyOp48
 70
     1
102
RTVSPropertyOp49
 70
     1
102
RTVSPropertyOp50
 70
     1
102
RTVSPropertyOp51
 70
     0
102
RTVSPropertyOp52
 70
     0
102
RTVSPropertyOp53
 70
     1
102
RTVSPropertyOp54
 70
     1
102
RTVSPropertyOp55
 70
     1
102
RTVSPropertyOp56
 70
     1
102
RTVSPropertyOp57
 70
     1
102
RTVSPost2010Prop28
280
     0
102
RTVSPost2010PropOp28
 70
     1
102
RTVSPost2010Prop29
280
     1
102
RTVSPost2010PropOp29
 70
     1
102
RTVSPost2010Prop30
280
     1
102
RTVSPost2010PropOp30
 70
     1
102
RTVSPost2010Prop31
280
     0
102
RTVSPost2010PropOp31
 70
     1
102
RTVSPost2010Prop32
280
     0
102
RTVSPost2010PropOp32
 70
     1
102
RTVSPost2010Prop33
280
     0
102
RTVSPost2010PropOp33
 70
     1
102
RTVSPost2010Prop34
280
     0
102
RTVSPost2010PropOp34
 70
     1
102
RTVSPost2010Prop35
280
     0
102
RTVSPost2010PropOp35
 70
     1
102
RTVSPost2010Prop36
280
     0
102
RTVSPost2010PropOp36
 70
     1
102
RTVSPost2010Prop37
 90
       50
102
RTVSPost2010PropOp37
 70
     1
102
RTVSPost2010Prop38
140
0.0
102
RTVSPost2010PropOp38
 70
     1
102
RTVSPost2010Prop39
140
1.0
102
RTVSPost2010PropOp39
 70
     1
102
RTVSPost2010Prop40
 90
        0
102
RTVSPost2010PropOp40
 70
     1
102
RTVSPost2010Prop41ColorIndex
 90
       18
102
RTVSPost2010Prop41ColorRGB
 90
        0
102
RTVSPost2010PropOp41
 70
     1
102
RTVSPost2010Prop42
 90
       50
102
RTVSPost2010PropOp42
 70
     1
102
RTVSPost2010Prop43
 90
        3
102
RTVSPost2010PropOp43
 70
     1
102
RTVSPost2010Prop44ColorIndex
 90
        5
102
RTVSPost2010Prop44ColorRGB
 90
      255
102
RTVSPost2010PropOp44
 70
     1
102
RTVSPost2010Prop45
280
     0
102
RTVSPost2010PropOp45
 70
     1
102
RTVSPost2010Prop46
 90
       50
102
RTVSPost2010PropOp46
 70
     1
102
RTVSPost2010Prop47
 90
       50
102
RTVSPost2010PropOp47
 70
     1
102
RTVSPost2010Prop48
 90
       50
102
RTVSPost2010PropOp48
 70
     1
102
RTVSPost2010Prop49
280
     0
102
RTVSPost2010PropOp49
 70
     1
102
RTVSPost2010Prop50
 90
       50
102
RTVSPost2010PropOp50
 70
     1
102
RTVSPost2010Prop51ColorIndex
 90
      256
102
RTVSPost2010Prop51ColorRGB
 90
-16777216
102
RTVSPost2010PropOp51
 70
     0
102
RTVSPost2010Prop52
140
1.0
102
RTVSPost2010PropOp52
 70
     0
102
RTVSPost2010Prop53
 90
        2
102
RTVSPost2010PropOp53
 70
     1
102
RTVSPost2010Prop54
  1
strokes_ogs.tif
102
RTVSPost2010PropOp54
 70
     1
102
RTVSPost2010Prop55
280
     0
102
RTVSPost2010PropOp55
 70
     1
102
RTVSPost2010Prop56
140
1.0
102
RTVSPost2010PropOp56
 70
     1
102
RTVSPost2010Prop57
140
1.0
102
RTVSPost2010PropOp57
 70
     1
  0
XRECORD
  5
DF
102
{ACAD_REACTORS
330
DE
102
}
330
DE
100
AcDbXrecord
280
     1
102
RTVSPropertyOp0
 70
     1
102
RTVSPropertyOp1
 70
     1
102
RTVSPropertyOp2
 70
     1
102
RTVSPropertyOp3
 70
     1
102
RTVSPropertyOp4
 70
     1
102
RTVSPropertyOp5
 70
     1
102
RTVSPropertyOp6
 70
     1
102
RTVSPropertyOp7
 70
     1
102
RTVSPropertyOp8
 70
     1
102
RTVSPropertyOp9
 70
     1
102
RTVSPropertyOp10
 70
     1
102
RTVSPropertyOp11
 70
     1
102
RTVSPropertyOp12
 70
     1
102
RTVSPropertyOp13
 70
     1
102
RTVSPropertyOp14
 70
     1
102
RTVSPropertyOp15
 70
     1
102
RTVSPropertyOp16
 70
     1
102
RTVSPropertyOp17
 70
     1
102
RTVSPropertyOp18
 70
     1
102
RTVSPropertyOp19
 70
     1
102
RTVSPropertyOp20
 70
     1
102
RTVSPropertyOp21
 70
     1
102
RTVSPropertyOp22
 70
     1
102
RTVSPropertyOp23
 70
     1
102
RTVSPropertyOp24
 70
     1
102
RTVSPropertyOp25
 70
     1
102
RTVSPropertyOp26
 70
     1
102
RTVSPropertyOp27
 70
     1
102
RTVSPropertyOp28
 70
     1
102
RTVSPropertyOp29
 70
     1
102
RTVSPropertyOp30
 70
     1
102
RTVSPropertyOp31
 70
     1
102
RTVSPropertyOp32
 70
     1
102
RTVSPropertyOp33
 70
     1
102
RTVSPropertyOp34
 70
     1
102
RTVSPropertyOp35
 70
     1
102
RTVSPropertyOp36
 70
     1
102
RTVSPropertyOp37
 70
     1
102
RTVSPropertyOp38
 70
     1
102
RTVSPropertyOp39
 70
     1
102
RTVSPropertyOp40
 70
     1
102
RTVSPropertyOp41
 70
     1
102
RTVSPropertyOp42
 70
     1
102
RTVSPropertyOp43
 70
     1
102
RTVSPropertyOp44
 70
     1
102
RTVSPropertyOp45
 70
     1
102
RTVSPropertyOp46
 70
     1
102
RTVSPropertyOp47
 70
     1
102
RTVSPropertyOp48
 70
     1
102
RTVSPropertyOp49
 70
     1
102
RTVSPropertyOp50
 70
     1
102
RTVSPropertyOp51
 70
     0
102
RTVSPropertyOp52
 70
     0
102
RTVSPropertyOp53
 70
     1
102
RTVSPropertyOp54
 70
     1
102
RTVSPropertyOp55
 70
     1
102
RTVSPropertyOp56
 70
     1
102
RTVSPropertyOp57
 70
     1
102
RTVSPost2010Prop28
280
     0
102
RTVSPost2010PropOp28
 70
     1
102
RTVSPost2010Prop29
280
     1
102
RTVSPost2010PropOp29
 70
     1
102
RTVSPost2010Prop30
280
     1
102
RTVSPost2010PropOp30
 70
     1
102
RTVSPost2010Prop31
280
     0
102
RTVSPost2010PropOp31
 70
     1
102
RTVSPost2010Prop32
280
     0
102
RTVSPost2010PropOp32
 70
     1
102
RTVSPost2010Prop33
280
     0
102
RTVSPost2010PropOp33
 70
     1
102
RTVSPost2010Prop34
280
     0
102
RTVSPost2010PropOp34
 70
     1
102
RTVSPost2010Prop35
280
     0
102
RTVSPost2010PropOp35
 70
     1
102
RTVSPost2010Prop36
280
     0
102
RTVSPost2010PropOp36
 70
     1
102
RTVSPost2010Prop37
 90
       50
102
RTVSPost2010PropOp37
 70
     1
102
RTVSPost2010Prop38
140
0.0
102
RTVSPost2010PropOp38
 70
     1
102
RTVSPost2010Prop39
140
1.0
102
RTVSPost2010PropOp39
 70
     1
102
RTVSPost2010Prop40
 90
        0
102
RTVSPost2010PropOp40
 70
     1
102
RTVSPost2010Prop41ColorIndex
 90
       18
102
RTVSPost2010Prop41ColorRGB
 90
        0
102
RTVSPost2010PropOp41
 70
     1
102
RTVSPost2010Prop42
 90
       50
102
RTVSPost2010PropOp42
 70
     1
102
RTVSPost2010Prop43
 90
        3
102
RTVSPost2010PropOp43
 70
     1
102
RTVSPost2010Prop44ColorIndex
 90
        5
102
RTVSPost2010Prop44ColorRGB
 90
      255
102
RTVSPost2010PropOp44
 70
     1
102
RTVSPost2010Prop45
280
     0
102
RTVSPost2010PropOp45
 70
     1
102
RTVSPost2010Prop46
 90
       50
102
RTVSPost2010PropOp46
 70
     1
102
RTVSPost2010Prop47
 90
       50
102
RTVSPost2010PropOp47
 70
     1
102
RTVSPost2010Prop48
 90
       50
102
RTVSPost2010PropOp48
 70
     1
102
RTVSPost2010Prop49
280
     0
102
RTVSPost2010PropOp49
 70
     1
102
RTVSPost2010Prop50
 90
       50
102
RTVSPost2010PropOp50
 70
     1
102
RTVSPost2010Prop51ColorIndex
 90
      256
102
RTVSPost2010Prop51ColorRGB
 90
-16777216
102
RTVSPost2010PropOp51
 70
     0
102
RTVSPost2010Prop52
140
1.0
102
RTVSPost2010PropOp52
 70
     0
102
RTVSPost2010Prop53
 90
        2
102
RTVSPost2010PropOp53
 70
     1
102
RTVSPost2010Prop54
  1
strokes_ogs.tif
102
RTVSPost2010PropOp54
 70
     1
102
RTVSPost2010Prop55
280
     0
102
RTVSPost2010PropOp55
 70
     1
102
RTVSPost2010Prop56
140
1.0
102
RTVSPost2010PropOp56
 70
     1
102
RTVSPost2010Prop57
140
1.0
102
RTVSPost2010PropOp57
 70
     1
  0
XRECORD
  5
E1
102
{ACAD_REACTORS
330
E0
102
}
330
E0
100
AcDbXrecord
280
     1
102
RTVSPropertyOp0
 70
     1
102
RTVSPropertyOp1
 70
     1
102
RTVSPropertyOp2
 70
     1
102
RTVSPropertyOp3
 70
     1
102
RTVSPropertyOp4
 70
     1
102
RTVSPropertyOp5
 70
     1
102
RTVSPropertyOp6
 70
     1
102
RTVSPropertyOp7
 70
     1
102
RTVSPropertyOp8
 70
     1
102
RTVSPropertyOp9
 70
     1
102
RTVSPropertyOp10
 70
     1
102
RTVSPropertyOp11
 70
     1
102
RTVSPropertyOp12
 70
     1
102
RTVSPropertyOp13
 70
     1
102
RTVSPropertyOp14
 70
     1
102
RTVSPropertyOp15
 70
     1
102
RTVSPropertyOp16
 70
     1
102
RTVSPropertyOp17
 70
     1
102
RTVSPropertyOp18
 70
     1
102
RTVSPropertyOp19
 70
     1
102
RTVSPropertyOp20
 70
     1
102
RTVSPropertyOp21
 70
     1
102
RTVSPropertyOp22
 70
     1
102
RTVSPropertyOp23
 70
     1
102
RTVSPropertyOp24
 70
     1
102
RTVSPropertyOp25
 70
     1
102
RTVSPropertyOp26
 70
     1
102
RTVSPropertyOp27
 70
     1
102
RTVSPropertyOp28
 70
     1
102
RTVSPropertyOp29
 70
     1
102
RTVSPropertyOp30
 70
     1
102
RTVSPropertyOp31
 70
     1
102
RTVSPropertyOp32
 70
     1
102
RTVSPropertyOp33
 70
     1
102
RTVSPropertyOp34
 70
     1
102
RTVSPropertyOp35
 70
     1
102
RTVSPropertyOp36
 70
     1
102
RTVSPropertyOp37
 70
     1
102
RTVSPropertyOp38
 70
     1
102
RTVSPropertyOp39
 70
     1
102
RTVSPropertyOp40
 70
     1
102
RTVSPropertyOp41
 70
     1
102
RTVSPropertyOp42
 70
     1
102
RTVSPropertyOp43
 70
     1
102
RTVSPropertyOp44
 70
     1
102
RTVSPropertyOp45
 70
     1
102
RTVSPropertyOp46
 70
     1
102
RTVSPropertyOp47
 70
     1
102
RTVSPropertyOp48
 70
     1
102
RTVSPropertyOp49
 70
     1
102
RTVSPropertyOp50
 70
     1
102
RTVSPropertyOp51
 70
     0
102
RTVSPropertyOp52
 70
     0
102
RTVSPropertyOp53
 70
     1
102
RTVSPropertyOp54
 70
     1
102
RTVSPropertyOp55
 70
     1
102
RTVSPropertyOp56
 70
     1
102
RTVSPropertyOp57
 70
     1
102
RTVSPost2010Prop28
280
     0
102
RTVSPost2010PropOp28
 70
     1
102
RTVSPost2010Prop29
280
     1
102
RTVSPost2010PropOp29
 70
     1
102
RTVSPost2010Prop30
280
     1
102
RTVSPost2010PropOp30
 70
     1
102
RTVSPost2010Prop31
280
     0
102
RTVSPost2010PropOp31
 70
     1
102
RTVSPost2010Prop32
280
     0
102
RTVSPost2010PropOp32
 70
     1
102
RTVSPost2010Prop33
280
     0
102
RTVSPost2010PropOp33
 70
     1
102
RTVSPost2010Prop34
280
     0
102
RTVSPost2010PropOp34
 70
     1
102
RTVSPost2010Prop35
280
     0
102
RTVSPost2010PropOp35
 70
     1
102
RTVSPost2010Prop36
280
     0
102
RTVSPost2010PropOp36
 70
     1
102
RTVSPost2010Prop37
 90
       50
102
RTVSPost2010PropOp37
 70
     1
102
RTVSPost2010Prop38
140
0.0
102
RTVSPost2010PropOp38
 70
     1
102
RTVSPost2010Prop39
140
1.0
102
RTVSPost2010PropOp39
 70
     1
102
RTVSPost2010Prop40
 90
        0
102
RTVSPost2010PropOp40
 70
     1
102
RTVSPost2010Prop41ColorIndex
 90
       18
102
RTVSPost2010Prop41ColorRGB
 90
        0
102
RTVSPost2010PropOp41
 70
     1
102
RTVSPost2010Prop42
 90
       50
102
RTVSPost2010PropOp42
 70
     1
102
RTVSPost2010Prop43
 90
        3
102
RTVSPost2010PropOp43
 70
     1
102
RTVSPost2010Prop44ColorIndex
 90
        5
102
RTVSPost2010Prop44ColorRGB
 90
      255
102
RTVSPost2010PropOp44
 70
     1
102
RTVSPost2010Prop45
280
     0
102
RTVSPost2010PropOp45
 70
     1
102
RTVSPost2010Prop46
 90
       50
102
RTVSPost2010PropOp46
 70
     1
102
RTVSPost2010Prop47
 90
       50
102
RTVSPost2010PropOp47
 70
     1
102
RTVSPost2010Prop48
 90
       50
102
RTVSPost2010PropOp48
 70
     1
102
RTVSPost2010Prop49
280
     0
102
RTVSPost2010PropOp49
 70
     1
102
RTVSPost2010Prop50
 90
       50
102
RTVSPost2010PropOp50
 70
     1
102
RTVSPost2010Prop51ColorIndex
 90
      256
102
RTVSPost2010Prop51ColorRGB
 90
-16777216
102
RTVSPost2010PropOp51
 70
     0
102
RTVSPost2010Prop52
140
1.0
102
RTVSPost2010PropOp52
 70
     0
102
RTVSPost2010Prop53
 90
        2
102
RTVSPost2010PropOp53
 70
     1
102
RTVSPost2010Prop54
  1
strokes_ogs.tif
102
RTVSPost2010PropOp54
 70
     1
102
RTVSPost2010Prop55
280
     0
102
RTVSPost2010PropOp55
 70
     1
102
RTVSPost2010Prop56
140
1.0
102
RTVSPost2010PropOp56
 70
     1
102
RTVSPost2010Prop57
140
1.0
102
RTVSPost2010PropOp57
 70
     1
  0
XRECORD
  5
D1
102
{ACAD_REACTORS
330
D0
102
}
330
D0
100
AcDbXrecord
280
     1
102
RTVSPropertyOp0
 70
     1
102
RTVSPropertyOp1
 70
     1
102
RTVSPropertyOp2
 70
     1
102
RTVSPropertyOp3
 70
     1
102
RTVSPropertyOp4
 70
     1
102
RTVSPropertyOp5
 70
     1
102
RTVSPropertyOp6
 70
     1
102
RTVSPropertyOp7
 70
     1
102
RTVSPropertyOp8
 70
     1
102
RTVSPropertyOp9
 70
     1
102
RTVSPropertyOp10
 70
     1
102
RTVSPropertyOp11
 70
     1
102
RTVSPropertyOp12
 70
     1
102
RTVSPropertyOp13
 70
     1
102
RTVSPropertyOp14
 70
     1
102
RTVSPropertyOp15
 70
     1
102
RTVSPropertyOp16
 70
     1
102
RTVSPropertyOp17
 70
     1
102
RTVSPropertyOp18
 70
     1
102
RTVSPropertyOp19
 70
     1
102
RTVSPropertyOp20
 70
     1
102
RTVSPropertyOp21
 70
     1
102
RTVSPropertyOp22
 70
     1
102
RTVSPropertyOp23
 70
     1
102
RTVSPropertyOp24
 70
     1
102
RTVSPropertyOp25
 70
     1
102
RTVSPropertyOp26
 70
     1
102
RTVSPropertyOp27
 70
     1
102
RTVSPropertyOp28
 70
     1
102
RTVSPropertyOp29
 70
     1
102
RTVSPropertyOp30
 70
     1
102
RTVSPropertyOp31
 70
     1
102
RTVSPropertyOp32
 70
     1
102
RTVSPropertyOp33
 70
     1
102
RTVSPropertyOp34
 70
     1
102
RTVSPropertyOp35
 70
     1
102
RTVSPropertyOp36
 70
     1
102
RTVSPropertyOp37
 70
     1
102
RTVSPropertyOp38
 70
     1
102
RTVSPropertyOp39
 70
     1
102
RTVSPropertyOp40
 70
     1
102
RTVSPropertyOp41
 70
     1
102
RTVSPropertyOp42
 70
     1
102
RTVSPropertyOp43
 70
     1
102
RTVSPropertyOp44
 70
     1
102
RTVSPropertyOp45
 70
     1
102
RTVSPropertyOp46
 70
     1
102
RTVSPropertyOp47
 70
     1
102
RTVSPropertyOp48
 70
     1
102
RTVSPropertyOp49
 70
     1
102
RTVSPropertyOp50
 70
     1
102
RTVSPropertyOp51
 70
     0
102
RTVSPropertyOp52
 70
     0
102
RTVSPropertyOp53
 70
     1
102
RTVSPropertyOp54
 70
     1
102
RTVSPropertyOp55
 70
     1
102
RTVSPropertyOp56
 70
     1
102
RTVSPropertyOp57
 70
     1
102
RTVSPost2010Prop28
280
     0
102
RTVSPost2010PropOp28
 70
     1
102
RTVSPost2010Prop29
280
     1
102
RTVSPost2010PropOp29
 70
     1
102
RTVSPost2010Prop30
280
     1
102
RTVSPost2010PropOp30
 70
     1
102
RTVSPost2010Prop31
280
     0
102
RTVSPost2010PropOp31
 70
     1
102
RTVSPost2010Prop32
280
     0
102
RTVSPost2010PropOp32
 70
     1
102
RTVSPost2010Prop33
280
     0
102
RTVSPost2010PropOp33
 70
     1
102
RTVSPost2010Prop34
280
     0
102
RTVSPost2010PropOp34
 70
     1
102
RTVSPost2010Prop35
280
     0
102
RTVSPost2010PropOp35
 70
     1
102
RTVSPost2010Prop36
280
     0
102
RTVSPost2010PropOp36
 70
     1
102
RTVSPost2010Prop37
 90
       50
102
RTVSPost2010PropOp37
 70
     1
102
RTVSPost2010Prop38
140
0.0
102
RTVSPost2010PropOp38
 70
     1
102
RTVSPost2010Prop39
140
1.0
102
RTVSPost2010PropOp39
 70
     1
102
RTVSPost2010Prop40
 90
        0
102
RTVSPost2010PropOp40
 70
     1
102
RTVSPost2010Prop41ColorIndex
 90
       18
102
RTVSPost2010Prop41ColorRGB
 90
        0
102
RTVSPost2010PropOp41
 70
     1
102
RTVSPost2010Prop42
 90
       50
102
RTVSPost2010PropOp42
 70
     1
102
RTVSPost2010Prop43
 90
        3
102
RTVSPost2010PropOp43
 70
     1
102
RTVSPost2010Prop44ColorIndex
 90
        5
102
RTVSPost2010Prop44ColorRGB
 90
      255
102
RTVSPost2010PropOp44
 70
     1
102
RTVSPost2010Prop45
280
     0
102
RTVSPost2010PropOp45
 70
     1
102
RTVSPost2010Prop46
 90
       50
102
RTVSPost2010PropOp46
 70
     1
102
RTVSPost2010Prop47
 90
       50
102
RTVSPost2010PropOp47
 70
     1
102
RTVSPost2010Prop48
 90
       50
102
RTVSPost2010PropOp48
 70
     1
102
RTVSPost2010Prop49
280
     0
102
RTVSPost2010PropOp49
 70
     1
102
RTVSPost2010Prop50
 90
       50
102
RTVSPost2010PropOp50
 70
     1
102
RTVSPost2010Prop51ColorIndex
 90
      256
102
RTVSPost2010Prop51ColorRGB
 90
-16777216
102
RTVSPost2010PropOp51
 70
     0
102
RTVSPost2010Prop52
140
1.0
102
RTVSPost2010PropOp52
 70
     0
102
RTVSPost2010Prop53
 90
        2
102
RTVSPost2010PropOp53
 70
     1
102
RTVSPost2010Prop54
  1
strokes_ogs.tif
102
RTVSPost2010PropOp54
 70
     1
102
RTVSPost2010Prop55
280
     0
102
RTVSPost2010PropOp55
 70
     1
102
RTVSPost2010Prop56
140
1.0
102
RTVSPost2010PropOp56
 70
     1
102
RTVSPost2010Prop57
140
1.0
102
RTVSPost2010PropOp57
 70
     1
  0
XRECORD
  5
C3
102
{ACAD_REACTORS
330
C2
102
}
330
C2
100
AcDbXrecord
280
     1
102
RTVSPropertyOp0
 70
     1
102
RTVSPropertyOp1
 70
     1
102
RTVSPropertyOp2
 70
     1
102
RTVSPropertyOp3
 70
     1
102
RTVSPropertyOp4
 70
     1
102
RTVSPropertyOp5
 70
     1
102
RTVSPropertyOp6
 70
     1
102
RTVSPropertyOp7
 70
     1
102
RTVSPropertyOp8
 70
     1
102
RTVSPropertyOp9
 70
     1
102
RTVSPropertyOp10
 70
     1
102
RTVSPropertyOp11
 70
     1
102
RTVSPropertyOp12
 70
     1
102
RTVSPropertyOp13
 70
     1
102
RTVSPropertyOp14
 70
     1
102
RTVSPropertyOp15
 70
     1
102
RTVSPropertyOp16
 70
     1
102
RTVSPropertyOp17
 70
     1
102
RTVSPropertyOp18
 70
     1
102
RTVSPropertyOp19
 70
     1
102
RTVSPropertyOp20
 70
     1
102
RTVSPropertyOp21
 70
     1
102
RTVSPropertyOp22
 70
     1
102
RTVSPropertyOp23
 70
     1
102
RTVSPropertyOp24
 70
     1
102
RTVSPropertyOp25
 70
     1
102
RTVSPropertyOp26
 70
     1
102
RTVSPropertyOp27
 70
     1
102
RTVSPropertyOp28
 70
     1
102
RTVSPropertyOp29
 70
     1
102
RTVSPropertyOp30
 70
     1
102
RTVSPropertyOp31
 70
     1
102
RTVSPropertyOp32
 70
     1
102
RTVSPropertyOp33
 70
     1
102
RTVSPropertyOp34
 70
     1
102
RTVSPropertyOp35
 70
     1
102
RTVSPropertyOp36
 70
     1
102
RTVSPropertyOp37
 70
     1
102
RTVSPropertyOp38
 70
     1
102
RTVSPropertyOp39
 70
     1
102
RTVSPropertyOp40
 70
     1
102
RTVSPropertyOp41
 70
     1
102
RTVSPropertyOp42
 70
     1
102
RTVSPropertyOp43
 70
     1
102
RTVSPropertyOp44
 70
     1
102
RTVSPropertyOp45
 70
     1
102
RTVSPropertyOp46
 70
     1
102
RTVSPropertyOp47
 70
     1
102
RTVSPropertyOp48
 70
     1
102
RTVSPropertyOp49
 70
     1
102
RTVSPropertyOp50
 70
     1
102
RTVSPropertyOp51
 70
     0
102
RTVSPropertyOp52
 70
     0
102
RTVSPropertyOp53
 70
     1
102
RTVSPropertyOp54
 70
     1
102
RTVSPropertyOp55
 70
     1
102
RTVSPropertyOp56
 70
     1
102
RTVSPropertyOp57
 70
     1
102
RTVSPost2010Prop28
280
     0
102
RTVSPost2010PropOp28
 70
     1
102
RTVSPost2010Prop29
280
     1
102
RTVSPost2010PropOp29
 70
     1
102
RTVSPost2010Prop30
280
     1
102
RTVSPost2010PropOp30
 70
     1
102
RTVSPost2010Prop31
280
     0
102
RTVSPost2010PropOp31
 70
     1
102
RTVSPost2010Prop32
280
     0
102
RTVSPost2010PropOp32
 70
     1
102
RTVSPost2010Prop33
280
     0
102
RTVSPost2010PropOp33
 70
     1
102
RTVSPost2010Prop34
280
     0
102
RTVSPost2010PropOp34
 70
     1
102
RTVSPost2010Prop35
280
     0
102
RTVSPost2010PropOp35
 70
     1
102
RTVSPost2010Prop36
280
     0
102
RTVSPost2010PropOp36
 70
     1
102
RTVSPost2010Prop37
 90
       50
102
RTVSPost2010PropOp37
 70
     1
102
RTVSPost2010Prop38
140
0.0
102
RTVSPost2010PropOp38
 70
     1
102
RTVSPost2010Prop39
140
1.0
102
RTVSPost2010PropOp39
 70
     1
102
RTVSPost2010Prop40
 90
        0
102
RTVSPost2010PropOp40
 70
     1
102
RTVSPost2010Prop41ColorIndex
 90
       18
102
RTVSPost2010Prop41ColorRGB
 90
        0
102
RTVSPost2010PropOp41
 70
     1
102
RTVSPost2010Prop42
 90
       50
102
RTVSPost2010PropOp42
 70
     1
102
RTVSPost2010Prop43
 90
        3
102
RTVSPost2010PropOp43
 70
     1
102
RTVSPost2010Prop44ColorIndex
 90
        5
102
RTVSPost2010Prop44ColorRGB
 90
      255
102
RTVSPost2010PropOp44
 70
     1
102
RTVSPost2010Prop45
280
     0
102
RTVSPost2010PropOp45
 70
     1
102
RTVSPost2010Prop46
 90
       50
102
RTVSPost2010PropOp46
 70
     1
102
RTVSPost2010Prop47
 90
       50
102
RTVSPost2010PropOp47
 70
     1
102
RTVSPost2010Prop48
 90
       50
102
RTVSPost2010PropOp48
 70
     1
102
RTVSPost2010Prop49
280
     0
102
RTVSPost2010PropOp49
 70
     1
102
RTVSPost2010Prop50
 90
       50
102
RTVSPost2010PropOp50
 70
     1
102
RTVSPost2010Prop51ColorIndex
 90
      256
102
RTVSPost2010Prop51ColorRGB
 90
-16777216
102
RTVSPost2010PropOp51
 70
     0
102
RTVSPost2010Prop52
140
1.0
102
RTVSPost2010PropOp52
 70
     0
102
RTVSPost2010Prop53
 90
        2
102
RTVSPost2010PropOp53
 70
     1
102
RTVSPost2010Prop54
  1
strokes_ogs.tif
102
RTVSPost2010PropOp54
 70
     1
102
RTVSPost2010Prop55
280
     0
102
RTVSPost2010PropOp55
 70
     1
102
RTVSPost2010Prop56
140
1.0
102
RTVSPost2010PropOp56
 70
     1
102
RTVSPost2010Prop57
140
1.0
102
RTVSPost2010PropOp57
 70
     1
  0
XRECORD
  5
E3
102
{ACAD_REACTORS
330
E2
102
}
330
E2
100
AcDbXrecord
280
     1
102
RTVSPropertyOp0
 70
     1
102
RTVSPropertyOp1
 70
     1
102
RTVSPropertyOp2
 70
     1
102
RTVSPropertyOp3
 70
     1
102
RTVSPropertyOp4
 70
     1
102
RTVSPropertyOp5
 70
     1
102
RTVSPropertyOp6
 70
     1
102
RTVSPropertyOp7
 70
     1
102
RTVSPropertyOp8
 70
     1
102
RTVSPropertyOp9
 70
     1
102
RTVSPropertyOp10
 70
     1
102
RTVSPropertyOp11
 70
     1
102
RTVSPropertyOp12
 70
     1
102
RTVSPropertyOp13
 70
     1
102
RTVSPropertyOp14
 70
     1
102
RTVSPropertyOp15
 70
     1
102
RTVSPropertyOp16
 70
     1
102
RTVSPropertyOp17
 70
     1
102
RTVSPropertyOp18
 70
     1
102
RTVSPropertyOp19
 70
     1
102
RTVSPropertyOp20
 70
     1
102
RTVSPropertyOp21
 70
     1
102
RTVSPropertyOp22
 70
     1
102
RTVSPropertyOp23
 70
     1
102
RTVSPropertyOp24
 70
     1
102
RTVSPropertyOp25
 70
     1
102
RTVSPropertyOp26
 70
     1
102
RTVSPropertyOp27
 70
     1
102
RTVSPropertyOp28
 70
     1
102
RTVSPropertyOp29
 70
     1
102
RTVSPropertyOp30
 70
     1
102
RTVSPropertyOp31
 70
     1
102
RTVSPropertyOp32
 70
     1
102
RTVSPropertyOp33
 70
     1
102
RTVSPropertyOp34
 70
     1
102
RTVSPropertyOp35
 70
     1
102
RTVSPropertyOp36
 70
     1
102
RTVSPropertyOp37
 70
     1
102
RTVSPropertyOp38
 70
     1
102
RTVSPropertyOp39
 70
     1
102
RTVSPropertyOp40
 70
     1
102
RTVSPropertyOp41
 70
     1
102
RTVSPropertyOp42
 70
     1
102
RTVSPropertyOp43
 70
     1
102
RTVSPropertyOp44
 70
     1
102
RTVSPropertyOp45
 70
     1
102
RTVSPropertyOp46
 70
     1
102
RTVSPropertyOp47
 70
     1
102
RTVSPropertyOp48
 70
     1
102
RTVSPropertyOp49
 70
     1
102
RTVSPropertyOp50
 70
     1
102
RTVSPropertyOp51
 70
     0
102
RTVSPropertyOp52
 70
     0
102
RTVSPropertyOp53
 70
     1
102
RTVSPropertyOp54
 70
     1
102
RTVSPropertyOp55
 70
     1
102
RTVSPropertyOp56
 70
     1
102
RTVSPropertyOp57
 70
     1
102
RTVSPost2010Prop28
280
     0
102
RTVSPost2010PropOp28
 70
     1
102
RTVSPost2010Prop29
280
     1
102
RTVSPost2010PropOp29
 70
     1
102
RTVSPost2010Prop30
280
     1
102
RTVSPost2010PropOp30
 70
     1
102
RTVSPost2010Prop31
280
     0
102
RTVSPost2010PropOp31
 70
     1
102
RTVSPost2010Prop32
280
     0
102
RTVSPost2010PropOp32
 70
     1
102
RTVSPost2010Prop33
280
     0
102
RTVSPost2010PropOp33
 70
     1
102
RTVSPost2010Prop34
280
     0
102
RTVSPost2010PropOp34
 70
     1
102
RTVSPost2010Prop35
280
     0
102
RTVSPost2010PropOp35
 70
     1
102
RTVSPost2010Prop36
280
     0
102
RTVSPost2010PropOp36
 70
     1
102
RTVSPost2010Prop37
 90
       50
102
RTVSPost2010PropOp37
 70
     1
102
RTVSPost2010Prop38
140
0.0
102
RTVSPost2010PropOp38
 70
     1
102
RTVSPost2010Prop39
140
1.0
102
RTVSPost2010PropOp39
 70
     1
102
RTVSPost2010Prop40
 90
        0
102
RTVSPost2010PropOp40
 70
     1
102
RTVSPost2010Prop41ColorIndex
 90
       18
102
RTVSPost2010Prop41ColorRGB
 90
        0
102
RTVSPost2010PropOp41
 70
     1
102
RTVSPost2010Prop42
 90
       50
102
RTVSPost2010PropOp42
 70
     1
102
RTVSPost2010Prop43
 90
        3
102
RTVSPost2010PropOp43
 70
     1
102
RTVSPost2010Prop44ColorIndex
 90
        5
102
RTVSPost2010Prop44ColorRGB
 90
      255
102
RTVSPost2010PropOp44
 70
     1
102
RTVSPost2010Prop45
280
     0
102
RTVSPost2010PropOp45
 70
     1
102
RTVSPost2010Prop46
 90
       50
102
RTVSPost2010PropOp46
 70
     1
102
RTVSPost2010Prop47
 90
       50
102
RTVSPost2010PropOp47
 70
     1
102
RTVSPost2010Prop48
 90
       50
102
RTVSPost2010PropOp48
 70
     1
102
RTVSPost2010Prop49
280
     0
102
RTVSPost2010PropOp49
 70
     1
102
RTVSPost2010Prop50
 90
       50
102
RTVSPost2010PropOp50
 70
     1
102
RTVSPost2010Prop51ColorIndex
 90
      256
102
RTVSPost2010Prop51ColorRGB
 90
-16777216
102
RTVSPost2010PropOp51
 70
     0
102
RTVSPost2010Prop52
140
1.0
102
RTVSPost2010PropOp52
 70
     0
102
RTVSPost2010Prop53
 90
        2
102
RTVSPost2010PropOp53
 70
     1
102
RTVSPost2010Prop54
  1
strokes_ogs.tif
102
RTVSPost2010PropOp54
 70
     1
102
RTVSPost2010Prop55
280
     0
102
RTVSPost2010PropOp55
 70
     1
102
RTVSPost2010Prop56
140
1.0
102
RTVSPost2010PropOp56
 70
     1
102
RTVSPost2010Prop57
140
1.0
102
RTVSPost2010PropOp57
 70
     1
  0
ENDSEC
  0
EOF
