  0
SECTION
  2
HEADER
  9
$ACADVER
  1
AC1021
  9
$ACADMAINTVER
 70
     1
  9
$DWGCODEPAGE
  3
ANSI_1254
  9
$LASTSAVEDBY
  1
uretim
  9
$INSBASE
 10
0.0
 20
0.0
 30
0.0
  9
$EXTMIN
 10
533.5054315859215
 20
334.6666632155814
 30
0.0
  9
$EXTMAX
 10
790.0911258464075
 20
580.1683189691909
 30
0.0
  9
$LIMMIN
 10
0.0
 20
0.0
  9
$LIMMAX
 10
420.0
 20
297.0
  9
$ORTHOMODE
 70
     0
  9
$REGENMODE
 70
     1
  9
$FILLMODE
 70
     1
  9
$QTEXTMODE
 70
     0
  9
$MIRRTEXT
 70
     0
  9
$LTSCALE
 40
1.0
  9
$ATTMODE
 70
     1
  9
$TEXTSIZE
 40
2.5
  9
$TRACEWID
 40
1.0
  9
$TEXTSTYLE
  7
Standard
  9
$CLAYER
  8
0
  9
$CELTYPE
  6
ByLayer
  9
$CECOLOR
 62
   256
  9
$CELTSCALE
 40
1.0
  9
$DISPSILH
 70
     0
  9
$DIMSCALE
 40
1.0
  9
$DIMASZ
 40
2.5
  9
$DIMEXO
 40
0.625
  9
$DIMDLI
 40
3.75
  9
$DIMRND
 40
0.0
  9
$DIMDLE
 40
0.0
  9
$DIMEXE
 40
1.25
  9
$DIMTP
 40
0.0
  9
$DIMTM
 40
0.0
  9
$DIMTXT
 40
2.5
  9
$DIMCEN
 40
2.5
  9
$DIMTSZ
 40
0.0
  9
$DIMTOL
 70
     0
  9
$DIMLIM
 70
     0
  9
$DIMTIH
 70
     0
  9
$DIMTOH
 70
     0
  9
$DIMSE1
 70
     0
  9
$DIMSE2
 70
     0
  9
$DIMTAD
 70
     1
  9
$DIMZIN
 70
     8
  9
$DIMBLK
  1

  9
$DIMASO
 70
     1
  9
$DIMSHO
 70
     1
  9
$DIMPOST
  1

  9
$DIMAPOST
  1

  9
$DIMALT
 70
     0
  9
$DIMALTD
 70
     3
  9
$DIMALTF
 40
0.03937007874016
  9
$DIMLFAC
 40
1.0
  9
$DIMTOFL
 70
     1
  9
$DIMTVP
 40
0.0
  9
$DIMTIX
 70
     0
  9
$DIMSOXD
 70
     0
  9
$DIMSAH
 70
     0
  9
$DIMBLK1
  1

  9
$DIMBLK2
  1

  9
$DIMSTYLE
  2
ISO-25
  9
$DIMCLRD
 70
     0
  9
$DIMCLRE
 70
     0
  9
$DIMCLRT
 70
     0
  9
$DIMTFAC
 40
1.0
  9
$DIMGAP
 40
0.625
  9
$DIMJUST
 70
     0
  9
$DIMSD1
 70
     0
  9
$DIMSD2
 70
     0
  9
$DIMTOLJ
 70
     0
  9
$DIMTZIN
 70
     8
  9
$DIMALTZ
 70
     0
  9
$DIMALTTZ
 70
     0
  9
$DIMUPT
 70
     0
  9
$DIMDEC
 70
     2
  9
$DIMTDEC
 70
     2
  9
$DIMALTU
 70
     2
  9
$DIMALTTD
 70
     3
  9
$DIMTXSTY
  7
Standard
  9
$DIMAUNIT
 70
     0
  9
$DIMADEC
 70
     0
  9
$DIMALTRND
 40
0.0
  9
$DIMAZIN
 70
     0
  9
$DIMDSEP
 70
    44
  9
$DIMATFIT
 70
     3
  9
$DIMFRAC
 70
     0
  9
$DIMLDRBLK
  1

  9
$DIMLUNIT
 70
     2
  9
$DIMLWD
 70
    -2
  9
$DIMLWE
 70
    -2
  9
$DIMTMOVE
 70
     0
  9
$DIMFXL
 40
1.0
  9
$DIMFXLON
 70
     0
  9
$DIMJOGANG
 40
0.7853981633974483
  9
$DIMTFILL
 70
     0
  9
$DIMTFILLCLR
 70
     0
  9
$DIMARCSYM
 70
     0
  9
$DIMLTYPE
  6

  9
$DIMLTEX1
  6

  9
$DIMLTEX2
  6

  9
$LUNITS
 70
     2
  9
$LUPREC
 70
     4
  9
$SKETCHINC
 40
1.0
  9
$FILLETRAD
 40
0.0
  9
$AUNITS
 70
     0
  9
$AUPREC
 70
     0
  9
$MENU
  1
.
  9
$ELEVATION
 40
0.0
  9
$PELEVATION
 40
0.0
  9
$THICKNESS
 40
0.0
  9
$LIMCHECK
 70
     0
  9
$CHAMFERA
 40
0.0
  9
$CHAMFERB
 40
0.0
  9
$CHAMFERC
 40
0.0
  9
$CHAMFERD
 40
0.0
  9
$SKPOLY
 70
     0
  9
$TDCREATE
 40
2457897.454332222
  9
$TDUCREATE
 40
2457897.329332222
  9
$TDUPDATE
 40
2457897.456316840
  9
$TDUUPDATE
 40
2457897.331316841
  9
$TDINDWG
 40
0.0007062616
  9
$TDUSRTIMER
 40
0.0007062500
  9
$USRTIMER
 70
     1
  9
$ANGBASE
 50
0.0
  9
$ANGDIR
 70
     0
  9
$PDMODE
 70
     0
  9
$PDSIZE
 40
0.0
  9
$PLINEWID
 40
0.0
  9
$SPLFRAME
 70
     0
  9
$SPLINETYPE
 70
     6
  9
$SPLINESEGS
 70
     8
  9
$HANDSEED
  5
25D
  9
$SURFTAB1
 70
     6
  9
$SURFTAB2
 70
     6
  9
$SURFTYPE
 70
     6
  9
$SURFU
 70
     6
  9
$SURFV
 70
     6
  9
$UCSBASE
  2

  9
$UCSNAME
  2

  9
$UCSORG
 10
0.0
 20
0.0
 30
0.0
  9
$UCSXDIR
 10
1.0
 20
0.0
 30
0.0
  9
$UCSYDIR
 10
0.0
 20
1.0
 30
0.0
  9
$UCSORTHOREF
  2

  9
$UCSORTHOVIEW
 70
     0
  9
$UCSORGTOP
 10
0.0
 20
0.0
 30
0.0
  9
$UCSORGBOTTOM
 10
0.0
 20
0.0
 30
0.0
  9
$UCSORGLEFT
 10
0.0
 20
0.0
 30
0.0
  9
$UCSORGRIGHT
 10
0.0
 20
0.0
 30
0.0
  9
$UCSORGFRONT
 10
0.0
 20
0.0
 30
0.0
  9
$UCSORGBACK
 10
0.0
 20
0.0
 30
0.0
  9
$PUCSBASE
  2

  9
$PUCSNAME
  2

  9
$PUCSORG
 10
0.0
 20
0.0
 30
0.0
  9
$PUCSXDIR
 10
1.0
 20
0.0
 30
0.0
  9
$PUCSYDIR
 10
0.0
 20
1.0
 30
0.0
  9
$PUCSORTHOREF
  2

  9
$PUCSORTHOVIEW
 70
     0
  9
$PUCSORGTOP
 10
0.0
 20
0.0
 30
0.0
  9
$PUCSORGBOTTOM
 10
0.0
 20
0.0
 30
0.0
  9
$PUCSORGLEFT
 10
0.0
 20
0.0
 30
0.0
  9
$PUCSORGRIGHT
 10
0.0
 20
0.0
 30
0.0
  9
$PUCSORGFRONT
 10
0.0
 20
0.0
 30
0.0
  9
$PUCSORGBACK
 10
0.0
 20
0.0
 30
0.0
  9
$USERI1
 70
     0
  9
$USERI2
 70
     0
  9
$USERI3
 70
     0
  9
$USERI4
 70
     0
  9
$USERI5
 70
     0
  9
$USERR1
 40
0.0
  9
$USERR2
 40
0.0
  9
$USERR3
 40
0.0
  9
$USERR4
 40
0.0
  9
$USERR5
 40
0.0
  9
$WORLDVIEW
 70
     1
  9
$SHADEDGE
 70
     3
  9
$SHADEDIF
 70
    70
  9
$TILEMODE
 70
     1
  9
$MAXACTVP
 70
    64
  9
$PINSBASE
 10
0.0
 20
0.0
 30
0.0
  9
$PLIMCHECK
 70
     0
  9
$PEXTMIN
 10
0.0
 20
0.0
 30
0.0
  9
$PEXTMAX
 10
0.0
 20
0.0
 30
0.0
  9
$PLIMMIN
 10
0.0
 20
0.0
  9
$PLIMMAX
 10
12.0
 20
9.0
  9
$UNITMODE
 70
     0
  9
$VISRETAIN
 70
     1
  9
$PLINEGEN
 70
     0
  9
$PSLTSCALE
 70
     1
  9
$TREEDEPTH
 70
  3020
  9
$CMLSTYLE
  2
Standard
  9
$CMLJUST
 70
     0
  9
$CMLSCALE
 40
20.0
  9
$PROXYGRAPHICS
 70
     1
  9
$MEASUREMENT
 70
     1
  9
$CELWEIGHT
370
    -1
  9
$ENDCAPS
280
     0
  9
$JOINSTYLE
280
     0
  9
$LWDISPLAY
290
     0
  9
$INSUNITS
 70
     4
  9
$HYPERLINKBASE
  1

  9
$STYLESHEET
  1

  9
$XEDIT
290
     1
  9
$CEPSNTYPE
380
     0
  9
$PSTYLEMODE
290
     1
  9
$FINGERPRINTGUID
  2
{65BD1196-883B-4E30-993A-3D839F4EA36C}
  9
$VERSIONGUID
  2
{064373E1-5A2F-4BFD-A215-76E42DC0443E}
  9
$EXTNAMES
290
     1
  9
$PSVPSCALE
 40
0.0
  9
$OLESTARTUP
290
     0
  9
$SORTENTS
280
   127
  9
$INDEXCTL
280
     0
  9
$HIDETEXT
280
     1
  9
$XCLIPFRAME
290
     0
  9
$HALOGAP
280
     0
  9
$OBSCOLOR
 70
   257
  9
$OBSLTYPE
280
     0
  9
$INTERSECTIONDISPLAY
280
     0
  9
$INTERSECTIONCOLOR
 70
   257
  9
$DIMASSOC
280
     2
  9
$PROJECTNAME
  1

  9
$CAMERADISPLAY
290
     0
  9
$LENSLENGTH
 40
50.0
  9
$CAMERAHEIGHT
 40
0.0
  9
$STEPSPERSEC
 40
2.0
  9
$STEPSIZE
 40
6.0
  9
$3DDWFPREC
 40
2.0
  9
$PSOLWIDTH
 40
5.0
  9
$PSOLHEIGHT
 40
80.0
  9
$LOFTANG1
 40
1.570796326794896
  9
$LOFTANG2
 40
1.570796326794896
  9
$LOFTMAG1
 40
0.0
  9
$LOFTMAG2
 40
0.0
  9
$LOFTPARAM
 70
     7
  9
$LOFTNORMALS
280
     1
  9
$LATITUDE
 40
37.795
  9
$LONGITUDE
 40
-122.394
  9
$NORTHDIRECTION
 40
0.0
  9
$TIMEZONE
 70
 -8000
  9
$LIGHTGLYPHDISPLAY
280
     1
  9
$TILEMODELIGHTSYNCH
280
     1
  9
$CMATERIAL
347
EC
  9
$SOLIDHIST
280
     1
  9
$SHOWHIST
280
     1
  9
$DWFFRAME
280
     2
  9
$DGNFRAME
280
     0
  9
$REALWORLDSCALE
290
     1
  9
$INTERFERECOLOR
 62
     1
  9
$INTERFEREOBJVS
345
F9
  9
$INTERFEREVPVS
346
F6
  9
$CSHADOW
280
     0
  9
$SHADOWPLANELOCATION
 40
0.0
  0
ENDSEC
  0
SECTION
  2
CLASSES
  0
CLASS
  1
ACDBDICTIONARYWDFLT
  2
AcDbDictionaryWithDefault
  3
ObjectDBX Classes
 90
        0
 91
        1
280
     0
281
     0
  0
CLASS
  1
DICTIONARYVAR
  2
AcDbDictionaryVar
  3
ObjectDBX Classes
 90
        0
 91
        3
280
     0
281
     0
  0
CLASS
  1
TABLESTYLE
  2
AcDbTableStyle
  3
ObjectDBX Classes
 90
     4095
 91
        1
280
     0
281
     0
  0
CLASS
  1
MATERIAL
  2
AcDbMaterial
  3
ObjectDBX Classes
 90
     1024
 91
        3
280
     0
281
     0
  0
CLASS
  1
VISUALSTYLE
  2
AcDbVisualStyle
  3
ObjectDBX Classes
 90
     4095
 91
       16
280
     0
281
     0
  0
ENDSEC
  0
SECTION
  2
TABLES
  0
TABLE
  2
VPORT
  5
8
330
0
100
AcDbSymbolTable
 70
     1
  0
VPORT
  5
EA
330
8
100
AcDbSymbolTableRecord
100
AcDbViewportTableRecord
  2
*Active
 70
     0
 10
0.0
 20
0.0
 11
1.0
 21
1.0
 12
715.1491294137009
 22
508.5479515880053
 13
0.0
 23
0.0
 14
10.0
 24
10.0
 15
10.0
 25
10.0
 16
0.0
 26
0.0
 36
1.0
 17
0.0
 27
0.0
 37
0.0
 40
423.2307060746037
 41
1.739825581395348
 42
50.0
 43
0.0
 44
0.0
 50
0.0
 51
0.0
 71
     0
 72
  1000
 73
     1
 74
     3
 75
     0
 76
     0
 77
     0
 78
     0
281
     0
 65
     1
110
0.0
120
0.0
130
0.0
111
1.0
121
0.0
131
0.0
112
0.0
122
1.0
132
0.0
 79
     0
146
0.0
348
F5
 60
     2
 61
     5
292
     1
282
     1
141
0.0
142
0.0
 63
   250
421
  3355443
  0
ENDTAB
  0
TABLE
  2
LTYPE
  5
5
330
0
100
AcDbSymbolTable
 70
     1
  0
LTYPE
  5
14
330
5
100
AcDbSymbolTableRecord
100
AcDbLinetypeTableRecord
  2
ByBlock
 70
     0
  3

 72
    65
 73
     0
 40
0.0
  0
LTYPE
  5
15
330
5
100
AcDbSymbolTableRecord
100
AcDbLinetypeTableRecord
  2
ByLayer
 70
     0
  3

 72
    65
 73
     0
 40
0.0
  0
LTYPE
  5
16
330
5
100
AcDbSymbolTableRecord
100
AcDbLinetypeTableRecord
  2
Continuous
 70
     0
  3
Solid line
 72
    65
 73
     0
 40
0.0
  0
ENDTAB
  0
TABLE
  2
LAYER
  5
2
330
0
100
AcDbSymbolTable
 70
     1
  0
LAYER
  5
10
330
2
100
AcDbSymbolTableRecord
100
AcDbLayerTableRecord
  2
0
 70
     0
 62
     7
  6
Continuous
370
    -3
390
F
347
EE
  0
ENDTAB
  0
TABLE
  2
STYLE
  5
3
330
0
100
AcDbSymbolTable
 70
     1
  0
STYLE
  5
11
330
3
100
AcDbSymbolTableRecord
100
AcDbTextStyleTableRecord
  2
Standard
 70
     0
 40
0.0
 41
1.0
 50
0.0
 71
     0
 42
2.5
  3
txt
  4

  0
ENDTAB
  0
TABLE
  2
VIEW
  5
6
330
0
100
AcDbSymbolTable
 70
     0
  0
ENDTAB
  0
TABLE
  2
UCS
  5
7
330
0
100
AcDbSymbolTable
 70
     0
  0
ENDTAB
  0
TABLE
  2
APPID
  5
9
330
0
100
AcDbSymbolTable
 70
     2
  0
APPID
  5
12
330
9
100
AcDbSymbolTableRecord
100
AcDbRegAppTableRecord
  2
ACAD
 70
     0
  0
APPID
  5
9E
330
9
100
AcDbSymbolTableRecord
100
AcDbRegAppTableRecord
  2
ACAD_PSEXT
 70
     0
  0
ENDTAB
  0
TABLE
  2
DIMSTYLE
  5
A
330
0
100
AcDbSymbolTable
 70
     1
100
AcDbDimStyleTable
 71
     1
340
27
  0
DIMSTYLE
105
27
330
A
100
AcDbSymbolTableRecord
100
AcDbDimStyleTableRecord
  2
ISO-25
 70
     0
 41
2.5
 42
0.625
 43
3.75
 44
1.25
 73
     0
 74
     0
 77
     1
 78
     8
140
2.5
141
2.5
143
0.03937007874016
147
0.625
171
     3
172
     1
271
     2
272
     2
274
     3
278
    44
283
     0
284
     8
340
11
  0
ENDTAB
  0
TABLE
  2
BLOCK_RECORD
  5
1
330
0
100
AcDbSymbolTable
 70
     1
  0
BLOCK_RECORD
  5
1F
330
1
100
AcDbSymbolTableRecord
100
AcDbBlockTableRecord
  2
*Model_Space
340
22
 70
     0
280
     1
281
     0
  0
BLOCK_RECORD
  5
D2
330
1
100
AcDbSymbolTableRecord
100
AcDbBlockTableRecord
  2
*Paper_Space
340
D3
 70
     0
280
     1
281
     0
  0
BLOCK_RECORD
  5
D6
330
1
100
AcDbSymbolTableRecord
100
AcDbBlockTableRecord
  2
*Paper_Space0
340
D7
 70
     0
280
     1
281
     0
  0
ENDTAB
  0
ENDSEC
  0
SECTION
  2
BLOCKS
  0
BLOCK
  5
20
330
1F
100
AcDbEntity
  8
0
100
AcDbBlockBegin
  2
*Model_Space
 70
     0
 10
0.0
 20
0.0
 30
0.0
  3
*Model_Space
  1

  0
ENDBLK
  5
21
330
1F
100
AcDbEntity
  8
0
100
AcDbBlockEnd
  0
BLOCK
  5
D4
330
D2
100
AcDbEntity
 67
     1
  8
0
100
AcDbBlockBegin
  2
*Paper_Space
 70
     0
 10
0.0
 20
0.0
 30
0.0
  3
*Paper_Space
  1

  0
ENDBLK
  5
D5
330
D2
100
AcDbEntity
 67
     1
  8
0
100
AcDbBlockEnd
  0
BLOCK
  5
D8
330
D6
100
AcDbEntity
 67
     1
  8
0
100
AcDbBlockBegin
  2
*Paper_Space0
 70
     0
 10
0.0
 20
0.0
 30
0.0
  3
*Paper_Space0
  1

  0
ENDBLK
  5
D9
330
D6
100
AcDbEntity
 67
     1
  8
0
100
AcDbBlockEnd
  0
ENDSEC
  0
SECTION
  2
ENTITIES
  0
LWPOLYLINE
  5
1B2
330
1F
100
AcDbEntity
  8
0
 62
     0
100
AcDbPolyline
 90
       42
 70
     0
 43
0.0
 10
565.2489292219233
 20
352.9663137981868
 10
573.8339544796417
 20
345.8148009292079
 10
588.4085605890249
 20
342.4166021300441
 10
601.6052837942971
 20
345.7730785957458
 10
604.7498964085535
 20
378.3329540505476
 10
620.8997857167869
 20
398.7385929157237
 10
630.3038196438446
 20
408.4712393833526
 10
629.816653972186
 20
415.6436103242787
 10
636.1269254146118
 20
423.8259439793025
 10
637.8816711553845
 20
425.5806897200766
 10
645.9571710857071
 20
414.3315688172513
 10
653.7381872239166
 20
383.7248960165582
 10
654.737457018271
 20
356.8568432502045
 10
644.3399771820223
 20
346.7143699822425
 10
647.2431835979859
 20
339.6870225641053
 10
657.5040064030617
 20
336.7808917479845
 10
667.7232873336579
 20
336.7808917479845
 10
680.4210779674394
 20
341.2708178471869
 10
683.3154842795702
 20
356.0261374013933
 10
676.2835114421468
 20
380.4360011275646
 10
684.0276903120575
 20
421.3177250442679
 10
714.9992973566604
 20
422.2602667235889
 10
733.7629440365471
 20
418.1512973432757
 10
734.8423489561591
 20
413.3698661682794
 10
752.9452582643807
 20
389.4209233562171
 10
758.9434325941165
 20
369.063352292698
 10
753.5206598681598
 20
351.2088779094822
 10
757.6865778713799
 20
346.0703821366239
 10
765.6456071539706
 20
346.5979693450079
 10
774.9025928603241
 20
345.9287454683156
 10
780.0415984139781
 20
345.9287454683156
 10
790.0911258464075
 20
362.0991752232119
 10
783.2034464438347
 20
380.0913203087587
 10
773.302661294163
 20
395.0722039845352
 10
773.6793992919301
 20
400.5956700245676
 10
785.4681173256267
 20
400.2566360264188
 10
772.7271297921015
 20
417.5313451393019
 10
774.0059029990788
 20
436.0912833224268
 10
771.9023167559972
 20
470.4416674643482
 10
750.4166784943118
 20
507.42543560745
 10
722.0604374063041
 20
528.4393446398655
 10
693.8161033518954
 20
526.3439153742058
  0
LWPOLYLINE
  5
1B3
330
1F
100
AcDbEntity
  8
0
 62
     0
100
AcDbPolyline
 90
        9
 70
     0
 43
0.0
 10
698.9436159362922
 20
515.9518945675124
 10
726.2246478865072
 20
521.2106517209197
 10
735.5240686021625
 20
510.4146188265947
 10
727.1493049152176
 20
491.0991219582403
 10
725.1438019709257
 20
449.3157574173153
 10
739.9730030901937
 20
474.9012088453291
 10
745.3156341992744
 20
507.6919839564459
 10
726.2246478865072
 20
521.2106517209197
 10
722.0604374063041
 20
528.4393446398655
  0
LWPOLYLINE
  5
1B4
330
1F
100
AcDbEntity
  8
0
 62
     0
100
AcDbPolyline
 90
        2
 70
     0
 43
0.0
 10
735.5240686021625
 20
510.4146188265947
 10
739.9730030901937
 20
474.9012088453291
  0
LWPOLYLINE
  5
1B5
330
1F
100
AcDbEntity
  8
0
 62
     0
100
AcDbPolyline
 90
       15
 70
     0
 43
0.0
 10
745.3156341992744
 20
507.6919839564459
 10
758.5298950187425
 20
482.3608250183195
 10
750.4166784943118
 20
507.42543560745
 10
766.5772127312047
 20
475.550769750381
 10
758.5298950187425
 20
482.3608250183195
 10
740.1115630671947
 20
474.9012088453291
 10
745.2602181113779
 20
444.7879438091479
 10
758.5298950187425
 20
482.3608250183195
 10
759.7373816637573
 20
464.4589544016223
 10
766.5772127312047
 20
475.550769750381
 10
759.6476192585578
 20
421.708031879981
 10
759.7373816637573
 20
464.4589544016223
 10
747.0952386464159
 20
416.4107098467127
 10
745.2602181113779
 20
444.7879438091479
 10
759.7373816637573
 20
464.4589544016223
  0
LWPOLYLINE
  5
1B6
330
1F
100
AcDbEntity
  8
0
 62
     0
100
AcDbPolyline
 90
        5
 70
     0
 43
0.0
 10
766.5772127312047
 20
475.550769750381
 10
767.6583366156501
 20
422.7734778855753
 10
759.6476192585578
 20
421.708031879981
 10
747.0952386464159
 20
416.4107098467127
 10
734.8423489561591
 20
413.3698661682794
  0
LWPOLYLINE
  5
1B7
330
1F
100
AcDbEntity
  8
0
 62
     0
100
AcDbPolyline
 90
        3
 70
     0
 43
0.0
 10
752.9452582643807
 20
389.4209233562171
 10
763.0533516497889
 20
389.9668282055515
 10
747.0952386464159
 20
416.4107098467127
  0
LWPOLYLINE
  5
1B8
330
1F
100
AcDbEntity
  8
0
 62
     0
100
AcDbPolyline
 90
        4
 70
     0
 43
0.0
 10
763.0533516497889
 20
389.9668282055515
 10
759.6476192585578
 20
421.708031879981
 10
773.302661294163
 20
395.0722039845352
 10
767.6583366156501
 20
422.7734778855753
  0
LWPOLYLINE
  5
1B9
330
1F
100
AcDbEntity
  8
0
 62
     0
100
AcDbPolyline
 90
        5
 70
     0
 43
0.0
 10
763.0533516497889
 20
389.9668282055515
 10
758.9434325941165
 20
369.063352292698
 10
777.9610452227825
 20
374.6351929048731
 10
763.0533516497889
 20
389.9668282055515
 10
773.302661294163
 20
395.0722039845352
  0
LWPOLYLINE
  5
1BA
330
1F
100
AcDbEntity
  8
0
 62
     0
100
AcDbPolyline
 90
        2
 70
     0
 43
0.0
 10
783.2034464438347
 20
380.0913203087587
 10
777.9610452227825
 20
374.6351929048731
  0
LWPOLYLINE
  5
1BB
330
1F
100
AcDbEntity
  8
0
 62
     0
100
AcDbPolyline
 90
        3
 70
     0
 43
0.0
 10
758.9434768826103
 20
369.0633652684821
 10
758.6339381584075
 20
354.0451996779523
 10
757.6865778713799
 20
346.0703821366239
  0
LWPOLYLINE
  5
1BC
330
1F
100
AcDbEntity
  8
0
 62
     0
100
AcDbPolyline
 90
        6
 70
     0
 43
0.0
 10
753.5206598681598
 20
351.2088779094822
 10
758.6339381584075
 20
354.0451996779523
 10
765.6456071539706
 20
346.5979693450079
 10
768.9701066785019
 20
354.4733035001925
 10
774.9025928603241
 20
345.9287454683156
 10
790.0911258464075
 20
362.0991752232119
  0
LWPOLYLINE
  5
1BD
330
1F
100
AcDbEntity
  8
0
 62
     0
100
AcDbPolyline
 90
        2
 70
     0
 43
0.0
 10
774.9025928603241
 20
345.9287454683156
 10
777.9610452227825
 20
374.6351929048731
  0
LWPOLYLINE
  5
1BE
330
1F
100
AcDbEntity
  8
0
 62
     0
100
AcDbPolyline
 90
        2
 70
     0
 43
0.0
 10
768.9701066785019
 20
354.4733035001925
 10
777.9610452227825
 20
374.6351929048731
  0
LWPOLYLINE
  5
1BF
330
1F
100
AcDbEntity
  8
0
 62
     0
100
AcDbPolyline
 90
        2
 70
     0
 43
0.0
 10
765.6456071539706
 20
346.5979693450079
 10
758.9434823434912
 20
369.063183445249
  0
LWPOLYLINE
  5
1C0
330
1F
100
AcDbEntity
  8
0
 62
     0
100
AcDbPolyline
 90
        2
 70
     0
 43
0.0
 10
790.0911258464075
 20
362.0991752232119
 10
777.9610452227825
 20
374.6351929048731
  0
LWPOLYLINE
  5
1C1
330
1F
100
AcDbEntity
  8
0
 62
     0
100
AcDbPolyline
 90
        3
 70
     0
 43
0.0
 10
785.4681173256267
 20
400.2566360264188
 10
773.9018268800555
 20
406.4290620697668
 10
773.6793992919301
 20
400.5956700245676
  0
LWPOLYLINE
  5
1C2
330
1F
100
AcDbEntity
  8
0
 62
     0
100
AcDbPolyline
 90
        3
 70
     0
 43
0.0
 10
773.9018268800555
 20
406.4290620697668
 10
767.6583366156501
 20
422.7734778855753
 10
772.7271297921015
 20
417.5313451393019
  0
LWPOLYLINE
  5
1C3
330
1F
100
AcDbEntity
  8
0
 62
     0
100
AcDbPolyline
 90
        4
 70
     0
 43
0.0
 10
767.6583366156501
 20
422.7734778855753
 10
770.5498468018322
 20
436.9049078965838
 10
769.1319639764242
 20
465.2867658534916
 10
766.5772127312047
 20
475.550769750381
  0
LWPOLYLINE
  5
1C4
330
1F
100
AcDbEntity
  8
0
 62
     0
100
AcDbPolyline
 90
        3
 70
     0
 43
0.0
 10
766.5772127312047
 20
475.550769750381
 10
771.9023167559972
 20
470.4416674643482
 10
769.1319639764242
 20
465.2867658534916
  0
LWPOLYLINE
  5
1C5
330
1F
100
AcDbEntity
  8
0
 62
     0
100
AcDbPolyline
 90
        2
 70
     0
 43
0.0
 10
766.5772127312047
 20
475.550769750381
 10
770.5498468018322
 20
436.9049078965838
  0
LWPOLYLINE
  5
1C6
330
1F
100
AcDbEntity
  8
0
 62
     0
100
AcDbPolyline
 90
        2
 70
     0
 43
0.0
 10
770.5498468018322
 20
436.9049078965838
 10
774.0059029990788
 20
436.0912833224268
  0
LWPOLYLINE
  5
1C7
330
1F
100
AcDbEntity
  8
0
 62
     0
100
AcDbPolyline
 90
        8
 70
     0
 43
0.0
 10
733.7629440365471
 20
418.1512973432757
 10
732.093292764388
 20
425.6038236257166
 10
745.2602181113779
 20
444.7879438091479
 10
725.1438019709257
 20
449.3157574173153
 10
732.093292764388
 20
425.6038236257166
 10
723.8495257741433
 20
429.2436345500239
 10
725.1438019709257
 20
449.3157574173153
 10
725.1438019709257
 20
449.3157574173153
  0
LWPOLYLINE
  5
1C8
330
1F
100
AcDbEntity
  8
0
 62
     0
100
AcDbPolyline
 90
        9
 70
     0
 43
0.0
 10
714.9992973566604
 20
422.2602667235889
 10
723.8495257741433
 20
429.2436345500239
 10
689.062734164865
 20
430.7810150330699
 10
684.0276903120575
 20
421.3177250442679
 10
670.6396578972999
 20
440.8822789280545
 10
681.3539603169101
 20
457.5040179709687
 10
689.062734164865
 20
430.7810150330699
 10
695.8786753902041
 20
452.3843725287945
 10
725.1438019709257
 20
449.3157574173153
  0
LWPOLYLINE
  5
1C9
330
1F
100
AcDbEntity
  8
0
 62
     0
100
AcDbPolyline
 90
       14
 70
     0
 43
0.0
 10
727.1493049152176
 20
491.0991219582403
 10
697.298081323448
 20
489.9722170196699
 10
696.7391202654708
 20
487.1361660448185
 10
691.5794797302915
 20
485.0735836583265
 10
695.8786753902041
 20
452.3843725287945
 10
681.3539603169101
 20
457.5040179709687
 10
681.3539603169101
 20
481.0114538371824
 10
659.8180123832189
 20
472.7289427906533
 10
654.8581177153864
 20
468.4012294194942
 10
670.6396578972999
 20
440.8822789280545
 10
676.2835114421468
 20
380.4360011275646
 10
665.4630383778457
 20
380.4360011275646
 10
654.8720625988535
 20
422.0107044846328
 10
645.9571710857071
 20
414.3315688172513
  0
LWPOLYLINE
  5
1CA
330
1F
100
AcDbEntity
  8
0
 62
     0
100
AcDbPolyline
 90
        3
 70
     0
 43
0.0
 10
670.6396578972999
 20
440.8822789280545
 10
654.8720625988535
 20
422.0107044846328
 10
645.4452163796868
 20
460.7851379883061
  0
LWPOLYLINE
  5
1CB
330
1F
100
AcDbEntity
  8
0
 62
     0
100
AcDbPolyline
 90
       16
 70
     0
 43
0.0
 10
665.4630383778457
 20
380.4360011275646
 10
653.7381872239166
 20
383.7248960165582
 10
668.4396070360945
 20
349.7280577028407
 10
654.737457018271
 20
356.8568432502045
 10
649.946473192389
 20
349.13302199347
 10
654.2783493755723
 20
346.309629072927
 10
654.737457018271
 20
356.8568432502045
 10
661.6237041744989
 20
346.7613720175834
 10
668.4466204696327
 20
349.7118392308141
 10
667.7232873336579
 20
336.7808917479845
 10
661.6237041744989
 20
346.7613720175834
 10
657.5040064030617
 20
336.7808917479845
 10
654.2783493755723
 20
346.309629072927
 10
647.2431835979859
 20
339.6870225641053
 10
649.946473192389
 20
349.13302199347
 10
644.3399771820223
 20
346.7143699822425
  0
LWPOLYLINE
  5
1CC
330
1F
100
AcDbEntity
  8
0
 62
     0
100
AcDbPolyline
 90
        2
 70
     0
 43
0.0
 10
654.2771387579887
 20
346.281817201045
 10
661.6237041744989
 20
346.7613720175834
  0
LWPOLYLINE
  5
1CD
330
1F
100
AcDbEntity
  8
0
 62
     0
100
AcDbPolyline
 90
        3
 70
     0
 43
0.0
 10
680.4210779674394
 20
341.2708178471869
 10
668.4466204696327
 20
349.7118392308141
 10
683.3154842795702
 20
356.0261374013933
  0
LWPOLYLINE
  5
1CE
330
1F
100
AcDbEntity
  8
0
 62
     0
100
AcDbPolyline
 90
        2
 70
     0
 43
0.0
 10
668.4887046051808
 20
349.6145202255704
 10
665.4630383778457
 20
380.4360011275646
  0
LWPOLYLINE
  5
1CF
330
1F
100
AcDbEntity
  8
0
 62
     0
100
AcDbPolyline
 90
        5
 70
     0
 43
0.0
 10
684.0276903120575
 20
421.3177250442679
 10
686.8599662085016
 20
420.2124541947871
 10
714.9992973566604
 20
422.2602667235889
 10
723.8648524253476
 20
418.7765497520742
 10
733.7629440365471
 20
418.1512973432757
  0
LWPOLYLINE
  5
1D0
330
1F
100
AcDbEntity
  8
0
 62
     0
100
AcDbPolyline
 90
       10
 70
     0
 43
0.0
 10
723.8648524253476
 20
418.7765497520742
 10
717.2701993177106
 20
404.6681573147996
 10
717.2701993177106
 20
373.4312986324133
 10
714.0747311894447
 20
362.3036928778463
 10
715.6020940370254
 20
353.8330224323738
 10
709.3712792873794
 20
348.2788766358246
 10
690.6316678279927
 20
351.8091039588378
 10
684.8070571216849
 20
359.365365087245
 10
693.569162006077
 20
374.7040619118168
 10
691.7933798191261
 20
420.571478584827
  0
LWPOLYLINE
  5
1D1
330
1F
100
AcDbEntity
  8
0
 62
     0
100
AcDbPolyline
 90
        9
 70
     0
 43
0.0
 10
691.7933798191261
 20
420.571478584827
 10
723.8648524253476
 20
418.7765497520742
 10
706.5104749013589
 20
418.1778904372301
 10
691.7933798191261
 20
420.571478584827
 10
699.6420392898999
 20
375.49633170116
 10
706.5818786767286
 20
418.166277328158
 10
708.2599119868155
 20
374.8693040467631
 10
717.2701993177106
 20
404.6681573147996
 10
706.5818786767286
 20
418.166277328158
  0
LWPOLYLINE
  5
1D2
330
1F
100
AcDbEntity
  8
0
 62
     0
100
AcDbPolyline
 90
        5
 70
     0
 43
0.0
 10
691.7933798191261
 20
420.571478584827
 10
694.7071584544938
 20
374.6144419898303
 10
699.6420392898999
 20
375.49633170116
 10
708.2599119868155
 20
374.8693040467631
 10
717.2701993177106
 20
373.4312986324133
  0
LWPOLYLINE
  5
1D3
330
1F
100
AcDbEntity
  8
0
 62
     0
100
AcDbPolyline
 90
        2
 70
     0
 43
0.0
 10
684.8070571216849
 20
359.365365087245
 10
694.7071584544938
 20
374.6144419898303
  0
LWPOLYLINE
  5
1D4
330
1F
100
AcDbEntity
  8
0
 62
     0
100
AcDbPolyline
 90
       13
 70
     0
 43
0.0
 10
684.8070571216849
 20
359.365365087245
 10
690.6771537643053
 20
362.4181909964816
 10
692.2588235165221
 20
360.0356965098397
 10
697.8065247375598
 20
362.9324938436009
 10
700.2214603368993
 20
357.2540286306946
 10
704.6098399031161
 20
361.6424081969124
 10
708.214298844412
 20
350.251286681347
 10
715.6020940370254
 20
353.8330224323738
 10
704.6098399031161
 20
361.6424081969124
 10
708.2599119868155
 20
374.8693040467631
 10
697.8065247375598
 20
362.9324938436009
 10
699.6420392898999
 20
375.49633170116
 10
692.2588235165221
 20
360.0356965098397
  0
LWPOLYLINE
  5
1D5
330
1F
100
AcDbEntity
  8
0
 62
     0
100
AcDbPolyline
 90
        3
 70
     0
 43
0.0
 10
684.8070571216849
 20
359.365365087245
 10
699.6420392898999
 20
375.49633170116
 10
690.6771537643053
 20
362.4181909964816
  0
LWPOLYLINE
  5
1D6
330
1F
100
AcDbEntity
  8
0
 62
     0
100
AcDbPolyline
 90
        2
 70
     0
 43
0.0
 10
697.8065247375598
 20
362.9324938436009
 10
704.6098399031161
 20
361.6424081969124
  0
LWPOLYLINE
  5
1D7
330
1F
100
AcDbEntity
  8
0
 62
     0
100
AcDbPolyline
 90
        4
 70
     0
 43
0.0
 10
684.8070571216849
 20
359.365365087245
 10
691.3742330408695
 20
353.2411329580107
 10
700.7477523134239
 20
351.4661937434537
 10
708.214298844412
 20
350.251286681347
  0
LWPOLYLINE
  5
1D8
330
1F
100
AcDbEntity
  8
0
 62
     0
100
AcDbPolyline
 90
        2
 70
     0
 43
0.0
 10
700.2214603368993
 20
357.2540286306946
 10
700.7477523134239
 20
351.4661937434537
  0
LWPOLYLINE
  5
1D9
330
1F
100
AcDbEntity
  8
0
 62
     0
100
AcDbPolyline
 90
        2
 70
     0
 43
0.0
 10
692.2588235165221
 20
360.0356965098397
 10
691.3742330408695
 20
353.2411329580107
  0
LWPOLYLINE
  5
1DA
330
1F
100
AcDbEntity
  8
0
 62
     0
100
AcDbPolyline
 90
        3
 70
     0
 43
0.0
 10
715.6020940370254
 20
353.8330224323738
 10
712.870512192927
 20
362.5203974058911
 10
717.2701993177106
 20
373.4312986324133
  0
LWPOLYLINE
  5
1DB
330
1F
100
AcDbEntity
  8
0
 62
     0
100
AcDbPolyline
 90
        2
 70
     0
 43
0.0
 10
712.870512192927
 20
362.5203974058911
 10
708.2599119868155
 20
374.8693040467631
  0
LWPOLYLINE
  5
1DC
330
1F
100
AcDbEntity
  8
0
 62
     0
100
AcDbPolyline
 90
       12
 70
     0
 43
0.0
 10
733.7629440365471
 20
418.1512973432757
 10
733.7629440365471
 20
413.0447780415226
 10
752.1082145983073
 20
388.5655683247894
 10
758.0075524884342
 20
368.2937343896053
 10
751.3257282107606
 20
351.5981108550711
 10
757.6555241053538
 20
344.7750408589434
 10
779.9022303450783
 20
344.7750408589434
 10
784.3672711128728
 20
346.9617047502563
 10
790.0911258464075
 20
362.0991752232119
 10
784.0903353787289
 20
380.4625156913692
 10
775.2634893250943
 20
394.7684184181083
 10
775.4296287701036
 20
400.5453348400322
  0
LWPOLYLINE
  5
1DD
330
1F
100
AcDbEntity
  8
0
 62
     0
100
AcDbPolyline
 90
        2
 70
     0
 43
0.0
 10
751.3257282107606
 20
351.5981108550711
 10
753.5206598681598
 20
351.2088779094822
  0
LWPOLYLINE
  5
1DE
330
1F
100
AcDbEntity
  8
0
 62
     0
100
AcDbPolyline
 90
        2
 70
     0
 43
0.0
 10
758.0075524884342
 20
368.2937343896053
 10
758.9434325941165
 20
369.063352292698
  0
LWPOLYLINE
  5
1DF
330
1F
100
AcDbEntity
  8
0
 62
     0
100
AcDbPolyline
 90
        2
 70
     0
 43
0.0
 10
752.1082145983073
 20
388.5655683247894
 10
752.9646150246353
 20
389.4219687511188
  0
LWPOLYLINE
  5
1E0
330
1F
100
AcDbEntity
  8
0
 62
     0
100
AcDbPolyline
 90
        2
 70
     0
 43
0.0
 10
733.7629440365471
 20
413.0447780415226
 10
734.8423489561591
 20
413.3698661682794
  0
LWPOLYLINE
  5
1E1
330
1F
100
AcDbEntity
  8
0
 62
     0
100
AcDbPolyline
 90
       52
 70
     0
 43
0.0
 10
686.8599662085016
 20
420.2124541947871
 10
678.2125238166099
 20
381.2855615623882
 10
684.3318743983018
 20
356.6028218140352
 10
681.8987752500415
 20
340.5323276706265
 10
667.9725991548657
 20
334.6666632155814
 10
657.5846106428435
 20
335.6567852680448
 10
645.9832665064205
 20
338.9230286576364
 10
643.0341312884975
 20
346.4108567568267
 10
652.8485630215673
 20
356.8664200599731
 10
651.9647142449157
 20
383.6864854890598
 10
644.4761004860557
 20
412.1041025170859
 10
636.9688560828999
 20
422.9780524068699
 10
631.5129747750852
 20
415.9227861665879
 10
631.9034315121607
 20
408.1766445523633
 10
605.8955730087764
 20
377.6923023823185
 10
602.4082981487208
 20
345.0488333241026
 10
588.4278265907251
 20
339.9818932177388
 10
572.4251860715266
 20
344.1046115637976
 10
562.9175545626422
 20
352.5906305916094
 10
574.3418722431906
 20
371.058219639913
 10
574.9335468037952
 20
384.0123190719662
 10
595.4714121999695
 20
415.8468595042311
 10
596.0953802811891
 20
445.2367625695649
 10
604.7251430457399
 20
470.3446018783763
 10
596.5999482843744
 20
465.1651040830836
 10
588.7989177149811
 20
466.2000683983507
 10
584.6178177658966
 20
469.3919255544304
 10
584.9595875499235
 20
473.7316389514028
 10
592.2119277752572
 20
478.2849071597795
 10
593.6877203317508
 20
487.3049640868337
 10
583.0059927668608
 20
486.4419258667319
 10
574.2373586429075
 20
447.4155111633865
 10
564.0052494156316
 20
454.4912227087695
 10
562.5511337191128
 20
460.5253575455511
 10
557.7920496807128
 20
455.4712720122932
 10
551.0759847542885
 20
455.4712720122932
 10
548.8614842235456
 20
460.883627175019
 10
553.8694506784686
 20
466.4570178872402
 10
545.9233035364049
 20
473.9411384349352
 10
536.8344311100117
 20
474.1774828504879
 10
533.5054315859215
 20
505.4054068908306
 10
551.5843931699
 20
542.2403604004741
 10
546.4959799684493
 20
555.139042305196
 10
535.0285374043051
 20
570.3327214096991
 10
534.7220965877986
 20
576.5896617547666
 10
539.3633177900119
 20
580.1683189691909
 10
546.5684807091729
 20
578.0733446368115
 10
562.6060679045749
 20
557.7626340222561
 10
567.4528319373712
 20
543.2410731913867
 10
569.9261551319432
 20
524.1933494328834
 10
574.9446958454773
 20
510.0438609691034
 10
589.699952774723
 20
504.2079872938073
  0
LWPOLYLINE
  5
1E2
330
1F
100
AcDbEntity
  8
0
 62
     0
100
AcDbPolyline
 90
        5
 70
     0
 43
0.0
 10
565.7778746203384
 20
548.2594719423484
 10
573.9885852601746
 20
549.5793750267501
 10
578.0913875052974
 20
548.0022269533253
 10
576.2998795295589
 20
546.6778674314062
 10
568.3468265863921
 20
536.356181175059
  0
LWPOLYLINE
  5
1E3
330
1F
100
AcDbEntity
  8
0
 62
     0
100
AcDbPolyline
 90
       10
 70
     0
 43
0.0
 10
578.0913875052974
 20
548.0022269533253
 10
586.3266862044183
 20
553.4757973347702
 10
600.2167007715816
 20
555.9528367056371
 10
618.2473186570368
 20
548.7889106571513
 10
634.3574664944444
 20
557.9164494401659
 10
665.2965471437928
 20
559.7246459796472
 10
672.4695578824375
 20
548.9821230650302
 10
687.7588629944475
 20
537.8325145552028
 10
700.9738109960198
 20
511.1041816251811
 10
697.298081323448
 20
489.9722170196699
  0
LWPOLYLINE
  5
1E4
330
1F
100
AcDbEntity
  8
0
 62
     0
100
AcDbPolyline
 90
        5
 70
     0
 43
0.0
 10
602.3218875230305
 20
505.6242947891425
 10
596.2767694348112
 20
489.3255897099595
 10
604.0821552984216
 20
492.1249717471321
 10
609.2981669767432
 20
488.030768742876
 10
604.7251430457399
 20
470.3446018783763
  0
LWPOLYLINE
  5
1E5
330
1F
100
AcDbEntity
  8
0
 62
     0
100
AcDbPolyline
 90
        2
 70
     0
 43
0.0
 10
609.2981669767432
 20
488.030768742876
 10
622.5705098276084
 20
504.2863959731091
  0
LWPOLYLINE
  5
1E6
330
1F
100
AcDbEntity
  8
0
 62
     0
100
AcDbPolyline
 90
        3
 70
     0
 43
0.0
 10
593.6877203317508
 20
487.3049640868337
 10
595.4672574740834
 20
487.4841234664175
 10
596.2767694348112
 20
489.3255897099595
  0
LWPOLYLINE
  5
1E7
330
1F
100
AcDbEntity
  8
0
 62
     0
100
AcDbPolyline
 90
        5
 70
     0
 43
0.0
 10
634.0306996254894
 20
510.2844997846093
 10
623.1767801091864
 20
484.019040577539
 10
622.3023890043569
 20
461.215929630641
 10
637.6844589891152
 20
454.4537885856928
 10
654.8581177153864
 20
468.4012294194942
  0
LWPOLYLINE
  5
1E8
330
1F
100
AcDbEntity
  8
0
 62
     0
100
AcDbPolyline
 90
        2
 70
     0
 43
0.0
 10
584.7058379027839
 20
470.509584824221
 10
580.8691200867324
 20
476.9313820118907
  0
LWPOLYLINE
  5
1E9
330
1F
100
AcDbEntity
  8
0
 62
     0
100
AcDbPolyline
 90
        2
 70
     0
 43
0.0
 10
584.9595875499235
 20
473.7316389514028
 10
583.0059927668608
 20
486.4419258667319
  0
LWPOLYLINE
  5
1EA
330
1F
100
AcDbEntity
  8
0
 62
     0
100
AcDbPolyline
 90
        2
 70
     0
 43
0.0
 10
588.5857576625894
 20
476.0082730555912
 10
592.1734098809301
 20
487.1826142339452
  0
LWPOLYLINE
  5
1EB
330
1F
100
AcDbEntity
  8
0
 62
     0
100
AcDbPolyline
 90
        5
 70
     0
 43
0.0
 10
562.5511337191128
 20
460.5253575455511
 10
564.9923639614025
 20
455.3328790646953
 10
573.6514352782688
 20
449.25477082578
 10
570.688112879563
 20
453.0597279467226
 10
564.9923639614025
 20
455.3328790646953
  0
LWPOLYLINE
  5
1EC
330
1F
100
AcDbEntity
  8
0
 62
     0
100
AcDbPolyline
 90
        6
 70
     0
 43
0.0
 10
562.5511337191128
 20
460.5253575455511
 10
566.5277017558509
 20
464.947202647242
 10
578.0475175574593
 20
485.9825372576599
 10
579.4915295402806
 20
470.8001625771105
 10
570.688112879563
 20
453.0597279467226
 10
572.287609656656
 20
475.4648699524507
  0
LWPOLYLINE
  5
1ED
330
1F
100
AcDbEntity
  8
0
 62
     0
100
AcDbPolyline
 90
       23
 70
     0
 43
0.0
 10
623.1767801091864
 20
484.019040577539
 10
625.0868825243924
 20
463.3965598532693
 10
638.0265363561211
 20
457.423485109148
 10
659.7763076311003
 20
473.8524295400532
 10
694.0030074616024
 20
489.7993771894632
 10
699.3733598367307
 20
511.6539862894804
 10
685.4857850689095
 20
537.3857623369487
 10
672.4695578824375
 20
548.9821230650302
 10
663.5388012796101
 20
558.5039942243322
 10
634.8561702295828
 20
556.6877601433836
 10
618.8824196267851
 20
547.9465784777215
 10
627.315711576015
 20
548.539038166077
 10
633.6963528888973
 20
553.7701055113719
 10
653.9363911380787
 20
555.3776099363624
 10
662.5403963520584
 20
557.8343800179798
 10
671.7069001647996
 20
548.1869348941675
 10
681.9005224828925
 20
536.7449555426608
 10
694.9128237798304
 20
511.5979714687944
 10
689.9213382535945
 20
495.2739963159108
 10
659.7763076311003
 20
473.8524295400532
 10
637.5554962437563
 20
466.5111615240173
 10
638.0265363561211
 20
457.423485109148
 10
637.6844589891152
 20
454.4537885856928
  0
LWPOLYLINE
  5
1EE
330
1F
100
AcDbEntity
  8
0
 62
     0
100
AcDbPolyline
 90
        2
 70
     0
 43
0.0
 10
659.7763076311003
 20
473.8524295400532
 10
659.7763076311003
 20
472.6925536684091
  0
LWPOLYLINE
  5
1EF
330
1F
100
AcDbEntity
  8
0
 62
     0
100
AcDbPolyline
 90
        2
 70
     0
 43
0.0
 10
694.0030074616024
 20
489.7993771894632
 10
696.7391202654708
 20
487.1361660448185
  0
LWPOLYLINE
  5
1F0
330
1F
100
AcDbEntity
  8
0
 62
     0
100
AcDbPolyline
 90
        2
 70
     0
 43
0.0
 10
699.3733598367307
 20
511.6539862894804
 10
700.9738109960198
 20
511.1041816251811
  0
LWPOLYLINE
  5
1F1
330
1F
100
AcDbEntity
  8
0
 62
     0
100
AcDbPolyline
 90
        2
 70
     0
 43
0.0
 10
685.4857850689095
 20
537.3857623369487
 10
687.43307236512
 20
537.3857623369487
  0
LWPOLYLINE
  5
1F2
330
1F
100
AcDbEntity
  8
0
 62
     0
100
AcDbPolyline
 90
        2
 70
     0
 43
0.0
 10
681.9005224828925
 20
536.7449555426608
 10
685.4857850689095
 20
537.3857623369487
  0
LWPOLYLINE
  5
1F3
330
1F
100
AcDbEntity
  8
0
 62
     0
100
AcDbPolyline
 90
        2
 70
     0
 43
0.0
 10
671.7069001647996
 20
548.1869348941675
 10
672.5094139925094
 20
548.9396289335821
  0
LWPOLYLINE
  5
1F4
330
1F
100
AcDbEntity
  8
0
 62
     0
100
AcDbPolyline
 90
        3
 70
     0
 43
0.0
 10
662.5403963520584
 20
557.8343800179798
 10
663.5388012796101
 20
558.5039942243322
 10
665.2965471437928
 20
559.7246459796472
  0
LWPOLYLINE
  5
1F5
330
1F
100
AcDbEntity
  8
0
 62
     0
100
AcDbPolyline
 90
        3
 70
     0
 43
0.0
 10
633.6963528888973
 20
553.7701055113719
 10
634.8561702295828
 20
556.6877601433836
 10
634.3574664944444
 20
557.9164494401659
  0
LWPOLYLINE
  5
1F6
330
1F
100
AcDbEntity
  8
0
 62
     0
100
AcDbPolyline
 90
        3
 70
     0
 43
0.0
 10
627.315711576015
 20
548.539038166077
 10
628.6505873799451
 20
532.2577261610583
 10
662.5403963520584
 20
557.8343800179798
  0
LWPOLYLINE
  5
1F7
330
1F
100
AcDbEntity
  8
0
 62
     0
100
AcDbPolyline
 90
       14
 70
     0
 43
0.0
 10
569.9261551319432
 20
524.1933494328834
 10
572.8287901300773
 20
529.2119671915882
 10
578.9954573388968
 20
544.4967068401326
 10
577.0640913152474
 20
546.4094096005466
 10
586.7228026029188
 20
552.0406596248488
 10
599.1059641170795
 20
554.782072098252
 10
618.8824196267851
 20
547.9465784777215
 10
612.4057289664542
 20
546.0277194177977
 10
623.4402427665791
 20
540.1388982398259
 10
628.6505873799451
 20
532.2577261610583
 10
631.0468243571267
 20
529.1327879110151
 10
671.7069001647996
 20
548.1869348941675
 10
648.446077362807
 20
529.7464971615215
 10
681.9005224828925
 20
536.7449555426608
  0
LWPOLYLINE
  5
1F8
330
1F
100
AcDbEntity
  8
0
 62
     0
100
AcDbPolyline
 90
        5
 70
     0
 43
0.0
 10
648.446077362807
 20
529.7464971615215
 10
694.9128237798304
 20
511.5979714687944
 10
642.5766167506371
 20
518.0103272352141
 10
689.9213382535945
 20
495.2739963159108
 10
694.0030074616024
 20
489.7993771894632
  0
LWPOLYLINE
  5
1F9
330
1F
100
AcDbEntity
  8
0
 62
     0
100
AcDbPolyline
 90
        2
 70
     0
 43
0.0
 10
694.9128237798304
 20
511.5979714687944
 10
699.3733598367307
 20
511.6539862894804
  0
LWPOLYLINE
  5
1FA
330
1F
100
AcDbEntity
  8
0
 62
     0
100
AcDbPolyline
 90
        6
 70
     0
 43
0.0
 10
642.5766167506371
 20
518.0103272352141
 10
655.4821275255871
 20
491.5688216146374
 10
668.7548776753774
 20
480.232752723791
 10
654.9901636940667
 20
475.630841489353
 10
634.0306996254894
 20
510.2844997846093
 10
655.4821275255871
 20
491.5688216146374
  0
LWPOLYLINE
  5
1FB
330
1F
100
AcDbEntity
  8
0
 62
     0
100
AcDbPolyline
 90
        4
 70
     0
 43
0.0
 10
659.7763076311003
 20
473.8524295400532
 10
654.9901636940667
 20
475.630841489353
 10
637.5554962437563
 20
466.5111615240173
 10
623.1767801091864
 20
484.019040577539
  0
LWPOLYLINE
  5
1FC
330
1F
100
AcDbEntity
  8
0
 62
     0
100
AcDbPolyline
 90
        5
 70
     0
 43
0.0
 10
634.0306996254894
 20
510.2844997846093
 10
631.0468243571267
 20
529.1327879110151
 10
648.446077362807
 20
529.7464971615215
 10
642.5766167506371
 20
518.0103272352141
 10
632.6544065585367
 20
518.978150134985
  0
LWPOLYLINE
  5
1FD
330
1F
100
AcDbEntity
  8
0
 62
     0
100
AcDbPolyline
 90
       13
 70
     0
 43
0.0
 10
631.0468243571267
 20
529.1327879110151
 10
622.5705098276084
 20
504.2863959731091
 10
634.0306996254894
 20
510.2844997846093
 10
620.3381028523162
 20
486.498858677787
 10
622.5705098276084
 20
504.2863959731091
 10
607.2964124615428
 20
480.2889845511097
 10
620.3381028523162
 20
486.498858677787
 10
606.8426384709909
 20
478.5340139590569
 10
623.1767801091864
 20
484.019040577539
 10
604.7251430457399
 20
470.3446018783763
 10
622.8814598013505
 20
476.3174277554601
 10
610.0959005958193
 20
461.8659515317924
 10
604.7251430457399
 20
470.3446018783763
  0
LWPOLYLINE
  5
1FE
330
1F
100
AcDbEntity
  8
0
 62
     0
100
AcDbPolyline
 90
        8
 70
     0
 43
0.0
 10
604.7251430457399
 20
470.3446018783763
 10
598.0106247838357
 20
444.7838996998682
 10
597.1731618087979
 20
415.6093073491363
 10
576.6260817111615
 20
382.860709244663
 10
575.8460209889472
 20
371.0819446425915
 10
565.2489292219233
 20
352.9663137981868
 10
572.0810666766046
 20
357.3355034674626
 10
575.8460209889472
 20
371.0819446425915
  0
LWPOLYLINE
  5
1FF
330
1F
100
AcDbEntity
  8
0
 62
     0
100
AcDbPolyline
 90
        3
 70
     0
 43
0.0
 10
572.0810666766046
 20
357.3355034674626
 10
578.8033700858159
 20
372.3116656630634
 10
576.6260817111615
 20
382.860709244663
  0
LWPOLYLINE
  5
200
330
1F
100
AcDbEntity
  8
0
 62
     0
100
AcDbPolyline
 90
        4
 70
     0
 43
0.0
 10
572.0810666766046
 20
357.3355034674626
 10
573.8339544796417
 20
345.8148009292079
 10
581.7458428006538
 20
356.811649729392
 10
588.4085605890249
 20
342.4166021300441
  0
LWPOLYLINE
  5
201
330
1F
100
AcDbEntity
  8
0
 62
     0
100
AcDbPolyline
 90
        3
 70
     0
 43
0.0
 10
581.7458428006538
 20
356.811649729392
 10
597.4037413554433
 20
354.9367458897448
 10
601.6052837942971
 20
345.7730785957458
  0
LWPOLYLINE
  5
202
330
1F
100
AcDbEntity
  8
0
 62
     0
100
AcDbPolyline
 90
        2
 70
     0
 43
0.0
 10
588.4085605890249
 20
342.4166021300441
 10
588.4085605890249
 20
339.9868566672751
  0
LWPOLYLINE
  5
203
330
1F
100
AcDbEntity
  8
0
 62
     0
100
AcDbPolyline
 90
        2
 70
     0
 43
0.0
 10
573.8339544796417
 20
345.8148009292079
 10
572.3596983716507
 20
344.1630624899524
  0
LWPOLYLINE
  5
204
330
1F
100
AcDbEntity
  8
0
 62
     0
100
AcDbPolyline
 90
        2
 70
     0
 43
0.0
 10
565.2489292219233
 20
352.9663137981868
 10
562.9175545626422
 20
352.5906305916094
  0
LWPOLYLINE
  5
205
330
1F
100
AcDbEntity
  8
0
 62
     0
100
AcDbPolyline
 90
        6
 70
     0
 43
0.0
 10
581.7458428006538
 20
356.811649729392
 10
578.8033700858159
 20
372.3116656630634
 10
589.5257331484117
 20
383.0340287256584
 10
581.7458428006538
 20
356.811649729392
 10
604.7498964085535
 20
378.3329540505476
 10
597.4037413554433
 20
354.9367458897448
  0
LWPOLYLINE
  5
206
330
1F
100
AcDbEntity
  8
0
 62
     0
100
AcDbPolyline
 90
        9
 70
     0
 43
0.0
 10
604.7498964085535
 20
378.3329540505476
 10
607.6938363682383
 20
412.3157401096661
 10
589.5257331484117
 20
383.0340287256584
 10
597.1731618087979
 20
415.6093073491363
 10
607.6938363682383
 20
412.3157401096661
 10
620.8997857167869
 20
398.7385929157237
 10
619.9437404171495
 20
414.2284776864028
 10
629.816653972186
 20
415.6436103242787
 10
620.8997857167869
 20
398.7385929157237
  0
LWPOLYLINE
  5
207
330
1F
100
AcDbEntity
  8
0
 62
     0
100
AcDbPolyline
 90
        5
 70
     0
 43
0.0
 10
619.9437404171495
 20
414.2284776864028
 10
607.6938363682383
 20
412.3157401096661
 10
605.6255191913969
 20
437.7841302907638
 10
610.0959005958193
 20
461.8659515317924
 10
619.9437404171495
 20
414.2284776864028
  0
LWPOLYLINE
  5
208
330
1F
100
AcDbEntity
  8
0
 62
     0
100
AcDbPolyline
 90
        3
 70
     0
 43
0.0
 10
631.5129747750852
 20
415.9227861665879
 10
629.816653972186
 20
415.6436103242787
 10
610.0959005958193
 20
461.8659515317924
  0
LWPOLYLINE
  5
209
330
1F
100
AcDbEntity
  8
0
 62
     0
100
AcDbPolyline
 90
        2
 70
     0
 43
0.0
 10
636.9688560828999
 20
422.9780524068699
 10
610.0959005958193
 20
461.8659515317924
  0
LWPOLYLINE
  5
20A
330
1F
100
AcDbEntity
  8
0
 62
     0
100
AcDbPolyline
 90
        3
 70
     0
 43
0.0
 10
596.0953802811891
 20
445.2367625695649
 10
598.0106247838357
 20
444.7838996998682
 10
605.6255191913969
 20
437.7841302907638
  0
LWPOLYLINE
  5
20B
330
1F
100
AcDbEntity
  8
0
 62
     0
100
AcDbPolyline
 90
        2
 70
     0
 43
0.0
 10
630.3038196438446
 20
408.4712393833526
 10
631.9034315121607
 20
408.1766445523633
  0
LWPOLYLINE
  5
20C
330
1F
100
AcDbEntity
  8
0
 62
     0
100
AcDbPolyline
 90
        2
 70
     0
 43
0.0
 10
604.7498964085535
 20
378.3329540505476
 10
605.8955730087764
 20
377.6923023823185
  0
LWPOLYLINE
  5
20D
330
1F
100
AcDbEntity
  8
0
 62
     0
100
AcDbPolyline
 90
        3
 70
     0
 43
0.0
 10
637.8816711553845
 20
425.5806897200766
 10
630.2422337240659
 20
436.3695817934097
 10
634.8139550962205
 20
455.7156962621673
  0
LWPOLYLINE
  5
20E
330
1F
100
AcDbEntity
  8
0
 62
     0
100
AcDbPolyline
 90
        2
 70
     0
 43
0.0
 10
630.2422337240659
 20
436.3695817934097
 10
610.0959005958193
 20
461.8659515317924
  0
LWPOLYLINE
  5
20F
330
1F
100
AcDbEntity
  8
0
 62
     0
100
AcDbPolyline
 90
        2
 70
     0
 43
0.0
 10
622.3023890043569
 20
461.215929630641
 10
625.0868825243924
 20
463.3965598532693
  0
LWPOLYLINE
  5
210
330
1F
100
AcDbEntity
  8
0
 62
     0
100
AcDbPolyline
 90
        2
 70
     0
 43
0.0
 10
623.1767801091864
 20
484.019040577539
 10
620.3381028523162
 20
486.498858677787
  0
LWPOLYLINE
  5
211
330
1F
100
AcDbEntity
  8
0
 62
     0
100
AcDbPolyline
 90
        6
 70
     0
 43
0.0
 10
553.8694506784686
 20
466.4570178872402
 10
563.5275353583656
 20
487.7556710524725
 10
556.9954508207247
 20
496.8895158451835
 10
552.6939836234942
 20
519.8690766880806
 10
553.2564781839664
 20
538.2599518382915
 10
551.5843931699
 20
542.2403604004741
  0
LWPOLYLINE
  5
212
330
1F
100
AcDbEntity
  8
0
 62
     0
100
AcDbPolyline
 90
        3
 70
     0
 43
0.0
 10
551.5843931699
 20
542.2403604004741
 10
535.9118376467595
 20
506.4865419050281
 10
552.934709806399
 20
527.7396686658492
  0
LWPOLYLINE
  5
213
330
1F
100
AcDbEntity
  8
0
 62
     0
100
AcDbPolyline
 90
        3
 70
     0
 43
0.0
 10
533.5054315859215
 20
505.4054068908306
 10
535.9118376467595
 20
506.4865419050281
 10
553.8012824723755
 20
513.9535971313591
  0
LWPOLYLINE
  5
214
330
1F
100
AcDbEntity
  8
0
 62
     0
100
AcDbPolyline
 90
        4
 70
     0
 43
0.0
 10
535.9118376467595
 20
506.4865419050281
 10
537.6565714721327
 20
475.4017253291943
 10
546.0157951516266
 20
475.7896851579245
 10
554.4237146418654
 20
467.6793177851616
  0
LWPOLYLINE
  5
215
330
1F
100
AcDbEntity
  8
0
 62
     0
100
AcDbPolyline
 90
        5
 70
     0
 43
0.0
 10
536.8344311100117
 20
474.1774828504879
 10
537.6565714721327
 20
475.4017253291943
 10
556.9954508207247
 20
496.8895158451835
 10
546.0157951516266
 20
475.7896851579245
 10
548.4136945445443
 20
487.3541659524669
  0
LWPOLYLINE
  5
216
330
1F
100
AcDbEntity
  8
0
 62
     0
100
AcDbPolyline
 90
        3
 70
     0
 43
0.0
 10
535.9099046759602
 20
482.8500708298172
 10
537.1306451830496
 20
484.7718206358783
 10
554.8447172221094
 20
508.3792962666323
  0
LWPOLYLINE
  5
217
330
1F
100
AcDbEntity
  8
0
 62
     0
100
AcDbPolyline
 90
        4
 70
     0
 43
0.0
 10
548.8614842235456
 20
460.883627175019
 10
552.2132321001772
 20
462.5863445707779
 10
551.8239606007955
 20
457.4803088290593
 10
551.0759847542885
 20
455.4712720122932
  0
LWPOLYLINE
  5
218
330
1F
100
AcDbEntity
  8
0
 62
     0
100
AcDbPolyline
 90
        3
 70
     0
 43
0.0
 10
551.8239606007955
 20
457.4803088290593
 10
555.9599710388956
 20
457.4803088290593
 10
557.7920496807128
 20
455.4712720122932
  0
LWPOLYLINE
  5
219
330
1F
100
AcDbEntity
  8
0
 62
     0
100
AcDbPolyline
 90
        3
 70
     0
 43
0.0
 10
555.9599710388956
 20
457.4803088290593
 10
564.1833318839653
 20
467.2060910652887
 10
566.5277017558509
 20
464.947202647242
  0
LWPOLYLINE
  5
21A
330
1F
100
AcDbEntity
  8
0
 62
     0
100
AcDbPolyline
 90
        8
 70
     0
 43
0.0
 10
564.1833318839653
 20
467.2060910652887
 10
556.0816184245159
 20
462.5134008935608
 10
555.9599710388956
 20
457.4803088290593
 10
552.2132321001772
 20
462.5863445707779
 10
553.8694506784686
 20
466.4570178872402
 10
560.0229921033533
 20
469.1755618394979
 10
556.0816184245159
 20
462.5134008935608
 10
552.266757169249
 20
462.5134008935608
  0
LWPOLYLINE
  5
21B
330
1F
100
AcDbEntity
  8
0
 62
     0
100
AcDbPolyline
 90
        2
 70
     0
 43
0.0
 10
560.0229921033533
 20
469.1755618394979
 10
566.8581286603439
 20
483.1930875435935
  0
LWPOLYLINE
  5
21C
330
1F
100
AcDbEntity
  8
0
 62
     0
100
AcDbPolyline
 90
        2
 70
     0
 43
0.0
 10
564.1833318839653
 20
467.2060910652887
 10
571.7035028488244
 20
481.3833076351358
  0
LWPOLYLINE
  5
21D
330
1F
100
AcDbEntity
  8
0
 62
     0
100
AcDbPolyline
 90
        2
 70
     0
 43
0.0
 10
560.0229921033533
 20
469.1755618394979
 10
564.1833318839653
 20
467.2060910652887
  0
LWPOLYLINE
  5
21E
330
1F
100
AcDbEntity
  8
0
 62
     0
100
AcDbPolyline
 90
        4
 70
     0
 43
0.0
 10
563.5275353583656
 20
487.7556710524725
 10
566.8581286603439
 20
483.1930875435935
 10
571.7035028488244
 20
481.3833076351358
 10
578.0475175574593
 20
485.9825372576599
  0
LWPOLYLINE
  5
21F
330
1F
100
AcDbEntity
  8
0
 62
     0
100
AcDbPolyline
 90
        6
 70
     0
 43
0.0
 10
584.9595875499235
 20
473.7316389514028
 10
588.1725071422279
 20
473.3756424409441
 10
587.1706514970956
 20
468.6366279916194
 10
588.7989177149811
 20
466.2000683983507
 10
604.2270968785888
 20
471.7806177333207
 10
596.5999482843744
 20
465.1651040830836
  0
LWPOLYLINE
  5
220
330
1F
100
AcDbEntity
  8
0
 62
     0
100
AcDbPolyline
 90
        4
 70
     0
 43
0.0
 10
587.1706514970956
 20
468.6366279916194
 10
592.7147337385304
 20
470.2679579997759
 10
601.8579016277435
 20
476.1785950854107
 10
604.2270968785888
 20
471.7806177333207
  0
LWPOLYLINE
  5
221
330
1F
100
AcDbEntity
  8
0
 62
     0
100
AcDbPolyline
 90
        4
 70
     0
 43
0.0
 10
592.7147337385304
 20
470.2679579997759
 10
588.1725071422279
 20
473.3756424409441
 10
597.7019164683006
 20
479.8527747490245
 10
592.2119277752572
 20
478.2849071597795
  0
LWPOLYLINE
  5
222
330
1F
100
AcDbEntity
  8
0
 62
     0
100
AcDbPolyline
 90
        3
 70
     0
 43
0.0
 10
597.7019164683006
 20
479.8527747490245
 10
601.8579016277435
 20
476.1785950854107
 10
604.0821552984216
 20
492.1249717471321
  0
LWPOLYLINE
  5
223
330
1F
100
AcDbEntity
  8
0
 62
     0
100
AcDbPolyline
 90
        2
 70
     0
 43
0.0
 10
597.7019164683006
 20
479.8527747490245
 10
599.2548568865677
 20
490.393673295224
  0
LWPOLYLINE
  5
224
330
1F
100
AcDbEntity
  8
0
 62
     0
100
AcDbPolyline
 90
        2
 70
     0
 43
0.0
 10
604.2270968785888
 20
471.7806177333207
 10
609.2981669767432
 20
488.030768742876
  0
LWPOLYLINE
  5
225
330
1F
100
AcDbEntity
  8
0
 62
     0
100
AcDbPolyline
 90
        5
 70
     0
 43
0.0
 10
602.3218875230305
 20
505.6242947891425
 10
604.0821552984216
 20
492.1249717471321
 10
609.7901866712564
 20
510.9464528526248
 10
616.1567195499847
 20
507.5808262705284
 10
609.2981669767432
 20
488.030768742876
  0
LWPOLYLINE
  5
226
330
1F
100
AcDbEntity
  8
0
 62
     0
100
AcDbPolyline
 90
        4
 70
     0
 43
0.0
 10
622.5705098276084
 20
504.2863959731091
 10
616.1567195499847
 20
507.5808262705284
 10
627.6006310066549
 20
523.074503312421
 10
631.0468243571267
 20
529.1327879110151
  0
LWPOLYLINE
  5
227
330
1F
100
AcDbEntity
  8
0
 62
     0
100
AcDbPolyline
 90
       13
 70
     0
 43
0.0
 10
627.6006310066549
 20
523.074503312421
 10
609.7901866712564
 20
510.9464528526248
 10
609.7901866712564
 20
518.7600166621702
 10
604.5259975372937
 20
528.9678556413393
 10
614.4071983335161
 20
536.4184701208285
 10
622.3272998604243
 20
535.2704622355092
 10
627.6006310066549
 20
523.074503312421
 10
624.6077644887991
 20
522.6172125802024
 10
622.0975454707422
 20
531.4455321509069
 10
615.5988044087462
 20
533.7970722189318
 10
604.5259975372937
 20
528.9678556413393
 10
612.3792324090755
 20
521.9092799161824
 10
624.6077644887991
 20
522.6172125802024
  0
HATCH
  5
228
330
1F
100
AcDbEntity
  8
0
 62
     0
100
AcDbHatch
 10
0.0
 20
0.0
 30
0.0
210
0.0
220
0.0
230
1.0
  2
SOLID
 70
     1
 71
     1
 91
        1
 92
        7
 72
     0
 73
     1
 93
        4
 10
618.440261354247
 20
524.5201841784846
 10
615.4472003254913
 20
527.1862661223415
 10
609.461077594934
 20
527.1862661223417
 10
612.9421382019345
 20
522.6344188067693
 97
        1
330
229
 75
     0
 76
     1
 47
1.982718919299272
 98
        1
 10
613.6797336276831
 20
524.4724136004236
450
        0
451
        0
460
0.0
461
0.0
452
        1
462
1.0
453
        2
463
0.0
 63
     5
421
      255
463
1.0
 63
     7
421
 16777215
470
LINEAR
1001
ACAD
1010
0.0
1020
0.0
1030
0.0
  0
LWPOLYLINE
  5
229
102
{ACAD_REACTORS
330
228
102
}
330
1F
100
AcDbEntity
  8
0
 62
     0
100
AcDbPolyline
 90
        5
 70
     0
 43
0.0
 10
609.4610775949349
 20
527.1862661223415
 10
615.4472003254923
 20
527.1862661223415
 10
618.440261354246
 20
524.5201841784848
 10
612.9421382019336
 20
522.6344188067693
 10
609.4610775949349
 20
527.1862661223415
  0
LWPOLYLINE
  5
22A
330
1F
100
AcDbEntity
  8
0
 62
     0
100
AcDbPolyline
 90
        3
 70
     0
 43
0.0
 10
609.4610775949349
 20
527.1862661223415
 10
614.8941344957729
 20
530.990309895091
 10
615.5988044087462
 20
533.7970722189318
  0
LWPOLYLINE
  5
22B
330
1F
100
AcDbEntity
  8
0
 62
     0
100
AcDbPolyline
 90
        3
 70
     0
 43
0.0
 10
614.8941344957729
 20
530.990309895091
 10
619.4813260891642
 20
530.990309895091
 10
615.4472003254923
 20
527.1862661223415
  0
LWPOLYLINE
  5
22C
330
1F
100
AcDbEntity
  8
0
 62
     0
100
AcDbPolyline
 90
        4
 70
     0
 43
0.0
 10
618.440261354246
 20
524.5201841784848
 10
621.1847465560786
 20
525.461497243585
 10
619.4813260891642
 20
530.990309895091
 10
622.0975454707422
 20
531.4455321509069
  0
LWPOLYLINE
  5
22D
330
1F
100
AcDbEntity
  8
0
 62
     0
100
AcDbPolyline
 90
        2
 70
     0
 43
0.0
 10
621.1847465560786
 20
525.461497243585
 10
622.0766210359524
 20
522.470679937044
  0
LWPOLYLINE
  5
22E
330
1F
100
AcDbEntity
  8
0
 62
     0
100
AcDbPolyline
 90
        2
 70
     0
 43
0.0
 10
609.7901866712564
 20
518.7600166621702
 10
624.6077644887991
 20
522.6172125802024
  0
LWPOLYLINE
  5
22F
330
1F
100
AcDbEntity
  8
0
 62
     0
100
AcDbPolyline
 90
        5
 70
     0
 43
0.0
 10
627.6006310066549
 20
523.074503312421
 10
623.4402427665791
 20
540.1388982398259
 10
608.2142257129762
 20
535.7813198140958
 10
613.4795731627109
 20
543.5099975609675
 10
623.4402427665791
 20
540.1388982398259
  0
LWPOLYLINE
  5
230
330
1F
100
AcDbEntity
  8
0
 62
     0
100
AcDbPolyline
 90
        3
 70
     0
 43
0.0
 10
608.2142257129762
 20
535.7813198140958
 10
600.8768007666967
 20
526.448321014652
 10
604.5259975372937
 20
528.9678556413393
  0
LWPOLYLINE
  5
231
330
1F
100
AcDbEntity
  8
0
 62
     0
100
AcDbPolyline
 90
        5
 70
     0
 43
0.0
 10
609.7901866712564
 20
510.9464528526248
 10
602.3218875230305
 20
505.6242947891425
 10
599.3193802642727
 20
516.9579706194784
 10
600.8768007666967
 20
526.448321014652
 10
609.7901866712564
 20
510.9464528526248
  0
LWPOLYLINE
  5
232
330
1F
100
AcDbEntity
  8
0
 62
     0
100
AcDbPolyline
 90
        5
 70
     0
 43
0.0
 10
599.3193802642727
 20
516.9579706194784
 10
589.699952774723
 20
504.2079872938073
 10
595.4672574740834
 20
487.4841234664175
 10
577.9653673262073
 20
487.4841234664175
 10
578.0475175574593
 20
485.9825372576599
  0
LWPOLYLINE
  5
233
330
1F
100
AcDbEntity
  8
0
 62
     0
100
AcDbPolyline
 90
        3
 70
     0
 43
0.0
 10
578.0475175574593
 20
487.4841234664175
 10
580.3576696642285
 20
489.2204196578116
 10
595.4672574740834
 20
487.4841234664175
  0
LWPOLYLINE
  5
234
330
1F
100
AcDbEntity
  8
0
 62
     0
100
AcDbPolyline
 90
        9
 70
     0
 43
0.0
 10
580.3576696642285
 20
489.2204196578116
 10
569.1678190561178
 20
504.6542277121209
 10
563.3933187995808
 20
523.1243363016276
 10
561.8397757272268
 20
542.2137085056195
 10
557.0783447701215
 20
559.140589017297
 10
546.5684807091729
 20
578.0733446368115
 10
544.7630291960631
 20
573.7741446732155
 10
539.4916895991445
 20
570.0686264508938
 10
535.0285374043051
 20
570.3327214096991
  0
LWPOLYLINE
  5
235
330
1F
100
AcDbEntity
  8
0
 62
     0
100
AcDbPolyline
 90
        9
 70
     0
 43
0.0
 10
536.9900371372332
 20
575.7831609870361
 10
539.8043964934077
 20
577.6582423899278
 10
543.8695820805369
 20
577.1225046804523
 10
543.020807186178
 20
573.9973687510675
 10
540.6531713877666
 20
574.979554616247
 10
538.8662764836681
 20
573.6848551194441
 10
538.8662764836681
 20
571.8097737165524
 10
536.4986413583046
 20
570.8275882382211
 10
536.9900371372332
 20
575.7831609870361
  0
LWPOLYLINE
  5
236
330
1F
100
AcDbEntity
  8
0
 62
     0
100
AcDbPolyline
 90
        7
 70
     0
 43
0.0
 10
539.4916895991445
 20
570.0686264508938
 10
548.3283433096111
 20
555.1377506196319
 10
554.156579052953
 20
538.1156602319704
 10
553.7187155003048
 20
520.4424825636899
 10
557.7164865711601
 20
498.3539302138267
 10
567.416934244211
 20
484.0720112910965
 10
571.7035028488244
 20
481.3833076351358
  0
LWPOLYLINE
  5
237
330
1F
100
AcDbEntity
  8
0
 62
     0
100
AcDbPolyline
 90
        2
 70
     0
 43
0.0
 10
566.8581286603439
 20
483.1930875435935
 10
567.4115445198822
 20
484.0753919372134
  0
LWPOLYLINE
  5
238
330
1F
100
AcDbEntity
  8
0
 62
     0
100
AcDbPolyline
 90
        2
 70
     0
 43
0.0
 10
556.9954508207247
 20
496.8895158451835
 10
557.7164865711601
 20
498.3539302138267
  0
LWPOLYLINE
  5
239
330
1F
100
AcDbEntity
  8
0
 62
     0
100
AcDbPolyline
 90
        7
 70
     0
 43
0.0
 10
552.6939836234942
 20
519.8690766880806
 10
553.7187155003048
 20
520.4424825636899
 10
555.0517895544872
 20
521.2716638444251
 10
558.6788753490873
 20
522.464254417521
 10
559.8407986572583
 20
522.6682498273182
 10
563.3933187995808
 20
523.1243363016276
 10
569.9261551319432
 20
524.1933494328834
  0
LWPOLYLINE
  5
23A
330
1F
100
AcDbEntity
  8
0
 62
     0
100
AcDbPolyline
 90
        6
 70
     0
 43
0.0
 10
553.2564781839664
 20
538.2599518382915
 10
554.156579052953
 20
538.1156602319704
 10
558.1911840268694
 20
540.5661003193138
 10
558.8773330023814
 20
540.8518193091606
 10
561.8397757272268
 20
542.2137085056195
 10
567.4528319373712
 20
543.2410731913867
  0
LWPOLYLINE
  5
23B
330
1F
100
AcDbEntity
  8
0
 62
     0
100
AcDbPolyline
 90
        6
 70
     0
 43
0.0
 10
546.4959799684493
 20
555.139042305196
 10
548.3283433096111
 20
555.1377506196319
 10
553.4461047732166
 20
557.881757295908
 10
554.0333055831361
 20
558.2208195339624
 10
557.0783447701215
 20
559.140589017297
 10
562.6060679045749
 20
557.7626340222561
  0
LWPOLYLINE
  5
23C
330
1F
100
AcDbEntity
  8
0
 62
     0
100
AcDbPolyline
 90
        2
 70
     0
 43
0.0
 10
546.4713565360471
 20
558.2754133418391
 10
552.5053134355894
 20
561.8837925970677
  0
LWPOLYLINE
  5
23D
330
1F
100
AcDbEntity
  8
0
 62
     0
100
AcDbPolyline
 90
        7
 70
     0
 43
0.0
 10
544.7630291960631
 20
573.7741446732155
 10
552.5053134355894
 20
561.8837925970677
 10
554.0333055831361
 20
558.2208195339624
 10
558.8773330023814
 20
540.8518193091606
 10
559.8407986572583
 20
522.6682498273182
 10
566.2559249353507
 20
502.46756730244
 10
577.9653673262073
 20
487.4841234664175
  0
LWPOLYLINE
  5
23E
330
1F
100
AcDbEntity
  8
0
 62
     0
100
AcDbPolyline
 90
       17
 70
     0
 43
0.0
 10
552.5053134355894
 20
561.8837925970677
 10
553.4461047732166
 20
557.881757295908
 10
558.1911840268694
 20
540.5661003193138
 10
558.6788753490873
 20
522.464254417521
 10
565.7269596117949
 20
502.0268274762295
 10
576.1147448632928
 20
487.37010426564
 10
577.9653673262073
 20
487.4841234664175
 10
571.7035028488244
 20
481.3833076351358
 10
571.9472909643209
 20
483.2937898878724
 10
576.1147448632928
 20
487.37010426564
 10
570.6590055686265
 20
484.6380813675603
 10
571.9608887365303
 20
483.3070902855977
 10
567.6088000644686
 20
484.8274183318992
 10
570.6590055686265
 20
484.6380813675603
 10
560.7540555973464
 20
499.8671311477616
 10
555.0517895544872
 20
521.2716638444251
 10
554.156579052953
 20
538.1156602319704
  0
LWPOLYLINE
  5
23F
330
1F
100
AcDbEntity
  8
0
 62
     0
100
AcDbPolyline
 90
        7
 70
     0
 43
0.0
 10
557.7164865711601
 20
498.3539302138267
 10
559.2100852880376
 20
498.1511301644347
 10
560.7540555973464
 20
499.8671311477616
 10
565.7269596117949
 20
502.0268274762295
 10
566.2559249353507
 20
502.46756730244
 10
569.1678190561178
 20
504.6542277121209
 10
574.9446958454773
 20
510.0438609691034
  0
LWPOLYLINE
  5
240
330
1F
100
AcDbEntity
  8
0
 62
     0
100
AcDbPolyline
 90
        4
 70
     0
 43
0.0
 10
567.416934244211
 20
484.0720112910965
 10
567.6729895568896
 20
484.8049948260934
 10
559.2100852880376
 20
498.1511301644347
 10
553.7187155003048
 20
520.4424825636899
  0
LWPOLYLINE
  5
241
330
1F
100
AcDbEntity
  8
0
 62
     0
100
AcDbPolyline
 90
        3
 70
     0
 43
0.0
 10
572.8287901300773
 20
529.2119671915882
 10
573.5215558414038
 20
521.8255373762774
 10
572.4354254887093
 20
517.1186052009931
  0
LWPOLYLINE
  5
242
330
1F
100
AcDbEntity
  8
0
 62
     0
100
AcDbPolyline
 90
        3
 70
     0
 43
0.0
 10
579.5857898416016
 20
507.7887586327013
 10
583.7631644694811
 20
525.2663447777343
 10
573.5215558414038
 20
521.8255373762774
  0
LWPOLYLINE
  5
243
330
1F
100
AcDbEntity
  8
0
 62
     0
100
AcDbPolyline
 90
        3
 70
     0
 43
0.0
 10
583.7631644694811
 20
525.2663447777343
 10
595.7317162426552
 20
519.6858093692933
 10
589.6222195116989
 20
504.2387316926039
  0
LWPOLYLINE
  5
244
330
1F
100
AcDbEntity
  8
0
 62
     0
100
AcDbPolyline
 90
        5
 70
     0
 43
0.0
 10
599.3193802642727
 20
516.9579706194784
 10
595.7317162426552
 20
519.6858093692933
 10
600.8768007666967
 20
526.448321014652
 10
585.1636920767287
 20
533.4087003970523
 10
572.8287901300773
 20
529.2119671915882
  0
LWPOLYLINE
  5
245
330
1F
100
AcDbEntity
  8
0
 62
     0
100
AcDbPolyline
 90
        5
 70
     0
 43
0.0
 10
572.8287901300773
 20
529.2119671915882
 10
585.7934571211845
 20
537.0171271145843
 10
600.8768007666967
 20
526.448321014652
 10
589.8429613607641
 20
545.7290220634765
 10
585.7934571211845
 20
537.0171271145843
  0
LWPOLYLINE
  5
246
330
1F
100
AcDbEntity
  8
0
 62
     0
100
AcDbPolyline
 90
        5
 70
     0
 43
0.0
 10
572.8287901300773
 20
529.2119671915882
 10
568.3468265863921
 20
536.356181175059
 10
578.9954573388968
 20
544.4967068401326
 10
589.8429613607641
 20
545.7290220634765
 10
572.8287901300773
 20
529.2119671915882
  0
LWPOLYLINE
  5
247
330
1F
100
AcDbEntity
  8
0
 62
     0
100
AcDbPolyline
 90
        3
 70
     0
 43
0.0
 10
583.7631644694811
 20
525.2663447777343
 10
585.1636920767287
 20
533.4087003970523
 10
585.7934571211845
 20
537.0171271145843
  0
LWPOLYLINE
  5
248
330
1F
100
AcDbEntity
  8
0
 62
     0
100
AcDbPolyline
 90
        3
 70
     0
 43
0.0
 10
589.8429613607641
 20
545.7290220634765
 10
599.1059641170795
 20
554.782072098252
 10
612.4057289664542
 20
546.0277194177977
  0
LWPOLYLINE
  5
249
330
1F
100
AcDbEntity
  8
0
 62
     0
100
AcDbPolyline
 90
        3
 70
     0
 43
0.0
 10
613.4795731627109
 20
543.5099975609675
 10
603.5420840082606
 20
535.9875299288508
 10
589.8429613607641
 20
545.7290220634765
  0
LWPOLYLINE
  5
24A
330
1F
100
AcDbEntity
  8
0
 62
     0
100
AcDbPolyline
 90
        2
 70
     0
 43
0.0
 10
600.8768007666967
 20
526.448321014652
 10
603.5420840082606
 20
535.9875299288508
  0
LWPOLYLINE
  5
24B
330
1F
100
AcDbEntity
  8
0
 62
     0
100
AcDbPolyline
 90
        2
 70
     0
 43
0.0
 10
608.2142257129762
 20
535.7813198140958
 10
614.4071983335161
 20
536.4184701208285
  0
LWPOLYLINE
  5
24C
330
1F
100
AcDbEntity
  8
0
 62
     0
100
AcDbPolyline
 90
        2
 70
     0
 43
0.0
 10
614.4071983335161
 20
536.4184701208285
 10
615.5988044087462
 20
533.7970722189318
  0
LWPOLYLINE
  5
24D
330
1F
100
AcDbEntity
  8
0
 62
     0
100
AcDbPolyline
 90
        2
 70
     0
 43
0.0
 10
622.3272998604243
 20
535.2704622355092
 10
622.0975454707422
 20
531.4455321509069
  0
LWPOLYLINE
  5
24E
330
1F
100
AcDbEntity
  8
0
 62
     0
100
AcDbPolyline
 90
        3
 70
     0
 43
0.0
 10
568.3468265863921
 20
536.356181175059
 10
573.9885852601746
 20
549.5793750267501
 10
567.7965669625118
 20
540.5938777826507
  0
HATCH
  5
24F
330
1F
100
AcDbEntity
  8
0
 62
     0
100
AcDbHatch
 10
0.0
 20
0.0
 30
0.0
210
0.0
220
0.0
230
1.0
  2
SOLID
 70
     1
 71
     0
 91
        1
 92
        7
 72
     0
 73
     1
 93
        8
 10
540.6531713877684
 20
574.979554616247
 10
543.020807186178
 20
573.9973687510675
 10
543.8695820805369
 20
577.1225046804523
 10
539.8043964934077
 20
577.6582423899278
 10
536.9900371372332
 20
575.7831609870361
 10
536.4986413583046
 20
570.8275882382211
 10
538.8662764836681
 20
571.8097737165524
 10
538.8662764836681
 20
573.6848551194441
 97
        0
 75
     0
 76
     1
 47
1.576798774132295
 98
        1
 10
539.1716969592598
 20
574.7076938076004
450
        0
451
        0
460
0.0
461
0.0
452
        1
462
1.0
453
        2
463
0.0
 63
     5
421
      255
463
1.0
 63
     7
421
 16777215
470
LINEAR
1001
ACAD
1010
0.0
1020
0.0
1030
0.0
  0
LWPOLYLINE
  5
250
330
1F
100
AcDbEntity
  8
0
 62
     0
100
AcDbPolyline
 90
        2
 70
     0
 43
0.0
 10
681.3539603169101
 20
481.0114538371824
 10
691.5794797302915
 20
485.0735836583265
  0
ENDSEC
  0
SECTION
  2
OBJECTS
  0
DICTIONARY
  5
C
330
0
100
AcDbDictionary
281
     1
  3
ACAD_COLOR
350
6B
  3
ACAD_GROUP
350
D
  3
ACAD_LAYOUT
350
1A
  3
ACAD_MATERIAL
350
6A
  3
ACAD_MLINESTYLE
350
17
  3
ACAD_PLOTSETTINGS
350
19
  3
ACAD_PLOTSTYLENAME
350
E
  3
ACAD_TABLESTYLE
350
7E
  3
ACAD_VISUALSTYLE
350
EF
  3
AcDbVariableDictionary
350
5E
  0
DICTIONARY
  5
6B
102
{ACAD_REACTORS
330
C
102
}
330
C
100
AcDbDictionary
281
     1
  0
DICTIONARY
  5
D
102
{ACAD_REACTORS
330
C
102
}
330
C
100
AcDbDictionary
281
     1
  0
DICTIONARY
  5
1A
102
{ACAD_REACTORS
330
C
102
}
330
C
100
AcDbDictionary
281
     1
  3
Layout1
350
D3
  3
Layout2
350
D7
  3
Model
350
22
  0
DICTIONARY
  5
6A
102
{ACAD_REACTORS
330
C
102
}
330
C
100
AcDbDictionary
281
     1
  3
ByBlock
350
ED
  3
ByLayer
350
EC
  3
Global
350
EE
  0
DICTIONARY
  5
17
102
{ACAD_REACTORS
330
C
102
}
330
C
100
AcDbDictionary
281
     1
  3
Standard
350
18
  0
DICTIONARY
  5
19
102
{ACAD_REACTORS
330
C
102
}
330
C
100
AcDbDictionary
281
     1
  0
ACDBDICTIONARYWDFLT
  5
E
102
{ACAD_REACTORS
330
C
102
}
330
C
100
AcDbDictionary
281
     1
  3
Normal
350
F
100
AcDbDictionaryWithDefault
340
F
  0
DICTIONARY
  5
7E
102
{ACAD_REACTORS
330
C
102
}
330
C
100
AcDbDictionary
281
     1
  3
Standard
350
7F
  0
DICTIONARY
  5
EF
102
{ACAD_REACTORS
330
C
102
}
330
C
100
AcDbDictionary
281
     1
  3
2dWireframe
350
F5
  3
3D Hidden
350
F7
  3
3dWireframe
350
F6
  3
Basic
350
F4
  3
Brighten
350
FB
  3
ColorChange
350
FF
  3
Conceptual
350
F8
  3
Dim
350
FA
  3
Facepattern
350
FE
  3
Flat
350
F0
  3
FlatWithEdges
350
F1
  3
Gouraud
350
F2
  3
GouraudWithEdges
350
F3
  3
Linepattern
350
FD
  3
Realistic
350
F9
  3
Thicken
350
FC
  0
DICTIONARY
  5
5E
102
{ACAD_REACTORS
330
C
102
}
330
C
100
AcDbDictionary
281
     1
  3
CTABLESTYLE
350
84
  3
DIMASSOC
350
5F
  3
HIDETEXT
350
63
  0
LAYOUT
  5
D3
102
{ACAD_REACTORS
330
1A
102
}
330
1A
100
AcDbPlotSettings
  1

  2
C:\Documents and Settings\basas\Application Data\Autodesk\AutoCAD 2005\R16.1\enu\plotters\Default Windows System Printer.pc3
  4

  6

 40
0.0
 41
0.0
 42
0.0
 43
0.0
 44
0.0
 45
0.0
 46
0.0
 47
0.0
 48
0.0
 49
0.0
140
0.0
141
0.0
142
1.0
143
1.0
 70
   688
 72
     0
 73
     0
 74
     5
  7

 75
    16
147
1.0
 76
     0
 77
     2
 78
   300
148
0.0
149
0.0
100
AcDbLayout
  1
Layout1
 70
     1
 71
     1
 10
0.0
 20
0.0
 11
12.0
 21
9.0
 12
0.0
 22
0.0
 32
0.0
 14
0.0
 24
0.0
 34
0.0
 15
0.0
 25
0.0
 35
0.0
146
0.0
 13
0.0
 23
0.0
 33
0.0
 16
1.0
 26
0.0
 36
0.0
 17
0.0
 27
1.0
 37
0.0
 76
     0
330
D2
  0
LAYOUT
  5
D7
102
{ACAD_REACTORS
330
1A
102
}
330
1A
100
AcDbPlotSettings
  1

  2
C:\Documents and Settings\basas\Application Data\Autodesk\AutoCAD 2005\R16.1\enu\plotters\Default Windows System Printer.pc3
  4

  6

 40
0.0
 41
0.0
 42
0.0
 43
0.0
 44
0.0
 45
0.0
 46
0.0
 47
0.0
 48
0.0
 49
0.0
140
0.0
141
0.0
142
1.0
143
1.0
 70
   688
 72
     0
 73
     0
 74
     5
  7

 75
    16
147
1.0
 76
     0
 77
     2
 78
   300
148
0.0
149
0.0
100
AcDbLayout
  1
Layout2
 70
     1
 71
     2
 10
0.0
 20
0.0
 11
12.0
 21
9.0
 12
0.0
 22
0.0
 32
0.0
 14
0.0
 24
0.0
 34
0.0
 15
0.0
 25
0.0
 35
0.0
146
0.0
 13
0.0
 23
0.0
 33
0.0
 16
1.0
 26
0.0
 36
0.0
 17
0.0
 27
1.0
 37
0.0
 76
     0
330
D6
  0
LAYOUT
  5
22
102
{ACAD_REACTORS
330
1A
102
}
330
1A
100
AcDbPlotSettings
  1

  2
none_device
  4
ISO_A4_(210.00_x_297.00_MM)
  6

 40
7.5
 41
20.0
 42
7.5
 43
20.0
 44
210.0
 45
297.0
 46
11.54999923706054
 47
-13.65000009536743
 48
0.0
 49
0.0
140
0.0
141
0.0
142
1.0
143
8.704084754739808
 70
 11952
 72
     1
 73
     0
 74
     0
  7

 75
     0
147
0.1148885871608098
 76
     0
 77
     2
 78
   300
148
0.0
149
0.0
100
AcDbLayout
  1
Model
 70
     1
 71
     0
 10
0.0
 20
0.0
 11
12.0
 21
9.0
 12
0.0
 22
0.0
 32
0.0
 14
0.0
 24
0.0
 34
0.0
 15
0.0
 25
0.0
 35
0.0
146
0.0
 13
0.0
 23
0.0
 33
0.0
 16
1.0
 26
0.0
 36
0.0
 17
0.0
 27
1.0
 37
0.0
 76
     0
330
1F
331
EA
1001
ACAD_PSEXT
1000
None
1000
None
1000
Not applicable
1000
The layout will not be plotted unless a new plotter configuration name is selected.
1070
     0
  0
MATERIAL
  5
ED
102
{ACAD_REACTORS
330
6A
102
}
330
6A
100
AcDbMaterial
  1
ByBlock
  0
MATERIAL
  5
EC
102
{ACAD_REACTORS
330
6A
102
}
330
6A
100
AcDbMaterial
  1
ByLayer
  0
MATERIAL
  5
EE
102
{ACAD_REACTORS
330
6A
102
}
330
6A
100
AcDbMaterial
  1
Global
  0
MLINESTYLE
  5
18
102
{ACAD_REACTORS
330
17
102
}
330
17
100
AcDbMlineStyle
  2
STANDARD
 70
     0
  3

 62
   256
 51
90.0
 52
90.0
 71
     2
 49
0.5
 62
   256
  6
BYLAYER
 49
-0.5
 62
   256
  6
BYLAYER
  0
ACDBPLACEHOLDER
  5
F
102
{ACAD_REACTORS
330
E
102
}
330
E
  0
TABLESTYLE
  5
7F
102
{ACAD_REACTORS
330
7E
102
}
330
7E
100
AcDbTableStyle
  3
Standard
 70
     0
 71
     0
 40
1.5
 41
1.5
280
     0
281
     0
  7
Standard
140
4.5
170
     2
 62
     0
 63
     7
283
     0
 90
      512
 91
        0
  1

274
    -2
284
     1
 64
     0
275
    -2
285
     1
 65
     0
276
    -2
286
     1
 66
     0
277
    -2
287
     1
 67
     0
278
    -2
288
     1
 68
     0
279
    -2
289
     1
 69
     0
  7
Standard
140
6.0
170
     5
 62
     0
 63
     7
283
     0
 90
      512
 91
        0
  1

274
    -2
284
     1
 64
     0
275
    -2
285
     1
 65
     0
276
    -2
286
     1
 66
     0
277
    -2
287
     1
 67
     0
278
    -2
288
     1
 68
     0
279
    -2
289
     1
 69
     0
  7
Standard
140
4.5
170
     5
 62
     0
 63
     7
283
     0
 90
      512
 91
        0
  1

274
    -2
284
     1
 64
     0
275
    -2
285
     1
 65
     0
276
    -2
286
     1
 66
     0
277
    -2
287
     1
 67
     0
278
    -2
288
     1
 68
     0
279
    -2
289
     1
 69
     0
  0
VISUALSTYLE
  5
F5
102
{ACAD_REACTORS
330
EF
102
}
330
EF
100
AcDbVisualStyle
  2
2dWireframe
 70
     4
 71
     0
 72
     2
 73
     1
 90
        0
 40
-0.6
 41
-30.0
 62
     5
 63
     7
421
 16777215
 74
     1
 91
        4
 64
     7
 65
   257
 75
     1
175
     1
 42
1.0
 92
        0
 66
   257
 43
1.0
 76
     1
 77
     6
 78
     2
 67
     7
 79
     5
170
     0
171
     0
290
     0
174
     0
 93
        1
 44
0.0
173
     0
291
     0
 45
0.0
  0
VISUALSTYLE
  5
F7
102
{ACAD_REACTORS
330
EF
102
}
330
EF
100
AcDbVisualStyle
  2
3D Hidden
 70
     6
 71
     1
 72
     2
 73
     2
 90
        0
 40
-0.6
 41
-30.0
 62
     5
 63
     7
421
 16777215
 74
     2
 91
        2
 64
     7
 65
   257
 75
     2
175
     1
 42
40.0
 92
        0
 66
   257
 43
1.0
 76
     1
 77
     6
 78
     2
 67
     7
 79
     3
170
     0
171
     0
290
     0
174
     0
 93
        1
 44
0.0
173
     0
291
     0
 45
0.0
  0
VISUALSTYLE
  5
F6
102
{ACAD_REACTORS
330
EF
102
}
330
EF
100
AcDbVisualStyle
  2
3dWireframe
 70
     5
 71
     0
 72
     2
 73
     1
 90
        0
 40
-0.6
 41
-30.0
 62
     5
 63
     7
421
 16777215
 74
     1
 91
        4
 64
     7
 65
   257
 75
     1
175
     1
 42
1.0
 92
        0
 66
   257
 43
1.0
 76
     1
 77
     6
 78
     2
 67
     7
 79
     5
170
     0
171
     0
290
     0
174
     0
 93
        1
 44
0.0
173
     0
291
     0
 45
0.0
  0
VISUALSTYLE
  5
F4
102
{ACAD_REACTORS
330
EF
102
}
330
EF
100
AcDbVisualStyle
  2
Basic
 70
     7
 71
     1
 72
     0
 73
     1
 90
        0
 40
-0.6
 41
-30.0
 62
     5
 63
     7
421
 16777215
 74
     0
 91
        4
 64
     7
 65
   257
 75
     1
175
     1
 42
1.0
 92
        8
 66
     7
 43
1.0
 76
     1
 77
     6
 78
     2
 67
     7
 79
     5
170
     0
171
     0
290
     0
174
     0
 93
        1
 44
0.0
173
     0
291
     1
 45
0.0
  0
VISUALSTYLE
  5
FB
102
{ACAD_REACTORS
330
EF
102
}
330
EF
100
AcDbVisualStyle
  2
Brighten
 70
    12
 71
     2
 72
     2
 73
     1
 90
        0
 40
-0.6
 41
-30.0
 62
     5
 63
     7
421
 16777215
 74
     1
 91
        4
 64
     7
 65
   257
 75
     1
175
     1
 42
1.0
 92
        8
 66
     7
 43
1.0
 76
     1
 77
     6
 78
     2
 67
     7
 79
     5
170
     0
171
     0
290
     0
174
     0
 93
        1
 44
50.0
173
     0
291
     1
 45
0.0
  0
VISUALSTYLE
  5
FF
102
{ACAD_REACTORS
330
EF
102
}
330
EF
100
AcDbVisualStyle
  2
ColorChange
 70
    16
 71
     2
 72
     2
 73
     3
 90
        0
 40
-0.6
 41
-30.0
 62
     5
 63
     8
421
  8421504
 74
     1
 91
        4
 64
     7
 65
   257
 75
     1
175
     1
 42
1.0
 92
        8
 66
     8
424
  8421504
 43
1.0
 76
     1
 77
     6
 78
     2
 67
     7
 79
     5
170
     0
171
     0
290
     0
174
     0
 93
        1
 44
0.0
173
     0
291
     1
 45
0.0
  0
VISUALSTYLE
  5
F8
102
{ACAD_REACTORS
330
EF
102
}
330
EF
100
AcDbVisualStyle
  2
Conceptual
 70
     9
 71
     3
 72
     2
 73
     1
 90
        0
 40
-0.6
 41
-30.0
 62
     5
 63
     7
421
 16777215
 74
     2
 91
        2
 64
     7
 65
   257
 75
     1
175
     1
 42
40.0
 92
        8
 66
     7
 43
1.0
 76
     1
 77
     6
 78
     2
 67
     7
 79
     3
170
     0
171
     0
290
     0
174
     0
 93
        1
 44
0.0
173
     0
291
     0
 45
0.0
  0
VISUALSTYLE
  5
FA
102
{ACAD_REACTORS
330
EF
102
}
330
EF
100
AcDbVisualStyle
  2
Dim
 70
    11
 71
     2
 72
     2
 73
     1
 90
        0
 40
-0.6
 41
-30.0
 62
     5
 63
     7
421
 16777215
 74
     1
 91
        4
 64
     7
 65
   257
 75
     1
175
     1
 42
1.0
 92
        8
 66
     7
 43
1.0
 76
     1
 77
     6
 78
     2
 67
     7
 79
     5
170
     0
171
     0
290
     0
174
     0
 93
        1
 44
-50.0
173
     0
291
     1
 45
0.0
  0
VISUALSTYLE
  5
FE
102
{ACAD_REACTORS
330
EF
102
}
330
EF
100
AcDbVisualStyle
  2
Facepattern
 70
    15
 71
     2
 72
     2
 73
     1
 90
        0
 40
-0.6
 41
-30.0
 62
     5
 63
     7
421
 16777215
 74
     1
 91
        4
 64
     7
 65
   257
 75
     1
175
     1
 42
1.0
 92
        8
 66
     7
 43
1.0
 76
     1
 77
     6
 78
     2
 67
     7
 79
     5
170
     0
171
     0
290
     0
174
     0
 93
        1
 44
0.0
173
     0
291
     1
 45
0.0
  0
VISUALSTYLE
  5
F0
102
{ACAD_REACTORS
330
EF
102
}
330
EF
100
AcDbVisualStyle
  2
Flat
 70
     0
 71
     2
 72
     1
 73
     1
 90
        2
 40
-0.6
 41
30.0
 62
     5
 63
     7
421
 16777215
 74
     0
 91
        4
 64
     7
 65
   257
 75
     1
175
     1
 42
1.0
 92
        8
 66
     7
 43
1.0
 76
     1
 77
     6
 78
     2
 67
     7
 79
     5
170
     0
171
     0
290
     0
174
     0
 93
        1
 44
0.0
173
     0
291
     1
 45
0.0
  0
VISUALSTYLE
  5
F1
102
{ACAD_REACTORS
330
EF
102
}
330
EF
100
AcDbVisualStyle
  2
FlatWithEdges
 70
     1
 71
     2
 72
     1
 73
     1
 90
        2
 40
-0.6
 41
30.0
 62
     5
 63
     7
421
 16777215
 74
     1
 91
        4
 64
     7
 65
   257
 75
     1
175
     1
 42
1.0
 92
        0
 66
   257
 43
1.0
 76
     1
 77
     6
 78
     2
 67
     7
 79
     5
170
     0
171
     0
290
     0
174
     0
 93
        1
 44
0.0
173
     0
291
     1
 45
0.0
  0
VISUALSTYLE
  5
F2
102
{ACAD_REACTORS
330
EF
102
}
330
EF
100
AcDbVisualStyle
  2
Gouraud
 70
     2
 71
     2
 72
     2
 73
     1
 90
        2
 40
-0.6
 41
30.0
 62
     5
 63
     7
421
 16777215
 74
     0
 91
        4
 64
     7
 65
   257
 75
     1
175
     1
 42
1.0
 92
        0
 66
     7
 43
1.0
 76
     1
 77
     6
 78
     2
 67
     7
 79
     5
170
     0
171
     0
290
     0
174
     0
 93
        1
 44
0.0
173
     0
291
     1
 45
0.0
  0
VISUALSTYLE
  5
F3
102
{ACAD_REACTORS
330
EF
102
}
330
EF
100
AcDbVisualStyle
  2
GouraudWithEdges
 70
     3
 71
     2
 72
     2
 73
     1
 90
        2
 40
-0.6
 41
30.0
 62
     5
 63
     7
421
 16777215
 74
     1
 91
        4
 64
     7
 65
   257
 75
     1
175
     1
 42
1.0
 92
        0
 66
   257
 43
1.0
 76
     1
 77
     6
 78
     2
 67
     7
 79
     5
170
     0
171
     0
290
     0
174
     0
 93
        1
 44
0.0
173
     0
291
     1
 45
0.0
  0
VISUALSTYLE
  5
FD
102
{ACAD_REACTORS
330
EF
102
}
330
EF
100
AcDbVisualStyle
  2
Linepattern
 70
    14
 71
     2
 72
     2
 73
     1
 90
        0
 40
-0.6
 41
-30.0
 62
     5
 63
     7
421
 16777215
 74
     1
 91
        4
 64
     7
 65
   257
 75
     7
175
     7
 42
1.0
 92
        8
 66
     7
 43
1.0
 76
     1
 77
     6
 78
     2
 67
     7
 79
     5
170
     0
171
     0
290
     0
174
     0
 93
        1
 44
0.0
173
     0
291
     1
 45
0.0
  0
VISUALSTYLE
  5
F9
102
{ACAD_REACTORS
330
EF
102
}
330
EF
100
AcDbVisualStyle
  2
Realistic
 70
     8
 71
     2
 72
     2
 73
     1
 90
        0
 40
-0.6
 41
-30.0
 62
     5
 63
     7
421
 16777215
 74
     1
 91
        0
 64
     7
 65
   257
 75
     1
175
     1
 42
1.0
 92
        8
 66
     8
424
  7895160
 43
1.0
 76
     1
 77
     6
 78
     2
 67
     7
 79
     5
170
     0
171
     0
290
     0
174
     0
 93
       13
 44
0.0
173
     0
291
     0
 45
0.0
  0
VISUALSTYLE
  5
FC
102
{ACAD_REACTORS
330
EF
102
}
330
EF
100
AcDbVisualStyle
  2
Thicken
 70
    13
 71
     2
 72
     2
 73
     1
 90
        0
 40
-0.6
 41
-30.0
 62
     5
 63
     7
421
 16777215
 74
     1
 91
        4
 64
     7
 65
   257
 75
     1
175
     1
 42
1.0
 92
       12
 66
     7
 43
1.0
 76
     1
 77
     6
 78
     2
 67
     7
 79
     5
170
     0
171
     0
290
     0
174
     0
 93
        1
 44
0.0
173
     0
291
     1
 45
0.0
  0
DICTIONARYVAR
  5
84
102
{ACAD_REACTORS
330
5E
102
}
330
5E
100
DictionaryVariables
280
     0
  1
STANDARD
  0
DICTIONARYVAR
  5
5F
102
{ACAD_REACTORS
330
5E
102
}
330
5E
100
DictionaryVariables
280
     0
  1
2
  0
DICTIONARYVAR
  5
63
102
{ACAD_REACTORS
330
5E
102
}
330
5E
100
DictionaryVariables
280
     0
  1
1
  0
ENDSEC
  0
EOF
