  0
SECTION
  2
HEADER
  9
$ACADVER
  1
AC1014
  9
$HANDSEED
  5
FFFF
  9
$MEASUREMENT
 70
     1
  0
ENDSEC
  0
SECTION
  2
TABLES
  0
TABLE
  2
VPORT
  5
8
330
0
100
AcDbSymbolTable
 70
     4
  0
VPORT
  5
2E
330
8
100
AcDbSymbolTableRecord
100
AcDbViewportTableRecord
  2
*ACTIVE
 70
     0
 10
0.0
 20
0.0
 11
1.0
 21
1.0
 12
210.0
 22
148.5
 13
0.0
 23
0.0
 14
10.0
 24
10.0
 15
10.0
 25
10.0
 16
0.0
 26
0.0
 36
1.0
 17
0.0
 27
0.0
 37
0.0
 40
341.0
 41
1.24
 42
50.0
 43
0.0
 44
0.0
 50
0.0
 51
0.0
 71
     0
 72
   100
 73
     1
 74
     3
 75
     0
 76
     0
 77
     0
 78
     0
  0
ENDTAB
  0
TABLE
  2
LTYPE
  5
5
330
0
100
AcDbSymbolTable
 70
     1
  0
LTYPE
  5
14
330
5
100
AcDbSymbolTableRecord
100
AcDbLinetypeTableRecord
  2
BYBLOCK
 70
     0
  3

 72
    65
 73
     0
 40
0.0
  0
LTYPE
  5
15
330
5
100
AcDbSymbolTableRecord
100
AcDbLinetypeTableRecord
  2
BYLAYER
 70
     0
  3

 72
    65
 73
     0
 40
0.0
  0
LTYPE
  5
16
330
5
100
AcDbSymbolTableRecord
100
AcDbLinetypeTableRecord
  2
CONTINUOUS
 70
     0
  3
Solid line
 72
    65
 73
     0
 40
0.0
  0
ENDTAB
  0
TABLE
  2
LAYER
  5
2
100
AcDbSymbolTable
 70
1
  0
LAYER
  5
50
100
AcDbSymbolTableRecord
100
AcDbLayerTableRecord
  2
0
 70
0
  6
CONTINUOUS
  0
ENDTAB
  0
TABLE
  2
STYLE
  5
3
330
0
100
AcDbSymbolTable
 70
     1
  0
STYLE
  5
11
330
3
100
AcDbSymbolTableRecord
100
AcDbTextStyleTableRecord
  2
STANDARD
 70
     0
 40
0.0
 41
1.0
 50
0.0
 71
     0
 42
2.5
  3
txt
  4

  0
ENDTAB
  0
TABLE
  2
VIEW
  5
6
330
0
100
AcDbSymbolTable
 70
     0
  0
ENDTAB
  0
TABLE
  2
UCS
  5
7
330
0
100
AcDbSymbolTable
 70
     0
  0
ENDTAB
  0
TABLE
  2
APPID
  5
9
330
0
100
AcDbSymbolTable
 70
     2
  0
APPID
  5
12
330
9
100
AcDbSymbolTableRecord
100
AcDbRegAppTableRecord
  2
ACAD
 70
     0
  0
ENDTAB
  0
TABLE
  2
DIMSTYLE
  5
A
330
0
100
AcDbSymbolTable
 70
     1
  0
DIMSTYLE
105
27
330
A
100
AcDbSymbolTableRecord
100
AcDbDimStyleTableRecord
  2
ISO-25
 70
     0
  3

  4

  5

  6

  7

 40
1.0
 41
2.5
 42
0.625
 43
3.75
 44
1.25
 45
0.0
 46
0.0
 47
0.0
 48
0.0
140
2.5
141
2.5
142
0.0
143
0.03937007874016
144
1.0
145
0.0
146
1.0
147
0.625
 71
     0
 72
     0
 73
     0
 74
     0
 75
     0
 76
     0
 77
     1
 78
     8
170
     0
171
     3
172
     1
173
     0
174
     0
175
     0
176
     0
177
     0
178
     0
270
     2
271
     2
272
     2
273
     2
274
     3
340
11
275
     0
280
     0
281
     0
282
     0
283
     0
284
     8
285
     0
286
     0
287
     3
288
     0
  0
ENDTAB
  0
TABLE
  2
BLOCK_RECORD
  5
1
330
0
100
AcDbSymbolTable
 70
     1
  0
BLOCK_RECORD
  5
1F
330
1
100
AcDbSymbolTableRecord
100
AcDbBlockTableRecord
  2
*MODEL_SPACE
  0
BLOCK_RECORD
  5
1B
330
1
100
AcDbSymbolTableRecord
100
AcDbBlockTableRecord
  2
*PAPER_SPACE
  0
ENDTAB
  0
ENDSEC
  0
SECTION
  2
BLOCKS
  0
BLOCK
  5
20
330
1F
100
AcDbEntity
  8
0
100
AcDbBlockBegin
  2
*MODEL_SPACE
 70
     0
 10
0.0
 20
0.0
 30
0.0
  3
*MODEL_SPACE
  1

  0
ENDBLK
  5
21
330
1F
100
AcDbEntity
  8
0
100
AcDbBlockEnd
  0
BLOCK
  5
1C
330
1B
100
AcDbEntity
 67
     1
  8
0
100
AcDbBlockBegin
  2
*PAPER_SPACE
  1

  0
ENDBLK
  5
1D
330
1B
100
AcDbEntity
 67
     1
  8
0
100
AcDbBlockEnd
  0
ENDSEC
  0
SECTION
  2
ENTITIES
  0
SPLINE
  5
100
100
AcDbEntity
  8
0
 62
1
100
AcDbSpline
 70
8
 71
3
 72
8
 73
4
 74
0
 40
0
 40
0
 40
0
 40
0
 40
1
 40
1
 40
1
 40
1
 10
1104.625400
 20
1379.534170
 30
0.0
 10
1115.317700
 20
1380.035070
 30
0.0
 10
1125.572600
 20
1380.871570
 30
0.0
 10
1136.216400
 20
1381.985570
 30
0.0
  0
SPLINE
  5
101
100
AcDbEntity
  8
0
 62
1
100
AcDbSpline
 70
8
 71
3
 72
8
 73
4
 74
0
 40
0
 40
0
 40
0
 40
0
 40
1
 40
1
 40
1
 40
1
 10
1136.216400
 20
1381.985570
 30
0.0
 10
1150.543300
 20
1383.484870
 30
0.0
 10
1164.456900
 20
1385.113570
 30
0.0
 10
1178.325900
 20
1386.731370
 30
0.0
  0
SPLINE
  5
102
100
AcDbEntity
  8
0
 62
1
100
AcDbSpline
 70
8
 71
3
 72
8
 73
4
 74
0
 40
0
 40
0
 40
0
 40
0
 40
1
 40
1
 40
1
 40
1
 10
1186.829900
 20
1387.720870
 30
0.0
 10
1196.225900
 20
1388.810270
 30
0.0
 10
1205.636300
 20
1389.881470
 30
0.0
 10
1215.176300
 20
1390.890870
 30
0.0
  0
LWPOLYLINE
  5
103
100
AcDbEntity
  8
0
 62
1
100
AcDbPolyline
 90
4
 70
0
 10
1178.325900
 20
1386.731370
 30
0.0
 10
1178.325900
 20
1261.956470
 30
0.0
 10
1186.829900
 20
1261.956470
 30
0.0
 10
1186.829900
 20
1387.720870
 30
0.0
  0
SPLINE
  5
104
100
AcDbEntity
  8
0
 62
1
100
AcDbSpline
 70
8
 71
3
 72
8
 73
4
 74
0
 40
0
 40
0
 40
0
 40
0
 40
1
 40
1
 40
1
 40
1
 10
1223.680300
 20
1391.769670
 30
0.0
 10
1226.110400
 20
1392.014270
 30
0.0
 10
1228.550500
 20
1392.254070
 30
0.0
 10
1231.003300
 20
1392.488470
 30
0.0
  0
SPLINE
  5
105
100
AcDbEntity
  8
0
 62
1
100
AcDbSpline
 70
8
 71
3
 72
8
 73
4
 74
0
 40
0
 40
0
 40
0
 40
0
 40
1
 40
1
 40
1
 40
1
 10
1231.003300
 20
1392.488470
 30
0.0
 10
1237.894000
 20
1393.147270
 30
0.0
 10
1244.928800
 20
1393.681070
 30
0.0
 10
1252.026700
 20
1394.167170
 30
0.0
  0
LWPOLYLINE
  5
106
100
AcDbEntity
  8
0
 62
1
100
AcDbPolyline
 90
4
 70
0
 10
1215.176300
 20
1390.890870
 30
0.0
 10
1215.176300
 20
1260.101770
 30
0.0
 10
1223.680300
 20
1260.101770
 30
0.0
 10
1223.680300
 20
1391.769670
 30
0.0
  0
SPLINE
  5
107
100
AcDbEntity
  8
0
 62
1
100
AcDbSpline
 70
8
 71
3
 72
8
 73
4
 74
0
 40
0
 40
0
 40
0
 40
0
 40
1
 40
1
 40
1
 40
1
 10
1260.530600
 20
1394.730170
 30
0.0
 10
1269.988400
 20
1395.340170
 30
0.0
 10
1279.500400
 20
1395.919870
 30
0.0
 10
1288.877100
 20
1396.648670
 30
0.0
  0
LWPOLYLINE
  5
108
100
AcDbEntity
  8
0
 62
1
100
AcDbPolyline
 90
4
 70
0
 10
1252.026700
 20
1394.167170
 30
0.0
 10
1252.026700
 20
1262.416570
 30
0.0
 10
1260.530600
 20
1262.416570
 30
0.0
 10
1260.530600
 20
1394.730170
 30
0.0
  0
SPLINE
  5
109
100
AcDbEntity
  8
0
 62
1
100
AcDbSpline
 70
8
 71
3
 72
8
 73
4
 74
0
 40
0
 40
0
 40
0
 40
0
 40
1
 40
1
 40
1
 40
1
 10
1297.381000
 20
1397.358970
 30
0.0
 10
1300.617100
 20
1397.650670
 30
0.0
 10
1303.830100
 20
1397.966470
 30
0.0
 10
1307.011500
 20
1398.315170
 30
0.0
  0
SPLINE
  5
10a
100
AcDbEntity
  8
0
 62
1
100
AcDbSpline
 70
8
 71
3
 72
8
 73
4
 74
0
 40
0
 40
0
 40
0
 40
0
 40
1
 40
1
 40
1
 40
1
 10
1307.011500
 20
1398.315170
 30
0.0
 10
1313.234100
 20
1398.996870
 30
0.0
 10
1319.483600
 20
1399.692770
 30
0.0
 10
1325.727500
 20
1400.477670
 30
0.0
  0
LWPOLYLINE
  5
10b
100
AcDbEntity
  8
0
 62
1
100
AcDbPolyline
 90
4
 70
0
 10
1288.877100
 20
1396.648670
 30
0.0
 10
1288.877100
 20
1264.101170
 30
0.0
 10
1297.381000
 20
1264.101170
 30
0.0
 10
1297.381000
 20
1397.358970
 30
0.0
  0
SPLINE
  5
10c
100
AcDbEntity
  8
0
 62
1
100
AcDbSpline
 70
8
 71
3
 72
8
 73
4
 74
0
 40
0
 40
0
 40
0
 40
0
 40
1
 40
1
 40
1
 40
1
 10
1334.231400
 20
1401.610070
 30
0.0
 10
1343.764300
 20
1402.959170
 30
0.0
 10
1353.250800
 20
1404.597570
 30
0.0
 10
1362.577900
 20
1406.796970
 30
0.0
  0
LWPOLYLINE
  5
10d
100
AcDbEntity
  8
0
 62
1
100
AcDbPolyline
 90
4
 70
0
 10
1325.727500
 20
1400.477670
 30
0.0
 10
1325.727500
 20
1264.949270
 30
0.0
 10
1334.231400
 20
1264.949270
 30
0.0
 10
1334.231400
 20
1401.610070
 30
0.0
  0
SPLINE
  5
10e
100
AcDbEntity
  8
0
 62
1
100
AcDbSpline
 70
8
 71
3
 72
8
 73
4
 74
0
 40
0
 40
0
 40
0
 40
0
 40
1
 40
1
 40
1
 40
1
 10
1371.081800
 20
1408.978770
 30
0.0
 10
1375.633400
 20
1410.246470
 30
0.0
 10
1380.138000
 20
1411.670270
 30
0.0
 10
1384.581000
 20
1413.284570
 30
0.0
  0
SPLINE
  5
10f
100
AcDbEntity
  8
0
 62
1
100
AcDbSpline
 70
8
 71
3
 72
8
 73
4
 74
0
 40
0
 40
0
 40
0
 40
0
 40
1
 40
1
 40
1
 40
1
 10
1384.581000
 20
1413.284570
 30
0.0
 10
1389.570200
 20
1415.097370
 30
0.0
 10
1394.518700
 20
1417.001670
 30
0.0
 10
1399.428300
 20
1418.989570
 30
0.0
  0
LWPOLYLINE
  5
110
100
AcDbEntity
  8
0
 62
1
100
AcDbPolyline
 90
4
 70
0
 10
1362.577900
 20
1406.796970
 30
0.0
 10
1362.577900
 20
1264.615070
 30
0.0
 10
1371.081800
 20
1264.615070
 30
0.0
 10
1371.081800
 20
1408.978770
 30
0.0
  0
SPLINE
  5
111
100
AcDbEntity
  8
0
 62
1
100
AcDbSpline
 70
8
 71
3
 72
8
 73
4
 74
0
 40
0
 40
0
 40
0
 40
0
 40
1
 40
1
 40
1
 40
1
 10
1407.932200
 20
1422.530670
 30
0.0
 10
1417.514200
 20
1426.629570
 30
0.0
 10
1426.954700
 20
1431.034070
 30
0.0
 10
1436.278700
 20
1435.683670
 30
0.0
  0
LWPOLYLINE
  5
112
100
AcDbEntity
  8
0
 62
1
100
AcDbPolyline
 90
4
 70
0
 10
1399.428300
 20
1418.989570
 30
0.0
 10
1399.428300
 20
1265.866870
 30
0.0
 10
1407.932200
 20
1265.866870
 30
0.0
 10
1407.932200
 20
1422.530670
 30
0.0
  0
SPLINE
  5
113
100
AcDbEntity
  8
0
 62
1
100
AcDbSpline
 70
8
 71
3
 72
8
 73
4
 74
0
 40
0
 40
0
 40
0
 40
0
 40
1
 40
1
 40
1
 40
1
 10
1444.782600
 20
1440.007070
 30
0.0
 10
1454.339300
 20
1444.957270
 30
0.0
 10
1463.779300
 20
1450.148870
 30
0.0
 10
1473.129100
 20
1455.515970
 30
0.0
  0
LWPOLYLINE
  5
114
100
AcDbEntity
  8
0
 62
1
100
AcDbPolyline
 90
4
 70
0
 10
1436.278700
 20
1435.683670
 30
0.0
 10
1436.278700
 20
1269.500870
 30
0.0
 10
1444.782600
 20
1269.500870
 30
0.0
 10
1444.782600
 20
1440.007070
 30
0.0
  0
SPLINE
  5
115
100
AcDbEntity
  8
0
 62
1
100
AcDbSpline
 70
8
 71
3
 72
8
 73
4
 74
0
 40
0
 40
0
 40
0
 40
0
 40
1
 40
1
 40
1
 40
1
 10
1481.633000
 20
1460.458170
 30
0.0
 10
1485.128700
 20
1462.514170
 30
0.0
 10
1488.613300
 20
1464.591370
 30
0.0
 10
1492.087500
 20
1466.687670
 30
0.0
  0
LWPOLYLINE
  5
116
100
AcDbEntity
  8
0
 62
1
100
AcDbPolyline
 90
4
 70
0
 10
1473.129100
 20
1455.515970
 30
0.0
 10
1473.129100
 20
1276.152670
 30
0.0
 10
1481.633000
 20
1276.152670
 30
0.0
 10
1481.633000
 20
1460.458170
 30
0.0
  0
SPLINE
  5
117
100
AcDbEntity
  8
0
 62
1
100
AcDbSpline
 70
8
 71
3
 72
8
 73
4
 74
0
 40
0
 40
0
 40
0
 40
0
 40
1
 40
1
 40
1
 40
1
 10
1499.562700
 20
1471.233870
 30
0.0
 10
1507.780900
 20
1476.270670
 30
0.0
 10
1515.947500
 20
1481.396370
 30
0.0
 10
1524.081300
 20
1486.564470
 30
0.0
  0
LWPOLYLINE
  5
118
100
AcDbEntity
  8
0
 62
1
100
AcDbPolyline
 90
4
 70
0
 10
1492.087500
 20
1466.687670
 30
0.0
 10
1581.295200
 20
1377.475070
 30
0.0
 10
1587.308300
 20
1383.488470
 30
0.0
 10
1499.562700
 20
1471.233870
 30
0.0
  0
SPLINE
  5
119
100
AcDbEntity
  8
0
 62
1
100
AcDbSpline
 70
8
 71
3
 72
8
 73
4
 74
0
 40
0
 40
0
 40
0
 40
0
 40
1
 40
1
 40
1
 40
1
 10
1531.424700
 20
1491.245870
 30
0.0
 10
1533.169700
 20
1492.361570
 30
0.0
 10
1534.914100
 20
1493.478470
 30
0.0
 10
1536.656900
 20
1494.596370
 30
0.0
  0
SPLINE
  5
11a
100
AcDbEntity
  8
0
 62
1
100
AcDbSpline
 70
8
 71
3
 72
8
 73
4
 74
0
 40
0
 40
0
 40
0
 40
0
 40
1
 40
1
 40
1
 40
1
 10
1536.656900
 20
1494.596370
 30
0.0
 10
1543.045900
 20
1498.694470
 30
0.0
 10
1549.509700
 20
1502.655270
 30
0.0
 10
1556.051800
 20
1506.466170
 30
0.0
  0
LWPOLYLINE
  5
11b
100
AcDbEntity
  8
0
 62
1
100
AcDbPolyline
 90
4
 70
0
 10
1524.081300
 20
1486.564470
 30
0.0
 10
1605.570500
 20
1405.073770
 30
0.0
 10
1611.583700
 20
1411.087170
 30
0.0
 10
1531.424700
 20
1491.245870
 30
0.0
  0
SPLINE
  5
11c
100
AcDbEntity
  8
0
 62
1
100
AcDbSpline
 70
8
 71
3
 72
8
 73
4
 74
0
 40
0
 40
0
 40
0
 40
0
 40
1
 40
1
 40
1
 40
1
 10
1563.707600
 20
1510.836970
 30
0.0
 10
1572.312500
 20
1515.648770
 30
0.0
 10
1581.052500
 20
1520.197270
 30
0.0
 10
1589.935500
 20
1524.454870
 30
0.0
  0
LWPOLYLINE
  5
11d
100
AcDbEntity
  8
0
 62
1
100
AcDbPolyline
 90
4
 70
0
 10
1556.051800
 20
1506.466170
 30
0.0
 10
1634.820900
 20
1427.697670
 30
0.0
 10
1640.834100
 20
1433.711070
 30
0.0
 10
1563.707600
 20
1510.836970
 30
0.0
  0
SPLINE
  5
11e
100
AcDbEntity
  8
0
 62
1
100
AcDbSpline
 70
8
 71
3
 72
8
 73
4
 74
0
 40
0
 40
0
 40
0
 40
0
 40
1
 40
1
 40
1
 40
1
 10
1598.134700
 20
1528.282170
 30
0.0
 10
1607.385000
 20
1532.485970
 30
0.0
 10
1616.789500
 20
1536.371170
 30
0.0
 10
1626.357500
 20
1539.906770
 30
0.0
  0
LWPOLYLINE
  5
11f
100
AcDbEntity
  8
0
 62
1
100
AcDbPolyline
 90
4
 70
0
 10
1589.935500
 20
1524.454870
 30
0.0
 10
1651.761600
 20
1462.628370
 30
0.0
 10
1657.774800
 20
1468.641870
 30
0.0
 10
1598.134700
 20
1528.282170
 30
0.0
  0
SPLINE
  5
120
100
AcDbEntity
  8
0
 62
1
100
AcDbSpline
 70
8
 71
3
 72
8
 73
4
 74
0
 40
0
 40
0
 40
0
 40
0
 40
1
 40
1
 40
1
 40
1
 10
1635.224600
 20
1543.066270
 30
0.0
 10
1645.275400
 20
1546.515170
 30
0.0
 10
1655.505100
 20
1549.576670
 30
0.0
 10
1665.923500
 20
1552.214870
 30
0.0
  0
LWPOLYLINE
  5
121
100
AcDbEntity
  8
0
 62
1
100
AcDbPolyline
 90
4
 70
0
 10
1626.357500
 20
1539.906770
 30
0.0
 10
1669.972000
 20
1496.292670
 30
0.0
 10
1675.985100
 20
1502.306070
 30
0.0
 10
1635.224600
 20
1543.066270
 30
0.0
  0
SPLINE
  5
122
100
AcDbEntity
  8
0
 62
1
100
AcDbSpline
 70
8
 71
3
 72
8
 73
4
 74
0
 40
0
 40
0
 40
0
 40
0
 40
1
 40
1
 40
1
 40
1
 10
1675.627400
 20
1554.537570
 30
0.0
 10
1689.924800
 20
1557.759370
 30
0.0
 10
1704.575600
 20
1560.183070
 30
0.0
 10
1719.603800
 20
1561.721070
 30
0.0
  0
LWPOLYLINE
  5
123
100
AcDbEntity
  8
0
 62
1
100
AcDbPolyline
 90
4
 70
0
 10
1665.923500
 20
1552.214870
 30
0.0
 10
1689.754700
 20
1528.383970
 30
0.0
 10
1695.767800
 20
1534.397370
 30
0.0
 10
1675.627400
 20
1554.537570
 30
0.0
  0
SPLINE
  5
124
100
AcDbEntity
  8
0
 62
1
100
AcDbSpline
 70
8
 71
3
 72
8
 73
4
 74
0
 40
0
 40
0
 40
0
 40
0
 40
1
 40
1
 40
1
 40
1
 10
1728.107700
 20
1562.496370
 30
0.0
 10
1736.855100
 20
1563.189770
 30
0.0
 10
1745.729600
 20
1563.583770
 30
0.0
 10
1754.735500
 20
1563.660870
 30
0.0
  0
SPLINE
  5
125
100
AcDbEntity
  8
0
 62
1
100
AcDbSpline
 70
8
 71
3
 72
8
 73
4
 74
0
 40
0
 40
0
 40
0
 40
0
 40
1
 40
1
 40
1
 40
1
 10
1754.735500
 20
1563.660870
 30
0.0
 10
1767.100500
 20
1563.766870
 30
0.0
 10
1778.825500
 20
1561.651970
 30
0.0
 10
1789.768900
 20
1557.503970
 30
0.0
  0
LWPOLYLINE
  5
126
100
AcDbEntity
  8
0
 62
1
100
AcDbPolyline
 90
4
 70
0
 10
1719.603800
 20
1561.721070
 30
0.0
 10
1719.603800
 20
1451.359570
 30
0.0
 10
1728.107700
 20
1451.359570
 30
0.0
 10
1728.107700
 20
1562.496370
 30
0.0
  0
SPLINE
  5
127
100
AcDbEntity
  8
0
 62
1
100
AcDbSpline
 70
8
 71
3
 72
8
 73
4
 74
0
 40
0
 40
0
 40
0
 40
0
 40
1
 40
1
 40
1
 40
1
 10
1798.148400
 20
1553.856970
 30
0.0
 10
1806.580300
 20
1549.697670
 30
0.0
 10
1814.487600
 20
1544.266470
 30
0.0
 10
1821.796700
 20
1537.658070
 30
0.0
  0
LWPOLYLINE
  5
128
100
AcDbEntity
  8
0
 62
1
100
AcDbPolyline
 90
4
 70
0
 10
1789.768900
 20
1557.503970
 30
0.0
 10
1760.121600
 20
1527.856770
 30
0.0
 10
1766.135100
 20
1521.843270
 30
0.0
 10
1798.148400
 20
1553.856970
 30
0.0
  0
SPLINE
  5
129
100
AcDbEntity
  8
0
 62
1
100
AcDbSpline
 70
8
 71
3
 72
8
 73
4
 74
0
 40
0
 40
0
 40
0
 40
0
 40
1
 40
1
 40
1
 40
1
 10
1827.892900
 20
1531.727470
 30
0.0
 10
1832.375100
 20
1527.047770
 30
0.0
 10
1836.601500
 20
1521.892870
 30
0.0
 10
1840.551300
 20
1516.286570
 30
0.0
  0
SPLINE
  5
12a
100
AcDbEntity
  8
0
 62
1
100
AcDbSpline
 70
8
 71
3
 72
8
 73
4
 74
0
 40
0
 40
0
 40
0
 40
0
 40
1
 40
1
 40
1
 40
1
 10
1840.551300
 20
1516.286570
 30
0.0
 10
1842.181800
 20
1513.972070
 30
0.0
 10
1843.766100
 20
1511.640870
 30
0.0
 10
1845.304400
 20
1509.291770
 30
0.0
  0
LWPOLYLINE
  5
12b
100
AcDbEntity
  8
0
 62
1
100
AcDbPolyline
 90
4
 70
0
 10
1821.796700
 20
1537.658070
 30
0.0
 10
1776.026800
 20
1491.887670
 30
0.0
 10
1782.040300
 20
1485.874170
 30
0.0
 10
1827.892900
 20
1531.727470
 30
0.0
  0
SPLINE
  5
12c
100
AcDbEntity
  8
0
 62
1
100
AcDbSpline
 70
8
 71
3
 72
8
 73
4
 74
0
 40
0
 40
0
 40
0
 40
0
 40
1
 40
1
 40
1
 40
1
 10
1849.951300
 20
1501.911770
 30
0.0
 10
1855.095600
 20
1493.406670
 30
0.0
 10
1859.652300
 20
1484.681370
 30
0.0
 10
1863.616500
 20
1475.731570
 30
0.0
  0
LWPOLYLINE
  5
12d
100
AcDbEntity
  8
0
 62
1
100
AcDbPolyline
 90
4
 70
0
 10
1845.304400
 20
1509.291770
 30
0.0
 10
1787.901700
 20
1451.891070
 30
0.0
 10
1793.915100
 20
1445.877670
 30
0.0
 10
1849.951300
 20
1501.911770
 30
0.0
  0
SPLINE
  5
12e
100
AcDbEntity
  8
0
 62
1
100
AcDbSpline
 70
8
 71
3
 72
8
 73
4
 74
0
 40
0
 40
0
 40
0
 40
0
 40
1
 40
1
 40
1
 40
1
 10
1867.166900
 20
1467.255170
 30
0.0
 10
1871.051800
 20
1457.425670
 30
0.0
 10
1874.243300
 20
1447.333770
 30
0.0
 10
1876.733900
 20
1436.974870
 30
0.0
  0
LWPOLYLINE
  5
12f
100
AcDbEntity
  8
0
 62
1
100
AcDbPolyline
 90
4
 70
0
 10
1863.616500
 20
1475.731570
 30
0.0
 10
1795.863100
 20
1407.977870
 30
0.0
 10
1801.876500
 20
1401.964470
 30
0.0
 10
1867.166900
 20
1467.255170
 30
0.0
  0
SPLINE
  5
130
100
AcDbEntity
  8
0
 62
1
100
AcDbSpline
 70
8
 71
3
 72
8
 73
4
 74
0
 40
0
 40
0
 40
0
 40
0
 40
1
 40
1
 40
1
 40
1
 10
1878.881700
 20
1427.095870
 30
0.0
 10
1881.130400
 20
1415.538170
 30
0.0
 10
1882.533000
 20
1403.657270
 30
0.0
 10
1883.080600
 20
1391.447670
 30
0.0
  0
LWPOLYLINE
  5
131
100
AcDbEntity
  8
0
 62
1
100
AcDbPolyline
 90
4
 70
0
 10
1876.733900
 20
1436.974870
 30
0.0
 10
1810.447900
 20
1370.689270
 30
0.0
 10
1816.461400
 20
1364.675770
 30
0.0
 10
1878.881700
 20
1427.095870
 30
0.0
  0
SPLINE
  5
132
100
AcDbEntity
  8
0
 62
1
100
AcDbSpline
 70
8
 71
3
 72
8
 73
4
 74
0
 40
0
 40
0
 40
0
 40
0
 40
1
 40
1
 40
1
 40
1
 10
1883.344000
 20
1379.684170
 30
0.0
 10
1883.344000
 20
1365.739070
 30
0.0
 10
1882.271600
 20
1351.379070
 30
0.0
 10
1880.100600
 20
1336.593570
 30
0.0
  0
LWPOLYLINE
  5
133
100
AcDbEntity
  8
0
 62
1
100
AcDbPolyline
 90
4
 70
0
 10
1883.080600
 20
1391.447670
 30
0.0
 10
1830.048700
 20
1338.415970
 30
0.0
 10
1836.062100
 20
1332.402570
 30
0.0
 10
1883.344000
 20
1379.684170
 30
0.0
  0
SPLINE
  5
134
100
AcDbEntity
  8
0
 62
1
100
AcDbSpline
 70
8
 71
3
 72
8
 73
4
 74
0
 40
0
 40
0
 40
0
 40
0
 40
1
 40
1
 40
1
 40
1
 10
1877.636000
 20
1322.020870
 30
0.0
 10
1872.805200
 20
1296.791170
 30
0.0
 10
1858.105300
 20
1278.906570
 30
0.0
 10
1828.644500
 20
1275.410870
 30
0.0
  0
SPLINE
  5
135
100
AcDbEntity
  8
0
 62
1
100
AcDbSpline
 70
8
 71
3
 72
8
 73
4
 74
0
 40
0
 40
0
 40
0
 40
0
 40
1
 40
1
 40
1
 40
1
 10
1828.644500
 20
1275.410870
 30
0.0
 10
1780.184800
 20
1269.661570
 30
0.0
 10
1742.738300
 20
1292.515970
 30
0.0
 10
1719.604200
 20
1340.222770
 30
0.0
  0
SPLINE
  5
136
100
AcDbEntity
  8
0
 62
1
100
AcDbSpline
 70
8
 71
3
 72
8
 73
4
 74
0
 40
0
 40
0
 40
0
 40
0
 40
1
 40
1
 40
1
 40
1
 10
1719.604200
 20
1340.222770
 30
0.0
 10
1692.711900
 20
1335.842370
 30
0.0
 10
1680.035400
 20
1322.658670
 30
0.0
 10
1676.226200
 20
1292.081970
 30
0.0
  0
SPLINE
  5
137
100
AcDbEntity
  8
0
 62
1
100
AcDbSpline
 70
8
 71
3
 72
8
 73
4
 74
0
 40
0
 40
0
 40
0
 40
0
 40
1
 40
1
 40
1
 40
1
 10
1676.226200
 20
1292.081970
 30
0.0
 10
1671.778000
 20
1256.375870
 30
0.0
 10
1672.151400
 20
1203.318970
 30
0.0
 10
1665.885700
 20
1184.682370
 30
0.0
  0
LWPOLYLINE
  5
138
100
AcDbEntity
  8
0
 62
1
100
AcDbPolyline
 90
5
 70
0
 10
1880.100600
 20
1336.593570
 30
0.0
 10
1852.698000
 20
1309.191070
 30
0.0
 10
1858.711500
 20
1303.177570
 30
0.0
 10
1877.654000
 20
1322.120170
 30
0.0
 10
1877.636000
 20
1322.020870
 30
0.0
  0
SPLINE
  5
139
100
AcDbEntity
  8
0
 62
1
100
AcDbSpline
 70
8
 71
3
 72
8
 73
4
 74
0
 40
0
 40
0
 40
0
 40
0
 40
1
 40
1
 40
1
 40
1
 10
1657.381400
 20
1184.681770
 30
0.0
 10
1656.471500
 20
1158.671070
 30
0.0
 10
1642.484800
 20
1140.182370
 30
0.0
 10
1629.035000
 20
1127.883370
 30
0.0
  0
LWPOLYLINE
  5
13a
100
AcDbEntity
  8
0
 62
1
100
AcDbPolyline
 90
5
 70
0
 10
1665.885700
 20
1184.682370
 30
0.0
 10
1665.885400
 20
1184.681470
 30
0.0
 10
1665.885400
 20
1238.783570
 30
0.0
 10
1657.381400
 20
1238.783570
 30
0.0
 10
1657.381400
 20
1184.681770
 30
0.0
  0
SPLINE
  5
13b
100
AcDbEntity
  8
0
 62
1
100
AcDbSpline
 70
8
 71
3
 72
8
 73
4
 74
0
 40
0
 40
0
 40
0
 40
0
 40
1
 40
1
 40
1
 40
1
 10
1620.531000
 20
1120.764470
 30
0.0
 10
1610.976000
 20
1113.409170
 30
0.0
 10
1603.337200
 20
1106.708070
 30
0.0
 10
1592.184600
 20
1101.438970
 30
0.0
  0
LWPOLYLINE
  5
13c
100
AcDbEntity
  8
0
 62
1
100
AcDbPolyline
 90
4
 70
0
 10
1629.035000
 20
1127.883370
 30
0.0
 10
1629.035000
 20
1225.250070
 30
0.0
 10
1620.531000
 20
1225.250070
 30
0.0
 10
1620.531000
 20
1120.764470
 30
0.0
  0
SPLINE
  5
13d
100
AcDbEntity
  8
0
 62
1
100
AcDbSpline
 70
8
 71
3
 72
8
 73
4
 74
0
 40
0
 40
0
 40
0
 40
0
 40
1
 40
1
 40
1
 40
1
 10
1583.680700
 20
1097.975670
 30
0.0
 10
1577.810400
 20
1095.934970
 30
0.0
 10
1570.979500
 20
1094.219170
 30
0.0
 10
1562.698000
 20
1092.897070
 30
0.0
  0
SPLINE
  5
13e
100
AcDbEntity
  8
0
 62
1
100
AcDbSpline
 70
8
 71
3
 72
8
 73
4
 74
0
 40
0
 40
0
 40
0
 40
0
 40
1
 40
1
 40
1
 40
1
 10
1562.698000
 20
1092.897070
 30
0.0
 10
1560.224500
 20
1092.502170
 30
0.0
 10
1557.771400
 20
1092.144170
 30
0.0
 10
1555.334200
 20
1091.813970
 30
0.0
  0
LWPOLYLINE
  5
13f
100
AcDbEntity
  8
0
 62
1
100
AcDbPolyline
 90
4
 70
0
 10
1592.184600
 20
1101.438970
 30
0.0
 10
1592.184600
 20
1232.280570
 30
0.0
 10
1583.680700
 20
1232.280570
 30
0.0
 10
1583.680700
 20
1097.975670
 30
0.0
  0
SPLINE
  5
140
100
AcDbEntity
  8
0
 62
1
100
AcDbSpline
 70
8
 71
3
 72
8
 73
4
 74
0
 40
0
 40
0
 40
0
 40
0
 40
1
 40
1
 40
1
 40
1
 10
1546.830300
 20
1090.778770
 30
0.0
 10
1537.101500
 20
1089.735270
 30
0.0
 10
1527.661300
 20
1089.196170
 30
0.0
 10
1518.483800
 20
1089.081370
 30
0.0
  0
LWPOLYLINE
  5
141
100
AcDbEntity
  8
0
 62
1
100
AcDbPolyline
 90
4
 70
0
 10
1555.334200
 20
1091.813970
 30
0.0
 10
1555.334200
 20
1247.107170
 30
0.0
 10
1546.830300
 20
1247.107170
 30
0.0
 10
1546.830300
 20
1090.778770
 30
0.0
  0
SPLINE
  5
142
100
AcDbEntity
  8
0
 62
1
100
AcDbSpline
 70
8
 71
3
 72
8
 73
4
 74
0
 40
0
 40
0
 40
0
 40
0
 40
1
 40
1
 40
1
 40
1
 10
1509.979900
 20
1089.096670
 30
0.0
 10
1464.998300
 20
1089.811870
 30
0.0
 10
1426.385300
 20
1100.536470
 30
0.0
 10
1391.117800
 20
1111.762170
 30
0.0
  0
SPLINE
  5
143
100
AcDbEntity
  8
0
 62
1
100
AcDbSpline
 70
8
 71
3
 72
8
 73
4
 74
0
 40
0
 40
0
 40
0
 40
0
 40
1
 40
1
 40
1
 40
1
 10
1391.117800
 20
1111.762170
 30
0.0
 10
1363.019900
 20
1120.704670
 30
0.0
 10
1334.188700
 20
1129.097770
 30
0.0
 10
1303.341600
 20
1130.471170
 30
0.0
  0
SPLINE
  5
144
100
AcDbEntity
  8
0
 62
1
100
AcDbSpline
 70
8
 71
3
 72
8
 73
4
 74
0
 40
0
 40
0
 40
0
 40
0
 40
1
 40
1
 40
1
 40
1
 10
1303.341600
 20
1130.471170
 30
0.0
 10
1282.269700
 20
1131.409470
 30
0.0
 10
1261.141300
 20
1129.424070
 30
0.0
 10
1240.060400
 20
1130.131570
 30
0.0
  0
SPLINE
  5
145
100
AcDbEntity
  8
0
 62
1
100
AcDbSpline
 70
8
 71
3
 72
8
 73
4
 74
0
 40
0
 40
0
 40
0
 40
0
 40
1
 40
1
 40
1
 40
1
 10
1240.060400
 20
1130.131570
 30
0.0
 10
1228.774500
 20
1130.510270
 30
0.0
 10
1221.717700
 20
1129.492870
 30
0.0
 10
1219.135600
 20
1124.516970
 30
0.0
  0
SPLINE
  5
146
100
AcDbEntity
  8
0
 62
1
100
AcDbSpline
 70
8
 71
3
 72
8
 73
4
 74
0
 40
0
 40
0
 40
0
 40
0
 40
1
 40
1
 40
1
 40
1
 10
1219.135600
 20
1124.516970
 30
0.0
 10
1215.646400
 20
1117.792670
 30
0.0
 10
1211.034700
 20
1112.735670
 30
0.0
 10
1200.422700
 20
1115.671470
 30
0.0
  0
SPLINE
  5
147
100
AcDbEntity
  8
0
 62
1
100
AcDbSpline
 70
8
 71
3
 72
8
 73
4
 74
0
 40
0
 40
0
 40
0
 40
0
 40
1
 40
1
 40
1
 40
1
 10
1200.422700
 20
1115.671470
 30
0.0
 10
1181.316000
 20
1120.957770
 30
0.0
 10
1167.439300
 20
1131.870370
 30
0.0
 10
1154.660100
 20
1140.040070
 30
0.0
  0
SPLINE
  5
148
100
AcDbEntity
  8
0
 62
1
100
AcDbSpline
 70
8
 71
3
 72
8
 73
4
 74
0
 40
0
 40
0
 40
0
 40
0
 40
1
 40
1
 40
1
 40
1
 10
1154.660100
 20
1140.040070
 30
0.0
 10
1153.170000
 20
1140.992470
 30
0.0
 10
1151.605500
 20
1141.801470
 30
0.0
 10
1149.979600
 20
1142.487770
 30
0.0
  0
LWPOLYLINE
  5
149
100
AcDbEntity
  8
0
 62
1
100
AcDbPolyline
 90
4
 70
0
 10
1518.483800
 20
1089.081370
 30
0.0
 10
1518.483800
 20
1264.672070
 30
0.0
 10
1509.979900
 20
1264.672070
 30
0.0
 10
1509.979900
 20
1089.096670
 30
0.0
  0
SPLINE
  5
14a
100
AcDbEntity
  8
0
 62
1
100
AcDbSpline
 70
8
 71
3
 72
8
 73
4
 74
0
 40
0
 40
0
 40
0
 40
0
 40
1
 40
1
 40
1
 40
1
 10
1141.475900
 20
1142.359070
 30
0.0
 10
1132.579700
 20
1143.974570
 30
0.0
 10
1122.650200
 20
1145.734570
 30
0.0
 10
1113.129500
 20
1144.987370
 30
0.0
  0
LWPOLYLINE
  5
14b
100
AcDbEntity
  8
0
 62
1
100
AcDbPolyline
 90
4
 70
0
 10
1149.979600
 20
1142.487770
 30
0.0
 10
1149.979900
 20
1263.089470
 30
0.0
 10
1141.475900
 20
1263.089470
 30
0.0
 10
1141.475900
 20
1142.359070
 30
0.0
  0
SPLINE
  5
14c
100
AcDbEntity
  8
0
 62
1
100
AcDbSpline
 70
8
 71
3
 72
8
 73
4
 74
0
 40
0
 40
0
 40
0
 40
0
 40
1
 40
1
 40
1
 40
1
 10
1104.625500
 20
1144.351570
 30
0.0
 10
1097.423000
 20
1143.892070
 30
0.0
 10
1081.723900
 20
1143.600070
 30
0.0
 10
1076.279100
 20
1144.987370
 30
0.0
  0
LWPOLYLINE
  5
14d
100
AcDbEntity
  8
0
 62
1
100
AcDbPolyline
 90
4
 70
0
 10
1113.129500
 20
1144.987370
 30
0.0
 10
1113.129500
 20
1254.640870
 30
0.0
 10
1104.625500
 20
1254.640870
 30
0.0
 10
1104.625500
 20
1144.351570
 30
0.0
  0
SPLINE
  5
14e
100
AcDbEntity
  8
0
 62
1
100
AcDbSpline
 70
8
 71
3
 72
8
 73
4
 74
0
 40
0
 40
0
 40
0
 40
0
 40
1
 40
1
 40
1
 40
1
 10
1067.775100
 20
1147.090670
 30
0.0
 10
1055.456900
 20
1150.047770
 30
0.0
 10
1046.673200
 20
1151.778670
 30
0.0
 10
1039.428700
 20
1153.667070
 30
0.0
  0
LWPOLYLINE
  5
14f
100
AcDbEntity
  8
0
 62
1
100
AcDbPolyline
 90
4
 70
0
 10
1076.279100
 20
1144.987370
 30
0.0
 10
1076.279100
 20
1259.551270
 30
0.0
 10
1067.775100
 20
1259.551270
 30
0.0
 10
1067.775100
 20
1147.090670
 30
0.0
  0
SPLINE
  5
150
100
AcDbEntity
  8
0
 62
1
100
AcDbSpline
 70
8
 71
3
 72
8
 73
4
 74
0
 40
0
 40
0
 40
0
 40
0
 40
1
 40
1
 40
1
 40
1
 10
1030.924700
 20
1156.248270
 30
0.0
 10
1026.651200
 20
1157.787170
 30
0.0
 10
1022.699500
 20
1159.666870
 30
0.0
 10
1018.446900
 20
1162.320670
 30
0.0
  0
SPLINE
  5
151
100
AcDbEntity
  8
0
 62
1
100
AcDbSpline
 70
8
 71
3
 72
8
 73
4
 74
0
 40
0
 40
0
 40
0
 40
0
 40
1
 40
1
 40
1
 40
1
 10
1018.446900
 20
1162.320670
 30
0.0
 10
1012.258600
 20
1166.182270
 30
0.0
 10
1007.004600
 20
1171.078270
 30
0.0
 10
1002.578300
 20
1176.710470
 30
0.0
  0
LWPOLYLINE
  5
152
100
AcDbEntity
  8
0
 62
1
100
AcDbPolyline
 90
4
 70
0
 10
1039.428700
 20
1153.667070
 30
0.0
 10
1039.428700
 20
1255.579370
 30
0.0
 10
1030.924700
 20
1255.579370
 30
0.0
 10
1030.924700
 20
1156.248270
 30
0.0
  0
SPLINE
  5
153
100
AcDbEntity
  8
0
 62
1
100
AcDbSpline
 70
8
 71
3
 72
8
 73
4
 74
0
 40
0
 40
0
 40
0
 40
0
 40
1
 40
1
 40
1
 40
1
 10
994.074400
 20
1190.309970
 30
0.0
 10
982.679100
 20
1213.307970
 30
0.0
 10
980.556200
 20
1242.702670
 30
0.0
 10
983.358300
 20
1265.874770
 30
0.0
  0
SPLINE
  5
154
100
AcDbEntity
  8
0
 62
1
100
AcDbSpline
 70
8
 71
3
 72
8
 73
4
 74
0
 40
0
 40
0
 40
0
 40
0
 40
1
 40
1
 40
1
 40
1
 10
983.358300
 20
1265.874770
 30
0.0
 10
987.399900
 20
1299.298070
 30
0.0
 10
997.379300
 20
1325.965870
 30
0.0
 10
1021.454800
 20
1348.886270
 30
0.0
  0
SPLINE
  5
155
100
AcDbEntity
  8
0
 62
1
100
AcDbSpline
 70
8
 71
3
 72
8
 73
4
 74
0
 40
0
 40
0
 40
0
 40
0
 40
1
 40
1
 40
1
 40
1
 10
1021.454800
 20
1348.886270
 30
0.0
 10
1039.428100
 20
1369.040570
 30
0.0
 10
1073.375000
 20
1378.070370
 30
0.0
 10
1104.625800
 20
1379.534170
 30
0.0
  0
LWPOLYLINE
  5
156
100
AcDbEntity
  8
0
 62
1
100
AcDbPolyline
 90
4
 70
0
 10
1002.578300
 20
1176.710470
 30
0.0
 10
1002.578300
 20
1243.054470
 30
0.0
 10
994.074400
 20
1243.054470
 30
0.0
 10
994.074400
 20
1190.309970
 30
0.0
  0
SPLINE
  5
157
100
AcDbEntity
  8
0
 62
1
100
AcDbSpline
 70
8
 71
3
 72
8
 73
4
 74
0
 40
0
 40
0
 40
0
 40
0
 40
1
 40
1
 40
1
 40
1
 10
751.087600
 20
1495.168970
 30
0.0
 10
846.576000
 20
1502.086970
 30
0.0
 10
942.040600
 20
1509.341070
 30
0.0
 10
1037.552900
 20
1515.921770
 30
0.0
  0
SPLINE
  5
158
100
AcDbEntity
  8
0
 62
1
100
AcDbSpline
 70
8
 71
3
 72
8
 73
4
 74
0
 40
0
 40
0
 40
0
 40
0
 40
1
 40
1
 40
1
 40
1
 10
1037.552900
 20
1515.921770
 30
0.0
 10
1059.879100
 20
1517.459770
 30
0.0
 10
1082.281900
 20
1517.994970
 30
0.0
 10
1104.625400
 20
1519.255270
 30
0.0
  0
LWPOLYLINE
  5
159
100
AcDbEntity
  8
0
 62
1
100
AcDbPolyline
 90
2
 70
0
 10
1104.625800
 20
1379.534170
 30
0.0
 10
1104.625400
 20
1379.534170
 30
0.0
  0
SPLINE
  5
15a
100
AcDbEntity
  8
0
 62
1
100
AcDbSpline
 70
8
 71
3
 72
8
 73
4
 74
0
 40
0
 40
0
 40
0
 40
0
 40
1
 40
1
 40
1
 40
1
 10
1002.577900
 20
1449.125570
 30
0.0
 10
1002.407200
 20
1458.142070
 30
0.0
 10
1006.646200
 20
1468.886470
 30
0.0
 10
1012.555300
 20
1477.819870
 30
0.0
  0
SPLINE
  5
15b
100
AcDbEntity
  8
0
 62
1
100
AcDbSpline
 70
8
 71
3
 72
8
 73
4
 74
0
 40
0
 40
0
 40
0
 40
0
 40
1
 40
1
 40
1
 40
1
 10
1012.555300
 20
1477.819870
 30
0.0
 10
1014.022800
 20
1480.038570
 30
0.0
 10
1014.153200
 20
1482.688370
 30
0.0
 10
1012.910500
 20
1485.040270
 30
0.0
  0
SPLINE
  5
15c
100
AcDbEntity
  8
0
 62
1
100
AcDbSpline
 70
8
 71
3
 72
8
 73
4
 74
0
 40
0
 40
0
 40
0
 40
0
 40
1
 40
1
 40
1
 40
1
 10
1012.910500
 20
1485.040270
 30
0.0
 10
1011.667700
 20
1487.392170
 30
0.0
 10
1009.405400
 20
1488.777770
 30
0.0
 10
1006.745700
 20
1488.815470
 30
0.0
  0
SPLINE
  5
15d
100
AcDbEntity
  8
0
 62
1
100
AcDbSpline
 70
8
 71
3
 72
8
 73
4
 74
0
 40
0
 40
0
 40
0
 40
0
 40
1
 40
1
 40
1
 40
1
 10
1006.745700
 20
1488.815470
 30
0.0
 10
919.970600
 20
1490.050170
 30
0.0
 10
838.720300
 20
1491.284970
 30
0.0
 10
751.286000
 20
1492.520070
 30
0.0
  0
SPLINE
  5
15e
100
AcDbEntity
  8
0
 62
1
100
AcDbSpline
 70
8
 71
3
 72
8
 73
4
 74
0
 40
0
 40
0
 40
0
 40
0
 40
1
 40
1
 40
1
 40
1
 10
751.286000
 20
1492.520070
 30
0.0
 10
748.895200
 20
1492.638270
 30
0.0
 10
749.225500
 20
1494.924070
 30
0.0
 10
751.087600
 20
1495.168970
 30
0.0
  0
LWPOLYLINE
  5
15f
100
AcDbEntity
  8
0
 62
1
100
AcDbPolyline
 90
11
 70
0
 10
1104.625400
 20
1519.255270
 30
0.0
 10
1104.625100
 20
1449.125570
 30
0.0
 10
1076.278700
 20
1449.125570
 30
0.0
 10
1076.278700
 20
1481.480770
 30
0.0
 10
1067.774700
 20
1481.480770
 30
0.0
 10
1067.774700
 20
1449.125570
 30
0.0
 10
1039.428300
 20
1449.125570
 30
0.0
 10
1039.428300
 20
1473.169370
 30
0.0
 10
1030.924300
 20
1473.169370
 30
0.0
 10
1030.924300
 20
1449.125570
 30
0.0
 10
1002.577900
 20
1449.125570
 30
0.0
  0
SPLINE
  5
160
100
AcDbEntity
  8
0
 62
1
100
AcDbSpline
 70
8
 71
3
 72
8
 73
4
 74
0
 40
0
 40
0
 40
0
 40
0
 40
1
 40
1
 40
1
 40
1
 10
1603.397500
 20
523.056470
 30
0.0
 10
1589.063800
 20
528.332370
 30
0.0
 10
1592.828500
 20
556.435870
 30
0.0
 10
1580.897500
 20
571.431670
 30
0.0
  0
SPLINE
  5
161
100
AcDbEntity
  8
0
 62
1
100
AcDbSpline
 70
8
 71
3
 72
8
 73
4
 74
0
 40
0
 40
0
 40
0
 40
0
 40
1
 40
1
 40
1
 40
1
 10
1580.897500
 20
571.431670
 30
0.0
 10
1562.707600
 20
590.861770
 30
0.0
 10
1568.051700
 20
594.994070
 30
0.0
 10
1573.772300
 20
605.181870
 30
0.0
  0
SPLINE
  5
162
100
AcDbEntity
  8
0
 62
1
100
AcDbSpline
 70
8
 71
3
 72
8
 73
4
 74
0
 40
0
 40
0
 40
0
 40
0
 40
1
 40
1
 40
1
 40
1
 10
1573.772300
 20
605.181870
 30
0.0
 10
1583.405900
 20
622.337670
 30
0.0
 10
1581.239100
 20
644.010570
 30
0.0
 10
1581.646400
 20
663.680970
 30
0.0
  0
SPLINE
  5
163
100
AcDbEntity
  8
0
 62
1
100
AcDbSpline
 70
8
 71
3
 72
8
 73
4
 74
0
 40
0
 40
0
 40
0
 40
0
 40
1
 40
1
 40
1
 40
1
 10
1581.646400
 20
663.680970
 30
0.0
 10
1582.417700
 20
700.906370
 30
0.0
 10
1576.388100
 20
728.782570
 30
0.0
 10
1572.841400
 20
759.897070
 30
0.0
  0
SPLINE
  5
164
100
AcDbEntity
  8
0
 62
1
100
AcDbSpline
 70
8
 71
3
 72
8
 73
4
 74
0
 40
0
 40
0
 40
0
 40
0
 40
1
 40
1
 40
1
 40
1
 10
1572.841400
 20
759.897070
 30
0.0
 10
1567.680400
 20
764.385170
 30
0.0
 10
1566.229000
 20
766.255170
 30
0.0
 10
1565.890000
 20
772.788170
 30
0.0
  0
SPLINE
  5
165
100
AcDbEntity
  8
0
 62
1
100
AcDbSpline
 70
8
 71
3
 72
8
 73
4
 74
0
 40
0
 40
0
 40
0
 40
0
 40
1
 40
1
 40
1
 40
1
 10
1565.890000
 20
772.788170
 30
0.0
 10
1565.424000
 20
781.764370
 30
0.0
 10
1571.530400
 20
789.627170
 30
0.0
 10
1571.070900
 20
797.151370
 30
0.0
  0
SPLINE
  5
166
100
AcDbEntity
  8
0
 62
1
100
AcDbSpline
 70
8
 71
3
 72
8
 73
4
 74
0
 40
0
 40
0
 40
0
 40
0
 40
1
 40
1
 40
1
 40
1
 10
1571.070900
 20
797.151370
 30
0.0
 10
1569.977600
 20
815.053070
 30
0.0
 10
1572.460200
 20
833.399170
 30
0.0
 10
1580.187400
 20
848.086270
 30
0.0
  0
LWPOLYLINE
  5
167
100
AcDbEntity
  8
0
 62
1
100
AcDbPolyline
 90
1
 70
1
 10
751.087600
 20
1495.168970
 30
0.0
  0
SPLINE
  5
168
100
AcDbEntity
  8
0
 62
1
100
AcDbSpline
 70
8
 71
3
 72
8
 73
4
 74
0
 40
0
 40
0
 40
0
 40
0
 40
1
 40
1
 40
1
 40
1
 10
1588.691300
 20
860.302470
 30
0.0
 10
1595.692300
 20
867.963370
 30
0.0
 10
1604.999300
 20
873.658170
 30
0.0
 10
1617.037800
 20
876.344370
 30
0.0
  0
LWPOLYLINE
  5
169
100
AcDbEntity
  8
0
 62
1
100
AcDbPolyline
 90
4
 70
0
 10
1580.187400
 20
848.086270
 30
0.0
 10
1580.187400
 20
810.100370
 30
0.0
 10
1588.691300
 20
810.100370
 30
0.0
 10
1588.691300
 20
860.302470
 30
0.0
  0
SPLINE
  5
16a
100
AcDbEntity
  8
0
 62
1
100
AcDbSpline
 70
8
 71
3
 72
8
 73
4
 74
0
 40
0
 40
0
 40
0
 40
0
 40
1
 40
1
 40
1
 40
1
 10
1625.541700
 20
877.683370
 30
0.0
 10
1630.174700
 20
878.132970
 30
0.0
 10
1635.149200
 20
878.190270
 30
0.0
 10
1640.488500
 20
877.805870
 30
0.0
  0
SPLINE
  5
16b
100
AcDbEntity
  8
0
 62
1
100
AcDbSpline
 70
8
 71
3
 72
8
 73
4
 74
0
 40
0
 40
0
 40
0
 40
0
 40
1
 40
1
 40
1
 40
1
 10
1640.488500
 20
877.805870
 30
0.0
 10
1645.268000
 20
877.461770
 30
0.0
 10
1649.738300
 20
876.692670
 30
0.0
 10
1653.888200
 20
875.512670
 30
0.0
  0
LWPOLYLINE
  5
16c
100
AcDbEntity
  8
0
 62
1
100
AcDbPolyline
 90
4
 70
0
 10
1617.037800
 20
876.344370
 30
0.0
 10
1617.037800
 20
818.792270
 30
0.0
 10
1625.541700
 20
818.792270
 30
0.0
 10
1625.541700
 20
877.683370
 30
0.0
  0
SPLINE
  5
16d
100
AcDbEntity
  8
0
 62
1
100
AcDbSpline
 70
8
 71
3
 72
8
 73
4
 74
0
 40
0
 40
0
 40
0
 40
0
 40
1
 40
1
 40
1
 40
1
 10
1662.392100
 20
872.306970
 30
0.0
 10
1680.679000
 20
863.498270
 30
0.0
 10
1690.738600
 20
844.670270
 30
0.0
 10
1690.738600
 20
817.055970
 30
0.0
  0
SPLINE
  5
16e
100
AcDbEntity
  8
0
 62
1
100
AcDbSpline
 70
8
 71
3
 72
8
 73
4
 74
0
 40
0
 40
0
 40
0
 40
0
 40
1
 40
1
 40
1
 40
1
 10
1690.738600
 20
817.055970
 30
0.0
 10
1690.738600
 20
803.701970
 30
0.0
 10
1682.561200
 20
791.348070
 30
0.0
 10
1679.659900
 20
777.689270
 30
0.0
  0
SPLINE
  5
16f
100
AcDbEntity
  8
0
 62
1
100
AcDbSpline
 70
8
 71
3
 72
8
 73
4
 74
0
 40
0
 40
0
 40
0
 40
0
 40
1
 40
1
 40
1
 40
1
 10
1679.659900
 20
777.689270
 30
0.0
 10
1678.835600
 20
773.808970
 30
0.0
 10
1677.365600
 20
767.040670
 30
0.0
 10
1675.764600
 20
759.897070
 30
0.0
  0
LWPOLYLINE
  5
170
100
AcDbEntity
  8
0
 62
1
100
AcDbPolyline
 90
4
 70
0
 10
1653.888200
 20
875.512670
 30
0.0
 10
1653.888200
 20
817.706870
 30
0.0
 10
1662.392100
 20
817.706870
 30
0.0
 10
1662.392100
 20
872.306970
 30
0.0
  0
SPLINE
  5
171
100
AcDbEntity
  8
0
 62
1
100
AcDbSpline
 70
8
 71
3
 72
8
 73
4
 74
0
 40
0
 40
0
 40
0
 40
0
 40
1
 40
1
 40
1
 40
1
 10
1673.834500
 20
751.393170
 30
0.0
 10
1672.435300
 20
745.318770
 30
0.0
 10
1671.090800
 20
739.703370
 30
0.0
 10
1670.131300
 20
736.156670
 30
0.0
  0
SPLINE
  5
172
100
AcDbEntity
  8
0
 62
1
100
AcDbSpline
 70
8
 71
3
 72
8
 73
4
 74
0
 40
0
 40
0
 40
0
 40
0
 40
1
 40
1
 40
1
 40
1
 10
1670.131300
 20
736.156670
 30
0.0
 10
1668.889700
 20
731.567070
 30
0.0
 10
1667.676800
 20
727.225770
 30
0.0
 10
1666.482800
 20
723.046670
 30
0.0
  0
LWPOLYLINE
  5
173
100
AcDbEntity
  8
0
 62
1
100
AcDbPolyline
 90
4
 70
0
 10
1675.764600
 20
759.897070
 30
0.0
 10
1624.819500
 20
759.897070
 30
0.0
 10
1624.819500
 20
751.393170
 30
0.0
 10
1673.834500
 20
751.393170
 30
0.0
  0
SPLINE
  5
174
100
AcDbEntity
  8
0
 62
1
100
AcDbSpline
 70
8
 71
3
 72
8
 73
4
 74
0
 40
0
 40
0
 40
0
 40
0
 40
1
 40
1
 40
1
 40
1
 10
1664.016900
 20
714.542770
 30
0.0
 10
1661.179700
 20
704.884870
 30
0.0
 10
1658.410300
 20
695.835470
 30
0.0
 10
1655.564600
 20
686.196270
 30
0.0
  0
LWPOLYLINE
  5
175
100
AcDbEntity
  8
0
 62
1
100
AcDbPolyline
 90
4
 70
0
 10
1666.482800
 20
723.046670
 30
0.0
 10
1622.645300
 20
723.046670
 30
0.0
 10
1622.645300
 20
714.542770
 30
0.0
 10
1664.016900
 20
714.542770
 30
0.0
  0
SPLINE
  5
176
100
AcDbEntity
  8
0
 62
1
100
AcDbSpline
 70
8
 71
3
 72
8
 73
4
 74
0
 40
0
 40
0
 40
0
 40
0
 40
1
 40
1
 40
1
 40
1
 10
1653.083400
 20
677.692370
 30
0.0
 10
1650.626100
 20
669.157270
 30
0.0
 10
1648.084300
 20
659.951470
 30
0.0
 10
1645.370100
 20
649.345870
 30
0.0
  0
LWPOLYLINE
  5
177
100
AcDbEntity
  8
0
 62
1
100
AcDbPolyline
 90
4
 70
0
 10
1655.564600
 20
686.196270
 30
0.0
 10
1618.596000
 20
686.196270
 30
0.0
 10
1618.596000
 20
677.692370
 30
0.0
 10
1653.083400
 20
677.692370
 30
0.0
  0
SPLINE
  5
178
100
AcDbEntity
  8
0
 62
1
100
AcDbSpline
 70
8
 71
3
 72
8
 73
4
 74
0
 40
0
 40
0
 40
0
 40
0
 40
1
 40
1
 40
1
 40
1
 10
1643.233000
 20
640.841970
 30
0.0
 10
1641.877200
 20
635.351770
 30
0.0
 10
1640.476600
 20
629.494070
 30
0.0
 10
1639.020200
 20
623.180670
 30
0.0
  0
SPLINE
  5
179
100
AcDbEntity
  8
0
 62
1
100
AcDbSpline
 70
8
 71
3
 72
8
 73
4
 74
0
 40
0
 40
0
 40
0
 40
0
 40
1
 40
1
 40
1
 40
1
 10
1639.020200
 20
623.180670
 30
0.0
 10
1638.170600
 20
619.497670
 30
0.0
 10
1637.462000
 20
615.953170
 30
0.0
 10
1636.876300
 20
612.495470
 30
0.0
  0
LWPOLYLINE
  5
17a
100
AcDbEntity
  8
0
 62
1
100
AcDbPolyline
 90
4
 70
0
 10
1645.370100
 20
649.345870
 30
0.0
 10
1613.440100
 20
649.345870
 30
0.0
 10
1613.440100
 20
640.841970
 30
0.0
 10
1643.233000
 20
640.841970
 30
0.0
  0
SPLINE
  5
17b
100
AcDbEntity
  8
0
 62
1
100
AcDbSpline
 70
8
 71
3
 72
8
 73
4
 74
0
 40
0
 40
0
 40
0
 40
0
 40
1
 40
1
 40
1
 40
1
 10
1635.656900
 20
603.991570
 30
0.0
 10
1635.072900
 20
599.009670
 30
0.0
 10
1634.728800
 20
594.125570
 30
0.0
 10
1634.567000
 20
589.170670
 30
0.0
  0
SPLINE
  5
17c
100
AcDbEntity
  8
0
 62
1
100
AcDbSpline
 70
8
 71
3
 72
8
 73
4
 74
0
 40
0
 40
0
 40
0
 40
0
 40
1
 40
1
 40
1
 40
1
 10
1634.567000
 20
589.170670
 30
0.0
 10
1634.422700
 20
584.758470
 30
0.0
 10
1634.422700
 20
580.289370
 30
0.0
 10
1634.526000
 20
575.645070
 30
0.0
  0
LWPOLYLINE
  5
17d
100
AcDbEntity
  8
0
 62
1
100
AcDbPolyline
 90
4
 70
0
 10
1636.876300
 20
612.495470
 30
0.0
 10
1606.975700
 20
612.495470
 30
0.0
 10
1606.975700
 20
603.991570
 30
0.0
 10
1635.656900
 20
603.991570
 30
0.0
  0
SPLINE
  5
17e
100
AcDbEntity
  8
0
 62
1
100
AcDbSpline
 70
8
 71
3
 72
8
 73
4
 74
0
 40
0
 40
0
 40
0
 40
0
 40
1
 40
1
 40
1
 40
1
 10
1634.811400
 20
567.141170
 30
0.0
 10
1635.004400
 20
562.673470
 30
0.0
 10
1635.263200
 20
557.999970
 30
0.0
 10
1635.556600
 20
553.030270
 30
0.0
  0
SPLINE
  5
17f
100
AcDbEntity
  8
0
 62
1
100
AcDbSpline
 70
8
 71
3
 72
8
 73
4
 74
0
 40
0
 40
0
 40
0
 40
0
 40
1
 40
1
 40
1
 40
1
 10
1635.556600
 20
553.030270
 30
0.0
 10
1644.213100
 20
553.109370
 30
0.0
 10
1663.907600
 20
552.632070
 30
0.0
 10
1674.226900
 20
543.482970
 30
0.0
  0
SPLINE
  5
180
100
AcDbEntity
  8
0
 62
1
100
AcDbSpline
 70
8
 71
3
 72
8
 73
4
 74
0
 40
0
 40
0
 40
0
 40
0
 40
1
 40
1
 40
1
 40
1
 10
1674.226900
 20
543.482970
 30
0.0
 10
1675.774900
 20
542.110370
 30
0.0
 10
1677.111400
 20
540.541970
 30
0.0
 10
1678.264800
 20
538.794670
 30
0.0
  0
LWPOLYLINE
  5
181
100
AcDbEntity
  8
0
 62
1
100
AcDbPolyline
 90
4
 70
0
 10
1634.526000
 20
575.645070
 30
0.0
 10
1609.272700
 20
575.645070
 30
0.0
 10
1609.272700
 20
567.141170
 30
0.0
 10
1634.811400
 20
567.141170
 30
0.0
  0
SPLINE
  5
182
100
AcDbEntity
  8
0
 62
1
100
AcDbSpline
 70
8
 71
3
 72
8
 73
4
 74
0
 40
0
 40
0
 40
0
 40
0
 40
1
 40
1
 40
1
 40
1
 10
1682.152000
 20
530.290770
 30
0.0
 10
1683.525600
 20
525.832470
 30
0.0
 10
1684.318200
 20
520.743670
 30
0.0
 10
1684.749400
 20
515.150070
 30
0.0
  0
SPLINE
  5
183
100
AcDbEntity
  8
0
 62
1
100
AcDbSpline
 70
8
 71
3
 72
8
 73
4
 74
0
 40
0
 40
0
 40
0
 40
0
 40
1
 40
1
 40
1
 40
1
 10
1684.749400
 20
515.150070
 30
0.0
 10
1684.938100
 20
512.700670
 30
0.0
 10
1684.179600
 20
510.521370
 30
0.0
 10
1682.510800
 20
508.718870
 30
0.0
  0
SPLINE
  5
184
100
AcDbEntity
  8
0
 62
1
100
AcDbSpline
 70
8
 71
3
 72
8
 73
4
 74
0
 40
0
 40
0
 40
0
 40
0
 40
1
 40
1
 40
1
 40
1
 10
1682.510800
 20
508.718870
 30
0.0
 10
1680.841800
 20
506.915970
 30
0.0
 10
1678.727400
 20
505.992170
 30
0.0
 10
1676.270700
 20
505.992170
 30
0.0
  0
LWPOLYLINE
  5
185
100
AcDbEntity
  8
0
 62
1
100
AcDbPolyline
 90
4
 70
0
 10
1678.264800
 20
538.794670
 30
0.0
 10
1639.053200
 20
538.794670
 30
0.0
 10
1639.053200
 20
530.290770
 30
0.0
 10
1682.152000
 20
530.290770
 30
0.0
  0
SPLINE
  5
186
100
AcDbEntity
  8
0
 62
1
100
AcDbSpline
 70
8
 71
3
 72
8
 73
4
 74
0
 40
0
 40
0
 40
0
 40
0
 40
1
 40
1
 40
1
 40
1
 10
1614.141500
 20
505.992170
 30
0.0
 10
1613.030600
 20
505.992170
 30
0.0
 10
1612.076100
 20
506.523670
 30
0.0
 10
1611.491100
 20
507.467870
 30
0.0
  0
SPLINE
  5
187
100
AcDbEntity
  8
0
 62
1
100
AcDbSpline
 70
8
 71
3
 72
8
 73
4
 74
0
 40
0
 40
0
 40
0
 40
0
 40
1
 40
1
 40
1
 40
1
 10
1611.491100
 20
507.467870
 30
0.0
 10
1610.045100
 20
509.801670
 30
0.0
 10
1615.039800
 20
517.236070
 30
0.0
 10
1603.397600
 20
523.056470
 30
0.0
  0
LWPOLYLINE
  5
188
100
AcDbEntity
  8
0
 62
1
100
AcDbPolyline
 90
2
 70
0
 10
1676.270700
 20
505.992170
 30
0.0
 10
1614.141500
 20
505.992170
 30
0.0
  0
SPLINE
  5
189
100
AcDbEntity
  8
0
 62
1
100
AcDbSpline
 70
8
 71
3
 72
8
 73
4
 74
0
 40
0
 40
0
 40
0
 40
0
 40
1
 40
1
 40
1
 40
1
 10
1603.397500
 20
2681.639470
 30
0.0
 10
1589.063800
 20
2676.363570
 30
0.0
 10
1592.828500
 20
2648.260070
 30
0.0
 10
1580.897500
 20
2633.264270
 30
0.0
  0
SPLINE
  5
18a
100
AcDbEntity
  8
0
 62
1
100
AcDbSpline
 70
8
 71
3
 72
8
 73
4
 74
0
 40
0
 40
0
 40
0
 40
0
 40
1
 40
1
 40
1
 40
1
 10
1580.897500
 20
2633.264270
 30
0.0
 10
1562.707600
 20
2613.834170
 30
0.0
 10
1568.051700
 20
2609.701770
 30
0.0
 10
1573.772300
 20
2599.514070
 30
0.0
  0
SPLINE
  5
18b
100
AcDbEntity
  8
0
 62
1
100
AcDbSpline
 70
8
 71
3
 72
8
 73
4
 74
0
 40
0
 40
0
 40
0
 40
0
 40
1
 40
1
 40
1
 40
1
 10
1573.772300
 20
2599.514070
 30
0.0
 10
1583.405900
 20
2582.358270
 30
0.0
 10
1581.239100
 20
2560.685370
 30
0.0
 10
1581.646400
 20
2541.014970
 30
0.0
  0
SPLINE
  5
18c
100
AcDbEntity
  8
0
 62
1
100
AcDbSpline
 70
8
 71
3
 72
8
 73
4
 74
0
 40
0
 40
0
 40
0
 40
0
 40
1
 40
1
 40
1
 40
1
 10
1581.646400
 20
2541.014970
 30
0.0
 10
1582.417700
 20
2503.789470
 30
0.0
 10
1576.388100
 20
2475.913370
 30
0.0
 10
1572.841400
 20
2444.798870
 30
0.0
  0
SPLINE
  5
18d
100
AcDbEntity
  8
0
 62
1
100
AcDbSpline
 70
8
 71
3
 72
8
 73
4
 74
0
 40
0
 40
0
 40
0
 40
0
 40
1
 40
1
 40
1
 40
1
 10
1572.841400
 20
2444.798870
 30
0.0
 10
1567.680400
 20
2440.310770
 30
0.0
 10
1566.229000
 20
2438.440770
 30
0.0
 10
1565.890000
 20
2431.907770
 30
0.0
  0
SPLINE
  5
18e
100
AcDbEntity
  8
0
 62
1
100
AcDbSpline
 70
8
 71
3
 72
8
 73
4
 74
0
 40
0
 40
0
 40
0
 40
0
 40
1
 40
1
 40
1
 40
1
 10
1565.890000
 20
2431.907770
 30
0.0
 10
1565.424000
 20
2422.931570
 30
0.0
 10
1571.530400
 20
2415.068770
 30
0.0
 10
1571.070900
 20
2407.544470
 30
0.0
  0
SPLINE
  5
18f
100
AcDbEntity
  8
0
 62
1
100
AcDbSpline
 70
8
 71
3
 72
8
 73
4
 74
0
 40
0
 40
0
 40
0
 40
0
 40
1
 40
1
 40
1
 40
1
 10
1571.070900
 20
2407.544470
 30
0.0
 10
1569.977600
 20
2389.642870
 30
0.0
 10
1572.460200
 20
2371.296770
 30
0.0
 10
1580.187400
 20
2356.609570
 30
0.0
  0
LWPOLYLINE
  5
190
100
AcDbEntity
  8
0
 62
1
100
AcDbPolyline
 90
2
 70
0
 10
1603.397600
 20
523.056470
 30
0.0
 10
1603.397500
 20
523.056470
 30
0.0
  0
SPLINE
  5
191
100
AcDbEntity
  8
0
 62
1
100
AcDbSpline
 70
8
 71
3
 72
8
 73
4
 74
0
 40
0
 40
0
 40
0
 40
0
 40
1
 40
1
 40
1
 40
1
 10
1588.691300
 20
2344.393470
 30
0.0
 10
1595.692300
 20
2336.732470
 30
0.0
 10
1604.999300
 20
2331.037670
 30
0.0
 10
1617.037800
 20
2328.351570
 30
0.0
  0
LWPOLYLINE
  5
192
100
AcDbEntity
  8
0
 62
1
100
AcDbPolyline
 90
4
 70
0
 10
1580.187400
 20
2356.609570
 30
0.0
 10
1580.187400
 20
2394.595570
 30
0.0
 10
1588.691300
 20
2394.595570
 30
0.0
 10
1588.691300
 20
2344.393470
 30
0.0
  0
SPLINE
  5
193
100
AcDbEntity
  8
0
 62
1
100
AcDbSpline
 70
8
 71
3
 72
8
 73
4
 74
0
 40
0
 40
0
 40
0
 40
0
 40
1
 40
1
 40
1
 40
1
 10
1625.541700
 20
2327.012470
 30
0.0
 10
1630.174700
 20
2326.562970
 30
0.0
 10
1635.149200
 20
2326.505670
 30
0.0
 10
1640.488500
 20
2326.890070
 30
0.0
  0
SPLINE
  5
194
100
AcDbEntity
  8
0
 62
1
100
AcDbSpline
 70
8
 71
3
 72
8
 73
4
 74
0
 40
0
 40
0
 40
0
 40
0
 40
1
 40
1
 40
1
 40
1
 10
1640.488500
 20
2326.890070
 30
0.0
 10
1645.268000
 20
2327.234170
 30
0.0
 10
1649.738300
 20
2328.003170
 30
0.0
 10
1653.888200
 20
2329.183270
 30
0.0
  0
LWPOLYLINE
  5
195
100
AcDbEntity
  8
0
 62
1
100
AcDbPolyline
 90
4
 70
0
 10
1617.037800
 20
2328.351570
 30
0.0
 10
1617.037800
 20
2385.903670
 30
0.0
 10
1625.541700
 20
2385.903670
 30
0.0
 10
1625.541700
 20
2327.012470
 30
0.0
  0
SPLINE
  5
196
100
AcDbEntity
  8
0
 62
1
100
AcDbSpline
 70
8
 71
3
 72
8
 73
4
 74
0
 40
0
 40
0
 40
0
 40
0
 40
1
 40
1
 40
1
 40
1
 10
1662.392100
 20
2332.388970
 30
0.0
 10
1680.679000
 20
2341.197670
 30
0.0
 10
1690.738600
 20
2360.025670
 30
0.0
 10
1690.738600
 20
2387.639870
 30
0.0
  0
SPLINE
  5
197
100
AcDbEntity
  8
0
 62
1
100
AcDbSpline
 70
8
 71
3
 72
8
 73
4
 74
0
 40
0
 40
0
 40
0
 40
0
 40
1
 40
1
 40
1
 40
1
 10
1690.738600
 20
2387.639870
 30
0.0
 10
1690.738600
 20
2400.993970
 30
0.0
 10
1682.561200
 20
2413.347870
 30
0.0
 10
1679.659900
 20
2427.006670
 30
0.0
  0
SPLINE
  5
198
100
AcDbEntity
  8
0
 62
1
100
AcDbSpline
 70
8
 71
3
 72
8
 73
4
 74
0
 40
0
 40
0
 40
0
 40
0
 40
1
 40
1
 40
1
 40
1
 10
1679.659900
 20
2427.006670
 30
0.0
 10
1678.835600
 20
2430.886970
 30
0.0
 10
1677.365600
 20
2437.655270
 30
0.0
 10
1675.764600
 20
2444.798870
 30
0.0
  0
LWPOLYLINE
  5
199
100
AcDbEntity
  8
0
 62
1
100
AcDbPolyline
 90
4
 70
0
 10
1653.888200
 20
2329.183270
 30
0.0
 10
1653.888200
 20
2386.989070
 30
0.0
 10
1662.392100
 20
2386.989070
 30
0.0
 10
1662.392100
 20
2332.388970
 30
0.0
  0
SPLINE
  5
19a
100
AcDbEntity
  8
0
 62
1
100
AcDbSpline
 70
8
 71
3
 72
8
 73
4
 74
0
 40
0
 40
0
 40
0
 40
0
 40
1
 40
1
 40
1
 40
1
 10
1673.834500
 20
2453.302770
 30
0.0
 10
1672.435300
 20
2459.377170
 30
0.0
 10
1671.090800
 20
2464.992570
 30
0.0
 10
1670.131300
 20
2468.539270
 30
0.0
  0
SPLINE
  5
19b
100
AcDbEntity
  8
0
 62
1
100
AcDbSpline
 70
8
 71
3
 72
8
 73
4
 74
0
 40
0
 40
0
 40
0
 40
0
 40
1
 40
1
 40
1
 40
1
 10
1670.131300
 20
2468.539270
 30
0.0
 10
1668.889700
 20
2473.128870
 30
0.0
 10
1667.676800
 20
2477.470070
 30
0.0
 10
1666.482800
 20
2481.649270
 30
0.0
  0
LWPOLYLINE
  5
19c
100
AcDbEntity
  8
0
 62
1
100
AcDbPolyline
 90
4
 70
0
 10
1675.764600
 20
2444.798870
 30
0.0
 10
1624.819500
 20
2444.798870
 30
0.0
 10
1624.819500
 20
2453.302770
 30
0.0
 10
1673.834500
 20
2453.302770
 30
0.0
  0
SPLINE
  5
19d
100
AcDbEntity
  8
0
 62
1
100
AcDbSpline
 70
8
 71
3
 72
8
 73
4
 74
0
 40
0
 40
0
 40
0
 40
0
 40
1
 40
1
 40
1
 40
1
 10
1664.016900
 20
2490.153170
 30
0.0
 10
1661.179700
 20
2499.811070
 30
0.0
 10
1658.410300
 20
2508.860370
 30
0.0
 10
1655.564600
 20
2518.499670
 30
0.0
  0
LWPOLYLINE
  5
19e
100
AcDbEntity
  8
0
 62
1
100
AcDbPolyline
 90
4
 70
0
 10
1666.482800
 20
2481.649270
 30
0.0
 10
1622.645300
 20
2481.649270
 30
0.0
 10
1622.645300
 20
2490.153170
 30
0.0
 10
1664.016900
 20
2490.153170
 30
0.0
  0
SPLINE
  5
19f
100
AcDbEntity
  8
0
 62
1
100
AcDbSpline
 70
8
 71
3
 72
8
 73
4
 74
0
 40
0
 40
0
 40
0
 40
0
 40
1
 40
1
 40
1
 40
1
 10
1653.083400
 20
2527.003570
 30
0.0
 10
1650.626100
 20
2535.538670
 30
0.0
 10
1648.084300
 20
2544.744470
 30
0.0
 10
1645.370100
 20
2555.350070
 30
0.0
  0
LWPOLYLINE
  5
1a0
100
AcDbEntity
  8
0
 62
1
100
AcDbPolyline
 90
4
 70
0
 10
1655.564600
 20
2518.499670
 30
0.0
 10
1618.596000
 20
2518.499670
 30
0.0
 10
1618.596000
 20
2527.003570
 30
0.0
 10
1653.083400
 20
2527.003570
 30
0.0
  0
SPLINE
  5
1a1
100
AcDbEntity
  8
0
 62
1
100
AcDbSpline
 70
8
 71
3
 72
8
 73
4
 74
0
 40
0
 40
0
 40
0
 40
0
 40
1
 40
1
 40
1
 40
1
 10
1643.233000
 20
2563.853970
 30
0.0
 10
1641.877200
 20
2569.344070
 30
0.0
 10
1640.476600
 20
2575.201870
 30
0.0
 10
1639.020200
 20
2581.515170
 30
0.0
  0
SPLINE
  5
1a2
100
AcDbEntity
  8
0
 62
1
100
AcDbSpline
 70
8
 71
3
 72
8
 73
4
 74
0
 40
0
 40
0
 40
0
 40
0
 40
1
 40
1
 40
1
 40
1
 10
1639.020200
 20
2581.515170
 30
0.0
 10
1638.170600
 20
2585.198270
 30
0.0
 10
1637.462000
 20
2588.742670
 30
0.0
 10
1636.876300
 20
2592.200370
 30
0.0
  0
LWPOLYLINE
  5
1a3
100
AcDbEntity
  8
0
 62
1
100
AcDbPolyline
 90
4
 70
0
 10
1645.370100
 20
2555.350070
 30
0.0
 10
1613.440100
 20
2555.350070
 30
0.0
 10
1613.440100
 20
2563.853970
 30
0.0
 10
1643.233000
 20
2563.853970
 30
0.0
  0
SPLINE
  5
1a4
100
AcDbEntity
  8
0
 62
1
100
AcDbSpline
 70
8
 71
3
 72
8
 73
4
 74
0
 40
0
 40
0
 40
0
 40
0
 40
1
 40
1
 40
1
 40
1
 10
1635.656900
 20
2600.704370
 30
0.0
 10
1635.072900
 20
2605.686270
 30
0.0
 10
1634.728800
 20
2610.570370
 30
0.0
 10
1634.567000
 20
2615.525270
 30
0.0
  0
SPLINE
  5
1a5
100
AcDbEntity
  8
0
 62
1
100
AcDbSpline
 70
8
 71
3
 72
8
 73
4
 74
0
 40
0
 40
0
 40
0
 40
0
 40
1
 40
1
 40
1
 40
1
 10
1634.567000
 20
2615.525270
 30
0.0
 10
1634.422700
 20
2619.937470
 30
0.0
 10
1634.422700
 20
2624.406570
 30
0.0
 10
1634.526000
 20
2629.050770
 30
0.0
  0
LWPOLYLINE
  5
1a6
100
AcDbEntity
  8
0
 62
1
100
AcDbPolyline
 90
4
 70
0
 10
1636.876300
 20
2592.200370
 30
0.0
 10
1606.975700
 20
2592.200370
 30
0.0
 10
1606.975700
 20
2600.704370
 30
0.0
 10
1635.656900
 20
2600.704370
 30
0.0
  0
SPLINE
  5
1a7
100
AcDbEntity
  8
0
 62
1
100
AcDbSpline
 70
8
 71
3
 72
8
 73
4
 74
0
 40
0
 40
0
 40
0
 40
0
 40
1
 40
1
 40
1
 40
1
 10
1634.811400
 20
2637.554770
 30
0.0
 10
1635.004400
 20
2642.022470
 30
0.0
 10
1635.263200
 20
2646.695870
 30
0.0
 10
1635.556600
 20
2651.665570
 30
0.0
  0
SPLINE
  5
1a8
100
AcDbEntity
  8
0
 62
1
100
AcDbSpline
 70
8
 71
3
 72
8
 73
4
 74
0
 40
0
 40
0
 40
0
 40
0
 40
1
 40
1
 40
1
 40
1
 10
1635.556600
 20
2651.665570
 30
0.0
 10
1644.213100
 20
2651.586570
 30
0.0
 10
1663.907600
 20
2652.063870
 30
0.0
 10
1674.226900
 20
2661.212970
 30
0.0
  0
SPLINE
  5
1a9
100
AcDbEntity
  8
0
 62
1
100
AcDbSpline
 70
8
 71
3
 72
8
 73
4
 74
0
 40
0
 40
0
 40
0
 40
0
 40
1
 40
1
 40
1
 40
1
 10
1674.226900
 20
2661.212970
 30
0.0
 10
1675.774900
 20
2662.585470
 30
0.0
 10
1677.111400
 20
2664.153970
 30
0.0
 10
1678.264800
 20
2665.901170
 30
0.0
  0
LWPOLYLINE
  5
1aa
100
AcDbEntity
  8
0
 62
1
100
AcDbPolyline
 90
4
 70
0
 10
1634.526000
 20
2629.050770
 30
0.0
 10
1609.272700
 20
2629.050770
 30
0.0
 10
1609.272700
 20
2637.554770
 30
0.0
 10
1634.811400
 20
2637.554770
 30
0.0
  0
SPLINE
  5
1ab
100
AcDbEntity
  8
0
 62
1
100
AcDbSpline
 70
8
 71
3
 72
8
 73
4
 74
0
 40
0
 40
0
 40
0
 40
0
 40
1
 40
1
 40
1
 40
1
 10
1682.152000
 20
2674.405170
 30
0.0
 10
1683.525600
 20
2678.863470
 30
0.0
 10
1684.318200
 20
2683.952270
 30
0.0
 10
1684.749400
 20
2689.545870
 30
0.0
  0
SPLINE
  5
1ac
100
AcDbEntity
  8
0
 62
1
100
AcDbSpline
 70
8
 71
3
 72
8
 73
4
 74
0
 40
0
 40
0
 40
0
 40
0
 40
1
 40
1
 40
1
 40
1
 10
1684.749400
 20
2689.545870
 30
0.0
 10
1684.938100
 20
2691.995270
 30
0.0
 10
1684.179600
 20
2694.174570
 30
0.0
 10
1682.510800
 20
2695.977070
 30
0.0
  0
SPLINE
  5
1ad
100
AcDbEntity
  8
0
 62
1
100
AcDbSpline
 70
8
 71
3
 72
8
 73
4
 74
0
 40
0
 40
0
 40
0
 40
0
 40
1
 40
1
 40
1
 40
1
 10
1682.510800
 20
2695.977070
 30
0.0
 10
1680.841800
 20
2697.779870
 30
0.0
 10
1678.727400
 20
2698.703770
 30
0.0
 10
1676.270700
 20
2698.703770
 30
0.0
  0
LWPOLYLINE
  5
1ae
100
AcDbEntity
  8
0
 62
1
100
AcDbPolyline
 90
4
 70
0
 10
1678.264800
 20
2665.901170
 30
0.0
 10
1639.053200
 20
2665.901170
 30
0.0
 10
1639.053200
 20
2674.405170
 30
0.0
 10
1682.152000
 20
2674.405170
 30
0.0
  0
SPLINE
  5
1af
100
AcDbEntity
  8
0
 62
1
100
AcDbSpline
 70
8
 71
3
 72
8
 73
4
 74
0
 40
0
 40
0
 40
0
 40
0
 40
1
 40
1
 40
1
 40
1
 10
1614.141500
 20
2698.703770
 30
0.0
 10
1613.030600
 20
2698.703770
 30
0.0
 10
1612.076100
 20
2698.172270
 30
0.0
 10
1611.491100
 20
2697.227970
 30
0.0
  0
SPLINE
  5
1b0
100
AcDbEntity
  8
0
 62
1
100
AcDbSpline
 70
8
 71
3
 72
8
 73
4
 74
0
 40
0
 40
0
 40
0
 40
0
 40
1
 40
1
 40
1
 40
1
 10
1611.491100
 20
2697.227970
 30
0.0
 10
1610.045100
 20
2694.894270
 30
0.0
 10
1615.039800
 20
2687.459770
 30
0.0
 10
1603.397600
 20
2681.639470
 30
0.0
  0
LWPOLYLINE
  5
1b1
100
AcDbEntity
  8
0
 62
1
100
AcDbPolyline
 90
2
 70
0
 10
1676.270700
 20
2698.703770
 30
0.0
 10
1614.141500
 20
2698.703770
 30
0.0
  0
SPLINE
  5
1b2
100
AcDbEntity
  8
0
 62
1
100
AcDbSpline
 70
8
 71
3
 72
8
 73
4
 74
0
 40
0
 40
0
 40
0
 40
0
 40
1
 40
1
 40
1
 40
1
 10
885.103700
 20
509.912270
 30
0.0
 10
887.333400
 20
513.396270
 30
0.0
 10
889.427900
 20
516.954370
 30
0.0
 10
891.177400
 20
520.698070
 30
0.0
  0
SPLINE
  5
1b3
100
AcDbEntity
  8
0
 62
1
100
AcDbSpline
 70
8
 71
3
 72
8
 73
4
 74
0
 40
0
 40
0
 40
0
 40
0
 40
1
 40
1
 40
1
 40
1
 10
891.177400
 20
520.698070
 30
0.0
 10
892.766000
 20
524.097670
 30
0.0
 10
893.778200
 20
527.307870
 30
0.0
 10
894.155000
 20
530.290770
 30
0.0
  0
LWPOLYLINE
  5
1b4
100
AcDbEntity
  8
0
 62
1
100
AcDbPolyline
 90
2
 70
0
 10
1603.397600
 20
2681.639470
 30
0.0
 10
1603.397500
 20
2681.639470
 30
0.0
  0
SPLINE
  5
1b5
100
AcDbEntity
  8
0
 62
1
100
AcDbSpline
 70
8
 71
3
 72
8
 73
4
 74
0
 40
0
 40
0
 40
0
 40
0
 40
1
 40
1
 40
1
 40
1
 10
893.216700
 20
538.794670
 30
0.0
 10
891.699900
 20
542.543570
 30
0.0
 10
888.588000
 20
545.680370
 30
0.0
 10
883.677500
 20
548.072770
 30
0.0
  0
SPLINE
  5
1b6
100
AcDbEntity
  8
0
 62
1
100
AcDbSpline
 70
8
 71
3
 72
8
 73
4
 74
0
 40
0
 40
0
 40
0
 40
0
 40
1
 40
1
 40
1
 40
1
 10
883.677500
 20
548.072770
 30
0.0
 10
869.878200
 20
554.795470
 30
0.0
 10
863.520400
 20
558.941670
 30
0.0
 10
850.544500
 20
567.141170
 30
0.0
  0
LWPOLYLINE
  5
1b7
100
AcDbEntity
  8
0
 62
1
100
AcDbPolyline
 90
4
 70
0
 10
894.155000
 20
530.290770
 30
0.0
 10
841.512500
 20
530.290770
 30
0.0
 10
841.512500
 20
538.794670
 30
0.0
 10
893.216700
 20
538.794670
 30
0.0
  0
SPLINE
  5
1b8
100
AcDbEntity
  8
0
 62
1
100
AcDbSpline
 70
8
 71
3
 72
8
 73
4
 74
0
 40
0
 40
0
 40
0
 40
0
 40
1
 40
1
 40
1
 40
1
 10
843.303700
 20
575.645070
 30
0.0
 10
840.322800
 20
582.502670
 30
0.0
 10
840.715400
 20
591.567070
 30
0.0
 10
843.645500
 20
601.134770
 30
0.0
  0
SPLINE
  5
1b9
100
AcDbEntity
  8
0
 62
1
100
AcDbSpline
 70
8
 71
3
 72
8
 73
4
 74
0
 40
0
 40
0
 40
0
 40
0
 40
1
 40
1
 40
1
 40
1
 10
843.645500
 20
601.134770
 30
0.0
 10
843.938900
 20
602.092670
 30
0.0
 10
844.242500
 20
603.044770
 30
0.0
 10
844.555200
 20
603.991570
 30
0.0
  0
LWPOLYLINE
  5
1ba
100
AcDbEntity
  8
0
 62
1
100
AcDbPolyline
 90
4
 70
0
 10
850.544500
 20
567.141170
 30
0.0
 10
819.891200
 20
567.141170
 30
0.0
 10
819.891200
 20
575.645070
 30
0.0
 10
843.303700
 20
575.645070
 30
0.0
  0
SPLINE
  5
1bb
100
AcDbEntity
  8
0
 62
1
100
AcDbSpline
 70
8
 71
3
 72
8
 73
4
 74
0
 40
0
 40
0
 40
0
 40
0
 40
1
 40
1
 40
1
 40
1
 10
847.667100
 20
612.495470
 30
0.0
 10
851.734500
 20
622.612670
 30
0.0
 10
856.845400
 20
632.055670
 30
0.0
 10
862.588600
 20
640.841970
 30
0.0
  0
LWPOLYLINE
  5
1bc
100
AcDbEntity
  8
0
 62
1
100
AcDbPolyline
 90
4
 70
0
 10
844.555200
 20
603.991570
 30
0.0
 10
822.083200
 20
603.991570
 30
0.0
 10
822.083200
 20
612.495470
 30
0.0
 10
847.667100
 20
612.495470
 30
0.0
  0
SPLINE
  5
1bd
100
AcDbEntity
  8
0
 62
1
100
AcDbSpline
 70
8
 71
3
 72
8
 73
4
 74
0
 40
0
 40
0
 40
0
 40
0
 40
1
 40
1
 40
1
 40
1
 10
868.479900
 20
649.345870
 30
0.0
 10
870.735100
 20
652.426270
 30
0.0
 10
873.057500
 20
655.418270
 30
0.0
 10
875.427000
 20
658.322370
 30
0.0
  0
SPLINE
  5
1be
100
AcDbEntity
  8
0
 62
1
100
AcDbSpline
 70
8
 71
3
 72
8
 73
4
 74
0
 40
0
 40
0
 40
0
 40
0
 40
1
 40
1
 40
1
 40
1
 10
875.427000
 20
658.322370
 30
0.0
 10
880.900700
 20
665.031170
 30
0.0
 10
886.625000
 20
671.654270
 30
0.0
 10
893.048300
 20
677.692370
 30
0.0
  0
LWPOLYLINE
  5
1bf
100
AcDbEntity
  8
0
 62
1
100
AcDbPolyline
 90
4
 70
0
 10
862.588600
 20
640.841970
 30
0.0
 10
838.770200
 20
640.841970
 30
0.0
 10
838.770200
 20
649.345870
 30
0.0
 10
868.479900
 20
649.345870
 30
0.0
  0
SPLINE
  5
1c0
100
AcDbEntity
  8
0
 62
1
100
AcDbSpline
 70
8
 71
3
 72
8
 73
4
 74
0
 40
0
 40
0
 40
0
 40
0
 40
1
 40
1
 40
1
 40
1
 10
903.192400
 20
686.196270
 30
0.0
 10
914.724600
 20
694.702770
 30
0.0
 10
928.609200
 20
701.088070
 30
0.0
 10
946.677000
 20
703.322370
 30
0.0
  0
SPLINE
  5
1c1
100
AcDbEntity
  8
0
 62
1
100
AcDbSpline
 70
8
 71
3
 72
8
 73
4
 74
0
 40
0
 40
0
 40
0
 40
0
 40
1
 40
1
 40
1
 40
1
 10
946.677000
 20
703.322370
 30
0.0
 10
965.060800
 20
705.595770
 30
0.0
 10
982.381000
 20
709.392470
 30
0.0
 10
998.819400
 20
714.542770
 30
0.0
  0
LWPOLYLINE
  5
1c2
100
AcDbEntity
  8
0
 62
1
100
AcDbPolyline
 90
4
 70
0
 10
893.048300
 20
677.692370
 30
0.0
 10
867.263000
 20
677.692370
 30
0.0
 10
867.263000
 20
686.196270
 30
0.0
 10
903.192400
 20
686.196270
 30
0.0
  0
SPLINE
  5
1c3
100
AcDbEntity
  8
0
 62
1
100
AcDbSpline
 70
8
 71
3
 72
8
 73
4
 74
0
 40
0
 40
0
 40
0
 40
0
 40
1
 40
1
 40
1
 40
1
 10
1022.315800
 20
723.046670
 30
0.0
 10
1041.064700
 20
730.765970
 30
0.0
 10
1058.670700
 20
740.313370
 30
0.0
 10
1075.447000
 20
751.393170
 30
0.0
  0
LWPOLYLINE
  5
1c4
100
AcDbEntity
  8
0
 62
1
100
AcDbPolyline
 90
4
 70
0
 10
998.819400
 20
714.542770
 30
0.0
 10
946.645800
 20
714.542770
 30
0.0
 10
946.645800
 20
723.046670
 30
0.0
 10
1022.315800
 20
723.046670
 30
0.0
  0
SPLINE
  5
1c5
100
AcDbEntity
  8
0
 62
1
100
AcDbSpline
 70
8
 71
3
 72
8
 73
4
 74
0
 40
0
 40
0
 40
0
 40
0
 40
1
 40
1
 40
1
 40
1
 10
1087.755000
 20
759.897070
 30
0.0
 10
1095.641900
 20
765.586770
 30
0.0
 10
1103.354400
 20
771.614370
 30
0.0
 10
1110.927400
 20
777.947570
 30
0.0
  0
SPLINE
  5
1c6
100
AcDbEntity
  8
0
 62
1
100
AcDbSpline
 70
8
 71
3
 72
8
 73
4
 74
0
 40
0
 40
0
 40
0
 40
0
 40
1
 40
1
 40
1
 40
1
 10
1110.927400
 20
777.947570
 30
0.0
 10
1114.812600
 20
781.196570
 30
0.0
 10
1118.649800
 20
784.622870
 30
0.0
 10
1122.370600
 20
788.243570
 30
0.0
  0
LWPOLYLINE
  5
1c7
100
AcDbEntity
  8
0
 62
1
100
AcDbPolyline
 90
4
 70
0
 10
1075.447000
 20
751.393170
 30
0.0
 10
998.060000
 20
751.393170
 30
0.0
 10
998.060000
 20
759.897070
 30
0.0
 10
1087.755000
 20
759.897070
 30
0.0
  0
SPLINE
  5
1c8
100
AcDbEntity
  8
0
 62
1
100
AcDbSpline
 70
8
 71
3
 72
8
 73
4
 74
0
 40
0
 40
0
 40
0
 40
0
 40
1
 40
1
 40
1
 40
1
 10
1130.538000
 20
796.747470
 30
0.0
 10
1149.465500
 20
817.902470
 30
0.0
 10
1163.512600
 20
845.043070
 30
0.0
 10
1161.927500
 20
880.697470
 30
0.0
  0
SPLINE
  5
1c9
100
AcDbEntity
  8
0
 62
1
100
AcDbSpline
 70
8
 71
3
 72
8
 73
4
 74
0
 40
0
 40
0
 40
0
 40
0
 40
1
 40
1
 40
1
 40
1
 10
1161.927500
 20
880.697470
 30
0.0
 10
1161.143400
 20
898.335770
 30
0.0
 10
1156.826800
 20
912.266670
 30
0.0
 10
1149.979500
 20
923.068370
 30
0.0
  0
LWPOLYLINE
  5
1ca
100
AcDbEntity
  8
0
 62
1
100
AcDbPolyline
 90
4
 70
0
 10
1122.370600
 20
788.243570
 30
0.0
 10
1032.335100
 20
788.243570
 30
0.0
 10
1032.335100
 20
796.747470
 30
0.0
 10
1130.538000
 20
796.747470
 30
0.0
  0
SPLINE
  5
1cb
100
AcDbEntity
  8
0
 62
1
100
AcDbSpline
 70
8
 71
3
 72
8
 73
4
 74
0
 40
0
 40
0
 40
0
 40
0
 40
1
 40
1
 40
1
 40
1
 10
1141.475500
 20
933.710470
 30
0.0
 10
1133.599700
 20
941.596770
 30
0.0
 10
1123.893100
 20
947.014070
 30
0.0
 10
1113.129100
 20
950.406770
 30
0.0
  0
LWPOLYLINE
  5
1cc
100
AcDbEntity
  8
0
 62
1
100
AcDbPolyline
 90
4
 70
0
 10
1149.979500
 20
923.068370
 30
0.0
 10
1149.979500
 20
879.205070
 30
0.0
 10
1141.475500
 20
879.205070
 30
0.0
 10
1141.475500
 20
933.710470
 30
0.0
  0
SPLINE
  5
1cd
100
AcDbEntity
  8
0
 62
1
100
AcDbSpline
 70
8
 71
3
 72
8
 73
4
 74
0
 40
0
 40
0
 40
0
 40
0
 40
1
 40
1
 40
1
 40
1
 10
1104.625100
 20
952.630570
 30
0.0
 10
1097.855700
 20
954.062070
 30
0.0
 10
1090.775600
 20
954.802470
 30
0.0
 10
1083.552400
 20
954.946470
 30
0.0
  0
SPLINE
  5
1ce
100
AcDbEntity
  8
0
 62
1
100
AcDbSpline
 70
8
 71
3
 72
8
 73
4
 74
0
 40
0
 40
0
 40
0
 40
0
 40
1
 40
1
 40
1
 40
1
 10
1083.552400
 20
954.946470
 30
0.0
 10
1081.082800
 20
954.995770
 30
0.0
 10
1078.661200
 20
954.991570
 30
0.0
 10
1076.278700
 20
954.943470
 30
0.0
  0
LWPOLYLINE
  5
1cf
100
AcDbEntity
  8
0
 62
1
100
AcDbPolyline
 90
4
 70
0
 10
1113.129100
 20
950.406770
 30
0.0
 10
1113.129100
 20
874.689470
 30
0.0
 10
1104.625100
 20
874.689470
 30
0.0
 10
1104.625100
 20
952.630570
 30
0.0
  0
SPLINE
  5
1d0
100
AcDbEntity
  8
0
 62
1
100
AcDbSpline
 70
8
 71
3
 72
8
 73
4
 74
0
 40
0
 40
0
 40
0
 40
0
 40
1
 40
1
 40
1
 40
1
 10
1067.774700
 20
954.563970
 30
0.0
 10
1057.511900
 20
953.840770
 30
0.0
 10
1048.091500
 20
952.186770
 30
0.0
 10
1039.428300
 20
949.735970
 30
0.0
  0
LWPOLYLINE
  5
1d1
100
AcDbEntity
  8
0
 62
1
100
AcDbPolyline
 90
4
 70
0
 10
1076.278700
 20
954.943470
 30
0.0
 10
1076.278700
 20
875.847570
 30
0.0
 10
1067.774700
 20
875.847570
 30
0.0
 10
1067.774700
 20
954.563970
 30
0.0
  0
SPLINE
  5
1d2
100
AcDbEntity
  8
0
 62
1
100
AcDbSpline
 70
8
 71
3
 72
8
 73
4
 74
0
 40
0
 40
0
 40
0
 40
0
 40
1
 40
1
 40
1
 40
1
 10
1030.924300
 20
946.991770
 30
0.0
 10
1020.296700
 20
943.119870
 30
0.0
 10
1010.908600
 20
937.967370
 30
0.0
 10
1002.577900
 20
931.819070
 30
0.0
  0
LWPOLYLINE
  5
1d3
100
AcDbEntity
  8
0
 62
1
100
AcDbPolyline
 90
4
 70
0
 10
1039.428300
 20
949.735970
 30
0.0
 10
1039.428300
 20
873.244170
 30
0.0
 10
1030.924300
 20
873.244170
 30
0.0
 10
1030.924300
 20
946.991770
 30
0.0
  0
SPLINE
  5
1d4
100
AcDbEntity
  8
0
 62
1
100
AcDbSpline
 70
8
 71
3
 72
8
 73
4
 74
0
 40
0
 40
0
 40
0
 40
0
 40
1
 40
1
 40
1
 40
1
 10
994.074000
 20
924.884670
 30
0.0
 10
980.204600
 20
912.435470
 30
0.0
 10
969.644700
 20
897.006470
 30
0.0
 10
961.302300
 20
880.321970
 30
0.0
  0
SPLINE
  5
1d5
100
AcDbEntity
  8
0
 62
1
100
AcDbSpline
 70
8
 71
3
 72
8
 73
4
 74
0
 40
0
 40
0
 40
0
 40
0
 40
1
 40
1
 40
1
 40
1
 10
961.302300
 20
880.321970
 30
0.0
 10
954.175700
 20
866.068570
 30
0.0
 10
949.481300
 20
850.374570
 30
0.0
 10
947.427000
 20
834.571670
 30
0.0
  0
SPLINE
  5
1d6
100
AcDbEntity
  8
0
 62
1
100
AcDbSpline
 70
8
 71
3
 72
8
 73
4
 74
0
 40
0
 40
0
 40
0
 40
0
 40
1
 40
1
 40
1
 40
1
 10
947.427000
 20
834.571670
 30
0.0
 10
944.103700
 20
809.007170
 30
0.0
 10
926.251700
 20
778.104970
 30
0.0
 10
897.927000
 20
748.321370
 30
0.0
  0
SPLINE
  5
1d7
100
AcDbEntity
  8
0
 62
1
100
AcDbSpline
 70
8
 71
3
 72
8
 73
4
 74
0
 40
0
 40
0
 40
0
 40
0
 40
1
 40
1
 40
1
 40
1
 10
897.927000
 20
748.321370
 30
0.0
 10
886.695600
 20
736.511370
 30
0.0
 10
874.885900
 20
724.884770
 30
0.0
 10
861.176700
 20
716.070770
 30
0.0
  0
SPLINE
  5
1d8
100
AcDbEntity
  8
0
 62
1
100
AcDbSpline
 70
8
 71
3
 72
8
 73
4
 74
0
 40
0
 40
0
 40
0
 40
0
 40
1
 40
1
 40
1
 40
1
 10
861.176700
 20
716.070770
 30
0.0
 10
831.399300
 20
696.925870
 30
0.0
 10
814.980500
 20
668.893970
 30
0.0
 10
801.926900
 20
630.195970
 30
0.0
  0
SPLINE
  5
1d9
100
AcDbEntity
  8
0
 62
1
100
AcDbSpline
 70
8
 71
3
 72
8
 73
4
 74
0
 40
0
 40
0
 40
0
 40
0
 40
1
 40
1
 40
1
 40
1
 10
801.926900
 20
630.195970
 30
0.0
 10
788.545400
 20
590.524870
 30
0.0
 10
783.755100
 20
552.381270
 30
0.0
 10
791.493700
 20
512.862370
 30
0.0
  0
SPLINE
  5
1da
100
AcDbEntity
  8
0
 62
1
100
AcDbSpline
 70
8
 71
3
 72
8
 73
4
 74
0
 40
0
 40
0
 40
0
 40
0
 40
1
 40
1
 40
1
 40
1
 10
791.493700
 20
512.862370
 30
0.0
 10
792.282900
 20
508.831770
 30
0.0
 10
795.732100
 20
505.992570
 30
0.0
 10
799.839200
 20
505.992570
 30
0.0
  0
LWPOLYLINE
  5
1db
100
AcDbEntity
  8
0
 62
1
100
AcDbPolyline
 90
4
 70
0
 10
1002.577900
 20
931.819070
 30
0.0
 10
1002.577900
 20
864.283870
 30
0.0
 10
994.074000
 20
864.283870
 30
0.0
 10
994.074000
 20
924.884670
 30
0.0
  0
SPLINE
  5
1dc
100
AcDbEntity
  8
0
 62
1
100
AcDbSpline
 70
8
 71
3
 72
8
 73
4
 74
0
 40
0
 40
0
 40
0
 40
0
 40
1
 40
1
 40
1
 40
1
 10
877.941100
 20
505.992570
 30
0.0
 10
880.927400
 20
505.992570
 30
0.0
 10
883.493900
 20
507.397470
 30
0.0
 10
885.103700
 20
509.912670
 30
0.0
  0
LWPOLYLINE
  5
1dd
100
AcDbEntity
  8
0
 62
1
100
AcDbPolyline
 90
2
 70
0
 10
799.839200
 20
505.992570
 30
0.0
 10
877.941100
 20
505.992570
 30
0.0
  0
SPLINE
  5
1de
100
AcDbEntity
  8
0
 62
1
100
AcDbSpline
 70
8
 71
3
 72
8
 73
4
 74
0
 40
0
 40
0
 40
0
 40
0
 40
1
 40
1
 40
1
 40
1
 10
885.103700
 20
2694.783670
 30
0.0
 10
887.333400
 20
2691.299670
 30
0.0
 10
889.427900
 20
2687.741570
 30
0.0
 10
891.177400
 20
2683.997870
 30
0.0
  0
SPLINE
  5
1df
100
AcDbEntity
  8
0
 62
1
100
AcDbSpline
 70
8
 71
3
 72
8
 73
4
 74
0
 40
0
 40
0
 40
0
 40
0
 40
1
 40
1
 40
1
 40
1
 10
891.177400
 20
2683.997870
 30
0.0
 10
892.766000
 20
2680.598270
 30
0.0
 10
893.778200
 20
2677.388070
 30
0.0
 10
894.155000
 20
2674.405170
 30
0.0
  0
LWPOLYLINE
  5
1e0
100
AcDbEntity
  8
0
 62
1
100
AcDbPolyline
 90
2
 70
0
 10
885.103700
 20
509.912670
 30
0.0
 10
885.103700
 20
509.912270
 30
0.0
  0
SPLINE
  5
1e1
100
AcDbEntity
  8
0
 62
1
100
AcDbSpline
 70
8
 71
3
 72
8
 73
4
 74
0
 40
0
 40
0
 40
0
 40
0
 40
1
 40
1
 40
1
 40
1
 10
893.216700
 20
2665.901170
 30
0.0
 10
891.699900
 20
2662.152370
 30
0.0
 10
888.588000
 20
2659.015570
 30
0.0
 10
883.677500
 20
2656.623170
 30
0.0
  0
SPLINE
  5
1e2
100
AcDbEntity
  8
0
 62
1
100
AcDbSpline
 70
8
 71
3
 72
8
 73
4
 74
0
 40
0
 40
0
 40
0
 40
0
 40
1
 40
1
 40
1
 40
1
 10
883.677500
 20
2656.623170
 30
0.0
 10
869.878200
 20
2649.900470
 30
0.0
 10
863.520400
 20
2645.754270
 30
0.0
 10
850.544500
 20
2637.554770
 30
0.0
  0
LWPOLYLINE
  5
1e3
100
AcDbEntity
  8
0
 62
1
100
AcDbPolyline
 90
4
 70
0
 10
894.155000
 20
2674.405170
 30
0.0
 10
841.512500
 20
2674.405170
 30
0.0
 10
841.512500
 20
2665.901170
 30
0.0
 10
893.216700
 20
2665.901170
 30
0.0
  0
SPLINE
  5
1e4
100
AcDbEntity
  8
0
 62
1
100
AcDbSpline
 70
8
 71
3
 72
8
 73
4
 74
0
 40
0
 40
0
 40
0
 40
0
 40
1
 40
1
 40
1
 40
1
 10
843.303700
 20
2629.050770
 30
0.0
 10
840.322800
 20
2622.193270
 30
0.0
 10
840.715400
 20
2613.128870
 30
0.0
 10
843.645500
 20
2603.561070
 30
0.0
  0
SPLINE
  5
1e5
100
AcDbEntity
  8
0
 62
1
100
AcDbSpline
 70
8
 71
3
 72
8
 73
4
 74
0
 40
0
 40
0
 40
0
 40
0
 40
1
 40
1
 40
1
 40
1
 10
843.645500
 20
2603.561070
 30
0.0
 10
843.938900
 20
2602.603270
 30
0.0
 10
844.242500
 20
2601.651170
 30
0.0
 10
844.555200
 20
2600.704370
 30
0.0
  0
LWPOLYLINE
  5
1e6
100
AcDbEntity
  8
0
 62
1
100
AcDbPolyline
 90
4
 70
0
 10
850.544500
 20
2637.554770
 30
0.0
 10
819.891200
 20
2637.554770
 30
0.0
 10
819.891200
 20
2629.050770
 30
0.0
 10
843.303700
 20
2629.050770
 30
0.0
  0
SPLINE
  5
1e7
100
AcDbEntity
  8
0
 62
1
100
AcDbSpline
 70
8
 71
3
 72
8
 73
4
 74
0
 40
0
 40
0
 40
0
 40
0
 40
1
 40
1
 40
1
 40
1
 10
847.667100
 20
2592.200370
 30
0.0
 10
851.734500
 20
2582.083270
 30
0.0
 10
856.845400
 20
2572.640270
 30
0.0
 10
862.588600
 20
2563.853970
 30
0.0
  0
LWPOLYLINE
  5
1e8
100
AcDbEntity
  8
0
 62
1
100
AcDbPolyline
 90
4
 70
0
 10
844.555200
 20
2600.704370
 30
0.0
 10
822.083200
 20
2600.704370
 30
0.0
 10
822.083200
 20
2592.200370
 30
0.0
 10
847.667100
 20
2592.200370
 30
0.0
  0
SPLINE
  5
1e9
100
AcDbEntity
  8
0
 62
1
100
AcDbSpline
 70
8
 71
3
 72
8
 73
4
 74
0
 40
0
 40
0
 40
0
 40
0
 40
1
 40
1
 40
1
 40
1
 10
868.479900
 20
2555.350070
 30
0.0
 10
870.735100
 20
2552.269570
 30
0.0
 10
873.057500
 20
2549.277670
 30
0.0
 10
875.427000
 20
2546.373570
 30
0.0
  0
SPLINE
  5
1ea
100
AcDbEntity
  8
0
 62
1
100
AcDbSpline
 70
8
 71
3
 72
8
 73
4
 74
0
 40
0
 40
0
 40
0
 40
0
 40
1
 40
1
 40
1
 40
1
 10
875.427000
 20
2546.373570
 30
0.0
 10
880.900700
 20
2539.664770
 30
0.0
 10
886.625000
 20
2533.041670
 30
0.0
 10
893.048300
 20
2527.003570
 30
0.0
  0
LWPOLYLINE
  5
1eb
100
AcDbEntity
  8
0
 62
1
100
AcDbPolyline
 90
4
 70
0
 10
862.588600
 20
2563.853970
 30
0.0
 10
838.770200
 20
2563.853970
 30
0.0
 10
838.770200
 20
2555.350070
 30
0.0
 10
868.479900
 20
2555.350070
 30
0.0
  0
SPLINE
  5
1ec
100
AcDbEntity
  8
0
 62
1
100
AcDbSpline
 70
8
 71
3
 72
8
 73
4
 74
0
 40
0
 40
0
 40
0
 40
0
 40
1
 40
1
 40
1
 40
1
 10
903.192400
 20
2518.499670
 30
0.0
 10
914.724600
 20
2509.993170
 30
0.0
 10
928.609200
 20
2503.607770
 30
0.0
 10
946.677000
 20
2501.373570
 30
0.0
  0
SPLINE
  5
1ed
100
AcDbEntity
  8
0
 62
1
100
AcDbSpline
 70
8
 71
3
 72
8
 73
4
 74
0
 40
0
 40
0
 40
0
 40
0
 40
1
 40
1
 40
1
 40
1
 10
946.677000
 20
2501.373570
 30
0.0
 10
965.060800
 20
2499.100170
 30
0.0
 10
982.381000
 20
2495.303470
 30
0.0
 10
998.819400
 20
2490.153170
 30
0.0
  0
LWPOLYLINE
  5
1ee
100
AcDbEntity
  8
0
 62
1
100
AcDbPolyline
 90
4
 70
0
 10
893.048300
 20
2527.003570
 30
0.0
 10
867.263000
 20
2527.003570
 30
0.0
 10
867.263000
 20
2518.499670
 30
0.0
 10
903.192400
 20
2518.499670
 30
0.0
  0
SPLINE
  5
1ef
100
AcDbEntity
  8
0
 62
1
100
AcDbSpline
 70
8
 71
3
 72
8
 73
4
 74
0
 40
0
 40
0
 40
0
 40
0
 40
1
 40
1
 40
1
 40
1
 10
1022.315800
 20
2481.649270
 30
0.0
 10
1041.064700
 20
2473.929970
 30
0.0
 10
1058.670700
 20
2464.382570
 30
0.0
 10
1075.447000
 20
2453.302770
 30
0.0
  0
LWPOLYLINE
  5
1f0
100
AcDbEntity
  8
0
 62
1
100
AcDbPolyline
 90
4
 70
0
 10
998.819400
 20
2490.153170
 30
0.0
 10
946.645800
 20
2490.153170
 30
0.0
 10
946.645800
 20
2481.649270
 30
0.0
 10
1022.315800
 20
2481.649270
 30
0.0
  0
SPLINE
  5
1f1
100
AcDbEntity
  8
0
 62
1
100
AcDbSpline
 70
8
 71
3
 72
8
 73
4
 74
0
 40
0
 40
0
 40
0
 40
0
 40
1
 40
1
 40
1
 40
1
 10
1087.755000
 20
2444.798870
 30
0.0
 10
1095.641900
 20
2439.109170
 30
0.0
 10
1103.354400
 20
2433.081570
 30
0.0
 10
1110.927400
 20
2426.748370
 30
0.0
  0
SPLINE
  5
1f2
100
AcDbEntity
  8
0
 62
1
100
AcDbSpline
 70
8
 71
3
 72
8
 73
4
 74
0
 40
0
 40
0
 40
0
 40
0
 40
1
 40
1
 40
1
 40
1
 10
1110.927400
 20
2426.748370
 30
0.0
 10
1114.812600
 20
2423.499270
 30
0.0
 10
1118.649800
 20
2420.073070
 30
0.0
 10
1122.370600
 20
2416.452370
 30
0.0
  0
LWPOLYLINE
  5
1f3
100
AcDbEntity
  8
0
 62
1
100
AcDbPolyline
 90
4
 70
0
 10
1075.447000
 20
2453.302770
 30
0.0
 10
998.060000
 20
2453.302770
 30
0.0
 10
998.060000
 20
2444.798870
 30
0.0
 10
1087.755000
 20
2444.798870
 30
0.0
  0
SPLINE
  5
1f4
100
AcDbEntity
  8
0
 62
1
100
AcDbSpline
 70
8
 71
3
 72
8
 73
4
 74
0
 40
0
 40
0
 40
0
 40
0
 40
1
 40
1
 40
1
 40
1
 10
1130.538000
 20
2407.948470
 30
0.0
 10
1149.465500
 20
2386.793470
 30
0.0
 10
1163.512600
 20
2359.652870
 30
0.0
 10
1161.927500
 20
2323.998470
 30
0.0
  0
SPLINE
  5
1f5
100
AcDbEntity
  8
0
 62
1
100
AcDbSpline
 70
8
 71
3
 72
8
 73
4
 74
0
 40
0
 40
0
 40
0
 40
0
 40
1
 40
1
 40
1
 40
1
 10
1161.927500
 20
2323.998470
 30
0.0
 10
1161.143400
 20
2306.360170
 30
0.0
 10
1156.826800
 20
2292.429270
 30
0.0
 10
1149.979500
 20
2281.627570
 30
0.0
  0
LWPOLYLINE
  5
1f6
100
AcDbEntity
  8
0
 62
1
100
AcDbPolyline
 90
4
 70
0
 10
1122.370600
 20
2416.452370
 30
0.0
 10
1032.335100
 20
2416.452370
 30
0.0
 10
1032.335100
 20
2407.948470
 30
0.0
 10
1130.538000
 20
2407.948470
 30
0.0
  0
SPLINE
  5
1f7
100
AcDbEntity
  8
0
 62
1
100
AcDbSpline
 70
8
 71
3
 72
8
 73
4
 74
0
 40
0
 40
0
 40
0
 40
0
 40
1
 40
1
 40
1
 40
1
 10
1141.475500
 20
2270.985470
 30
0.0
 10
1133.599700
 20
2263.099170
 30
0.0
 10
1123.893100
 20
2257.681870
 30
0.0
 10
1113.129100
 20
2254.289070
 30
0.0
  0
LWPOLYLINE
  5
1f8
100
AcDbEntity
  8
0
 62
1
100
AcDbPolyline
 90
4
 70
0
 10
1149.979500
 20
2281.627570
 30
0.0
 10
1149.979500
 20
2325.490870
 30
0.0
 10
1141.475500
 20
2325.490870
 30
0.0
 10
1141.475500
 20
2270.985470
 30
0.0
  0
SPLINE
  5
1f9
100
AcDbEntity
  8
0
 62
1
100
AcDbSpline
 70
8
 71
3
 72
8
 73
4
 74
0
 40
0
 40
0
 40
0
 40
0
 40
1
 40
1
 40
1
 40
1
 10
1104.625100
 20
2252.065370
 30
0.0
 10
1097.855700
 20
2250.633870
 30
0.0
 10
1090.775600
 20
2249.893470
 30
0.0
 10
1083.552400
 20
2249.749470
 30
0.0
  0
SPLINE
  5
1fa
100
AcDbEntity
  8
0
 62
1
100
AcDbSpline
 70
8
 71
3
 72
8
 73
4
 74
0
 40
0
 40
0
 40
0
 40
0
 40
1
 40
1
 40
1
 40
1
 10
1083.552400
 20
2249.749470
 30
0.0
 10
1081.082800
 20
2249.700470
 30
0.0
 10
1078.661200
 20
2249.704470
 30
0.0
 10
1076.278700
 20
2249.749470
 30
0.0
  0
LWPOLYLINE
  5
1fb
100
AcDbEntity
  8
0
 62
1
100
AcDbPolyline
 90
4
 70
0
 10
1113.129100
 20
2254.289070
 30
0.0
 10
1113.129100
 20
2330.006470
 30
0.0
 10
1104.625100
 20
2330.006470
 30
0.0
 10
1104.625100
 20
2252.065370
 30
0.0
  0
SPLINE
  5
1fc
100
AcDbEntity
  8
0
 62
1
100
AcDbSpline
 70
8
 71
3
 72
8
 73
4
 74
0
 40
0
 40
0
 40
0
 40
0
 40
1
 40
1
 40
1
 40
1
 10
1067.774700
 20
2250.128970
 30
0.0
 10
1057.511900
 20
2250.852070
 30
0.0
 10
1048.091500
 20
2252.506070
 30
0.0
 10
1039.428300
 20
2254.956970
 30
0.0
  0
LWPOLYLINE
  5
1fd
100
AcDbEntity
  8
0
 62
1
100
AcDbPolyline
 90
4
 70
0
 10
1076.278700
 20
2249.749470
 30
0.0
 10
1076.278700
 20
2328.845370
 30
0.0
 10
1067.774700
 20
2328.845370
 30
0.0
 10
1067.774700
 20
2250.128970
 30
0.0
  0
SPLINE
  5
1fe
100
AcDbEntity
  8
0
 62
1
100
AcDbSpline
 70
8
 71
3
 72
8
 73
4
 74
0
 40
0
 40
0
 40
0
 40
0
 40
1
 40
1
 40
1
 40
1
 10
1030.924300
 20
2257.701170
 30
0.0
 10
1020.296700
 20
2261.572970
 30
0.0
 10
1010.908600
 20
2266.725570
 30
0.0
 10
1002.577900
 20
2272.873870
 30
0.0
  0
LWPOLYLINE
  5
1ff
100
AcDbEntity
  8
0
 62
1
100
AcDbPolyline
 90
4
 70
0
 10
1039.428300
 20
2254.956970
 30
0.0
 10
1039.428300
 20
2331.448770
 30
0.0
 10
1030.924300
 20
2331.448770
 30
0.0
 10
1030.924300
 20
2257.701170
 30
0.0
  0
SPLINE
  5
200
100
AcDbEntity
  8
0
 62
1
100
AcDbSpline
 70
8
 71
3
 72
8
 73
4
 74
0
 40
0
 40
0
 40
0
 40
0
 40
1
 40
1
 40
1
 40
1
 10
994.074000
 20
2279.808270
 30
0.0
 10
980.204600
 20
2292.257470
 30
0.0
 10
969.644700
 20
2307.686470
 30
0.0
 10
961.302300
 20
2324.370870
 30
0.0
  0
SPLINE
  5
201
100
AcDbEntity
  8
0
 62
1
100
AcDbSpline
 70
8
 71
3
 72
8
 73
4
 74
0
 40
0
 40
0
 40
0
 40
0
 40
1
 40
1
 40
1
 40
1
 10
961.302300
 20
2324.370870
 30
0.0
 10
954.175700
 20
2338.624370
 30
0.0
 10
949.481300
 20
2354.318370
 30
0.0
 10
947.427000
 20
2370.121270
 30
0.0
  0
SPLINE
  5
202
100
AcDbEntity
  8
0
 62
1
100
AcDbSpline
 70
8
 71
3
 72
8
 73
4
 74
0
 40
0
 40
0
 40
0
 40
0
 40
1
 40
1
 40
1
 40
1
 10
947.427000
 20
2370.121270
 30
0.0
 10
944.103700
 20
2395.685770
 30
0.0
 10
926.251700
 20
2426.587970
 30
0.0
 10
897.927000
 20
2456.371570
 30
0.0
  0
SPLINE
  5
203
100
AcDbEntity
  8
0
 62
1
100
AcDbSpline
 70
8
 71
3
 72
8
 73
4
 74
0
 40
0
 40
0
 40
0
 40
0
 40
1
 40
1
 40
1
 40
1
 10
897.927000
 20
2456.371570
 30
0.0
 10
886.695600
 20
2468.181570
 30
0.0
 10
874.885900
 20
2479.808170
 30
0.0
 10
861.176700
 20
2488.622170
 30
0.0
  0
SPLINE
  5
204
100
AcDbEntity
  8
0
 62
1
100
AcDbSpline
 70
8
 71
3
 72
8
 73
4
 74
0
 40
0
 40
0
 40
0
 40
0
 40
1
 40
1
 40
1
 40
1
 10
861.176700
 20
2488.622170
 30
0.0
 10
831.399300
 20
2507.767070
 30
0.0
 10
814.980500
 20
2535.798870
 30
0.0
 10
801.926900
 20
2574.496970
 30
0.0
  0
SPLINE
  5
205
100
AcDbEntity
  8
0
 62
1
100
AcDbSpline
 70
8
 71
3
 72
8
 73
4
 74
0
 40
0
 40
0
 40
0
 40
0
 40
1
 40
1
 40
1
 40
1
 10
801.926900
 20
2574.496970
 30
0.0
 10
788.545400
 20
2614.168070
 30
0.0
 10
783.755100
 20
2652.311670
 30
0.0
 10
791.493700
 20
2691.830570
 30
0.0
  0
SPLINE
  5
206
100
AcDbEntity
  8
0
 62
1
100
AcDbSpline
 70
8
 71
3
 72
8
 73
4
 74
0
 40
0
 40
0
 40
0
 40
0
 40
1
 40
1
 40
1
 40
1
 10
791.493700
 20
2691.830570
 30
0.0
 10
792.282900
 20
2695.861170
 30
0.0
 10
795.732100
 20
2698.700370
 30
0.0
 10
799.839200
 20
2698.700370
 30
0.0
  0
LWPOLYLINE
  5
207
100
AcDbEntity
  8
0
 62
1
100
AcDbPolyline
 90
4
 70
0
 10
1002.577900
 20
2272.873870
 30
0.0
 10
1002.577900
 20
2340.409070
 30
0.0
 10
994.074000
 20
2340.409070
 30
0.0
 10
994.074000
 20
2279.808270
 30
0.0
  0
SPLINE
  5
208
100
AcDbEntity
  8
0
 62
1
100
AcDbSpline
 70
8
 71
3
 72
8
 73
4
 74
0
 40
0
 40
0
 40
0
 40
0
 40
1
 40
1
 40
1
 40
1
 10
877.941100
 20
2698.700370
 30
0.0
 10
880.927400
 20
2698.700370
 30
0.0
 10
883.493900
 20
2697.295470
 30
0.0
 10
885.103700
 20
2694.780270
 30
0.0
  0
LWPOLYLINE
  5
209
100
AcDbEntity
  8
0
 62
1
100
AcDbPolyline
 90
2
 70
0
 10
799.839200
 20
2698.700370
 30
0.0
 10
877.941100
 20
2698.700370
 30
0.0
  0
SPLINE
  5
20a
100
AcDbEntity
  8
0
 62
1
100
AcDbSpline
 70
8
 71
3
 72
8
 73
4
 74
0
 40
0
 40
0
 40
0
 40
0
 40
1
 40
1
 40
1
 40
1
 10
1438.662600
 20
523.056470
 30
0.0
 10
1424.328900
 20
528.332370
 30
0.0
 10
1428.093600
 20
556.435870
 30
0.0
 10
1416.162600
 20
571.431670
 30
0.0
  0
SPLINE
  5
20b
100
AcDbEntity
  8
0
 62
1
100
AcDbSpline
 70
8
 71
3
 72
8
 73
4
 74
0
 40
0
 40
0
 40
0
 40
0
 40
1
 40
1
 40
1
 40
1
 10
1416.162600
 20
571.431670
 30
0.0
 10
1397.972700
 20
590.861770
 30
0.0
 10
1403.316900
 20
594.994070
 30
0.0
 10
1409.037400
 20
605.181870
 30
0.0
  0
SPLINE
  5
20c
100
AcDbEntity
  8
0
 62
1
100
AcDbSpline
 70
8
 71
3
 72
8
 73
4
 74
0
 40
0
 40
0
 40
0
 40
0
 40
1
 40
1
 40
1
 40
1
 10
1409.037400
 20
605.181870
 30
0.0
 10
1418.671000
 20
622.337670
 30
0.0
 10
1416.504200
 20
644.010570
 30
0.0
 10
1416.911500
 20
663.680970
 30
0.0
  0
SPLINE
  5
20d
100
AcDbEntity
  8
0
 62
1
100
AcDbSpline
 70
8
 71
3
 72
8
 73
4
 74
0
 40
0
 40
0
 40
0
 40
0
 40
1
 40
1
 40
1
 40
1
 10
1416.911500
 20
663.680970
 30
0.0
 10
1417.683100
 20
700.929070
 30
0.0
 10
1411.655000
 20
728.759870
 30
0.0
 10
1408.106600
 20
759.897070
 30
0.0
  0
SPLINE
  5
20e
100
AcDbEntity
  8
0
 62
1
100
AcDbSpline
 70
8
 71
3
 72
8
 73
4
 74
0
 40
0
 40
0
 40
0
 40
0
 40
1
 40
1
 40
1
 40
1
 10
1408.106600
 20
759.897070
 30
0.0
 10
1401.902400
 20
764.677670
 30
0.0
 10
1401.201900
 20
768.379770
 30
0.0
 10
1401.155100
 20
772.788170
 30
0.0
  0
SPLINE
  5
20f
100
AcDbEntity
  8
0
 62
1
100
AcDbSpline
 70
8
 71
3
 72
8
 73
4
 74
0
 40
0
 40
0
 40
0
 40
0
 40
1
 40
1
 40
1
 40
1
 10
1401.155100
 20
772.788170
 30
0.0
 10
1401.073100
 20
780.587170
 30
0.0
 10
1403.546500
 20
784.387570
 30
0.0
 10
1404.516200
 20
787.733270
 30
0.0
  0
SPLINE
  5
210
100
AcDbEntity
  8
0
 62
1
100
AcDbSpline
 70
8
 71
3
 72
8
 73
4
 74
0
 40
0
 40
0
 40
0
 40
0
 40
1
 40
1
 40
1
 40
1
 10
1404.516200
 20
787.733270
 30
0.0
 10
1401.556800
 20
795.229470
 30
0.0
 10
1398.315100
 20
797.990170
 30
0.0
 10
1397.769200
 20
807.604470
 30
0.0
  0
SPLINE
  5
211
100
AcDbEntity
  8
0
 62
1
100
AcDbSpline
 70
8
 71
3
 72
8
 73
4
 74
0
 40
0
 40
0
 40
0
 40
0
 40
1
 40
1
 40
1
 40
1
 10
1397.769200
 20
807.604470
 30
0.0
 10
1396.328300
 20
832.971970
 30
0.0
 10
1401.004100
 20
858.347470
 30
0.0
 10
1415.452500
 20
876.468470
 30
0.0
  0
LWPOLYLINE
  5
212
100
AcDbEntity
  8
0
 62
1
100
AcDbPolyline
 90
2
 70
0
 10
885.103700
 20
2694.780270
 30
0.0
 10
885.103700
 20
2694.783670
 30
0.0
  0
SPLINE
  5
213
100
AcDbEntity
  8
0
 62
1
100
AcDbSpline
 70
8
 71
3
 72
8
 73
4
 74
0
 40
0
 40
0
 40
0
 40
0
 40
1
 40
1
 40
1
 40
1
 10
1423.956500
 20
885.275970
 30
0.0
 10
1431.488100
 20
891.710370
 30
0.0
 10
1440.846100
 20
896.649770
 30
0.0
 10
1452.302900
 20
899.556970
 30
0.0
  0
LWPOLYLINE
  5
214
100
AcDbEntity
  8
0
 62
1
100
AcDbPolyline
 90
4
 70
0
 10
1415.452500
 20
876.468470
 30
0.0
 10
1415.452500
 20
822.588670
 30
0.0
 10
1423.956500
 20
822.588670
 30
0.0
 10
1423.956500
 20
885.275970
 30
0.0
  0
SPLINE
  5
215
100
AcDbEntity
  8
0
 62
1
100
AcDbSpline
 70
8
 71
3
 72
8
 73
4
 74
0
 40
0
 40
0
 40
0
 40
0
 40
1
 40
1
 40
1
 40
1
 10
1460.806900
 20
901.269070
 30
0.0
 10
1468.703100
 20
902.483170
 30
0.0
 10
1477.460400
 20
902.837170
 30
0.0
 10
1487.160300
 20
902.183270
 30
0.0
  0
SPLINE
  5
216
100
AcDbEntity
  8
0
 62
1
100
AcDbSpline
 70
8
 71
3
 72
8
 73
4
 74
0
 40
0
 40
0
 40
0
 40
0
 40
1
 40
1
 40
1
 40
1
 10
1487.160300
 20
902.183270
 30
0.0
 10
1487.831000
 20
902.137870
 30
0.0
 10
1488.494800
 20
902.083770
 30
0.0
 10
1489.153300
 20
902.021970
 30
0.0
  0
LWPOLYLINE
  5
217
100
AcDbEntity
  8
0
 62
1
100
AcDbPolyline
 90
4
 70
0
 10
1452.302900
 20
899.556970
 30
0.0
 10
1452.302900
 20
830.587170
 30
0.0
 10
1460.806900
 20
830.587170
 30
0.0
 10
1460.806900
 20
901.269070
 30
0.0
  0
SPLINE
  5
218
100
AcDbEntity
  8
0
 62
1
100
AcDbSpline
 70
8
 71
3
 72
8
 73
4
 74
0
 40
0
 40
0
 40
0
 40
0
 40
1
 40
1
 40
1
 40
1
 10
1497.657300
 20
900.704670
 30
0.0
 10
1509.244700
 20
898.148670
 30
0.0
 10
1518.645300
 20
892.732870
 30
0.0
 10
1526.003700
 20
885.078470
 30
0.0
  0
LWPOLYLINE
  5
219
100
AcDbEntity
  8
0
 62
1
100
AcDbPolyline
 90
4
 70
0
 10
1489.153300
 20
902.021970
 30
0.0
 10
1489.153300
 20
830.959970
 30
0.0
 10
1497.657300
 20
830.959970
 30
0.0
 10
1497.657300
 20
900.704670
 30
0.0
  0
SPLINE
  5
21a
100
AcDbEntity
  8
0
 62
1
100
AcDbSpline
 70
8
 71
3
 72
8
 73
4
 74
0
 40
0
 40
0
 40
0
 40
0
 40
1
 40
1
 40
1
 40
1
 10
1534.507700
 20
873.784870
 30
0.0
 10
1542.818800
 20
859.681470
 30
0.0
 10
1546.764400
 20
841.236970
 30
0.0
 10
1546.808300
 20
820.473470
 30
0.0
  0
SPLINE
  5
21b
100
AcDbEntity
  8
0
 62
1
100
AcDbSpline
 70
8
 71
3
 72
8
 73
4
 74
0
 40
0
 40
0
 40
0
 40
0
 40
1
 40
1
 40
1
 40
1
 10
1546.808300
 20
820.473470
 30
0.0
 10
1546.872300
 20
790.198270
 30
0.0
 10
1525.772100
 20
783.460670
 30
0.0
 10
1511.029700
 20
759.897070
 30
0.0
  0
LWPOLYLINE
  5
21c
100
AcDbEntity
  8
0
 62
1
100
AcDbPolyline
 90
4
 70
0
 10
1526.003700
 20
885.078470
 30
0.0
 10
1526.003700
 20
838.489070
 30
0.0
 10
1534.507700
 20
838.489070
 30
0.0
 10
1534.507700
 20
873.784870
 30
0.0
  0
SPLINE
  5
21d
100
AcDbEntity
  8
0
 62
1
100
AcDbSpline
 70
8
 71
3
 72
8
 73
4
 74
0
 40
0
 40
0
 40
0
 40
0
 40
1
 40
1
 40
1
 40
1
 10
1509.103600
 20
751.393170
 30
0.0
 10
1507.706900
 20
745.320470
 30
0.0
 10
1506.390200
 20
739.830370
 30
0.0
 10
1505.396400
 20
736.156670
 30
0.0
  0
SPLINE
  5
21e
100
AcDbEntity
  8
0
 62
1
100
AcDbSpline
 70
8
 71
3
 72
8
 73
4
 74
0
 40
0
 40
0
 40
0
 40
0
 40
1
 40
1
 40
1
 40
1
 10
1505.396400
 20
736.156670
 30
0.0
 10
1504.154800
 20
731.567070
 30
0.0
 10
1502.941900
 20
727.225770
 30
0.0
 10
1501.747900
 20
723.046670
 30
0.0
  0
LWPOLYLINE
  5
21f
100
AcDbEntity
  8
0
 62
1
100
AcDbPolyline
 90
4
 70
0
 10
1511.029700
 20
759.897070
 30
0.0
 10
1460.084600
 20
759.897070
 30
0.0
 10
1460.084600
 20
751.393170
 30
0.0
 10
1509.103600
 20
751.393170
 30
0.0
  0
SPLINE
  5
220
100
AcDbEntity
  8
0
 62
1
100
AcDbSpline
 70
8
 71
3
 72
8
 73
4
 74
0
 40
0
 40
0
 40
0
 40
0
 40
1
 40
1
 40
1
 40
1
 10
1499.282100
 20
714.542770
 30
0.0
 10
1496.444900
 20
704.884870
 30
0.0
 10
1493.675400
 20
695.835470
 30
0.0
 10
1490.829700
 20
686.196270
 30
0.0
  0
LWPOLYLINE
  5
221
100
AcDbEntity
  8
0
 62
1
100
AcDbPolyline
 90
4
 70
0
 10
1501.747900
 20
723.046670
 30
0.0
 10
1457.910400
 20
723.046670
 30
0.0
 10
1457.910400
 20
714.542770
 30
0.0
 10
1499.282100
 20
714.542770
 30
0.0
  0
SPLINE
  5
222
100
AcDbEntity
  8
0
 62
1
100
AcDbSpline
 70
8
 71
3
 72
8
 73
4
 74
0
 40
0
 40
0
 40
0
 40
0
 40
1
 40
1
 40
1
 40
1
 10
1488.348600
 20
677.692370
 30
0.0
 10
1485.891200
 20
669.157270
 30
0.0
 10
1483.349400
 20
659.951470
 30
0.0
 10
1480.635200
 20
649.345870
 30
0.0
  0
LWPOLYLINE
  5
223
100
AcDbEntity
  8
0
 62
1
100
AcDbPolyline
 90
4
 70
0
 10
1490.829700
 20
686.196270
 30
0.0
 10
1453.861100
 20
686.196270
 30
0.0
 10
1453.861100
 20
677.692370
 30
0.0
 10
1488.348600
 20
677.692370
 30
0.0
  0
SPLINE
  5
224
100
AcDbEntity
  8
0
 62
1
100
AcDbSpline
 70
8
 71
3
 72
8
 73
4
 74
0
 40
0
 40
0
 40
0
 40
0
 40
1
 40
1
 40
1
 40
1
 10
1478.498200
 20
640.841970
 30
0.0
 10
1477.142400
 20
635.351770
 30
0.0
 10
1475.741800
 20
629.494070
 30
0.0
 10
1474.285300
 20
623.180670
 30
0.0
  0
SPLINE
  5
225
100
AcDbEntity
  8
0
 62
1
100
AcDbSpline
 70
8
 71
3
 72
8
 73
4
 74
0
 40
0
 40
0
 40
0
 40
0
 40
1
 40
1
 40
1
 40
1
 10
1474.285300
 20
623.180670
 30
0.0
 10
1473.435800
 20
619.497670
 30
0.0
 10
1472.727100
 20
615.953170
 30
0.0
 10
1472.141500
 20
612.495470
 30
0.0
  0
LWPOLYLINE
  5
226
100
AcDbEntity
  8
0
 62
1
100
AcDbPolyline
 90
4
 70
0
 10
1480.635200
 20
649.345870
 30
0.0
 10
1448.705200
 20
649.345870
 30
0.0
 10
1448.705200
 20
640.841970
 30
0.0
 10
1478.498200
 20
640.841970
 30
0.0
  0
SPLINE
  5
227
100
AcDbEntity
  8
0
 62
1
100
AcDbSpline
 70
8
 71
3
 72
8
 73
4
 74
0
 40
0
 40
0
 40
0
 40
0
 40
1
 40
1
 40
1
 40
1
 10
1470.922000
 20
603.991570
 30
0.0
 10
1470.338100
 20
599.009670
 30
0.0
 10
1469.994000
 20
594.125570
 30
0.0
 10
1469.832100
 20
589.170670
 30
0.0
  0
SPLINE
  5
228
100
AcDbEntity
  8
0
 62
1
100
AcDbSpline
 70
8
 71
3
 72
8
 73
4
 74
0
 40
0
 40
0
 40
0
 40
0
 40
1
 40
1
 40
1
 40
1
 10
1469.832100
 20
589.170670
 30
0.0
 10
1469.687800
 20
584.758470
 30
0.0
 10
1469.687800
 20
580.289370
 30
0.0
 10
1469.791100
 20
575.645070
 30
0.0
  0
LWPOLYLINE
  5
229
100
AcDbEntity
  8
0
 62
1
100
AcDbPolyline
 90
4
 70
0
 10
1472.141500
 20
612.495470
 30
0.0
 10
1442.240800
 20
612.495470
 30
0.0
 10
1442.240800
 20
603.991570
 30
0.0
 10
1470.922000
 20
603.991570
 30
0.0
  0
SPLINE
  5
22a
100
AcDbEntity
  8
0
 62
1
100
AcDbSpline
 70
8
 71
3
 72
8
 73
4
 74
0
 40
0
 40
0
 40
0
 40
0
 40
1
 40
1
 40
1
 40
1
 10
1470.076500
 20
567.141170
 30
0.0
 10
1470.269600
 20
562.673470
 30
0.0
 10
1470.528400
 20
557.999970
 30
0.0
 10
1470.821800
 20
553.030270
 30
0.0
  0
SPLINE
  5
22b
100
AcDbEntity
  8
0
 62
1
100
AcDbSpline
 70
8
 71
3
 72
8
 73
4
 74
0
 40
0
 40
0
 40
0
 40
0
 40
1
 40
1
 40
1
 40
1
 10
1470.821800
 20
553.030270
 30
0.0
 10
1479.478200
 20
553.109370
 30
0.0
 10
1499.172800
 20
552.632070
 30
0.0
 10
1509.492000
 20
543.482970
 30
0.0
  0
SPLINE
  5
22c
100
AcDbEntity
  8
0
 62
1
100
AcDbSpline
 70
8
 71
3
 72
8
 73
4
 74
0
 40
0
 40
0
 40
0
 40
0
 40
1
 40
1
 40
1
 40
1
 10
1509.492000
 20
543.482970
 30
0.0
 10
1511.040000
 20
542.110370
 30
0.0
 10
1512.376500
 20
540.541970
 30
0.0
 10
1513.530000
 20
538.794670
 30
0.0
  0
LWPOLYLINE
  5
22d
100
AcDbEntity
  8
0
 62
1
100
AcDbPolyline
 90
4
 70
0
 10
1469.791100
 20
575.645070
 30
0.0
 10
1444.537800
 20
575.645070
 30
0.0
 10
1444.537800
 20
567.141170
 30
0.0
 10
1470.076500
 20
567.141170
 30
0.0
  0
SPLINE
  5
22e
100
AcDbEntity
  8
0
 62
1
100
AcDbSpline
 70
8
 71
3
 72
8
 73
4
 74
0
 40
0
 40
0
 40
0
 40
0
 40
1
 40
1
 40
1
 40
1
 10
1517.417100
 20
530.290770
 30
0.0
 10
1518.790800
 20
525.832470
 30
0.0
 10
1519.583300
 20
520.743670
 30
0.0
 10
1520.014500
 20
515.150070
 30
0.0
  0
SPLINE
  5
22f
100
AcDbEntity
  8
0
 62
1
100
AcDbSpline
 70
8
 71
3
 72
8
 73
4
 74
0
 40
0
 40
0
 40
0
 40
0
 40
1
 40
1
 40
1
 40
1
 10
1520.014500
 20
515.150070
 30
0.0
 10
1520.203300
 20
512.700670
 30
0.0
 10
1519.444700
 20
510.521370
 30
0.0
 10
1517.776000
 20
508.718870
 30
0.0
  0
SPLINE
  5
230
100
AcDbEntity
  8
0
 62
1
100
AcDbSpline
 70
8
 71
3
 72
8
 73
4
 74
0
 40
0
 40
0
 40
0
 40
0
 40
1
 40
1
 40
1
 40
1
 10
1517.776000
 20
508.718870
 30
0.0
 10
1516.106900
 20
506.915970
 30
0.0
 10
1513.992600
 20
505.992170
 30
0.0
 10
1511.535800
 20
505.992170
 30
0.0
  0
LWPOLYLINE
  5
231
100
AcDbEntity
  8
0
 62
1
100
AcDbPolyline
 90
4
 70
0
 10
1513.530000
 20
538.794670
 30
0.0
 10
1474.318300
 20
538.794670
 30
0.0
 10
1474.318300
 20
530.290770
 30
0.0
 10
1517.417100
 20
530.290770
 30
0.0
  0
SPLINE
  5
232
100
AcDbEntity
  8
0
 62
1
100
AcDbSpline
 70
8
 71
3
 72
8
 73
4
 74
0
 40
0
 40
0
 40
0
 40
0
 40
1
 40
1
 40
1
 40
1
 10
1449.406600
 20
505.992170
 30
0.0
 10
1448.295700
 20
505.992170
 30
0.0
 10
1447.341300
 20
506.523670
 30
0.0
 10
1446.756200
 20
507.467870
 30
0.0
  0
SPLINE
  5
233
100
AcDbEntity
  8
0
 62
1
100
AcDbSpline
 70
8
 71
3
 72
8
 73
4
 74
0
 40
0
 40
0
 40
0
 40
0
 40
1
 40
1
 40
1
 40
1
 10
1446.756200
 20
507.467870
 30
0.0
 10
1445.310200
 20
509.801670
 30
0.0
 10
1450.304900
 20
517.236070
 30
0.0
 10
1438.662700
 20
523.056470
 30
0.0
  0
LWPOLYLINE
  5
234
100
AcDbEntity
  8
0
 62
1
100
AcDbPolyline
 90
2
 70
0
 10
1511.535800
 20
505.992170
 30
0.0
 10
1449.406600
 20
505.992170
 30
0.0
  0
SPLINE
  5
235
100
AcDbEntity
  8
0
 62
1
100
AcDbSpline
 70
8
 71
3
 72
8
 73
4
 74
0
 40
0
 40
0
 40
0
 40
0
 40
1
 40
1
 40
1
 40
1
 10
1438.662600
 20
2681.639470
 30
0.0
 10
1424.328900
 20
2676.363570
 30
0.0
 10
1428.093600
 20
2648.260070
 30
0.0
 10
1416.162600
 20
2633.264270
 30
0.0
  0
SPLINE
  5
236
100
AcDbEntity
  8
0
 62
1
100
AcDbSpline
 70
8
 71
3
 72
8
 73
4
 74
0
 40
0
 40
0
 40
0
 40
0
 40
1
 40
1
 40
1
 40
1
 10
1416.162600
 20
2633.264270
 30
0.0
 10
1397.972700
 20
2613.834170
 30
0.0
 10
1403.316900
 20
2609.701770
 30
0.0
 10
1409.037400
 20
2599.514070
 30
0.0
  0
SPLINE
  5
237
100
AcDbEntity
  8
0
 62
1
100
AcDbSpline
 70
8
 71
3
 72
8
 73
4
 74
0
 40
0
 40
0
 40
0
 40
0
 40
1
 40
1
 40
1
 40
1
 10
1409.037400
 20
2599.514070
 30
0.0
 10
1418.671000
 20
2582.358270
 30
0.0
 10
1416.504200
 20
2560.685370
 30
0.0
 10
1416.911500
 20
2541.014970
 30
0.0
  0
SPLINE
  5
238
100
AcDbEntity
  8
0
 62
1
100
AcDbSpline
 70
8
 71
3
 72
8
 73
4
 74
0
 40
0
 40
0
 40
0
 40
0
 40
1
 40
1
 40
1
 40
1
 10
1416.911500
 20
2541.014970
 30
0.0
 10
1417.683100
 20
2503.766870
 30
0.0
 10
1411.655000
 20
2475.935970
 30
0.0
 10
1408.106600
 20
2444.798870
 30
0.0
  0
SPLINE
  5
239
100
AcDbEntity
  8
0
 62
1
100
AcDbSpline
 70
8
 71
3
 72
8
 73
4
 74
0
 40
0
 40
0
 40
0
 40
0
 40
1
 40
1
 40
1
 40
1
 10
1408.106600
 20
2444.798870
 30
0.0
 10
1401.902400
 20
2440.018170
 30
0.0
 10
1401.201900
 20
2436.316170
 30
0.0
 10
1401.155100
 20
2431.907770
 30
0.0
  0
SPLINE
  5
23a
100
AcDbEntity
  8
0
 62
1
100
AcDbSpline
 70
8
 71
3
 72
8
 73
4
 74
0
 40
0
 40
0
 40
0
 40
0
 40
1
 40
1
 40
1
 40
1
 10
1401.155100
 20
2431.907770
 30
0.0
 10
1401.073100
 20
2424.108770
 30
0.0
 10
1403.546500
 20
2420.308370
 30
0.0
 10
1404.516200
 20
2416.962670
 30
0.0
  0
SPLINE
  5
23b
100
AcDbEntity
  8
0
 62
1
100
AcDbSpline
 70
8
 71
3
 72
8
 73
4
 74
0
 40
0
 40
0
 40
0
 40
0
 40
1
 40
1
 40
1
 40
1
 10
1404.516200
 20
2416.962670
 30
0.0
 10
1401.556800
 20
2409.466370
 30
0.0
 10
1398.315100
 20
2406.705770
 30
0.0
 10
1397.769200
 20
2397.091470
 30
0.0
  0
SPLINE
  5
23c
100
AcDbEntity
  8
0
 62
1
100
AcDbSpline
 70
8
 71
3
 72
8
 73
4
 74
0
 40
0
 40
0
 40
0
 40
0
 40
1
 40
1
 40
1
 40
1
 10
1397.769200
 20
2397.091470
 30
0.0
 10
1396.328300
 20
2371.723970
 30
0.0
 10
1401.004100
 20
2346.348470
 30
0.0
 10
1415.452500
 20
2328.227470
 30
0.0
  0
LWPOLYLINE
  5
23d
100
AcDbEntity
  8
0
 62
1
100
AcDbPolyline
 90
1
 70
1
 10
1438.662700
 20
523.056470
 30
0.0
  0
SPLINE
  5
23e
100
AcDbEntity
  8
0
 62
1
100
AcDbSpline
 70
8
 71
3
 72
8
 73
4
 74
0
 40
0
 40
0
 40
0
 40
0
 40
1
 40
1
 40
1
 40
1
 10
1423.956500
 20
2319.419870
 30
0.0
 10
1431.488100
 20
2312.985570
 30
0.0
 10
1440.846100
 20
2308.046170
 30
0.0
 10
1452.302900
 20
2305.138970
 30
0.0
  0
LWPOLYLINE
  5
23f
100
AcDbEntity
  8
0
 62
1
100
AcDbPolyline
 90
4
 70
0
 10
1415.452500
 20
2328.227470
 30
0.0
 10
1415.452500
 20
2382.107270
 30
0.0
 10
1423.956500
 20
2382.107270
 30
0.0
 10
1423.956500
 20
2319.419870
 30
0.0
  0
SPLINE
  5
240
100
AcDbEntity
  8
0
 62
1
100
AcDbSpline
 70
8
 71
3
 72
8
 73
4
 74
0
 40
0
 40
0
 40
0
 40
0
 40
1
 40
1
 40
1
 40
1
 10
1460.806900
 20
2303.426870
 30
0.0
 10
1468.703100
 20
2302.212770
 30
0.0
 10
1477.460400
 20
2301.858670
 30
0.0
 10
1487.160300
 20
2302.512670
 30
0.0
  0
SPLINE
  5
241
100
AcDbEntity
  8
0
 62
1
100
AcDbSpline
 70
8
 71
3
 72
8
 73
4
 74
0
 40
0
 40
0
 40
0
 40
0
 40
1
 40
1
 40
1
 40
1
 10
1487.160300
 20
2302.512670
 30
0.0
 10
1487.831000
 20
2302.557670
 30
0.0
 10
1488.494800
 20
2302.612670
 30
0.0
 10
1489.153300
 20
2302.673970
 30
0.0
  0
LWPOLYLINE
  5
242
100
AcDbEntity
  8
0
 62
1
100
AcDbPolyline
 90
4
 70
0
 10
1452.302900
 20
2305.138970
 30
0.0
 10
1452.302900
 20
2374.108770
 30
0.0
 10
1460.806900
 20
2374.108770
 30
0.0
 10
1460.806900
 20
2303.426870
 30
0.0
  0
SPLINE
  5
243
100
AcDbEntity
  8
0
 62
1
100
AcDbSpline
 70
8
 71
3
 72
8
 73
4
 74
0
 40
0
 40
0
 40
0
 40
0
 40
1
 40
1
 40
1
 40
1
 10
1497.657300
 20
2303.991170
 30
0.0
 10
1509.244700
 20
2306.547170
 30
0.0
 10
1518.645300
 20
2311.963070
 30
0.0
 10
1526.003700
 20
2319.617470
 30
0.0
  0
LWPOLYLINE
  5
244
100
AcDbEntity
  8
0
 62
1
100
AcDbPolyline
 90
4
 70
0
 10
1489.153300
 20
2302.673970
 30
0.0
 10
1489.153300
 20
2373.735970
 30
0.0
 10
1497.657300
 20
2373.735970
 30
0.0
 10
1497.657300
 20
2303.991170
 30
0.0
  0
SPLINE
  5
245
100
AcDbEntity
  8
0
 62
1
100
AcDbSpline
 70
8
 71
3
 72
8
 73
4
 74
0
 40
0
 40
0
 40
0
 40
0
 40
1
 40
1
 40
1
 40
1
 10
1534.507700
 20
2330.910970
 30
0.0
 10
1542.818800
 20
2345.014470
 30
0.0
 10
1546.764400
 20
2363.458970
 30
0.0
 10
1546.808300
 20
2384.222470
 30
0.0
  0
SPLINE
  5
246
100
AcDbEntity
  8
0
 62
1
100
AcDbSpline
 70
8
 71
3
 72
8
 73
4
 74
0
 40
0
 40
0
 40
0
 40
0
 40
1
 40
1
 40
1
 40
1
 10
1546.808300
 20
2384.222470
 30
0.0
 10
1546.872300
 20
2414.497570
 30
0.0
 10
1525.772100
 20
2421.235270
 30
0.0
 10
1511.029700
 20
2444.798870
 30
0.0
  0
LWPOLYLINE
  5
247
100
AcDbEntity
  8
0
 62
1
100
AcDbPolyline
 90
4
 70
0
 10
1526.003700
 20
2319.617470
 30
0.0
 10
1526.003700
 20
2366.206870
 30
0.0
 10
1534.507700
 20
2366.206870
 30
0.0
 10
1534.507700
 20
2330.910970
 30
0.0
  0
SPLINE
  5
248
100
AcDbEntity
  8
0
 62
1
100
AcDbSpline
 70
8
 71
3
 72
8
 73
4
 74
0
 40
0
 40
0
 40
0
 40
0
 40
1
 40
1
 40
1
 40
1
 10
1509.103600
 20
2453.302770
 30
0.0
 10
1507.706900
 20
2459.375470
 30
0.0
 10
1506.390200
 20
2464.865570
 30
0.0
 10
1505.396400
 20
2468.539270
 30
0.0
  0
SPLINE
  5
249
100
AcDbEntity
  8
0
 62
1
100
AcDbSpline
 70
8
 71
3
 72
8
 73
4
 74
0
 40
0
 40
0
 40
0
 40
0
 40
1
 40
1
 40
1
 40
1
 10
1505.396400
 20
2468.539270
 30
0.0
 10
1504.154800
 20
2473.128870
 30
0.0
 10
1502.941900
 20
2477.470070
 30
0.0
 10
1501.747900
 20
2481.649270
 30
0.0
  0
LWPOLYLINE
  5
24a
100
AcDbEntity
  8
0
 62
1
100
AcDbPolyline
 90
4
 70
0
 10
1511.029700
 20
2444.798870
 30
0.0
 10
1460.084600
 20
2444.798870
 30
0.0
 10
1460.084600
 20
2453.302770
 30
0.0
 10
1509.103600
 20
2453.302770
 30
0.0
  0
SPLINE
  5
24b
100
AcDbEntity
  8
0
 62
1
100
AcDbSpline
 70
8
 71
3
 72
8
 73
4
 74
0
 40
0
 40
0
 40
0
 40
0
 40
1
 40
1
 40
1
 40
1
 10
1499.282100
 20
2490.153170
 30
0.0
 10
1496.444900
 20
2499.811070
 30
0.0
 10
1493.675400
 20
2508.860370
 30
0.0
 10
1490.829700
 20
2518.499670
 30
0.0
  0
LWPOLYLINE
  5
24c
100
AcDbEntity
  8
0
 62
1
100
AcDbPolyline
 90
4
 70
0
 10
1501.747900
 20
2481.649270
 30
0.0
 10
1457.910400
 20
2481.649270
 30
0.0
 10
1457.910400
 20
2490.153170
 30
0.0
 10
1499.282100
 20
2490.153170
 30
0.0
  0
SPLINE
  5
24d
100
AcDbEntity
  8
0
 62
1
100
AcDbSpline
 70
8
 71
3
 72
8
 73
4
 74
0
 40
0
 40
0
 40
0
 40
0
 40
1
 40
1
 40
1
 40
1
 10
1488.348600
 20
2527.003570
 30
0.0
 10
1485.891200
 20
2535.538670
 30
0.0
 10
1483.349400
 20
2544.744470
 30
0.0
 10
1480.635200
 20
2555.350070
 30
0.0
  0
LWPOLYLINE
  5
24e
100
AcDbEntity
  8
0
 62
1
100
AcDbPolyline
 90
4
 70
0
 10
1490.829700
 20
2518.499670
 30
0.0
 10
1453.861100
 20
2518.499670
 30
0.0
 10
1453.861100
 20
2527.003570
 30
0.0
 10
1488.348600
 20
2527.003570
 30
0.0
  0
SPLINE
  5
24f
100
AcDbEntity
  8
0
 62
1
100
AcDbSpline
 70
8
 71
3
 72
8
 73
4
 74
0
 40
0
 40
0
 40
0
 40
0
 40
1
 40
1
 40
1
 40
1
 10
1478.498200
 20
2563.853970
 30
0.0
 10
1477.142400
 20
2569.344070
 30
0.0
 10
1475.741800
 20
2575.201870
 30
0.0
 10
1474.285300
 20
2581.515170
 30
0.0
  0
SPLINE
  5
250
100
AcDbEntity
  8
0
 62
1
100
AcDbSpline
 70
8
 71
3
 72
8
 73
4
 74
0
 40
0
 40
0
 40
0
 40
0
 40
1
 40
1
 40
1
 40
1
 10
1474.285300
 20
2581.515170
 30
0.0
 10
1473.435800
 20
2585.198270
 30
0.0
 10
1472.727100
 20
2588.742670
 30
0.0
 10
1472.141500
 20
2592.200370
 30
0.0
  0
LWPOLYLINE
  5
251
100
AcDbEntity
  8
0
 62
1
100
AcDbPolyline
 90
4
 70
0
 10
1480.635200
 20
2555.350070
 30
0.0
 10
1448.705200
 20
2555.350070
 30
0.0
 10
1448.705200
 20
2563.853970
 30
0.0
 10
1478.498200
 20
2563.853970
 30
0.0
  0
SPLINE
  5
252
100
AcDbEntity
  8
0
 62
1
100
AcDbSpline
 70
8
 71
3
 72
8
 73
4
 74
0
 40
0
 40
0
 40
0
 40
0
 40
1
 40
1
 40
1
 40
1
 10
1470.922000
 20
2600.704370
 30
0.0
 10
1470.338100
 20
2605.686270
 30
0.0
 10
1469.994000
 20
2610.570370
 30
0.0
 10
1469.832100
 20
2615.525270
 30
0.0
  0
SPLINE
  5
253
100
AcDbEntity
  8
0
 62
1
100
AcDbSpline
 70
8
 71
3
 72
8
 73
4
 74
0
 40
0
 40
0
 40
0
 40
0
 40
1
 40
1
 40
1
 40
1
 10
1469.832100
 20
2615.525270
 30
0.0
 10
1469.687800
 20
2619.937470
 30
0.0
 10
1469.687800
 20
2624.406570
 30
0.0
 10
1469.791100
 20
2629.050770
 30
0.0
  0
LWPOLYLINE
  5
254
100
AcDbEntity
  8
0
 62
1
100
AcDbPolyline
 90
4
 70
0
 10
1472.141500
 20
2592.200370
 30
0.0
 10
1442.240800
 20
2592.200370
 30
0.0
 10
1442.240800
 20
2600.704370
 30
0.0
 10
1470.922000
 20
2600.704370
 30
0.0
  0
SPLINE
  5
255
100
AcDbEntity
  8
0
 62
1
100
AcDbSpline
 70
8
 71
3
 72
8
 73
4
 74
0
 40
0
 40
0
 40
0
 40
0
 40
1
 40
1
 40
1
 40
1
 10
1470.076500
 20
2637.554770
 30
0.0
 10
1470.269600
 20
2642.022470
 30
0.0
 10
1470.528400
 20
2646.695870
 30
0.0
 10
1470.821800
 20
2651.665570
 30
0.0
  0
SPLINE
  5
256
100
AcDbEntity
  8
0
 62
1
100
AcDbSpline
 70
8
 71
3
 72
8
 73
4
 74
0
 40
0
 40
0
 40
0
 40
0
 40
1
 40
1
 40
1
 40
1
 10
1470.821800
 20
2651.665570
 30
0.0
 10
1479.478200
 20
2651.586570
 30
0.0
 10
1499.172800
 20
2652.063870
 30
0.0
 10
1509.492000
 20
2661.212970
 30
0.0
  0
SPLINE
  5
257
100
AcDbEntity
  8
0
 62
1
100
AcDbSpline
 70
8
 71
3
 72
8
 73
4
 74
0
 40
0
 40
0
 40
0
 40
0
 40
1
 40
1
 40
1
 40
1
 10
1509.492000
 20
2661.212970
 30
0.0
 10
1511.040000
 20
2662.585470
 30
0.0
 10
1512.376500
 20
2664.153970
 30
0.0
 10
1513.530000
 20
2665.901170
 30
0.0
  0
LWPOLYLINE
  5
258
100
AcDbEntity
  8
0
 62
1
100
AcDbPolyline
 90
4
 70
0
 10
1469.791100
 20
2629.050770
 30
0.0
 10
1444.537800
 20
2629.050770
 30
0.0
 10
1444.537800
 20
2637.554770
 30
0.0
 10
1470.076500
 20
2637.554770
 30
0.0
  0
SPLINE
  5
259
100
AcDbEntity
  8
0
 62
1
100
AcDbSpline
 70
8
 71
3
 72
8
 73
4
 74
0
 40
0
 40
0
 40
0
 40
0
 40
1
 40
1
 40
1
 40
1
 10
1517.417100
 20
2674.405170
 30
0.0
 10
1518.790800
 20
2678.863470
 30
0.0
 10
1519.583300
 20
2683.952270
 30
0.0
 10
1520.014500
 20
2689.545870
 30
0.0
  0
SPLINE
  5
25a
100
AcDbEntity
  8
0
 62
1
100
AcDbSpline
 70
8
 71
3
 72
8
 73
4
 74
0
 40
0
 40
0
 40
0
 40
0
 40
1
 40
1
 40
1
 40
1
 10
1520.014500
 20
2689.545870
 30
0.0
 10
1520.203300
 20
2691.995270
 30
0.0
 10
1519.444700
 20
2694.174570
 30
0.0
 10
1517.776000
 20
2695.977070
 30
0.0
  0
SPLINE
  5
25b
100
AcDbEntity
  8
0
 62
1
100
AcDbSpline
 70
8
 71
3
 72
8
 73
4
 74
0
 40
0
 40
0
 40
0
 40
0
 40
1
 40
1
 40
1
 40
1
 10
1517.776000
 20
2695.977070
 30
0.0
 10
1516.106900
 20
2697.779870
 30
0.0
 10
1513.992600
 20
2698.703770
 30
0.0
 10
1511.535800
 20
2698.703770
 30
0.0
  0
LWPOLYLINE
  5
25c
100
AcDbEntity
  8
0
 62
1
100
AcDbPolyline
 90
4
 70
0
 10
1513.530000
 20
2665.901170
 30
0.0
 10
1474.318300
 20
2665.901170
 30
0.0
 10
1474.318300
 20
2674.405170
 30
0.0
 10
1517.417100
 20
2674.405170
 30
0.0
  0
SPLINE
  5
25d
100
AcDbEntity
  8
0
 62
1
100
AcDbSpline
 70
8
 71
3
 72
8
 73
4
 74
0
 40
0
 40
0
 40
0
 40
0
 40
1
 40
1
 40
1
 40
1
 10
1449.406600
 20
2698.703770
 30
0.0
 10
1448.295700
 20
2698.703770
 30
0.0
 10
1447.341300
 20
2698.172270
 30
0.0
 10
1446.756200
 20
2697.227970
 30
0.0
  0
SPLINE
  5
25e
100
AcDbEntity
  8
0
 62
1
100
AcDbSpline
 70
8
 71
3
 72
8
 73
4
 74
0
 40
0
 40
0
 40
0
 40
0
 40
1
 40
1
 40
1
 40
1
 10
1446.756200
 20
2697.227970
 30
0.0
 10
1445.310200
 20
2694.894270
 30
0.0
 10
1450.304900
 20
2687.459770
 30
0.0
 10
1438.662700
 20
2681.639470
 30
0.0
  0
LWPOLYLINE
  5
25f
100
AcDbEntity
  8
0
 62
1
100
AcDbPolyline
 90
2
 70
0
 10
1511.535800
 20
2698.703770
 30
0.0
 10
1449.406600
 20
2698.703770
 30
0.0
  0
SPLINE
  5
260
100
AcDbEntity
  8
0
 62
1
100
AcDbSpline
 70
8
 71
3
 72
8
 73
4
 74
0
 40
0
 40
0
 40
0
 40
0
 40
1
 40
1
 40
1
 40
1
 10
2816.069100
 20
993.894070
 30
0.0
 10
2808.526600
 20
984.892870
 30
0.0
 10
2807.110400
 20
968.396670
 30
0.0
 10
2807.110400
 20
955.137070
 30
0.0
  0
SPLINE
  5
261
100
AcDbEntity
  8
0
 62
1
100
AcDbSpline
 70
8
 71
3
 72
8
 73
4
 74
0
 40
0
 40
0
 40
0
 40
0
 40
1
 40
1
 40
1
 40
1
 10
2807.110400
 20
955.137070
 30
0.0
 10
2807.110400
 20
941.877470
 30
0.0
 10
2808.526600
 20
925.380970
 30
0.0
 10
2816.069100
 20
916.379470
 30
0.0
  0
LWPOLYLINE
  5
262
100
AcDbEntity
  8
0
 62
1
100
AcDbPolyline
 90
1
 70
1
 10
1438.662700
 20
2681.639470
 30
0.0
  0
SPLINE
  5
263
100
AcDbEntity
  8
0
 62
1
100
AcDbSpline
 70
8
 71
3
 72
8
 73
4
 74
0
 40
0
 40
0
 40
0
 40
0
 40
1
 40
1
 40
1
 40
1
 10
2824.573300
 20
916.378670
 30
0.0
 10
2836.313500
 20
912.264770
 30
0.0
 10
2855.353300
 20
912.265270
 30
0.0
 10
2867.092400
 20
916.378370
 30
0.0
  0
LWPOLYLINE
  5
264
100
AcDbEntity
  8
0
 62
1
100
AcDbPolyline
 90
4
 70
0
 10
2816.069100
 20
916.379470
 30
0.0
 10
2816.069100
 20
955.136470
 30
0.0
 10
2824.573300
 20
955.136470
 30
0.0
 10
2824.573300
 20
916.378670
 30
0.0
  0
SPLINE
  5
265
100
AcDbEntity
  8
0
 62
1
100
AcDbSpline
 70
8
 71
3
 72
8
 73
4
 74
0
 40
0
 40
0
 40
0
 40
0
 40
1
 40
1
 40
1
 40
1
 10
2875.596900
 20
916.379470
 30
0.0
 10
2883.139000
 20
925.380970
 30
0.0
 10
2884.556900
 20
941.877470
 30
0.0
 10
2884.556900
 20
955.137070
 30
0.0
  0
SPLINE
  5
266
100
AcDbEntity
  8
0
 62
1
100
AcDbSpline
 70
8
 71
3
 72
8
 73
4
 74
0
 40
0
 40
0
 40
0
 40
0
 40
1
 40
1
 40
1
 40
1
 10
2884.556900
 20
955.137070
 30
0.0
 10
2884.556900
 20
968.396670
 30
0.0
 10
2883.139000
 20
984.892870
 30
0.0
 10
2875.596600
 20
993.894070
 30
0.0
  0
SPLINE
  5
267
100
AcDbEntity
  8
0
 62
1
100
AcDbSpline
 70
8
 71
3
 72
8
 73
4
 74
0
 40
0
 40
0
 40
0
 40
0
 40
1
 40
1
 40
1
 40
1
 10
2875.596600
 20
993.894070
 30
0.0
 10
2866.387700
 20
1004.883970
 30
0.0
 10
2825.277700
 20
1004.883970
 30
0.0
 10
2816.069100
 20
993.894070
 30
0.0
  0
LWPOLYLINE
  5
268
100
AcDbEntity
  8
0
 62
1
100
AcDbPolyline
 90
4
 70
0
 10
2867.092400
 20
916.378370
 30
0.0
 10
2867.092400
 20
955.136470
 30
0.0
 10
2875.596900
 20
955.136470
 30
0.0
 10
2875.596900
 20
916.379470
 30
0.0
  0
SPLINE
  5
269
100
AcDbEntity
  8
0
 62
1
100
AcDbSpline
 70
8
 71
3
 72
8
 73
4
 74
0
 40
0
 40
0
 40
0
 40
0
 40
1
 40
1
 40
1
 40
1
 10
2935.494400
 20
1051.228370
 30
0.0
 10
2921.314100
 20
1029.299570
 30
0.0
 10
2912.873700
 20
1002.335770
 30
0.0
 10
2912.873700
 20
976.221670
 30
0.0
  0
SPLINE
  5
26a
100
AcDbEntity
  8
0
 62
1
100
AcDbSpline
 70
8
 71
3
 72
8
 73
4
 74
0
 40
0
 40
0
 40
0
 40
0
 40
1
 40
1
 40
1
 40
1
 10
2912.873700
 20
976.221670
 30
0.0
 10
2912.873700
 20
950.107470
 30
0.0
 10
2921.323200
 20
923.149470
 30
0.0
 10
2935.494400
 20
901.214970
 30
0.0
  0
LWPOLYLINE
  5
26b
100
AcDbEntity
  8
0
 62
1
100
AcDbPolyline
 90
1
 70
1
 10
2816.069100
 20
993.894070
 30
0.0
  0
SPLINE
  5
26c
100
AcDbEntity
  8
0
 62
1
100
AcDbSpline
 70
8
 71
3
 72
8
 73
4
 74
0
 40
0
 40
0
 40
0
 40
0
 40
1
 40
1
 40
1
 40
1
 10
2943.998600
 20
901.214970
 30
0.0
 10
2955.452000
 20
898.046970
 30
0.0
 10
2974.973700
 20
898.025970
 30
0.0
 10
2986.517800
 20
901.158270
 30
0.0
  0
LWPOLYLINE
  5
26d
100
AcDbEntity
  8
0
 62
1
100
AcDbPolyline
 90
4
 70
0
 10
2935.494400
 20
901.214970
 30
0.0
 10
2935.494400
 20
976.221670
 30
0.0
 10
2943.998600
 20
976.221670
 30
0.0
 10
2943.998600
 20
901.214970
 30
0.0
  0
SPLINE
  5
26e
100
AcDbEntity
  8
0
 62
1
100
AcDbSpline
 70
8
 71
3
 72
8
 73
4
 74
0
 40
0
 40
0
 40
0
 40
0
 40
1
 40
1
 40
1
 40
1
 10
2995.022000
 20
900.940870
 30
0.0
 10
2995.090000
 20
901.031570
 30
0.0
 10
2995.156300
 20
901.122570
 30
0.0
 10
2995.216200
 20
901.214970
 30
0.0
  0
SPLINE
  5
26f
100
AcDbEntity
  8
0
 62
1
100
AcDbSpline
 70
8
 71
3
 72
8
 73
4
 74
0
 40
0
 40
0
 40
0
 40
0
 40
1
 40
1
 40
1
 40
1
 10
2995.216200
 20
901.214970
 30
0.0
 10
3009.377500
 20
923.134070
 30
0.0
 10
3017.678500
 20
950.125870
 30
0.0
 10
3017.644700
 20
976.221670
 30
0.0
  0
SPLINE
  5
270
100
AcDbEntity
  8
0
 62
1
100
AcDbSpline
 70
8
 71
3
 72
8
 73
4
 74
0
 40
0
 40
0
 40
0
 40
0
 40
1
 40
1
 40
1
 40
1
 10
3017.644700
 20
976.221670
 30
0.0
 10
3017.610700
 20
1002.336070
 30
0.0
 10
3009.202600
 20
1029.299570
 30
0.0
 10
2995.022000
 20
1051.228370
 30
0.0
  0
SPLINE
  5
271
100
AcDbEntity
  8
0
 62
1
100
AcDbSpline
 70
8
 71
3
 72
8
 73
4
 74
0
 40
0
 40
0
 40
0
 40
0
 40
1
 40
1
 40
1
 40
1
 10
2995.022000
 20
1051.228370
 30
0.0
 10
2988.989300
 20
1060.557470
 30
0.0
 10
2941.527100
 20
1060.558070
 30
0.0
 10
2935.494400
 20
1051.228370
 30
0.0
  0
LWPOLYLINE
  5
272
100
AcDbEntity
  8
0
 62
1
100
AcDbPolyline
 90
4
 70
0
 10
2986.517800
 20
901.158270
 30
0.0
 10
2986.517800
 20
976.221670
 30
0.0
 10
2995.022000
 20
976.221670
 30
0.0
 10
2995.022000
 20
900.940870
 30
0.0
  0
SPLINE
  5
273
100
AcDbEntity
  8
0
 62
1
100
AcDbSpline
 70
8
 71
3
 72
8
 73
4
 74
0
 40
0
 40
0
 40
0
 40
0
 40
1
 40
1
 40
1
 40
1
 10
3070.356700
 20
1067.790370
 30
0.0
 10
3052.832900
 20
1039.805870
 30
0.0
 10
3033.506300
 20
984.670070
 30
0.0
 10
3033.506300
 20
951.650970
 30
0.0
  0
SPLINE
  5
274
100
AcDbEntity
  8
0
 62
1
100
AcDbSpline
 70
8
 71
3
 72
8
 73
4
 74
0
 40
0
 40
0
 40
0
 40
0
 40
1
 40
1
 40
1
 40
1
 10
3033.506300
 20
951.650970
 30
0.0
 10
3033.506300
 20
918.632370
 30
0.0
 10
3048.707300
 20
894.400770
 30
0.0
 10
3070.356400
 20
880.291570
 30
0.0
  0
LWPOLYLINE
  5
275
100
AcDbEntity
  8
0
 62
1
100
AcDbPolyline
 90
1
 70
1
 10
2935.494400
 20
1051.228370
 30
0.0
  0
SPLINE
  5
276
100
AcDbEntity
  8
0
 62
1
100
AcDbSpline
 70
8
 71
3
 72
8
 73
4
 74
0
 40
0
 40
0
 40
0
 40
0
 40
1
 40
1
 40
1
 40
1
 10
3078.860600
 20
880.291270
 30
0.0
 10
3093.281900
 20
877.390570
 30
0.0
 10
3106.959000
 20
877.390870
 30
0.0
 10
3121.380300
 20
880.290970
 30
0.0
  0
LWPOLYLINE
  5
277
100
AcDbEntity
  8
0
 62
1
100
AcDbPolyline
 90
4
 70
0
 10
3070.356400
 20
880.291570
 30
0.0
 10
3070.356400
 20
974.040970
 30
0.0
 10
3078.860600
 20
974.040970
 30
0.0
 10
3078.860600
 20
880.291270
 30
0.0
  0
SPLINE
  5
278
100
AcDbEntity
  8
0
 62
1
100
AcDbSpline
 70
8
 71
3
 72
8
 73
4
 74
0
 40
0
 40
0
 40
0
 40
0
 40
1
 40
1
 40
1
 40
1
 10
3129.885400
 20
880.291270
 30
0.0
 10
3151.534700
 20
894.400470
 30
0.0
 10
3166.734600
 20
918.632170
 30
0.0
 10
3166.734600
 20
951.650970
 30
0.0
  0
SPLINE
  5
279
100
AcDbEntity
  8
0
 62
1
100
AcDbSpline
 70
8
 71
3
 72
8
 73
4
 74
0
 40
0
 40
0
 40
0
 40
0
 40
1
 40
1
 40
1
 40
1
 10
3166.734600
 20
951.650970
 30
0.0
 10
3166.734600
 20
984.670070
 30
0.0
 10
3147.409400
 20
1039.805870
 30
0.0
 10
3129.885400
 20
1067.790370
 30
0.0
  0
SPLINE
  5
27a
100
AcDbEntity
  8
0
 62
1
100
AcDbSpline
 70
8
 71
3
 72
8
 73
4
 74
0
 40
0
 40
0
 40
0
 40
0
 40
1
 40
1
 40
1
 40
1
 10
3129.885400
 20
1067.790370
 30
0.0
 10
3127.324000
 20
1071.880970
 30
0.0
 10
3113.722500
 20
1073.926170
 30
0.0
 10
3100.121300
 20
1073.926170
 30
0.0
  0
LWPOLYLINE
  5
27b
100
AcDbEntity
  8
0
 62
1
100
AcDbPolyline
 90
5
 70
0
 10
3121.380300
 20
880.290970
 30
0.0
 10
3121.380300
 20
974.040970
 30
0.0
 10
3129.884500
 20
974.040970
 30
0.0
 10
3129.884500
 20
880.290670
 30
0.0
 10
3129.885400
 20
880.291270
 30
0.0
  0
SPLINE
  5
27c
100
AcDbEntity
  8
0
 62
1
100
AcDbSpline
 70
8
 71
3
 72
8
 73
4
 74
0
 40
0
 40
0
 40
0
 40
0
 40
1
 40
1
 40
1
 40
1
 10
3100.120700
 20
1073.926170
 30
0.0
 10
3086.519500
 20
1073.926170
 30
0.0
 10
3072.918000
 20
1071.880770
 30
0.0
 10
3070.356700
 20
1067.790370
 30
0.0
  0
LWPOLYLINE
  5
27d
100
AcDbEntity
  8
0
 62
1
100
AcDbPolyline
 90
2
 70
0
 10
3100.121300
 20
1073.926170
 30
0.0
 10
3100.120700
 20
1073.926170
 30
0.0
  0
SPLINE
  5
27e
100
AcDbEntity
  8
0
 62
1
100
AcDbSpline
 70
8
 71
3
 72
8
 73
4
 74
0
 40
0
 40
0
 40
0
 40
0
 40
1
 40
1
 40
1
 40
1
 10
3254.057300
 20
1070.993570
 30
0.0
 10
3213.025200
 20
1054.048270
 30
0.0
 10
3205.942900
 20
972.839070
 30
0.0
 10
3205.868300
 20
936.172370
 30
0.0
  0
SPLINE
  5
27f
100
AcDbEntity
  8
0
 62
1
100
AcDbSpline
 70
8
 71
3
 72
8
 73
4
 74
0
 40
0
 40
0
 40
0
 40
0
 40
1
 40
1
 40
1
 40
1
 10
3205.868300
 20
936.172370
 30
0.0
 10
3205.810300
 20
907.694170
 30
0.0
 10
3220.830100
 20
871.363070
 30
0.0
 10
3254.057000
 20
871.363070
 30
0.0
  0
LWPOLYLINE
  5
280
100
AcDbEntity
  8
0
 62
1
100
AcDbPolyline
 90
1
 70
1
 10
3070.356700
 20
1067.790370
 30
0.0
  0
SPLINE
  5
281
100
AcDbEntity
  8
0
 62
1
100
AcDbSpline
 70
8
 71
3
 72
8
 73
4
 74
0
 40
0
 40
0
 40
0
 40
0
 40
1
 40
1
 40
1
 40
1
 10
3313.585100
 20
871.363070
 30
0.0
 10
3346.813400
 20
871.363070
 30
0.0
 10
3361.833400
 20
907.692170
 30
0.0
 10
3361.775500
 20
936.172370
 30
0.0
  0
SPLINE
  5
282
100
AcDbEntity
  8
0
 62
1
100
AcDbSpline
 70
8
 71
3
 72
8
 73
4
 74
0
 40
0
 40
0
 40
0
 40
0
 40
1
 40
1
 40
1
 40
1
 10
3361.775500
 20
936.172370
 30
0.0
 10
3361.700500
 20
972.839070
 30
0.0
 10
3354.618600
 20
1054.048270
 30
0.0
 10
3313.586600
 20
1070.993570
 30
0.0
  0
SPLINE
  5
283
100
AcDbEntity
  8
0
 62
1
100
AcDbSpline
 70
8
 71
3
 72
8
 73
4
 74
0
 40
0
 40
0
 40
0
 40
0
 40
1
 40
1
 40
1
 40
1
 10
3313.586600
 20
1070.993570
 30
0.0
 10
3304.119400
 20
1074.903670
 30
0.0
 10
3263.524400
 20
1074.903670
 30
0.0
 10
3254.057300
 20
1070.993570
 30
0.0
  0
LWPOLYLINE
  5
284
100
AcDbEntity
  8
0
 62
1
100
AcDbPolyline
 90
8
 70
0
 10
3254.057000
 20
871.363070
 30
0.0
 10
3254.057000
 20
975.172570
 30
0.0
 10
3262.561200
 20
975.172570
 30
0.0
 10
3262.561200
 20
871.363070
 30
0.0
 10
3305.080900
 20
871.363070
 30
0.0
 10
3305.080900
 20
975.172570
 30
0.0
 10
3313.585100
 20
975.172570
 30
0.0
 10
3313.585100
 20
871.363070
 30
0.0
  0
SPLINE
  5
285
100
AcDbEntity
  8
0
 62
1
100
AcDbSpline
 70
8
 71
3
 72
8
 73
4
 74
0
 40
0
 40
0
 40
0
 40
0
 40
1
 40
1
 40
1
 40
1
 10
3459.237400
 20
1055.709370
 30
0.0
 10
3479.620800
 20
1060.223270
 30
0.0
 10
3498.380500
 20
1060.223270
 30
0.0
 10
3518.763900
 20
1055.709370
 30
0.0
  0
SPLINE
  5
286
100
AcDbEntity
  8
0
 62
1
100
AcDbSpline
 70
8
 71
3
 72
8
 73
4
 74
0
 40
0
 40
0
 40
0
 40
0
 40
1
 40
1
 40
1
 40
1
 10
3518.763900
 20
1055.709370
 30
0.0
 10
3564.807600
 20
1045.512070
 30
0.0
 10
3560.775600
 20
977.786970
 30
0.0
 10
3571.323300
 20
935.938270
 30
0.0
  0
SPLINE
  5
287
100
AcDbEntity
  8
0
 62
1
100
AcDbSpline
 70
8
 71
3
 72
8
 73
4
 74
0
 40
0
 40
0
 40
0
 40
0
 40
1
 40
1
 40
1
 40
1
 10
3571.323300
 20
935.938270
 30
0.0
 10
3575.254400
 20
920.353970
 30
0.0
 10
3572.250800
 20
903.835870
 30
0.0
 10
3571.323300
 20
889.967970
 30
0.0
  0
LWPOLYLINE
  5
288
100
AcDbEntity
  8
0
 62
1
100
AcDbPolyline
 90
1
 70
1
 10
3254.057300
 20
1070.993570
 30
0.0
  0
SPLINE
  5
289
100
AcDbEntity
  8
0
 62
1
100
AcDbSpline
 70
8
 71
3
 72
8
 73
4
 74
0
 40
0
 40
0
 40
0
 40
0
 40
1
 40
1
 40
1
 40
1
 10
3406.678000
 20
889.967970
 30
0.0
 10
3405.750500
 20
903.835870
 30
0.0
 10
3402.746900
 20
920.353970
 30
0.0
 10
3406.678000
 20
935.938270
 30
0.0
  0
SPLINE
  5
28a
100
AcDbEntity
  8
0
 62
1
100
AcDbSpline
 70
8
 71
3
 72
8
 73
4
 74
0
 40
0
 40
0
 40
0
 40
0
 40
1
 40
1
 40
1
 40
1
 10
3406.678000
 20
935.938270
 30
0.0
 10
3417.225700
 20
977.786970
 30
0.0
 10
3413.193700
 20
1045.512070
 30
0.0
 10
3459.237400
 20
1055.709370
 30
0.0
  0
LWPOLYLINE
  5
28b
100
AcDbEntity
  8
0
 62
1
100
AcDbPolyline
 90
10
 70
0
 10
3571.323300
 20
889.967970
 30
0.0
 10
3518.764200
 20
889.967670
 30
0.0
 10
3518.764200
 20
974.531070
 30
0.0
 10
3510.259900
 20
974.531070
 30
0.0
 10
3510.259900
 20
889.967670
 30
0.0
 10
3467.740300
 20
889.967670
 30
0.0
 10
3467.740300
 20
974.531070
 30
0.0
 10
3459.236000
 20
974.531070
 30
0.0
 10
3459.236000
 20
889.967670
 30
0.0
 10
3406.678000
 20
889.967970
 30
0.0
  0
SPLINE
  5
28c
100
AcDbEntity
  8
0
 62
1
100
AcDbSpline
 70
8
 71
3
 72
8
 73
4
 74
0
 40
0
 40
0
 40
0
 40
0
 40
1
 40
1
 40
1
 40
1
 10
3667.104000
 20
1023.213270
 30
0.0
 10
3677.290900
 20
1025.043070
 30
0.0
 10
3687.059100
 20
1026.176570
 30
0.0
 10
3696.867500
 20
1026.132370
 30
0.0
  0
LWPOLYLINE
  5
28d
100
AcDbEntity
  8
0
 62
1
100
AcDbPolyline
 90
1
 70
1
 10
3459.237400
 20
1055.709370
 30
0.0
  0
SPLINE
  5
28e
100
AcDbEntity
  8
0
 62
1
100
AcDbSpline
 70
8
 71
3
 72
8
 73
4
 74
0
 40
0
 40
0
 40
0
 40
0
 40
1
 40
1
 40
1
 40
1
 10
3696.868600
 20
1026.132370
 30
0.0
 10
3706.677100
 20
1026.176570
 30
0.0
 10
3716.445300
 20
1025.043070
 30
0.0
 10
3726.632100
 20
1023.213270
 30
0.0
  0
SPLINE
  5
28f
100
AcDbEntity
  8
0
 62
1
100
AcDbSpline
 70
8
 71
3
 72
8
 73
4
 74
0
 40
0
 40
0
 40
0
 40
0
 40
1
 40
1
 40
1
 40
1
 10
3726.632100
 20
1023.213270
 30
0.0
 10
3740.535200
 20
1020.715970
 30
0.0
 10
3764.719000
 20
991.319770
 30
0.0
 10
3780.067200
 20
956.919970
 30
0.0
  0
SPLINE
  5
290
100
AcDbEntity
  8
0
 62
1
100
AcDbSpline
 70
8
 71
3
 72
8
 73
4
 74
0
 40
0
 40
0
 40
0
 40
0
 40
1
 40
1
 40
1
 40
1
 10
3780.067200
 20
956.919970
 30
0.0
 10
3785.396300
 20
944.976170
 30
0.0
 10
3793.606900
 20
902.907170
 30
0.0
 10
3793.076800
 20
890.598370
 30
0.0
  0
LWPOLYLINE
  5
291
100
AcDbEntity
  8
0
 62
1
100
AcDbPolyline
 90
3
 70
0
 10
3696.867500
 20
1026.132370
 30
0.0
 10
3696.868100
 20
1026.132370
 30
0.0
 10
3696.868600
 20
1026.132370
 30
0.0
  0
SPLINE
  5
292
100
AcDbEntity
  8
0
 62
1
100
AcDbSpline
 70
8
 71
3
 72
8
 73
4
 74
0
 40
0
 40
0
 40
0
 40
0
 40
1
 40
1
 40
1
 40
1
 10
3600.659300
 20
890.598370
 30
0.0
 10
3600.129300
 20
902.907170
 30
0.0
 10
3608.339800
 20
944.976170
 30
0.0
 10
3613.668900
 20
956.919970
 30
0.0
  0
SPLINE
  5
293
100
AcDbEntity
  8
0
 62
1
100
AcDbSpline
 70
8
 71
3
 72
8
 73
4
 74
0
 40
0
 40
0
 40
0
 40
0
 40
1
 40
1
 40
1
 40
1
 10
3613.668900
 20
956.919970
 30
0.0
 10
3629.017100
 20
991.319770
 30
0.0
 10
3653.200900
 20
1020.715970
 30
0.0
 10
3667.104000
 20
1023.213270
 30
0.0
  0
LWPOLYLINE
  5
294
100
AcDbEntity
  8
0
 62
1
100
AcDbPolyline
 90
13
 70
0
 10
3793.076800
 20
890.598370
 30
0.0
 10
3726.632100
 20
890.598370
 30
0.0
 10
3726.632100
 20
958.365970
 30
0.0
 10
3718.127900
 20
958.366170
 30
0.0
 10
3718.127900
 20
890.598370
 30
0.0
 10
3696.868600
 20
890.598370
 30
0.0
 10
3696.868100
 20
890.598370
 30
0.0
 10
3696.867500
 20
890.598370
 30
0.0
 10
3675.608200
 20
890.598370
 30
0.0
 10
3675.608200
 20
958.366170
 30
0.0
 10
3667.104000
 20
958.365970
 30
0.0
 10
3667.104000
 20
890.598370
 30
0.0
 10
3600.659300
 20
890.598370
 30
0.0
  0
SPLINE
  5
295
100
AcDbEntity
  8
0
 62
1
100
AcDbSpline
 70
8
 71
3
 72
8
 73
4
 74
0
 40
0
 40
0
 40
0
 40
0
 40
1
 40
1
 40
1
 40
1
 10
3897.644600
 20
987.688370
 30
0.0
 10
3892.180300
 20
987.688370
 30
0.0
 10
3886.964500
 20
992.197970
 30
0.0
 10
3887.723300
 20
997.609370
 30
0.0
  0
SPLINE
  5
296
100
AcDbEntity
  8
0
 62
1
100
AcDbSpline
 70
8
 71
3
 72
8
 73
4
 74
0
 40
0
 40
0
 40
0
 40
0
 40
1
 40
1
 40
1
 40
1
 10
3887.723300
 20
997.609370
 30
0.0
 10
3890.873200
 20
1020.067970
 30
0.0
 10
3890.573900
 20
1046.147570
 30
0.0
 10
3887.723300
 20
1067.937770
 30
0.0
  0
SPLINE
  5
297
100
AcDbEntity
  8
0
 62
1
100
AcDbSpline
 70
8
 71
3
 72
8
 73
4
 74
0
 40
0
 40
0
 40
0
 40
0
 40
1
 40
1
 40
1
 40
1
 10
3887.723300
 20
1067.937770
 30
0.0
 10
3887.561800
 20
1069.173370
 30
0.0
 10
3886.956300
 20
1070.242570
 30
0.0
 10
3885.772500
 20
1070.630970
 30
0.0
  0
SPLINE
  5
298
100
AcDbEntity
  8
0
 62
1
100
AcDbSpline
 70
8
 71
3
 72
8
 73
4
 74
0
 40
0
 40
0
 40
0
 40
0
 40
1
 40
1
 40
1
 40
1
 10
3885.772500
 20
1070.630970
 30
0.0
 10
3884.588800
 20
1071.019270
 30
0.0
 10
3883.343000
 20
1070.620170
 30
0.0
 10
3882.605100
 20
1069.616970
 30
0.0
  0
SPLINE
  5
299
100
AcDbEntity
  8
0
 62
1
100
AcDbSpline
 70
8
 71
3
 72
8
 73
4
 74
0
 40
0
 40
0
 40
0
 40
0
 40
1
 40
1
 40
1
 40
1
 10
3882.605100
 20
1069.616970
 30
0.0
 10
3863.979500
 20
1044.289970
 30
0.0
 10
3833.592400
 20
1009.017970
 30
0.0
 10
3829.591600
 20
957.837270
 30
0.0
  0
SPLINE
  5
29a
100
AcDbEntity
  8
0
 62
1
100
AcDbSpline
 70
8
 71
3
 72
8
 73
4
 74
0
 40
0
 40
0
 40
0
 40
0
 40
1
 40
1
 40
1
 40
1
 10
3829.591600
 20
957.837270
 30
0.0
 10
3827.239400
 20
927.746370
 30
0.0
 10
3831.788100
 20
926.197470
 30
0.0
 10
3826.725700
 20
897.139270
 30
0.0
  0
LWPOLYLINE
  5
29b
100
AcDbEntity
  8
0
 62
1
100
AcDbPolyline
 90
1
 70
1
 10
3667.104000
 20
1023.213270
 30
0.0
  0
SPLINE
  5
29c
100
AcDbEntity
  8
0
 62
1
100
AcDbSpline
 70
8
 71
3
 72
8
 73
4
 74
0
 40
0
 40
0
 40
0
 40
0
 40
1
 40
1
 40
1
 40
1
 10
3896.227300
 20
897.139270
 30
0.0
 10
3910.400500
 20
897.139270
 30
0.0
 10
3924.573700
 20
897.139270
 30
0.0
 10
3938.747000
 20
897.139270
 30
0.0
  0
LWPOLYLINE
  5
29d
100
AcDbEntity
  8
0
 62
1
100
AcDbPolyline
 90
5
 70
0
 10
3826.725700
 20
897.139270
 30
0.0
 10
3887.723300
 20
897.139270
 30
0.0
 10
3887.723300
 20
942.413670
 30
0.0
 10
3896.227300
 20
942.413670
 30
0.0
 10
3896.227300
 20
897.139270
 30
0.0
  0
SPLINE
  5
29e
100
AcDbEntity
  8
0
 62
1
100
AcDbSpline
 70
8
 71
3
 72
8
 73
4
 74
0
 40
0
 40
0
 40
0
 40
0
 40
1
 40
1
 40
1
 40
1
 10
4008.248500
 20
897.139270
 30
0.0
 10
4003.186100
 20
926.197470
 30
0.0
 10
4007.734900
 20
927.746370
 30
0.0
 10
4005.382700
 20
957.837270
 30
0.0
  0
SPLINE
  5
29f
100
AcDbEntity
  8
0
 62
1
100
AcDbSpline
 70
8
 71
3
 72
8
 73
4
 74
0
 40
0
 40
0
 40
0
 40
0
 40
1
 40
1
 40
1
 40
1
 10
4005.382700
 20
957.837270
 30
0.0
 10
4001.381900
 20
1009.017970
 30
0.0
 10
3970.994700
 20
1044.289970
 30
0.0
 10
3952.369100
 20
1069.616970
 30
0.0
  0
SPLINE
  5
2a0
100
AcDbEntity
  8
0
 62
1
100
AcDbSpline
 70
8
 71
3
 72
8
 73
4
 74
0
 40
0
 40
0
 40
0
 40
0
 40
1
 40
1
 40
1
 40
1
 10
3952.369100
 20
1069.616970
 30
0.0
 10
3951.631300
 20
1070.620170
 30
0.0
 10
3950.385400
 20
1071.019270
 30
0.0
 10
3949.201700
 20
1070.630970
 30
0.0
  0
SPLINE
  5
2a1
100
AcDbEntity
  8
0
 62
1
100
AcDbSpline
 70
8
 71
3
 72
8
 73
4
 74
0
 40
0
 40
0
 40
0
 40
0
 40
1
 40
1
 40
1
 40
1
 10
3949.201700
 20
1070.630970
 30
0.0
 10
3948.018000
 20
1070.242570
 30
0.0
 10
3947.412500
 20
1069.173370
 30
0.0
 10
3947.250900
 20
1067.937770
 30
0.0
  0
SPLINE
  5
2a2
100
AcDbEntity
  8
0
 62
1
100
AcDbSpline
 70
8
 71
3
 72
8
 73
4
 74
0
 40
0
 40
0
 40
0
 40
0
 40
1
 40
1
 40
1
 40
1
 10
3947.250900
 20
1067.937770
 30
0.0
 10
3944.400400
 20
1046.147570
 30
0.0
 10
3944.101000
 20
1020.067970
 30
0.0
 10
3947.250900
 20
997.609370
 30
0.0
  0
SPLINE
  5
2a3
100
AcDbEntity
  8
0
 62
1
100
AcDbSpline
 70
8
 71
3
 72
8
 73
4
 74
0
 40
0
 40
0
 40
0
 40
0
 40
1
 40
1
 40
1
 40
1
 10
3947.250900
 20
997.609370
 30
0.0
 10
3948.009700
 20
992.197970
 30
0.0
 10
3942.794000
 20
987.688370
 30
0.0
 10
3937.329600
 20
987.688370
 30
0.0
  0
SPLINE
  5
2a4
100
AcDbEntity
  8
0
 62
1
100
AcDbSpline
 70
8
 71
3
 72
8
 73
4
 74
0
 40
0
 40
0
 40
0
 40
0
 40
1
 40
1
 40
1
 40
1
 10
3937.329600
 20
987.688370
 30
0.0
 10
3924.101200
 20
987.688370
 30
0.0
 10
3910.873000
 20
987.688370
 30
0.0
 10
3897.644600
 20
987.688370
 30
0.0
  0
LWPOLYLINE
  5
2a5
100
AcDbEntity
  8
0
 62
1
100
AcDbPolyline
 90
5
 70
0
 10
3938.747000
 20
897.139270
 30
0.0
 10
3938.747000
 20
942.413670
 30
0.0
 10
3947.250900
 20
942.413670
 30
0.0
 10
3947.250900
 20
897.139270
 30
0.0
 10
4008.248500
 20
897.139270
 30
0.0
  0
SPLINE
  5
2a6
100
AcDbEntity
  8
0
 62
1
100
AcDbSpline
 70
8
 71
3
 72
8
 73
4
 74
0
 40
0
 40
0
 40
0
 40
0
 40
1
 40
1
 40
1
 40
1
 10
4092.219200
 20
1113.550870
 30
0.0
 10
4084.877800
 20
1111.075070
 30
0.0
 10
4059.039100
 20
1100.121770
 30
0.0
 10
4053.366400
 20
1091.653270
 30
0.0
  0
SPLINE
  5
2a7
100
AcDbEntity
  8
0
 62
1
100
AcDbSpline
 70
8
 71
3
 72
8
 73
4
 74
0
 40
0
 40
0
 40
0
 40
0
 40
1
 40
1
 40
1
 40
1
 10
4053.366400
 20
1091.653270
 30
0.0
 10
4042.115100
 20
1074.857670
 30
0.0
 10
4032.900600
 20
1059.021970
 30
0.0
 10
4029.846000
 20
1040.152570
 30
0.0
  0
SPLINE
  5
2a8
100
AcDbEntity
  8
0
 62
1
100
AcDbSpline
 70
8
 71
3
 72
8
 73
4
 74
0
 40
0
 40
0
 40
0
 40
0
 40
1
 40
1
 40
1
 40
1
 10
4029.846000
 20
1040.152570
 30
0.0
 10
4028.570900
 20
1032.275870
 30
0.0
 10
4030.251900
 20
1024.111870
 30
0.0
 10
4029.035000
 20
1016.226670
 30
0.0
  0
SPLINE
  5
2a9
100
AcDbEntity
  8
0
 62
1
100
AcDbSpline
 70
8
 71
3
 72
8
 73
4
 74
0
 40
0
 40
0
 40
0
 40
0
 40
1
 40
1
 40
1
 40
1
 10
4029.035000
 20
1016.226670
 30
0.0
 10
4027.669800
 20
1007.381470
 30
0.0
 10
4024.821300
 20
993.132870
 30
0.0
 10
4025.181800
 20
984.190970
 30
0.0
  0
SPLINE
  5
2aa
100
AcDbEntity
  8
0
 62
1
100
AcDbSpline
 70
8
 71
3
 72
8
 73
4
 74
0
 40
0
 40
0
 40
0
 40
0
 40
1
 40
1
 40
1
 40
1
 10
4025.181800
 20
984.190970
 30
0.0
 10
4026.052100
 20
962.621270
 30
0.0
 10
4034.217500
 20
952.999670
 30
0.0
 10
4038.362100
 20
941.002570
 30
0.0
  0
SPLINE
  5
2ab
100
AcDbEntity
  8
0
 62
1
100
AcDbSpline
 70
8
 71
3
 72
8
 73
4
 74
0
 40
0
 40
0
 40
0
 40
0
 40
1
 40
1
 40
1
 40
1
 10
4038.362100
 20
941.002570
 30
0.0
 10
4043.135300
 20
927.184870
 30
0.0
 10
4044.075900
 20
921.034770
 30
0.0
 10
4049.716800
 20
907.546670
 30
0.0
  0
SPLINE
  5
2ac
100
AcDbEntity
  8
0
 62
1
100
AcDbSpline
 70
8
 71
3
 72
8
 73
4
 74
0
 40
0
 40
0
 40
0
 40
0
 40
1
 40
1
 40
1
 40
1
 10
4049.716800
 20
907.546670
 30
0.0
 10
4053.306000
 20
898.963970
 30
0.0
 10
4091.657100
 20
891.393470
 30
0.0
 10
4092.219200
 20
891.276670
 30
0.0
  0
LWPOLYLINE
  5
2ad
100
AcDbEntity
  8
0
 62
1
100
AcDbPolyline
 90
1
 70
1
 10
3897.644600
 20
987.688370
 30
0.0
  0
SPLINE
  5
2ae
100
AcDbEntity
  8
0
 62
1
100
AcDbSpline
 70
8
 71
3
 72
8
 73
4
 74
0
 40
0
 40
0
 40
0
 40
0
 40
1
 40
1
 40
1
 40
1
 10
4151.745100
 20
891.276670
 30
0.0
 10
4152.307200
 20
891.393470
 30
0.0
 10
4190.658300
 20
898.963970
 30
0.0
 10
4194.247500
 20
907.546670
 30
0.0
  0
SPLINE
  5
2af
100
AcDbEntity
  8
0
 62
1
100
AcDbSpline
 70
8
 71
3
 72
8
 73
4
 74
0
 40
0
 40
0
 40
0
 40
0
 40
1
 40
1
 40
1
 40
1
 10
4194.247500
 20
907.546670
 30
0.0
 10
4199.888400
 20
921.034770
 30
0.0
 10
4200.829000
 20
927.184870
 30
0.0
 10
4205.602200
 20
941.002570
 30
0.0
  0
SPLINE
  5
2b0
100
AcDbEntity
  8
0
 62
1
100
AcDbSpline
 70
8
 71
3
 72
8
 73
4
 74
0
 40
0
 40
0
 40
0
 40
0
 40
1
 40
1
 40
1
 40
1
 10
4205.602200
 20
941.002570
 30
0.0
 10
4209.746800
 20
952.999670
 30
0.0
 10
4217.912300
 20
962.621270
 30
0.0
 10
4218.782500
 20
984.190970
 30
0.0
  0
SPLINE
  5
2b1
100
AcDbEntity
  8
0
 62
1
100
AcDbSpline
 70
8
 71
3
 72
8
 73
4
 74
0
 40
0
 40
0
 40
0
 40
0
 40
1
 40
1
 40
1
 40
1
 10
4218.782500
 20
984.190970
 30
0.0
 10
4219.143100
 20
993.132870
 30
0.0
 10
4216.294500
 20
1007.381470
 30
0.0
 10
4214.929400
 20
1016.226670
 30
0.0
  0
SPLINE
  5
2b2
100
AcDbEntity
  8
0
 62
1
100
AcDbSpline
 70
8
 71
3
 72
8
 73
4
 74
0
 40
0
 40
0
 40
0
 40
0
 40
1
 40
1
 40
1
 40
1
 10
4214.929400
 20
1016.226670
 30
0.0
 10
4213.712400
 20
1024.111870
 30
0.0
 10
4215.393400
 20
1032.275870
 30
0.0
 10
4214.118400
 20
1040.152570
 30
0.0
  0
SPLINE
  5
2b3
100
AcDbEntity
  8
0
 62
1
100
AcDbSpline
 70
8
 71
3
 72
8
 73
4
 74
0
 40
0
 40
0
 40
0
 40
0
 40
1
 40
1
 40
1
 40
1
 10
4214.118400
 20
1040.152570
 30
0.0
 10
4211.063800
 20
1059.021970
 30
0.0
 10
4201.849200
 20
1074.857670
 30
0.0
 10
4190.597900
 20
1091.653270
 30
0.0
  0
SPLINE
  5
2b4
100
AcDbEntity
  8
0
 62
1
100
AcDbSpline
 70
8
 71
3
 72
8
 73
4
 74
0
 40
0
 40
0
 40
0
 40
0
 40
1
 40
1
 40
1
 40
1
 10
4190.597900
 20
1091.653270
 30
0.0
 10
4184.925200
 20
1100.121770
 30
0.0
 10
4159.086600
 20
1111.075070
 30
0.0
 10
4151.745100
 20
1113.550870
 30
0.0
  0
SPLINE
  5
2b5
100
AcDbEntity
  8
0
 62
1
100
AcDbSpline
 70
8
 71
3
 72
8
 73
4
 74
0
 40
0
 40
0
 40
0
 40
0
 40
1
 40
1
 40
1
 40
1
 10
4151.745100
 20
1113.550870
 30
0.0
 10
4137.046100
 20
1118.508370
 30
0.0
 10
4106.915500
 20
1118.508370
 30
0.0
 10
4092.216400
 20
1113.550870
 30
0.0
  0
LWPOLYLINE
  5
2b6
100
AcDbEntity
  8
0
 62
1
100
AcDbPolyline
 90
9
 70
0
 10
4092.219200
 20
891.276670
 30
0.0
 10
4092.219200
 20
1002.413770
 30
0.0
 10
4100.723200
 20
1002.413770
 30
0.0
 10
4100.723200
 20
891.276670
 30
0.0
 10
4121.982200
 20
891.276670
 30
0.0
 10
4143.241200
 20
891.276670
 30
0.0
 10
4143.241200
 20
1002.413770
 30
0.0
 10
4151.745100
 20
1002.413770
 30
0.0
 10
4151.745100
 20
891.276670
 30
0.0
  0
SPLINE
  5
2b7
100
AcDbEntity
  8
0
 62
1
100
AcDbSpline
 70
8
 71
3
 72
8
 73
4
 74
0
 40
0
 40
0
 40
0
 40
0
 40
1
 40
1
 40
1
 40
1
 10
4315.605400
 20
970.312970
 30
0.0
 10
4296.640300
 20
966.187670
 30
0.0
 10
4259.600800
 20
920.211170
 30
0.0
 10
4259.601900
 20
902.894870
 30
0.0
  0
LWPOLYLINE
  5
2b8
100
AcDbEntity
  8
0
 62
1
100
AcDbPolyline
 90
2
 70
0
 10
4092.216400
 20
1113.550870
 30
0.0
 10
4092.219200
 20
1113.550870
 30
0.0
  0
SPLINE
  5
2b9
100
AcDbEntity
  8
0
 62
1
100
AcDbSpline
 70
8
 71
3
 72
8
 73
4
 74
0
 40
0
 40
0
 40
0
 40
0
 40
1
 40
1
 40
1
 40
1
 10
4431.138200
 20
902.894870
 30
0.0
 10
4431.138200
 20
920.211170
 30
0.0
 10
4394.099900
 20
966.187670
 30
0.0
 10
4375.134700
 20
970.312970
 30
0.0
  0
SPLINE
  5
2ba
100
AcDbEntity
  8
0
 62
1
100
AcDbSpline
 70
8
 71
3
 72
8
 73
4
 74
0
 40
0
 40
0
 40
0
 40
0
 40
1
 40
1
 40
1
 40
1
 10
4375.134700
 20
970.312970
 30
0.0
 10
4353.432100
 20
975.034070
 30
0.0
 10
4337.308100
 20
975.034070
 30
0.0
 10
4315.605400
 20
970.312970
 30
0.0
  0
LWPOLYLINE
  5
2bb
100
AcDbEntity
  8
0
 62
1
100
AcDbPolyline
 90
10
 70
0
 10
4259.601900
 20
902.894870
 30
0.0
 10
4315.605400
 20
902.894870
 30
0.0
 10
4315.605400
 20
936.603870
 30
0.0
 10
4324.109400
 20
936.603870
 30
0.0
 10
4324.109400
 20
902.894870
 30
0.0
 10
4366.629100
 20
902.894870
 30
0.0
 10
4366.629100
 20
936.603870
 30
0.0
 10
4375.133000
 20
936.603870
 30
0.0
 10
4375.133000
 20
902.894870
 30
0.0
 10
4431.138200
 20
902.894870
 30
0.0
  0
SPLINE
  5
2bc
100
AcDbEntity
  8
0
 62
1
100
AcDbSpline
 70
8
 71
3
 72
8
 73
4
 74
0
 40
0
 40
0
 40
0
 40
0
 40
1
 40
1
 40
1
 40
1
 10
4544.925700
 20
1030.653670
 30
0.0
 10
4502.740800
 20
1026.042570
 30
0.0
 10
4481.323400
 20
972.218070
 30
0.0
 10
4480.677600
 20
907.281670
 30
0.0
  0
LWPOLYLINE
  5
2bd
100
AcDbEntity
  8
0
 62
1
100
AcDbPolyline
 90
1
 70
1
 10
4315.605400
 20
970.312970
 30
0.0
  0
SPLINE
  5
2be
100
AcDbEntity
  8
0
 62
1
100
AcDbSpline
 70
8
 71
3
 72
8
 73
4
 74
0
 40
0
 40
0
 40
0
 40
0
 40
1
 40
1
 40
1
 40
1
 10
4668.703100
 20
907.281670
 30
0.0
 10
4668.057400
 20
972.218070
 30
0.0
 10
4646.639900
 20
1026.042570
 30
0.0
 10
4604.455000
 20
1030.653670
 30
0.0
  0
SPLINE
  5
2bf
100
AcDbEntity
  8
0
 62
1
100
AcDbSpline
 70
8
 71
3
 72
8
 73
4
 74
0
 40
0
 40
0
 40
0
 40
0
 40
1
 40
1
 40
1
 40
1
 10
4604.455000
 20
1030.653670
 30
0.0
 10
4585.831900
 20
1032.689570
 30
0.0
 10
4563.548800
 20
1032.689570
 30
0.0
 10
4544.925700
 20
1030.653670
 30
0.0
  0
LWPOLYLINE
  5
2c0
100
AcDbEntity
  8
0
 62
1
100
AcDbPolyline
 90
10
 70
0
 10
4480.677600
 20
907.281670
 30
0.0
 10
4544.926000
 20
907.281670
 30
0.0
 10
4544.925700
 20
968.967570
 30
0.0
 10
4553.430000
 20
968.967570
 30
0.0
 10
4553.430000
 20
907.281670
 30
0.0
 10
4595.949600
 20
907.281670
 30
0.0
 10
4595.949400
 20
968.967570
 30
0.0
 10
4604.453600
 20
968.967570
 30
0.0
 10
4604.453600
 20
907.281670
 30
0.0
 10
4668.703100
 20
907.281670
 30
0.0
  0
SPLINE
  5
2c1
100
AcDbEntity
  8
0
 62
1
100
AcDbSpline
 70
8
 71
3
 72
8
 73
4
 74
0
 40
0
 40
0
 40
0
 40
0
 40
1
 40
1
 40
1
 40
1
 10
4760.925700
 20
1052.778670
 30
0.0
 10
4712.001400
 20
1046.878570
 30
0.0
 10
4684.462300
 20
974.818470
 30
0.0
 10
4702.462300
 20
877.900870
 30
0.0
  0
LWPOLYLINE
  5
2c2
100
AcDbEntity
  8
0
 62
1
100
AcDbPolyline
 90
1
 70
1
 10
4544.925700
 20
1030.653670
 30
0.0
  0
SPLINE
  5
2c3
100
AcDbEntity
  8
0
 62
1
100
AcDbSpline
 70
8
 71
3
 72
8
 73
4
 74
0
 40
0
 40
0
 40
0
 40
0
 40
1
 40
1
 40
1
 40
1
 10
4878.917300
 20
877.900870
 30
0.0
 10
4896.917300
 20
974.818470
 30
0.0
 10
4869.378100
 20
1046.878570
 30
0.0
 10
4820.453900
 20
1052.778670
 30
0.0
  0
SPLINE
  5
2c4
100
AcDbEntity
  8
0
 62
1
100
AcDbSpline
 70
8
 71
3
 72
8
 73
4
 74
0
 40
0
 40
0
 40
0
 40
0
 40
1
 40
1
 40
1
 40
1
 10
4820.453900
 20
1052.778670
 30
0.0
 10
4800.565100
 20
1055.176970
 30
0.0
 10
4780.814500
 20
1055.176970
 30
0.0
 10
4760.925700
 20
1052.778670
 30
0.0
  0
LWPOLYLINE
  5
2c5
100
AcDbEntity
  8
0
 62
1
100
AcDbPolyline
 90
10
 70
0
 10
4702.462300
 20
877.900870
 30
0.0
 10
4760.926000
 20
877.900870
 30
0.0
 10
4760.925700
 20
965.339770
 30
0.0
 10
4769.430000
 20
965.339770
 30
0.0
 10
4769.430000
 20
877.900870
 30
0.0
 10
4811.949600
 20
877.900870
 30
0.0
 10
4811.949600
 20
965.339770
 30
0.0
 10
4820.453900
 20
965.339770
 30
0.0
 10
4820.453600
 20
877.900870
 30
0.0
 10
4878.917300
 20
877.900870
 30
0.0
  0
SPLINE
  5
2c6
100
AcDbEntity
  8
0
 62
1
100
AcDbSpline
 70
8
 71
3
 72
8
 73
4
 74
0
 40
0
 40
0
 40
0
 40
0
 40
1
 40
1
 40
1
 40
1
 10
4973.572600
 20
1097.711370
 30
0.0
 10
4887.221400
 20
1084.937870
 30
0.0
 10
4900.031100
 20
894.800570
 30
0.0
 10
4942.637600
 20
874.917270
 30
0.0
  0
LWPOLYLINE
  5
2c7
100
AcDbEntity
  8
0
 62
1
100
AcDbPolyline
 90
1
 70
1
 10
4760.925700
 20
1052.778670
 30
0.0
  0
SPLINE
  5
2c8
100
AcDbEntity
  8
0
 62
1
100
AcDbSpline
 70
8
 71
3
 72
8
 73
4
 74
0
 40
0
 40
0
 40
0
 40
0
 40
1
 40
1
 40
1
 40
1
 10
5064.036400
 20
874.917270
 30
0.0
 10
5106.642800
 20
894.800570
 30
0.0
 10
5119.452600
 20
1084.937870
 30
0.0
 10
5033.101300
 20
1097.711370
 30
0.0
  0
SPLINE
  5
2c9
100
AcDbEntity
  8
0
 62
1
100
AcDbSpline
 70
8
 71
3
 72
8
 73
4
 74
0
 40
0
 40
0
 40
0
 40
0
 40
1
 40
1
 40
1
 40
1
 10
5033.101300
 20
1097.711370
 30
0.0
 10
5011.328400
 20
1100.932370
 30
0.0
 10
4995.345500
 20
1100.932370
 30
0.0
 10
4973.572600
 20
1097.711370
 30
0.0
  0
LWPOLYLINE
  5
2ca
100
AcDbEntity
  8
0
 62
1
100
AcDbPolyline
 90
10
 70
0
 10
4942.637600
 20
874.917270
 30
0.0
 10
4973.572600
 20
874.917270
 30
0.0
 10
4973.572600
 20
986.314270
 30
0.0
 10
4982.076600
 20
986.314270
 30
0.0
 10
4982.076600
 20
874.917270
 30
0.0
 10
5024.596300
 20
874.917270
 30
0.0
 10
5024.596300
 20
986.314270
 30
0.0
 10
5033.100200
 20
986.314270
 30
0.0
 10
5033.100200
 20
874.917270
 30
0.0
 10
5064.036400
 20
874.917270
 30
0.0
  0
SPLINE
  5
2cb
100
AcDbEntity
  8
0
 62
1
100
AcDbSpline
 70
8
 71
3
 72
8
 73
4
 74
0
 40
0
 40
0
 40
0
 40
0
 40
1
 40
1
 40
1
 40
1
 10
5442.996200
 20
1133.998970
 30
0.0
 10
5391.808700
 20
1124.045470
 30
0.0
 10
5360.394100
 20
1058.102170
 30
0.0
 10
5360.394100
 20
1007.836270
 30
0.0
  0
SPLINE
  5
2cc
100
AcDbEntity
  8
0
 62
1
100
AcDbSpline
 70
8
 71
3
 72
8
 73
4
 74
0
 40
0
 40
0
 40
0
 40
0
 40
1
 40
1
 40
1
 40
1
 10
5360.394100
 20
1007.836270
 30
0.0
 10
5360.394100
 20
957.570370
 30
0.0
 10
5390.390800
 20
881.673570
 30
0.0
 10
5442.996200
 20
881.673570
 30
0.0
  0
LWPOLYLINE
  5
2cd
100
AcDbEntity
  8
0
 62
1
100
AcDbPolyline
 90
1
 70
1
 10
4973.572600
 20
1097.711370
 30
0.0
  0
SPLINE
  5
2ce
100
AcDbEntity
  8
0
 62
1
100
AcDbSpline
 70
8
 71
3
 72
8
 73
4
 74
0
 40
0
 40
0
 40
0
 40
0
 40
1
 40
1
 40
1
 40
1
 10
5451.500100
 20
881.673570
 30
0.0
 10
5465.673400
 20
881.673570
 30
0.0
 10
5479.846600
 20
881.673570
 30
0.0
 10
5494.019800
 20
881.673570
 30
0.0
  0
LWPOLYLINE
  5
2cf
100
AcDbEntity
  8
0
 62
1
100
AcDbPolyline
 90
4
 70
0
 10
5442.996200
 20
881.673570
 30
0.0
 10
5442.996200
 20
1007.836270
 30
0.0
 10
5451.500100
 20
1007.836270
 30
0.0
 10
5451.500100
 20
881.673570
 30
0.0
  0
SPLINE
  5
2d0
100
AcDbEntity
  8
0
 62
1
100
AcDbSpline
 70
8
 71
3
 72
8
 73
4
 74
0
 40
0
 40
0
 40
0
 40
0
 40
1
 40
1
 40
1
 40
1
 10
5502.523800
 20
881.673570
 30
0.0
 10
5557.924900
 20
881.673570
 30
0.0
 10
5585.127000
 20
962.764570
 30
0.0
 10
5585.127000
 20
1007.836270
 30
0.0
  0
SPLINE
  5
2d1
100
AcDbEntity
  8
0
 62
1
100
AcDbSpline
 70
8
 71
3
 72
8
 73
4
 74
0
 40
0
 40
0
 40
0
 40
0
 40
1
 40
1
 40
1
 40
1
 10
5585.127000
 20
1007.836270
 30
0.0
 10
5585.127000
 20
1058.102170
 30
0.0
 10
5553.712400
 20
1124.045470
 30
0.0
 10
5502.524900
 20
1133.998970
 30
0.0
  0
SPLINE
  5
2d2
100
AcDbEntity
  8
0
 62
1
100
AcDbSpline
 70
8
 71
3
 72
8
 73
4
 74
0
 40
0
 40
0
 40
0
 40
0
 40
1
 40
1
 40
1
 40
1
 10
5502.524900
 20
1133.998970
 30
0.0
 10
5487.537300
 20
1136.913570
 30
0.0
 10
5457.983800
 20
1136.913570
 30
0.0
 10
5442.996200
 20
1133.998970
 30
0.0
  0
LWPOLYLINE
  5
2d3
100
AcDbEntity
  8
0
 62
1
100
AcDbPolyline
 90
4
 70
0
 10
5494.019800
 20
881.673570
 30
0.0
 10
5494.019800
 20
1007.836270
 30
0.0
 10
5502.523800
 20
1007.836270
 30
0.0
 10
5502.523800
 20
881.673570
 30
0.0
  0
SPLINE
  5
2d4
100
AcDbEntity
  8
0
 62
1
100
AcDbSpline
 70
8
 71
3
 72
8
 73
4
 74
0
 40
0
 40
0
 40
0
 40
0
 40
1
 40
1
 40
1
 40
1
 10
5651.835300
 20
959.885270
 30
0.0
 10
5640.671900
 20
943.277670
 30
0.0
 10
5630.047700
 20
911.170470
 30
0.0
 10
5628.119200
 20
902.553770
 30
0.0
  0
SPLINE
  5
2d5
100
AcDbEntity
  8
0
 62
1
100
AcDbSpline
 70
8
 71
3
 72
8
 73
4
 74
0
 40
0
 40
0
 40
0
 40
0
 40
1
 40
1
 40
1
 40
1
 10
5628.119200
 20
902.553770
 30
0.0
 10
5621.278100
 20
871.988370
 30
0.0
 10
5632.469900
 20
851.681770
 30
0.0
 10
5677.537000
 20
851.681770
 30
0.0
  0
SPLINE
  5
2d6
100
AcDbEntity
  8
0
 62
1
100
AcDbSpline
 70
8
 71
3
 72
8
 73
4
 74
0
 40
0
 40
0
 40
0
 40
0
 40
1
 40
1
 40
1
 40
1
 10
5677.537000
 20
851.681770
 30
0.0
 10
5697.379800
 20
851.681770
 30
0.0
 10
5717.222900
 20
851.681770
 30
0.0
 10
5737.065700
 20
851.681770
 30
0.0
  0
SPLINE
  5
2d7
100
AcDbEntity
  8
0
 62
1
100
AcDbSpline
 70
8
 71
3
 72
8
 73
4
 74
0
 40
0
 40
0
 40
0
 40
0
 40
1
 40
1
 40
1
 40
1
 10
5737.065700
 20
851.681770
 30
0.0
 10
5782.132900
 20
851.681770
 30
0.0
 10
5793.324700
 20
871.988370
 30
0.0
 10
5786.483500
 20
902.553770
 30
0.0
  0
SPLINE
  5
2d8
100
AcDbEntity
  8
0
 62
1
100
AcDbSpline
 70
8
 71
3
 72
8
 73
4
 74
0
 40
0
 40
0
 40
0
 40
0
 40
1
 40
1
 40
1
 40
1
 10
5786.483500
 20
902.553770
 30
0.0
 10
5784.555100
 20
911.170470
 30
0.0
 10
5773.930900
 20
943.277670
 30
0.0
 10
5762.767500
 20
959.885270
 30
0.0
  0
LWPOLYLINE
  5
2d9
100
AcDbEntity
  8
0
 62
1
100
AcDbPolyline
 90
1
 70
1
 10
5442.996200
 20
1133.998970
 30
0.0
  0
SPLINE
  5
2da
100
AcDbEntity
  8
0
 62
1
100
AcDbSpline
 70
8
 71
3
 72
8
 73
4
 74
0
 40
0
 40
0
 40
0
 40
0
 40
1
 40
1
 40
1
 40
1
 10
5855.305600
 20
996.735670
 30
0.0
 10
5852.899300
 20
940.961470
 30
0.0
 10
5835.251900
 20
932.462670
 30
0.0
 10
5832.206100
 20
889.213870
 30
0.0
  0
SPLINE
  5
2db
100
AcDbEntity
  8
0
 62
1
100
AcDbSpline
 70
8
 71
3
 72
8
 73
4
 74
0
 40
0
 40
0
 40
0
 40
0
 40
1
 40
1
 40
1
 40
1
 10
5832.206100
 20
889.213870
 30
0.0
 10
5828.240100
 20
832.897970
 30
0.0
 10
5828.361200
 20
804.938770
 30
0.0
 10
5849.693900
 20
791.664370
 30
0.0
  0
LWPOLYLINE
  5
2dc
100
AcDbEntity
  8
0
 62
1
100
AcDbPolyline
 90
10
 70
0
 10
5762.767500
 20
959.885270
 30
0.0
 10
5737.064600
 20
959.885270
 30
0.0
 10
5737.064600
 20
905.783570
 30
0.0
 10
5728.560700
 20
905.783570
 30
0.0
 10
5728.560700
 20
959.885270
 30
0.0
 10
5686.041000
 20
959.885270
 30
0.0
 10
5686.041000
 20
905.783570
 30
0.0
 10
5677.537000
 20
905.783570
 30
0.0
 10
5677.537000
 20
959.885270
 30
0.0
 10
5651.835300
 20
959.885270
 30
0.0
  0
SPLINE
  5
2dd
100
AcDbEntity
  8
0
 62
1
100
AcDbSpline
 70
8
 71
3
 72
8
 73
4
 74
0
 40
0
 40
0
 40
0
 40
0
 40
1
 40
1
 40
1
 40
1
 10
5858.197800
 20
787.759070
 30
0.0
 10
5871.903300
 20
783.266170
 30
0.0
 10
5891.946000
 20
785.241670
 30
0.0
 10
5923.393800
 20
787.764470
 30
0.0
  0
SPLINE
  5
2de
100
AcDbEntity
  8
0
 62
1
100
AcDbSpline
 70
8
 71
3
 72
8
 73
4
 74
0
 40
0
 40
0
 40
0
 40
0
 40
1
 40
1
 40
1
 40
1
 10
5923.393800
 20
787.764470
 30
0.0
 10
5943.173100
 20
789.351270
 30
0.0
 10
5963.143700
 20
789.351270
 30
0.0
 10
5982.923100
 20
787.764470
 30
0.0
  0
SPLINE
  5
2df
100
AcDbEntity
  8
0
 62
1
100
AcDbSpline
 70
8
 71
3
 72
8
 73
4
 74
0
 40
0
 40
0
 40
0
 40
0
 40
1
 40
1
 40
1
 40
1
 10
5982.923100
 20
787.764470
 30
0.0
 10
6014.370900
 20
785.241670
 30
0.0
 10
6034.413500
 20
783.266170
 30
0.0
 10
6048.119100
 20
787.759070
 30
0.0
  0
LWPOLYLINE
  5
2e0
100
AcDbEntity
  8
0
 62
1
100
AcDbPolyline
 90
4
 70
0
 10
5849.693900
 20
791.664370
 30
0.0
 10
5849.693900
 20
838.489070
 30
0.0
 10
5858.197800
 20
838.489070
 30
0.0
 10
5858.197800
 20
787.759070
 30
0.0
  0
SPLINE
  5
2e1
100
AcDbEntity
  8
0
 62
1
100
AcDbSpline
 70
8
 71
3
 72
8
 73
4
 74
0
 40
0
 40
0
 40
0
 40
0
 40
1
 40
1
 40
1
 40
1
 10
6056.623000
 20
791.664370
 30
0.0
 10
6077.955700
 20
804.938770
 30
0.0
 10
6078.076700
 20
832.897970
 30
0.0
 10
6074.110800
 20
889.213870
 30
0.0
  0
SPLINE
  5
2e2
100
AcDbEntity
  8
0
 62
1
100
AcDbSpline
 70
8
 71
3
 72
8
 73
4
 74
0
 40
0
 40
0
 40
0
 40
0
 40
1
 40
1
 40
1
 40
1
 10
6074.110800
 20
889.213870
 30
0.0
 10
6071.064900
 20
932.462670
 30
0.0
 10
6053.417600
 20
940.961470
 30
0.0
 10
6051.011200
 20
996.735670
 30
0.0
  0
LWPOLYLINE
  5
2e3
100
AcDbEntity
  8
0
 62
1
100
AcDbPolyline
 90
4
 70
0
 10
6048.119100
 20
787.759070
 30
0.0
 10
6048.119100
 20
838.489070
 30
0.0
 10
6056.623000
 20
838.489070
 30
0.0
 10
6056.623000
 20
791.664370
 30
0.0
  0
LWPOLYLINE
  5
2e4
100
AcDbEntity
  8
0
 62
1
100
AcDbPolyline
 90
10
 70
0
 10
6051.011200
 20
996.735670
 30
0.0
 10
5982.923100
 20
996.735670
 30
0.0
 10
5982.923100
 20
892.250070
 30
0.0
 10
5974.419100
 20
892.250070
 30
0.0
 10
5974.419100
 20
996.735670
 30
0.0
 10
5931.897700
 20
996.735670
 30
0.0
 10
5931.897700
 20
892.250070
 30
0.0
 10
5923.393800
 20
892.250070
 30
0.0
 10
5923.393800
 20
996.735670
 30
0.0
 10
5855.305600
 20
996.735670
 30
0.0
  0
SPLINE
  5
2e5
100
AcDbEntity
  8
0
 62
1
100
AcDbSpline
 70
8
 71
3
 72
8
 73
4
 74
0
 40
0
 40
0
 40
0
 40
0
 40
1
 40
1
 40
1
 40
1
 10
6153.647200
 20
1033.586070
 30
0.0
 10
6151.125000
 20
1002.124070
 30
0.0
 10
6140.958200
 20
997.266870
 30
0.0
 10
6132.817700
 20
970.697170
 30
0.0
  0
SPLINE
  5
2e6
100
AcDbEntity
  8
0
 62
1
100
AcDbSpline
 70
8
 71
3
 72
8
 73
4
 74
0
 40
0
 40
0
 40
0
 40
0
 40
1
 40
1
 40
1
 40
1
 10
6132.817700
 20
970.697170
 30
0.0
 10
6124.248000
 20
942.727470
 30
0.0
 10
6116.803400
 20
914.583370
 30
0.0
 10
6107.277500
 20
886.761670
 30
0.0
  0
SPLINE
  5
2e7
100
AcDbEntity
  8
0
 62
1
100
AcDbSpline
 70
8
 71
3
 72
8
 73
4
 74
0
 40
0
 40
0
 40
0
 40
0
 40
1
 40
1
 40
1
 40
1
 10
6107.277500
 20
886.761670
 30
0.0
 10
6093.792000
 20
847.379070
 30
0.0
 10
6105.925100
 20
794.148670
 30
0.0
 10
6115.494000
 20
759.897070
 30
0.0
  0
LWPOLYLINE
  5
2e8
100
AcDbEntity
  8
0
 62
1
100
AcDbPolyline
 90
2
 70
0
 10
6235.394500
 20
1033.586070
 30
0.0
 10
6153.647200
 20
1033.586070
 30
0.0
  0
SPLINE
  5
2e9
100
AcDbEntity
  8
0
 62
1
100
AcDbSpline
 70
8
 71
3
 72
8
 73
4
 74
0
 40
0
 40
0
 40
0
 40
0
 40
1
 40
1
 40
1
 40
1
 10
6177.216800
 20
759.897070
 30
0.0
 10
6189.674500
 20
769.485870
 30
0.0
 10
6208.432400
 20
764.966570
 30
0.0
 10
6235.394500
 20
764.975370
 30
0.0
  0
SPLINE
  5
2ea
100
AcDbEntity
  8
0
 62
1
100
AcDbSpline
 70
8
 71
3
 72
8
 73
4
 74
0
 40
0
 40
0
 40
0
 40
0
 40
1
 40
1
 40
1
 40
1
 10
6235.394500
 20
764.975370
 30
0.0
 10
6255.237300
 20
764.975370
 30
0.0
 10
6275.080300
 20
764.975370
 30
0.0
 10
6294.923100
 20
764.975370
 30
0.0
  0
SPLINE
  5
2eb
100
AcDbEntity
  8
0
 62
1
100
AcDbSpline
 70
8
 71
3
 72
8
 73
4
 74
0
 40
0
 40
0
 40
0
 40
0
 40
1
 40
1
 40
1
 40
1
 10
6294.923100
 20
764.975370
 30
0.0
 10
6321.885200
 20
764.966570
 30
0.0
 10
6340.643100
 20
769.485870
 30
0.0
 10
6353.100900
 20
759.897070
 30
0.0
  0
LWPOLYLINE
  5
2ec
100
AcDbEntity
  8
0
 62
1
100
AcDbPolyline
 90
10
 70
0
 10
6115.494000
 20
759.897070
 30
0.0
 10
6124.844100
 20
759.897070
 30
0.0
 10
6124.844100
 20
817.706870
 30
0.0
 10
6133.348100
 20
817.706870
 30
0.0
 10
6133.348100
 20
759.897070
 30
0.0
 10
6161.694500
 20
759.897070
 30
0.0
 10
6161.694500
 20
830.959970
 30
0.0
 10
6170.198500
 20
830.959970
 30
0.0
 10
6170.198500
 20
759.897070
 30
0.0
 10
6177.216800
 20
759.897070
 30
0.0
  0
SPLINE
  5
2ed
100
AcDbEntity
  8
0
 62
1
100
AcDbSpline
 70
8
 71
3
 72
8
 73
4
 74
0
 40
0
 40
0
 40
0
 40
0
 40
1
 40
1
 40
1
 40
1
 10
6414.823600
 20
759.897070
 30
0.0
 10
6424.392500
 20
794.148670
 30
0.0
 10
6436.525600
 20
847.379070
 30
0.0
 10
6423.040100
 20
886.761670
 30
0.0
  0
SPLINE
  5
2ee
100
AcDbEntity
  8
0
 62
1
100
AcDbSpline
 70
8
 71
3
 72
8
 73
4
 74
0
 40
0
 40
0
 40
0
 40
0
 40
1
 40
1
 40
1
 40
1
 10
6423.040100
 20
886.761670
 30
0.0
 10
6413.514200
 20
914.583370
 30
0.0
 10
6406.069600
 20
942.727470
 30
0.0
 10
6397.499900
 20
970.697170
 30
0.0
  0
SPLINE
  5
2ef
100
AcDbEntity
  8
0
 62
1
100
AcDbSpline
 70
8
 71
3
 72
8
 73
4
 74
0
 40
0
 40
0
 40
0
 40
0
 40
1
 40
1
 40
1
 40
1
 10
6397.499900
 20
970.697170
 30
0.0
 10
6389.359400
 20
997.266870
 30
0.0
 10
6379.192600
 20
1002.124070
 30
0.0
 10
6376.670400
 20
1033.586070
 30
0.0
  0
LWPOLYLINE
  5
2f0
100
AcDbEntity
  8
0
 62
1
100
AcDbPolyline
 90
10
 70
0
 10
6353.100900
 20
759.897070
 30
0.0
 10
6360.119100
 20
759.897070
 30
0.0
 10
6360.119100
 20
830.959970
 30
0.0
 10
6368.623100
 20
830.959970
 30
0.0
 10
6368.623100
 20
759.897070
 30
0.0
 10
6396.969500
 20
759.897070
 30
0.0
 10
6396.969500
 20
817.706870
 30
0.0
 10
6405.473500
 20
817.706870
 30
0.0
 10
6405.473500
 20
759.897070
 30
0.0
 10
6414.823600
 20
759.897070
 30
0.0
  0
SPLINE
  5
2f1
100
AcDbEntity
  8
0
 62
1
100
AcDbSpline
 70
8
 71
3
 72
8
 73
4
 74
0
 40
0
 40
0
 40
0
 40
0
 40
1
 40
1
 40
1
 40
1
 10
6286.419200
 20
1033.586070
 30
0.0
 10
6272.245700
 20
1033.586070
 30
0.0
 10
6258.071900
 20
1033.586070
 30
0.0
 10
6243.898400
 20
1033.586070
 30
0.0
  0
LWPOLYLINE
  5
2f2
100
AcDbEntity
  8
0
 62
1
100
AcDbPolyline
 90
5
 70
0
 10
6376.670400
 20
1033.586070
 30
0.0
 10
6294.923100
 20
1033.586070
 30
0.0
 10
6294.923100
 20
899.280570
 30
0.0
 10
6286.419200
 20
899.280570
 30
0.0
 10
6286.419200
 20
1033.586070
 30
0.0
  0
LWPOLYLINE
  5
2f3
100
AcDbEntity
  8
0
 62
1
100
AcDbPolyline
 90
4
 70
0
 10
6243.898400
 20
1033.586070
 30
0.0
 10
6243.898400
 20
899.280570
 30
0.0
 10
6235.394500
 20
899.280570
 30
0.0
 10
6235.394500
 20
1033.586070
 30
0.0
  0
SPLINE
  5
2f4
100
AcDbEntity
  8
0
 62
1
100
AcDbSpline
 70
8
 71
3
 72
8
 73
4
 74
0
 40
0
 40
0
 40
0
 40
0
 40
1
 40
1
 40
1
 40
1
 10
7340.696500
 20
1127.456770
 30
0.0
 10
7331.266800
 20
1127.456770
 30
0.0
 10
7323.223700
 20
1122.508370
 30
0.0
 10
7314.658600
 20
1119.690670
 30
0.0
  0
SPLINE
  5
2f5
100
AcDbEntity
  8
0
 62
1
100
AcDbSpline
 70
8
 71
3
 72
8
 73
4
 74
0
 40
0
 40
0
 40
0
 40
0
 40
1
 40
1
 40
1
 40
1
 10
7314.658600
 20
1119.690670
 30
0.0
 10
7292.811100
 20
1112.503170
 30
0.0
 10
7286.392300
 20
1095.861270
 30
0.0
 10
7278.278500
 20
1078.641670
 30
0.0
  0
SPLINE
  5
2f6
100
AcDbEntity
  8
0
 62
1
100
AcDbSpline
 70
8
 71
3
 72
8
 73
4
 74
0
 40
0
 40
0
 40
0
 40
0
 40
1
 40
1
 40
1
 40
1
 10
7278.278500
 20
1078.641670
 30
0.0
 10
7271.943900
 20
1065.197470
 30
0.0
 10
7260.820700
 20
1053.486670
 30
0.0
 10
7252.743400
 20
1040.643170
 30
0.0
  0
SPLINE
  5
2f7
100
AcDbEntity
  8
0
 62
1
100
AcDbSpline
 70
8
 71
3
 72
8
 73
4
 74
0
 40
0
 40
0
 40
0
 40
0
 40
1
 40
1
 40
1
 40
1
 10
7252.743400
 20
1040.643170
 30
0.0
 10
7220.362100
 20
989.154670
 30
0.0
 10
7205.755200
 20
935.999170
 30
0.0
 10
7212.513300
 20
882.273270
 30
0.0
  0
SPLINE
  5
2f8
100
AcDbEntity
  8
0
 62
1
100
AcDbSpline
 70
8
 71
3
 72
8
 73
4
 74
0
 40
0
 40
0
 40
0
 40
0
 40
1
 40
1
 40
1
 40
1
 10
7212.513300
 20
882.273270
 30
0.0
 10
7218.300200
 20
836.270070
 30
0.0
 10
7251.119100
 20
793.244170
 30
0.0
 10
7316.230400
 20
760.929470
 30
0.0
  0
SPLINE
  5
2f9
100
AcDbEntity
  8
0
 62
1
100
AcDbSpline
 70
8
 71
3
 72
8
 73
4
 74
0
 40
0
 40
0
 40
0
 40
0
 40
1
 40
1
 40
1
 40
1
 10
7316.230400
 20
760.929470
 30
0.0
 10
7323.182600
 20
757.478870
 30
0.0
 10
7332.541200
 20
759.541870
 30
0.0
 10
7340.696500
 20
758.848570
 30
0.0
  0
LWPOLYLINE
  5
2fa
100
AcDbEntity
  8
0
 62
1
100
AcDbPolyline
 90
3
 70
0
 10
7370.462300
 20
1127.456770
 30
0.0
 10
7370.461700
 20
1127.456770
 30
0.0
 10
7340.696500
 20
1127.456770
 30
0.0
  0
SPLINE
  5
2fb
100
AcDbEntity
  8
0
 62
1
100
AcDbSpline
 70
8
 71
3
 72
8
 73
4
 74
0
 40
0
 40
0
 40
0
 40
0
 40
1
 40
1
 40
1
 40
1
 10
7400.225200
 20
758.848570
 30
0.0
 10
7408.380400
 20
759.541870
 30
0.0
 10
7417.739000
 20
757.478870
 30
0.0
 10
7424.691300
 20
760.929470
 30
0.0
  0
SPLINE
  5
2fc
100
AcDbEntity
  8
0
 62
1
100
AcDbSpline
 70
8
 71
3
 72
8
 73
4
 74
0
 40
0
 40
0
 40
0
 40
0
 40
1
 40
1
 40
1
 40
1
 10
7424.691300
 20
760.929470
 30
0.0
 10
7489.802500
 20
793.244170
 30
0.0
 10
7522.621500
 20
836.270070
 30
0.0
 10
7528.408400
 20
882.273270
 30
0.0
  0
SPLINE
  5
2fd
100
AcDbEntity
  8
0
 62
1
100
AcDbSpline
 70
8
 71
3
 72
8
 73
4
 74
0
 40
0
 40
0
 40
0
 40
0
 40
1
 40
1
 40
1
 40
1
 10
7528.408400
 20
882.273270
 30
0.0
 10
7535.166500
 20
935.999170
 30
0.0
 10
7520.559600
 20
989.154670
 30
0.0
 10
7488.178300
 20
1040.643170
 30
0.0
  0
SPLINE
  5
2fe
100
AcDbEntity
  8
0
 62
1
100
AcDbSpline
 70
8
 71
3
 72
8
 73
4
 74
0
 40
0
 40
0
 40
0
 40
0
 40
1
 40
1
 40
1
 40
1
 10
7488.178300
 20
1040.643170
 30
0.0
 10
7480.100900
 20
1053.486670
 30
0.0
 10
7468.977800
 20
1065.197470
 30
0.0
 10
7462.643200
 20
1078.641670
 30
0.0
  0
SPLINE
  5
2ff
100
AcDbEntity
  8
0
 62
1
100
AcDbSpline
 70
8
 71
3
 72
8
 73
4
 74
0
 40
0
 40
0
 40
0
 40
0
 40
1
 40
1
 40
1
 40
1
 10
7462.643200
 20
1078.641670
 30
0.0
 10
7454.529300
 20
1095.861270
 30
0.0
 10
7448.110600
 20
1112.503170
 30
0.0
 10
7426.263100
 20
1119.690670
 30
0.0
  0
SPLINE
  5
300
100
AcDbEntity
  8
0
 62
1
100
AcDbSpline
 70
8
 71
3
 72
8
 73
4
 74
0
 40
0
 40
0
 40
0
 40
0
 40
1
 40
1
 40
1
 40
1
 10
7426.263100
 20
1119.690670
 30
0.0
 10
7417.697900
 20
1122.508370
 30
0.0
 10
7409.654900
 20
1127.456770
 30
0.0
 10
7400.225200
 20
1127.456770
 30
0.0
  0
LWPOLYLINE
  5
301
100
AcDbEntity
  8
0
 62
1
100
AcDbPolyline
 90
11
 70
0
 10
7340.696500
 20
758.848570
 30
0.0
 10
7340.696500
 20
943.152670
 30
0.0
 10
7349.200400
 20
943.152670
 30
0.0
 10
7349.200400
 20
758.848570
 30
0.0
 10
7370.461700
 20
758.848570
 30
0.0
 10
7370.462300
 20
758.848570
 30
0.0
 10
7391.721300
 20
758.848570
 30
0.0
 10
7391.721300
 20
943.152670
 30
0.0
 10
7400.225200
 20
943.152670
 30
0.0
 10
7400.225200
 20
758.848570
 30
0.0
 10
7400.225200
 20
758.848570
 30
0.0
  0
SPLINE
  5
302
100
AcDbEntity
  8
0
 62
1
100
AcDbSpline
 70
8
 71
3
 72
8
 73
4
 74
0
 40
0
 40
0
 40
0
 40
0
 40
1
 40
1
 40
1
 40
1
 10
7680.194100
 20
1107.005970
 30
0.0
 10
7670.698900
 20
1107.005970
 30
0.0
 10
7662.380300
 20
1102.768770
 30
0.0
 10
7655.423800
 20
1097.239470
 30
0.0
  0
SPLINE
  5
303
100
AcDbEntity
  8
0
 62
1
100
AcDbSpline
 70
8
 71
3
 72
8
 73
4
 74
0
 40
0
 40
0
 40
0
 40
0
 40
1
 40
1
 40
1
 40
1
 10
7655.423800
 20
1097.239470
 30
0.0
 10
7616.885400
 20
1066.607470
 30
0.0
 10
7587.364800
 20
1031.716070
 30
0.0
 10
7572.061700
 20
991.979470
 30
0.0
  0
SPLINE
  5
304
100
AcDbEntity
  8
0
 62
1
100
AcDbSpline
 70
8
 71
3
 72
8
 73
4
 74
0
 40
0
 40
0
 40
0
 40
0
 40
1
 40
1
 40
1
 40
1
 10
7572.061700
 20
991.979470
 30
0.0
 10
7549.399600
 20
933.133370
 30
0.0
 10
7546.184200
 20
874.475970
 30
0.0
 10
7583.443700
 20
829.477470
 30
0.0
  0
SPLINE
  5
305
100
AcDbEntity
  8
0
 62
1
100
AcDbSpline
 70
8
 71
3
 72
8
 73
4
 74
0
 40
0
 40
0
 40
0
 40
0
 40
1
 40
1
 40
1
 40
1
 10
7583.443700
 20
829.477470
 30
0.0
 10
7618.633500
 20
786.978470
 30
0.0
 10
7655.576300
 20
765.995770
 30
0.0
 10
7680.194100
 20
765.995770
 30
0.0
  0
LWPOLYLINE
  5
306
100
AcDbEntity
  8
0
 62
1
100
AcDbPolyline
 90
2
 70
0
 10
7400.225200
 20
1127.456770
 30
0.0
 10
7370.462300
 20
1127.456770
 30
0.0
  0
SPLINE
  5
307
100
AcDbEntity
  8
0
 62
1
100
AcDbSpline
 70
8
 71
3
 72
8
 73
4
 74
0
 40
0
 40
0
 40
0
 40
0
 40
1
 40
1
 40
1
 40
1
 10
7739.721600
 20
765.995770
 30
0.0
 10
7764.339400
 20
765.995770
 30
0.0
 10
7801.282200
 20
786.978470
 30
0.0
 10
7836.472100
 20
829.477470
 30
0.0
  0
SPLINE
  5
308
100
AcDbEntity
  8
0
 62
1
100
AcDbSpline
 70
8
 71
3
 72
8
 73
4
 74
0
 40
0
 40
0
 40
0
 40
0
 40
1
 40
1
 40
1
 40
1
 10
7836.472100
 20
829.477470
 30
0.0
 10
7873.731500
 20
874.475970
 30
0.0
 10
7870.516200
 20
933.133370
 30
0.0
 10
7847.854000
 20
991.979470
 30
0.0
  0
SPLINE
  5
309
100
AcDbEntity
  8
0
 62
1
100
AcDbSpline
 70
8
 71
3
 72
8
 73
4
 74
0
 40
0
 40
0
 40
0
 40
0
 40
1
 40
1
 40
1
 40
1
 10
7847.854000
 20
991.979470
 30
0.0
 10
7832.550900
 20
1031.716070
 30
0.0
 10
7803.030300
 20
1066.607470
 30
0.0
 10
7764.491900
 20
1097.239470
 30
0.0
  0
SPLINE
  5
30a
100
AcDbEntity
  8
0
 62
1
100
AcDbSpline
 70
8
 71
3
 72
8
 73
4
 74
0
 40
0
 40
0
 40
0
 40
0
 40
1
 40
1
 40
1
 40
1
 10
7764.491900
 20
1097.239470
 30
0.0
 10
7757.535400
 20
1102.768770
 30
0.0
 10
7749.216900
 20
1107.005970
 30
0.0
 10
7739.721600
 20
1107.005970
 30
0.0
  0
LWPOLYLINE
  5
30b
100
AcDbEntity
  8
0
 62
1
100
AcDbPolyline
 90
8
 70
0
 10
7680.194100
 20
765.995770
 30
0.0
 10
7680.194100
 20
936.500870
 30
0.0
 10
7688.698000
 20
936.500870
 30
0.0
 10
7688.698000
 20
765.995770
 30
0.0
 10
7731.217700
 20
765.995770
 30
0.0
 10
7731.217700
 20
936.500870
 30
0.0
 10
7739.721600
 20
936.500870
 30
0.0
 10
7739.721600
 20
765.995770
 30
0.0
  0
SPLINE
  5
30c
100
AcDbEntity
  8
0
 62
1
100
AcDbSpline
 70
8
 71
3
 72
8
 73
4
 74
0
 40
0
 40
0
 40
0
 40
0
 40
1
 40
1
 40
1
 40
1
 10
8019.194500
 20
1089.529770
 30
0.0
 10
7999.650700
 20
1089.529770
 30
0.0
 10
7980.586000
 20
1082.696870
 30
0.0
 10
7965.580500
 20
1069.260670
 30
0.0
  0
SPLINE
  5
30d
100
AcDbEntity
  8
0
 62
1
100
AcDbSpline
 70
8
 71
3
 72
8
 73
4
 74
0
 40
0
 40
0
 40
0
 40
0
 40
1
 40
1
 40
1
 40
1
 10
7965.580500
 20
1069.260670
 30
0.0
 10
7949.112700
 20
1054.514870
 30
0.0
 10
7932.097700
 20
1038.494570
 30
0.0
 10
7920.624500
 20
1018.519970
 30
0.0
  0
SPLINE
  5
30e
100
AcDbEntity
  8
0
 62
1
100
AcDbSpline
 70
8
 71
3
 72
8
 73
4
 74
0
 40
0
 40
0
 40
0
 40
0
 40
1
 40
1
 40
1
 40
1
 10
7920.624500
 20
1018.519970
 30
0.0
 10
7906.272400
 20
993.532870
 30
0.0
 10
7900.479200
 20
966.426270
 30
0.0
 10
7900.266300
 20
938.356770
 30
0.0
  0
SPLINE
  5
30f
100
AcDbEntity
  8
0
 62
1
100
AcDbSpline
 70
8
 71
3
 72
8
 73
4
 74
0
 40
0
 40
0
 40
0
 40
0
 40
1
 40
1
 40
1
 40
1
 10
7900.266300
 20
938.356770
 30
0.0
 10
7900.169300
 20
925.630870
 30
0.0
 10
7900.330300
 20
912.894270
 30
0.0
 10
7901.114700
 20
900.183370
 30
0.0
  0
SPLINE
  5
310
100
AcDbEntity
  8
0
 62
1
100
AcDbSpline
 70
8
 71
3
 72
8
 73
4
 74
0
 40
0
 40
0
 40
0
 40
0
 40
1
 40
1
 40
1
 40
1
 10
7901.114700
 20
900.183370
 30
0.0
 10
7903.364000
 20
863.741470
 30
0.0
 10
7915.987600
 20
841.077970
 30
0.0
 10
7933.770400
 20
825.862670
 30
0.0
  0
SPLINE
  5
311
100
AcDbEntity
  8
0
 62
1
100
AcDbSpline
 70
8
 71
3
 72
8
 73
4
 74
0
 40
0
 40
0
 40
0
 40
0
 40
1
 40
1
 40
1
 40
1
 10
7933.770400
 20
825.862670
 30
0.0
 10
7943.176600
 20
817.814870
 30
0.0
 10
7953.316200
 20
810.274070
 30
0.0
 10
7963.033900
 20
803.228870
 30
0.0
  0
SPLINE
  5
312
100
AcDbEntity
  8
0
 62
1
100
AcDbSpline
 70
8
 71
3
 72
8
 73
4
 74
0
 40
0
 40
0
 40
0
 40
0
 40
1
 40
1
 40
1
 40
1
 10
7963.033900
 20
803.228870
 30
0.0
 10
7984.822100
 20
787.432570
 30
0.0
 10
8007.828900
 20
776.203970
 30
0.0
 10
8019.194500
 20
776.203970
 30
0.0
  0
LWPOLYLINE
  5
313
100
AcDbEntity
  8
0
 62
1
100
AcDbPolyline
 90
2
 70
0
 10
7739.721600
 20
1107.005970
 30
0.0
 10
7680.194100
 20
1107.005970
 30
0.0
  0
SPLINE
  5
314
100
AcDbEntity
  8
0
 62
1
100
AcDbSpline
 70
8
 71
3
 72
8
 73
4
 74
0
 40
0
 40
0
 40
0
 40
0
 40
1
 40
1
 40
1
 40
1
 10
8078.722000
 20
776.203970
 30
0.0
 10
8090.087500
 20
776.203970
 30
0.0
 10
8113.094400
 20
787.432570
 30
0.0
 10
8134.882600
 20
803.228870
 30
0.0
  0
SPLINE
  5
315
100
AcDbEntity
  8
0
 62
1
100
AcDbSpline
 70
8
 71
3
 72
8
 73
4
 74
0
 40
0
 40
0
 40
0
 40
0
 40
1
 40
1
 40
1
 40
1
 10
8134.882600
 20
803.228870
 30
0.0
 10
8144.600300
 20
810.274070
 30
0.0
 10
8154.739800
 20
817.814870
 30
0.0
 10
8164.146000
 20
825.862670
 30
0.0
  0
SPLINE
  5
316
100
AcDbEntity
  8
0
 62
1
100
AcDbSpline
 70
8
 71
3
 72
8
 73
4
 74
0
 40
0
 40
0
 40
0
 40
0
 40
1
 40
1
 40
1
 40
1
 10
8164.146000
 20
825.862670
 30
0.0
 10
8181.928900
 20
841.077970
 30
0.0
 10
8194.552400
 20
863.741470
 30
0.0
 10
8196.801700
 20
900.183370
 30
0.0
  0
SPLINE
  5
317
100
AcDbEntity
  8
0
 62
1
100
AcDbSpline
 70
8
 71
3
 72
8
 73
4
 74
0
 40
0
 40
0
 40
0
 40
0
 40
1
 40
1
 40
1
 40
1
 10
8196.801700
 20
900.183370
 30
0.0
 10
8197.586600
 20
912.894270
 30
0.0
 10
8197.746800
 20
925.630870
 30
0.0
 10
8197.650100
 20
938.356770
 30
0.0
  0
SPLINE
  5
318
100
AcDbEntity
  8
0
 62
1
100
AcDbSpline
 70
8
 71
3
 72
8
 73
4
 74
0
 40
0
 40
0
 40
0
 40
0
 40
1
 40
1
 40
1
 40
1
 10
8197.650100
 20
938.356770
 30
0.0
 10
8197.437300
 20
966.426270
 30
0.0
 10
8191.644100
 20
993.532870
 30
0.0
 10
8177.292000
 20
1018.519970
 30
0.0
  0
SPLINE
  5
319
100
AcDbEntity
  8
0
 62
1
100
AcDbSpline
 70
8
 71
3
 72
8
 73
4
 74
0
 40
0
 40
0
 40
0
 40
0
 40
1
 40
1
 40
1
 40
1
 10
8177.292000
 20
1018.519970
 30
0.0
 10
8165.818800
 20
1038.494570
 30
0.0
 10
8148.803800
 20
1054.514870
 30
0.0
 10
8132.335900
 20
1069.260670
 30
0.0
  0
SPLINE
  5
31a
100
AcDbEntity
  8
0
 62
1
100
AcDbSpline
 70
8
 71
3
 72
8
 73
4
 74
0
 40
0
 40
0
 40
0
 40
0
 40
1
 40
1
 40
1
 40
1
 10
8132.335900
 20
1069.260670
 30
0.0
 10
8117.330500
 20
1082.696870
 30
0.0
 10
8098.265800
 20
1089.529770
 30
0.0
 10
8078.722000
 20
1089.529770
 30
0.0
  0
LWPOLYLINE
  5
31b
100
AcDbEntity
  8
0
 62
1
100
AcDbPolyline
 90
8
 70
0
 10
8019.194500
 20
776.203970
 30
0.0
 10
8019.194500
 20
932.866870
 30
0.0
 10
8027.698400
 20
932.866870
 30
0.0
 10
8027.698400
 20
776.203970
 30
0.0
 10
8070.218100
 20
776.203970
 30
0.0
 10
8070.218100
 20
932.866870
 30
0.0
 10
8078.722000
 20
932.866870
 30
0.0
 10
8078.722000
 20
776.203970
 30
0.0
  0
SPLINE
  5
31c
100
AcDbEntity
  8
0
 62
1
100
AcDbSpline
 70
8
 71
3
 72
8
 73
4
 74
0
 40
0
 40
0
 40
0
 40
0
 40
1
 40
1
 40
1
 40
1
 10
8355.789900
 20
1075.977670
 30
0.0
 10
8341.821400
 20
1075.977670
 30
0.0
 10
8328.970800
 20
1068.390970
 30
0.0
 10
8315.970200
 20
1063.786970
 30
0.0
  0
SPLINE
  5
31d
100
AcDbEntity
  8
0
 62
1
100
AcDbSpline
 70
8
 71
3
 72
8
 73
4
 74
0
 40
0
 40
0
 40
0
 40
0
 40
1
 40
1
 40
1
 40
1
 10
8315.970200
 20
1063.786970
 30
0.0
 10
8295.905200
 20
1056.681370
 30
0.0
 10
8278.316800
 20
1045.038370
 30
0.0
 10
8267.899200
 20
1027.884470
 30
0.0
  0
SPLINE
  5
31e
100
AcDbEntity
  8
0
 62
1
100
AcDbSpline
 70
8
 71
3
 72
8
 73
4
 74
0
 40
0
 40
0
 40
0
 40
0
 40
1
 40
1
 40
1
 40
1
 10
8267.899200
 20
1027.884470
 30
0.0
 10
8260.291000
 20
1015.356770
 30
0.0
 10
8258.817500
 20
1000.872270
 30
0.0
 10
8252.218500
 20
987.974970
 30
0.0
  0
SPLINE
  5
31f
100
AcDbEntity
  8
0
 62
1
100
AcDbSpline
 70
8
 71
3
 72
8
 73
4
 74
0
 40
0
 40
0
 40
0
 40
0
 40
1
 40
1
 40
1
 40
1
 10
8252.218500
 20
987.974970
 30
0.0
 10
8241.971800
 20
967.949270
 30
0.0
 10
8239.546200
 20
947.663470
 30
0.0
 10
8240.664800
 20
927.190770
 30
0.0
  0
SPLINE
  5
320
100
AcDbEntity
  8
0
 62
1
100
AcDbSpline
 70
8
 71
3
 72
8
 73
4
 74
0
 40
0
 40
0
 40
0
 40
0
 40
1
 40
1
 40
1
 40
1
 10
8240.664800
 20
927.190770
 30
0.0
 10
8241.464100
 20
912.560570
 30
0.0
 10
8243.142000
 20
897.946270
 30
0.0
 10
8245.615700
 20
883.439470
 30
0.0
  0
SPLINE
  5
321
100
AcDbEntity
  8
0
 62
1
100
AcDbSpline
 70
8
 71
3
 72
8
 73
4
 74
0
 40
0
 40
0
 40
0
 40
0
 40
1
 40
1
 40
1
 40
1
 10
8245.615700
 20
883.439470
 30
0.0
 10
8249.593000
 20
860.120470
 30
0.0
 10
8259.120900
 20
842.699370
 30
0.0
 10
8273.467300
 20
829.500970
 30
0.0
  0
SPLINE
  5
322
100
AcDbEntity
  8
0
 62
1
100
AcDbSpline
 70
8
 71
3
 72
8
 73
4
 74
0
 40
0
 40
0
 40
0
 40
0
 40
1
 40
1
 40
1
 40
1
 10
8273.467300
 20
829.500970
 30
0.0
 10
8288.570600
 20
815.606370
 30
0.0
 10
8305.151500
 20
802.948270
 30
0.0
 10
8325.664700
 20
794.934170
 30
0.0
  0
SPLINE
  5
323
100
AcDbEntity
  8
0
 62
1
100
AcDbSpline
 70
8
 71
3
 72
8
 73
4
 74
0
 40
0
 40
0
 40
0
 40
0
 40
1
 40
1
 40
1
 40
1
 10
8325.664700
 20
794.934170
 30
0.0
 10
8335.146000
 20
791.230070
 30
0.0
 10
8345.980100
 20
787.252570
 30
0.0
 10
8355.789900
 20
787.252570
 30
0.0
  0
LWPOLYLINE
  5
324
100
AcDbEntity
  8
0
 62
1
100
AcDbPolyline
 90
2
 70
0
 10
8078.722000
 20
1089.529770
 30
0.0
 10
8019.194500
 20
1089.529770
 30
0.0
  0
SPLINE
  5
325
100
AcDbEntity
  8
0
 62
1
100
AcDbSpline
 70
8
 71
3
 72
8
 73
4
 74
0
 40
0
 40
0
 40
0
 40
0
 40
1
 40
1
 40
1
 40
1
 10
8415.317500
 20
787.252570
 30
0.0
 10
8425.127600
 20
787.252570
 30
0.0
 10
8435.961400
 20
791.230070
 30
0.0
 10
8445.442700
 20
794.934170
 30
0.0
  0
SPLINE
  5
326
100
AcDbEntity
  8
0
 62
1
100
AcDbSpline
 70
8
 71
3
 72
8
 73
4
 74
0
 40
0
 40
0
 40
0
 40
0
 40
1
 40
1
 40
1
 40
1
 10
8445.442700
 20
794.934170
 30
0.0
 10
8465.956200
 20
802.948270
 30
0.0
 10
8482.536900
 20
815.606370
 30
0.0
 10
8497.640100
 20
829.500970
 30
0.0
  0
SPLINE
  5
327
100
AcDbEntity
  8
0
 62
1
100
AcDbSpline
 70
8
 71
3
 72
8
 73
4
 74
0
 40
0
 40
0
 40
0
 40
0
 40
1
 40
1
 40
1
 40
1
 10
8497.640100
 20
829.500970
 30
0.0
 10
8511.986600
 20
842.699370
 30
0.0
 10
8521.514600
 20
860.120470
 30
0.0
 10
8525.491400
 20
883.439470
 30
0.0
  0
SPLINE
  5
328
100
AcDbEntity
  8
0
 62
1
100
AcDbSpline
 70
8
 71
3
 72
8
 73
4
 74
0
 40
0
 40
0
 40
0
 40
0
 40
1
 40
1
 40
1
 40
1
 10
8525.491400
 20
883.439470
 30
0.0
 10
8527.965400
 20
897.946270
 30
0.0
 10
8529.643600
 20
912.560570
 30
0.0
 10
8530.442600
 20
927.190770
 30
0.0
  0
SPLINE
  5
329
100
AcDbEntity
  8
0
 62
1
100
AcDbSpline
 70
8
 71
3
 72
8
 73
4
 74
0
 40
0
 40
0
 40
0
 40
0
 40
1
 40
1
 40
1
 40
1
 10
8530.442600
 20
927.190770
 30
0.0
 10
8531.561200
 20
947.663470
 30
0.0
 10
8529.135600
 20
967.949270
 30
0.0
 10
8518.888900
 20
987.974970
 30
0.0
  0
SPLINE
  5
32a
100
AcDbEntity
  8
0
 62
1
100
AcDbSpline
 70
8
 71
3
 72
8
 73
4
 74
0
 40
0
 40
0
 40
0
 40
0
 40
1
 40
1
 40
1
 40
1
 10
8518.888900
 20
987.974970
 30
0.0
 10
8512.289600
 20
1000.872270
 30
0.0
 10
8510.816100
 20
1015.356770
 30
0.0
 10
8503.208200
 20
1027.884470
 30
0.0
  0
SPLINE
  5
32b
100
AcDbEntity
  8
0
 62
1
100
AcDbSpline
 70
8
 71
3
 72
8
 73
4
 74
0
 40
0
 40
0
 40
0
 40
0
 40
1
 40
1
 40
1
 40
1
 10
8503.208200
 20
1027.884470
 30
0.0
 10
8492.790600
 20
1045.038370
 30
0.0
 10
8475.202200
 20
1056.681370
 30
0.0
 10
8455.137200
 20
1063.786970
 30
0.0
  0
SPLINE
  5
32c
100
AcDbEntity
  8
0
 62
1
100
AcDbSpline
 70
8
 71
3
 72
8
 73
4
 74
0
 40
0
 40
0
 40
0
 40
0
 40
1
 40
1
 40
1
 40
1
 10
8455.137200
 20
1063.786970
 30
0.0
 10
8442.136300
 20
1068.390970
 30
0.0
 10
8429.285800
 20
1075.977670
 30
0.0
 10
8415.317500
 20
1075.977670
 30
0.0
  0
LWPOLYLINE
  5
32d
100
AcDbEntity
  8
0
 62
1
100
AcDbPolyline
 90
8
 70
0
 10
8355.789900
 20
787.252570
 30
0.0
 10
8355.789900
 20
931.615070
 30
0.0
 10
8364.293900
 20
931.615070
 30
0.0
 10
8364.293900
 20
787.252570
 30
0.0
 10
8406.813500
 20
787.252570
 30
0.0
 10
8406.813500
 20
931.615070
 30
0.0
 10
8415.317500
 20
931.615070
 30
0.0
 10
8415.317500
 20
787.252570
 30
0.0
  0
SPLINE
  5
32e
100
AcDbEntity
  8
0
 62
1
100
AcDbSpline
 70
8
 71
3
 72
8
 73
4
 74
0
 40
0
 40
0
 40
0
 40
0
 40
1
 40
1
 40
1
 40
1
 10
8738.721900
 20
1068.609270
 30
0.0
 10
8756.842100
 20
1068.609270
 30
0.0
 10
8803.292900
 20
1045.904070
 30
0.0
 10
8813.281000
 20
1030.115070
 30
0.0
  0
SPLINE
  5
32f
100
AcDbEntity
  8
0
 62
1
100
AcDbSpline
 70
8
 71
3
 72
8
 73
4
 74
0
 40
0
 40
0
 40
0
 40
0
 40
1
 40
1
 40
1
 40
1
 10
8813.281000
 20
1030.115070
 30
0.0
 10
8831.215000
 20
1001.765470
 30
0.0
 10
8838.568100
 20
971.111370
 30
0.0
 10
8840.370300
 20
939.418870
 30
0.0
  0
SPLINE
  5
330
100
AcDbEntity
  8
0
 62
1
100
AcDbSpline
 70
8
 71
3
 72
8
 73
4
 74
0
 40
0
 40
0
 40
0
 40
0
 40
1
 40
1
 40
1
 40
1
 10
8840.370300
 20
939.418870
 30
0.0
 10
8843.290600
 20
888.067870
 30
0.0
 10
8830.273900
 20
847.106370
 30
0.0
 10
8796.395300
 20
822.539870
 30
0.0
  0
SPLINE
  5
331
100
AcDbEntity
  8
0
 62
1
100
AcDbSpline
 70
8
 71
3
 72
8
 73
4
 74
0
 40
0
 40
0
 40
0
 40
0
 40
1
 40
1
 40
1
 40
1
 10
8796.395300
 20
822.539870
 30
0.0
 10
8779.000000
 20
809.926270
 30
0.0
 10
8758.136400
 20
795.289370
 30
0.0
 10
8738.721900
 20
795.289370
 30
0.0
  0
LWPOLYLINE
  5
332
100
AcDbEntity
  8
0
 62
1
100
AcDbPolyline
 90
2
 70
0
 10
8415.317500
 20
1075.977670
 30
0.0
 10
8355.789900
 20
1075.977670
 30
0.0
  0
SPLINE
  5
333
100
AcDbEntity
  8
0
 62
1
100
AcDbSpline
 70
8
 71
3
 72
8
 73
4
 74
0
 40
0
 40
0
 40
0
 40
0
 40
1
 40
1
 40
1
 40
1
 10
8679.194400
 20
795.289370
 30
0.0
 10
8659.779900
 20
795.289370
 30
0.0
 10
8638.916300
 20
809.926270
 30
0.0
 10
8621.520900
 20
822.539870
 30
0.0
  0
SPLINE
  5
334
100
AcDbEntity
  8
0
 62
1
100
AcDbSpline
 70
8
 71
3
 72
8
 73
4
 74
0
 40
0
 40
0
 40
0
 40
0
 40
1
 40
1
 40
1
 40
1
 10
8621.520900
 20
822.539870
 30
0.0
 10
8587.642400
 20
847.106370
 30
0.0
 10
8574.625400
 20
888.067870
 30
0.0
 10
8577.546000
 20
939.418870
 30
0.0
  0
SPLINE
  5
335
100
AcDbEntity
  8
0
 62
1
100
AcDbSpline
 70
8
 71
3
 72
8
 73
4
 74
0
 40
0
 40
0
 40
0
 40
0
 40
1
 40
1
 40
1
 40
1
 10
8577.546000
 20
939.418870
 30
0.0
 10
8579.348500
 20
971.111370
 30
0.0
 10
8586.701300
 20
1001.765470
 30
0.0
 10
8604.635200
 20
1030.115070
 30
0.0
  0
SPLINE
  5
336
100
AcDbEntity
  8
0
 62
1
100
AcDbSpline
 70
8
 71
3
 72
8
 73
4
 74
0
 40
0
 40
0
 40
0
 40
0
 40
1
 40
1
 40
1
 40
1
 10
8604.635200
 20
1030.115070
 30
0.0
 10
8614.623400
 20
1045.904070
 30
0.0
 10
8661.074200
 20
1068.609270
 30
0.0
 10
8679.194400
 20
1068.609270
 30
0.0
  0
LWPOLYLINE
  5
337
100
AcDbEntity
  8
0
 62
1
100
AcDbPolyline
 90
8
 70
0
 10
8738.721900
 20
795.289370
 30
0.0
 10
8738.721900
 20
931.949270
 30
0.0
 10
8730.218000
 20
931.949270
 30
0.0
 10
8730.218000
 20
795.289370
 30
0.0
 10
8687.698300
 20
795.289370
 30
0.0
 10
8687.698300
 20
931.949270
 30
0.0
 10
8679.194400
 20
931.949270
 30
0.0
 10
8679.194400
 20
795.289370
 30
0.0
  0
SPLINE
  5
338
100
AcDbEntity
  8
0
 62
1
100
AcDbSpline
 70
8
 71
3
 72
8
 73
4
 74
0
 40
0
 40
0
 40
0
 40
0
 40
1
 40
1
 40
1
 40
1
 10
8966.599100
 20
1064.542370
 30
0.0
 10
8957.309100
 20
1064.542370
 30
0.0
 10
8946.909400
 20
1062.826870
 30
0.0
 10
8937.847300
 20
1057.946770
 30
0.0
  0
SPLINE
  5
339
100
AcDbEntity
  8
0
 62
1
100
AcDbSpline
 70
8
 71
3
 72
8
 73
4
 74
0
 40
0
 40
0
 40
0
 40
0
 40
1
 40
1
 40
1
 40
1
 10
8937.847300
 20
1057.946770
 30
0.0
 10
8931.526300
 20
1054.542870
 30
0.0
 10
8926.783700
 20
1050.341370
 30
0.0
 10
8920.854400
 20
1048.135170
 30
0.0
  0
SPLINE
  5
33a
100
AcDbEntity
  8
0
 62
1
100
AcDbSpline
 70
8
 71
3
 72
8
 73
4
 74
0
 40
0
 40
0
 40
0
 40
0
 40
1
 40
1
 40
1
 40
1
 10
8920.854400
 20
1048.135170
 30
0.0
 10
8909.735200
 20
1043.997470
 30
0.0
 10
8898.559100
 20
1033.494570
 30
0.0
 10
8889.714100
 20
1017.629570
 30
0.0
  0
SPLINE
  5
33b
100
AcDbEntity
  8
0
 62
1
100
AcDbSpline
 70
8
 71
3
 72
8
 73
4
 74
0
 40
0
 40
0
 40
0
 40
0
 40
1
 40
1
 40
1
 40
1
 10
8889.714100
 20
1017.629570
 30
0.0
 10
8875.648300
 20
992.401470
 30
0.0
 10
8872.377700
 20
964.687470
 30
0.0
 10
8872.812900
 20
936.666470
 30
0.0
  0
SPLINE
  5
33c
100
AcDbEntity
  8
0
 62
1
100
AcDbSpline
 70
8
 71
3
 72
8
 73
4
 74
0
 40
0
 40
0
 40
0
 40
0
 40
1
 40
1
 40
1
 40
1
 10
8872.812900
 20
936.666470
 30
0.0
 10
8873.384300
 20
899.822570
 30
0.0
 10
8878.435700
 20
864.731870
 30
0.0
 10
8901.652800
 20
839.379370
 30
0.0
  0
SPLINE
  5
33d
100
AcDbEntity
  8
0
 62
1
100
AcDbSpline
 70
8
 71
3
 72
8
 73
4
 74
0
 40
0
 40
0
 40
0
 40
0
 40
1
 40
1
 40
1
 40
1
 10
8901.652800
 20
839.379370
 30
0.0
 10
8918.855100
 20
820.594170
 30
0.0
 10
8942.925300
 20
797.660270
 30
0.0
 10
8966.599100
 20
797.660270
 30
0.0
  0
LWPOLYLINE
  5
33e
100
AcDbEntity
  8
0
 62
1
100
AcDbPolyline
 90
2
 70
0
 10
8679.194400
 20
1068.609270
 30
0.0
 10
8738.721900
 20
1068.609270
 30
0.0
  0
SPLINE
  5
33f
100
AcDbEntity
  8
0
 62
1
100
AcDbSpline
 70
8
 71
3
 72
8
 73
4
 74
0
 40
0
 40
0
 40
0
 40
0
 40
1
 40
1
 40
1
 40
1
 10
9026.126600
 20
797.660270
 30
0.0
 10
9049.800500
 20
797.660270
 30
0.0
 10
9073.870600
 20
820.594170
 30
0.0
 10
9091.072900
 20
839.379370
 30
0.0
  0
SPLINE
  5
340
100
AcDbEntity
  8
0
 62
1
100
AcDbSpline
 70
8
 71
3
 72
8
 73
4
 74
0
 40
0
 40
0
 40
0
 40
0
 40
1
 40
1
 40
1
 40
1
 10
9091.072900
 20
839.379370
 30
0.0
 10
9114.290100
 20
864.731870
 30
0.0
 10
9119.341400
 20
899.822570
 30
0.0
 10
9119.912900
 20
936.666470
 30
0.0
  0
SPLINE
  5
341
100
AcDbEntity
  8
0
 62
1
100
AcDbSpline
 70
8
 71
3
 72
8
 73
4
 74
0
 40
0
 40
0
 40
0
 40
0
 40
1
 40
1
 40
1
 40
1
 10
9119.912900
 20
936.666470
 30
0.0
 10
9120.348000
 20
964.687470
 30
0.0
 10
9117.077400
 20
992.401470
 30
0.0
 10
9103.011600
 20
1017.629570
 30
0.0
  0
SPLINE
  5
342
100
AcDbEntity
  8
0
 62
1
100
AcDbSpline
 70
8
 71
3
 72
8
 73
4
 74
0
 40
0
 40
0
 40
0
 40
0
 40
1
 40
1
 40
1
 40
1
 10
9103.011600
 20
1017.629570
 30
0.0
 10
9094.166600
 20
1033.494570
 30
0.0
 10
9082.990500
 20
1043.997470
 30
0.0
 10
9071.871300
 20
1048.135170
 30
0.0
  0
SPLINE
  5
343
100
AcDbEntity
  8
0
 62
1
100
AcDbSpline
 70
8
 71
3
 72
8
 73
4
 74
0
 40
0
 40
0
 40
0
 40
0
 40
1
 40
1
 40
1
 40
1
 10
9071.871300
 20
1048.135170
 30
0.0
 10
9065.942100
 20
1050.341370
 30
0.0
 10
9061.199400
 20
1054.542870
 30
0.0
 10
9054.878500
 20
1057.946770
 30
0.0
  0
SPLINE
  5
344
100
AcDbEntity
  8
0
 62
1
100
AcDbSpline
 70
8
 71
3
 72
8
 73
4
 74
0
 40
0
 40
0
 40
0
 40
0
 40
1
 40
1
 40
1
 40
1
 10
9054.878500
 20
1057.946770
 30
0.0
 10
9045.816400
 20
1062.826870
 30
0.0
 10
9035.416600
 20
1064.542370
 30
0.0
 10
9026.126600
 20
1064.542370
 30
0.0
  0
LWPOLYLINE
  5
345
100
AcDbEntity
  8
0
 62
1
100
AcDbPolyline
 90
8
 70
0
 10
8966.599100
 20
797.660270
 30
0.0
 10
8966.599100
 20
931.101170
 30
0.0
 10
8975.103000
 20
931.101170
 30
0.0
 10
8975.103000
 20
797.660270
 30
0.0
 10
9017.622700
 20
797.660270
 30
0.0
 10
9017.622700
 20
931.101170
 30
0.0
 10
9026.126600
 20
931.101170
 30
0.0
 10
9026.126600
 20
797.660270
 30
0.0
  0
SPLINE
  5
346
100
AcDbEntity
  8
0
 62
1
100
AcDbSpline
 70
8
 71
3
 72
8
 73
4
 74
0
 40
0
 40
0
 40
0
 40
0
 40
1
 40
1
 40
1
 40
1
 10
9307.321800
 20
1061.729870
 30
0.0
 10
9319.519000
 20
1061.729870
 30
0.0
 10
9331.716800
 20
1054.838270
 30
0.0
 10
9343.914000
 20
1049.537170
 30
0.0
  0
SPLINE
  5
347
100
AcDbEntity
  8
0
 62
1
100
AcDbSpline
 70
8
 71
3
 72
8
 73
4
 74
0
 40
0
 40
0
 40
0
 40
0
 40
1
 40
1
 40
1
 40
1
 10
9343.914000
 20
1049.537170
 30
0.0
 10
9389.683600
 20
1025.520670
 30
0.0
 10
9400.500900
 20
986.279270
 30
0.0
 10
9398.267400
 20
941.167870
 30
0.0
  0
SPLINE
  5
348
100
AcDbEntity
  8
0
 62
1
100
AcDbSpline
 70
8
 71
3
 72
8
 73
4
 74
0
 40
0
 40
0
 40
0
 40
0
 40
1
 40
1
 40
1
 40
1
 10
9398.267400
 20
941.167870
 30
0.0
 10
9395.395400
 20
896.114570
 30
0.0
 10
9377.069700
 20
860.710670
 30
0.0
 10
9350.712300
 20
827.092670
 30
0.0
  0
SPLINE
  5
349
100
AcDbEntity
  8
0
 62
1
100
AcDbSpline
 70
8
 71
3
 72
8
 73
4
 74
0
 40
0
 40
0
 40
0
 40
0
 40
1
 40
1
 40
1
 40
1
 10
9350.712300
 20
827.092670
 30
0.0
 10
9339.000700
 20
813.820270
 30
0.0
 10
9326.348800
 20
797.103470
 30
0.0
 10
9307.321800
 20
797.103470
 30
0.0
  0
LWPOLYLINE
  5
34a
100
AcDbEntity
  8
0
 62
1
100
AcDbPolyline
 90
2
 70
0
 10
9026.126600
 20
1064.542370
 30
0.0
 10
8966.599100
 20
1064.542370
 30
0.0
  0
SPLINE
  5
34b
100
AcDbEntity
  8
0
 62
1
100
AcDbSpline
 70
8
 71
3
 72
8
 73
4
 74
0
 40
0
 40
0
 40
0
 40
0
 40
1
 40
1
 40
1
 40
1
 10
9247.794200
 20
797.103470
 30
0.0
 10
9228.767200
 20
797.103470
 30
0.0
 10
9216.115400
 20
813.820270
 30
0.0
 10
9204.403700
 20
827.092670
 30
0.0
  0
SPLINE
  5
34c
100
AcDbEntity
  8
0
 62
1
100
AcDbSpline
 70
8
 71
3
 72
8
 73
4
 74
0
 40
0
 40
0
 40
0
 40
0
 40
1
 40
1
 40
1
 40
1
 10
9204.403700
 20
827.092670
 30
0.0
 10
9178.046400
 20
860.710670
 30
0.0
 10
9159.720700
 20
896.114570
 30
0.0
 10
9156.848600
 20
941.167870
 30
0.0
  0
SPLINE
  5
34d
100
AcDbEntity
  8
0
 62
1
100
AcDbSpline
 70
8
 71
3
 72
8
 73
4
 74
0
 40
0
 40
0
 40
0
 40
0
 40
1
 40
1
 40
1
 40
1
 10
9156.848600
 20
941.167870
 30
0.0
 10
9154.615200
 20
986.279270
 30
0.0
 10
9165.432500
 20
1025.520670
 30
0.0
 10
9211.202100
 20
1049.537170
 30
0.0
  0
SPLINE
  5
34e
100
AcDbEntity
  8
0
 62
1
100
AcDbSpline
 70
8
 71
3
 72
8
 73
4
 74
0
 40
0
 40
0
 40
0
 40
0
 40
1
 40
1
 40
1
 40
1
 10
9211.202100
 20
1049.537170
 30
0.0
 10
9223.399300
 20
1054.838270
 30
0.0
 10
9235.597000
 20
1061.729870
 30
0.0
 10
9247.794200
 20
1061.729870
 30
0.0
  0
LWPOLYLINE
  5
34f
100
AcDbEntity
  8
0
 62
1
100
AcDbPolyline
 90
8
 70
0
 10
9307.321800
 20
797.103470
 30
0.0
 10
9307.321800
 20
929.416570
 30
0.0
 10
9298.817900
 20
929.416570
 30
0.0
 10
9298.817900
 20
797.103470
 30
0.0
 10
9256.298200
 20
797.103470
 30
0.0
 10
9256.298200
 20
929.416570
 30
0.0
 10
9247.794200
 20
929.416570
 30
0.0
 10
9247.794200
 20
797.103470
 30
0.0
  0
SPLINE
  5
350
100
AcDbEntity
  8
0
 62
1
100
AcDbSpline
 70
8
 71
3
 72
8
 73
4
 74
0
 40
0
 40
0
 40
0
 40
0
 40
1
 40
1
 40
1
 40
1
 10
9566.502000
 20
1058.769670
 30
0.0
 10
9577.627900
 20
1058.769670
 30
0.0
 10
9589.337900
 20
1053.554470
 30
0.0
 10
9600.951700
 20
1046.506670
 30
0.0
  0
SPLINE
  5
351
100
AcDbEntity
  8
0
 62
1
100
AcDbSpline
 70
8
 71
3
 72
8
 73
4
 74
0
 40
0
 40
0
 40
0
 40
0
 40
1
 40
1
 40
1
 40
1
 10
9600.951700
 20
1046.506670
 30
0.0
 10
9644.688900
 20
1019.963870
 30
0.0
 10
9658.788100
 20
983.479470
 30
0.0
 10
9653.843300
 20
940.774670
 30
0.0
  0
SPLINE
  5
352
100
AcDbEntity
  8
0
 62
1
100
AcDbSpline
 70
8
 71
3
 72
8
 73
4
 74
0
 40
0
 40
0
 40
0
 40
0
 40
1
 40
1
 40
1
 40
1
 10
9653.843300
 20
940.774670
 30
0.0
 10
9649.728600
 20
905.240970
 30
0.0
 10
9639.160700
 20
874.495270
 30
0.0
 10
9624.509300
 20
846.476470
 30
0.0
  0
SPLINE
  5
353
100
AcDbEntity
  8
0
 62
1
100
AcDbSpline
 70
8
 71
3
 72
8
 73
4
 74
0
 40
0
 40
0
 40
0
 40
0
 40
1
 40
1
 40
1
 40
1
 10
9624.509300
 20
846.476470
 30
0.0
 10
9612.376700
 20
823.274670
 30
0.0
 10
9589.479600
 20
795.433870
 30
0.0
 10
9566.502000
 20
795.433870
 30
0.0
  0
LWPOLYLINE
  5
354
100
AcDbEntity
  8
0
 62
1
100
AcDbPolyline
 90
2
 70
0
 10
9247.794200
 20
1061.729870
 30
0.0
 10
9307.321800
 20
1061.729870
 30
0.0
  0
SPLINE
  5
355
100
AcDbEntity
  8
0
 62
1
100
AcDbSpline
 70
8
 71
3
 72
8
 73
4
 74
0
 40
0
 40
0
 40
0
 40
0
 40
1
 40
1
 40
1
 40
1
 10
9506.974400
 20
795.433870
 30
0.0
 10
9483.996800
 20
795.433870
 30
0.0
 10
9461.099600
 20
823.274670
 30
0.0
 10
9448.967100
 20
846.476470
 30
0.0
  0
SPLINE
  5
356
100
AcDbEntity
  8
0
 62
1
100
AcDbSpline
 70
8
 71
3
 72
8
 73
4
 74
0
 40
0
 40
0
 40
0
 40
0
 40
1
 40
1
 40
1
 40
1
 10
9448.967100
 20
846.476470
 30
0.0
 10
9434.315600
 20
874.495270
 30
0.0
 10
9423.747800
 20
905.240970
 30
0.0
 10
9419.633000
 20
940.774670
 30
0.0
  0
SPLINE
  5
357
100
AcDbEntity
  8
0
 62
1
100
AcDbSpline
 70
8
 71
3
 72
8
 73
4
 74
0
 40
0
 40
0
 40
0
 40
0
 40
1
 40
1
 40
1
 40
1
 10
9419.633000
 20
940.774670
 30
0.0
 10
9414.688300
 20
983.479470
 30
0.0
 10
9428.787500
 20
1019.963870
 30
0.0
 10
9472.524700
 20
1046.506670
 30
0.0
  0
SPLINE
  5
358
100
AcDbEntity
  8
0
 62
1
100
AcDbSpline
 70
8
 71
3
 72
8
 73
4
 74
0
 40
0
 40
0
 40
0
 40
0
 40
1
 40
1
 40
1
 40
1
 10
9472.524700
 20
1046.506670
 30
0.0
 10
9484.138500
 20
1053.554470
 30
0.0
 10
9495.848400
 20
1058.769670
 30
0.0
 10
9506.974400
 20
1058.769670
 30
0.0
  0
LWPOLYLINE
  5
359
100
AcDbEntity
  8
0
 62
1
100
AcDbPolyline
 90
8
 70
0
 10
9566.502000
 20
795.433870
 30
0.0
 10
9566.502000
 20
927.101770
 30
0.0
 10
9557.998000
 20
927.101770
 30
0.0
 10
9557.998000
 20
795.433870
 30
0.0
 10
9515.478300
 20
795.433870
 30
0.0
 10
9515.478300
 20
927.101770
 30
0.0
 10
9506.974400
 20
927.101770
 30
0.0
 10
9506.974400
 20
795.433870
 30
0.0
  0
SPLINE
  5
35a
100
AcDbEntity
  8
0
 62
1
100
AcDbSpline
 70
8
 71
3
 72
8
 73
4
 74
0
 40
0
 40
0
 40
0
 40
0
 40
1
 40
1
 40
1
 40
1
 10
9816.278500
 20
1054.720870
 30
0.0
 10
9829.026700
 20
1054.720870
 30
0.0
 10
9836.927100
 20
1047.564570
 30
0.0
 10
9846.150800
 20
1040.288370
 30
0.0
  0
SPLINE
  5
35b
100
AcDbEntity
  8
0
 62
1
100
AcDbSpline
 70
8
 71
3
 72
8
 73
4
 74
0
 40
0
 40
0
 40
0
 40
0
 40
1
 40
1
 40
1
 40
1
 10
9846.150800
 20
1040.288370
 30
0.0
 10
9875.549200
 20
1017.095770
 30
0.0
 10
9893.167400
 20
985.723070
 30
0.0
 10
9895.196700
 20
944.932570
 30
0.0
  0
SPLINE
  5
35c
100
AcDbEntity
  8
0
 62
1
100
AcDbSpline
 70
8
 71
3
 72
8
 73
4
 74
0
 40
0
 40
0
 40
0
 40
0
 40
1
 40
1
 40
1
 40
1
 10
9895.196700
 20
944.932570
 30
0.0
 10
9896.820700
 20
912.292170
 30
0.0
 10
9894.203400
 20
882.714070
 30
0.0
 10
9885.064000
 20
855.737570
 30
0.0
  0
SPLINE
  5
35d
100
AcDbEntity
  8
0
 62
1
100
AcDbSpline
 70
8
 71
3
 72
8
 73
4
 74
0
 40
0
 40
0
 40
0
 40
0
 40
1
 40
1
 40
1
 40
1
 10
9885.064000
 20
855.737570
 30
0.0
 10
9872.277200
 20
817.996870
 30
0.0
 10
9845.678300
 20
803.192070
 30
0.0
 10
9816.278500
 20
803.192070
 30
0.0
  0
LWPOLYLINE
  5
35e
100
AcDbEntity
  8
0
 62
1
100
AcDbPolyline
 90
2
 70
0
 10
9506.974400
 20
1058.769670
 30
0.0
 10
9566.502000
 20
1058.769670
 30
0.0
  0
SPLINE
  5
35f
100
AcDbEntity
  8
0
 62
1
100
AcDbSpline
 70
8
 71
3
 72
8
 73
4
 74
0
 40
0
 40
0
 40
0
 40
0
 40
1
 40
1
 40
1
 40
1
 10
9756.750900
 20
803.192070
 30
0.0
 10
9727.351100
 20
803.192070
 30
0.0
 10
9700.752200
 20
817.996870
 30
0.0
 10
9687.965400
 20
855.737570
 30
0.0
  0
SPLINE
  5
360
100
AcDbEntity
  8
0
 62
1
100
AcDbSpline
 70
8
 71
3
 72
8
 73
4
 74
0
 40
0
 40
0
 40
0
 40
0
 40
1
 40
1
 40
1
 40
1
 10
9687.965400
 20
855.737570
 30
0.0
 10
9678.825900
 20
882.714070
 30
0.0
 10
9676.208700
 20
912.292170
 30
0.0
 10
9677.832700
 20
944.932570
 30
0.0
  0
SPLINE
  5
361
100
AcDbEntity
  8
0
 62
1
100
AcDbSpline
 70
8
 71
3
 72
8
 73
4
 74
0
 40
0
 40
0
 40
0
 40
0
 40
1
 40
1
 40
1
 40
1
 10
9677.832700
 20
944.932570
 30
0.0
 10
9679.862000
 20
985.723070
 30
0.0
 10
9697.480200
 20
1017.095770
 30
0.0
 10
9726.878600
 20
1040.288370
 30
0.0
  0
SPLINE
  5
362
100
AcDbEntity
  8
0
 62
1
100
AcDbSpline
 70
8
 71
3
 72
8
 73
4
 74
0
 40
0
 40
0
 40
0
 40
0
 40
1
 40
1
 40
1
 40
1
 10
9726.878600
 20
1040.288370
 30
0.0
 10
9736.102200
 20
1047.564570
 30
0.0
 10
9744.002600
 20
1054.720870
 30
0.0
 10
9756.750900
 20
1054.720870
 30
0.0
  0
LWPOLYLINE
  5
363
100
AcDbEntity
  8
0
 62
1
100
AcDbPolyline
 90
8
 70
0
 10
9816.278500
 20
803.192070
 30
0.0
 10
9816.278500
 20
928.956470
 30
0.0
 10
9807.774500
 20
928.956470
 30
0.0
 10
9807.774500
 20
803.192070
 30
0.0
 10
9765.254800
 20
803.192070
 30
0.0
 10
9765.254800
 20
928.956470
 30
0.0
 10
9756.750900
 20
928.956470
 30
0.0
 10
9756.750900
 20
803.192070
 30
0.0
  0
SPLINE
  5
364
100
AcDbEntity
  8
0
 62
1
100
AcDbSpline
 70
8
 71
3
 72
8
 73
4
 74
0
 40
0
 40
0
 40
0
 40
0
 40
1
 40
1
 40
1
 40
1
 10
10094.724000
 20
1050.691470
 30
0.0
 10
10116.811000
 20
1049.438270
 30
0.0
 10
10133.172000
 20
1040.133870
 30
0.0
 10
10147.442000
 20
1027.899770
 30
0.0
  0
SPLINE
  5
365
100
AcDbEntity
  8
0
 62
1
100
AcDbSpline
 70
8
 71
3
 72
8
 73
4
 74
0
 40
0
 40
0
 40
0
 40
0
 40
1
 40
1
 40
1
 40
1
 10
10147.442000
 20
1027.899770
 30
0.0
 10
10172.958000
 20
1006.025670
 30
0.0
 10
10199.894000
 20
976.095170
 30
0.0
 10
10201.510000
 20
932.622270
 30
0.0
  0
SPLINE
  5
366
100
AcDbEntity
  8
0
 62
1
100
AcDbSpline
 70
8
 71
3
 72
8
 73
4
 74
0
 40
0
 40
0
 40
0
 40
0
 40
1
 40
1
 40
1
 40
1
 10
10201.510000
 20
932.622270
 30
0.0
 10
10202.561000
 20
904.348870
 30
0.0
 10
10191.783000
 20
824.690570
 30
0.0
 10
10182.598000
 20
824.690570
 30
0.0
  0
LWPOLYLINE
  5
367
100
AcDbEntity
  8
0
 62
1
100
AcDbPolyline
 90
2
 70
0
 10
9756.750900
 20
1054.720870
 30
0.0
 10
9816.278500
 20
1054.720870
 30
0.0
  0
SPLINE
  5
368
100
AcDbEntity
  8
0
 62
1
100
AcDbSpline
 70
8
 71
3
 72
8
 73
4
 74
0
 40
0
 40
0
 40
0
 40
0
 40
1
 40
1
 40
1
 40
1
 10
10137.244000
 20
824.690570
 30
0.0
 10
10124.195000
 20
824.690270
 30
0.0
 10
10110.773000
 20
809.487770
 30
0.0
 10
10094.724000
 20
809.487770
 30
0.0
  0
LWPOLYLINE
  5
369
100
AcDbEntity
  8
0
 62
1
100
AcDbPolyline
 90
8
 70
0
 10
10182.598000
 20
824.690570
 30
0.0
 10
10182.598000
 20
879.205070
 30
0.0
 10
10174.094000
 20
879.205070
 30
0.0
 10
10174.094000
 20
824.690570
 30
0.0
 10
10145.748000
 20
824.690570
 30
0.0
 10
10145.748000
 20
879.205070
 30
0.0
 10
10137.244000
 20
879.205070
 30
0.0
 10
10137.244000
 20
824.690570
 30
0.0
  0
SPLINE
  5
36a
100
AcDbEntity
  8
0
 62
1
100
AcDbSpline
 70
8
 71
3
 72
8
 73
4
 74
0
 40
0
 40
0
 40
0
 40
0
 40
1
 40
1
 40
1
 40
1
 10
10035.196000
 20
809.487770
 30
0.0
 10
10019.148000
 20
809.487770
 30
0.0
 10
10005.725000
 20
824.690270
 30
0.0
 10
9992.676800
 20
824.690570
 30
0.0
  0
LWPOLYLINE
  5
36b
100
AcDbEntity
  8
0
 62
1
100
AcDbPolyline
 90
2
 70
0
 10
10094.724000
 20
809.487770
 30
0.0
 10
10035.196000
 20
809.487770
 30
0.0
  0
SPLINE
  5
36c
100
AcDbEntity
  8
0
 62
1
100
AcDbSpline
 70
8
 71
3
 72
8
 73
4
 74
0
 40
0
 40
0
 40
0
 40
0
 40
1
 40
1
 40
1
 40
1
 10
9947.322400
 20
824.690570
 30
0.0
 10
9938.137600
 20
824.690570
 30
0.0
 10
9927.359700
 20
904.348870
 30
0.0
 10
9928.410800
 20
932.622270
 30
0.0
  0
SPLINE
  5
36d
100
AcDbEntity
  8
0
 62
1
100
AcDbSpline
 70
8
 71
3
 72
8
 73
4
 74
0
 40
0
 40
0
 40
0
 40
0
 40
1
 40
1
 40
1
 40
1
 10
9928.410800
 20
932.622270
 30
0.0
 10
9930.026600
 20
976.095170
 30
0.0
 10
9956.962800
 20
1006.025670
 30
0.0
 10
9982.478300
 20
1027.899770
 30
0.0
  0
SPLINE
  5
36e
100
AcDbEntity
  8
0
 62
1
100
AcDbSpline
 70
8
 71
3
 72
8
 73
4
 74
0
 40
0
 40
0
 40
0
 40
0
 40
1
 40
1
 40
1
 40
1
 10
9982.478300
 20
1027.899770
 30
0.0
 10
9996.748400
 20
1040.133870
 30
0.0
 10
10013.109000
 20
1049.438270
 30
0.0
 10
10035.196000
 20
1050.691470
 30
0.0
  0
LWPOLYLINE
  5
36f
100
AcDbEntity
  8
0
 62
1
100
AcDbPolyline
 90
8
 70
0
 10
9992.676800
 20
824.690570
 30
0.0
 10
9992.676800
 20
879.205070
 30
0.0
 10
9984.172800
 20
879.205070
 30
0.0
 10
9984.172800
 20
824.690570
 30
0.0
 10
9955.826400
 20
824.690570
 30
0.0
 10
9955.826400
 20
879.205070
 30
0.0
 10
9947.322400
 20
879.205070
 30
0.0
 10
9947.322400
 20
824.690570
 30
0.0
  0
SPLINE
  5
370
100
AcDbEntity
  8
0
 62
1
100
AcDbSpline
 70
8
 71
3
 72
8
 73
4
 74
0
 40
0
 40
0
 40
0
 40
0
 40
1
 40
1
 40
1
 40
1
 10
10296.367000
 20
1023.754370
 30
0.0
 10
10272.196000
 20
1005.870670
 30
0.0
 10
10254.562000
 20
981.761970
 30
0.0
 10
10245.861000
 20
934.807470
 30
0.0
  0
SPLINE
  5
371
100
AcDbEntity
  8
0
 62
1
100
AcDbSpline
 70
8
 71
3
 72
8
 73
4
 74
0
 40
0
 40
0
 40
0
 40
0
 40
1
 40
1
 40
1
 40
1
 10
10245.861000
 20
934.807470
 30
0.0
 10
10237.571000
 20
890.075670
 30
0.0
 10
10236.622000
 20
844.200570
 30
0.0
 10
10245.861000
 20
796.747470
 30
0.0
  0
LWPOLYLINE
  5
372
100
AcDbEntity
  8
0
 62
1
100
AcDbPolyline
 90
8
 70
0
 10
10035.196000
 20
1050.691470
 30
0.0
 10
10035.196000
 20
930.089470
 30
0.0
 10
10043.700000
 20
930.089470
 30
0.0
 10
10043.700000
 20
1050.691470
 30
0.0
 10
10086.220000
 20
1050.691470
 30
0.0
 10
10086.220000
 20
930.089470
 30
0.0
 10
10094.724000
 20
930.089470
 30
0.0
 10
10094.724000
 20
1050.691470
 30
0.0
  0
SPLINE
  5
373
100
AcDbEntity
  8
0
 62
1
100
AcDbSpline
 70
8
 71
3
 72
8
 73
4
 74
0
 40
0
 40
0
 40
0
 40
0
 40
1
 40
1
 40
1
 40
1
 10
10307.675000
 20
796.747470
 30
0.0
 10
10322.973000
 20
796.747470
 30
0.0
 10
10335.084000
 20
811.987370
 30
0.0
 10
10350.195000
 20
811.987370
 30
0.0
  0
SPLINE
  5
374
100
AcDbEntity
  8
0
 62
1
100
AcDbSpline
 70
8
 71
3
 72
8
 73
4
 74
0
 40
0
 40
0
 40
0
 40
0
 40
1
 40
1
 40
1
 40
1
 10
10350.195000
 20
811.987370
 30
0.0
 10
10370.037000
 20
811.987370
 30
0.0
 10
10389.879000
 20
811.987370
 30
0.0
 10
10409.722000
 20
811.987370
 30
0.0
  0
SPLINE
  5
375
100
AcDbEntity
  8
0
 62
1
100
AcDbSpline
 70
8
 71
3
 72
8
 73
4
 74
0
 40
0
 40
0
 40
0
 40
0
 40
1
 40
1
 40
1
 40
1
 10
10409.722000
 20
811.987370
 30
0.0
 10
10424.833000
 20
811.987370
 30
0.0
 10
10436.943000
 20
796.747470
 30
0.0
 10
10452.241000
 20
796.747470
 30
0.0
  0
LWPOLYLINE
  5
376
100
AcDbEntity
  8
0
 62
1
100
AcDbPolyline
 90
9
 70
0
 10
10245.861000
 20
796.747470
 30
0.0
 10
10262.321000
 20
796.747470
 30
0.0
 10
10262.321000
 20
874.689470
 30
0.0
 10
10270.825000
 20
874.689470
 30
0.0
 10
10270.825000
 20
796.747470
 30
0.0
 10
10299.171000
 20
796.747470
 30
0.0
 10
10299.171000
 20
874.689470
 30
0.0
 10
10307.675000
 20
874.689470
 30
0.0
 10
10307.675000
 20
796.747470
 30
0.0
  0
SPLINE
  5
377
100
AcDbEntity
  8
0
 62
1
100
AcDbSpline
 70
8
 71
3
 72
8
 73
4
 74
0
 40
0
 40
0
 40
0
 40
0
 40
1
 40
1
 40
1
 40
1
 10
10514.056000
 20
796.747470
 30
0.0
 10
10523.294000
 20
844.200570
 30
0.0
 10
10522.345000
 20
890.075670
 30
0.0
 10
10514.056000
 20
934.807470
 30
0.0
  0
SPLINE
  5
378
100
AcDbEntity
  8
0
 62
1
100
AcDbSpline
 70
8
 71
3
 72
8
 73
4
 74
0
 40
0
 40
0
 40
0
 40
0
 40
1
 40
1
 40
1
 40
1
 10
10514.056000
 20
934.807470
 30
0.0
 10
10505.355000
 20
981.761970
 30
0.0
 10
10487.721000
 20
1005.870670
 30
0.0
 10
10463.549000
 20
1023.754370
 30
0.0
  0
SPLINE
  5
379
100
AcDbEntity
  8
0
 62
1
100
AcDbSpline
 70
8
 71
3
 72
8
 73
4
 74
0
 40
0
 40
0
 40
0
 40
0
 40
1
 40
1
 40
1
 40
1
 10
10463.549000
 20
1023.754370
 30
0.0
 10
10447.595000
 20
1035.557570
 30
0.0
 10
10429.496000
 20
1042.906670
 30
0.0
 10
10409.722000
 20
1046.534170
 30
0.0
  0
LWPOLYLINE
  5
37a
100
AcDbEntity
  8
0
 62
1
100
AcDbPolyline
 90
9
 70
0
 10
10452.241000
 20
796.747470
 30
0.0
 10
10452.241000
 20
874.689470
 30
0.0
 10
10460.745000
 20
874.689470
 30
0.0
 10
10460.745000
 20
796.747470
 30
0.0
 10
10489.092000
 20
796.747470
 30
0.0
 10
10489.092000
 20
874.689470
 30
0.0
 10
10497.596000
 20
874.689470
 30
0.0
 10
10497.596000
 20
796.747470
 30
0.0
 10
10514.056000
 20
796.747470
 30
0.0
  0
SPLINE
  5
37b
100
AcDbEntity
  8
0
 62
1
100
AcDbSpline
 70
8
 71
3
 72
8
 73
4
 74
0
 40
0
 40
0
 40
0
 40
0
 40
1
 40
1
 40
1
 40
1
 10
10401.218000
 20
1046.534170
 30
0.0
 10
10387.045000
 20
1046.534170
 30
0.0
 10
10372.872000
 20
1046.534170
 30
0.0
 10
10358.699000
 20
1046.534170
 30
0.0
  0
LWPOLYLINE
  5
37c
100
AcDbEntity
  8
0
 62
1
100
AcDbPolyline
 90
4
 70
0
 10
10409.722000
 20
1046.534170
 30
0.0
 10
10409.722000
 20
921.640870
 30
0.0
 10
10401.218000
 20
921.640870
 30
0.0
 10
10401.218000
 20
1046.534170
 30
0.0
  0
SPLINE
  5
37d
100
AcDbEntity
  8
0
 62
1
100
AcDbSpline
 70
8
 71
3
 72
8
 73
4
 74
0
 40
0
 40
0
 40
0
 40
0
 40
1
 40
1
 40
1
 40
1
 10
10350.195000
 20
1046.534170
 30
0.0
 10
10330.421000
 20
1042.906670
 30
0.0
 10
10312.322000
 20
1035.557570
 30
0.0
 10
10296.367000
 20
1023.754370
 30
0.0
  0
LWPOLYLINE
  5
37e
100
AcDbEntity
  8
0
 62
1
100
AcDbPolyline
 90
4
 70
0
 10
10358.699000
 20
1046.534170
 30
0.0
 10
10358.699000
 20
921.640870
 30
0.0
 10
10350.195000
 20
921.640870
 30
0.0
 10
10350.195000
 20
1046.534170
 30
0.0
  0
SPLINE
  5
37f
100
AcDbEntity
  8
0
 62
1
100
AcDbSpline
 70
8
 71
3
 72
8
 73
4
 74
0
 40
0
 40
0
 40
0
 40
0
 40
1
 40
1
 40
1
 40
1
 10
11088.194000
 20
1024.492270
 30
0.0
 10
11069.236000
 20
1024.492270
 30
0.0
 10
11056.369000
 20
1015.453670
 30
0.0
 10
11042.924000
 20
1007.454870
 30
0.0
  0
SPLINE
  5
380
100
AcDbEntity
  8
0
 62
1
100
AcDbSpline
 70
8
 71
3
 72
8
 73
4
 74
0
 40
0
 40
0
 40
0
 40
0
 40
1
 40
1
 40
1
 40
1
 10
11042.924000
 20
1007.454870
 30
0.0
 10
11025.600000
 20
997.147870
 30
0.0
 10
11008.931000
 20
984.868970
 30
0.0
 10
10996.314000
 20
962.443270
 30
0.0
  0
SPLINE
  5
381
100
AcDbEntity
  8
0
 62
1
100
AcDbSpline
 70
8
 71
3
 72
8
 73
4
 74
0
 40
0
 40
0
 40
0
 40
0
 40
1
 40
1
 40
1
 40
1
 10
10996.314000
 20
962.443270
 30
0.0
 10
10978.544000
 20
930.858270
 30
0.0
 10
10968.096000
 20
896.185170
 30
0.0
 10
10966.659000
 20
858.465970
 30
0.0
  0
SPLINE
  5
382
100
AcDbEntity
  8
0
 62
1
100
AcDbSpline
 70
8
 71
3
 72
8
 73
4
 74
0
 40
0
 40
0
 40
0
 40
0
 40
1
 40
1
 40
1
 40
1
 10
10966.659000
 20
858.465970
 30
0.0
 10
10965.876000
 20
837.891770
 30
0.0
 10
10964.992000
 20
817.320470
 30
0.0
 10
10964.159000
 20
796.747470
 30
0.0
  0
LWPOLYLINE
  5
383
100
AcDbEntity
  8
0
 62
1
100
AcDbPolyline
 90
1
 70
1
 10
10296.367000
 20
1023.754370
 30
0.0
  0
SPLINE
  5
384
100
AcDbEntity
  8
0
 62
1
100
AcDbSpline
 70
8
 71
3
 72
8
 73
4
 74
0
 40
0
 40
0
 40
0
 40
0
 40
1
 40
1
 40
1
 40
1
 10
11045.674000
 20
796.747470
 30
0.0
 10
11065.004000
 20
796.747470
 30
0.0
 10
11072.896000
 20
820.666470
 30
0.0
 10
11088.194000
 20
820.666470
 30
0.0
  0
SPLINE
  5
385
100
AcDbEntity
  8
0
 62
1
100
AcDbSpline
 70
8
 71
3
 72
8
 73
4
 74
0
 40
0
 40
0
 40
0
 40
0
 40
1
 40
1
 40
1
 40
1
 10
11088.194000
 20
820.666470
 30
0.0
 10
11108.037000
 20
820.666470
 30
0.0
 10
11127.880000
 20
820.666470
 30
0.0
 10
11147.723000
 20
820.666470
 30
0.0
  0
SPLINE
  5
386
100
AcDbEntity
  8
0
 62
1
100
AcDbSpline
 70
8
 71
3
 72
8
 73
4
 74
0
 40
0
 40
0
 40
0
 40
0
 40
1
 40
1
 40
1
 40
1
 10
11147.723000
 20
820.666470
 30
0.0
 10
11163.021000
 20
820.666470
 30
0.0
 10
11170.913000
 20
796.747470
 30
0.0
 10
11190.243000
 20
796.747470
 30
0.0
  0
LWPOLYLINE
  5
387
100
AcDbEntity
  8
0
 62
1
100
AcDbPolyline
 90
9
 70
0
 10
10964.159000
 20
796.747470
 30
0.0
 10
11000.320000
 20
796.747470
 30
0.0
 10
11000.320000
 20
873.243770
 30
0.0
 10
11008.824000
 20
873.243770
 30
0.0
 10
11008.824000
 20
796.747470
 30
0.0
 10
11037.171000
 20
796.747470
 30
0.0
 10
11037.171000
 20
873.243770
 30
0.0
 10
11045.674000
 20
873.243770
 30
0.0
 10
11045.674000
 20
796.747470
 30
0.0
  0
SPLINE
  5
388
100
AcDbEntity
  8
0
 62
1
100
AcDbSpline
 70
8
 71
3
 72
8
 73
4
 74
0
 40
0
 40
0
 40
0
 40
0
 40
1
 40
1
 40
1
 40
1
 10
11271.759000
 20
796.747470
 30
0.0
 10
11270.925000
 20
817.320470
 30
0.0
 10
11270.041000
 20
837.891770
 30
0.0
 10
11269.258000
 20
858.465970
 30
0.0
  0
SPLINE
  5
389
100
AcDbEntity
  8
0
 62
1
100
AcDbSpline
 70
8
 71
3
 72
8
 73
4
 74
0
 40
0
 40
0
 40
0
 40
0
 40
1
 40
1
 40
1
 40
1
 10
11269.258000
 20
858.465970
 30
0.0
 10
11267.821000
 20
896.185170
 30
0.0
 10
11257.373000
 20
930.858270
 30
0.0
 10
11239.603000
 20
962.443270
 30
0.0
  0
SPLINE
  5
38a
100
AcDbEntity
  8
0
 62
1
100
AcDbSpline
 70
8
 71
3
 72
8
 73
4
 74
0
 40
0
 40
0
 40
0
 40
0
 40
1
 40
1
 40
1
 40
1
 10
11239.603000
 20
962.443270
 30
0.0
 10
11226.986000
 20
984.868970
 30
0.0
 10
11210.317000
 20
997.147870
 30
0.0
 10
11192.993000
 20
1007.454870
 30
0.0
  0
SPLINE
  5
38b
100
AcDbEntity
  8
0
 62
1
100
AcDbSpline
 70
8
 71
3
 72
8
 73
4
 74
0
 40
0
 40
0
 40
0
 40
0
 40
1
 40
1
 40
1
 40
1
 10
11192.993000
 20
1007.454870
 30
0.0
 10
11179.548000
 20
1015.453670
 30
0.0
 10
11166.681000
 20
1024.492270
 30
0.0
 10
11147.723000
 20
1024.492270
 30
0.0
  0
LWPOLYLINE
  5
38c
100
AcDbEntity
  8
0
 62
1
100
AcDbPolyline
 90
9
 70
0
 10
11190.243000
 20
796.747470
 30
0.0
 10
11190.243000
 20
873.243770
 30
0.0
 10
11198.746000
 20
873.243770
 30
0.0
 10
11198.746000
 20
796.747470
 30
0.0
 10
11227.093000
 20
796.747470
 30
0.0
 10
11227.093000
 20
873.243770
 30
0.0
 10
11235.597000
 20
873.243770
 30
0.0
 10
11235.597000
 20
796.747470
 30
0.0
 10
11271.759000
 20
796.747470
 30
0.0
  0
SPLINE
  5
38d
100
AcDbEntity
  8
0
 62
1
100
AcDbSpline
 70
8
 71
3
 72
8
 73
4
 74
0
 40
0
 40
0
 40
0
 40
0
 40
1
 40
1
 40
1
 40
1
 10
11448.195000
 20
976.404470
 30
0.0
 10
11407.886000
 20
976.404470
 30
0.0
 10
11360.035000
 20
953.403070
 30
0.0
 10
11344.058000
 20
913.045870
 30
0.0
  0
SPLINE
  5
38e
100
AcDbEntity
  8
0
 62
1
100
AcDbSpline
 70
8
 71
3
 72
8
 73
4
 74
0
 40
0
 40
0
 40
0
 40
0
 40
1
 40
1
 40
1
 40
1
 10
11344.058000
 20
913.045870
 30
0.0
 10
11329.961000
 20
877.439370
 30
0.0
 10
11325.144000
 20
835.739170
 30
0.0
 10
11324.159000
 20
796.747470
 30
0.0
  0
LWPOLYLINE
  5
38f
100
AcDbEntity
  8
0
 62
1
100
AcDbPolyline
 90
12
 70
0
 10
11147.723000
 20
1024.492270
 30
0.0
 10
11147.723000
 20
922.579370
 30
0.0
 10
11139.219000
 20
922.579370
 30
0.0
 10
11139.219000
 20
1024.492270
 30
0.0
 10
11122.210000
 20
1024.492270
 30
0.0
 10
11122.210000
 20
1000.448470
 30
0.0
 10
11113.706000
 20
1000.448470
 30
0.0
 10
11113.706000
 20
1024.492270
 30
0.0
 10
11096.698000
 20
1024.492270
 30
0.0
 10
11096.698000
 20
922.579370
 30
0.0
 10
11088.194000
 20
922.579370
 30
0.0
 10
11088.194000
 20
1024.492270
 30
0.0
  0
SPLINE
  5
390
100
AcDbEntity
  8
0
 62
1
100
AcDbSpline
 70
8
 71
3
 72
8
 73
4
 74
0
 40
0
 40
0
 40
0
 40
0
 40
1
 40
1
 40
1
 40
1
 10
11424.049000
 20
796.747470
 30
0.0
 10
11445.841000
 20
796.747470
 30
0.0
 10
11440.847000
 20
833.392370
 30
0.0
 10
11477.959000
 20
833.392370
 30
0.0
  0
SPLINE
  5
391
100
AcDbEntity
  8
0
 62
1
100
AcDbSpline
 70
8
 71
3
 72
8
 73
4
 74
0
 40
0
 40
0
 40
0
 40
0
 40
1
 40
1
 40
1
 40
1
 10
11477.959000
 20
833.392370
 30
0.0
 10
11515.070000
 20
833.392370
 30
0.0
 10
11510.223000
 20
796.747470
 30
0.0
 10
11531.869000
 20
796.747470
 30
0.0
  0
LWPOLYLINE
  5
392
100
AcDbEntity
  8
0
 62
1
100
AcDbPolyline
 90
10
 70
0
 10
11324.159000
 20
796.747470
 30
0.0
 10
11360.321000
 20
796.747470
 30
0.0
 10
11360.321000
 20
864.283470
 30
0.0
 10
11368.825000
 20
864.283470
 30
0.0
 10
11368.825000
 20
796.747470
 30
0.0
 10
11397.171000
 20
796.747470
 30
0.0
 10
11397.171000
 20
864.283470
 30
0.0
 10
11405.675000
 20
864.283470
 30
0.0
 10
11405.675000
 20
796.747470
 30
0.0
 10
11424.049000
 20
796.747470
 30
0.0
  0
SPLINE
  5
393
100
AcDbEntity
  8
0
 62
1
100
AcDbSpline
 70
8
 71
3
 72
8
 73
4
 74
0
 40
0
 40
0
 40
0
 40
0
 40
1
 40
1
 40
1
 40
1
 10
11631.759000
 20
796.747470
 30
0.0
 10
11630.775000
 20
835.739170
 30
0.0
 10
11625.957000
 20
877.439370
 30
0.0
 10
11611.860000
 20
913.045870
 30
0.0
  0
SPLINE
  5
394
100
AcDbEntity
  8
0
 62
1
100
AcDbSpline
 70
8
 71
3
 72
8
 73
4
 74
0
 40
0
 40
0
 40
0
 40
0
 40
1
 40
1
 40
1
 40
1
 10
11611.860000
 20
913.045870
 30
0.0
 10
11595.883000
 20
953.403070
 30
0.0
 10
11548.032000
 20
976.404470
 30
0.0
 10
11507.723000
 20
976.404470
 30
0.0
  0
LWPOLYLINE
  5
395
100
AcDbEntity
  8
0
 62
1
100
AcDbPolyline
 90
10
 70
0
 10
11531.869000
 20
796.747470
 30
0.0
 10
11550.243000
 20
796.747470
 30
0.0
 10
11550.243000
 20
864.283470
 30
0.0
 10
11558.747000
 20
864.283470
 30
0.0
 10
11558.747000
 20
796.747470
 30
0.0
 10
11587.094000
 20
796.747470
 30
0.0
 10
11587.094000
 20
864.283470
 30
0.0
 10
11595.597000
 20
864.283470
 30
0.0
 10
11595.597000
 20
796.747470
 30
0.0
 10
11631.759000
 20
796.747470
 30
0.0
  0
SPLINE
  5
396
100
AcDbEntity
  8
0
 62
1
100
AcDbSpline
 70
8
 71
3
 72
8
 73
4
 74
0
 40
0
 40
0
 40
0
 40
0
 40
1
 40
1
 40
1
 40
1
 10
11499.219000
 20
976.404470
 30
0.0
 10
11485.046000
 20
976.404470
 30
0.0
 10
11470.872000
 20
976.404470
 30
0.0
 10
11456.699000
 20
976.404470
 30
0.0
  0
LWPOLYLINE
  5
397
100
AcDbEntity
  8
0
 62
1
100
AcDbPolyline
 90
4
 70
0
 10
11507.723000
 20
976.404470
 30
0.0
 10
11507.723000
 20
910.054470
 30
0.0
 10
11499.219000
 20
910.054470
 30
0.0
 10
11499.219000
 20
976.404470
 30
0.0
  0
SPLINE
  5
398
100
AcDbEntity
  8
0
 62
1
100
AcDbSpline
 70
8
 71
3
 72
8
 73
4
 74
0
 40
0
 40
0
 40
0
 40
0
 40
1
 40
1
 40
1
 40
1
 10
1612.154300
 20
-106.260330
 30
0.0
 10
1599.812200
 20
-98.141130
 30
0.0
 10
1583.618500
 20
-96.847330
 30
0.0
 10
1568.845100
 20
-96.847330
 30
0.0
  0
SPLINE
  5
399
100
AcDbEntity
  8
0
 62
1
100
AcDbSpline
 70
8
 71
3
 72
8
 73
4
 74
0
 40
0
 40
0
 40
0
 40
0
 40
1
 40
1
 40
1
 40
1
 10
1568.845100
 20
-96.847330
 30
0.0
 10
1554.071800
 20
-96.847330
 30
0.0
 10
1537.878000
 20
-98.141130
 30
0.0
 10
1525.536000
 20
-106.260330
 30
0.0
  0
LWPOLYLINE
  5
39a
100
AcDbEntity
  8
0
 62
1
100
AcDbPolyline
 90
4
 70
0
 10
11456.699000
 20
976.404470
 30
0.0
 10
11456.699000
 20
910.054470
 30
0.0
 10
11448.195000
 20
910.054470
 30
0.0
 10
11448.195000
 20
976.404470
 30
0.0
  0
SPLINE
  5
39b
100
AcDbEntity
  8
0
 62
1
100
AcDbSpline
 70
8
 71
3
 72
8
 73
4
 74
0
 40
0
 40
0
 40
0
 40
0
 40
1
 40
1
 40
1
 40
1
 10
1525.536000
 20
-114.764330
 30
0.0
 10
1525.536000
 20
-119.488830
 30
0.0
 10
1524.036200
 20
-124.213030
 30
0.0
 10
1524.036200
 20
-128.937530
 30
0.0
  0
SPLINE
  5
39c
100
AcDbEntity
  8
0
 62
1
100
AcDbSpline
 70
8
 71
3
 72
8
 73
4
 74
0
 40
0
 40
0
 40
0
 40
0
 40
1
 40
1
 40
1
 40
1
 10
1524.036200
 20
-128.937530
 30
0.0
 10
1524.036200
 20
-133.662030
 30
0.0
 10
1525.536000
 20
-138.386530
 30
0.0
 10
1525.536000
 20
-143.110730
 30
0.0
  0
LWPOLYLINE
  5
39d
100
AcDbEntity
  8
0
 62
1
100
AcDbPolyline
 90
4
 70
0
 10
1525.536000
 20
-106.260330
 30
0.0
 10
1568.845100
 20
-106.260330
 30
0.0
 10
1568.845100
 20
-114.764330
 30
0.0
 10
1525.536000
 20
-114.764330
 30
0.0
  0
SPLINE
  5
39e
100
AcDbEntity
  8
0
 62
1
100
AcDbSpline
 70
8
 71
3
 72
8
 73
4
 74
0
 40
0
 40
0
 40
0
 40
0
 40
1
 40
1
 40
1
 40
1
 10
1525.536000
 20
-151.614730
 30
0.0
 10
1537.878000
 20
-159.733930
 30
0.0
 10
1554.071800
 20
-161.027730
 30
0.0
 10
1568.845100
 20
-161.027730
 30
0.0
  0
SPLINE
  5
39f
100
AcDbEntity
  8
0
 62
1
100
AcDbSpline
 70
8
 71
3
 72
8
 73
4
 74
0
 40
0
 40
0
 40
0
 40
0
 40
1
 40
1
 40
1
 40
1
 10
1568.845100
 20
-161.027730
 30
0.0
 10
1583.618500
 20
-161.027730
 30
0.0
 10
1599.812200
 20
-159.733930
 30
0.0
 10
1612.154300
 20
-151.614730
 30
0.0
  0
SPLINE
  5
3a0
100
AcDbEntity
  8
0
 62
1
100
AcDbSpline
 70
8
 71
3
 72
8
 73
4
 74
0
 40
0
 40
0
 40
0
 40
0
 40
1
 40
1
 40
1
 40
1
 10
1612.154300
 20
-151.614730
 30
0.0
 10
1620.205800
 20
-146.318130
 30
0.0
 10
1620.205800
 20
-111.556930
 30
0.0
 10
1612.154300
 20
-106.260330
 30
0.0
  0
LWPOLYLINE
  5
3a1
100
AcDbEntity
  8
0
 62
1
100
AcDbPolyline
 90
4
 70
0
 10
1525.536000
 20
-143.110730
 30
0.0
 10
1568.845100
 20
-143.110730
 30
0.0
 10
1568.845100
 20
-151.614730
 30
0.0
 10
1525.536000
 20
-151.614730
 30
0.0
  0
SPLINE
  5
3a2
100
AcDbEntity
  8
0
 62
1
100
AcDbSpline
 70
8
 71
3
 72
8
 73
4
 74
0
 40
0
 40
0
 40
0
 40
0
 40
1
 40
1
 40
1
 40
1
 10
1612.154300
 20
3310.956270
 30
0.0
 10
1599.812200
 20
3302.836970
 30
0.0
 10
1583.618500
 20
3301.543270
 30
0.0
 10
1568.845100
 20
3301.543270
 30
0.0
  0
SPLINE
  5
3a3
100
AcDbEntity
  8
0
 62
1
100
AcDbSpline
 70
8
 71
3
 72
8
 73
4
 74
0
 40
0
 40
0
 40
0
 40
0
 40
1
 40
1
 40
1
 40
1
 10
1568.845100
 20
3301.543270
 30
0.0
 10
1554.071800
 20
3301.543270
 30
0.0
 10
1537.878000
 20
3302.836970
 30
0.0
 10
1525.536000
 20
3310.956270
 30
0.0
  0
LWPOLYLINE
  5
3a4
100
AcDbEntity
  8
0
 62
1
100
AcDbPolyline
 90
1
 70
1
 10
1612.154300
 20
-106.260330
 30
0.0
  0
SPLINE
  5
3a5
100
AcDbEntity
  8
0
 62
1
100
AcDbSpline
 70
8
 71
3
 72
8
 73
4
 74
0
 40
0
 40
0
 40
0
 40
0
 40
1
 40
1
 40
1
 40
1
 10
1525.536000
 20
3319.460270
 30
0.0
 10
1525.536000
 20
3324.184770
 30
0.0
 10
1524.036200
 20
3328.908970
 30
0.0
 10
1524.036200
 20
3333.633470
 30
0.0
  0
SPLINE
  5
3a6
100
AcDbEntity
  8
0
 62
1
100
AcDbSpline
 70
8
 71
3
 72
8
 73
4
 74
0
 40
0
 40
0
 40
0
 40
0
 40
1
 40
1
 40
1
 40
1
 10
1524.036200
 20
3333.633470
 30
0.0
 10
1524.036200
 20
3338.357970
 30
0.0
 10
1525.536000
 20
3343.082470
 30
0.0
 10
1525.536000
 20
3347.806670
 30
0.0
  0
LWPOLYLINE
  5
3a7
100
AcDbEntity
  8
0
 62
1
100
AcDbPolyline
 90
4
 70
0
 10
1525.536000
 20
3310.956270
 30
0.0
 10
1568.845100
 20
3310.956270
 30
0.0
 10
1568.845100
 20
3319.460270
 30
0.0
 10
1525.536000
 20
3319.460270
 30
0.0
  0
SPLINE
  5
3a8
100
AcDbEntity
  8
0
 62
1
100
AcDbSpline
 70
8
 71
3
 72
8
 73
4
 74
0
 40
0
 40
0
 40
0
 40
0
 40
1
 40
1
 40
1
 40
1
 10
1525.536000
 20
3356.310670
 30
0.0
 10
1537.878000
 20
3364.429870
 30
0.0
 10
1554.071800
 20
3365.723670
 30
0.0
 10
1568.845100
 20
3365.723670
 30
0.0
  0
SPLINE
  5
3a9
100
AcDbEntity
  8
0
 62
1
100
AcDbSpline
 70
8
 71
3
 72
8
 73
4
 74
0
 40
0
 40
0
 40
0
 40
0
 40
1
 40
1
 40
1
 40
1
 10
1568.845100
 20
3365.723670
 30
0.0
 10
1583.618500
 20
3365.723670
 30
0.0
 10
1599.812200
 20
3364.429870
 30
0.0
 10
1612.154300
 20
3356.310670
 30
0.0
  0
SPLINE
  5
3aa
100
AcDbEntity
  8
0
 62
1
100
AcDbSpline
 70
8
 71
3
 72
8
 73
4
 74
0
 40
0
 40
0
 40
0
 40
0
 40
1
 40
1
 40
1
 40
1
 10
1612.154300
 20
3356.310670
 30
0.0
 10
1620.205800
 20
3351.014070
 30
0.0
 10
1620.205800
 20
3316.252870
 30
0.0
 10
1612.154300
 20
3310.956270
 30
0.0
  0
LWPOLYLINE
  5
3ab
100
AcDbEntity
  8
0
 62
1
100
AcDbPolyline
 90
4
 70
0
 10
1525.536000
 20
3347.806670
 30
0.0
 10
1568.845100
 20
3347.806670
 30
0.0
 10
1568.845100
 20
3356.310670
 30
0.0
 10
1525.536000
 20
3356.310670
 30
0.0
  0
SPLINE
  5
3ac
100
AcDbEntity
  8
0
 62
1
100
AcDbSpline
 70
8
 71
3
 72
8
 73
4
 74
0
 40
0
 40
0
 40
0
 40
0
 40
1
 40
1
 40
1
 40
1
 10
1513.526200
 20
-67.605730
 30
0.0
 10
1520.181400
 20
-73.401130
 30
0.0
 10
1530.239200
 20
-74.591730
 30
0.0
 10
1539.064600
 20
-74.591730
 30
0.0
  0
SPLINE
  5
3ad
100
AcDbEntity
  8
0
 62
1
100
AcDbSpline
 70
8
 71
3
 72
8
 73
4
 74
0
 40
0
 40
0
 40
0
 40
0
 40
1
 40
1
 40
1
 40
1
 10
1539.064600
 20
-74.591730
 30
0.0
 10
1547.890000
 20
-74.591730
 30
0.0
 10
1557.947600
 20
-73.401430
 30
0.0
 10
1564.603100
 20
-67.605730
 30
0.0
  0
SPLINE
  5
3ae
100
AcDbEntity
  8
0
 62
1
100
AcDbSpline
 70
8
 71
3
 72
8
 73
4
 74
0
 40
0
 40
0
 40
0
 40
0
 40
1
 40
1
 40
1
 40
1
 10
1564.603100
 20
-67.605730
 30
0.0
 10
1570.693000
 20
-62.302430
 30
0.0
 10
1573.127400
 20
-53.003930
 30
0.0
 10
1573.127400
 20
-44.928530
 30
0.0
  0
SPLINE
  5
3af
100
AcDbEntity
  8
0
 62
1
100
AcDbSpline
 70
8
 71
3
 72
8
 73
4
 74
0
 40
0
 40
0
 40
0
 40
0
 40
1
 40
1
 40
1
 40
1
 10
1573.127400
 20
-44.928530
 30
0.0
 10
1573.127400
 20
-36.853230
 30
0.0
 10
1570.693000
 20
-27.554730
 30
0.0
 10
1564.603100
 20
-22.251430
 30
0.0
  0
SPLINE
  5
3b0
100
AcDbEntity
  8
0
 62
1
100
AcDbSpline
 70
8
 71
3
 72
8
 73
4
 74
0
 40
0
 40
0
 40
0
 40
0
 40
1
 40
1
 40
1
 40
1
 10
1564.603100
 20
-22.251430
 30
0.0
 10
1557.947600
 20
-16.455630
 30
0.0
 10
1547.890000
 20
-15.265430
 30
0.0
 10
1539.064600
 20
-15.265430
 30
0.0
  0
SPLINE
  5
3b1
100
AcDbEntity
  8
0
 62
1
100
AcDbSpline
 70
8
 71
3
 72
8
 73
4
 74
0
 40
0
 40
0
 40
0
 40
0
 40
1
 40
1
 40
1
 40
1
 10
1539.064600
 20
-15.265430
 30
0.0
 10
1530.239200
 20
-15.265430
 30
0.0
 10
1520.181600
 20
-16.455630
 30
0.0
 10
1513.526200
 20
-22.251430
 30
0.0
  0
LWPOLYLINE
  5
3b2
100
AcDbEntity
  8
0
 62
1
100
AcDbPolyline
 90
1
 70
1
 10
1612.154300
 20
3310.956270
 30
0.0
  0
SPLINE
  5
3b3
100
AcDbEntity
  8
0
 62
1
100
AcDbSpline
 70
8
 71
3
 72
8
 73
4
 74
0
 40
0
 40
0
 40
0
 40
0
 40
1
 40
1
 40
1
 40
1
 10
1539.064600
 20
-30.755330
 30
0.0
 10
1530.551900
 20
-30.755330
 30
0.0
 10
1522.038900
 20
-30.755330
 30
0.0
 10
1513.526200
 20
-30.755330
 30
0.0
  0
SPLINE
  5
3b4
100
AcDbEntity
  8
0
 62
1
100
AcDbSpline
 70
8
 71
3
 72
8
 73
4
 74
0
 40
0
 40
0
 40
0
 40
0
 40
1
 40
1
 40
1
 40
1
 10
1513.526200
 20
-30.755330
 30
0.0
 10
1513.526200
 20
-35.479830
 30
0.0
 10
1512.354300
 20
-40.204030
 30
0.0
 10
1512.354300
 20
-44.928530
 30
0.0
  0
SPLINE
  5
3b5
100
AcDbEntity
  8
0
 62
1
100
AcDbSpline
 70
8
 71
3
 72
8
 73
4
 74
0
 40
0
 40
0
 40
0
 40
0
 40
1
 40
1
 40
1
 40
1
 10
1512.354300
 20
-44.928530
 30
0.0
 10
1512.354300
 20
-49.653030
 30
0.0
 10
1513.526200
 20
-54.377330
 30
0.0
 10
1513.526200
 20
-59.101830
 30
0.0
  0
LWPOLYLINE
  5
3b6
100
AcDbEntity
  8
0
 62
1
100
AcDbPolyline
 90
3
 70
0
 10
1513.526200
 20
-22.251430
 30
0.0
 10
1539.064600
 20
-22.251430
 30
0.0
 10
1539.064600
 20
-30.755330
 30
0.0
  0
SPLINE
  5
3b7
100
AcDbEntity
  8
0
 62
1
100
AcDbSpline
 70
8
 71
3
 72
8
 73
4
 74
0
 40
0
 40
0
 40
0
 40
0
 40
1
 40
1
 40
1
 40
1
 10
1513.526200
 20
3272.301670
 30
0.0
 10
1520.181400
 20
3278.097070
 30
0.0
 10
1530.239200
 20
3279.287670
 30
0.0
 10
1539.064600
 20
3279.287670
 30
0.0
  0
SPLINE
  5
3b8
100
AcDbEntity
  8
0
 62
1
100
AcDbSpline
 70
8
 71
3
 72
8
 73
4
 74
0
 40
0
 40
0
 40
0
 40
0
 40
1
 40
1
 40
1
 40
1
 10
1539.064600
 20
3279.287670
 30
0.0
 10
1547.890000
 20
3279.287670
 30
0.0
 10
1557.947600
 20
3278.097370
 30
0.0
 10
1564.603100
 20
3272.301670
 30
0.0
  0
SPLINE
  5
3b9
100
AcDbEntity
  8
0
 62
1
100
AcDbSpline
 70
8
 71
3
 72
8
 73
4
 74
0
 40
0
 40
0
 40
0
 40
0
 40
1
 40
1
 40
1
 40
1
 10
1564.603100
 20
3272.301670
 30
0.0
 10
1570.693000
 20
3266.998270
 30
0.0
 10
1573.127400
 20
3257.699770
 30
0.0
 10
1573.127400
 20
3249.624470
 30
0.0
  0
SPLINE
  5
3ba
100
AcDbEntity
  8
0
 62
1
100
AcDbSpline
 70
8
 71
3
 72
8
 73
4
 74
0
 40
0
 40
0
 40
0
 40
0
 40
1
 40
1
 40
1
 40
1
 10
1573.127400
 20
3249.624470
 30
0.0
 10
1573.127400
 20
3241.549170
 30
0.0
 10
1570.693000
 20
3232.250670
 30
0.0
 10
1564.603100
 20
3226.947270
 30
0.0
  0
SPLINE
  5
3bb
100
AcDbEntity
  8
0
 62
1
100
AcDbSpline
 70
8
 71
3
 72
8
 73
4
 74
0
 40
0
 40
0
 40
0
 40
0
 40
1
 40
1
 40
1
 40
1
 10
1564.603100
 20
3226.947270
 30
0.0
 10
1557.947600
 20
3221.151570
 30
0.0
 10
1547.890000
 20
3219.961370
 30
0.0
 10
1539.064600
 20
3219.961370
 30
0.0
  0
SPLINE
  5
3bc
100
AcDbEntity
  8
0
 62
1
100
AcDbSpline
 70
8
 71
3
 72
8
 73
4
 74
0
 40
0
 40
0
 40
0
 40
0
 40
1
 40
1
 40
1
 40
1
 10
1539.064600
 20
3219.961370
 30
0.0
 10
1530.239200
 20
3219.961370
 30
0.0
 10
1520.181600
 20
3221.151570
 30
0.0
 10
1513.526200
 20
3226.947270
 30
0.0
  0
LWPOLYLINE
  5
3bd
100
AcDbEntity
  8
0
 62
1
100
AcDbPolyline
 90
4
 70
0
 10
1513.526200
 20
-59.101830
 30
0.0
 10
1539.064600
 20
-59.101830
 30
0.0
 10
1539.064600
 20
-67.605730
 30
0.0
 10
1513.526200
 20
-67.605730
 30
0.0
  0
SPLINE
  5
3be
100
AcDbEntity
  8
0
 62
1
100
AcDbSpline
 70
8
 71
3
 72
8
 73
4
 74
0
 40
0
 40
0
 40
0
 40
0
 40
1
 40
1
 40
1
 40
1
 10
1539.064600
 20
3235.451270
 30
0.0
 10
1530.551900
 20
3235.451270
 30
0.0
 10
1522.038900
 20
3235.451270
 30
0.0
 10
1513.526200
 20
3235.451270
 30
0.0
  0
SPLINE
  5
3bf
100
AcDbEntity
  8
0
 62
1
100
AcDbSpline
 70
8
 71
3
 72
8
 73
4
 74
0
 40
0
 40
0
 40
0
 40
0
 40
1
 40
1
 40
1
 40
1
 10
1513.526200
 20
3235.451270
 30
0.0
 10
1513.526200
 20
3240.175770
 30
0.0
 10
1512.354300
 20
3244.899970
 30
0.0
 10
1512.354300
 20
3249.624470
 30
0.0
  0
SPLINE
  5
3c0
100
AcDbEntity
  8
0
 62
1
100
AcDbSpline
 70
8
 71
3
 72
8
 73
4
 74
0
 40
0
 40
0
 40
0
 40
0
 40
1
 40
1
 40
1
 40
1
 10
1512.354300
 20
3249.624470
 30
0.0
 10
1512.354300
 20
3254.348970
 30
0.0
 10
1513.526200
 20
3259.073170
 30
0.0
 10
1513.526200
 20
3263.797670
 30
0.0
  0
LWPOLYLINE
  5
3c1
100
AcDbEntity
  8
0
 62
1
100
AcDbPolyline
 90
3
 70
0
 10
1513.526200
 20
3226.947270
 30
0.0
 10
1539.064600
 20
3226.947270
 30
0.0
 10
1539.064600
 20
3235.451270
 30
0.0
  0
SPLINE
  5
3c2
100
AcDbEntity
  8
0
 62
1
100
AcDbSpline
 70
8
 71
3
 72
8
 73
4
 74
0
 40
0
 40
0
 40
0
 40
0
 40
1
 40
1
 40
1
 40
1
 10
1506.867600
 20
16.704870
 30
0.0
 10
1514.893600
 20
10.288070
 30
0.0
 10
1526.491800
 20
9.197570
 30
0.0
 10
1536.767700
 20
9.197570
 30
0.0
  0
SPLINE
  5
3c3
100
AcDbEntity
  8
0
 62
1
100
AcDbSpline
 70
8
 71
3
 72
8
 73
4
 74
0
 40
0
 40
0
 40
0
 40
0
 40
1
 40
1
 40
1
 40
1
 10
1536.767700
 20
9.197570
 30
0.0
 10
1547.043600
 20
9.197570
 30
0.0
 10
1558.641500
 20
10.288070
 30
0.0
 10
1566.667600
 20
16.704870
 30
0.0
  0
SPLINE
  5
3c4
100
AcDbEntity
  8
0
 62
1
100
AcDbSpline
 70
8
 71
3
 72
8
 73
4
 74
0
 40
0
 40
0
 40
0
 40
0
 40
1
 40
1
 40
1
 40
1
 10
1566.667600
 20
16.704870
 30
0.0
 10
1572.915400
 20
21.700370
 30
0.0
 10
1574.520900
 20
31.382670
 30
0.0
 10
1574.520900
 20
39.382070
 30
0.0
  0
SPLINE
  5
3c5
100
AcDbEntity
  8
0
 62
1
100
AcDbSpline
 70
8
 71
3
 72
8
 73
4
 74
0
 40
0
 40
0
 40
0
 40
0
 40
1
 40
1
 40
1
 40
1
 10
1574.520900
 20
39.382070
 30
0.0
 10
1574.520900
 20
47.381370
 30
0.0
 10
1572.915400
 20
57.063670
 30
0.0
 10
1566.667600
 20
62.059170
 30
0.0
  0
SPLINE
  5
3c6
100
AcDbEntity
  8
0
 62
1
100
AcDbSpline
 70
8
 71
3
 72
8
 73
4
 74
0
 40
0
 40
0
 40
0
 40
0
 40
1
 40
1
 40
1
 40
1
 10
1566.667600
 20
62.059170
 30
0.0
 10
1558.641500
 20
68.475970
 30
0.0
 10
1547.043600
 20
69.566470
 30
0.0
 10
1536.767700
 20
69.566470
 30
0.0
  0
SPLINE
  5
3c7
100
AcDbEntity
  8
0
 62
1
100
AcDbSpline
 70
8
 71
3
 72
8
 73
4
 74
0
 40
0
 40
0
 40
0
 40
0
 40
1
 40
1
 40
1
 40
1
 10
1536.767700
 20
69.566470
 30
0.0
 10
1526.491800
 20
69.566470
 30
0.0
 10
1514.893600
 20
68.475970
 30
0.0
 10
1506.867600
 20
62.059170
 30
0.0
  0
LWPOLYLINE
  5
3c8
100
AcDbEntity
  8
0
 62
1
100
AcDbPolyline
 90
4
 70
0
 10
1513.526200
 20
3263.797670
 30
0.0
 10
1539.064600
 20
3263.797670
 30
0.0
 10
1539.064600
 20
3272.301670
 30
0.0
 10
1513.526200
 20
3272.301670
 30
0.0
  0
SPLINE
  5
3c9
100
AcDbEntity
  8
0
 62
1
100
AcDbSpline
 70
8
 71
3
 72
8
 73
4
 74
0
 40
0
 40
0
 40
0
 40
0
 40
1
 40
1
 40
1
 40
1
 10
1506.867600
 20
3187.991070
 30
0.0
 10
1514.893600
 20
3194.407870
 30
0.0
 10
1526.491800
 20
3195.498370
 30
0.0
 10
1536.767700
 20
3195.498370
 30
0.0
  0
SPLINE
  5
3ca
100
AcDbEntity
  8
0
 62
1
100
AcDbSpline
 70
8
 71
3
 72
8
 73
4
 74
0
 40
0
 40
0
 40
0
 40
0
 40
1
 40
1
 40
1
 40
1
 10
1536.767700
 20
3195.498370
 30
0.0
 10
1547.043600
 20
3195.498370
 30
0.0
 10
1558.641500
 20
3194.407870
 30
0.0
 10
1566.667600
 20
3187.991070
 30
0.0
  0
SPLINE
  5
3cb
100
AcDbEntity
  8
0
 62
1
100
AcDbSpline
 70
8
 71
3
 72
8
 73
4
 74
0
 40
0
 40
0
 40
0
 40
0
 40
1
 40
1
 40
1
 40
1
 10
1566.667600
 20
3187.991070
 30
0.0
 10
1572.915400
 20
3182.995570
 30
0.0
 10
1574.520900
 20
3173.313270
 30
0.0
 10
1574.520900
 20
3165.313870
 30
0.0
  0
SPLINE
  5
3cc
100
AcDbEntity
  8
0
 62
1
100
AcDbSpline
 70
8
 71
3
 72
8
 73
4
 74
0
 40
0
 40
0
 40
0
 40
0
 40
1
 40
1
 40
1
 40
1
 10
1574.520900
 20
3165.313870
 30
0.0
 10
1574.520900
 20
3157.314570
 30
0.0
 10
1572.915400
 20
3147.632270
 30
0.0
 10
1566.667600
 20
3142.636770
 30
0.0
  0
SPLINE
  5
3cd
100
AcDbEntity
  8
0
 62
1
100
AcDbSpline
 70
8
 71
3
 72
8
 73
4
 74
0
 40
0
 40
0
 40
0
 40
0
 40
1
 40
1
 40
1
 40
1
 10
1566.667600
 20
3142.636770
 30
0.0
 10
1558.641500
 20
3136.219970
 30
0.0
 10
1547.043600
 20
3135.129470
 30
0.0
 10
1536.767700
 20
3135.129470
 30
0.0
  0
SPLINE
  5
3ce
100
AcDbEntity
  8
0
 62
1
100
AcDbSpline
 70
8
 71
3
 72
8
 73
4
 74
0
 40
0
 40
0
 40
0
 40
0
 40
1
 40
1
 40
1
 40
1
 10
1536.767700
 20
3135.129470
 30
0.0
 10
1526.491800
 20
3135.129470
 30
0.0
 10
1514.893600
 20
3136.219970
 30
0.0
 10
1506.867600
 20
3142.636770
 30
0.0
  0
LWPOLYLINE
  5
3cf
100
AcDbEntity
  8
0
 62
1
100
AcDbPolyline
 90
8
 70
0
 10
1506.867600
 20
62.059170
 30
0.0
 10
1536.767700
 20
62.059170
 30
0.0
 10
1536.767700
 20
53.555270
 30
0.0
 10
1506.867600
 20
53.555270
 30
0.0
 10
1506.867600
 20
25.208770
 30
0.0
 10
1536.767700
 20
25.208770
 30
0.0
 10
1536.767700
 20
16.704870
 30
0.0
 10
1506.867600
 20
16.704870
 30
0.0
  0
SPLINE
  5
3d0
100
AcDbEntity
  8
0
 62
1
100
AcDbSpline
 70
8
 71
3
 72
8
 73
4
 74
0
 40
0
 40
0
 40
0
 40
0
 40
1
 40
1
 40
1
 40
1
 10
1511.302700
 20
97.001270
 30
0.0
 10
1519.902700
 20
90.013870
 30
0.0
 10
1532.151200
 20
87.748970
 30
0.0
 10
1543.232100
 20
87.748970
 30
0.0
  0
SPLINE
  5
3d1
100
AcDbEntity
  8
0
 62
1
100
AcDbSpline
 70
8
 71
3
 72
8
 73
4
 74
0
 40
0
 40
0
 40
0
 40
0
 40
1
 40
1
 40
1
 40
1
 10
1543.232100
 20
87.748970
 30
0.0
 10
1554.313000
 20
87.748970
 30
0.0
 10
1566.561500
 20
90.013870
 30
0.0
 10
1575.161600
 20
97.001270
 30
0.0
  0
SPLINE
  5
3d2
100
AcDbEntity
  8
0
 62
1
100
AcDbSpline
 70
8
 71
3
 72
8
 73
4
 74
0
 40
0
 40
0
 40
0
 40
0
 40
1
 40
1
 40
1
 40
1
 10
1575.161600
 20
97.001270
 30
0.0
 10
1581.330000
 20
102.013270
 30
0.0
 10
1582.530200
 20
111.730370
 30
0.0
 10
1582.530200
 20
119.678470
 30
0.0
  0
SPLINE
  5
3d3
100
AcDbEntity
  8
0
 62
1
100
AcDbSpline
 70
8
 71
3
 72
8
 73
4
 74
0
 40
0
 40
0
 40
0
 40
0
 40
1
 40
1
 40
1
 40
1
 10
1582.530200
 20
119.678470
 30
0.0
 10
1582.530200
 20
127.626570
 30
0.0
 10
1581.330000
 20
137.343670
 30
0.0
 10
1575.161600
 20
142.355670
 30
0.0
  0
SPLINE
  5
3d4
100
AcDbEntity
  8
0
 62
1
100
AcDbSpline
 70
8
 71
3
 72
8
 73
4
 74
0
 40
0
 40
0
 40
0
 40
0
 40
1
 40
1
 40
1
 40
1
 10
1575.161600
 20
142.355670
 30
0.0
 10
1566.561500
 20
149.343070
 30
0.0
 10
1554.313000
 20
151.607870
 30
0.0
 10
1543.232100
 20
151.607870
 30
0.0
  0
SPLINE
  5
3d5
100
AcDbEntity
  8
0
 62
1
100
AcDbSpline
 70
8
 71
3
 72
8
 73
4
 74
0
 40
0
 40
0
 40
0
 40
0
 40
1
 40
1
 40
1
 40
1
 10
1543.232100
 20
151.607870
 30
0.0
 10
1532.151200
 20
151.607870
 30
0.0
 10
1519.902700
 20
149.343070
 30
0.0
 10
1511.302700
 20
142.355670
 30
0.0
  0
LWPOLYLINE
  5
3d6
100
AcDbEntity
  8
0
 62
1
100
AcDbPolyline
 90
8
 70
0
 10
1506.867600
 20
3142.636770
 30
0.0
 10
1536.767700
 20
3142.636770
 30
0.0
 10
1536.767700
 20
3151.140670
 30
0.0
 10
1506.867600
 20
3151.140670
 30
0.0
 10
1506.867600
 20
3179.487170
 30
0.0
 10
1536.767700
 20
3179.487170
 30
0.0
 10
1536.767700
 20
3187.991070
 30
0.0
 10
1506.867600
 20
3187.991070
 30
0.0
  0
SPLINE
  5
3d7
100
AcDbEntity
  8
0
 62
1
100
AcDbSpline
 70
8
 71
3
 72
8
 73
4
 74
0
 40
0
 40
0
 40
0
 40
0
 40
1
 40
1
 40
1
 40
1
 10
1511.302700
 20
3107.694670
 30
0.0
 10
1519.902700
 20
3114.682070
 30
0.0
 10
1532.151200
 20
3116.946870
 30
0.0
 10
1543.232100
 20
3116.946870
 30
0.0
  0
SPLINE
  5
3d8
100
AcDbEntity
  8
0
 62
1
100
AcDbSpline
 70
8
 71
3
 72
8
 73
4
 74
0
 40
0
 40
0
 40
0
 40
0
 40
1
 40
1
 40
1
 40
1
 10
1543.232100
 20
3116.946870
 30
0.0
 10
1554.313000
 20
3116.946870
 30
0.0
 10
1566.561500
 20
3114.682070
 30
0.0
 10
1575.161600
 20
3107.694670
 30
0.0
  0
SPLINE
  5
3d9
100
AcDbEntity
  8
0
 62
1
100
AcDbSpline
 70
8
 71
3
 72
8
 73
4
 74
0
 40
0
 40
0
 40
0
 40
0
 40
1
 40
1
 40
1
 40
1
 10
1575.161600
 20
3107.694670
 30
0.0
 10
1581.330000
 20
3102.682670
 30
0.0
 10
1582.530200
 20
3092.965470
 30
0.0
 10
1582.530200
 20
3085.017470
 30
0.0
  0
SPLINE
  5
3da
100
AcDbEntity
  8
0
 62
1
100
AcDbSpline
 70
8
 71
3
 72
8
 73
4
 74
0
 40
0
 40
0
 40
0
 40
0
 40
1
 40
1
 40
1
 40
1
 10
1582.530200
 20
3085.017470
 30
0.0
 10
1582.530200
 20
3077.069370
 30
0.0
 10
1581.330000
 20
3067.352270
 30
0.0
 10
1575.161600
 20
3062.340270
 30
0.0
  0
SPLINE
  5
3db
100
AcDbEntity
  8
0
 62
1
100
AcDbSpline
 70
8
 71
3
 72
8
 73
4
 74
0
 40
0
 40
0
 40
0
 40
0
 40
1
 40
1
 40
1
 40
1
 10
1575.161600
 20
3062.340270
 30
0.0
 10
1566.561500
 20
3055.352870
 30
0.0
 10
1554.313000
 20
3053.087970
 30
0.0
 10
1543.232100
 20
3053.087970
 30
0.0
  0
SPLINE
  5
3dc
100
AcDbEntity
  8
0
 62
1
100
AcDbSpline
 70
8
 71
3
 72
8
 73
4
 74
0
 40
0
 40
0
 40
0
 40
0
 40
1
 40
1
 40
1
 40
1
 10
1543.232100
 20
3053.087970
 30
0.0
 10
1532.151200
 20
3053.087970
 30
0.0
 10
1519.902700
 20
3055.352870
 30
0.0
 10
1511.302700
 20
3062.340270
 30
0.0
  0
LWPOLYLINE
  5
3dd
100
AcDbEntity
  8
0
 62
1
100
AcDbPolyline
 90
8
 70
0
 10
1511.302700
 20
142.355670
 30
0.0
 10
1543.232100
 20
142.355670
 30
0.0
 10
1543.232100
 20
133.851670
 30
0.0
 10
1511.302700
 20
133.851670
 30
0.0
 10
1511.302700
 20
105.505270
 30
0.0
 10
1543.232100
 20
105.505270
 30
0.0
 10
1543.232100
 20
97.001270
 30
0.0
 10
1511.302700
 20
97.001270
 30
0.0
  0
SPLINE
  5
3de
100
AcDbEntity
  8
0
 62
1
100
AcDbSpline
 70
8
 71
3
 72
8
 73
4
 74
0
 40
0
 40
0
 40
0
 40
0
 40
1
 40
1
 40
1
 40
1
 10
1511.420000
 20
180.882670
 30
0.0
 10
1521.474500
 20
172.312770
 30
0.0
 10
1535.176600
 20
166.591870
 30
0.0
 10
1548.388100
 20
166.591870
 30
0.0
  0
SPLINE
  5
3df
100
AcDbEntity
  8
0
 62
1
100
AcDbSpline
 70
8
 71
3
 72
8
 73
4
 74
0
 40
0
 40
0
 40
0
 40
0
 40
1
 40
1
 40
1
 40
1
 10
1548.388100
 20
166.591870
 30
0.0
 10
1561.599500
 20
166.591870
 30
0.0
 10
1575.301600
 20
172.312770
 30
0.0
 10
1585.356100
 20
180.882670
 30
0.0
  0
SPLINE
  5
3e0
100
AcDbEntity
  8
0
 62
1
100
AcDbSpline
 70
8
 71
3
 72
8
 73
4
 74
0
 40
0
 40
0
 40
0
 40
0
 40
1
 40
1
 40
1
 40
1
 10
1585.356100
 20
180.882670
 30
0.0
 10
1591.333800
 20
185.977970
 30
0.0
 10
1591.759800
 20
195.705370
 30
0.0
 10
1591.759800
 20
203.559870
 30
0.0
  0
SPLINE
  5
3e1
100
AcDbEntity
  8
0
 62
1
100
AcDbSpline
 70
8
 71
3
 72
8
 73
4
 74
0
 40
0
 40
0
 40
0
 40
0
 40
1
 40
1
 40
1
 40
1
 10
1591.759800
 20
203.559870
 30
0.0
 10
1591.759800
 20
211.414370
 30
0.0
 10
1591.333800
 20
221.141770
 30
0.0
 10
1585.356100
 20
226.237070
 30
0.0
  0
SPLINE
  5
3e2
100
AcDbEntity
  8
0
 62
1
100
AcDbSpline
 70
8
 71
3
 72
8
 73
4
 74
0
 40
0
 40
0
 40
0
 40
0
 40
1
 40
1
 40
1
 40
1
 10
1585.356100
 20
226.237070
 30
0.0
 10
1575.301600
 20
234.807070
 30
0.0
 10
1561.599500
 20
240.527870
 30
0.0
 10
1548.388100
 20
240.527870
 30
0.0
  0
SPLINE
  5
3e3
100
AcDbEntity
  8
0
 62
1
100
AcDbSpline
 70
8
 71
3
 72
8
 73
4
 74
0
 40
0
 40
0
 40
0
 40
0
 40
1
 40
1
 40
1
 40
1
 10
1548.388100
 20
240.527870
 30
0.0
 10
1535.176600
 20
240.527870
 30
0.0
 10
1521.474500
 20
234.807070
 30
0.0
 10
1511.420000
 20
226.237070
 30
0.0
  0
LWPOLYLINE
  5
3e4
100
AcDbEntity
  8
0
 62
1
100
AcDbPolyline
 90
8
 70
0
 10
1511.302700
 20
3062.340270
 30
0.0
 10
1543.232100
 20
3062.340270
 30
0.0
 10
1543.232100
 20
3070.844270
 30
0.0
 10
1511.302700
 20
3070.844270
 30
0.0
 10
1511.302700
 20
3099.190670
 30
0.0
 10
1543.232100
 20
3099.190670
 30
0.0
 10
1543.232100
 20
3107.694670
 30
0.0
 10
1511.302700
 20
3107.694670
 30
0.0
  0
SPLINE
  5
3e5
100
AcDbEntity
  8
0
 62
1
100
AcDbSpline
 70
8
 71
3
 72
8
 73
4
 74
0
 40
0
 40
0
 40
0
 40
0
 40
1
 40
1
 40
1
 40
1
 10
1511.420000
 20
3023.813170
 30
0.0
 10
1521.474500
 20
3032.383170
 30
0.0
 10
1535.176600
 20
3038.104070
 30
0.0
 10
1548.388100
 20
3038.104070
 30
0.0
  0
SPLINE
  5
3e6
100
AcDbEntity
  8
0
 62
1
100
AcDbSpline
 70
8
 71
3
 72
8
 73
4
 74
0
 40
0
 40
0
 40
0
 40
0
 40
1
 40
1
 40
1
 40
1
 10
1548.388100
 20
3038.104070
 30
0.0
 10
1561.599500
 20
3038.104070
 30
0.0
 10
1575.301600
 20
3032.383170
 30
0.0
 10
1585.356100
 20
3023.813170
 30
0.0
  0
SPLINE
  5
3e7
100
AcDbEntity
  8
0
 62
1
100
AcDbSpline
 70
8
 71
3
 72
8
 73
4
 74
0
 40
0
 40
0
 40
0
 40
0
 40
1
 40
1
 40
1
 40
1
 10
1585.356100
 20
3023.813170
 30
0.0
 10
1591.333800
 20
3018.717970
 30
0.0
 10
1591.759800
 20
3008.990570
 30
0.0
 10
1591.759800
 20
3001.136070
 30
0.0
  0
SPLINE
  5
3e8
100
AcDbEntity
  8
0
 62
1
100
AcDbSpline
 70
8
 71
3
 72
8
 73
4
 74
0
 40
0
 40
0
 40
0
 40
0
 40
1
 40
1
 40
1
 40
1
 10
1591.759800
 20
3001.136070
 30
0.0
 10
1591.759800
 20
2993.281470
 30
0.0
 10
1591.333800
 20
2983.554170
 30
0.0
 10
1585.356100
 20
2978.458870
 30
0.0
  0
SPLINE
  5
3e9
100
AcDbEntity
  8
0
 62
1
100
AcDbSpline
 70
8
 71
3
 72
8
 73
4
 74
0
 40
0
 40
0
 40
0
 40
0
 40
1
 40
1
 40
1
 40
1
 10
1585.356100
 20
2978.458870
 30
0.0
 10
1575.301600
 20
2969.888870
 30
0.0
 10
1561.599500
 20
2964.167970
 30
0.0
 10
1548.388100
 20
2964.167970
 30
0.0
  0
SPLINE
  5
3ea
100
AcDbEntity
  8
0
 62
1
100
AcDbSpline
 70
8
 71
3
 72
8
 73
4
 74
0
 40
0
 40
0
 40
0
 40
0
 40
1
 40
1
 40
1
 40
1
 10
1548.388100
 20
2964.167970
 30
0.0
 10
1535.176600
 20
2964.167970
 30
0.0
 10
1521.474500
 20
2969.888870
 30
0.0
 10
1511.420000
 20
2978.458870
 30
0.0
  0
LWPOLYLINE
  5
3eb
100
AcDbEntity
  8
0
 62
1
100
AcDbPolyline
 90
8
 70
0
 10
1511.420000
 20
226.237070
 30
0.0
 10
1548.388100
 20
226.237070
 30
0.0
 10
1548.388100
 20
217.733070
 30
0.0
 10
1511.420000
 20
217.733070
 30
0.0
 10
1511.420000
 20
189.386670
 30
0.0
 10
1548.388100
 20
189.386670
 30
0.0
 10
1548.388100
 20
180.882670
 30
0.0
 10
1511.420000
 20
180.882670
 30
0.0
  0
SPLINE
  5
3ec
100
AcDbEntity
  8
0
 62
1
100
AcDbSpline
 70
8
 71
3
 72
8
 73
4
 74
0
 40
0
 40
0
 40
0
 40
0
 40
1
 40
1
 40
1
 40
1
 10
1508.600100
 20
270.701570
 30
0.0
 10
1520.754200
 20
259.952370
 30
0.0
 10
1536.211800
 20
249.541470
 30
0.0
 10
1552.437400
 20
249.541470
 30
0.0
  0
SPLINE
  5
3ed
100
AcDbEntity
  8
0
 62
1
100
AcDbSpline
 70
8
 71
3
 72
8
 73
4
 74
0
 40
0
 40
0
 40
0
 40
0
 40
1
 40
1
 40
1
 40
1
 10
1552.437400
 20
249.541470
 30
0.0
 10
1568.662900
 20
249.541470
 30
0.0
 10
1587.345400
 20
257.153670
 30
0.0
 10
1596.274300
 20
270.701570
 30
0.0
  0
SPLINE
  5
3ee
100
AcDbEntity
  8
0
 62
1
100
AcDbSpline
 70
8
 71
3
 72
8
 73
4
 74
0
 40
0
 40
0
 40
0
 40
0
 40
1
 40
1
 40
1
 40
1
 10
1596.274300
 20
270.701570
 30
0.0
 10
1604.593400
 20
283.324570
 30
0.0
 10
1604.593400
 20
303.432970
 30
0.0
 10
1596.274300
 20
316.055870
 30
0.0
  0
SPLINE
  5
3ef
100
AcDbEntity
  8
0
 62
1
100
AcDbSpline
 70
8
 71
3
 72
8
 73
4
 74
0
 40
0
 40
0
 40
0
 40
0
 40
1
 40
1
 40
1
 40
1
 10
1596.274300
 20
316.055870
 30
0.0
 10
1587.345400
 20
329.603770
 30
0.0
 10
1568.662900
 20
337.215970
 30
0.0
 10
1552.437400
 20
337.215970
 30
0.0
  0
SPLINE
  5
3f0
100
AcDbEntity
  8
0
 62
1
100
AcDbSpline
 70
8
 71
3
 72
8
 73
4
 74
0
 40
0
 40
0
 40
0
 40
0
 40
1
 40
1
 40
1
 40
1
 10
1552.437400
 20
337.215970
 30
0.0
 10
1536.211800
 20
337.215970
 30
0.0
 10
1520.754200
 20
326.805170
 30
0.0
 10
1508.600100
 20
316.055870
 30
0.0
  0
LWPOLYLINE
  5
3f1
100
AcDbEntity
  8
0
 62
1
100
AcDbPolyline
 90
8
 70
0
 10
1511.420000
 20
2978.458870
 30
0.0
 10
1548.388100
 20
2978.458870
 30
0.0
 10
1548.388100
 20
2986.962770
 30
0.0
 10
1511.420000
 20
2986.962770
 30
0.0
 10
1511.420000
 20
3015.309270
 30
0.0
 10
1548.388100
 20
3015.309270
 30
0.0
 10
1548.388100
 20
3023.813170
 30
0.0
 10
1511.420000
 20
3023.813170
 30
0.0
  0
SPLINE
  5
3f2
100
AcDbEntity
  8
0
 62
1
100
AcDbSpline
 70
8
 71
3
 72
8
 73
4
 74
0
 40
0
 40
0
 40
0
 40
0
 40
1
 40
1
 40
1
 40
1
 10
1508.600100
 20
2933.994370
 30
0.0
 10
1520.754200
 20
2944.743570
 30
0.0
 10
1536.211800
 20
2955.154370
 30
0.0
 10
1552.437400
 20
2955.154370
 30
0.0
  0
SPLINE
  5
3f3
100
AcDbEntity
  8
0
 62
1
100
AcDbSpline
 70
8
 71
3
 72
8
 73
4
 74
0
 40
0
 40
0
 40
0
 40
0
 40
1
 40
1
 40
1
 40
1
 10
1552.437400
 20
2955.154370
 30
0.0
 10
1568.662900
 20
2955.154370
 30
0.0
 10
1587.345400
 20
2947.542270
 30
0.0
 10
1596.274300
 20
2933.994370
 30
0.0
  0
SPLINE
  5
3f4
100
AcDbEntity
  8
0
 62
1
100
AcDbSpline
 70
8
 71
3
 72
8
 73
4
 74
0
 40
0
 40
0
 40
0
 40
0
 40
1
 40
1
 40
1
 40
1
 10
1596.274300
 20
2933.994370
 30
0.0
 10
1604.593400
 20
2921.371370
 30
0.0
 10
1604.593400
 20
2901.262970
 30
0.0
 10
1596.274300
 20
2888.639970
 30
0.0
  0
SPLINE
  5
3f5
100
AcDbEntity
  8
0
 62
1
100
AcDbSpline
 70
8
 71
3
 72
8
 73
4
 74
0
 40
0
 40
0
 40
0
 40
0
 40
1
 40
1
 40
1
 40
1
 10
1596.274300
 20
2888.639970
 30
0.0
 10
1587.345400
 20
2875.092070
 30
0.0
 10
1568.662900
 20
2867.479970
 30
0.0
 10
1552.437400
 20
2867.479970
 30
0.0
  0
SPLINE
  5
3f6
100
AcDbEntity
  8
0
 62
1
100
AcDbSpline
 70
8
 71
3
 72
8
 73
4
 74
0
 40
0
 40
0
 40
0
 40
0
 40
1
 40
1
 40
1
 40
1
 10
1552.437400
 20
2867.479970
 30
0.0
 10
1536.211800
 20
2867.479970
 30
0.0
 10
1520.754200
 20
2877.890770
 30
0.0
 10
1508.600100
 20
2888.639970
 30
0.0
  0
LWPOLYLINE
  5
3f7
100
AcDbEntity
  8
0
 62
1
100
AcDbPolyline
 90
8
 70
0
 10
1508.600100
 20
316.055870
 30
0.0
 10
1552.437400
 20
316.055870
 30
0.0
 10
1552.437400
 20
307.551970
 30
0.0
 10
1508.600100
 20
307.551970
 30
0.0
 10
1508.600100
 20
279.205470
 30
0.0
 10
1552.437400
 20
279.205470
 30
0.0
 10
1552.437400
 20
270.701570
 30
0.0
 10
1508.600100
 20
270.701570
 30
0.0
  0
SPLINE
  5
3f8
100
AcDbEntity
  8
0
 62
1
100
AcDbSpline
 70
8
 71
3
 72
8
 73
4
 74
0
 40
0
 40
0
 40
0
 40
0
 40
1
 40
1
 40
1
 40
1
 10
1605.556300
 20
429.643270
 30
0.0
 10
1597.006800
 20
450.683970
 30
0.0
 10
1572.658000
 20
452.783070
 30
0.0
 10
1553.237600
 20
452.783070
 30
0.0
  0
SPLINE
  5
3f9
100
AcDbEntity
  8
0
 62
1
100
AcDbSpline
 70
8
 71
3
 72
8
 73
4
 74
0
 40
0
 40
0
 40
0
 40
0
 40
1
 40
1
 40
1
 40
1
 10
1553.237600
 20
452.783070
 30
0.0
 10
1533.816900
 20
452.783070
 30
0.0
 10
1507.434800
 20
444.590370
 30
0.0
 10
1503.666400
 20
429.643270
 30
0.0
  0
LWPOLYLINE
  5
3fa
100
AcDbEntity
  8
0
 62
1
100
AcDbPolyline
 90
8
 70
0
 10
1508.600100
 20
2888.639970
 30
0.0
 10
1552.437400
 20
2888.639970
 30
0.0
 10
1552.437400
 20
2897.143970
 30
0.0
 10
1508.600100
 20
2897.143970
 30
0.0
 10
1508.600100
 20
2925.490370
 30
0.0
 10
1552.437400
 20
2925.490370
 30
0.0
 10
1552.437400
 20
2933.994370
 30
0.0
 10
1508.600100
 20
2933.994370
 30
0.0
  0
SPLINE
  5
3fb
100
AcDbEntity
  8
0
 62
1
100
AcDbSpline
 70
8
 71
3
 72
8
 73
4
 74
0
 40
0
 40
0
 40
0
 40
0
 40
1
 40
1
 40
1
 40
1
 10
1503.666400
 20
384.288970
 30
0.0
 10
1507.434800
 20
369.341870
 30
0.0
 10
1533.816900
 20
361.149170
 30
0.0
 10
1553.237600
 20
361.149170
 30
0.0
  0
SPLINE
  5
3fc
100
AcDbEntity
  8
0
 62
1
100
AcDbSpline
 70
8
 71
3
 72
8
 73
4
 74
0
 40
0
 40
0
 40
0
 40
0
 40
1
 40
1
 40
1
 40
1
 10
1553.237600
 20
361.149170
 30
0.0
 10
1572.658000
 20
361.149170
 30
0.0
 10
1597.006800
 20
363.248270
 30
0.0
 10
1605.556300
 20
384.288970
 30
0.0
  0
SPLINE
  5
3fd
100
AcDbEntity
  8
0
 62
1
100
AcDbSpline
 70
8
 71
3
 72
8
 73
4
 74
0
 40
0
 40
0
 40
0
 40
0
 40
1
 40
1
 40
1
 40
1
 10
1605.556300
 20
384.288970
 30
0.0
 10
1612.801700
 20
402.120870
 30
0.0
 10
1612.801700
 20
411.811370
 30
0.0
 10
1605.556300
 20
429.643270
 30
0.0
  0
LWPOLYLINE
  5
3fe
100
AcDbEntity
  8
0
 62
1
100
AcDbPolyline
 90
8
 70
0
 10
1503.666400
 20
429.643270
 30
0.0
 10
1554.611500
 20
429.643270
 30
0.0
 10
1554.611500
 20
421.139370
 30
0.0
 10
1503.666400
 20
421.139370
 30
0.0
 10
1503.666400
 20
392.792870
 30
0.0
 10
1554.611500
 20
392.792870
 30
0.0
 10
1554.611500
 20
384.288970
 30
0.0
 10
1503.666400
 20
384.288970
 30
0.0
  0
SPLINE
  5
3ff
100
AcDbEntity
  8
0
 62
1
100
AcDbSpline
 70
8
 71
3
 72
8
 73
4
 74
0
 40
0
 40
0
 40
0
 40
0
 40
1
 40
1
 40
1
 40
1
 10
1605.556300
 20
2775.052670
 30
0.0
 10
1597.006800
 20
2754.011870
 30
0.0
 10
1572.658000
 20
2751.912870
 30
0.0
 10
1553.237600
 20
2751.912870
 30
0.0
  0
SPLINE
  5
400
100
AcDbEntity
  8
0
 62
1
100
AcDbSpline
 70
8
 71
3
 72
8
 73
4
 74
0
 40
0
 40
0
 40
0
 40
0
 40
1
 40
1
 40
1
 40
1
 10
1553.237600
 20
2751.912870
 30
0.0
 10
1533.816900
 20
2751.912870
 30
0.0
 10
1507.434800
 20
2760.105570
 30
0.0
 10
1503.666400
 20
2775.052670
 30
0.0
  0
LWPOLYLINE
  5
401
100
AcDbEntity
  8
0
 62
1
100
AcDbPolyline
 90
1
 70
1
 10
1605.556300
 20
429.643270
 30
0.0
  0
SPLINE
  5
402
100
AcDbEntity
  8
0
 62
1
100
AcDbSpline
 70
8
 71
3
 72
8
 73
4
 74
0
 40
0
 40
0
 40
0
 40
0
 40
1
 40
1
 40
1
 40
1
 10
1503.666400
 20
2820.406970
 30
0.0
 10
1507.434800
 20
2835.354070
 30
0.0
 10
1533.816900
 20
2843.546770
 30
0.0
 10
1553.237600
 20
2843.546770
 30
0.0
  0
SPLINE
  5
403
100
AcDbEntity
  8
0
 62
1
100
AcDbSpline
 70
8
 71
3
 72
8
 73
4
 74
0
 40
0
 40
0
 40
0
 40
0
 40
1
 40
1
 40
1
 40
1
 10
1553.237600
 20
2843.546770
 30
0.0
 10
1572.658000
 20
2843.546770
 30
0.0
 10
1597.006800
 20
2841.447670
 30
0.0
 10
1605.556300
 20
2820.406970
 30
0.0
  0
SPLINE
  5
404
100
AcDbEntity
  8
0
 62
1
100
AcDbSpline
 70
8
 71
3
 72
8
 73
4
 74
0
 40
0
 40
0
 40
0
 40
0
 40
1
 40
1
 40
1
 40
1
 10
1605.556300
 20
2820.406970
 30
0.0
 10
1612.801700
 20
2802.575070
 30
0.0
 10
1612.801700
 20
2792.884570
 30
0.0
 10
1605.556300
 20
2775.052670
 30
0.0
  0
LWPOLYLINE
  5
405
100
AcDbEntity
  8
0
 62
1
100
AcDbPolyline
 90
8
 70
0
 10
1503.666400
 20
2775.052670
 30
0.0
 10
1554.611500
 20
2775.052670
 30
0.0
 10
1554.611500
 20
2783.556570
 30
0.0
 10
1503.666400
 20
2783.556570
 30
0.0
 10
1503.666400
 20
2811.903070
 30
0.0
 10
1554.611500
 20
2811.903070
 30
0.0
 10
1554.611500
 20
2820.406970
 30
0.0
 10
1503.666400
 20
2820.406970
 30
0.0
  0
LWPOLYLINE
  5
406
100
AcDbEntity
  8
0
 62
1
100
AcDbPolyline
 90
1
 70
1
 10
1605.556300
 20
2775.052670
 30
0.0
  0
SPLINE
  5
407
100
AcDbEntity
  8
0
 62
1
100
AcDbSpline
 70
8
 71
3
 72
8
 73
4
 74
0
 40
0
 40
0
 40
0
 40
0
 40
1
 40
1
 40
1
 40
1
 10
6535.803400
 20
1070.436470
 30
0.0
 10
6521.154000
 20
1022.964970
 30
0.0
 10
6496.125400
 20
988.671670
 30
0.0
 10
6484.995800
 20
930.992070
 30
0.0
  0
SPLINE
  5
408
100
AcDbEntity
  8
0
 62
1
100
AcDbSpline
 70
8
 71
3
 72
8
 73
4
 74
0
 40
0
 40
0
 40
0
 40
0
 40
1
 40
1
 40
1
 40
1
 10
6484.995800
 20
930.992070
 30
0.0
 10
6482.740300
 20
919.303370
 30
0.0
 10
6479.275700
 20
890.170570
 30
0.0
 10
6475.663300
 20
879.663970
 30
0.0
  0
SPLINE
  5
409
100
AcDbEntity
  8
0
 62
1
100
AcDbSpline
 70
8
 71
3
 72
8
 73
4
 74
0
 40
0
 40
0
 40
0
 40
0
 40
1
 40
1
 40
1
 40
1
 10
6475.663300
 20
879.663970
 30
0.0
 10
6461.127500
 20
837.385770
 30
0.0
 10
6465.110200
 20
798.099570
 30
0.0
 10
6478.187000
 20
759.897070
 30
0.0
  0
LWPOLYLINE
  5
40a
100
AcDbEntity
  8
0
 62
1
100
AcDbPolyline
 90
2
 70
0
 10
6610.994400
 20
1070.436470
 30
0.0
 10
6535.803400
 20
1070.436470
 30
0.0
  0
SPLINE
  5
40b
100
AcDbEntity
  8
0
 62
1
100
AcDbSpline
 70
8
 71
3
 72
8
 73
4
 74
0
 40
0
 40
0
 40
0
 40
0
 40
1
 40
1
 40
1
 40
1
 10
6568.661200
 20
759.897070
 30
0.0
 10
6583.707500
 20
759.897070
 30
0.0
 10
6599.091700
 20
757.114070
 30
0.0
 10
6610.994400
 20
757.777870
 30
0.0
  0
LWPOLYLINE
  5
40c
100
AcDbEntity
  8
0
 62
1
100
AcDbPolyline
 90
10
 70
0
 10
6478.187000
 20
759.897070
 30
0.0
 10
6500.444000
 20
759.897070
 30
0.0
 10
6500.444000
 20
818.792270
 30
0.0
 10
6508.948000
 20
818.792270
 30
0.0
 10
6508.948000
 20
759.897070
 30
0.0
 10
6537.294400
 20
759.897070
 30
0.0
 10
6537.294400
 20
830.587170
 30
0.0
 10
6545.798400
 20
830.587170
 30
0.0
 10
6545.798400
 20
759.897070
 30
0.0
 10
6568.661200
 20
759.897070
 30
0.0
  0
SPLINE
  5
40d
100
AcDbEntity
  8
0
 62
1
100
AcDbSpline
 70
8
 71
3
 72
8
 73
4
 74
0
 40
0
 40
0
 40
0
 40
0
 40
1
 40
1
 40
1
 40
1
 10
6670.523600
 20
757.777870
 30
0.0
 10
6682.426300
 20
757.114070
 30
0.0
 10
6697.810500
 20
759.897070
 30
0.0
 10
6712.856800
 20
759.897070
 30
0.0
  0
LWPOLYLINE
  5
40e
100
AcDbEntity
  8
0
 62
1
100
AcDbPolyline
 90
2
 70
0
 10
6610.994400
 20
757.777870
 30
0.0
 10
6670.523600
 20
757.777870
 30
0.0
  0
SPLINE
  5
40f
100
AcDbEntity
  8
0
 62
1
100
AcDbSpline
 70
8
 71
3
 72
8
 73
4
 74
0
 40
0
 40
0
 40
0
 40
0
 40
1
 40
1
 40
1
 40
1
 10
6803.331000
 20
759.897070
 30
0.0
 10
6816.407800
 20
798.099570
 30
0.0
 10
6820.390500
 20
837.385770
 30
0.0
 10
6805.854700
 20
879.663970
 30
0.0
  0
SPLINE
  5
410
100
AcDbEntity
  8
0
 62
1
100
AcDbSpline
 70
8
 71
3
 72
8
 73
4
 74
0
 40
0
 40
0
 40
0
 40
0
 40
1
 40
1
 40
1
 40
1
 10
6805.854700
 20
879.663970
 30
0.0
 10
6802.242200
 20
890.170570
 30
0.0
 10
6798.777700
 20
919.303370
 30
0.0
 10
6796.522200
 20
930.992070
 30
0.0
  0
SPLINE
  5
411
100
AcDbEntity
  8
0
 62
1
100
AcDbSpline
 70
8
 71
3
 72
8
 73
4
 74
0
 40
0
 40
0
 40
0
 40
0
 40
1
 40
1
 40
1
 40
1
 10
6796.522200
 20
930.992070
 30
0.0
 10
6785.392500
 20
988.671670
 30
0.0
 10
6760.364000
 20
1022.964970
 30
0.0
 10
6745.714600
 20
1070.436470
 30
0.0
  0
LWPOLYLINE
  5
412
100
AcDbEntity
  8
0
 62
1
100
AcDbPolyline
 90
10
 70
0
 10
6712.856800
 20
759.897070
 30
0.0
 10
6735.719600
 20
759.897070
 30
0.0
 10
6735.719600
 20
830.587170
 30
0.0
 10
6744.223600
 20
830.587170
 30
0.0
 10
6744.223600
 20
759.897070
 30
0.0
 10
6772.570000
 20
759.897070
 30
0.0
 10
6772.570000
 20
818.792270
 30
0.0
 10
6781.074000
 20
818.792270
 30
0.0
 10
6781.074000
 20
759.897070
 30
0.0
 10
6803.331000
 20
759.897070
 30
0.0
  0
SPLINE
  5
413
100
AcDbEntity
  8
0
 62
1
100
AcDbSpline
 70
8
 71
3
 72
8
 73
4
 74
0
 40
0
 40
0
 40
0
 40
0
 40
1
 40
1
 40
1
 40
1
 10
6980.969200
 20
1107.286870
 30
0.0
 10
6958.519100
 20
1107.286870
 30
0.0
 10
6956.667800
 20
1107.286870
 30
0.0
 10
6934.217700
 20
1107.286870
 30
0.0
  0
SPLINE
  5
414
100
AcDbEntity
  8
0
 62
1
100
AcDbSpline
 70
8
 71
3
 72
8
 73
4
 74
0
 40
0
 40
0
 40
0
 40
0
 40
1
 40
1
 40
1
 40
1
 10
6934.217700
 20
1107.286870
 30
0.0
 10
6923.319600
 20
1084.799370
 30
0.0
 10
6899.059000
 20
1071.736470
 30
0.0
 10
6893.001400
 20
1044.799670
 30
0.0
  0
SPLINE
  5
415
100
AcDbEntity
  8
0
 62
1
100
AcDbSpline
 70
8
 71
3
 72
8
 73
4
 74
0
 40
0
 40
0
 40
0
 40
0
 40
1
 40
1
 40
1
 40
1
 10
6893.001400
 20
1044.799670
 30
0.0
 10
6887.943200
 20
1022.306470
 30
0.0
 10
6871.833900
 20
998.992370
 30
0.0
 10
6866.172600
 20
976.642570
 30
0.0
  0
SPLINE
  5
416
100
AcDbEntity
  8
0
 62
1
100
AcDbSpline
 70
8
 71
3
 72
8
 73
4
 74
0
 40
0
 40
0
 40
0
 40
0
 40
1
 40
1
 40
1
 40
1
 10
6866.172600
 20
976.642570
 30
0.0
 10
6859.141800
 20
948.884070
 30
0.0
 10
6850.906600
 20
903.149870
 30
0.0
 10
6846.178400
 20
883.158570
 30
0.0
  0
SPLINE
  5
417
100
AcDbEntity
  8
0
 62
1
100
AcDbSpline
 70
8
 71
3
 72
8
 73
4
 74
0
 40
0
 40
0
 40
0
 40
0
 40
1
 40
1
 40
1
 40
1
 10
6846.178400
 20
883.158570
 30
0.0
 10
6836.518500
 20
842.316670
 30
0.0
 10
6844.125000
 20
794.414270
 30
0.0
 10
6860.732600
 20
759.897070
 30
0.0
  0
LWPOLYLINE
  5
418
100
AcDbEntity
  8
0
 62
1
100
AcDbPolyline
 90
9
 70
0
 10
6745.714600
 20
1070.436470
 30
0.0
 10
6670.523600
 20
1070.436470
 30
0.0
 10
6670.523600
 20
914.107170
 30
0.0
 10
6662.019700
 20
914.107170
 30
0.0
 10
6662.019700
 20
1070.436470
 30
0.0
 10
6619.498300
 20
1070.436470
 30
0.0
 10
6619.498300
 20
914.107170
 30
0.0
 10
6610.994400
 20
914.107170
 30
0.0
 10
6610.994400
 20
1070.436470
 30
0.0
  0
SPLINE
  5
419
100
AcDbEntity
  8
0
 62
1
100
AcDbSpline
 70
8
 71
3
 72
8
 73
4
 74
0
 40
0
 40
0
 40
0
 40
0
 40
1
 40
1
 40
1
 40
1
 10
6943.003400
 20
759.897070
 30
0.0
 10
6962.947100
 20
759.897070
 30
0.0
 10
6962.581100
 20
756.244670
 30
0.0
 10
6980.969200
 20
756.057270
 30
0.0
  0
LWPOLYLINE
  5
41a
100
AcDbEntity
  8
0
 62
1
100
AcDbPolyline
 90
11
 70
0
 10
6860.732600
 20
759.897070
 30
0.0
 10
6870.418900
 20
759.897070
 30
0.0
 10
6870.418900
 20
810.100370
 30
0.0
 10
6878.922800
 20
810.100370
 30
0.0
 10
6878.922800
 20
759.897070
 30
0.0
 10
6907.269300
 20
759.897070
 30
0.0
 10
6907.269300
 20
822.588970
 30
0.0
 10
6915.773200
 20
822.588970
 30
0.0
 10
6915.773200
 20
759.897070
 30
0.0
 10
6924.578700
 20
759.897070
 30
0.0
 10
6943.003400
 20
759.897070
 30
0.0
  0
SPLINE
  5
41b
100
AcDbEntity
  8
0
 62
1
100
AcDbSpline
 70
8
 71
3
 72
8
 73
4
 74
0
 40
0
 40
0
 40
0
 40
0
 40
1
 40
1
 40
1
 40
1
 10
7040.496800
 20
756.057270
 30
0.0
 10
7058.884800
 20
756.244670
 30
0.0
 10
7058.518900
 20
759.897070
 30
0.0
 10
7078.462600
 20
759.897070
 30
0.0
  0
LWPOLYLINE
  5
41c
100
AcDbEntity
  8
0
 62
1
100
AcDbPolyline
 90
2
 70
0
 10
6980.969200
 20
756.057270
 30
0.0
 10
7040.496800
 20
756.057270
 30
0.0
  0
SPLINE
  5
41d
100
AcDbEntity
  8
0
 62
1
100
AcDbSpline
 70
8
 71
3
 72
8
 73
4
 74
0
 40
0
 40
0
 40
0
 40
0
 40
1
 40
1
 40
1
 40
1
 10
7160.733400
 20
759.897070
 30
0.0
 10
7177.341000
 20
794.414270
 30
0.0
 10
7184.947500
 20
842.316670
 30
0.0
 10
7175.287600
 20
883.158570
 30
0.0
  0
SPLINE
  5
41e
100
AcDbEntity
  8
0
 62
1
100
AcDbSpline
 70
8
 71
3
 72
8
 73
4
 74
0
 40
0
 40
0
 40
0
 40
0
 40
1
 40
1
 40
1
 40
1
 10
7175.287600
 20
883.158570
 30
0.0
 10
7170.559400
 20
903.149870
 30
0.0
 10
7162.324200
 20
948.884070
 30
0.0
 10
7155.293400
 20
976.642570
 30
0.0
  0
SPLINE
  5
41f
100
AcDbEntity
  8
0
 62
1
100
AcDbSpline
 70
8
 71
3
 72
8
 73
4
 74
0
 40
0
 40
0
 40
0
 40
0
 40
1
 40
1
 40
1
 40
1
 10
7155.293400
 20
976.642570
 30
0.0
 10
7149.632000
 20
998.992370
 30
0.0
 10
7133.522700
 20
1022.306470
 30
0.0
 10
7128.464600
 20
1044.799670
 30
0.0
  0
SPLINE
  5
420
100
AcDbEntity
  8
0
 62
1
100
AcDbSpline
 70
8
 71
3
 72
8
 73
4
 74
0
 40
0
 40
0
 40
0
 40
0
 40
1
 40
1
 40
1
 40
1
 10
7128.464600
 20
1044.799670
 30
0.0
 10
7122.407000
 20
1071.736470
 30
0.0
 10
7098.146400
 20
1084.799370
 30
0.0
 10
7087.248300
 20
1107.286870
 30
0.0
  0
SPLINE
  5
421
100
AcDbEntity
  8
0
 62
1
100
AcDbSpline
 70
8
 71
3
 72
8
 73
4
 74
0
 40
0
 40
0
 40
0
 40
0
 40
1
 40
1
 40
1
 40
1
 10
7087.248300
 20
1107.286870
 30
0.0
 10
7064.798200
 20
1107.286870
 30
0.0
 10
7062.946900
 20
1107.286870
 30
0.0
 10
7040.496800
 20
1107.286870
 30
0.0
  0
LWPOLYLINE
  5
422
100
AcDbEntity
  8
0
 62
1
100
AcDbPolyline
 90
11
 70
0
 10
7078.462600
 20
759.897070
 30
0.0
 10
7096.887200
 20
759.897070
 30
0.0
 10
7105.692800
 20
759.897070
 30
0.0
 10
7105.692800
 20
822.588970
 30
0.0
 10
7114.196700
 20
822.588970
 30
0.0
 10
7114.196700
 20
759.897070
 30
0.0
 10
7142.543100
 20
759.897070
 30
0.0
 10
7142.543100
 20
810.100370
 30
0.0
 10
7151.047100
 20
810.100370
 30
0.0
 10
7151.047100
 20
759.897070
 30
0.0
 10
7160.733400
 20
759.897070
 30
0.0
  0
SPLINE
  5
423
100
AcDbEntity
  8
0
 62
1
100
AcDbSpline
 70
8
 71
3
 72
8
 73
4
 74
0
 40
0
 40
0
 40
0
 40
0
 40
1
 40
1
 40
1
 40
1
 10
788.870000
 20
-175.107130
 30
0.0
 10
803.726100
 20
-183.439830
 30
0.0
 10
821.321300
 20
-184.509630
 30
0.0
 10
841.512500
 20
-184.509630
 30
0.0
  0
SPLINE
  5
424
100
AcDbEntity
  8
0
 62
1
100
AcDbSpline
 70
8
 71
3
 72
8
 73
4
 74
0
 40
0
 40
0
 40
0
 40
0
 40
1
 40
1
 40
1
 40
1
 10
841.512500
 20
-184.509630
 30
0.0
 10
861.703700
 20
-184.509630
 30
0.0
 10
879.299100
 20
-183.439530
 30
0.0
 10
894.155000
 20
-175.107130
 30
0.0
  0
SPLINE
  5
425
100
AcDbEntity
  8
0
 62
1
100
AcDbSpline
 70
8
 71
3
 72
8
 73
4
 74
0
 40
0
 40
0
 40
0
 40
0
 40
1
 40
1
 40
1
 40
1
 10
894.155000
 20
-175.107130
 30
0.0
 10
900.998400
 20
-171.268730
 30
0.0
 10
900.994700
 20
-133.588930
 30
0.0
 10
894.155000
 20
-129.752830
 30
0.0
  0
SPLINE
  5
426
100
AcDbEntity
  8
0
 62
1
100
AcDbSpline
 70
8
 71
3
 72
8
 73
4
 74
0
 40
0
 40
0
 40
0
 40
0
 40
1
 40
1
 40
1
 40
1
 10
894.155000
 20
-129.752830
 30
0.0
 10
879.324900
 20
-121.434830
 30
0.0
 10
861.668500
 20
-120.350230
 30
0.0
 10
841.512500
 20
-120.350230
 30
0.0
  0
SPLINE
  5
427
100
AcDbEntity
  8
0
 62
1
100
AcDbSpline
 70
8
 71
3
 72
8
 73
4
 74
0
 40
0
 40
0
 40
0
 40
0
 40
1
 40
1
 40
1
 40
1
 10
841.512500
 20
-120.350230
 30
0.0
 10
821.321300
 20
-120.350230
 30
0.0
 10
803.726100
 20
-121.420030
 30
0.0
 10
788.870000
 20
-129.752830
 30
0.0
  0
LWPOLYLINE
  5
428
100
AcDbEntity
  8
0
 62
1
100
AcDbPolyline
 90
8
 70
0
 10
7040.496800
 20
1107.286870
 30
0.0
 10
7040.496800
 20
931.672070
 30
0.0
 10
7031.992800
 20
931.672070
 30
0.0
 10
7031.992800
 20
1107.286870
 30
0.0
 10
6989.473100
 20
1107.286870
 30
0.0
 10
6989.473100
 20
931.672070
 30
0.0
 10
6980.969200
 20
931.672070
 30
0.0
 10
6980.969200
 20
1107.286870
 30
0.0
  0
SPLINE
  5
429
100
AcDbEntity
  8
0
 62
1
100
AcDbSpline
 70
8
 71
3
 72
8
 73
4
 74
0
 40
0
 40
0
 40
0
 40
0
 40
1
 40
1
 40
1
 40
1
 10
788.870000
 20
3379.803070
 30
0.0
 10
803.726100
 20
3388.135770
 30
0.0
 10
821.321300
 20
3389.205570
 30
0.0
 10
841.512500
 20
3389.205570
 30
0.0
  0
SPLINE
  5
42a
100
AcDbEntity
  8
0
 62
1
100
AcDbSpline
 70
8
 71
3
 72
8
 73
4
 74
0
 40
0
 40
0
 40
0
 40
0
 40
1
 40
1
 40
1
 40
1
 10
841.512500
 20
3389.205570
 30
0.0
 10
861.703700
 20
3389.205570
 30
0.0
 10
879.299100
 20
3388.135470
 30
0.0
 10
894.155000
 20
3379.803070
 30
0.0
  0
SPLINE
  5
42b
100
AcDbEntity
  8
0
 62
1
100
AcDbSpline
 70
8
 71
3
 72
8
 73
4
 74
0
 40
0
 40
0
 40
0
 40
0
 40
1
 40
1
 40
1
 40
1
 10
894.155000
 20
3379.803070
 30
0.0
 10
900.998400
 20
3375.964670
 30
0.0
 10
900.994700
 20
3338.284870
 30
0.0
 10
894.155000
 20
3334.448670
 30
0.0
  0
SPLINE
  5
42c
100
AcDbEntity
  8
0
 62
1
100
AcDbSpline
 70
8
 71
3
 72
8
 73
4
 74
0
 40
0
 40
0
 40
0
 40
0
 40
1
 40
1
 40
1
 40
1
 10
894.155000
 20
3334.448670
 30
0.0
 10
879.324900
 20
3326.130670
 30
0.0
 10
861.668500
 20
3325.046170
 30
0.0
 10
841.512500
 20
3325.046170
 30
0.0
  0
SPLINE
  5
42d
100
AcDbEntity
  8
0
 62
1
100
AcDbSpline
 70
8
 71
3
 72
8
 73
4
 74
0
 40
0
 40
0
 40
0
 40
0
 40
1
 40
1
 40
1
 40
1
 10
841.512500
 20
3325.046170
 30
0.0
 10
821.321300
 20
3325.046170
 30
0.0
 10
803.726100
 20
3326.115970
 30
0.0
 10
788.870000
 20
3334.448670
 30
0.0
  0
LWPOLYLINE
  5
42e
100
AcDbEntity
  8
0
 62
1
100
AcDbPolyline
 90
8
 70
0
 10
788.870000
 20
-129.752830
 30
0.0
 10
841.512500
 20
-129.752830
 30
0.0
 10
841.512500
 20
-138.256730
 30
0.0
 10
788.870000
 20
-138.256730
 30
0.0
 10
788.870000
 20
-166.603130
 30
0.0
 10
841.512500
 20
-166.603130
 30
0.0
 10
841.512500
 20
-175.107130
 30
0.0
 10
788.870000
 20
-175.107130
 30
0.0
  0
SPLINE
  5
42f
100
AcDbEntity
  8
0
 62
1
100
AcDbSpline
 70
8
 71
3
 72
8
 73
4
 74
0
 40
0
 40
0
 40
0
 40
0
 40
1
 40
1
 40
1
 40
1
 10
789.237900
 20
-99.853230
 30
0.0
 10
797.483600
 20
-106.446930
 30
0.0
 10
809.333300
 20
-107.829330
 30
0.0
 10
819.891200
 20
-107.829330
 30
0.0
  0
SPLINE
  5
430
100
AcDbEntity
  8
0
 62
1
100
AcDbSpline
 70
8
 71
3
 72
8
 73
4
 74
0
 40
0
 40
0
 40
0
 40
0
 40
1
 40
1
 40
1
 40
1
 10
819.891200
 20
-107.829330
 30
0.0
 10
830.449100
 20
-107.829330
 30
0.0
 10
842.298500
 20
-106.446930
 30
0.0
 10
850.544200
 20
-99.853230
 30
0.0
  0
SPLINE
  5
431
100
AcDbEntity
  8
0
 62
1
100
AcDbSpline
 70
8
 71
3
 72
8
 73
4
 74
0
 40
0
 40
0
 40
0
 40
0
 40
1
 40
1
 40
1
 40
1
 10
850.544200
 20
-99.853230
 30
0.0
 10
856.777300
 20
-94.869030
 30
0.0
 10
858.225300
 20
-85.157030
 30
0.0
 10
858.225300
 20
-77.176030
 30
0.0
  0
SPLINE
  5
432
100
AcDbEntity
  8
0
 62
1
100
AcDbSpline
 70
8
 71
3
 72
8
 73
4
 74
0
 40
0
 40
0
 40
0
 40
0
 40
1
 40
1
 40
1
 40
1
 10
858.225300
 20
-77.176030
 30
0.0
 10
858.225300
 20
-69.195130
 30
0.0
 10
856.777300
 20
-59.483030
 30
0.0
 10
850.544200
 20
-54.498930
 30
0.0
  0
SPLINE
  5
433
100
AcDbEntity
  8
0
 62
1
100
AcDbSpline
 70
8
 71
3
 72
8
 73
4
 74
0
 40
0
 40
0
 40
0
 40
0
 40
1
 40
1
 40
1
 40
1
 10
850.544200
 20
-54.498930
 30
0.0
 10
842.298500
 20
-47.905230
 30
0.0
 10
830.449100
 20
-46.522730
 30
0.0
 10
819.891200
 20
-46.522730
 30
0.0
  0
SPLINE
  5
434
100
AcDbEntity
  8
0
 62
1
100
AcDbSpline
 70
8
 71
3
 72
8
 73
4
 74
0
 40
0
 40
0
 40
0
 40
0
 40
1
 40
1
 40
1
 40
1
 10
819.891200
 20
-46.522730
 30
0.0
 10
809.333300
 20
-46.522730
 30
0.0
 10
797.483600
 20
-47.905230
 30
0.0
 10
789.237900
 20
-54.498930
 30
0.0
  0
LWPOLYLINE
  5
435
100
AcDbEntity
  8
0
 62
1
100
AcDbPolyline
 90
8
 70
0
 10
788.870000
 20
3334.448670
 30
0.0
 10
841.512500
 20
3334.448670
 30
0.0
 10
841.512500
 20
3342.952670
 30
0.0
 10
788.870000
 20
3342.952670
 30
0.0
 10
788.870000
 20
3371.299070
 30
0.0
 10
841.512500
 20
3371.299070
 30
0.0
 10
841.512500
 20
3379.803070
 30
0.0
 10
788.870000
 20
3379.803070
 30
0.0
  0
SPLINE
  5
436
100
AcDbEntity
  8
0
 62
1
100
AcDbSpline
 70
8
 71
3
 72
8
 73
4
 74
0
 40
0
 40
0
 40
0
 40
0
 40
1
 40
1
 40
1
 40
1
 10
789.237900
 20
3304.549170
 30
0.0
 10
797.483600
 20
3311.142770
 30
0.0
 10
809.333300
 20
3312.525270
 30
0.0
 10
819.891200
 20
3312.525270
 30
0.0
  0
SPLINE
  5
437
100
AcDbEntity
  8
0
 62
1
100
AcDbSpline
 70
8
 71
3
 72
8
 73
4
 74
0
 40
0
 40
0
 40
0
 40
0
 40
1
 40
1
 40
1
 40
1
 10
819.891200
 20
3312.525270
 30
0.0
 10
830.449100
 20
3312.525270
 30
0.0
 10
842.298500
 20
3311.142770
 30
0.0
 10
850.544200
 20
3304.549170
 30
0.0
  0
SPLINE
  5
438
100
AcDbEntity
  8
0
 62
1
100
AcDbSpline
 70
8
 71
3
 72
8
 73
4
 74
0
 40
0
 40
0
 40
0
 40
0
 40
1
 40
1
 40
1
 40
1
 10
850.544200
 20
3304.549170
 30
0.0
 10
856.777300
 20
3299.564970
 30
0.0
 10
858.225300
 20
3289.852870
 30
0.0
 10
858.225300
 20
3281.871970
 30
0.0
  0
SPLINE
  5
439
100
AcDbEntity
  8
0
 62
1
100
AcDbSpline
 70
8
 71
3
 72
8
 73
4
 74
0
 40
0
 40
0
 40
0
 40
0
 40
1
 40
1
 40
1
 40
1
 10
858.225300
 20
3281.871970
 30
0.0
 10
858.225300
 20
3273.891070
 30
0.0
 10
856.777300
 20
3264.178970
 30
0.0
 10
850.544200
 20
3259.194770
 30
0.0
  0
SPLINE
  5
43a
100
AcDbEntity
  8
0
 62
1
100
AcDbSpline
 70
8
 71
3
 72
8
 73
4
 74
0
 40
0
 40
0
 40
0
 40
0
 40
1
 40
1
 40
1
 40
1
 10
850.544200
 20
3259.194770
 30
0.0
 10
842.298500
 20
3252.601170
 30
0.0
 10
830.449100
 20
3251.218670
 30
0.0
 10
819.891200
 20
3251.218670
 30
0.0
  0
SPLINE
  5
43b
100
AcDbEntity
  8
0
 62
1
100
AcDbSpline
 70
8
 71
3
 72
8
 73
4
 74
0
 40
0
 40
0
 40
0
 40
0
 40
1
 40
1
 40
1
 40
1
 10
819.891200
 20
3251.218670
 30
0.0
 10
809.333300
 20
3251.218670
 30
0.0
 10
797.483600
 20
3252.601170
 30
0.0
 10
789.237900
 20
3259.194770
 30
0.0
  0
LWPOLYLINE
  5
43c
100
AcDbEntity
  8
0
 62
1
100
AcDbPolyline
 90
8
 70
0
 10
789.237900
 20
-54.498930
 30
0.0
 10
819.891200
 20
-54.498930
 30
0.0
 10
819.891200
 20
-63.002830
 30
0.0
 10
789.237900
 20
-63.002830
 30
0.0
 10
789.237900
 20
-91.349330
 30
0.0
 10
819.891200
 20
-91.349330
 30
0.0
 10
819.891200
 20
-99.853230
 30
0.0
 10
789.237900
 20
-99.853230
 30
0.0
  0
SPLINE
  5
43d
100
AcDbEntity
  8
0
 62
1
100
AcDbSpline
 70
8
 71
3
 72
8
 73
4
 74
0
 40
0
 40
0
 40
0
 40
0
 40
1
 40
1
 40
1
 40
1
 10
796.514200
 20
-34.496530
 30
0.0
 10
803.410600
 20
-40.024630
 30
0.0
 10
813.506200
 20
-39.537930
 30
0.0
 10
822.083200
 20
-39.537930
 30
0.0
  0
SPLINE
  5
43e
100
AcDbEntity
  8
0
 62
1
100
AcDbSpline
 70
8
 71
3
 72
8
 73
4
 74
0
 40
0
 40
0
 40
0
 40
0
 40
1
 40
1
 40
1
 40
1
 10
822.083200
 20
-39.537930
 30
0.0
 10
830.660300
 20
-39.537930
 30
0.0
 10
840.755900
 20
-40.024630
 30
0.0
 10
847.652300
 20
-34.496530
 30
0.0
  0
SPLINE
  5
43f
100
AcDbEntity
  8
0
 62
1
100
AcDbSpline
 70
8
 71
3
 72
8
 73
4
 74
0
 40
0
 40
0
 40
0
 40
0
 40
1
 40
1
 40
1
 40
1
 10
847.652300
 20
-34.496530
 30
0.0
 10
859.787400
 20
-24.768830
 30
0.0
 10
859.787400
 20
1.130170
 30
0.0
 10
847.652300
 20
10.857870
 30
0.0
  0
SPLINE
  5
440
100
AcDbEntity
  8
0
 62
1
100
AcDbSpline
 70
8
 71
3
 72
8
 73
4
 74
0
 40
0
 40
0
 40
0
 40
0
 40
1
 40
1
 40
1
 40
1
 10
847.652300
 20
10.857870
 30
0.0
 10
840.755900
 20
16.385970
 30
0.0
 10
830.660300
 20
15.899270
 30
0.0
 10
822.083200
 20
15.899270
 30
0.0
  0
SPLINE
  5
441
100
AcDbEntity
  8
0
 62
1
100
AcDbSpline
 70
8
 71
3
 72
8
 73
4
 74
0
 40
0
 40
0
 40
0
 40
0
 40
1
 40
1
 40
1
 40
1
 10
822.083200
 20
15.899270
 30
0.0
 10
813.506200
 20
15.899270
 30
0.0
 10
803.410600
 20
16.385970
 30
0.0
 10
796.514200
 20
10.857870
 30
0.0
  0
LWPOLYLINE
  5
442
100
AcDbEntity
  8
0
 62
1
100
AcDbPolyline
 90
8
 70
0
 10
789.237900
 20
3259.194770
 30
0.0
 10
819.891200
 20
3259.194770
 30
0.0
 10
819.891200
 20
3267.698770
 30
0.0
 10
789.237900
 20
3267.698770
 30
0.0
 10
789.237900
 20
3296.045170
 30
0.0
 10
819.891200
 20
3296.045170
 30
0.0
 10
819.891200
 20
3304.549170
 30
0.0
 10
789.237900
 20
3304.549170
 30
0.0
  0
SPLINE
  5
443
100
AcDbEntity
  8
0
 62
1
100
AcDbSpline
 70
8
 71
3
 72
8
 73
4
 74
0
 40
0
 40
0
 40
0
 40
0
 40
1
 40
1
 40
1
 40
1
 10
796.514200
 20
3239.192370
 30
0.0
 10
803.410600
 20
3244.720570
 30
0.0
 10
813.506200
 20
3244.233870
 30
0.0
 10
822.083200
 20
3244.233870
 30
0.0
  0
SPLINE
  5
444
100
AcDbEntity
  8
0
 62
1
100
AcDbSpline
 70
8
 71
3
 72
8
 73
4
 74
0
 40
0
 40
0
 40
0
 40
0
 40
1
 40
1
 40
1
 40
1
 10
822.083200
 20
3244.233870
 30
0.0
 10
830.660300
 20
3244.233870
 30
0.0
 10
840.755900
 20
3244.720570
 30
0.0
 10
847.652300
 20
3239.192370
 30
0.0
  0
SPLINE
  5
445
100
AcDbEntity
  8
0
 62
1
100
AcDbSpline
 70
8
 71
3
 72
8
 73
4
 74
0
 40
0
 40
0
 40
0
 40
0
 40
1
 40
1
 40
1
 40
1
 10
847.652300
 20
3239.192370
 30
0.0
 10
859.787400
 20
3229.464770
 30
0.0
 10
859.787400
 20
3203.565770
 30
0.0
 10
847.652300
 20
3193.838070
 30
0.0
  0
SPLINE
  5
446
100
AcDbEntity
  8
0
 62
1
100
AcDbSpline
 70
8
 71
3
 72
8
 73
4
 74
0
 40
0
 40
0
 40
0
 40
0
 40
1
 40
1
 40
1
 40
1
 10
847.652300
 20
3193.838070
 30
0.0
 10
840.755900
 20
3188.309970
 30
0.0
 10
830.660300
 20
3188.796670
 30
0.0
 10
822.083200
 20
3188.796670
 30
0.0
  0
SPLINE
  5
447
100
AcDbEntity
  8
0
 62
1
100
AcDbSpline
 70
8
 71
3
 72
8
 73
4
 74
0
 40
0
 40
0
 40
0
 40
0
 40
1
 40
1
 40
1
 40
1
 10
822.083200
 20
3188.796670
 30
0.0
 10
813.506200
 20
3188.796670
 30
0.0
 10
803.410600
 20
3188.309970
 30
0.0
 10
796.514200
 20
3193.838070
 30
0.0
  0
LWPOLYLINE
  5
448
100
AcDbEntity
  8
0
 62
1
100
AcDbPolyline
 90
8
 70
0
 10
796.514200
 20
10.857870
 30
0.0
 10
822.083200
 20
10.857870
 30
0.0
 10
822.083200
 20
2.353870
 30
0.0
 10
796.514200
 20
2.353870
 30
0.0
 10
796.514200
 20
-25.992530
 30
0.0
 10
822.083200
 20
-25.992530
 30
0.0
 10
822.083200
 20
-34.496530
 30
0.0
 10
796.514200
 20
-34.496530
 30
0.0
  0
SPLINE
  5
449
100
AcDbEntity
  8
0
 62
1
100
AcDbSpline
 70
8
 71
3
 72
8
 73
4
 74
0
 40
0
 40
0
 40
0
 40
0
 40
1
 40
1
 40
1
 40
1
 10
809.061400
 20
34.585270
 30
0.0
 10
817.028200
 20
28.254070
 30
0.0
 10
828.593900
 20
27.553570
 30
0.0
 10
838.770200
 20
27.553570
 30
0.0
  0
SPLINE
  5
44a
100
AcDbEntity
  8
0
 62
1
100
AcDbSpline
 70
8
 71
3
 72
8
 73
4
 74
0
 40
0
 40
0
 40
0
 40
0
 40
1
 40
1
 40
1
 40
1
 10
838.770200
 20
27.553570
 30
0.0
 10
848.946600
 20
27.553570
 30
0.0
 10
860.512300
 20
28.254070
 30
0.0
 10
868.479000
 20
34.585270
 30
0.0
  0
SPLINE
  5
44b
100
AcDbEntity
  8
0
 62
1
100
AcDbSpline
 70
8
 71
3
 72
8
 73
4
 74
0
 40
0
 40
0
 40
0
 40
0
 40
1
 40
1
 40
1
 40
1
 10
868.479000
 20
34.585270
 30
0.0
 10
874.726600
 20
39.550070
 30
0.0
 10
876.154700
 20
49.282070
 30
0.0
 10
876.154700
 20
57.262370
 30
0.0
  0
SPLINE
  5
44c
100
AcDbEntity
  8
0
 62
1
100
AcDbSpline
 70
8
 71
3
 72
8
 73
4
 74
0
 40
0
 40
0
 40
0
 40
0
 40
1
 40
1
 40
1
 40
1
 10
876.154700
 20
57.262370
 30
0.0
 10
876.154700
 20
65.242770
 30
0.0
 10
874.726600
 20
74.974670
 30
0.0
 10
868.479000
 20
79.939570
 30
0.0
  0
SPLINE
  5
44d
100
AcDbEntity
  8
0
 62
1
100
AcDbSpline
 70
8
 71
3
 72
8
 73
4
 74
0
 40
0
 40
0
 40
0
 40
0
 40
1
 40
1
 40
1
 40
1
 10
868.479000
 20
79.939570
 30
0.0
 10
860.512300
 20
86.270770
 30
0.0
 10
848.946600
 20
86.971170
 30
0.0
 10
838.770200
 20
86.971170
 30
0.0
  0
SPLINE
  5
44e
100
AcDbEntity
  8
0
 62
1
100
AcDbSpline
 70
8
 71
3
 72
8
 73
4
 74
0
 40
0
 40
0
 40
0
 40
0
 40
1
 40
1
 40
1
 40
1
 10
838.770200
 20
86.971170
 30
0.0
 10
828.593900
 20
86.971170
 30
0.0
 10
817.028200
 20
86.270770
 30
0.0
 10
809.061400
 20
79.939570
 30
0.0
  0
LWPOLYLINE
  5
44f
100
AcDbEntity
  8
0
 62
1
100
AcDbPolyline
 90
8
 70
0
 10
796.514200
 20
3193.838070
 30
0.0
 10
822.083200
 20
3193.838070
 30
0.0
 10
822.083200
 20
3202.342070
 30
0.0
 10
796.514200
 20
3202.342070
 30
0.0
 10
796.514200
 20
3230.688470
 30
0.0
 10
822.083200
 20
3230.688470
 30
0.0
 10
822.083200
 20
3239.192370
 30
0.0
 10
796.514200
 20
3239.192370
 30
0.0
  0
SPLINE
  5
450
100
AcDbEntity
  8
0
 62
1
100
AcDbSpline
 70
8
 71
3
 72
8
 73
4
 74
0
 40
0
 40
0
 40
0
 40
0
 40
1
 40
1
 40
1
 40
1
 10
809.061400
 20
3170.110670
 30
0.0
 10
817.028200
 20
3176.441870
 30
0.0
 10
828.593900
 20
3177.142270
 30
0.0
 10
838.770200
 20
3177.142270
 30
0.0
  0
SPLINE
  5
451
100
AcDbEntity
  8
0
 62
1
100
AcDbSpline
 70
8
 71
3
 72
8
 73
4
 74
0
 40
0
 40
0
 40
0
 40
0
 40
1
 40
1
 40
1
 40
1
 10
838.770200
 20
3177.142270
 30
0.0
 10
848.946600
 20
3177.142270
 30
0.0
 10
860.512300
 20
3176.441870
 30
0.0
 10
868.479000
 20
3170.110670
 30
0.0
  0
SPLINE
  5
452
100
AcDbEntity
  8
0
 62
1
100
AcDbSpline
 70
8
 71
3
 72
8
 73
4
 74
0
 40
0
 40
0
 40
0
 40
0
 40
1
 40
1
 40
1
 40
1
 10
868.479000
 20
3170.110670
 30
0.0
 10
874.726600
 20
3165.145770
 30
0.0
 10
876.154700
 20
3155.413870
 30
0.0
 10
876.154700
 20
3147.433470
 30
0.0
  0
SPLINE
  5
453
100
AcDbEntity
  8
0
 62
1
100
AcDbSpline
 70
8
 71
3
 72
8
 73
4
 74
0
 40
0
 40
0
 40
0
 40
0
 40
1
 40
1
 40
1
 40
1
 10
876.154700
 20
3147.433470
 30
0.0
 10
876.154700
 20
3139.453170
 30
0.0
 10
874.726600
 20
3129.721270
 30
0.0
 10
868.479000
 20
3124.756370
 30
0.0
  0
SPLINE
  5
454
100
AcDbEntity
  8
0
 62
1
100
AcDbSpline
 70
8
 71
3
 72
8
 73
4
 74
0
 40
0
 40
0
 40
0
 40
0
 40
1
 40
1
 40
1
 40
1
 10
868.479000
 20
3124.756370
 30
0.0
 10
860.512300
 20
3118.425170
 30
0.0
 10
848.946600
 20
3117.724770
 30
0.0
 10
838.770200
 20
3117.724770
 30
0.0
  0
SPLINE
  5
455
100
AcDbEntity
  8
0
 62
1
100
AcDbSpline
 70
8
 71
3
 72
8
 73
4
 74
0
 40
0
 40
0
 40
0
 40
0
 40
1
 40
1
 40
1
 40
1
 10
838.770200
 20
3117.724770
 30
0.0
 10
828.593900
 20
3117.724770
 30
0.0
 10
817.028200
 20
3118.425170
 30
0.0
 10
809.061400
 20
3124.756370
 30
0.0
  0
LWPOLYLINE
  5
456
100
AcDbEntity
  8
0
 62
1
100
AcDbPolyline
 90
8
 70
0
 10
809.061400
 20
79.939570
 30
0.0
 10
838.770200
 20
79.939570
 30
0.0
 10
838.770200
 20
71.435670
 30
0.0
 10
809.061400
 20
71.435670
 30
0.0
 10
809.061400
 20
43.089170
 30
0.0
 10
838.770200
 20
43.089170
 30
0.0
 10
838.770200
 20
34.585270
 30
0.0
 10
809.061400
 20
34.585270
 30
0.0
  0
SPLINE
  5
457
100
AcDbEntity
  8
0
 62
1
100
AcDbSpline
 70
8
 71
3
 72
8
 73
4
 74
0
 40
0
 40
0
 40
0
 40
0
 40
1
 40
1
 40
1
 40
1
 10
810.793400
 20
112.962070
 30
0.0
 10
820.845600
 20
104.393170
 30
0.0
 10
834.547200
 20
98.676570
 30
0.0
 10
847.756100
 20
98.676570
 30
0.0
  0
SPLINE
  5
458
100
AcDbEntity
  8
0
 62
1
100
AcDbSpline
 70
8
 71
3
 72
8
 73
4
 74
0
 40
0
 40
0
 40
0
 40
0
 40
1
 40
1
 40
1
 40
1
 10
847.756100
 20
98.676570
 30
0.0
 10
860.964900
 20
98.676570
 30
0.0
 10
874.666200
 20
104.393170
 30
0.0
 10
884.718400
 20
112.962070
 30
0.0
  0
SPLINE
  5
459
100
AcDbEntity
  8
0
 62
1
100
AcDbSpline
 70
8
 71
3
 72
8
 73
4
 74
0
 40
0
 40
0
 40
0
 40
0
 40
1
 40
1
 40
1
 40
1
 10
884.718400
 20
112.962070
 30
0.0
 10
890.695600
 20
118.057370
 30
0.0
 10
891.116800
 20
127.784970
 30
0.0
 10
891.116800
 20
135.639170
 30
0.0
  0
SPLINE
  5
45a
100
AcDbEntity
  8
0
 62
1
100
AcDbSpline
 70
8
 71
3
 72
8
 73
4
 74
0
 40
0
 40
0
 40
0
 40
0
 40
1
 40
1
 40
1
 40
1
 10
891.116800
 20
135.639170
 30
0.0
 10
891.116800
 20
143.493470
 30
0.0
 10
890.695600
 20
153.221070
 30
0.0
 10
884.718400
 20
158.316370
 30
0.0
  0
SPLINE
  5
45b
100
AcDbEntity
  8
0
 62
1
100
AcDbSpline
 70
8
 71
3
 72
8
 73
4
 74
0
 40
0
 40
0
 40
0
 40
0
 40
1
 40
1
 40
1
 40
1
 10
884.718400
 20
158.316370
 30
0.0
 10
874.666200
 20
166.885270
 30
0.0
 10
860.964900
 20
172.601870
 30
0.0
 10
847.756100
 20
172.601870
 30
0.0
  0
SPLINE
  5
45c
100
AcDbEntity
  8
0
 62
1
100
AcDbSpline
 70
8
 71
3
 72
8
 73
4
 74
0
 40
0
 40
0
 40
0
 40
0
 40
1
 40
1
 40
1
 40
1
 10
847.756100
 20
172.601870
 30
0.0
 10
834.547200
 20
172.601870
 30
0.0
 10
820.845600
 20
166.885270
 30
0.0
 10
810.793400
 20
158.316370
 30
0.0
  0
LWPOLYLINE
  5
45d
100
AcDbEntity
  8
0
 62
1
100
AcDbPolyline
 90
8
 70
0
 10
809.061400
 20
3124.756370
 30
0.0
 10
838.770200
 20
3124.756370
 30
0.0
 10
838.770200
 20
3133.260270
 30
0.0
 10
809.061400
 20
3133.260270
 30
0.0
 10
809.061400
 20
3161.606770
 30
0.0
 10
838.770200
 20
3161.606770
 30
0.0
 10
838.770200
 20
3170.110670
 30
0.0
 10
809.061400
 20
3170.110670
 30
0.0
  0
SPLINE
  5
45e
100
AcDbEntity
  8
0
 62
1
100
AcDbSpline
 70
8
 71
3
 72
8
 73
4
 74
0
 40
0
 40
0
 40
0
 40
0
 40
1
 40
1
 40
1
 40
1
 10
810.793400
 20
3091.733870
 30
0.0
 10
820.845600
 20
3100.302670
 30
0.0
 10
834.547200
 20
3106.019370
 30
0.0
 10
847.756100
 20
3106.019370
 30
0.0
  0
SPLINE
  5
45f
100
AcDbEntity
  8
0
 62
1
100
AcDbSpline
 70
8
 71
3
 72
8
 73
4
 74
0
 40
0
 40
0
 40
0
 40
0
 40
1
 40
1
 40
1
 40
1
 10
847.756100
 20
3106.019370
 30
0.0
 10
860.964900
 20
3106.019370
 30
0.0
 10
874.666200
 20
3100.302670
 30
0.0
 10
884.718400
 20
3091.733870
 30
0.0
  0
SPLINE
  5
460
100
AcDbEntity
  8
0
 62
1
100
AcDbSpline
 70
8
 71
3
 72
8
 73
4
 74
0
 40
0
 40
0
 40
0
 40
0
 40
1
 40
1
 40
1
 40
1
 10
884.718400
 20
3091.733870
 30
0.0
 10
890.695600
 20
3086.638570
 30
0.0
 10
891.116800
 20
3076.910970
 30
0.0
 10
891.116800
 20
3069.056670
 30
0.0
  0
SPLINE
  5
461
100
AcDbEntity
  8
0
 62
1
100
AcDbSpline
 70
8
 71
3
 72
8
 73
4
 74
0
 40
0
 40
0
 40
0
 40
0
 40
1
 40
1
 40
1
 40
1
 10
891.116800
 20
3069.056670
 30
0.0
 10
891.116800
 20
3061.202470
 30
0.0
 10
890.695600
 20
3051.474770
 30
0.0
 10
884.718400
 20
3046.379570
 30
0.0
  0
SPLINE
  5
462
100
AcDbEntity
  8
0
 62
1
100
AcDbSpline
 70
8
 71
3
 72
8
 73
4
 74
0
 40
0
 40
0
 40
0
 40
0
 40
1
 40
1
 40
1
 40
1
 10
884.718400
 20
3046.379570
 30
0.0
 10
874.666200
 20
3037.810670
 30
0.0
 10
860.964900
 20
3032.094070
 30
0.0
 10
847.756100
 20
3032.094070
 30
0.0
  0
SPLINE
  5
463
100
AcDbEntity
  8
0
 62
1
100
AcDbSpline
 70
8
 71
3
 72
8
 73
4
 74
0
 40
0
 40
0
 40
0
 40
0
 40
1
 40
1
 40
1
 40
1
 10
847.756100
 20
3032.094070
 30
0.0
 10
834.547200
 20
3032.094070
 30
0.0
 10
820.845600
 20
3037.810670
 30
0.0
 10
810.793400
 20
3046.379570
 30
0.0
  0
LWPOLYLINE
  5
464
100
AcDbEntity
  8
0
 62
1
100
AcDbPolyline
 90
8
 70
0
 10
810.793400
 20
158.316370
 30
0.0
 10
848.755800
 20
158.316370
 30
0.0
 10
848.755800
 20
149.812470
 30
0.0
 10
810.793400
 20
149.812470
 30
0.0
 10
810.793400
 20
121.465970
 30
0.0
 10
848.755800
 20
121.465970
 30
0.0
 10
848.755800
 20
112.962070
 30
0.0
 10
810.793400
 20
112.962070
 30
0.0
  0
SPLINE
  5
465
100
AcDbEntity
  8
0
 62
1
100
AcDbSpline
 70
8
 71
3
 72
8
 73
4
 74
0
 40
0
 40
0
 40
0
 40
0
 40
1
 40
1
 40
1
 40
1
 10
870.968700
 20
208.603270
 30
0.0
 10
893.202200
 20
196.320170
 30
0.0
 10
939.849200
 20
187.660370
 30
0.0
 10
970.645900
 20
187.660370
 30
0.0
  0
SPLINE
  5
466
100
AcDbEntity
  8
0
 62
1
100
AcDbSpline
 70
8
 71
3
 72
8
 73
4
 74
0
 40
0
 40
0
 40
0
 40
0
 40
1
 40
1
 40
1
 40
1
 10
970.645900
 20
187.660370
 30
0.0
 10
1001.442300
 20
187.660370
 30
0.0
 10
1015.183600
 20
198.664170
 30
0.0
 10
1022.322600
 20
208.603270
 30
0.0
  0
SPLINE
  5
467
100
AcDbEntity
  8
0
 62
1
100
AcDbSpline
 70
8
 71
3
 72
8
 73
4
 74
0
 40
0
 40
0
 40
0
 40
0
 40
1
 40
1
 40
1
 40
1
 10
1022.322600
 20
208.603270
 30
0.0
 10
1024.078700
 20
211.048170
 30
0.0
 10
1025.406700
 20
221.187670
 30
0.0
 10
1025.679700
 20
231.280470
 30
0.0
  0
SPLINE
  5
468
100
AcDbEntity
  8
0
 62
1
100
AcDbSpline
 70
8
 71
3
 72
8
 73
4
 74
0
 40
0
 40
0
 40
0
 40
0
 40
1
 40
1
 40
1
 40
1
 10
1025.679700
 20
231.280470
 30
0.0
 10
1025.406700
 20
241.373170
 30
0.0
 10
1024.078700
 20
251.512770
 30
0.0
 10
1022.322600
 20
253.957570
 30
0.0
  0
SPLINE
  5
469
100
AcDbEntity
  8
0
 62
1
100
AcDbSpline
 70
8
 71
3
 72
8
 73
4
 74
0
 40
0
 40
0
 40
0
 40
0
 40
1
 40
1
 40
1
 40
1
 10
1022.322600
 20
253.957570
 30
0.0
 10
1015.183600
 20
263.896770
 30
0.0
 10
1001.442300
 20
274.900570
 30
0.0
 10
970.645900
 20
274.900570
 30
0.0
  0
SPLINE
  5
46a
100
AcDbEntity
  8
0
 62
1
100
AcDbSpline
 70
8
 71
3
 72
8
 73
4
 74
0
 40
0
 40
0
 40
0
 40
0
 40
1
 40
1
 40
1
 40
1
 10
970.645900
 20
274.900570
 30
0.0
 10
939.849200
 20
274.900570
 30
0.0
 10
893.202200
 20
266.240670
 30
0.0
 10
870.968700
 20
253.957570
 30
0.0
  0
LWPOLYLINE
  5
46b
100
AcDbEntity
  8
0
 62
1
100
AcDbPolyline
 90
8
 70
0
 10
810.793400
 20
3046.379570
 30
0.0
 10
848.755800
 20
3046.379570
 30
0.0
 10
848.755800
 20
3054.883470
 30
0.0
 10
810.793400
 20
3054.883470
 30
0.0
 10
810.793400
 20
3083.229970
 30
0.0
 10
848.755800
 20
3083.229970
 30
0.0
 10
848.755800
 20
3091.733870
 30
0.0
 10
810.793400
 20
3091.733870
 30
0.0
  0
SPLINE
  5
46c
100
AcDbEntity
  8
0
 62
1
100
AcDbSpline
 70
8
 71
3
 72
8
 73
4
 74
0
 40
0
 40
0
 40
0
 40
0
 40
1
 40
1
 40
1
 40
1
 10
870.968700
 20
2996.092670
 30
0.0
 10
893.202200
 20
3008.375770
 30
0.0
 10
939.849200
 20
3017.035570
 30
0.0
 10
970.645900
 20
3017.035570
 30
0.0
  0
SPLINE
  5
46d
100
AcDbEntity
  8
0
 62
1
100
AcDbSpline
 70
8
 71
3
 72
8
 73
4
 74
0
 40
0
 40
0
 40
0
 40
0
 40
1
 40
1
 40
1
 40
1
 10
970.645900
 20
3017.035570
 30
0.0
 10
1001.442300
 20
3017.035570
 30
0.0
 10
1015.183600
 20
3006.031770
 30
0.0
 10
1022.322600
 20
2996.092670
 30
0.0
  0
SPLINE
  5
46e
100
AcDbEntity
  8
0
 62
1
100
AcDbSpline
 70
8
 71
3
 72
8
 73
4
 74
0
 40
0
 40
0
 40
0
 40
0
 40
1
 40
1
 40
1
 40
1
 10
1022.322600
 20
2996.092670
 30
0.0
 10
1024.078700
 20
2993.647770
 30
0.0
 10
1025.406700
 20
2983.508270
 30
0.0
 10
1025.679700
 20
2973.415470
 30
0.0
  0
SPLINE
  5
46f
100
AcDbEntity
  8
0
 62
1
100
AcDbSpline
 70
8
 71
3
 72
8
 73
4
 74
0
 40
0
 40
0
 40
0
 40
0
 40
1
 40
1
 40
1
 40
1
 10
1025.679700
 20
2973.415470
 30
0.0
 10
1025.406700
 20
2963.322670
 30
0.0
 10
1024.078700
 20
2953.183170
 30
0.0
 10
1022.322600
 20
2950.738270
 30
0.0
  0
SPLINE
  5
470
100
AcDbEntity
  8
0
 62
1
100
AcDbSpline
 70
8
 71
3
 72
8
 73
4
 74
0
 40
0
 40
0
 40
0
 40
0
 40
1
 40
1
 40
1
 40
1
 10
1022.322600
 20
2950.738270
 30
0.0
 10
1015.183600
 20
2940.799170
 30
0.0
 10
1001.442300
 20
2929.795370
 30
0.0
 10
970.645900
 20
2929.795370
 30
0.0
  0
SPLINE
  5
471
100
AcDbEntity
  8
0
 62
1
100
AcDbSpline
 70
8
 71
3
 72
8
 73
4
 74
0
 40
0
 40
0
 40
0
 40
0
 40
1
 40
1
 40
1
 40
1
 10
970.645900
 20
2929.795370
 30
0.0
 10
939.849200
 20
2929.795370
 30
0.0
 10
893.202200
 20
2938.455170
 30
0.0
 10
870.968700
 20
2950.738270
 30
0.0
  0
LWPOLYLINE
  5
472
100
AcDbEntity
  8
0
 62
1
100
AcDbPolyline
 90
9
 70
0
 10
870.968700
 20
253.957570
 30
0.0
 10
946.645800
 20
253.957570
 30
0.0
 10
946.645800
 20
245.453670
 30
0.0
 10
870.968700
 20
245.453670
 30
0.0
 10
870.968700
 20
231.280470
 30
0.0
 10
870.968700
 20
217.107170
 30
0.0
 10
946.645800
 20
217.107170
 30
0.0
 10
946.645800
 20
208.603270
 30
0.0
 10
870.968700
 20
208.603270
 30
0.0
  0
SPLINE
  5
473
100
AcDbEntity
  8
0
 62
1
100
AcDbSpline
 70
8
 71
3
 72
8
 73
4
 74
0
 40
0
 40
0
 40
0
 40
0
 40
1
 40
1
 40
1
 40
1
 10
908.363300
 20
314.042770
 30
0.0
 10
935.159800
 20
301.659570
 30
0.0
 10
968.784100
 20
291.334370
 30
0.0
 10
1006.680200
 20
291.334370
 30
0.0
  0
SPLINE
  5
474
100
AcDbEntity
  8
0
 62
1
100
AcDbSpline
 70
8
 71
3
 72
8
 73
4
 74
0
 40
0
 40
0
 40
0
 40
0
 40
1
 40
1
 40
1
 40
1
 10
1006.680200
 20
291.334370
 30
0.0
 10
1044.576000
 20
291.334370
 30
0.0
 10
1083.836700
 20
301.660470
 30
0.0
 10
1087.756400
 20
314.042770
 30
0.0
  0
SPLINE
  5
475
100
AcDbEntity
  8
0
 62
1
100
AcDbSpline
 70
8
 71
3
 72
8
 73
4
 74
0
 40
0
 40
0
 40
0
 40
0
 40
1
 40
1
 40
1
 40
1
 10
1087.756400
 20
314.042770
 30
0.0
 10
1088.542800
 20
316.526770
 30
0.0
 10
1090.159900
 20
326.643570
 30
0.0
 10
1090.159900
 20
336.719870
 30
0.0
  0
SPLINE
  5
476
100
AcDbEntity
  8
0
 62
1
100
AcDbSpline
 70
8
 71
3
 72
8
 73
4
 74
0
 40
0
 40
0
 40
0
 40
0
 40
1
 40
1
 40
1
 40
1
 10
1090.159900
 20
336.719870
 30
0.0
 10
1090.159900
 20
346.796270
 30
0.0
 10
1088.542800
 20
356.913070
 30
0.0
 10
1087.756400
 20
359.397070
 30
0.0
  0
SPLINE
  5
477
100
AcDbEntity
  8
0
 62
1
100
AcDbSpline
 70
8
 71
3
 72
8
 73
4
 74
0
 40
0
 40
0
 40
0
 40
0
 40
1
 40
1
 40
1
 40
1
 10
1087.756400
 20
359.397070
 30
0.0
 10
1083.836700
 20
371.779370
 30
0.0
 10
1044.576000
 20
382.105470
 30
0.0
 10
1006.680200
 20
382.105470
 30
0.0
  0
SPLINE
  5
478
100
AcDbEntity
  8
0
 62
1
100
AcDbSpline
 70
8
 71
3
 72
8
 73
4
 74
0
 40
0
 40
0
 40
0
 40
0
 40
1
 40
1
 40
1
 40
1
 10
1006.680200
 20
382.105470
 30
0.0
 10
968.784100
 20
382.105470
 30
0.0
 10
935.159800
 20
371.780270
 30
0.0
 10
908.363300
 20
359.397070
 30
0.0
  0
LWPOLYLINE
  5
479
100
AcDbEntity
  8
0
 62
1
100
AcDbPolyline
 90
9
 70
0
 10
870.968700
 20
2950.738270
 30
0.0
 10
946.645800
 20
2950.738270
 30
0.0
 10
946.645800
 20
2959.242270
 30
0.0
 10
870.968700
 20
2959.242270
 30
0.0
 10
870.968700
 20
2973.415470
 30
0.0
 10
870.968700
 20
2987.588670
 30
0.0
 10
946.645800
 20
2987.588670
 30
0.0
 10
946.645800
 20
2996.092670
 30
0.0
 10
870.968700
 20
2996.092670
 30
0.0
  0
SPLINE
  5
47a
100
AcDbEntity
  8
0
 62
1
100
AcDbSpline
 70
8
 71
3
 72
8
 73
4
 74
0
 40
0
 40
0
 40
0
 40
0
 40
1
 40
1
 40
1
 40
1
 10
908.363300
 20
2890.653170
 30
0.0
 10
935.159800
 20
2903.036370
 30
0.0
 10
968.784100
 20
2913.361470
 30
0.0
 10
1006.680200
 20
2913.361470
 30
0.0
  0
SPLINE
  5
47b
100
AcDbEntity
  8
0
 62
1
100
AcDbSpline
 70
8
 71
3
 72
8
 73
4
 74
0
 40
0
 40
0
 40
0
 40
0
 40
1
 40
1
 40
1
 40
1
 10
1006.680200
 20
2913.361470
 30
0.0
 10
1044.576000
 20
2913.361470
 30
0.0
 10
1083.836700
 20
2903.035470
 30
0.0
 10
1087.756400
 20
2890.653170
 30
0.0
  0
SPLINE
  5
47c
100
AcDbEntity
  8
0
 62
1
100
AcDbSpline
 70
8
 71
3
 72
8
 73
4
 74
0
 40
0
 40
0
 40
0
 40
0
 40
1
 40
1
 40
1
 40
1
 10
1087.756400
 20
2890.653170
 30
0.0
 10
1088.542800
 20
2888.169170
 30
0.0
 10
1090.159900
 20
2878.052370
 30
0.0
 10
1090.159900
 20
2867.975970
 30
0.0
  0
SPLINE
  5
47d
100
AcDbEntity
  8
0
 62
1
100
AcDbSpline
 70
8
 71
3
 72
8
 73
4
 74
0
 40
0
 40
0
 40
0
 40
0
 40
1
 40
1
 40
1
 40
1
 10
1090.159900
 20
2867.975970
 30
0.0
 10
1090.159900
 20
2857.899670
 30
0.0
 10
1088.542800
 20
2847.782870
 30
0.0
 10
1087.756400
 20
2845.298870
 30
0.0
  0
SPLINE
  5
47e
100
AcDbEntity
  8
0
 62
1
100
AcDbSpline
 70
8
 71
3
 72
8
 73
4
 74
0
 40
0
 40
0
 40
0
 40
0
 40
1
 40
1
 40
1
 40
1
 10
1087.756400
 20
2845.298870
 30
0.0
 10
1083.836700
 20
2832.916570
 30
0.0
 10
1044.576000
 20
2822.590470
 30
0.0
 10
1006.680200
 20
2822.590470
 30
0.0
  0
SPLINE
  5
47f
100
AcDbEntity
  8
0
 62
1
100
AcDbSpline
 70
8
 71
3
 72
8
 73
4
 74
0
 40
0
 40
0
 40
0
 40
0
 40
1
 40
1
 40
1
 40
1
 10
1006.680200
 20
2822.590470
 30
0.0
 10
968.784100
 20
2822.590470
 30
0.0
 10
935.159800
 20
2832.915670
 30
0.0
 10
908.363300
 20
2845.298870
 30
0.0
  0
LWPOLYLINE
  5
480
100
AcDbEntity
  8
0
 62
1
100
AcDbPolyline
 90
8
 70
0
 10
908.363300
 20
359.397070
 30
0.0
 10
998.060000
 20
359.397070
 30
0.0
 10
998.060000
 20
350.893170
 30
0.0
 10
908.363300
 20
350.893170
 30
0.0
 10
908.363300
 20
322.546670
 30
0.0
 10
998.060000
 20
322.546670
 30
0.0
 10
998.060000
 20
314.042770
 30
0.0
 10
908.363300
 20
314.042770
 30
0.0
  0
SPLINE
  5
481
100
AcDbEntity
  8
0
 62
1
100
AcDbSpline
 70
8
 71
3
 72
8
 73
4
 74
0
 40
0
 40
0
 40
0
 40
0
 40
1
 40
1
 40
1
 40
1
 10
1130.540900
 20
480.247370
 30
0.0
 10
1130.314700
 20
486.106870
 30
0.0
 10
1123.119500
 20
492.264570
 30
0.0
 10
1113.129100
 20
496.707270
 30
0.0
  0
SPLINE
  5
482
100
AcDbEntity
  8
0
 62
1
100
AcDbSpline
 70
8
 71
3
 72
8
 73
4
 74
0
 40
0
 40
0
 40
0
 40
0
 40
1
 40
1
 40
1
 40
1
 10
1113.129100
 20
496.707270
 30
0.0
 10
1072.824900
 20
514.631670
 30
0.0
 10
1028.633700
 20
521.397070
 30
0.0
 10
994.074000
 20
516.408970
 30
0.0
  0
SPLINE
  5
483
100
AcDbEntity
  8
0
 62
1
100
AcDbSpline
 70
8
 71
3
 72
8
 73
4
 74
0
 40
0
 40
0
 40
0
 40
0
 40
1
 40
1
 40
1
 40
1
 10
994.074000
 20
516.408970
 30
0.0
 10
977.262800
 20
513.982470
 30
0.0
 10
944.946400
 20
491.854070
 30
0.0
 10
934.129400
 20
480.247370
 30
0.0
  0
LWPOLYLINE
  5
484
100
AcDbEntity
  8
0
 62
1
100
AcDbPolyline
 90
8
 70
0
 10
908.363300
 20
2845.298870
 30
0.0
 10
998.060000
 20
2845.298870
 30
0.0
 10
998.060000
 20
2853.802770
 30
0.0
 10
908.363300
 20
2853.802770
 30
0.0
 10
908.363300
 20
2882.149270
 30
0.0
 10
998.060000
 20
2882.149270
 30
0.0
 10
998.060000
 20
2890.653170
 30
0.0
 10
908.363300
 20
2890.653170
 30
0.0
  0
SPLINE
  5
485
100
AcDbEntity
  8
0
 62
1
100
AcDbSpline
 70
8
 71
3
 72
8
 73
4
 74
0
 40
0
 40
0
 40
0
 40
0
 40
1
 40
1
 40
1
 40
1
 10
934.129400
 20
434.893070
 30
0.0
 10
944.946400
 20
423.286270
 30
0.0
 10
977.262800
 20
401.157970
 30
0.0
 10
994.074000
 20
398.731470
 30
0.0
  0
SPLINE
  5
486
100
AcDbEntity
  8
0
 62
1
100
AcDbSpline
 70
8
 71
3
 72
8
 73
4
 74
0
 40
0
 40
0
 40
0
 40
0
 40
1
 40
1
 40
1
 40
1
 10
994.074000
 20
398.731470
 30
0.0
 10
1028.633700
 20
393.743370
 30
0.0
 10
1072.824900
 20
400.508770
 30
0.0
 10
1113.129100
 20
418.433070
 30
0.0
  0
SPLINE
  5
487
100
AcDbEntity
  8
0
 62
1
100
AcDbSpline
 70
8
 71
3
 72
8
 73
4
 74
0
 40
0
 40
0
 40
0
 40
0
 40
1
 40
1
 40
1
 40
1
 10
1113.129100
 20
418.433070
 30
0.0
 10
1123.119500
 20
422.875870
 30
0.0
 10
1130.314700
 20
429.033570
 30
0.0
 10
1130.540900
 20
434.893070
 30
0.0
  0
SPLINE
  5
488
100
AcDbEntity
  8
0
 62
1
100
AcDbSpline
 70
8
 71
3
 72
8
 73
4
 74
0
 40
0
 40
0
 40
0
 40
0
 40
1
 40
1
 40
1
 40
1
 10
1130.540900
 20
434.893070
 30
0.0
 10
1131.130200
 20
450.166070
 30
0.0
 10
1131.130200
 20
464.974270
 30
0.0
 10
1130.540900
 20
480.247370
 30
0.0
  0
LWPOLYLINE
  5
489
100
AcDbEntity
  8
0
 62
1
100
AcDbPolyline
 90
8
 70
0
 10
934.129400
 20
480.247370
 30
0.0
 10
1032.335100
 20
480.247370
 30
0.0
 10
1032.335100
 20
471.743470
 30
0.0
 10
934.129400
 20
471.743470
 30
0.0
 10
934.129400
 20
443.396970
 30
0.0
 10
1032.335100
 20
443.396970
 30
0.0
 10
1032.335100
 20
434.893070
 30
0.0
 10
934.129400
 20
434.893070
 30
0.0
  0
SPLINE
  5
48a
100
AcDbEntity
  8
0
 62
1
100
AcDbSpline
 70
8
 71
3
 72
8
 73
4
 74
0
 40
0
 40
0
 40
0
 40
0
 40
1
 40
1
 40
1
 40
1
 10
1130.540900
 20
2724.448570
 30
0.0
 10
1130.314700
 20
2718.589070
 30
0.0
 10
1123.119500
 20
2712.431370
 30
0.0
 10
1113.129100
 20
2707.988570
 30
0.0
  0
SPLINE
  5
48b
100
AcDbEntity
  8
0
 62
1
100
AcDbSpline
 70
8
 71
3
 72
8
 73
4
 74
0
 40
0
 40
0
 40
0
 40
0
 40
1
 40
1
 40
1
 40
1
 10
1113.129100
 20
2707.988570
 30
0.0
 10
1072.824900
 20
2690.064270
 30
0.0
 10
1028.633700
 20
2683.298870
 30
0.0
 10
994.074000
 20
2688.286970
 30
0.0
  0
SPLINE
  5
48c
100
AcDbEntity
  8
0
 62
1
100
AcDbSpline
 70
8
 71
3
 72
8
 73
4
 74
0
 40
0
 40
0
 40
0
 40
0
 40
1
 40
1
 40
1
 40
1
 10
994.074000
 20
2688.286970
 30
0.0
 10
977.262800
 20
2690.713470
 30
0.0
 10
944.946400
 20
2712.841770
 30
0.0
 10
934.129400
 20
2724.448570
 30
0.0
  0
LWPOLYLINE
  5
48d
100
AcDbEntity
  8
0
 62
1
100
AcDbPolyline
 90
1
 70
1
 10
1130.540900
 20
480.247370
 30
0.0
  0
SPLINE
  5
48e
100
AcDbEntity
  8
0
 62
1
100
AcDbSpline
 70
8
 71
3
 72
8
 73
4
 74
0
 40
0
 40
0
 40
0
 40
0
 40
1
 40
1
 40
1
 40
1
 10
934.129400
 20
2769.802870
 30
0.0
 10
944.946400
 20
2781.409570
 30
0.0
 10
977.262800
 20
2803.537970
 30
0.0
 10
994.074000
 20
2805.964470
 30
0.0
  0
SPLINE
  5
48f
100
AcDbEntity
  8
0
 62
1
100
AcDbSpline
 70
8
 71
3
 72
8
 73
4
 74
0
 40
0
 40
0
 40
0
 40
0
 40
1
 40
1
 40
1
 40
1
 10
994.074000
 20
2805.964470
 30
0.0
 10
1028.633700
 20
2810.952570
 30
0.0
 10
1072.824900
 20
2804.187170
 30
0.0
 10
1113.129100
 20
2786.262770
 30
0.0
  0
SPLINE
  5
490
100
AcDbEntity
  8
0
 62
1
100
AcDbSpline
 70
8
 71
3
 72
8
 73
4
 74
0
 40
0
 40
0
 40
0
 40
0
 40
1
 40
1
 40
1
 40
1
 10
1113.129100
 20
2786.262770
 30
0.0
 10
1123.119500
 20
2781.820070
 30
0.0
 10
1130.314700
 20
2775.662370
 30
0.0
 10
1130.540900
 20
2769.802870
 30
0.0
  0
SPLINE
  5
491
100
AcDbEntity
  8
0
 62
1
100
AcDbSpline
 70
8
 71
3
 72
8
 73
4
 74
0
 40
0
 40
0
 40
0
 40
0
 40
1
 40
1
 40
1
 40
1
 10
1130.540900
 20
2769.802870
 30
0.0
 10
1131.130200
 20
2754.529770
 30
0.0
 10
1131.130200
 20
2739.721570
 30
0.0
 10
1130.540900
 20
2724.448570
 30
0.0
  0
LWPOLYLINE
  5
492
100
AcDbEntity
  8
0
 62
1
100
AcDbPolyline
 90
8
 70
0
 10
934.129400
 20
2724.448570
 30
0.0
 10
1032.335100
 20
2724.448570
 30
0.0
 10
1032.335100
 20
2732.952470
 30
0.0
 10
934.129400
 20
2732.952470
 30
0.0
 10
934.129400
 20
2761.298970
 30
0.0
 10
1032.335100
 20
2761.298970
 30
0.0
 10
1032.335100
 20
2769.802870
 30
0.0
 10
934.129400
 20
2769.802870
 30
0.0
  0
SPLINE
  5
493
100
AcDbEntity
  8
0
 62
1
100
AcDbSpline
 70
8
 71
3
 72
8
 73
4
 74
0
 40
0
 40
0
 40
0
 40
0
 40
1
 40
1
 40
1
 40
1
 10
10779.474000
 20
811.987370
 30
0.0
 10
10794.116000
 20
811.987370
 30
0.0
 10
10806.602000
 20
796.747470
 30
0.0
 10
10821.993000
 20
796.747470
 30
0.0
  0
LWPOLYLINE
  5
494
100
AcDbEntity
  8
0
 62
1
100
AcDbPolyline
 90
1
 70
1
 10
1130.540900
 20
2724.448570
 30
0.0
  0
SPLINE
  5
495
100
AcDbEntity
  8
0
 62
1
100
AcDbSpline
 70
8
 71
3
 72
8
 73
4
 74
0
 40
0
 40
0
 40
0
 40
0
 40
1
 40
1
 40
1
 40
1
 10
10896.881000
 20
796.747470
 30
0.0
 10
10896.881000
 20
841.285470
 30
0.0
 10
10896.961000
 20
907.273470
 30
0.0
 10
10881.601000
 20
947.603870
 30
0.0
  0
SPLINE
  5
496
100
AcDbEntity
  8
0
 62
1
100
AcDbSpline
 70
8
 71
3
 72
8
 73
4
 74
0
 40
0
 40
0
 40
0
 40
0
 40
1
 40
1
 40
1
 40
1
 10
10881.601000
 20
947.603870
 30
0.0
 10
10864.015000
 20
996.189470
 30
0.0
 10
10830.497000
 20
1041.115170
 30
0.0
 10
10779.474000
 20
1041.115170
 30
0.0
  0
LWPOLYLINE
  5
497
100
AcDbEntity
  8
0
 62
1
100
AcDbPolyline
 90
9
 70
0
 10
10821.993000
 20
796.747470
 30
0.0
 10
10821.993000
 20
875.847170
 30
0.0
 10
10830.497000
 20
875.847170
 30
0.0
 10
10830.497000
 20
796.747470
 30
0.0
 10
10858.844000
 20
796.747470
 30
0.0
 10
10858.844000
 20
875.847170
 30
0.0
 10
10867.348000
 20
875.847170
 30
0.0
 10
10867.348000
 20
796.747470
 30
0.0
 10
10896.881000
 20
796.747470
 30
0.0
  0
SPLINE
  5
498
100
AcDbEntity
  8
0
 62
1
100
AcDbSpline
 70
8
 71
3
 72
8
 73
4
 74
0
 40
0
 40
0
 40
0
 40
0
 40
1
 40
1
 40
1
 40
1
 10
10719.944000
 20
1041.115170
 30
0.0
 10
10668.920000
 20
1041.115170
 30
0.0
 10
10635.402000
 20
996.189470
 30
0.0
 10
10617.817000
 20
947.603870
 30
0.0
  0
SPLINE
  5
499
100
AcDbEntity
  8
0
 62
1
100
AcDbSpline
 70
8
 71
3
 72
8
 73
4
 74
0
 40
0
 40
0
 40
0
 40
0
 40
1
 40
1
 40
1
 40
1
 10
10617.817000
 20
947.603870
 30
0.0
 10
10602.456000
 20
907.273470
 30
0.0
 10
10602.536000
 20
841.285470
 30
0.0
 10
10602.536000
 20
796.747470
 30
0.0
  0
LWPOLYLINE
  5
49a
100
AcDbEntity
  8
0
 62
1
100
AcDbPolyline
 90
12
 70
0
 10
10779.474000
 20
1041.115170
 30
0.0
 10
10779.474000
 20
926.551270
 30
0.0
 10
10770.970000
 20
926.551270
 30
0.0
 10
10770.970000
 20
1041.115170
 30
0.0
 10
10753.961000
 20
1041.115170
 30
0.0
 10
10753.961000
 20
1008.759970
 30
0.0
 10
10745.457000
 20
1008.759970
 30
0.0
 10
10745.457000
 20
1041.115170
 30
0.0
 10
10728.448000
 20
1041.115170
 30
0.0
 10
10728.448000
 20
926.551270
 30
0.0
 10
10719.944000
 20
926.551270
 30
0.0
 10
10719.944000
 20
1041.115170
 30
0.0
  0
SPLINE
  5
49b
100
AcDbEntity
  8
0
 62
1
100
AcDbSpline
 70
8
 71
3
 72
8
 73
4
 74
0
 40
0
 40
0
 40
0
 40
0
 40
1
 40
1
 40
1
 40
1
 10
10677.424000
 20
796.747470
 30
0.0
 10
10692.816000
 20
796.747470
 30
0.0
 10
10705.302000
 20
811.987370
 30
0.0
 10
10719.944000
 20
811.987370
 30
0.0
  0
LWPOLYLINE
  5
49c
100
AcDbEntity
  8
0
 62
1
100
AcDbPolyline
 90
9
 70
0
 10
10602.536000
 20
796.747470
 30
0.0
 10
10632.070000
 20
796.747470
 30
0.0
 10
10632.070000
 20
875.847170
 30
0.0
 10
10640.574000
 20
875.847170
 30
0.0
 10
10640.574000
 20
796.747470
 30
0.0
 10
10668.920000
 20
796.747470
 30
0.0
 10
10668.920000
 20
875.847170
 30
0.0
 10
10677.424000
 20
875.847170
 30
0.0
 10
10677.424000
 20
796.747470
 30
0.0
  0
SPLINE
  5
49d
100
AcDbEntity
  8
0
 62
1
100
AcDbSpline
 70
8
 71
3
 72
8
 73
4
 74
0
 40
0
 40
0
 40
0
 40
0
 40
1
 40
1
 40
1
 40
1
 10
587.393900
 20
509.912270
 30
0.0
 10
589.623600
 20
513.396270
 30
0.0
 10
591.718100
 20
516.954370
 30
0.0
 10
593.467700
 20
520.698070
 30
0.0
  0
SPLINE
  5
49e
100
AcDbEntity
  8
0
 62
1
100
AcDbSpline
 70
8
 71
3
 72
8
 73
4
 74
0
 40
0
 40
0
 40
0
 40
0
 40
1
 40
1
 40
1
 40
1
 10
593.467700
 20
520.698070
 30
0.0
 10
595.056200
 20
524.097670
 30
0.0
 10
596.068400
 20
527.307870
 30
0.0
 10
596.445200
 20
530.290770
 30
0.0
  0
LWPOLYLINE
  5
49f
100
AcDbEntity
  8
0
 62
1
100
AcDbPolyline
 90
2
 70
0
 10
10719.944000
 20
811.987370
 30
0.0
 10
10779.474000
 20
811.987370
 30
0.0
  0
SPLINE
  5
4a0
100
AcDbEntity
  8
0
 62
1
100
AcDbSpline
 70
8
 71
3
 72
8
 73
4
 74
0
 40
0
 40
0
 40
0
 40
0
 40
1
 40
1
 40
1
 40
1
 10
595.506900
 20
538.794670
 30
0.0
 10
593.990100
 20
542.543570
 30
0.0
 10
590.878200
 20
545.680370
 30
0.0
 10
585.967700
 20
548.072770
 30
0.0
  0
SPLINE
  5
4a1
100
AcDbEntity
  8
0
 62
1
100
AcDbSpline
 70
8
 71
3
 72
8
 73
4
 74
0
 40
0
 40
0
 40
0
 40
0
 40
1
 40
1
 40
1
 40
1
 10
585.967700
 20
548.072770
 30
0.0
 10
572.168400
 20
554.795470
 30
0.0
 10
565.810600
 20
558.941670
 30
0.0
 10
552.834700
 20
567.141170
 30
0.0
  0
LWPOLYLINE
  5
4a2
100
AcDbEntity
  8
0
 62
1
100
AcDbPolyline
 90
4
 70
0
 10
596.445200
 20
530.290770
 30
0.0
 10
543.802700
 20
530.290770
 30
0.0
 10
543.802700
 20
538.794670
 30
0.0
 10
595.506900
 20
538.794670
 30
0.0
  0
SPLINE
  5
4a3
100
AcDbEntity
  8
0
 62
1
100
AcDbSpline
 70
8
 71
3
 72
8
 73
4
 74
0
 40
0
 40
0
 40
0
 40
0
 40
1
 40
1
 40
1
 40
1
 10
545.593900
 20
575.645070
 30
0.0
 10
542.613000
 20
582.502670
 30
0.0
 10
543.005600
 20
591.567070
 30
0.0
 10
545.935700
 20
601.134770
 30
0.0
  0
SPLINE
  5
4a4
100
AcDbEntity
  8
0
 62
1
100
AcDbSpline
 70
8
 71
3
 72
8
 73
4
 74
0
 40
0
 40
0
 40
0
 40
0
 40
1
 40
1
 40
1
 40
1
 10
545.935700
 20
601.134770
 30
0.0
 10
546.229100
 20
602.092670
 30
0.0
 10
546.532700
 20
603.044770
 30
0.0
 10
546.845400
 20
603.991570
 30
0.0
  0
LWPOLYLINE
  5
4a5
100
AcDbEntity
  8
0
 62
1
100
AcDbPolyline
 90
4
 70
0
 10
552.834700
 20
567.141170
 30
0.0
 10
522.181400
 20
567.141170
 30
0.0
 10
522.181400
 20
575.645070
 30
0.0
 10
545.593900
 20
575.645070
 30
0.0
  0
SPLINE
  5
4a6
100
AcDbEntity
  8
0
 62
1
100
AcDbSpline
 70
8
 71
3
 72
8
 73
4
 74
0
 40
0
 40
0
 40
0
 40
0
 40
1
 40
1
 40
1
 40
1
 10
549.957300
 20
612.495470
 30
0.0
 10
554.024700
 20
622.612670
 30
0.0
 10
559.135600
 20
632.055670
 30
0.0
 10
564.878800
 20
640.841970
 30
0.0
  0
LWPOLYLINE
  5
4a7
100
AcDbEntity
  8
0
 62
1
100
AcDbPolyline
 90
4
 70
0
 10
546.845400
 20
603.991570
 30
0.0
 10
524.373400
 20
603.991570
 30
0.0
 10
524.373400
 20
612.495470
 30
0.0
 10
549.957300
 20
612.495470
 30
0.0
  0
SPLINE
  5
4a8
100
AcDbEntity
  8
0
 62
1
100
AcDbSpline
 70
8
 71
3
 72
8
 73
4
 74
0
 40
0
 40
0
 40
0
 40
0
 40
1
 40
1
 40
1
 40
1
 10
570.770100
 20
649.345870
 30
0.0
 10
573.025300
 20
652.426270
 30
0.0
 10
575.347700
 20
655.418270
 30
0.0
 10
577.717200
 20
658.322370
 30
0.0
  0
SPLINE
  5
4a9
100
AcDbEntity
  8
0
 62
1
100
AcDbSpline
 70
8
 71
3
 72
8
 73
4
 74
0
 40
0
 40
0
 40
0
 40
0
 40
1
 40
1
 40
1
 40
1
 10
577.717200
 20
658.322370
 30
0.0
 10
583.190900
 20
665.031170
 30
0.0
 10
588.915200
 20
671.654270
 30
0.0
 10
595.338500
 20
677.692370
 30
0.0
  0
LWPOLYLINE
  5
4aa
100
AcDbEntity
  8
0
 62
1
100
AcDbPolyline
 90
4
 70
0
 10
564.878800
 20
640.841970
 30
0.0
 10
541.060400
 20
640.841970
 30
0.0
 10
541.060400
 20
649.345870
 30
0.0
 10
570.770100
 20
649.345870
 30
0.0
  0
SPLINE
  5
4ab
100
AcDbEntity
  8
0
 62
1
100
AcDbSpline
 70
8
 71
3
 72
8
 73
4
 74
0
 40
0
 40
0
 40
0
 40
0
 40
1
 40
1
 40
1
 40
1
 10
605.482600
 20
686.196270
 30
0.0
 10
617.014800
 20
694.702770
 30
0.0
 10
630.899400
 20
701.088070
 30
0.0
 10
648.967200
 20
703.322370
 30
0.0
  0
SPLINE
  5
4ac
100
AcDbEntity
  8
0
 62
1
100
AcDbSpline
 70
8
 71
3
 72
8
 73
4
 74
0
 40
0
 40
0
 40
0
 40
0
 40
1
 40
1
 40
1
 40
1
 10
648.967200
 20
703.322370
 30
0.0
 10
667.351000
 20
705.595770
 30
0.0
 10
684.671200
 20
709.392470
 30
0.0
 10
701.109600
 20
714.542770
 30
0.0
  0
LWPOLYLINE
  5
4ad
100
AcDbEntity
  8
0
 62
1
100
AcDbPolyline
 90
4
 70
0
 10
595.338500
 20
677.692370
 30
0.0
 10
569.553200
 20
677.692370
 30
0.0
 10
569.553200
 20
686.196270
 30
0.0
 10
605.482600
 20
686.196270
 30
0.0
  0
SPLINE
  5
4ae
100
AcDbEntity
  8
0
 62
1
100
AcDbSpline
 70
8
 71
3
 72
8
 73
4
 74
0
 40
0
 40
0
 40
0
 40
0
 40
1
 40
1
 40
1
 40
1
 10
724.606000
 20
723.046670
 30
0.0
 10
743.354900
 20
730.765970
 30
0.0
 10
760.960900
 20
740.313370
 30
0.0
 10
777.737200
 20
751.393170
 30
0.0
  0
LWPOLYLINE
  5
4af
100
AcDbEntity
  8
0
 62
1
100
AcDbPolyline
 90
4
 70
0
 10
701.109600
 20
714.542770
 30
0.0
 10
648.936000
 20
714.542770
 30
0.0
 10
648.936000
 20
723.046670
 30
0.0
 10
724.606000
 20
723.046670
 30
0.0
  0
SPLINE
  5
4b0
100
AcDbEntity
  8
0
 62
1
100
AcDbSpline
 70
8
 71
3
 72
8
 73
4
 74
0
 40
0
 40
0
 40
0
 40
0
 40
1
 40
1
 40
1
 40
1
 10
790.045200
 20
759.897070
 30
0.0
 10
797.932100
 20
765.586770
 30
0.0
 10
805.644600
 20
771.614370
 30
0.0
 10
813.217600
 20
777.947570
 30
0.0
  0
SPLINE
  5
4b1
100
AcDbEntity
  8
0
 62
1
100
AcDbSpline
 70
8
 71
3
 72
8
 73
4
 74
0
 40
0
 40
0
 40
0
 40
0
 40
1
 40
1
 40
1
 40
1
 10
813.217600
 20
777.947570
 30
0.0
 10
817.102800
 20
781.196570
 30
0.0
 10
820.940000
 20
784.622870
 30
0.0
 10
824.660800
 20
788.243570
 30
0.0
  0
LWPOLYLINE
  5
4b2
100
AcDbEntity
  8
0
 62
1
100
AcDbPolyline
 90
4
 70
0
 10
777.737200
 20
751.393170
 30
0.0
 10
700.350200
 20
751.393170
 30
0.0
 10
700.350200
 20
759.897070
 30
0.0
 10
790.045200
 20
759.897070
 30
0.0
  0
SPLINE
  5
4b3
100
AcDbEntity
  8
0
 62
1
100
AcDbSpline
 70
8
 71
3
 72
8
 73
4
 74
0
 40
0
 40
0
 40
0
 40
0
 40
1
 40
1
 40
1
 40
1
 10
832.828300
 20
796.747470
 30
0.0
 10
851.755700
 20
817.902470
 30
0.0
 10
865.802800
 20
845.043070
 30
0.0
 10
864.217700
 20
880.697470
 30
0.0
  0
SPLINE
  5
4b4
100
AcDbEntity
  8
0
 62
1
100
AcDbSpline
 70
8
 71
3
 72
8
 73
4
 74
0
 40
0
 40
0
 40
0
 40
0
 40
1
 40
1
 40
1
 40
1
 10
864.217700
 20
880.697470
 30
0.0
 10
863.433600
 20
898.335770
 30
0.0
 10
859.117000
 20
912.266670
 30
0.0
 10
852.269700
 20
923.068370
 30
0.0
  0
LWPOLYLINE
  5
4b5
100
AcDbEntity
  8
0
 62
1
100
AcDbPolyline
 90
4
 70
0
 10
824.660800
 20
788.243570
 30
0.0
 10
734.625400
 20
788.243570
 30
0.0
 10
734.625400
 20
796.747470
 30
0.0
 10
832.828300
 20
796.747470
 30
0.0
  0
SPLINE
  5
4b6
100
AcDbEntity
  8
0
 62
1
100
AcDbSpline
 70
8
 71
3
 72
8
 73
4
 74
0
 40
0
 40
0
 40
0
 40
0
 40
1
 40
1
 40
1
 40
1
 10
843.765700
 20
933.710470
 30
0.0
 10
835.890000
 20
941.596770
 30
0.0
 10
826.183300
 20
947.014070
 30
0.0
 10
815.419300
 20
950.406770
 30
0.0
  0
LWPOLYLINE
  5
4b7
100
AcDbEntity
  8
0
 62
1
100
AcDbPolyline
 90
4
 70
0
 10
852.269700
 20
923.068370
 30
0.0
 10
852.269700
 20
879.205070
 30
0.0
 10
843.765700
 20
879.205070
 30
0.0
 10
843.765700
 20
933.710470
 30
0.0
  0
SPLINE
  5
4b8
100
AcDbEntity
  8
0
 62
1
100
AcDbSpline
 70
8
 71
3
 72
8
 73
4
 74
0
 40
0
 40
0
 40
0
 40
0
 40
1
 40
1
 40
1
 40
1
 10
806.915300
 20
952.630570
 30
0.0
 10
800.145900
 20
954.062070
 30
0.0
 10
793.065800
 20
954.802470
 30
0.0
 10
785.842600
 20
954.946470
 30
0.0
  0
SPLINE
  5
4b9
100
AcDbEntity
  8
0
 62
1
100
AcDbSpline
 70
8
 71
3
 72
8
 73
4
 74
0
 40
0
 40
0
 40
0
 40
0
 40
1
 40
1
 40
1
 40
1
 10
785.842600
 20
954.946470
 30
0.0
 10
783.373000
 20
954.995770
 30
0.0
 10
780.951400
 20
954.991570
 30
0.0
 10
778.568900
 20
954.943470
 30
0.0
  0
LWPOLYLINE
  5
4ba
100
AcDbEntity
  8
0
 62
1
100
AcDbPolyline
 90
4
 70
0
 10
815.419300
 20
950.406770
 30
0.0
 10
815.419300
 20
874.689470
 30
0.0
 10
806.915300
 20
874.689470
 30
0.0
 10
806.915300
 20
952.630570
 30
0.0
  0
SPLINE
  5
4bb
100
AcDbEntity
  8
0
 62
1
100
AcDbSpline
 70
8
 71
3
 72
8
 73
4
 74
0
 40
0
 40
0
 40
0
 40
0
 40
1
 40
1
 40
1
 40
1
 10
770.064900
 20
954.563970
 30
0.0
 10
759.802100
 20
953.840770
 30
0.0
 10
750.381700
 20
952.186770
 30
0.0
 10
741.718500
 20
949.735970
 30
0.0
  0
LWPOLYLINE
  5
4bc
100
AcDbEntity
  8
0
 62
1
100
AcDbPolyline
 90
4
 70
0
 10
778.568900
 20
954.943470
 30
0.0
 10
778.568900
 20
875.847570
 30
0.0
 10
770.064900
 20
875.847570
 30
0.0
 10
770.064900
 20
954.563970
 30
0.0
  0
SPLINE
  5
4bd
100
AcDbEntity
  8
0
 62
1
100
AcDbSpline
 70
8
 71
3
 72
8
 73
4
 74
0
 40
0
 40
0
 40
0
 40
0
 40
1
 40
1
 40
1
 40
1
 10
733.214600
 20
946.991770
 30
0.0
 10
722.586900
 20
943.119870
 30
0.0
 10
713.198800
 20
937.967370
 30
0.0
 10
704.868100
 20
931.819070
 30
0.0
  0
LWPOLYLINE
  5
4be
100
AcDbEntity
  8
0
 62
1
100
AcDbPolyline
 90
4
 70
0
 10
741.718500
 20
949.735970
 30
0.0
 10
741.718500
 20
873.244170
 30
0.0
 10
733.214600
 20
873.244170
 30
0.0
 10
733.214600
 20
946.991770
 30
0.0
  0
SPLINE
  5
4bf
100
AcDbEntity
  8
0
 62
1
100
AcDbSpline
 70
8
 71
3
 72
8
 73
4
 74
0
 40
0
 40
0
 40
0
 40
0
 40
1
 40
1
 40
1
 40
1
 10
696.364200
 20
924.884670
 30
0.0
 10
682.494800
 20
912.435470
 30
0.0
 10
671.934900
 20
897.006470
 30
0.0
 10
663.592500
 20
880.321970
 30
0.0
  0
SPLINE
  5
4c0
100
AcDbEntity
  8
0
 62
1
100
AcDbSpline
 70
8
 71
3
 72
8
 73
4
 74
0
 40
0
 40
0
 40
0
 40
0
 40
1
 40
1
 40
1
 40
1
 10
663.592500
 20
880.321970
 30
0.0
 10
656.466000
 20
866.068570
 30
0.0
 10
651.771500
 20
850.374570
 30
0.0
 10
649.717200
 20
834.571670
 30
0.0
  0
SPLINE
  5
4c1
100
AcDbEntity
  8
0
 62
1
100
AcDbSpline
 70
8
 71
3
 72
8
 73
4
 74
0
 40
0
 40
0
 40
0
 40
0
 40
1
 40
1
 40
1
 40
1
 10
649.717200
 20
834.571670
 30
0.0
 10
646.393900
 20
809.007170
 30
0.0
 10
628.541900
 20
778.104970
 30
0.0
 10
600.217200
 20
748.321370
 30
0.0
  0
SPLINE
  5
4c2
100
AcDbEntity
  8
0
 62
1
100
AcDbSpline
 70
8
 71
3
 72
8
 73
4
 74
0
 40
0
 40
0
 40
0
 40
0
 40
1
 40
1
 40
1
 40
1
 10
600.217200
 20
748.321370
 30
0.0
 10
588.985800
 20
736.511370
 30
0.0
 10
577.176100
 20
724.884770
 30
0.0
 10
563.466900
 20
716.070770
 30
0.0
  0
SPLINE
  5
4c3
100
AcDbEntity
  8
0
 62
1
100
AcDbSpline
 70
8
 71
3
 72
8
 73
4
 74
0
 40
0
 40
0
 40
0
 40
0
 40
1
 40
1
 40
1
 40
1
 10
563.466900
 20
716.070770
 30
0.0
 10
533.689500
 20
696.925870
 30
0.0
 10
517.270700
 20
668.893970
 30
0.0
 10
504.217100
 20
630.195970
 30
0.0
  0
SPLINE
  5
4c4
100
AcDbEntity
  8
0
 62
1
100
AcDbSpline
 70
8
 71
3
 72
8
 73
4
 74
0
 40
0
 40
0
 40
0
 40
0
 40
1
 40
1
 40
1
 40
1
 10
504.217100
 20
630.195970
 30
0.0
 10
490.835600
 20
590.524870
 30
0.0
 10
486.045400
 20
552.381270
 30
0.0
 10
493.783900
 20
512.862370
 30
0.0
  0
SPLINE
  5
4c5
100
AcDbEntity
  8
0
 62
1
100
AcDbSpline
 70
8
 71
3
 72
8
 73
4
 74
0
 40
0
 40
0
 40
0
 40
0
 40
1
 40
1
 40
1
 40
1
 10
493.783900
 20
512.862370
 30
0.0
 10
494.573100
 20
508.831770
 30
0.0
 10
498.022300
 20
505.992570
 30
0.0
 10
502.129400
 20
505.992570
 30
0.0
  0
LWPOLYLINE
  5
4c6
100
AcDbEntity
  8
0
 62
1
100
AcDbPolyline
 90
4
 70
0
 10
704.868100
 20
931.819070
 30
0.0
 10
704.868100
 20
864.283870
 30
0.0
 10
696.364200
 20
864.283870
 30
0.0
 10
696.364200
 20
924.884670
 30
0.0
  0
SPLINE
  5
4c7
100
AcDbEntity
  8
0
 62
1
100
AcDbSpline
 70
8
 71
3
 72
8
 73
4
 74
0
 40
0
 40
0
 40
0
 40
0
 40
1
 40
1
 40
1
 40
1
 10
580.231300
 20
505.992570
 30
0.0
 10
583.217600
 20
505.992570
 30
0.0
 10
585.784100
 20
507.397470
 30
0.0
 10
587.393900
 20
509.912670
 30
0.0
  0
LWPOLYLINE
  5
4c8
100
AcDbEntity
  8
0
 62
1
100
AcDbPolyline
 90
2
 70
0
 10
502.129400
 20
505.992570
 30
0.0
 10
580.231300
 20
505.992570
 30
0.0
  0
SPLINE
  5
4c9
100
AcDbEntity
  8
0
 62
1
100
AcDbSpline
 70
8
 71
3
 72
8
 73
4
 74
0
 40
0
 40
0
 40
0
 40
0
 40
1
 40
1
 40
1
 40
1
 10
587.393900
 20
2694.783670
 30
0.0
 10
589.623600
 20
2691.299670
 30
0.0
 10
591.718100
 20
2687.741570
 30
0.0
 10
593.467700
 20
2683.997870
 30
0.0
  0
SPLINE
  5
4ca
100
AcDbEntity
  8
0
 62
1
100
AcDbSpline
 70
8
 71
3
 72
8
 73
4
 74
0
 40
0
 40
0
 40
0
 40
0
 40
1
 40
1
 40
1
 40
1
 10
593.467700
 20
2683.997870
 30
0.0
 10
595.056200
 20
2680.598270
 30
0.0
 10
596.068400
 20
2677.388070
 30
0.0
 10
596.445200
 20
2674.405170
 30
0.0
  0
LWPOLYLINE
  5
4cb
100
AcDbEntity
  8
0
 62
1
100
AcDbPolyline
 90
2
 70
0
 10
587.393900
 20
509.912670
 30
0.0
 10
587.393900
 20
509.912270
 30
0.0
  0
SPLINE
  5
4cc
100
AcDbEntity
  8
0
 62
1
100
AcDbSpline
 70
8
 71
3
 72
8
 73
4
 74
0
 40
0
 40
0
 40
0
 40
0
 40
1
 40
1
 40
1
 40
1
 10
595.506900
 20
2665.901170
 30
0.0
 10
593.990100
 20
2662.152370
 30
0.0
 10
590.878200
 20
2659.015570
 30
0.0
 10
585.967700
 20
2656.623170
 30
0.0
  0
SPLINE
  5
4cd
100
AcDbEntity
  8
0
 62
1
100
AcDbSpline
 70
8
 71
3
 72
8
 73
4
 74
0
 40
0
 40
0
 40
0
 40
0
 40
1
 40
1
 40
1
 40
1
 10
585.967700
 20
2656.623170
 30
0.0
 10
572.168400
 20
2649.900470
 30
0.0
 10
565.810600
 20
2645.754270
 30
0.0
 10
552.834700
 20
2637.554770
 30
0.0
  0
LWPOLYLINE
  5
4ce
100
AcDbEntity
  8
0
 62
1
100
AcDbPolyline
 90
4
 70
0
 10
596.445200
 20
2674.405170
 30
0.0
 10
543.802700
 20
2674.405170
 30
0.0
 10
543.802700
 20
2665.901170
 30
0.0
 10
595.506900
 20
2665.901170
 30
0.0
  0
SPLINE
  5
4cf
100
AcDbEntity
  8
0
 62
1
100
AcDbSpline
 70
8
 71
3
 72
8
 73
4
 74
0
 40
0
 40
0
 40
0
 40
0
 40
1
 40
1
 40
1
 40
1
 10
545.593900
 20
2629.050770
 30
0.0
 10
542.613000
 20
2622.193270
 30
0.0
 10
543.005600
 20
2613.128870
 30
0.0
 10
545.935700
 20
2603.561070
 30
0.0
  0
SPLINE
  5
4d0
100
AcDbEntity
  8
0
 62
1
100
AcDbSpline
 70
8
 71
3
 72
8
 73
4
 74
0
 40
0
 40
0
 40
0
 40
0
 40
1
 40
1
 40
1
 40
1
 10
545.935700
 20
2603.561070
 30
0.0
 10
546.229100
 20
2602.603270
 30
0.0
 10
546.532700
 20
2601.651170
 30
0.0
 10
546.845400
 20
2600.704370
 30
0.0
  0
LWPOLYLINE
  5
4d1
100
AcDbEntity
  8
0
 62
1
100
AcDbPolyline
 90
4
 70
0
 10
552.834700
 20
2637.554770
 30
0.0
 10
522.181400
 20
2637.554770
 30
0.0
 10
522.181400
 20
2629.050770
 30
0.0
 10
545.593900
 20
2629.050770
 30
0.0
  0
SPLINE
  5
4d2
100
AcDbEntity
  8
0
 62
1
100
AcDbSpline
 70
8
 71
3
 72
8
 73
4
 74
0
 40
0
 40
0
 40
0
 40
0
 40
1
 40
1
 40
1
 40
1
 10
549.957300
 20
2592.200370
 30
0.0
 10
554.024700
 20
2582.083270
 30
0.0
 10
559.135600
 20
2572.640270
 30
0.0
 10
564.878800
 20
2563.853970
 30
0.0
  0
LWPOLYLINE
  5
4d3
100
AcDbEntity
  8
0
 62
1
100
AcDbPolyline
 90
4
 70
0
 10
546.845400
 20
2600.704370
 30
0.0
 10
524.373400
 20
2600.704370
 30
0.0
 10
524.373400
 20
2592.200370
 30
0.0
 10
549.957300
 20
2592.200370
 30
0.0
  0
SPLINE
  5
4d4
100
AcDbEntity
  8
0
 62
1
100
AcDbSpline
 70
8
 71
3
 72
8
 73
4
 74
0
 40
0
 40
0
 40
0
 40
0
 40
1
 40
1
 40
1
 40
1
 10
570.770100
 20
2555.350070
 30
0.0
 10
573.025300
 20
2552.269570
 30
0.0
 10
575.347700
 20
2549.277670
 30
0.0
 10
577.717200
 20
2546.373570
 30
0.0
  0
SPLINE
  5
4d5
100
AcDbEntity
  8
0
 62
1
100
AcDbSpline
 70
8
 71
3
 72
8
 73
4
 74
0
 40
0
 40
0
 40
0
 40
0
 40
1
 40
1
 40
1
 40
1
 10
577.717200
 20
2546.373570
 30
0.0
 10
583.190900
 20
2539.664770
 30
0.0
 10
588.915200
 20
2533.041670
 30
0.0
 10
595.338500
 20
2527.003570
 30
0.0
  0
LWPOLYLINE
  5
4d6
100
AcDbEntity
  8
0
 62
1
100
AcDbPolyline
 90
4
 70
0
 10
564.878800
 20
2563.853970
 30
0.0
 10
541.060400
 20
2563.853970
 30
0.0
 10
541.060400
 20
2555.350070
 30
0.0
 10
570.770100
 20
2555.350070
 30
0.0
  0
SPLINE
  5
4d7
100
AcDbEntity
  8
0
 62
1
100
AcDbSpline
 70
8
 71
3
 72
8
 73
4
 74
0
 40
0
 40
0
 40
0
 40
0
 40
1
 40
1
 40
1
 40
1
 10
605.482600
 20
2518.499670
 30
0.0
 10
617.014800
 20
2509.993170
 30
0.0
 10
630.899400
 20
2503.607770
 30
0.0
 10
648.967200
 20
2501.373570
 30
0.0
  0
SPLINE
  5
4d8
100
AcDbEntity
  8
0
 62
1
100
AcDbSpline
 70
8
 71
3
 72
8
 73
4
 74
0
 40
0
 40
0
 40
0
 40
0
 40
1
 40
1
 40
1
 40
1
 10
648.967200
 20
2501.373570
 30
0.0
 10
667.351000
 20
2499.100170
 30
0.0
 10
684.671200
 20
2495.303470
 30
0.0
 10
701.109600
 20
2490.153170
 30
0.0
  0
LWPOLYLINE
  5
4d9
100
AcDbEntity
  8
0
 62
1
100
AcDbPolyline
 90
4
 70
0
 10
595.338500
 20
2527.003570
 30
0.0
 10
569.553200
 20
2527.003570
 30
0.0
 10
569.553200
 20
2518.499670
 30
0.0
 10
605.482600
 20
2518.499670
 30
0.0
  0
SPLINE
  5
4da
100
AcDbEntity
  8
0
 62
1
100
AcDbSpline
 70
8
 71
3
 72
8
 73
4
 74
0
 40
0
 40
0
 40
0
 40
0
 40
1
 40
1
 40
1
 40
1
 10
724.606000
 20
2481.649270
 30
0.0
 10
743.354900
 20
2473.929970
 30
0.0
 10
760.960900
 20
2464.382570
 30
0.0
 10
777.737200
 20
2453.302770
 30
0.0
  0
LWPOLYLINE
  5
4db
100
AcDbEntity
  8
0
 62
1
100
AcDbPolyline
 90
4
 70
0
 10
701.109600
 20
2490.153170
 30
0.0
 10
648.936000
 20
2490.153170
 30
0.0
 10
648.936000
 20
2481.649270
 30
0.0
 10
724.606000
 20
2481.649270
 30
0.0
  0
SPLINE
  5
4dc
100
AcDbEntity
  8
0
 62
1
100
AcDbSpline
 70
8
 71
3
 72
8
 73
4
 74
0
 40
0
 40
0
 40
0
 40
0
 40
1
 40
1
 40
1
 40
1
 10
790.045200
 20
2444.798870
 30
0.0
 10
797.932100
 20
2439.109170
 30
0.0
 10
805.644600
 20
2433.081570
 30
0.0
 10
813.217600
 20
2426.748370
 30
0.0
  0
SPLINE
  5
4dd
100
AcDbEntity
  8
0
 62
1
100
AcDbSpline
 70
8
 71
3
 72
8
 73
4
 74
0
 40
0
 40
0
 40
0
 40
0
 40
1
 40
1
 40
1
 40
1
 10
813.217600
 20
2426.748370
 30
0.0
 10
817.102800
 20
2423.499270
 30
0.0
 10
820.940000
 20
2420.073070
 30
0.0
 10
824.660800
 20
2416.452370
 30
0.0
  0
LWPOLYLINE
  5
4de
100
AcDbEntity
  8
0
 62
1
100
AcDbPolyline
 90
4
 70
0
 10
777.737200
 20
2453.302770
 30
0.0
 10
700.350200
 20
2453.302770
 30
0.0
 10
700.350200
 20
2444.798870
 30
0.0
 10
790.045200
 20
2444.798870
 30
0.0
  0
SPLINE
  5
4df
100
AcDbEntity
  8
0
 62
1
100
AcDbSpline
 70
8
 71
3
 72
8
 73
4
 74
0
 40
0
 40
0
 40
0
 40
0
 40
1
 40
1
 40
1
 40
1
 10
832.828300
 20
2407.948470
 30
0.0
 10
851.755700
 20
2386.793470
 30
0.0
 10
865.802800
 20
2359.652870
 30
0.0
 10
864.217700
 20
2323.998470
 30
0.0
  0
SPLINE
  5
4e0
100
AcDbEntity
  8
0
 62
1
100
AcDbSpline
 70
8
 71
3
 72
8
 73
4
 74
0
 40
0
 40
0
 40
0
 40
0
 40
1
 40
1
 40
1
 40
1
 10
864.217700
 20
2323.998470
 30
0.0
 10
863.433600
 20
2306.360170
 30
0.0
 10
859.117000
 20
2292.429270
 30
0.0
 10
852.269700
 20
2281.627570
 30
0.0
  0
LWPOLYLINE
  5
4e1
100
AcDbEntity
  8
0
 62
1
100
AcDbPolyline
 90
4
 70
0
 10
824.660800
 20
2416.452370
 30
0.0
 10
734.625400
 20
2416.452370
 30
0.0
 10
734.625400
 20
2407.948470
 30
0.0
 10
832.828300
 20
2407.948470
 30
0.0
  0
SPLINE
  5
4e2
100
AcDbEntity
  8
0
 62
1
100
AcDbSpline
 70
8
 71
3
 72
8
 73
4
 74
0
 40
0
 40
0
 40
0
 40
0
 40
1
 40
1
 40
1
 40
1
 10
843.765700
 20
2270.985470
 30
0.0
 10
835.890000
 20
2263.099170
 30
0.0
 10
826.183300
 20
2257.681870
 30
0.0
 10
815.419300
 20
2254.289070
 30
0.0
  0
LWPOLYLINE
  5
4e3
100
AcDbEntity
  8
0
 62
1
100
AcDbPolyline
 90
4
 70
0
 10
852.269700
 20
2281.627570
 30
0.0
 10
852.269700
 20
2325.490870
 30
0.0
 10
843.765700
 20
2325.490870
 30
0.0
 10
843.765700
 20
2270.985470
 30
0.0
  0
SPLINE
  5
4e4
100
AcDbEntity
  8
0
 62
1
100
AcDbSpline
 70
8
 71
3
 72
8
 73
4
 74
0
 40
0
 40
0
 40
0
 40
0
 40
1
 40
1
 40
1
 40
1
 10
806.915300
 20
2252.065370
 30
0.0
 10
800.145900
 20
2250.633870
 30
0.0
 10
793.065800
 20
2249.893470
 30
0.0
 10
785.842600
 20
2249.749470
 30
0.0
  0
SPLINE
  5
4e5
100
AcDbEntity
  8
0
 62
1
100
AcDbSpline
 70
8
 71
3
 72
8
 73
4
 74
0
 40
0
 40
0
 40
0
 40
0
 40
1
 40
1
 40
1
 40
1
 10
785.842600
 20
2249.749470
 30
0.0
 10
783.373000
 20
2249.700470
 30
0.0
 10
780.951400
 20
2249.704470
 30
0.0
 10
778.568900
 20
2249.749470
 30
0.0
  0
LWPOLYLINE
  5
4e6
100
AcDbEntity
  8
0
 62
1
100
AcDbPolyline
 90
4
 70
0
 10
815.419300
 20
2254.289070
 30
0.0
 10
815.419300
 20
2330.006470
 30
0.0
 10
806.915300
 20
2330.006470
 30
0.0
 10
806.915300
 20
2252.065370
 30
0.0
  0
SPLINE
  5
4e7
100
AcDbEntity
  8
0
 62
1
100
AcDbSpline
 70
8
 71
3
 72
8
 73
4
 74
0
 40
0
 40
0
 40
0
 40
0
 40
1
 40
1
 40
1
 40
1
 10
770.064900
 20
2250.128970
 30
0.0
 10
759.802100
 20
2250.852070
 30
0.0
 10
750.381700
 20
2252.506070
 30
0.0
 10
741.718500
 20
2254.956970
 30
0.0
  0
LWPOLYLINE
  5
4e8
100
AcDbEntity
  8
0
 62
1
100
AcDbPolyline
 90
4
 70
0
 10
778.568900
 20
2249.749470
 30
0.0
 10
778.568900
 20
2328.845370
 30
0.0
 10
770.064900
 20
2328.845370
 30
0.0
 10
770.064900
 20
2250.128970
 30
0.0
  0
SPLINE
  5
4e9
100
AcDbEntity
  8
0
 62
1
100
AcDbSpline
 70
8
 71
3
 72
8
 73
4
 74
0
 40
0
 40
0
 40
0
 40
0
 40
1
 40
1
 40
1
 40
1
 10
733.214600
 20
2257.701170
 30
0.0
 10
722.586900
 20
2261.572970
 30
0.0
 10
713.198800
 20
2266.725570
 30
0.0
 10
704.868100
 20
2272.873870
 30
0.0
  0
LWPOLYLINE
  5
4ea
100
AcDbEntity
  8
0
 62
1
100
AcDbPolyline
 90
4
 70
0
 10
741.718500
 20
2254.956970
 30
0.0
 10
741.718500
 20
2331.448770
 30
0.0
 10
733.214600
 20
2331.448770
 30
0.0
 10
733.214600
 20
2257.701170
 30
0.0
  0
SPLINE
  5
4eb
100
AcDbEntity
  8
0
 62
1
100
AcDbSpline
 70
8
 71
3
 72
8
 73
4
 74
0
 40
0
 40
0
 40
0
 40
0
 40
1
 40
1
 40
1
 40
1
 10
696.364200
 20
2279.808270
 30
0.0
 10
682.494800
 20
2292.257470
 30
0.0
 10
671.934900
 20
2307.686470
 30
0.0
 10
663.592500
 20
2324.370870
 30
0.0
  0
SPLINE
  5
4ec
100
AcDbEntity
  8
0
 62
1
100
AcDbSpline
 70
8
 71
3
 72
8
 73
4
 74
0
 40
0
 40
0
 40
0
 40
0
 40
1
 40
1
 40
1
 40
1
 10
663.592500
 20
2324.370870
 30
0.0
 10
656.466000
 20
2338.624370
 30
0.0
 10
651.771500
 20
2354.318370
 30
0.0
 10
649.717200
 20
2370.121270
 30
0.0
  0
SPLINE
  5
4ed
100
AcDbEntity
  8
0
 62
1
100
AcDbSpline
 70
8
 71
3
 72
8
 73
4
 74
0
 40
0
 40
0
 40
0
 40
0
 40
1
 40
1
 40
1
 40
1
 10
649.717200
 20
2370.121270
 30
0.0
 10
646.393900
 20
2395.685770
 30
0.0
 10
628.541900
 20
2426.587970
 30
0.0
 10
600.217200
 20
2456.371570
 30
0.0
  0
SPLINE
  5
4ee
100
AcDbEntity
  8
0
 62
1
100
AcDbSpline
 70
8
 71
3
 72
8
 73
4
 74
0
 40
0
 40
0
 40
0
 40
0
 40
1
 40
1
 40
1
 40
1
 10
600.217200
 20
2456.371570
 30
0.0
 10
588.985800
 20
2468.181570
 30
0.0
 10
577.176100
 20
2479.808170
 30
0.0
 10
563.466900
 20
2488.622170
 30
0.0
  0
SPLINE
  5
4ef
100
AcDbEntity
  8
0
 62
1
100
AcDbSpline
 70
8
 71
3
 72
8
 73
4
 74
0
 40
0
 40
0
 40
0
 40
0
 40
1
 40
1
 40
1
 40
1
 10
563.466900
 20
2488.622170
 30
0.0
 10
533.689500
 20
2507.767070
 30
0.0
 10
517.270700
 20
2535.798870
 30
0.0
 10
504.217100
 20
2574.496970
 30
0.0
  0
SPLINE
  5
4f0
100
AcDbEntity
  8
0
 62
1
100
AcDbSpline
 70
8
 71
3
 72
8
 73
4
 74
0
 40
0
 40
0
 40
0
 40
0
 40
1
 40
1
 40
1
 40
1
 10
504.217100
 20
2574.496970
 30
0.0
 10
490.835600
 20
2614.168070
 30
0.0
 10
486.045400
 20
2652.311670
 30
0.0
 10
493.783900
 20
2691.830570
 30
0.0
  0
SPLINE
  5
4f1
100
AcDbEntity
  8
0
 62
1
100
AcDbSpline
 70
8
 71
3
 72
8
 73
4
 74
0
 40
0
 40
0
 40
0
 40
0
 40
1
 40
1
 40
1
 40
1
 10
493.783900
 20
2691.830570
 30
0.0
 10
494.573100
 20
2695.861170
 30
0.0
 10
498.022300
 20
2698.700370
 30
0.0
 10
502.129400
 20
2698.700370
 30
0.0
  0
LWPOLYLINE
  5
4f2
100
AcDbEntity
  8
0
 62
1
100
AcDbPolyline
 90
4
 70
0
 10
704.868100
 20
2272.873870
 30
0.0
 10
704.868100
 20
2340.409070
 30
0.0
 10
696.364200
 20
2340.409070
 30
0.0
 10
696.364200
 20
2279.808270
 30
0.0
  0
SPLINE
  5
4f3
100
AcDbEntity
  8
0
 62
1
100
AcDbSpline
 70
8
 71
3
 72
8
 73
4
 74
0
 40
0
 40
0
 40
0
 40
0
 40
1
 40
1
 40
1
 40
1
 10
580.231300
 20
2698.700370
 30
0.0
 10
583.217600
 20
2698.700370
 30
0.0
 10
585.784100
 20
2697.295470
 30
0.0
 10
587.393900
 20
2694.780270
 30
0.0
  0
LWPOLYLINE
  5
4f4
100
AcDbEntity
  8
0
 62
1
100
AcDbPolyline
 90
2
 70
0
 10
502.129400
 20
2698.700370
 30
0.0
 10
580.231300
 20
2698.700370
 30
0.0
  0
SPLINE
  5
4f5
100
AcDbEntity
  8
0
 62
1
100
AcDbSpline
 70
8
 71
3
 72
8
 73
4
 74
0
 40
0
 40
0
 40
0
 40
0
 40
1
 40
1
 40
1
 40
1
 10
1104.625400
 20
1946.534470
 30
0.0
 10
1115.317700
 20
1947.035370
 30
0.0
 10
1125.572600
 20
1947.871870
 30
0.0
 10
1136.216400
 20
1948.985870
 30
0.0
  0
SPLINE
  5
4f6
100
AcDbEntity
  8
0
 62
1
100
AcDbSpline
 70
8
 71
3
 72
8
 73
4
 74
0
 40
0
 40
0
 40
0
 40
0
 40
1
 40
1
 40
1
 40
1
 10
1136.216400
 20
1948.985870
 30
0.0
 10
1150.543300
 20
1950.485070
 30
0.0
 10
1164.456900
 20
1952.113870
 30
0.0
 10
1178.325900
 20
1953.731670
 30
0.0
  0
LWPOLYLINE
  5
4f7
100
AcDbEntity
  8
0
 62
1
100
AcDbPolyline
 90
2
 70
0
 10
587.393900
 20
2694.780270
 30
0.0
 10
587.393900
 20
2694.783670
 30
0.0
  0
SPLINE
  5
4f8
100
AcDbEntity
  8
0
 62
1
100
AcDbSpline
 70
8
 71
3
 72
8
 73
4
 74
0
 40
0
 40
0
 40
0
 40
0
 40
1
 40
1
 40
1
 40
1
 10
1186.829900
 20
1954.721170
 30
0.0
 10
1196.225900
 20
1955.810570
 30
0.0
 10
1205.636300
 20
1956.881770
 30
0.0
 10
1215.176300
 20
1957.891170
 30
0.0
  0
LWPOLYLINE
  5
4f9
100
AcDbEntity
  8
0
 62
1
100
AcDbPolyline
 90
4
 70
0
 10
1178.325900
 20
1953.731670
 30
0.0
 10
1178.325900
 20
1828.956770
 30
0.0
 10
1186.829900
 20
1828.956770
 30
0.0
 10
1186.829900
 20
1954.721170
 30
0.0
  0
SPLINE
  5
4fa
100
AcDbEntity
  8
0
 62
1
100
AcDbSpline
 70
8
 71
3
 72
8
 73
4
 74
0
 40
0
 40
0
 40
0
 40
0
 40
1
 40
1
 40
1
 40
1
 10
1223.680300
 20
1958.769970
 30
0.0
 10
1226.110400
 20
1959.014570
 30
0.0
 10
1228.550500
 20
1959.254370
 30
0.0
 10
1231.003300
 20
1959.488770
 30
0.0
  0
SPLINE
  5
4fb
100
AcDbEntity
  8
0
 62
1
100
AcDbSpline
 70
8
 71
3
 72
8
 73
4
 74
0
 40
0
 40
0
 40
0
 40
0
 40
1
 40
1
 40
1
 40
1
 10
1231.003300
 20
1959.488770
 30
0.0
 10
1237.894000
 20
1960.147570
 30
0.0
 10
1244.928800
 20
1960.681370
 30
0.0
 10
1252.026700
 20
1961.167470
 30
0.0
  0
LWPOLYLINE
  5
4fc
100
AcDbEntity
  8
0
 62
1
100
AcDbPolyline
 90
4
 70
0
 10
1215.176300
 20
1957.891170
 30
0.0
 10
1215.176300
 20
1827.102070
 30
0.0
 10
1223.680300
 20
1827.102070
 30
0.0
 10
1223.680300
 20
1958.769970
 30
0.0
  0
SPLINE
  5
4fd
100
AcDbEntity
  8
0
 62
1
100
AcDbSpline
 70
8
 71
3
 72
8
 73
4
 74
0
 40
0
 40
0
 40
0
 40
0
 40
1
 40
1
 40
1
 40
1
 10
1260.530600
 20
1961.730470
 30
0.0
 10
1269.988400
 20
1962.340470
 30
0.0
 10
1279.500400
 20
1962.920170
 30
0.0
 10
1288.877100
 20
1963.648870
 30
0.0
  0
LWPOLYLINE
  5
4fe
100
AcDbEntity
  8
0
 62
1
100
AcDbPolyline
 90
4
 70
0
 10
1252.026700
 20
1961.167470
 30
0.0
 10
1252.026700
 20
1829.416870
 30
0.0
 10
1260.530600
 20
1829.416870
 30
0.0
 10
1260.530600
 20
1961.730470
 30
0.0
  0
SPLINE
  5
4ff
100
AcDbEntity
  8
0
 62
1
100
AcDbSpline
 70
8
 71
3
 72
8
 73
4
 74
0
 40
0
 40
0
 40
0
 40
0
 40
1
 40
1
 40
1
 40
1
 10
1297.381000
 20
1964.359270
 30
0.0
 10
1300.617100
 20
1964.650970
 30
0.0
 10
1303.830100
 20
1964.966770
 30
0.0
 10
1307.011500
 20
1965.315370
 30
0.0
  0
SPLINE
  5
500
100
AcDbEntity
  8
0
 62
1
100
AcDbSpline
 70
8
 71
3
 72
8
 73
4
 74
0
 40
0
 40
0
 40
0
 40
0
 40
1
 40
1
 40
1
 40
1
 10
1307.011500
 20
1965.315370
 30
0.0
 10
1313.234100
 20
1965.997170
 30
0.0
 10
1319.483600
 20
1966.693070
 30
0.0
 10
1325.727500
 20
1967.477970
 30
0.0
  0
LWPOLYLINE
  5
501
100
AcDbEntity
  8
0
 62
1
100
AcDbPolyline
 90
4
 70
0
 10
1288.877100
 20
1963.648870
 30
0.0
 10
1288.877100
 20
1831.101470
 30
0.0
 10
1297.381000
 20
1831.101470
 30
0.0
 10
1297.381000
 20
1964.359270
 30
0.0
  0
SPLINE
  5
502
100
AcDbEntity
  8
0
 62
1
100
AcDbSpline
 70
8
 71
3
 72
8
 73
4
 74
0
 40
0
 40
0
 40
0
 40
0
 40
1
 40
1
 40
1
 40
1
 10
1334.231400
 20
1968.610370
 30
0.0
 10
1343.764300
 20
1969.959370
 30
0.0
 10
1353.250800
 20
1971.597870
 30
0.0
 10
1362.577900
 20
1973.797270
 30
0.0
  0
LWPOLYLINE
  5
503
100
AcDbEntity
  8
0
 62
1
100
AcDbPolyline
 90
4
 70
0
 10
1325.727500
 20
1967.477970
 30
0.0
 10
1325.727500
 20
1831.949570
 30
0.0
 10
1334.231400
 20
1831.949570
 30
0.0
 10
1334.231400
 20
1968.610370
 30
0.0
  0
SPLINE
  5
504
100
AcDbEntity
  8
0
 62
1
100
AcDbSpline
 70
8
 71
3
 72
8
 73
4
 74
0
 40
0
 40
0
 40
0
 40
0
 40
1
 40
1
 40
1
 40
1
 10
1371.081800
 20
1975.979070
 30
0.0
 10
1375.633400
 20
1977.246670
 30
0.0
 10
1380.138000
 20
1978.670570
 30
0.0
 10
1384.581000
 20
1980.284870
 30
0.0
  0
SPLINE
  5
505
100
AcDbEntity
  8
0
 62
1
100
AcDbSpline
 70
8
 71
3
 72
8
 73
4
 74
0
 40
0
 40
0
 40
0
 40
0
 40
1
 40
1
 40
1
 40
1
 10
1384.581000
 20
1980.284870
 30
0.0
 10
1389.570200
 20
1982.097670
 30
0.0
 10
1394.518700
 20
1984.001970
 30
0.0
 10
1399.428300
 20
1985.989870
 30
0.0
  0
LWPOLYLINE
  5
506
100
AcDbEntity
  8
0
 62
1
100
AcDbPolyline
 90
4
 70
0
 10
1362.577900
 20
1973.797270
 30
0.0
 10
1362.577900
 20
1831.615370
 30
0.0
 10
1371.081800
 20
1831.615370
 30
0.0
 10
1371.081800
 20
1975.979070
 30
0.0
  0
SPLINE
  5
507
100
AcDbEntity
  8
0
 62
1
100
AcDbSpline
 70
8
 71
3
 72
8
 73
4
 74
0
 40
0
 40
0
 40
0
 40
0
 40
1
 40
1
 40
1
 40
1
 10
1407.932200
 20
1989.530970
 30
0.0
 10
1417.514200
 20
1993.629870
 30
0.0
 10
1426.954700
 20
1998.034270
 30
0.0
 10
1436.278700
 20
2002.683970
 30
0.0
  0
LWPOLYLINE
  5
508
100
AcDbEntity
  8
0
 62
1
100
AcDbPolyline
 90
4
 70
0
 10
1399.428300
 20
1985.989870
 30
0.0
 10
1399.428300
 20
1832.867170
 30
0.0
 10
1407.932200
 20
1832.867170
 30
0.0
 10
1407.932200
 20
1989.530970
 30
0.0
  0
SPLINE
  5
509
100
AcDbEntity
  8
0
 62
1
100
AcDbSpline
 70
8
 71
3
 72
8
 73
4
 74
0
 40
0
 40
0
 40
0
 40
0
 40
1
 40
1
 40
1
 40
1
 10
1444.782600
 20
2007.007370
 30
0.0
 10
1454.339300
 20
2011.957470
 30
0.0
 10
1463.779300
 20
2017.149170
 30
0.0
 10
1473.129100
 20
2022.516270
 30
0.0
  0
LWPOLYLINE
  5
50a
100
AcDbEntity
  8
0
 62
1
100
AcDbPolyline
 90
4
 70
0
 10
1436.278700
 20
2002.683970
 30
0.0
 10
1436.278700
 20
1836.501170
 30
0.0
 10
1444.782600
 20
1836.501170
 30
0.0
 10
1444.782600
 20
2007.007370
 30
0.0
  0
SPLINE
  5
50b
100
AcDbEntity
  8
0
 62
1
100
AcDbSpline
 70
8
 71
3
 72
8
 73
4
 74
0
 40
0
 40
0
 40
0
 40
0
 40
1
 40
1
 40
1
 40
1
 10
1481.633000
 20
2027.458470
 30
0.0
 10
1485.128700
 20
2029.514470
 30
0.0
 10
1488.613300
 20
2031.591670
 30
0.0
 10
1492.087500
 20
2033.687870
 30
0.0
  0
LWPOLYLINE
  5
50c
100
AcDbEntity
  8
0
 62
1
100
AcDbPolyline
 90
4
 70
0
 10
1473.129100
 20
2022.516270
 30
0.0
 10
1473.129100
 20
1843.152970
 30
0.0
 10
1481.633000
 20
1843.152970
 30
0.0
 10
1481.633000
 20
2027.458470
 30
0.0
  0
SPLINE
  5
50d
100
AcDbEntity
  8
0
 62
1
100
AcDbSpline
 70
8
 71
3
 72
8
 73
4
 74
0
 40
0
 40
0
 40
0
 40
0
 40
1
 40
1
 40
1
 40
1
 10
1499.562700
 20
2038.234070
 30
0.0
 10
1507.780900
 20
2043.270970
 30
0.0
 10
1515.947500
 20
2048.396570
 30
0.0
 10
1524.081300
 20
2053.564770
 30
0.0
  0
LWPOLYLINE
  5
50e
100
AcDbEntity
  8
0
 62
1
100
AcDbPolyline
 90
4
 70
0
 10
1492.087500
 20
2033.687870
 30
0.0
 10
1581.295200
 20
1944.475370
 30
0.0
 10
1587.308300
 20
1950.488770
 30
0.0
 10
1499.562700
 20
2038.234070
 30
0.0
  0
SPLINE
  5
50f
100
AcDbEntity
  8
0
 62
1
100
AcDbSpline
 70
8
 71
3
 72
8
 73
4
 74
0
 40
0
 40
0
 40
0
 40
0
 40
1
 40
1
 40
1
 40
1
 10
1531.424700
 20
2058.246170
 30
0.0
 10
1533.169700
 20
2059.361870
 30
0.0
 10
1534.914100
 20
2060.478670
 30
0.0
 10
1536.656900
 20
2061.596670
 30
0.0
  0
SPLINE
  5
510
100
AcDbEntity
  8
0
 62
1
100
AcDbSpline
 70
8
 71
3
 72
8
 73
4
 74
0
 40
0
 40
0
 40
0
 40
0
 40
1
 40
1
 40
1
 40
1
 10
1536.656900
 20
2061.596670
 30
0.0
 10
1543.045900
 20
2065.694770
 30
0.0
 10
1549.509700
 20
2069.655570
 30
0.0
 10
1556.051800
 20
2073.466470
 30
0.0
  0
LWPOLYLINE
  5
511
100
AcDbEntity
  8
0
 62
1
100
AcDbPolyline
 90
4
 70
0
 10
1524.081300
 20
2053.564770
 30
0.0
 10
1605.570500
 20
1972.074070
 30
0.0
 10
1611.583700
 20
1978.087470
 30
0.0
 10
1531.424700
 20
2058.246170
 30
0.0
  0
SPLINE
  5
512
100
AcDbEntity
  8
0
 62
1
100
AcDbSpline
 70
8
 71
3
 72
8
 73
4
 74
0
 40
0
 40
0
 40
0
 40
0
 40
1
 40
1
 40
1
 40
1
 10
1563.707600
 20
2077.837270
 30
0.0
 10
1572.312500
 20
2082.649070
 30
0.0
 10
1581.052500
 20
2087.197470
 30
0.0
 10
1589.935500
 20
2091.455170
 30
0.0
  0
LWPOLYLINE
  5
513
100
AcDbEntity
  8
0
 62
1
100
AcDbPolyline
 90
4
 70
0
 10
1556.051800
 20
2073.466470
 30
0.0
 10
1634.820900
 20
1994.697970
 30
0.0
 10
1640.834100
 20
2000.711370
 30
0.0
 10
1563.707600
 20
2077.837270
 30
0.0
  0
SPLINE
  5
514
100
AcDbEntity
  8
0
 62
1
100
AcDbSpline
 70
8
 71
3
 72
8
 73
4
 74
0
 40
0
 40
0
 40
0
 40
0
 40
1
 40
1
 40
1
 40
1
 10
1598.134700
 20
2095.282470
 30
0.0
 10
1607.385000
 20
2099.486270
 30
0.0
 10
1616.789500
 20
2103.371470
 30
0.0
 10
1626.357500
 20
2106.907070
 30
0.0
  0
LWPOLYLINE
  5
515
100
AcDbEntity
  8
0
 62
1
100
AcDbPolyline
 90
4
 70
0
 10
1589.935500
 20
2091.455170
 30
0.0
 10
1651.761600
 20
2029.628670
 30
0.0
 10
1657.774800
 20
2035.642070
 30
0.0
 10
1598.134700
 20
2095.282470
 30
0.0
  0
SPLINE
  5
516
100
AcDbEntity
  8
0
 62
1
100
AcDbSpline
 70
8
 71
3
 72
8
 73
4
 74
0
 40
0
 40
0
 40
0
 40
0
 40
1
 40
1
 40
1
 40
1
 10
1635.224600
 20
2110.066570
 30
0.0
 10
1645.275400
 20
2113.515470
 30
0.0
 10
1655.505100
 20
2116.576870
 30
0.0
 10
1665.923500
 20
2119.215170
 30
0.0
  0
LWPOLYLINE
  5
517
100
AcDbEntity
  8
0
 62
1
100
AcDbPolyline
 90
4
 70
0
 10
1626.357500
 20
2106.907070
 30
0.0
 10
1669.972000
 20
2063.292970
 30
0.0
 10
1675.985100
 20
2069.306370
 30
0.0
 10
1635.224600
 20
2110.066570
 30
0.0
  0
SPLINE
  5
518
100
AcDbEntity
  8
0
 62
1
100
AcDbSpline
 70
8
 71
3
 72
8
 73
4
 74
0
 40
0
 40
0
 40
0
 40
0
 40
1
 40
1
 40
1
 40
1
 10
1675.627400
 20
2121.537870
 30
0.0
 10
1689.924800
 20
2124.759670
 30
0.0
 10
1704.575600
 20
2127.183270
 30
0.0
 10
1719.603800
 20
2128.721370
 30
0.0
  0
LWPOLYLINE
  5
519
100
AcDbEntity
  8
0
 62
1
100
AcDbPolyline
 90
4
 70
0
 10
1665.923500
 20
2119.215170
 30
0.0
 10
1689.754700
 20
2095.384270
 30
0.0
 10
1695.767800
 20
2101.397670
 30
0.0
 10
1675.627400
 20
2121.537870
 30
0.0
  0
SPLINE
  5
51a
100
AcDbEntity
  8
0
 62
1
100
AcDbSpline
 70
8
 71
3
 72
8
 73
4
 74
0
 40
0
 40
0
 40
0
 40
0
 40
1
 40
1
 40
1
 40
1
 10
1728.107700
 20
2129.496670
 30
0.0
 10
1736.855100
 20
2130.190070
 30
0.0
 10
1745.729600
 20
2130.584070
 30
0.0
 10
1754.735500
 20
2130.661170
 30
0.0
  0
SPLINE
  5
51b
100
AcDbEntity
  8
0
 62
1
100
AcDbSpline
 70
8
 71
3
 72
8
 73
4
 74
0
 40
0
 40
0
 40
0
 40
0
 40
1
 40
1
 40
1
 40
1
 10
1754.735500
 20
2130.661170
 30
0.0
 10
1767.100500
 20
2130.767170
 30
0.0
 10
1778.825500
 20
2128.652270
 30
0.0
 10
1789.768900
 20
2124.504270
 30
0.0
  0
LWPOLYLINE
  5
51c
100
AcDbEntity
  8
0
 62
1
100
AcDbPolyline
 90
4
 70
0
 10
1719.603800
 20
2128.721370
 30
0.0
 10
1719.603800
 20
2018.359870
 30
0.0
 10
1728.107700
 20
2018.359870
 30
0.0
 10
1728.107700
 20
2129.496670
 30
0.0
  0
SPLINE
  5
51d
100
AcDbEntity
  8
0
 62
1
100
AcDbSpline
 70
8
 71
3
 72
8
 73
4
 74
0
 40
0
 40
0
 40
0
 40
0
 40
1
 40
1
 40
1
 40
1
 10
1798.148400
 20
2120.857270
 30
0.0
 10
1806.580300
 20
2116.697970
 30
0.0
 10
1814.487600
 20
2111.266770
 30
0.0
 10
1821.796700
 20
2104.658370
 30
0.0
  0
LWPOLYLINE
  5
51e
100
AcDbEntity
  8
0
 62
1
100
AcDbPolyline
 90
4
 70
0
 10
1789.768900
 20
2124.504270
 30
0.0
 10
1760.121600
 20
2094.856970
 30
0.0
 10
1766.135100
 20
2088.843570
 30
0.0
 10
1798.148400
 20
2120.857270
 30
0.0
  0
SPLINE
  5
51f
100
AcDbEntity
  8
0
 62
1
100
AcDbSpline
 70
8
 71
3
 72
8
 73
4
 74
0
 40
0
 40
0
 40
0
 40
0
 40
1
 40
1
 40
1
 40
1
 10
1827.892900
 20
2098.727770
 30
0.0
 10
1832.375100
 20
2094.047970
 30
0.0
 10
1836.601500
 20
2088.893170
 30
0.0
 10
1840.551300
 20
2083.286870
 30
0.0
  0
SPLINE
  5
520
100
AcDbEntity
  8
0
 62
1
100
AcDbSpline
 70
8
 71
3
 72
8
 73
4
 74
0
 40
0
 40
0
 40
0
 40
0
 40
1
 40
1
 40
1
 40
1
 10
1840.551300
 20
2083.286870
 30
0.0
 10
1842.181800
 20
2080.972370
 30
0.0
 10
1843.766100
 20
2078.641170
 30
0.0
 10
1845.304400
 20
2076.292070
 30
0.0
  0
LWPOLYLINE
  5
521
100
AcDbEntity
  8
0
 62
1
100
AcDbPolyline
 90
4
 70
0
 10
1821.796700
 20
2104.658370
 30
0.0
 10
1776.026800
 20
2058.887870
 30
0.0
 10
1782.040300
 20
2052.874470
 30
0.0
 10
1827.892900
 20
2098.727770
 30
0.0
  0
SPLINE
  5
522
100
AcDbEntity
  8
0
 62
1
100
AcDbSpline
 70
8
 71
3
 72
8
 73
4
 74
0
 40
0
 40
0
 40
0
 40
0
 40
1
 40
1
 40
1
 40
1
 10
1849.951300
 20
2068.912070
 30
0.0
 10
1855.095600
 20
2060.406970
 30
0.0
 10
1859.652300
 20
2051.681670
 30
0.0
 10
1863.616500
 20
2042.731870
 30
0.0
  0
LWPOLYLINE
  5
523
100
AcDbEntity
  8
0
 62
1
100
AcDbPolyline
 90
4
 70
0
 10
1845.304400
 20
2076.292070
 30
0.0
 10
1787.901700
 20
2018.891370
 30
0.0
 10
1793.915100
 20
2012.877970
 30
0.0
 10
1849.951300
 20
2068.912070
 30
0.0
  0
SPLINE
  5
524
100
AcDbEntity
  8
0
 62
1
100
AcDbSpline
 70
8
 71
3
 72
8
 73
4
 74
0
 40
0
 40
0
 40
0
 40
0
 40
1
 40
1
 40
1
 40
1
 10
1867.166900
 20
2034.255370
 30
0.0
 10
1871.051800
 20
2024.425970
 30
0.0
 10
1874.243300
 20
2014.334070
 30
0.0
 10
1876.733900
 20
2003.975170
 30
0.0
  0
LWPOLYLINE
  5
525
100
AcDbEntity
  8
0
 62
1
100
AcDbPolyline
 90
4
 70
0
 10
1863.616500
 20
2042.731870
 30
0.0
 10
1795.863100
 20
1974.978170
 30
0.0
 10
1801.876500
 20
1968.964770
 30
0.0
 10
1867.166900
 20
2034.255370
 30
0.0
  0
SPLINE
  5
526
100
AcDbEntity
  8
0
 62
1
100
AcDbSpline
 70
8
 71
3
 72
8
 73
4
 74
0
 40
0
 40
0
 40
0
 40
0
 40
1
 40
1
 40
1
 40
1
 10
1878.881700
 20
1994.096170
 30
0.0
 10
1881.130400
 20
1982.538470
 30
0.0
 10
1882.533000
 20
1970.657570
 30
0.0
 10
1883.080600
 20
1958.447870
 30
0.0
  0
LWPOLYLINE
  5
527
100
AcDbEntity
  8
0
 62
1
100
AcDbPolyline
 90
4
 70
0
 10
1876.733900
 20
2003.975170
 30
0.0
 10
1810.447900
 20
1937.689470
 30
0.0
 10
1816.461400
 20
1931.676070
 30
0.0
 10
1878.881700
 20
1994.096170
 30
0.0
  0
SPLINE
  5
528
100
AcDbEntity
  8
0
 62
1
100
AcDbSpline
 70
8
 71
3
 72
8
 73
4
 74
0
 40
0
 40
0
 40
0
 40
0
 40
1
 40
1
 40
1
 40
1
 10
1883.344000
 20
1946.684370
 30
0.0
 10
1883.344000
 20
1932.739370
 30
0.0
 10
1882.271600
 20
1918.379370
 30
0.0
 10
1880.100600
 20
1903.593870
 30
0.0
  0
LWPOLYLINE
  5
529
100
AcDbEntity
  8
0
 62
1
100
AcDbPolyline
 90
4
 70
0
 10
1883.080600
 20
1958.447870
 30
0.0
 10
1830.048700
 20
1905.416270
 30
0.0
 10
1836.062100
 20
1899.402770
 30
0.0
 10
1883.344000
 20
1946.684370
 30
0.0
  0
SPLINE
  5
52a
100
AcDbEntity
  8
0
 62
1
100
AcDbSpline
 70
8
 71
3
 72
8
 73
4
 74
0
 40
0
 40
0
 40
0
 40
0
 40
1
 40
1
 40
1
 40
1
 10
1877.636000
 20
1889.021370
 30
0.0
 10
1872.805200
 20
1863.791670
 30
0.0
 10
1858.105300
 20
1845.906970
 30
0.0
 10
1828.644500
 20
1842.411370
 30
0.0
  0
SPLINE
  5
52b
100
AcDbEntity
  8
0
 62
1
100
AcDbSpline
 70
8
 71
3
 72
8
 73
4
 74
0
 40
0
 40
0
 40
0
 40
0
 40
1
 40
1
 40
1
 40
1
 10
1828.644500
 20
1842.411370
 30
0.0
 10
1780.184800
 20
1836.662070
 30
0.0
 10
1742.738300
 20
1859.516470
 30
0.0
 10
1719.604200
 20
1907.223270
 30
0.0
  0
SPLINE
  5
52c
100
AcDbEntity
  8
0
 62
1
100
AcDbSpline
 70
8
 71
3
 72
8
 73
4
 74
0
 40
0
 40
0
 40
0
 40
0
 40
1
 40
1
 40
1
 40
1
 10
1719.604200
 20
1907.223270
 30
0.0
 10
1692.711900
 20
1902.842870
 30
0.0
 10
1680.035400
 20
1889.659170
 30
0.0
 10
1676.226200
 20
1859.082470
 30
0.0
  0
SPLINE
  5
52d
100
AcDbEntity
  8
0
 62
1
100
AcDbSpline
 70
8
 71
3
 72
8
 73
4
 74
0
 40
0
 40
0
 40
0
 40
0
 40
1
 40
1
 40
1
 40
1
 10
1676.226200
 20
1859.082470
 30
0.0
 10
1671.778000
 20
1823.376370
 30
0.0
 10
1672.151400
 20
1770.319470
 30
0.0
 10
1665.885700
 20
1751.682870
 30
0.0
  0
LWPOLYLINE
  5
52e
100
AcDbEntity
  8
0
 62
1
100
AcDbPolyline
 90
5
 70
0
 10
1880.100600
 20
1903.593870
 30
0.0
 10
1852.698000
 20
1876.191270
 30
0.0
 10
1858.711500
 20
1870.177870
 30
0.0
 10
1877.654000
 20
1889.120370
 30
0.0
 10
1877.636000
 20
1889.021370
 30
0.0
  0
SPLINE
  5
52f
100
AcDbEntity
  8
0
 62
1
100
AcDbSpline
 70
8
 71
3
 72
8
 73
4
 74
0
 40
0
 40
0
 40
0
 40
0
 40
1
 40
1
 40
1
 40
1
 10
1657.381400
 20
1751.682270
 30
0.0
 10
1656.471500
 20
1725.671570
 30
0.0
 10
1642.484800
 20
1707.182870
 30
0.0
 10
1629.035000
 20
1694.883870
 30
0.0
  0
LWPOLYLINE
  5
530
100
AcDbEntity
  8
0
 62
1
100
AcDbPolyline
 90
5
 70
0
 10
1665.885700
 20
1751.682870
 30
0.0
 10
1665.885400
 20
1751.681970
 30
0.0
 10
1665.885400
 20
1805.783970
 30
0.0
 10
1657.381400
 20
1805.783970
 30
0.0
 10
1657.381400
 20
1751.682270
 30
0.0
  0
SPLINE
  5
531
100
AcDbEntity
  8
0
 62
1
100
AcDbSpline
 70
8
 71
3
 72
8
 73
4
 74
0
 40
0
 40
0
 40
0
 40
0
 40
1
 40
1
 40
1
 40
1
 10
1620.531000
 20
1687.764970
 30
0.0
 10
1610.976000
 20
1680.409670
 30
0.0
 10
1603.337200
 20
1673.708570
 30
0.0
 10
1592.184600
 20
1668.439470
 30
0.0
  0
LWPOLYLINE
  5
532
100
AcDbEntity
  8
0
 62
1
100
AcDbPolyline
 90
4
 70
0
 10
1629.035000
 20
1694.883870
 30
0.0
 10
1629.035000
 20
1792.250570
 30
0.0
 10
1620.531000
 20
1792.250570
 30
0.0
 10
1620.531000
 20
1687.764970
 30
0.0
  0
SPLINE
  5
533
100
AcDbEntity
  8
0
 62
1
100
AcDbSpline
 70
8
 71
3
 72
8
 73
4
 74
0
 40
0
 40
0
 40
0
 40
0
 40
1
 40
1
 40
1
 40
1
 10
1583.680700
 20
1664.976070
 30
0.0
 10
1577.810400
 20
1662.935470
 30
0.0
 10
1570.979500
 20
1661.219670
 30
0.0
 10
1562.698000
 20
1659.897570
 30
0.0
  0
SPLINE
  5
534
100
AcDbEntity
  8
0
 62
1
100
AcDbSpline
 70
8
 71
3
 72
8
 73
4
 74
0
 40
0
 40
0
 40
0
 40
0
 40
1
 40
1
 40
1
 40
1
 10
1562.698000
 20
1659.897570
 30
0.0
 10
1560.224500
 20
1659.502670
 30
0.0
 10
1557.771400
 20
1659.144670
 30
0.0
 10
1555.334200
 20
1658.814470
 30
0.0
  0
LWPOLYLINE
  5
535
100
AcDbEntity
  8
0
 62
1
100
AcDbPolyline
 90
4
 70
0
 10
1592.184600
 20
1668.439470
 30
0.0
 10
1592.184600
 20
1799.281070
 30
0.0
 10
1583.680700
 20
1799.281070
 30
0.0
 10
1583.680700
 20
1664.976070
 30
0.0
  0
SPLINE
  5
536
100
AcDbEntity
  8
0
 62
1
100
AcDbSpline
 70
8
 71
3
 72
8
 73
4
 74
0
 40
0
 40
0
 40
0
 40
0
 40
1
 40
1
 40
1
 40
1
 10
1546.830300
 20
1657.779270
 30
0.0
 10
1537.101500
 20
1656.735770
 30
0.0
 10
1527.661300
 20
1656.196670
 30
0.0
 10
1518.483800
 20
1656.081870
 30
0.0
  0
LWPOLYLINE
  5
537
100
AcDbEntity
  8
0
 62
1
100
AcDbPolyline
 90
4
 70
0
 10
1555.334200
 20
1658.814470
 30
0.0
 10
1555.334200
 20
1814.107670
 30
0.0
 10
1546.830300
 20
1814.107670
 30
0.0
 10
1546.830300
 20
1657.779270
 30
0.0
  0
SPLINE
  5
538
100
AcDbEntity
  8
0
 62
1
100
AcDbSpline
 70
8
 71
3
 72
8
 73
4
 74
0
 40
0
 40
0
 40
0
 40
0
 40
1
 40
1
 40
1
 40
1
 10
1509.979900
 20
1656.097170
 30
0.0
 10
1464.998300
 20
1656.812370
 30
0.0
 10
1426.385300
 20
1667.536970
 30
0.0
 10
1391.117800
 20
1678.762670
 30
0.0
  0
SPLINE
  5
539
100
AcDbEntity
  8
0
 62
1
100
AcDbSpline
 70
8
 71
3
 72
8
 73
4
 74
0
 40
0
 40
0
 40
0
 40
0
 40
1
 40
1
 40
1
 40
1
 10
1391.117800
 20
1678.762670
 30
0.0
 10
1363.019900
 20
1687.705170
 30
0.0
 10
1334.188700
 20
1696.098270
 30
0.0
 10
1303.341600
 20
1697.471670
 30
0.0
  0
SPLINE
  5
53a
100
AcDbEntity
  8
0
 62
1
100
AcDbSpline
 70
8
 71
3
 72
8
 73
4
 74
0
 40
0
 40
0
 40
0
 40
0
 40
1
 40
1
 40
1
 40
1
 10
1303.341600
 20
1697.471670
 30
0.0
 10
1282.269700
 20
1698.409870
 30
0.0
 10
1261.141300
 20
1696.424570
 30
0.0
 10
1240.060400
 20
1697.132070
 30
0.0
  0
SPLINE
  5
53b
100
AcDbEntity
  8
0
 62
1
100
AcDbSpline
 70
8
 71
3
 72
8
 73
4
 74
0
 40
0
 40
0
 40
0
 40
0
 40
1
 40
1
 40
1
 40
1
 10
1240.060400
 20
1697.132070
 30
0.0
 10
1228.774500
 20
1697.510770
 30
0.0
 10
1221.717700
 20
1696.493370
 30
0.0
 10
1219.135600
 20
1691.517470
 30
0.0
  0
SPLINE
  5
53c
100
AcDbEntity
  8
0
 62
1
100
AcDbSpline
 70
8
 71
3
 72
8
 73
4
 74
0
 40
0
 40
0
 40
0
 40
0
 40
1
 40
1
 40
1
 40
1
 10
1219.135600
 20
1691.517470
 30
0.0
 10
1215.646400
 20
1684.793070
 30
0.0
 10
1211.034700
 20
1679.736070
 30
0.0
 10
1200.422700
 20
1682.671970
 30
0.0
  0
SPLINE
  5
53d
100
AcDbEntity
  8
0
 62
1
100
AcDbSpline
 70
8
 71
3
 72
8
 73
4
 74
0
 40
0
 40
0
 40
0
 40
0
 40
1
 40
1
 40
1
 40
1
 10
1200.422700
 20
1682.671970
 30
0.0
 10
1181.316000
 20
1687.958270
 30
0.0
 10
1167.439300
 20
1698.870870
 30
0.0
 10
1154.660100
 20
1707.040570
 30
0.0
  0
SPLINE
  5
53e
100
AcDbEntity
  8
0
 62
1
100
AcDbSpline
 70
8
 71
3
 72
8
 73
4
 74
0
 40
0
 40
0
 40
0
 40
0
 40
1
 40
1
 40
1
 40
1
 10
1154.660100
 20
1707.040570
 30
0.0
 10
1153.170000
 20
1707.992970
 30
0.0
 10
1151.605500
 20
1708.801970
 30
0.0
 10
1149.979600
 20
1709.488270
 30
0.0
  0
LWPOLYLINE
  5
53f
100
AcDbEntity
  8
0
 62
1
100
AcDbPolyline
 90
4
 70
0
 10
1518.483800
 20
1656.081870
 30
0.0
 10
1518.483800
 20
1831.672570
 30
0.0
 10
1509.979900
 20
1831.672570
 30
0.0
 10
1509.979900
 20
1656.097170
 30
0.0
  0
SPLINE
  5
540
100
AcDbEntity
  8
0
 62
1
100
AcDbSpline
 70
8
 71
3
 72
8
 73
4
 74
0
 40
0
 40
0
 40
0
 40
0
 40
1
 40
1
 40
1
 40
1
 10
1141.475900
 20
1709.359570
 30
0.0
 10
1132.579700
 20
1710.975070
 30
0.0
 10
1122.650200
 20
1712.735070
 30
0.0
 10
1113.129500
 20
1711.987870
 30
0.0
  0
LWPOLYLINE
  5
541
100
AcDbEntity
  8
0
 62
1
100
AcDbPolyline
 90
4
 70
0
 10
1149.979600
 20
1709.488270
 30
0.0
 10
1149.979900
 20
1830.089970
 30
0.0
 10
1141.475900
 20
1830.089970
 30
0.0
 10
1141.475900
 20
1709.359570
 30
0.0
  0
SPLINE
  5
542
100
AcDbEntity
  8
0
 62
1
100
AcDbSpline
 70
8
 71
3
 72
8
 73
4
 74
0
 40
0
 40
0
 40
0
 40
0
 40
1
 40
1
 40
1
 40
1
 10
1104.625500
 20
1711.352070
 30
0.0
 10
1097.423000
 20
1710.892570
 30
0.0
 10
1081.723900
 20
1710.600570
 30
0.0
 10
1076.279100
 20
1711.987870
 30
0.0
  0
LWPOLYLINE
  5
543
100
AcDbEntity
  8
0
 62
1
100
AcDbPolyline
 90
4
 70
0
 10
1113.129500
 20
1711.987870
 30
0.0
 10
1113.129500
 20
1821.641270
 30
0.0
 10
1104.625500
 20
1821.641270
 30
0.0
 10
1104.625500
 20
1711.352070
 30
0.0
  0
SPLINE
  5
544
100
AcDbEntity
  8
0
 62
1
100
AcDbSpline
 70
8
 71
3
 72
8
 73
4
 74
0
 40
0
 40
0
 40
0
 40
0
 40
1
 40
1
 40
1
 40
1
 10
1067.775100
 20
1714.091170
 30
0.0
 10
1055.456900
 20
1717.048270
 30
0.0
 10
1046.673200
 20
1718.779070
 30
0.0
 10
1039.428700
 20
1720.667570
 30
0.0
  0
LWPOLYLINE
  5
545
100
AcDbEntity
  8
0
 62
1
100
AcDbPolyline
 90
4
 70
0
 10
1076.279100
 20
1711.987870
 30
0.0
 10
1076.279100
 20
1826.551770
 30
0.0
 10
1067.775100
 20
1826.551770
 30
0.0
 10
1067.775100
 20
1714.091170
 30
0.0
  0
SPLINE
  5
546
100
AcDbEntity
  8
0
 62
1
100
AcDbSpline
 70
8
 71
3
 72
8
 73
4
 74
0
 40
0
 40
0
 40
0
 40
0
 40
1
 40
1
 40
1
 40
1
 10
1030.924700
 20
1723.248770
 30
0.0
 10
1026.651200
 20
1724.787670
 30
0.0
 10
1022.699500
 20
1726.667370
 30
0.0
 10
1018.446900
 20
1729.321170
 30
0.0
  0
SPLINE
  5
547
100
AcDbEntity
  8
0
 62
1
100
AcDbSpline
 70
8
 71
3
 72
8
 73
4
 74
0
 40
0
 40
0
 40
0
 40
0
 40
1
 40
1
 40
1
 40
1
 10
1018.446900
 20
1729.321170
 30
0.0
 10
1012.258600
 20
1733.182770
 30
0.0
 10
1007.004600
 20
1738.078770
 30
0.0
 10
1002.578300
 20
1743.710970
 30
0.0
  0
LWPOLYLINE
  5
548
100
AcDbEntity
  8
0
 62
1
100
AcDbPolyline
 90
4
 70
0
 10
1039.428700
 20
1720.667570
 30
0.0
 10
1039.428700
 20
1822.579870
 30
0.0
 10
1030.924700
 20
1822.579870
 30
0.0
 10
1030.924700
 20
1723.248770
 30
0.0
  0
SPLINE
  5
549
100
AcDbEntity
  8
0
 62
1
100
AcDbSpline
 70
8
 71
3
 72
8
 73
4
 74
0
 40
0
 40
0
 40
0
 40
0
 40
1
 40
1
 40
1
 40
1
 10
994.074400
 20
1757.310470
 30
0.0
 10
982.679100
 20
1780.308470
 30
0.0
 10
980.556200
 20
1809.703170
 30
0.0
 10
983.358300
 20
1832.875270
 30
0.0
  0
SPLINE
  5
54a
100
AcDbEntity
  8
0
 62
1
100
AcDbSpline
 70
8
 71
3
 72
8
 73
4
 74
0
 40
0
 40
0
 40
0
 40
0
 40
1
 40
1
 40
1
 40
1
 10
983.358300
 20
1832.875270
 30
0.0
 10
987.399900
 20
1866.298570
 30
0.0
 10
997.379300
 20
1892.966370
 30
0.0
 10
1021.454800
 20
1915.886770
 30
0.0
  0
SPLINE
  5
54b
100
AcDbEntity
  8
0
 62
1
100
AcDbSpline
 70
8
 71
3
 72
8
 73
4
 74
0
 40
0
 40
0
 40
0
 40
0
 40
1
 40
1
 40
1
 40
1
 10
1021.454800
 20
1915.886770
 30
0.0
 10
1039.428100
 20
1936.041070
 30
0.0
 10
1073.375000
 20
1945.070870
 30
0.0
 10
1104.625800
 20
1946.534670
 30
0.0
  0
LWPOLYLINE
  5
54c
100
AcDbEntity
  8
0
 62
1
100
AcDbPolyline
 90
4
 70
0
 10
1002.578300
 20
1743.710970
 30
0.0
 10
1002.578300
 20
1810.054970
 30
0.0
 10
994.074400
 20
1810.054970
 30
0.0
 10
994.074400
 20
1757.310470
 30
0.0
  0
SPLINE
  5
54d
100
AcDbEntity
  8
0
 62
1
100
AcDbSpline
 70
8
 71
3
 72
8
 73
4
 74
0
 40
0
 40
0
 40
0
 40
0
 40
1
 40
1
 40
1
 40
1
 10
5198.988800
 20
1106.403070
 30
0.0
 10
5152.032300
 20
1097.272670
 30
0.0
 10
5123.213300
 20
1037.612370
 30
0.0
 10
5123.213300
 20
991.500970
 30
0.0
  0
SPLINE
  5
54e
100
AcDbEntity
  8
0
 62
1
100
AcDbSpline
 70
8
 71
3
 72
8
 73
4
 74
0
 40
0
 40
0
 40
0
 40
0
 40
1
 40
1
 40
1
 40
1
 10
5123.213300
 20
991.500970
 30
0.0
 10
5123.213300
 20
945.389470
 30
0.0
 10
5150.730900
 20
875.765170
 30
0.0
 10
5198.988500
 20
875.765170
 30
0.0
  0
LWPOLYLINE
  5
54f
100
AcDbEntity
  8
0
 62
1
100
AcDbPolyline
 90
2
 70
0
 10
1104.625800
 20
1946.534670
 30
0.0
 10
1104.625400
 20
1946.534470
 30
0.0
  0
SPLINE
  5
550
100
AcDbEntity
  8
0
 62
1
100
AcDbSpline
 70
8
 71
3
 72
8
 73
4
 74
0
 40
0
 40
0
 40
0
 40
0
 40
1
 40
1
 40
1
 40
1
 10
5207.493000
 20
875.765170
 30
0.0
 10
5221.665900
 20
875.765170
 30
0.0
 10
5235.838600
 20
875.765170
 30
0.0
 10
5250.011500
 20
875.765170
 30
0.0
  0
LWPOLYLINE
  5
551
100
AcDbEntity
  8
0
 62
1
100
AcDbPolyline
 90
5
 70
0
 10
5198.988500
 20
875.765170
 30
0.0
 10
5198.988800
 20
875.765170
 30
0.0
 10
5198.988500
 20
991.084270
 30
0.0
 10
5207.492400
 20
991.084270
 30
0.0
 10
5207.493000
 20
875.765170
 30
0.0
  0
SPLINE
  5
552
100
AcDbEntity
  8
0
 62
1
100
AcDbSpline
 70
8
 71
3
 72
8
 73
4
 74
0
 40
0
 40
0
 40
0
 40
0
 40
1
 40
1
 40
1
 40
1
 10
5258.516000
 20
875.765170
 30
0.0
 10
5306.773600
 20
875.765170
 30
0.0
 10
5334.291200
 20
945.389470
 30
0.0
 10
5334.291200
 20
991.500970
 30
0.0
  0
SPLINE
  5
553
100
AcDbEntity
  8
0
 62
1
100
AcDbSpline
 70
8
 71
3
 72
8
 73
4
 74
0
 40
0
 40
0
 40
0
 40
0
 40
1
 40
1
 40
1
 40
1
 10
5334.291200
 20
991.500970
 30
0.0
 10
5334.291200
 20
1037.612370
 30
0.0
 10
5305.472200
 20
1097.272670
 30
0.0
 10
5258.515700
 20
1106.403070
 30
0.0
  0
SPLINE
  5
554
100
AcDbEntity
  8
0
 62
1
100
AcDbSpline
 70
8
 71
3
 72
8
 73
4
 74
0
 40
0
 40
0
 40
0
 40
0
 40
1
 40
1
 40
1
 40
1
 10
5258.515700
 20
1106.403070
 30
0.0
 10
5244.553400
 20
1109.118370
 30
0.0
 10
5212.951100
 20
1109.118370
 30
0.0
 10
5198.988800
 20
1106.403070
 30
0.0
  0
LWPOLYLINE
  5
555
100
AcDbEntity
  8
0
 62
1
100
AcDbPolyline
 90
5
 70
0
 10
5250.011500
 20
875.765170
 30
0.0
 10
5250.012100
 20
991.084270
 30
0.0
 10
5258.516000
 20
991.084270
 30
0.0
 10
5258.515700
 20
875.765170
 30
0.0
 10
5258.516000
 20
875.765170
 30
0.0
  0
LWPOLYLINE
  5
556
100
AcDbEntity
  8
0
 62
1
100
AcDbPolyline
 90
1
 70
1
 10
5198.988800
 20
1106.403070
 30
0.0
  0
ENDSEC
  0
SECTION
  2
OBJECTS
  0
DICTIONARY
  5
C
330
0
100
AcDbDictionary
  3
ACAD_GROUP
350
D
  3
ACAD_MLINESTYLE
350
17
  0
DICTIONARY
  5
D
330
C
100
AcDbDictionary
  0
DICTIONARY
  5
1A
330
C
100
AcDbDictionary
  0
DICTIONARY
  5
17
330
C
100
AcDbDictionary
  3
STANDARD
350
18
  0
DICTIONARY
  5
19
330
C
100
AcDbDictionary
  0
ENDSEC
  0
EOF
