  0
SECTION
  2
HEADER
  9
$ACADVER
  1
AC1015
  9
$ACADMAINTVER
 70
6
  9
$DWGCODEPAGE
  3
ANSI_1251
  9
$INSBASE
 10
0.0
 20
0.0
 30
0.0
  9
$EXTMIN
 10
-1529.95534070772
 20
-1093.95360898574
 30
0.0
  9
$EXTMAX
 10
5028.53989276746
 20
1919.69454088344
 30
0.0
  9
$LIMMIN
 10
-1529.95534070772
 20
-1093.95360898574
  9
$LIMMAX
 10
5028.53989276746
 20
1919.69454088344
  9
$ORTHOMODE
 70
0
  9
$REGENMODE
 70
1
  9
$FILLMODE
 70
1
  9
$QTEXTMODE
 70
0
  9
$MIRRTEXT
 70
1
  9
$LTSCALE
 40
1.0
  9
$ATTMODE
 70
1
  9
$TEXTSIZE
 40
15
  9
$TRACEWID
 40
0.05
  9
$TEXTSTYLE
  7
Standard
  9
$CLAYER
  8
0
  9
$CELTYPE
  6
ByLayer
  9
$CECOLOR
 62
256
  9
$CELTSCALE
 40
1.0
  9
$DISPSILH
 70
0
  9
$DIMSCALE
 40
1.0
  9
$DIMASZ
 40
5.0
  9
$DIMEXO
 40
0.0
  9
$DIMDLI
 40
2.0
  9
$DIMRND
 40
0.0
  9
$DIMDLE
 40
0.0
  9
$DIMEXE
 40
2.0
  9
$DIMTP
 40
0.0
  9
$DIMTM
 40
0.0
  9
$DIMTXT
 40
5.0
  9
$DIMCEN
 40
0.0
  9
$DIMTSZ
 40
0.0
  9
$DIMTOL
 70
0
  9
$DIMLIM
 70
0
  9
$DIMTIH
 70
0
  9
$DIMTOH
 70
0
  9
$DIMSE1
 70
0
  9
$DIMSE2
 70
0
  9
$DIMTAD
 70
1
  9
$DIMZIN
 70
0
  9
$DIMBLK
  1

  9
$DIMASO
 70
1
  9
$DIMSHO
 70
1
  9
$DIMPOST
  1

  9
$DIMAPOST
  1

  9
$DIMALT
 70
0
  9
$DIMALTD
 70
2
  9
$DIMALTF
 40
25.4
  9
$DIMLFAC
 40
1.0
  9
$DIMTOFL
 70
0
  9
$DIMTVP
 40
0.0
  9
$DIMTIX
 70
0
  9
$DIMSOXD
 70
0
  9
$DIMSAH
 70
0
  9
$DIMBLK1
  1

  9
$DIMBLK2
  1

  9
$DIMSTYLE
  2
Standard
  9
$DIMCLRD
 70
0
  9
$DIMCLRE
 70
0
  9
$DIMCLRT
 70
0
  9
$DIMTFAC
 40
1.0
  9
$DIMGAP
 40
2.0
  9
$DIMJUST
 70
0
  9
$DIMSD1
 70
0
  9
$DIMSD2
 70
0
  9
$DIMTOLJ
 70
1
  9
$DIMTZIN
 70
0
  9
$DIMALTZ
 70
0
  9
$DIMALTTZ
 70
0
  9
$DIMUPT
 70
0
  9
$DIMDEC
 70
4
  9
$DIMTDEC
 70
4
  9
$DIMALTU
 70
2
  9
$DIMALTTD
 70
2
  9
$DIMTXSTY
  7
Standard
  9
$DIMAUNIT
 70
0
  9
$DIMADEC
 70
0
  9
$DIMALTRND
 40
0.0
  9
$DIMAZIN
 70
0
  9
$DIMDSEP
 70
46
  9
$DIMATFIT
 70
3
  9
$DIMFRAC
 70
0
  9
$DIMLDRBLK
  1

  9
$DIMLUNIT
 70
2
  9
$DIMLWD
 70
-2
  9
$DIMLWE
 70
-2
  9
$DIMTMOVE
 70
0
  9
$LUNITS
 70
2
  9
$LUPREC
 70
4
  9
$SKETCHINC
 40
0.1
  9
$FILLETRAD
 40
0.5
  9
$AUNITS
 70
0
  9
$AUPREC
 70
0
  9
$MENU
  1
.
  9
$ELEVATION
 40
0.0
  9
$PELEVATION
 40
0.0
  9
$THICKNESS
 40
0.0
  9
$LIMCHECK
 70
0
  9
$CHAMFERA
 40
0.5
  9
$CHAMFERB
 40
0.5
  9
$CHAMFERC
 40
1.0
  9
$CHAMFERD
 40
0.0
  9
$SKPOLY
 70
0
  9
$TDCREATE
 40
2452912.642553623
  9
$TDUCREATE
 40
2452912.475886956
  9
$TDUPDATE
 40
2452912.645555509
  9
$TDUUPDATE
 40
2452912.478888843
  9
$TDINDWG
 40
0.0030028125
  9
$TDUSRTIMER
 40
0.0030026968
  9
$USRTIMER
 70
1
  9
$ANGBASE
 50
0.0
  9
$ANGDIR
 70
0
  9
$PDMODE
 70
0
  9
$PDSIZE
 40
0.0
  9
$PLINEWID
 40
0.0
  9
$SPLFRAME
 70
0
  9
$SPLINETYPE
 70
6
  9
$SPLINESEGS
 70
8
  9
$HANDSEED
  5
F423F
  9
$SURFTAB1
 70
6
  9
$SURFTAB2
 70
6
  9
$SURFTYPE
 70
6
  9
$SURFU
 70
6
  9
$SURFV
 70
6
  9
$UCSBASE
  2

  9
$UCSNAME
  2

  9
$UCSORG
 10
0.0
 20
0.0
 30
0.0
  9
$UCSXDIR
 10
1.0
 20
0.0
 30
0.0
  9
$UCSYDIR
 10
0.0
 20
1.0
 30
0.0
  9
$UCSORTHOREF
  2

  9
$UCSORTHOVIEW
 70
0
  9
$UCSORGTOP
 10
0.0
 20
0.0
 30
0.0
  9
$UCSORGBOTTOM
 10
0.0
 20
0.0
 30
0.0
  9
$UCSORGLEFT
 10
0.0
 20
0.0
 30
0.0
  9
$UCSORGRIGHT
 10
0.0
 20
0.0
 30
0.0
  9
$UCSORGFRONT
 10
0.0
 20
0.0
 30
0.0
  9
$UCSORGBACK
 10
0.0
 20
0.0
 30
0.0
  9
$PUCSBASE
  2

  9
$PUCSNAME
  2

  9
$PUCSORG
 10
0.0
 20
0.0
 30
0.0
  9
$PUCSXDIR
 10
1.0
 20
0.0
 30
0.0
  9
$PUCSYDIR
 10
0.0
 20
1.0
 30
0.0
  9
$PUCSORTHOREF
  2

  9
$PUCSORTHOVIEW
 70
0
  9
$PUCSORGTOP
 10
0.0
 20
0.0
 30
0.0
  9
$PUCSORGBOTTOM
 10
0.0
 20
0.0
 30
0.0
  9
$PUCSORGLEFT
 10
0.0
 20
0.0
 30
0.0
  9
$PUCSORGRIGHT
 10
0.0
 20
0.0
 30
0.0
  9
$PUCSORGFRONT
 10
0.0
 20
0.0
 30
0.0
  9
$PUCSORGBACK
 10
0.0
 20
0.0
 30
0.0
  9
$USERI1
 70
0
  9
$USERI2
 70
0
  9
$USERI3
 70
0
  9
$USERI4
 70
0
  9
$USERI5
 70
0
  9
$USERR1
 40
0.0
  9
$USERR2
 40
0.0
  9
$USERR3
 40
0.0
  9
$USERR4
 40
0.0
  9
$USERR5
 40
0.0
  9
$WORLDVIEW
 70
1
  9
$SHADEDGE
 70
3
  9
$SHADEDIF
 70
70
  9
$TILEMODE
 70
1
  9
$MAXACTVP
 70
64
  9
$PINSBASE
 10
0.0
 20
0.0
 30
0.0
  9
$PLIMCHECK
 70
0
  9
$PEXTMIN
 10
1.000000000000000E+20
 20
1.000000000000000E+20
 30
1.000000000000000E+20
  9
$PEXTMAX
 10
-1.000000000000000E+20
 20
-1.000000000000000E+20
 30
-1.000000000000000E+20
  9
$PLIMMIN
 10
0.0
 20
0.0
  9
$PLIMMAX
 10
12.0
 20
9.0
  9
$UNITMODE
 70
0
  9
$VISRETAIN
 70
1
  9
$PLINEGEN
 70
0
  9
$PSLTSCALE
 70
1
  9
$TREEDEPTH
 70
3020
  9
$CMLSTYLE
  2
Standard
  9
$CMLJUST
 70
0
  9
$CMLSCALE
 40
1.0
  9
$PROXYGRAPHICS
 70
1
  9
$MEASUREMENT
 70
1
  9
$CELWEIGHT
370
-1
  9
$ENDCAPS
280
0
  9
$JOINSTYLE
280
0
  9
$LWDISPLAY
290
0
  9
$INSUNITS
 70
1
  9
$HYPERLINKBASE
  1

  9
$STYLESHEET
  1

  9
$XEDIT
290
1
  9
$CEPSNTYPE
380
0
  9
$PSTYLEMODE
290
1
  9
$FINGERPRINTGUID
  2
{71C5D59F-91AA-4639-9876-83F756A9BE91}
  9
$VERSIONGUID
  2
{9DAC1BFE-4ECB-4352-8002-8B4D37C12F4E}
  9
$EXTNAMES
290
1
  9
$PSVPSCALE
 40
0.0
  9
$OLESTARTUP
290
0
  0
ENDSEC
  0
SECTION
  2
CLASSES
  0
CLASS
  1
ACDBDICTIONARYWDFLT
  2
AcDbDictionaryWithDefault
  3
AutoCAD 2000
 90
0
280
0
281
0
  0
CLASS
  1
ACDBPLACEHOLDER
  2
AcDbPlaceHolder
  3
AutoCAD 2000
 90
0
280
0
281
0
  0
CLASS
  1
LAYOUT
  2
AcDbLayout
  3
AutoCAD 2000
 90
0
280
0
281
0
  0
ENDSEC
  0
SECTION
  2
TABLES
  0
TABLE
  2
VPORT
  5
8
330
0
100
AcDbSymbolTable
 70
3
  0
VPORT
  5
F423E
330
8
100
AcDbSymbolTableRecord
100
AcDbViewportTableRecord
  2
*Active
 70
0
 10
0.0
 20
0.0
 11
1.0
 21
1.0
 12
174.862688299951
 22
309.9392224502742
 13
0.0
 23
0.0
 14
10.0
 24
10.0
 15
10.0
 25
10.0
 16
0.0
 26
0.0
 36
1.0
 17
0.0
 27
0.0
 37
0.0
 40
1619.510428571023
 41
1.573863636363636
 42
50.0
 43
0.0
 44
0.0
 50
0.0
 51
0.0
 71
0
 72
100
 73
1
 74
3
 75
0
 76
0
 77
0
 78
0
281
0
 65
1
110
0.0
120
0.0
130
0.0
111
1.0
121
0.0
131
0.0
112
0.0
122
1.0
132
0.0
 79
0
146
0.0
  0
ENDTAB
  0
TABLE
  2
LTYPE
  5
5
330
0
100
AcDbSymbolTable
 70
4
  0
LTYPE
  5
14
330
5
100
AcDbSymbolTableRecord
100
AcDbLinetypeTableRecord
  2
ByBlock
 70
0
  3

 72
65
 73
0
 40
0.0
  0
LTYPE
  5
15
330
5
100
AcDbSymbolTableRecord
100
AcDbLinetypeTableRecord
  2
ByLayer
 70
0
  3

 72
65
 73
0
 40
0.0
  0
LTYPE
  5
16
330
5
100
AcDbSymbolTableRecord
100
AcDbLinetypeTableRecord
  2
Continuous
 70
0
  3
Solid line
 72
65
 73
0
 40
0.0
  0
LTYPE
  5
2D
330
5
100
AcDbSymbolTableRecord
100
AcDbLinetypeTableRecord
  2
DASHED
 70
     0
  3
Dashed __ __ __ __ __ __ __ __ __ __ __ __ __ _
 72
    65
 73
     2
 40
19.04999999999999
 49
12.699999999999999
 74
0
 49
-6.349999999999998
 74
0
  0
LTYPE
  5
2E
330
5
100
AcDbSymbolTableRecord
100
AcDbLinetypeTableRecord
  2
DIVIDE
 70
0
  3
Divide ____ . . ____ . . ____ . . ____ . . ____
 72
65
 73
6
 40
1.25
 49
0.5
 74
0
 49
-0.25
 74
0
 49
0.0
 74
0
 49
-0.25
 74
0
 49
0.0
 74
0
 49
-0.25
 74
0
  0
LTYPE
  5
2F
330
5
100
AcDbSymbolTableRecord
100
AcDbLinetypeTableRecord
  2
DASHDOT
 70
0
  3
Dash dot __ . __ . __ . __ . __ . __ . __ . __
 72
65
 73
4
 40
25.399999999999999
 49
12.699999999999999
 74
0
 49
-6.349999999999998
 74
0
 49
0.0
 74
0
 49
-6.349999999999998
 74
0
  0
ENDTAB
  0
TABLE
  2
LAYER
  5
2
330
0
100
AcDbSymbolTable
 70
1
  0
LAYER
  5
10
330
90
100
AcDbSymbolTableRecord
100
AcDbLayerTableRecord
  2
0
 70
0
 62
7
  6
Continuous
370
-3
390
F
  0
LAYER
  5
1111D
330
2
100
AcDbSymbolTableRecord
100
AcDbLayerTableRecord
  2
Слой1
 70
64
 62
7
  6
CONTINUOUS
370
-3
390
F
  0
ENDTAB
  0
TABLE
  2
STYLE
  5
3
330
0
100
AcDbSymbolTable
 70
1
  0
STYLE
  5
11
330
3
100
AcDbSymbolTableRecord
100
AcDbTextStyleTableRecord
  2
STANDARD
 70
0
 40
5.0
 41
1.0
 50
15.0
 71
0
 42
0.2
  3
txt.shx
  4

  0
ENDTAB
  0
TABLE
  2
VIEW
  5
6
330
0
100
AcDbSymbolTable
 70
0
  0
ENDTAB
  0
TABLE
  2
UCS
  5
7
330
0
100
AcDbSymbolTable
 70
0
  0
ENDTAB
  0
TABLE
  2
APPID
  5
9
330
0
100
AcDbSymbolTable
 70
1
  0
APPID
  5
12
330
9
100
AcDbSymbolTableRecord
100
AcDbRegAppTableRecord
  2
ACAD
 70
0
  0
ENDTAB
  0
TABLE
  2
DIMSTYLE
  5
A
330
0
100
AcDbSymbolTable
 70
2
100
AcDbDimStyleTable
 71
2
340
30
340
27
  0
DIMSTYLE
105
27
330
A
100
AcDbSymbolTableRecord
100
AcDbDimStyleTableRecord
  2
Standard
 70
     0
 41
5.0
 42
0.0
 43
2.0
 44
2.0
 73
     0
 74
     0
 77
     1
140
5.0
141
0.0
147
2.0
340
11
  0
DIMSTYLE
105
30
330
A
100
AcDbSymbolTableRecord
100
AcDbDimStyleTableRecord
  2
Standard_1
 70
     0
 41
5.0
 42
0.0
 43
2.0
 44
2.0
 73
     0
 77
     1
140
5.0
141
0.0
147
2.0
340
11
  0
ENDTAB
  0
TABLE
  2
BLOCK_RECORD
  5
1
330
0
100
AcDbSymbolTable
 70
  2
  0
BLOCK_RECORD
  5
1F
330
1
100
AcDbSymbolTableRecord
100
AcDbBlockTableRecord
  2
*Model_Space
340
22
  0
BLOCK_RECORD
  5
1B
330
1
100
AcDbSymbolTableRecord
100
AcDbBlockTableRecord
  2
*Paper_Space
340
1E
  0
BLOCK_RECORD
  5
23
330
1
100
AcDbSymbolTableRecord
100
AcDbBlockTableRecord
  2
*Paper_Space0
340
26
  0
ENDTAB
  0
ENDSEC
  0
SECTION
  2
BLOCKS
  0
BLOCK
  5
20
330
1F
100
AcDbEntity
  8
0
100
AcDbBlockBegin
  2
*Model_Space
 70
0
 10
0.0
 20
0.0
 30
0.0
  3
*Model_Space
  1

  0
ENDBLK
  5
21
330
1F
100
AcDbEntity
  8
0
100
AcDbBlockEnd
  0
BLOCK
  5
1C
330
1B
100
AcDbEntity
 67
1
  8
0
100
AcDbBlockBegin
  2
*Paper_Space
 70
0
 10
0.0
 20
0.0
 30
0.0
  3
*Paper_Space
  1

  0
ENDBLK
  5
1D
330
1B
100
AcDbEntity
 67
1
  8
0
100
AcDbBlockEnd
  0
BLOCK
  5
24
330
23
100
AcDbEntity
  8
0
100
AcDbBlockBegin
  2
*Paper_Space0
 70
0
 10
0.0
 20
0.0
 30
0.0
  3
*Paper_Space0
  1

  0
ENDBLK
  5
25
330
23
100
AcDbEntity
  8
0
100
AcDbBlockEnd
  0
ENDSEC
  0
SECTION
  2
ENTITIES
  0
LINE
  5
1111E
330
1F
100
AcDbEntity
  8
Слой1
  6
CONTINUOUS
 62
7
370
60
100
AcDbLine
 10
109.704557073257
 20
17.873320602435
 11
109.65260726199
 21
17.8983348010949
  0
LINE
  5
1111F
330
1F
100
AcDbEntity
  8
Слой1
  6
CONTINUOUS
 62
7
370
60
100
AcDbLine
 10
155.342037352157
 20
111.419436423494
 11
155.509386017908
 21
111.334385072307
  0
LINE
  5
11120
330
1F
100
AcDbEntity
  8
Слой1
  6
CONTINUOUS
 62
7
370
60
100
AcDbLine
 10
200.289631792732
 20
64.1170272550818
 11
199.550369796912
 21
64.261775358346
  0
LINE
  5
11121
330
1F
100
AcDbEntity
  8
Слой1
  6
CONTINUOUS
 62
7
370
60
100
AcDbLine
 10
119.217814170831
 20
6.56643988371677
 11
119.217814170831
 21
26.5881131290333
  0
LINE
  5
11122
330
1F
100
AcDbEntity
  8
Слой1
  6
CONTINUOUS
 62
7
370
60
100
AcDbLine
 10
149.317814170831
 20
13.4236660982438
 11
149.317814170831
 21
14.4427754758628
  0
LINE
  5
11123
330
1F
100
AcDbEntity
  8
Слой1
  6
CONTINUOUS
 62
7
370
60
100
AcDbLine
 10
197.058786181896
 20
65.8057864908532
 11
196.737562457134
 21
66.2143175019509
  0
LINE
  5
11124
330
1F
100
AcDbEntity
  8
Слой1
  6
CONTINUOUS
 62
7
370
60
100
AcDbLine
 10
49.3330188520899
 20
36.16405861843
 11
49.3330188520891
 21
46.9688546834699
  0
LINE
  5
11125
330
1F
100
AcDbEntity
  8
Слой1
  6
CONTINUOUS
 62
7
370
60
100
AcDbLine
 10
142.149625671432
 20
68.7244985029443
 11
148.767065881033
 21
68.7244985029407
  0
LINE
  5
11126
330
1F
100
AcDbEntity
  8
Слой1
  6
CONTINUOUS
 62
7
370
60
100
AcDbLine
 10
227.816731140911
 20
67.6655168057274
 11
227.630352272598
 21
68.3339755751334
  0
LINE
  5
11127
330
1F
100
AcDbEntity
  8
Слой1
  6
CONTINUOUS
 62
7
370
60
100
AcDbLine
 10
144.00820719342
 20
18.4721141611453
 11
144.00820719342
 21
19.4721141611453
  0
LINE
  5
11128
330
1F
100
AcDbEntity
  8
Слой1
  6
CONTINUOUS
 62
7
370
60
100
AcDbLine
 10
149.317814170831
 20
129.277976515674
 11
149.317814170832
 21
133.277976515674
  0
LINE
  5
11129
330
1F
100
AcDbEntity
  8
Слой1
  6
CONTINUOUS
 62
7
370
60
100
AcDbLine
 10
50.0731560763855
 20
78.6707500178902
 11
49.9448617116406
 21
78.3055512884729
  0
LINE
  5
1112A
330
1F
100
AcDbEntity
  8
Слой1
  6
CONTINUOUS
 62
7
370
60
100
AcDbLine
 10
159.44765603159
 20
36.4430543987263
 11
159.399774262181
 21
36.1163329126355
  0
LINE
  5
1112B
330
1F
100
AcDbEntity
  8
Слой1
  6
CONTINUOUS
 62
7
370
60
100
AcDbLine
 10
162.37675748444
 20
41.2750361593112
 11
162.218520323317
 21
40.9688150032604
  0
LINE
  5
1112C
330
1F
100
AcDbEntity
  8
Слой1
  6
CONTINUOUS
 62
7
370
60
100
AcDbLine
 10
12.60240260028
 20
6.91918002235907
 11
12.2956395610177
 21
6.85375635423334
  0
LINE
  5
1112D
330
1F
100
AcDbEntity
  8
Слой1
  6
CONTINUOUS
 62
7
370
60
100
AcDbLine
 10
127.899984906137
 20
29.6173896366421
 11
128.408416156777
 21
29.6838575173861
  0
LINE
  5
1112E
330
1F
100
AcDbEntity
  8
Слой1
  6
CONTINUOUS
 62
7
370
60
100
AcDbLine
 10
227.346818558661
 20
72.1852414179703
 11
227.500769453342
 21
73.2619028766588
  0
LINE
  5
1112F
330
1F
100
AcDbEntity
  8
Слой1
  6
CONTINUOUS
 62
7
370
60
100
AcDbLine
 10
152.180135774045
 20
111.548480480968
 11
152.265146502423
 21
111.715954170871
  0
LINE
  5
11130
330
1F
100
AcDbEntity
  8
Слой1
  6
CONTINUOUS
 62
7
370
60
100
AcDbLine
 10
20.8077418997869
 20
70.9687486211906
 11
21.6230616456214
 21
71.0085191272891
  0
LINE
  5
11131
330
1F
100
AcDbEntity
  8
Слой1
  6
CONTINUOUS
 62
7
370
60
100
AcDbLine
 10
74.0347873403023
 20
11.8163380837921
 11
73.0652013163198
 21
13.3627312072939
  0
LINE
  5
11132
330
1F
100
AcDbEntity
  8
Слой1
  6
CONTINUOUS
 62
7
370
60
100
AcDbLine
 10
168.57572374956
 20
39.960156900469
 11
169.45315601449
 21
38.3596752945839
  0
LINE
  5
11133
330
1F
100
AcDbEntity
  8
Слой1
  6
CONTINUOUS
 62
7
370
60
100
AcDbLine
 10
6.42252568048866
 20
27.7487058350963
 11
6.6890033678369
 21
26.9366285907719
  0
LINE
  5
11134
330
1F
100
AcDbEntity
  8
Слой1
  6
CONTINUOUS
 62
7
370
60
100
AcDbLine
 10
160.041529407782
 20
11.8877967135602
 11
160.044213310909
 21
11.2604292910203
  0
LINE
  5
11135
330
1F
100
AcDbEntity
  8
Слой1
  6
CONTINUOUS
 62
7
370
60
100
AcDbLine
 10
162.516220943334
 20
44.3122859563548
 11
162.911961858685
 21
44.7030827435503
  0
LINE
  5
11136
330
1F
100
AcDbEntity
  8
Слой1
  6
CONTINUOUS
 62
7
370
60
100
AcDbLine
 10
103.419752594031
 20
68.5318637350836
 11
104.419752594031
 21
68.5318637350831
  0
LINE
  5
11137
330
1F
100
AcDbEntity
  8
Слой1
  6
CONTINUOUS
 62
7
370
60
100
AcDbLine
 10
17.0112998934029
 20
38.0697328958584
 11
17.0112998934029
 21
39.0697328958585
  0
LINE
  5
11138
330
1F
100
AcDbEntity
  8
Слой1
  6
CONTINUOUS
 62
7
370
60
100
AcDbLine
 10
267.514422447043
 20
58.7423385544327
 11
267.514422447043
 21
74.2456011149673
  0
LINE
  5
11139
330
1F
100
AcDbEntity
  8
Слой1
  6
CONTINUOUS
 62
7
370
60
100
AcDbLine
 10
6.86347298902979
 20
7.05832685736698
 11
6.97406429011464
 21
8.12222873329129
  0
LINE
  5
1113A
330
1F
100
AcDbEntity
  8
Слой1
  6
CONTINUOUS
 62
7
370
60
100
AcDbLine
 10
165.919610849689
 20
20.5998889577907
 11
166.23318300598
 21
21.8521357699171
  0
LINE
  5
1113B
330
1F
100
AcDbEntity
  8
Слой1
  6
CONTINUOUS
 62
7
370
60
100
AcDbLine
 10
68.3181166749412
 20
13.941580977806
 11
68.6220893465752
 21
14.3029379186265
  0
LINE
  5
1113C
330
1F
100
AcDbEntity
  8
Слой1
  6
CONTINUOUS
 62
7
370
60
100
AcDbLine
 10
52.336701957051
 20
0.175950731784201
 11
52.1987538878624
 21
0.0446048649112299
  0
LINE
  5
1113D
330
1F
100
AcDbEntity
  8
Слой1
  6
CONTINUOUS
 62
7
370
60
100
AcDbLine
 10
126.14796898454
 20
141.109937629168
 11
126.280844710685
 21
141.242539852637
  0
LINE
  5
1113E
330
1F
100
AcDbEntity
  8
Слой1
  6
CONTINUOUS
 62
7
370
60
100
AcDbLine
 10
45.3270589266553
 20
73.5342501523206
 11
43.9311140324699
 21
73.1422966196886
  0
LINE
  5
1113F
330
1F
100
AcDbEntity
  8
Слой1
  6
CONTINUOUS
 62
7
370
60
100
AcDbLine
 10
65.7098082308069
 20
81.3820238090976
 11
65.2681417207916
 21
81.5638698685758
  0
LINE
  5
11140
330
1F
100
AcDbEntity
  8
Слой1
  6
CONTINUOUS
 62
7
370
60
100
AcDbLine
 10
241.988476898877
 20
65.14233030651
 11
242.574477344818
 21
65.1070555711683
  0
LINE
  5
11141
330
1F
100
AcDbEntity
  8
Слой1
  6
CONTINUOUS
 62
7
370
60
100
AcDbLine
 10
6.95571556504287
 20
10.2599237616963
 11
7.00486919931016
 21
9.1914194062025
  0
LINE
  5
11142
330
1F
100
AcDbEntity
  8
Слой1
  6
CONTINUOUS
 62
7
370
60
100
AcDbLine
 10
120.217814170831
 20
120.277976515673
 11
120.217814170831
 21
128.277976515672
  0
LINE
  5
11143
330
1F
100
AcDbEntity
  8
Слой1
  6
CONTINUOUS
 62
7
370
60
100
AcDbLine
 10
66.332689334254
 20
7.61965859871943
 11
66.3325255369211
 21
7.30135503445679
  0
LINE
  5
11144
330
1F
100
AcDbEntity
  8
Слой1
  6
CONTINUOUS
 62
7
370
60
100
AcDbLine
 10
47.5109394587584
 20
19.5915935345757
 11
47.6653234520101
 21
19.7377907746293
  0
LINE
  5
11145
330
1F
100
AcDbEntity
  8
Слой1
  6
CONTINUOUS
 62
7
370
60
100
AcDbLine
 10
52.0135734014073
 20
26.16405861843
 11
52.1987538878624
 21
26.2086634833411
  0
LINE
  5
11146
330
1F
100
AcDbEntity
  8
Слой1
  6
CONTINUOUS
 62
7
370
60
100
AcDbLine
 10
13.0102981360501
 20
12.9056742774286
 11
17.0112998934029
 21
12.9056742774286
  0
LINE
  5
11147
330
1F
100
AcDbEntity
  8
Слой1
  6
CONTINUOUS
 62
7
370
60
100
AcDbLine
 10
20.3296200707219
 20
16.8354796325838
 11
20.3181684401586
 21
16.8471119392505
  0
LINE
  5
11148
330
1F
100
AcDbEntity
  8
Слой1
  6
CONTINUOUS
 62
7
370
60
100
AcDbLine
 10
50.7371470041609
 20
28.5087690237855
 11
50.5604416744044
 21
29.0458227766796
  0
LINE
  5
11149
330
1F
100
AcDbEntity
  8
Слой1
  6
CONTINUOUS
 62
7
370
60
100
AcDbLine
 10
252.233847652194
 20
72.1852414179718
 11
252.285629770707
 21
71.0988623925833
  0
LINE
  5
1114A
330
1F
100
AcDbEntity
  8
Слой1
  6
CONTINUOUS
 62
7
370
60
100
AcDbLine
 10
138.617814170831
 20
16.8379297481727
 11
139.617814170831
 21
16.8379297481727
  0
LINE
  5
1114B
330
1F
100
AcDbEntity
  8
Слой1
  6
CONTINUOUS
 62
7
370
60
100
AcDbLine
 10
156.455731455158
 20
6.56643988371677
 11
161.635907236408
 21
6.56643988371677
  0
LINE
  5
1114C
330
1F
100
AcDbEntity
  8
Слой1
  6
CONTINUOUS
 62
7
370
60
100
AcDbLine
 10
148.317814170831
 20
124.277976515675
 11
149.317814170832
 21
124.277976515673
  0
LINE
  5
1114D
330
1F
100
AcDbEntity
  8
Слой1
  6
CONTINUOUS
 62
7
370
60
100
AcDbLine
 10
122.374679130077
 20
6.74032500284484
 11
122.390480247041
 21
6.69604674586319
  0
LINE
  5
1114E
330
1F
100
AcDbEntity
  8
Слой1
  6
CONTINUOUS
 62
7
370
60
100
AcDbLine
 10
28.9954803358296
 20
63.8595682991856
 11
28.9954803358296
 21
70.9533930902672
  0
LINE
  5
1114F
330
1F
100
AcDbEntity
  8
Слой1
  6
CONTINUOUS
 62
7
370
60
100
AcDbLine
 10
107.419752594028
 20
59.653970216565
 11
107.419752594028
 21
60.5356645163649
  0
LINE
  5
11150
330
1F
100
AcDbEntity
  8
Слой1
  6
CONTINUOUS
 62
7
370
60
100
AcDbLine
 10
182.25092714451
 20
65.0194030125475
 11
182.009523547719
 21
64.7035784480276
  0
LINE
  5
11151
330
1F
100
AcDbEntity
  8
Слой1
  6
CONTINUOUS
 62
7
370
60
100
AcDbLine
 10
141.149242146511
 20
16.4998306554516
 11
143.584631436348
 21
15.8570092361337
  0
LINE
  5
11152
330
1F
100
AcDbEntity
  8
Слой1
  6
CONTINUOUS
 62
7
370
60
100
AcDbLine
 10
129.917814170831
 20
14.6984916898176
 11
129.917814170831
 21
18.472114161145
  0
LINE
  5
11153
330
1F
100
AcDbEntity
  8
Слой1
  6
CONTINUOUS
 62
7
370
60
100
AcDbLine
 10
75.7976878403426
 20
34.586886775613
 11
75.7085276056251
 21
33.7956636692726
  0
LINE
  5
11154
330
1F
100
AcDbEntity
  8
Слой1
  6
CONTINUOUS
 62
7
370
60
100
AcDbLine
 10
218.673139221212
 20
67.9134577068669
 11
218.553859791674
 21
67.516975700576
  0
LINE
  5
11155
330
1F
100
AcDbEntity
  8
Слой1
  6
CONTINUOUS
 62
7
370
60
100
AcDbLine
 10
50.6541590859728
 20
33.7010109926677
 11
50.8901609156577
 21
34.1338219586906
  0
LINE
  5
11156
330
1F
100
AcDbEntity
  8
Слой1
  6
CONTINUOUS
 62
7
370
60
100
AcDbLine
 10
118.647405051771
 20
22.0948979017793
 11
118.917018664161
 21
22.5625849599232
  0
LINE
  5
11157
330
1F
100
AcDbEntity
  8
Слой1
  6
CONTINUOUS
 62
7
370
60
100
AcDbLine
 10
116.809483842697
 20
20.5682136485589
 11
116.933119761929
 21
20.7055780980955
  0
LINE
  5
11158
330
1F
100
AcDbEntity
  8
Слой1
  6
CONTINUOUS
 62
7
370
60
100
AcDbLine
 10
8.33231279280192
 20
62.1192103230474
 11
8.14897241286672
 21
62.2457269174817
  0
LINE
  5
11159
330
1F
100
AcDbEntity
  8
Слой1
  6
CONTINUOUS
 62
7
370
60
100
AcDbLine
 10
127.321140081821
 20
64.8498015768687
 11
126.994995125004
 21
65.2541959122498
  0
LINE
  5
1115A
330
1F
100
AcDbEntity
  8
Слой1
  6
CONTINUOUS
 62
7
370
60
100
AcDbLine
 10
75.3936662406904
 20
36.9249765423372
 11
75.6386641789191
 21
36.1673753532374
  0
LINE
  5
1115B
330
1F
100
AcDbEntity
  8
Слой1
  6
CONTINUOUS
 62
7
370
60
100
AcDbLine
 10
71.1598204696279
 20
38.2099091615247
 11
71.1598204696279
 21
42.2099091615247
  0
LINE
  5
1115C
330
1F
100
AcDbEntity
  8
Слой1
  6
CONTINUOUS
 62
7
370
60
100
AcDbLine
 10
57.0636768367098
 20
78.7629517268802
 11
57.0636768367098
 21
86.4025622025498
  0
LINE
  5
1115D
330
1F
100
AcDbEntity
  8
Слой1
  6
CONTINUOUS
 62
7
370
60
100
AcDbLine
 10
0.000951874968495758
 20
59.1041317710972
 11
0.0328288091858212
 21
59.1521771047959
  0
LINE
  5
1115E
330
1F
100
AcDbEntity
  8
Слой1
  6
CONTINUOUS
 62
7
370
60
100
AcDbLine
 10
211.829248514227
 20
69.1318925820893
 11
218.90898563262
 21
69.1318925820893
  0
LINE
  5
1115F
330
1F
100
AcDbEntity
  8
Слой1
  6
CONTINUOUS
 62
7
370
60
100
AcDbLine
 10
23.255402239973
 20
71.0278200253876
 11
24.0714344069405
 21
71.0073387271546
  0
LINE
  5
11160
330
1F
100
AcDbEntity
  8
Слой1
  6
CONTINUOUS
 62
7
370
60
100
AcDbLine
 10
242.574477344818
 20
65.1070555711683
 11
243.148650034573
 21
64.9847177113847
  0
LINE
  5
11161
330
1F
100
AcDbEntity
  8
Слой1
  6
CONTINUOUS
 62
7
370
60
100
AcDbLine
 10
9.59548033582967
 20
8.87789351851809
 11
9.59548033582964
 21
16.4444136870951
  0
LINE
  5
11162
330
1F
100
AcDbEntity
  8
Слой1
  6
CONTINUOUS
 62
7
370
60
100
AcDbLine
 10
117.81692044564
 20
19.4721141611453
 11
117.832604491163
 21
19.6237524251626
  0
LINE
  5
11163
330
1F
100
AcDbEntity
  8
Слой1
  6
CONTINUOUS
 62
7
370
60
100
AcDbLine
 10
117.122174548504
 20
24.8903525600888
 11
116.588926321563
 21
24.2888528937627
  0
LINE
  5
11164
330
1F
100
AcDbEntity
  8
Слой1
  6
CONTINUOUS
 62
7
370
60
100
AcDbLine
 10
61.9690283406198
 20
83.8564850761491
 11
62.1732477637928
 21
83.6515019961738
  0
LINE
  5
11165
330
1F
100
AcDbEntity
  8
Слой1
  6
CONTINUOUS
 62
7
370
60
100
AcDbLine
 10
130.875091785414
 20
22.2245513814342
 11
130.463081540222
 21
22.8313381688963
  0
LINE
  5
11166
330
1F
100
AcDbEntity
  8
Слой1
  6
CONTINUOUS
 62
7
370
60
100
AcDbLine
 10
138.149625671434
 20
72.0128777354498
 11
138.149625671434
 21
67.6033921056307
  0
LINE
  5
11167
330
1F
100
AcDbEntity
  8
Слой1
  6
CONTINUOUS
 62
7
370
60
100
AcDbLine
 10
175.332142065808
 20
35.0226898837165
 11
176.332142065808
 21
35.0226898837165
  0
LINE
  5
11168
330
1F
100
AcDbEntity
  8
Слой1
  6
CONTINUOUS
 62
7
370
60
100
AcDbLine
 10
147.46072652244
 20
14.8032781969153
 11
148.317814170831
 21
14.5769546926753
  0
LINE
  5
11169
330
1F
100
AcDbEntity
  8
Слой1
  6
CONTINUOUS
 62
7
370
60
100
AcDbLine
 10
126.504475095231
 20
66.8055742935396
 11
126.487285021973
 21
67.1116050255403
  0
LINE
  5
1116A
330
1F
100
AcDbEntity
  8
Слой1
  6
CONTINUOUS
 62
7
370
60
100
AcDbLine
 10
267.51442244704
 20
81.8661395082791
 11
268.514422440995
 21
81.8661395082791
  0
LINE
  5
1116B
330
1F
100
AcDbEntity
  8
Слой1
  6
CONTINUOUS
 62
7
370
60
100
AcDbLine
 10
41.388764644897
 20
55.5800981225828
 11
42.7710033628769
 21
55.3909224274979
  0
LINE
  5
1116C
330
1F
100
AcDbEntity
  8
Слой1
  6
CONTINUOUS
 62
7
370
60
100
AcDbLine
 10
85.919752594032
 20
71.5596444939944
 11
85.919752594032
 21
72.5596444939944
  0
LINE
  5
1116D
330
1F
100
AcDbEntity
  8
Слой1
  6
CONTINUOUS
 62
7
370
60
100
AcDbLine
 10
67.8358210751828
 20
13.1312173426343
 11
67.6775839140589
 21
12.8249961865835
  0
LINE
  5
1116E
330
1F
100
AcDbEntity
  8
Слой1
  6
CONTINUOUS
 62
7
370
60
100
AcDbLine
 10
147.59803485752
 20
64.4952884439366
 11
147.992208925255
 21
64.8370373930461
  0
LINE
  5
1116F
330
1F
100
AcDbEntity
  8
Слой1
  6
CONTINUOUS
 62
7
370
60
100
AcDbLine
 10
171.591362175621
 20
42.7574101706165
 11
171.39290824013
 21
42.9679800434986
  0
LINE
  5
11170
330
1F
100
AcDbEntity
  8
Слой1
  6
CONTINUOUS
 62
7
370
60
100
AcDbLine
 10
227.290333105443
 20
57.1067649554791
 11
227.290333105443
 21
57.988459255279
  0
LINE
  5
11171
330
1F
100
AcDbEntity
  8
Слой1
  6
CONTINUOUS
 62
7
370
60
100
AcDbLine
 10
34.9041686254251
 20
40.1436151159686
 11
35.6229613399256
 21
40.4932297774073
  0
LINE
  5
11172
330
1F
100
AcDbEntity
  8
Слой1
  6
CONTINUOUS
 62
7
370
60
100
AcDbLine
 10
74.0347873403023
 20
11.8163380837921
 11
74.9122196052319
 21
10.2158564779071
  0
LINE
  5
11173
330
1F
100
AcDbEntity
  8
Слой1
  6
CONTINUOUS
 62
7
370
60
100
AcDbLine
 10
160.873625743512
 20
35.7634774153963
 11
160.873461946179
 21
35.4451738511337
  0
LINE
  5
11174
330
1F
100
AcDbEntity
  8
Слой1
  6
CONTINUOUS
 62
7
370
60
100
AcDbLine
 10
8.75273105075535
 20
66.9927080079626
 11
9.1122505075421
 21
67.2364838107206
  0
LINE
  5
11175
330
1F
100
AcDbEntity
  8
Слой1
  6
CONTINUOUS
 62
7
370
60
100
AcDbLine
 10
112.933365667006
 20
18.9641770839114
 11
113.51786556463
 21
19.3445944536669
  0
LINE
  5
11176
330
1F
100
AcDbEntity
  8
Слой1
  6
CONTINUOUS
 62
7
370
60
100
AcDbLine
 10
155.509386017908
 20
111.334385072307
 11
155.694826369876
 21
111.305210012244
  0
LINE
  5
11177
330
1F
100
AcDbEntity
  8
Слой1
  6
CONTINUOUS
 62
7
370
60
100
AcDbLine
 10
200.289631792732
 20
64.1170272550818
 11
201.042182463259
 21
64.0834445191895
  0
LINE
  5
11178
330
1F
100
AcDbEntity
  8
Слой1
  6
CONTINUOUS
 62
7
370
60
100
AcDbLine
 10
46.8320846667973
 20
1.30911406536427
 11
46.7174632511427
 21
0.846517409568764
  0
LINE
  5
11179
330
1F
100
AcDbEntity
  8
Слой1
  6
CONTINUOUS
 62
7
370
60
100
AcDbLine
 10
109.70790993784
 20
18.0763877320596
 11
109.655162644187
 21
18.0531021992633
  0
LINE
  5
1117A
330
1F
100
AcDbEntity
  8
Слой1
  6
CONTINUOUS
 62
7
370
60
100
AcDbLine
 10
8.02595251115004
 20
37.3305987290033
 11
8.12345584599532
 21
37.5207909691874
  0
LINE
  5
1117B
330
1F
100
AcDbEntity
  8
Слой1
  6
CONTINUOUS
 62
7
370
60
100
AcDbLine
 10
148.317814170831
 20
14.450857257748
 11
149.317814170831
 21
14.450857257748
  0
LINE
  5
1117C
330
1F
100
AcDbEntity
  8
Слой1
  6
CONTINUOUS
 62
7
370
60
100
AcDbLine
 10
168.921464982475
 20
44.9307602206045
 11
169.921464982475
 21
44.9307602206045
  0
LINE
  5
1117D
330
1F
100
AcDbEntity
  8
Слой1
  6
CONTINUOUS
 62
7
370
60
100
AcDbLine
 10
12.60240260028
 20
6.91918002235907
 11
12.9159945946244
 21
6.91255584757221
  0
LINE
  5
1117E
330
1F
100
AcDbEntity
  8
Слой1
  6
CONTINUOUS
 62
7
370
60
100
AcDbLine
 10
12.7523452950759
 20
0.173885119128067
 11
12.6341104438995
 21
0.333135719868301
  0
LINE
  5
1117F
330
1F
100
AcDbEntity
  8
Слой1
  6
CONTINUOUS
 62
7
370
60
100
AcDbLine
 10
227.816731140911
 20
67.6655168057274
 11
228.043000782768
 21
67.0094861218998
  0
LINE
  5
11180
330
1F
100
AcDbEntity
  8
Слой1
  6
CONTINUOUS
 62
7
370
60
100
AcDbLine
 10
48.3330188520899
 20
10.0000000000001
 11
48.3330188520891
 21
20.2634408694526
  0
LINE
  5
11181
330
1F
100
AcDbEntity
  8
Слой1
  6
CONTINUOUS
 62
7
370
60
100
AcDbLine
 10
6.40584577337622
 20
31.1341675653114
 11
6.67371332957653
 21
32.1697179551071
  0
LINE
  5
11182
330
1F
100
AcDbEntity
  8
Слой1
  6
CONTINUOUS
 62
7
370
60
100
AcDbLine
 10
159.399774262181
 20
36.1163329126355
 11
159.326055897577
 21
35.7944553022998
  0
LINE
  5
11183
330
1F
100
AcDbEntity
  8
Слой1
  6
CONTINUOUS
 62
7
370
60
100
AcDbLine
 10
50.0731560763855
 20
78.6707500178902
 11
50.2448273484308
 21
79.0176772874262
  0
LINE
  5
11184
330
1F
100
AcDbEntity
  8
Слой1
  6
CONTINUOUS
 62
7
370
60
100
AcDbLine
 10
173.066076062117
 20
34.6291485094108
 11
173.138425038812
 21
34.6268066818505
  0
LINE
  5
11185
330
1F
100
AcDbEntity
  8
Слой1
  6
CONTINUOUS
 62
7
370
60
100
AcDbLine
 10
71.1450742624536
 20
8.15966848034027
 11
71.1450742624536
 21
12.1596684803403
  0
LINE
  5
11186
330
1F
100
AcDbEntity
  8
Слой1
  6
CONTINUOUS
 62
7
370
60
100
AcDbLine
 10
152.265146502423
 20
111.715954170871
 11
152.29424429331
 21
111.901500874735
  0
LINE
  5
11187
330
1F
100
AcDbEntity
  8
Слой1
  6
CONTINUOUS
 62
7
370
60
100
AcDbLine
 10
227.500769453342
 20
73.2619028766588
 11
227.755518300911
 21
74.319259864275
  0
LINE
  5
11188
330
1F
100
AcDbEntity
  8
Слой1
  6
CONTINUOUS
 62
7
370
60
100
AcDbLine
 10
6.6890033678369
 20
26.9366285907719
 11
7.05453783466508
 21
26.1640586184299
  0
LINE
  5
11189
330
1F
100
AcDbEntity
  8
Слой1
  6
CONTINUOUS
 62
7
370
60
100
AcDbLine
 10
168.57572374956
 20
39.960156900469
 11
167.606137725577
 21
41.5065500239708
  0
LINE
  5
1118A
330
1F
100
AcDbEntity
  8
Слой1
  6
CONTINUOUS
 62
7
370
60
100
AcDbLine
 10
248.290333105441
 20
57.1067649554791
 11
248.29033310544
 21
67.1067649554796
  0
LINE
  5
1118B
330
1F
100
AcDbEntity
  8
Слой1
  6
CONTINUOUS
 62
7
370
60
100
AcDbLine
 10
8.41504987493872
 20
14.0309307061407
 11
8.58423312414511
 21
14.5435706504769
  0
LINE
  5
1118C
330
1F
100
AcDbEntity
  8
Слой1
  6
CONTINUOUS
 62
7
370
60
100
AcDbLine
 10
160.041529407782
 20
11.8877967135602
 11
160.05421871411
 21
12.515041536341
  0
LINE
  5
1118D
330
1F
100
AcDbEntity
  8
Слой1
  6
CONTINUOUS
 62
7
370
60
100
AcDbLine
 10
162.516220943334
 20
44.3122859563548
 11
162.207710634596
 21
43.8495177742512
  0
LINE
  5
1118E
330
1F
100
AcDbEntity
  8
Слой1
  6
CONTINUOUS
 62
7
370
60
100
AcDbLine
 10
19.2954803358296
 20
36.6640586184299
 11
20.2954803358306
 21
36.6640586184299
  0
LINE
  5
1118F
330
1F
100
AcDbEntity
  8
Слой1
  6
CONTINUOUS
 62
7
370
60
100
AcDbLine
 10
52.2134879521869
 20
0.681365740740853
 11
52.3452131871529
 21
0.543779880234797
  0
LINE
  5
11190
330
1F
100
AcDbEntity
  8
Слой1
  6
CONTINUOUS
 62
7
370
60
100
AcDbLine
 10
6.97406429011464
 20
8.12222873329129
 11
7.00486919931016
 21
9.1914194062025
  0
LINE
  5
11191
330
1F
100
AcDbEntity
  8
Слой1
  6
CONTINUOUS
 62
7
370
60
100
AcDbLine
 10
126.14796898454
 20
141.109937629168
 11
126.062572999877
 21
140.942764562943
  0
LINE
  5
11192
330
1F
100
AcDbEntity
  8
Слой1
  6
CONTINUOUS
 62
7
370
60
100
AcDbLine
 10
195.749511395831
 20
69.1318925820893
 11
202.829248514227
 21
69.1318925820893
  0
LINE
  5
11193
330
1F
100
AcDbEntity
  8
Слой1
  6
CONTINUOUS
 62
7
370
60
100
AcDbLine
 10
66.3325255369211
 20
7.30135503445679
 11
66.4209122210162
 21
6.99556919448617
  0
LINE
  5
11194
330
1F
100
AcDbEntity
  8
Слой1
  6
CONTINUOUS
 62
7
370
60
100
AcDbLine
 10
65.7098082308069
 20
78.7629517268802
 11
65.7098082308069
 21
81.3820238090976
  0
LINE
  5
11195
330
1F
100
AcDbEntity
  8
Слой1
  6
CONTINUOUS
 62
7
370
60
100
AcDbLine
 10
165.627793096224
 20
19.4721141611453
 11
165.754234791353
 21
19.8376552838083
  0
LINE
  5
11196
330
1F
100
AcDbEntity
  8
Слой1
  6
CONTINUOUS
 62
7
370
60
100
AcDbLine
 10
7.03831451549927
 20
10.6014724955297
 11
6.96999189885578
 21
10.4372333105588
  0
LINE
  5
11197
330
1F
100
AcDbEntity
  8
Слой1
  6
CONTINUOUS
 62
7
370
60
100
AcDbLine
 10
47.6653234520101
 20
19.7377907746293
 11
47.8249392983299
 21
19.8782572545283
  0
LINE
  5
11198
330
1F
100
AcDbEntity
  8
Слой1
  6
CONTINUOUS
 62
7
370
60
100
AcDbLine
 10
52.1987538878624
 20
26.2086634833411
 11
52.336701957051
 21
26.3400093502141
  0
LINE
  5
11199
330
1F
100
AcDbEntity
  8
Слой1
  6
CONTINUOUS
 62
7
370
60
100
AcDbLine
 10
120.217814170831
 20
120.277976515673
 11
131.385210254607
 21
120.277976515673
  0
LINE
  5
1119A
330
1F
100
AcDbEntity
  8
Слой1
  6
CONTINUOUS
 62
7
370
60
100
AcDbLine
 10
20.3296200707219
 20
16.8354796325838
 11
20.3411428464748
 21
16.823917797094
  0
LINE
  5
1119B
330
1F
100
AcDbEntity
  8
Слой1
  6
CONTINUOUS
 62
7
370
60
100
AcDbLine
 10
10.5954803358297
 20
35.041952136948
 11
10.5954803358296
 21
43.6713965603513
  0
LINE
  5
1119C
330
1F
100
AcDbEntity
  8
Слой1
  6
CONTINUOUS
 62
7
370
60
100
AcDbLine
 10
47.5109394587584
 20
45.7556521530056
 11
47.6653234520101
 21
45.9018493930591
  0
LINE
  5
1119D
330
1F
100
AcDbEntity
  8
Слой1
  6
CONTINUOUS
 62
7
370
60
100
AcDbLine
 10
157.95535268709
 20
124.277976515675
 11
158.95535268709
 21
124.277976515673
  0
LINE
  5
1119E
330
1F
100
AcDbEntity
  8
Слой1
  6
CONTINUOUS
 62
7
370
60
100
AcDbLine
 10
126.033015910662
 20
111.904591557681
 11
126.032615692516
 21
112.293067072953
  0
LINE
  5
1119F
330
1F
100
AcDbEntity
  8
Слой1
  6
CONTINUOUS
 62
7
370
60
100
AcDbLine
 10
51.2074237653315
 20
8.34707816920472
 11
50.8901609156577
 21
7.96976334026067
  0
LINE
  5
111A0
330
1F
100
AcDbEntity
  8
Слой1
  6
CONTINUOUS
 62
7
370
60
100
AcDbLine
 10
67.3328628821155
 20
43.9918216589904
 11
67.0697450239368
 21
43.5997155298787
  0
LINE
  5
111A1
330
1F
100
AcDbEntity
  8
Слой1
  6
CONTINUOUS
 62
7
370
60
100
AcDbLine
 10
158.507011996495
 20
34.3846711155731
 11
158.95535268709
 21
34.878052611477
  0
LINE
  5
111A2
330
1F
100
AcDbEntity
  8
Слой1
  6
CONTINUOUS
 62
7
370
60
100
AcDbLine
 10
28.9954803358296
 20
70.9533930902672
 11
28.1737920682211
 21
70.9351777111448
  0
LINE
  5
111A3
330
1F
100
AcDbEntity
  8
Слой1
  6
CONTINUOUS
 62
7
370
60
100
AcDbLine
 10
20.2954803358296
 20
43.0346448307877
 11
20.3067883857656
 21
43.0228728977437
  0
LINE
  5
111A4
330
1F
100
AcDbEntity
  8
Слой1
  6
CONTINUOUS
 62
7
370
60
100
AcDbLine
 10
75.7976878403426
 20
34.586886775613
 11
75.7742434660821
 21
35.3827723909984
  0
LINE
  5
111A5
330
1F
100
AcDbEntity
  8
Слой1
  6
CONTINUOUS
 62
7
370
60
100
AcDbLine
 10
9.59548033582964
 20
58.5853090061646
 11
9.59548033582964
 21
63.8595682991856
  0
LINE
  5
111A6
330
1F
100
AcDbEntity
  8
Слой1
  6
CONTINUOUS
 62
7
370
60
100
AcDbLine
 10
218.673139221212
 20
67.9134577068669
 11
218.772246552504
 21
68.3154568368502
  0
LINE
  5
111A7
330
1F
100
AcDbEntity
  8
Слой1
  6
CONTINUOUS
 62
7
370
60
100
AcDbLine
 10
116.933119761929
 20
20.7055780980955
 11
117.064135526088
 21
20.8359226494299
  0
LINE
  5
111A8
330
1F
100
AcDbEntity
  8
Слой1
  6
CONTINUOUS
 62
7
370
60
100
AcDbLine
 10
273.19402088346
 20
74.0475155038828
 11
272.913467038171
 21
73.9148344411085
  0
LINE
  5
111A9
330
1F
100
AcDbEntity
  8
Слой1
  6
CONTINUOUS
 62
7
370
60
100
AcDbLine
 10
0.0822232382561879
 20
58.9723955079676
 11
0.0302734269888106
 21
58.9974097066275
  0
LINE
  5
111AA
330
1F
100
AcDbEntity
  8
Слой1
  6
CONTINUOUS
 62
7
370
60
100
AcDbLine
 10
127.321140081821
 20
64.8498015768687
 11
127.709569994127
 21
64.5047979325815
  0
LINE
  5
111AB
330
1F
100
AcDbEntity
  8
Слой1
  6
CONTINUOUS
 62
7
370
60
100
AcDbLine
 10
212.137764316191
 20
64.3502704565321
 11
212.867097909823
 21
64.1617689417857
  0
LINE
  5
111AC
330
1F
100
AcDbEntity
  8
Слой1
  6
CONTINUOUS
 62
7
370
60
100
AcDbLine
 10
8.33231279280192
 20
62.1192103230474
 11
8.42942407891374
 21
61.9187370288367
  0
LINE
  5
111AD
330
1F
100
AcDbEntity
  8
Слой1
  6
CONTINUOUS
 62
7
370
60
100
AcDbLine
 10
8.41504987493872
 20
14.0309307061407
 11
8.29573810486454
 21
13.5476808290042
  0
LINE
  5
111AE
330
1F
100
AcDbEntity
  8
Слой1
  6
CONTINUOUS
 62
7
370
60
100
AcDbLine
 10
116.776341344714
 20
17.3030331434345
 11
116.928100180657
 21
17.3958326344795
  0
LINE
  5
111AF
330
1F
100
AcDbEntity
  8
Слой1
  6
CONTINUOUS
 62
7
370
60
100
AcDbLine
 10
175.0370642423
 20
70.322992008081
 11
176.0370642423
 21
70.322992008081
  0
LINE
  5
111B0
330
1F
100
AcDbEntity
  8
Слой1
  6
CONTINUOUS
 62
7
370
60
100
AcDbLine
 10
24.0714344069405
 20
71.0073387271546
 11
24.8867154257553
 21
70.9667820820366
  0
LINE
  5
111B1
330
1F
100
AcDbEntity
  8
Слой1
  6
CONTINUOUS
 62
7
370
60
100
AcDbLine
 10
218.905077244478
 20
70.6934496401318
 11
218.930006766198
 21
70.4130421493464
  0
LINE
  5
111B2
330
1F
100
AcDbEntity
  8
Слой1
  6
CONTINUOUS
 62
7
370
60
100
AcDbLine
 10
38.6954803358296
 20
36.1640586184325
 11
38.6954803358296
 21
41.3372869452671
  0
LINE
  5
111B3
330
1F
100
AcDbEntity
  8
Слой1
  6
CONTINUOUS
 62
7
370
60
100
AcDbLine
 10
175.332142065808
 20
35.0226898837165
 11
175.332142065808
 21
40.282948903565
  0
LINE
  5
111B4
330
1F
100
AcDbEntity
  8
Слой1
  6
CONTINUOUS
 62
7
370
60
100
AcDbLine
 10
155.094208552134
 20
140.757384718449
 11
155.123765641349
 21
140.942764562943
  0
LINE
  5
111B5
330
1F
100
AcDbEntity
  8
Слой1
  6
CONTINUOUS
 62
7
370
60
100
AcDbLine
 10
130.495699004488
 20
16.0091324050157
 11
130.901888362795
 21
16.6198310645692
  0
LINE
  5
111B6
330
1F
100
AcDbEntity
  8
Слой1
  6
CONTINUOUS
 62
7
370
60
100
AcDbLine
 10
61.9690283406198
 20
83.8564850761491
 11
61.7705744051292
 21
84.0670549490312
  0
LINE
  5
111B7
330
1F
100
AcDbEntity
  8
Слой1
  6
CONTINUOUS
 62
7
370
60
100
AcDbLine
 10
39.6954803358292
 20
10.0000000000001
 11
39.6954803358296
 21
15.318794666773
  0
LINE
  5
111B8
330
1F
100
AcDbEntity
  8
Слой1
  6
CONTINUOUS
 62
7
370
60
100
AcDbLine
 10
131.629126303461
 20
18.4721141611453
 11
131.629126303461
 21
19.4721141611453
  0
LINE
  5
111B9
330
1F
100
AcDbEntity
  8
Слой1
  6
CONTINUOUS
 62
7
370
60
100
AcDbLine
 10
165.686010671711
 20
36.5491102333853
 11
166.686010671711
 21
36.5491102333853
  0
LINE
  5
111BA
330
1F
100
AcDbEntity
  8
Слой1
  6
CONTINUOUS
 62
7
370
60
100
AcDbLine
 10
155.694826369876
 20
141.356766263887
 11
162.83199638671
 21
141.376772149748
  0
LINE
  5
111BB
330
1F
100
AcDbEntity
  8
Слой1
  6
CONTINUOUS
 62
7
370
60
100
AcDbLine
 10
11.339031923271
 20
57.968383700975
 11
10.9636225219522
 21
58.0054495045311
  0
LINE
  5
111BC
330
1F
100
AcDbEntity
  8
Слой1
  6
CONTINUOUS
 62
7
370
60
100
AcDbLine
 10
126.504475095231
 20
66.8055742935396
 11
126.529854556418
 21
66.5001136733324
  0
LINE
  5
111BD
330
1F
100
AcDbEntity
  8
Слой1
  6
CONTINUOUS
 62
7
370
60
100
AcDbLine
 10
46.0725318773702
 20
11.9056742774262
 11
46.0725318773706
 21
12.9056742774276
  0
LINE
  5
111BE
330
1F
100
AcDbEntity
  8
Слой1
  6
CONTINUOUS
 62
7
370
60
100
AcDbLine
 10
180.0370642423
 20
66.0346127755741
 11
180.037064242299
 21
67.0346127755733
  0
LINE
  5
111BF
330
1F
100
AcDbEntity
  8
Слой1
  6
CONTINUOUS
 62
7
370
60
100
AcDbLine
 10
126.381705510756
 20
29.3709479172448
 11
126.886508477199
 21
29.4609161386842
  0
LINE
  5
111C0
330
1F
100
AcDbEntity
  8
Слой1
  6
CONTINUOUS
 62
7
370
60
100
AcDbLine
 10
67.6775839140589
 20
12.8249961865835
 11
67.5741376670446
 21
12.4961964457802
  0
LINE
  5
111C1
330
1F
100
AcDbEntity
  8
Слой1
  6
CONTINUOUS
 62
7
370
60
100
AcDbLine
 10
147.992208925255
 20
64.8370373930461
 11
148.319716629335
 21
65.2431214282655
  0
LINE
  5
111C2
330
1F
100
AcDbEntity
  8
Слой1
  6
CONTINUOUS
 62
7
370
60
100
AcDbLine
 10
43.9311140324699
 20
73.1422966196886
 11
42.5267311677306
 21
72.7817435881222
  0
LINE
  5
111C3
330
1F
100
AcDbEntity
  8
Слой1
  6
CONTINUOUS
 62
7
370
60
100
AcDbLine
 10
51.7468832882004
 20
1.00063301843556
 11
51.3383579020761
 21
1.3914763578364
  0
LINE
  5
111C4
330
1F
100
AcDbEntity
  8
Слой1
  6
CONTINUOUS
 62
7
370
60
100
AcDbLine
 10
134.509049260756
 20
29.8677071765041
 11
133.693768241942
 21
29.908263821622
  0
LINE
  5
111C5
330
1F
100
AcDbEntity
  8
Слой1
  6
CONTINUOUS
 62
7
370
60
100
AcDbLine
 10
171.39290824013
 20
42.9679800434986
 11
171.200372568439
 21
43.1839746059388
  0
LINE
  5
111C6
330
1F
100
AcDbEntity
  8
Слой1
  6
CONTINUOUS
 62
7
370
60
100
AcDbLine
 10
158.95535268709
 20
129.277976515675
 11
158.95535268709
 21
133.277976515674
  0
LINE
  5
111C7
330
1F
100
AcDbEntity
  8
Слой1
  6
CONTINUOUS
 62
7
370
60
100
AcDbLine
 10
173.220683732475
 20
41.3880656370663
 11
173.621826265528
 21
41.1287936493929
  0
LINE
  5
111C8
330
1F
100
AcDbEntity
  8
Слой1
  6
CONTINUOUS
 62
7
370
60
100
AcDbLine
 10
160.873461946179
 20
35.4451738511337
 11
160.961848630274
 21
35.1393880111631
  0
LINE
  5
111C9
330
1F
100
AcDbEntity
  8
Слой1
  6
CONTINUOUS
 62
7
370
60
100
AcDbLine
 10
129.917814170831
 20
129.277976515675
 11
129.91781417083
 21
133.277976515674
  0
LINE
  5
111CA
330
1F
100
AcDbEntity
  8
Слой1
  6
CONTINUOUS
 62
7
370
60
100
AcDbLine
 10
53.756238037308
 20
86.104825943014
 11
54.2744256295935
 21
86.3068522288447
  0
LINE
  5
111CB
330
1F
100
AcDbEntity
  8
Слой1
  6
CONTINUOUS
 62
7
370
60
100
AcDbLine
 10
119.217814170831
 20
24.7950019117038
 11
120.217814170831
 21
24.7950019117038
  0
LINE
  5
111CC
330
1F
100
AcDbEntity
  8
Слой1
  6
CONTINUOUS
 62
7
370
60
100
AcDbLine
 10
12.3637382320359
 20
26.7870924565219
 11
12.5043340703352
 21
26.6471887606389
  0
LINE
  5
111CD
330
1F
100
AcDbEntity
  8
Слой1
  6
CONTINUOUS
 62
7
370
60
100
AcDbLine
 10
155.694826369876
 20
111.305210012244
 11
162.83199638671
 21
111.285204126383
  0
LINE
  5
111CE
330
1F
100
AcDbEntity
  8
Слой1
  6
CONTINUOUS
 62
7
370
60
100
AcDbLine
 10
176.332142065808
 20
37.6638768213476
 11
176.336961110106
 21
39.9533611800129
  0
LINE
  5
111CF
330
1F
100
AcDbEntity
  8
Слой1
  6
CONTINUOUS
 62
7
370
60
100
AcDbLine
 10
201.042182463259
 20
64.0834445191895
 11
201.791399118631
 21
64.1617689417873
  0
LINE
  5
111D0
330
1F
100
AcDbEntity
  8
Слой1
  6
CONTINUOUS
 62
7
370
60
100
AcDbLine
 10
134.509049260756
 20
29.8677071765041
 11
135.330601364436
 21
29.8441370661454
  0
LINE
  5
111D1
330
1F
100
AcDbEntity
  8
Слой1
  6
CONTINUOUS
 62
7
370
60
100
AcDbLine
 10
120.217814170831
 20
19.4721141611443
 11
120.217814170831
 21
26.5881131290333
  0
LINE
  5
111D2
330
1F
100
AcDbEntity
  8
Слой1
  6
CONTINUOUS
 62
7
370
60
100
AcDbLine
 10
8.12345584599532
 20
37.5207909691874
 11
8.1602321666054
 21
37.7313319171632
  0
LINE
  5
111D3
330
1F
100
AcDbEntity
  8
Слой1
  6
CONTINUOUS
 62
7
370
60
100
AcDbLine
 10
12.6341104438995
 20
0.333135719868301
 11
12.5043340703352
 21
0.483130142208984
  0
LINE
  5
111D4
330
1F
100
AcDbEntity
  8
Слой1
  6
CONTINUOUS
 62
7
370
60
100
AcDbLine
 10
128.917814170831
 20
19.4721141611439
 11
128.917814170831
 21
29.766439883717
  0
LINE
  5
111D5
330
1F
100
AcDbEntity
  8
Слой1
  6
CONTINUOUS
 62
7
370
60
100
AcDbLine
 10
138.61781417083
 20
133.277976515674
 11
139.617814170832
 21
133.277976515674
  0
LINE
  5
111D6
330
1F
100
AcDbEntity
  8
Слой1
  6
CONTINUOUS
 62
7
370
60
100
AcDbLine
 10
227.755518300911
 20
74.319259864275
 11
228.108796744103
 21
75.3478973690233
  0
LINE
  5
111D7
330
1F
100
AcDbEntity
  8
Слой1
  6
CONTINUOUS
 62
7
370
60
100
AcDbLine
 10
47.8667189605067
 20
74.6246496467111
 11
48.3946431014801
 21
75.031750097118
  0
LINE
  5
111D8
330
1F
100
AcDbEntity
  8
Слой1
  6
CONTINUOUS
 62
7
370
60
100
AcDbLine
 10
173.220683732475
 20
34.6333458946958
 11
174.058652909968
 21
34.6999608452303
  0
LINE
  5
111D9
330
1F
100
AcDbEntity
  8
Слой1
  6
CONTINUOUS
 62
7
370
60
100
AcDbLine
 10
71.1450742624536
 20
8.15966848034027
 11
72.1450742624536
 21
8.15966848034027
  0
LINE
  5
111DA
330
1F
100
AcDbEntity
  8
Слой1
  6
CONTINUOUS
 62
7
370
60
100
AcDbLine
 10
152.293840891058
 20
112.293067072953
 11
155.093808333988
 21
112.293067072953
  0
LINE
  5
111DB
330
1F
100
AcDbEntity
  8
Слой1
  6
CONTINUOUS
 62
7
370
60
100
AcDbLine
 10
239.290333105442
 20
64.7276873923693
 11
238.747197403125
 21
64.950497711846
  0
LINE
  5
111DC
330
1F
100
AcDbEntity
  8
Слой1
  6
CONTINUOUS
 62
7
370
60
100
AcDbLine
 10
104.419752594031
 20
59.653970216565
 11
104.419752594031
 21
68.5318637350831
  0
LINE
  5
111DD
330
1F
100
AcDbEntity
  8
Слой1
  6
CONTINUOUS
 62
7
370
60
100
AcDbLine
 10
8.58423312414511
 20
14.5435706504769
 11
8.78788790182939
 21
15.0435180635788
  0
LINE
  5
111DE
330
1F
100
AcDbEntity
  8
Слой1
  6
CONTINUOUS
 62
7
370
60
100
AcDbLine
 10
160.05421871411
 20
12.515041536341
 11
160.082273610106
 21
13.1417871059392
  0
LINE
  5
111DF
330
1F
100
AcDbEntity
  8
Слой1
  6
CONTINUOUS
 62
7
370
60
100
AcDbLine
 10
162.207710634596
 20
43.8495177742512
 11
161.999185979506
 21
43.3339108802078
  0
LINE
  5
111E0
330
1F
100
AcDbEntity
  8
Слой1
  6
CONTINUOUS
 62
7
370
60
100
AcDbLine
 10
153.553447867471
 20
32.043221714156
 11
154.949392761656
 21
32.435175246788
  0
LINE
  5
111E1
330
1F
100
AcDbEntity
  8
Слой1
  6
CONTINUOUS
 62
7
370
60
100
AcDbLine
 10
161.83582178719
 20
7.24780562445762
 11
161.369217123202
 21
7.56707290215231
  0
LINE
  5
111E2
330
1F
100
AcDbEntity
  8
Слой1
  6
CONTINUOUS
 62
7
370
60
100
AcDbLine
 10
195.749511395831
 20
69.1318925820893
 11
195.803379566809
 21
68.7211478322522
  0
LINE
  5
111E3
330
1F
100
AcDbEntity
  8
Слой1
  6
CONTINUOUS
 62
7
370
60
100
AcDbLine
 10
20.2954803358306
 20
36.6640586184299
 11
20.2954803358296
 21
43.0346448307876
  0
LINE
  5
111E4
330
1F
100
AcDbEntity
  8
Слой1
  6
CONTINUOUS
 62
7
370
60
100
AcDbLine
 10
249.290333105441
 20
57.1067649554791
 11
249.29033310544
 21
67.1067649554791
  0
LINE
  5
111E5
330
1F
100
AcDbEntity
  8
Слой1
  6
CONTINUOUS
 62
7
370
60
100
AcDbLine
 10
52.336701957051
 20
0.175950731784201
 11
52.3903278124136
 21
0.358722923799587
  0
LINE
  5
111E6
330
1F
100
AcDbEntity
  8
Слой1
  6
CONTINUOUS
 62
7
370
60
100
AcDbLine
 10
126.062572999877
 20
140.942764562943
 11
126.033015910662
 21
140.757384718449
  0
LINE
  5
111E7
330
1F
100
AcDbEntity
  8
Слой1
  6
CONTINUOUS
 62
7
370
60
100
AcDbLine
 10
7.03831451549927
 20
10.6014724955297
 11
7.15400750971321
 21
10.7365932597177
  0
LINE
  5
111E8
330
1F
100
AcDbEntity
  8
Слой1
  6
CONTINUOUS
 62
7
370
60
100
AcDbLine
 10
165.189578475646
 20
45.3167929522082
 11
165.437790688146
 21
45.3187831574791
  0
LINE
  5
111E9
330
1F
100
AcDbEntity
  8
Слой1
  6
CONTINUOUS
 62
7
370
60
100
AcDbLine
 10
52.2134879521869
 20
26.8454243591707
 11
52.3452131871529
 21
26.7078384986647
  0
LINE
  5
111EA
330
1F
100
AcDbEntity
  8
Слой1
  6
CONTINUOUS
 62
7
370
60
100
AcDbLine
 10
120.217814170831
 20
6.56643988371677
 11
120.217814170831
 21
18.4721141611453
  0
LINE
  5
111EB
330
1F
100
AcDbEntity
  8
Слой1
  6
CONTINUOUS
 62
7
370
60
100
AcDbLine
 10
138.617814170831
 20
15.7546184295099
 11
138.617814170831
 21
18.4721141611453
  0
LINE
  5
111EC
330
1F
100
AcDbEntity
  8
Слой1
  6
CONTINUOUS
 62
7
370
60
100
AcDbLine
 10
8.15906013009321
 20
12.5621931374123
 11
8.14235374975788
 21
12.0647128472633
  0
LINE
  5
111ED
330
1F
100
AcDbEntity
  8
Слой1
  6
CONTINUOUS
 62
7
370
60
100
AcDbLine
 10
66.332689334254
 20
7.61965859871943
 11
66.4213906830111
 21
7.92535331012368
  0
LINE
  5
111EE
330
1F
100
AcDbEntity
  8
Слой1
  6
CONTINUOUS
 62
7
370
60
100
AcDbLine
 10
47.8249392983299
 20
19.8782572545283
 11
47.9895744007957
 21
20.0128058829408
  0
LINE
  5
111EF
330
1F
100
AcDbEntity
  8
Слой1
  6
CONTINUOUS
 62
7
370
60
100
AcDbLine
 10
128.91781417083
 20
124.277976515672
 11
129.91781417083
 21
124.277976515672
  0
LINE
  5
111F0
330
1F
100
AcDbEntity
  8
Слой1
  6
CONTINUOUS
 62
7
370
60
100
AcDbLine
 10
165.686010671711
 20
26.1929601537126
 11
166.686010671711
 21
26.1929601537126
  0
LINE
  5
111F1
330
1F
100
AcDbEntity
  8
Слой1
  6
CONTINUOUS
 62
7
370
60
100
AcDbLine
 10
20.3411428464748
 20
16.823917797094
 11
20.3527363337593
 21
16.8124268679092
  0
LINE
  5
111F2
330
1F
100
AcDbEntity
  8
Слой1
  6
CONTINUOUS
 62
7
370
60
100
AcDbLine
 10
158.95535268709
 20
124.277976515673
 11
158.95535268709
 21
128.277976515672
  0
LINE
  5
111F3
330
1F
100
AcDbEntity
  8
Слой1
  6
CONTINUOUS
 62
7
370
60
100
AcDbLine
 10
156.454418501798
 20
7.87555394908104
 11
156.339797086144
 21
7.41295729328554
  0
LINE
  5
111F4
330
1F
100
AcDbEntity
  8
Слой1
  6
CONTINUOUS
 62
7
370
60
100
AcDbLine
 10
47.6653234520101
 20
45.9018493930591
 11
47.8249392983299
 21
46.0423158729582
  0
LINE
  5
111F5
330
1F
100
AcDbEntity
  8
Слой1
  6
CONTINUOUS
 62
7
370
60
100
AcDbLine
 10
207.229065453853
 20
81.6518962942201
 11
207.429431574606
 21
81.65189629422
  0
LINE
  5
111F6
330
1F
100
AcDbEntity
  8
Слой1
  6
CONTINUOUS
 62
7
370
60
100
AcDbLine
 10
38.6954803358296
 20
63.8595682991856
 11
38.6954803358296
 21
71.9659521812589
  0
LINE
  5
111F7
330
1F
100
AcDbEntity
  8
Слой1
  6
CONTINUOUS
 62
7
370
60
100
AcDbLine
 10
67.0697450239368
 20
43.5997155298787
 11
66.8505672823571
 21
43.1814580238187
  0
LINE
  5
111F8
330
1F
100
AcDbEntity
  8
Слой1
  6
CONTINUOUS
 62
7
370
60
100
AcDbLine
 10
51.2074237653315
 20
8.34707816920472
 11
51.5933063552301
 21
8.65386282126121
  0
LINE
  5
111F9
330
1F
100
AcDbEntity
  8
Слой1
  6
CONTINUOUS
 62
7
370
60
100
AcDbLine
 10
244.290333105442
 20
70.01243923291
 11
252.234782030393
 21
70.0124392329056
  0
LINE
  5
111FA
330
1F
100
AcDbEntity
  8
Слой1
  6
CONTINUOUS
 62
7
370
60
100
AcDbLine
 10
168.046208120477
 20
45.1981922099102
 11
168.488948200989
 21
45.0900517344242
  0
LINE
  5
111FB
330
1F
100
AcDbEntity
  8
Слой1
  6
CONTINUOUS
 62
7
370
60
100
AcDbLine
 10
273.128315380247
 20
76.9811095255361
 11
273.405179858714
 21
76.9358411816889
  0
LINE
  5
111FC
330
1F
100
AcDbEntity
  8
Слой1
  6
CONTINUOUS
 62
7
370
60
100
AcDbLine
 10
218.772246552504
 20
68.3154568368502
 11
218.850928936393
 21
68.7219474838383
  0
LINE
  5
111FD
330
1F
100
AcDbEntity
  8
Слой1
  6
CONTINUOUS
 62
7
370
60
100
AcDbLine
 10
50.8901609156577
 20
34.1338219586906
 11
51.2074237653315
 21
34.5111367876346
  0
LINE
  5
111FE
330
1F
100
AcDbEntity
  8
Слой1
  6
CONTINUOUS
 62
7
370
60
100
AcDbLine
 10
118.917018664161
 20
22.5625849599232
 11
119.217814170831
 21
23.0108535708118
  0
LINE
  5
111FF
330
1F
100
AcDbEntity
  8
Слой1
  6
CONTINUOUS
 62
7
370
60
100
AcDbLine
 10
3.31103183200537
 20
60.063251989444
 11
3.89553172962892
 21
60.4436693591996
  0
LINE
  5
11200
330
1F
100
AcDbEntity
  8
Слой1
  6
CONTINUOUS
 62
7
370
60
100
AcDbLine
 10
117.064135526088
 20
20.8359226494299
 11
117.202133190985
 21
20.9588513970993
  0
LINE
  5
11201
330
1F
100
AcDbEntity
  8
Слой1
  6
CONTINUOUS
 62
7
370
60
100
AcDbLine
 10
168.199431961792
 20
66.0346127755733
 11
171.0370642423
 21
66.0346127755733
  0
LINE
  5
11202
330
1F
100
AcDbEntity
  8
Слой1
  6
CONTINUOUS
 62
7
370
60
100
AcDbLine
 10
129.97507016876
 20
23.378866751626
 11
129.963476681476
 21
23.3903576808108
  0
LINE
  5
11203
330
1F
100
AcDbEntity
  8
Слой1
  6
CONTINUOUS
 62
7
370
60
100
AcDbLine
 10
73.0495335474766
 20
41.8665787649765
 11
72.0799475234941
 21
43.4129718884783
  0
LINE
  5
11204
330
1F
100
AcDbEntity
  8
Слой1
  6
CONTINUOUS
 62
7
370
60
100
AcDbLine
 10
120.314664024781
 20
9.32157075139376
 11
120.533399687609
 21
8.77224390308011
  0
LINE
  5
11205
330
1F
100
AcDbEntity
  8
Слой1
  6
CONTINUOUS
 62
7
370
60
100
AcDbLine
 10
8.42942407891374
 20
61.9187370288367
 11
8.41504987494241
 21
61.69644549539
  0
LINE
  5
11206
330
1F
100
AcDbEntity
  8
Слой1
  6
CONTINUOUS
 62
7
370
60
100
AcDbLine
 10
0.0328288091858212
 20
59.1521771047959
 11
0.0855761028386951
 21
59.1754626375922
  0
LINE
  5
11207
330
1F
100
AcDbEntity
  8
Слой1
  6
CONTINUOUS
 62
7
370
60
100
AcDbLine
 10
120.217814170831
 20
11.0081811518725
 11
120.225687826516
 21
11.0772433838763
  0
LINE
  5
11208
330
1F
100
AcDbEntity
  8
Слой1
  6
CONTINUOUS
 62
7
370
60
100
AcDbLine
 10
155.093808333988
 20
140.368909203177
 11
155.094208552134
 21
140.757384718449
  0
LINE
  5
11209
330
1F
100
AcDbEntity
  8
Слой1
  6
CONTINUOUS
 62
7
370
60
100
AcDbLine
 10
67.3328628821155
 20
43.9918216589904
 11
67.6368355537494
 21
44.3531785998109
  0
LINE
  5
1120A
330
1F
100
AcDbEntity
  8
Слой1
  6
CONTINUOUS
 62
7
370
60
100
AcDbLine
 10
130.901888362795
 20
16.6198310645692
 11
131.224500492087
 21
17.278514646887
  0
LINE
  5
1120B
330
1F
100
AcDbEntity
  8
Слой1
  6
CONTINUOUS
 62
7
370
60
100
AcDbLine
 10
38.6954803358296
 20
41.3372869452671
 11
37.9060451877564
 21
41.2120450796689
  0
LINE
  5
1120C
330
1F
100
AcDbEntity
  8
Слой1
  6
CONTINUOUS
 62
7
370
60
100
AcDbLine
 10
61.7705744051292
 20
84.0670549490312
 11
61.5780387334381
 21
84.2830495114714
  0
LINE
  5
1120D
330
1F
100
AcDbEntity
  8
Слой1
  6
CONTINUOUS
 62
7
370
60
100
AcDbLine
 10
65.3474355414283
 20
37.6698992799038
 11
65.3472717440954
 21
37.3515957156412
  0
LINE
  5
1120E
330
1F
100
AcDbEntity
  8
Слой1
  6
CONTINUOUS
 62
7
370
60
100
AcDbLine
 10
19.2954803358296
 20
70.8415325856899
 11
18.7860823217763
 21
70.7829324229187
  0
LINE
  5
1120F
330
1F
100
AcDbEntity
  8
Слой1
  6
CONTINUOUS
 62
7
370
60
100
AcDbLine
 10
126.529854556418
 20
66.5001136733324
 11
126.563405200698
 21
66.1954422735983
  0
LINE
  5
11210
330
1F
100
AcDbEntity
  8
Слой1
  6
CONTINUOUS
 62
7
370
60
100
AcDbLine
 10
152.29424429331
 20
140.760475401396
 11
152.265146502423
 21
140.946022105259
  0
LINE
  5
11211
330
1F
100
AcDbEntity
  8
Слой1
  6
CONTINUOUS
 62
7
370
60
100
AcDbLine
 10
148.317814170831
 20
21.739668210554
 11
147.528379022757
 21
21.6144263449557
  0
LINE
  5
11212
330
1F
100
AcDbEntity
  8
Слой1
  6
CONTINUOUS
 62
7
370
60
100
AcDbLine
 10
11.339031923271
 20
57.968383700975
 11
11.7161654419574
 21
57.9771244947017
  0
LINE
  5
11213
330
1F
100
AcDbEntity
  8
Слой1
  6
CONTINUOUS
 62
7
370
60
100
AcDbLine
 10
119.217814170831
 20
15.7028261797408
 11
120.217814170831
 21
15.7028261797408
  0
LINE
  5
11214
330
1F
100
AcDbEntity
  8
Слой1
  6
CONTINUOUS
 62
7
370
60
100
AcDbLine
 10
180.0370642423
 20
66.0346127755741
 11
182.874696523059
 21
66.0346127755733
  0
LINE
  5
11215
330
1F
100
AcDbEntity
  8
Слой1
  6
CONTINUOUS
 62
7
370
60
100
AcDbLine
 10
42.7710033628769
 20
55.3909224274979
 11
44.1628144296092
 21
55.2948325132756
  0
LINE
  5
11216
330
1F
100
AcDbEntity
  8
Слой1
  6
CONTINUOUS
 62
7
370
60
100
AcDbLine
 10
228.043000782768
 20
67.0094861218998
 11
228.308340959151
 21
66.3682616684152
  0
LINE
  5
11217
330
1F
100
AcDbEntity
  8
Слой1
  6
CONTINUOUS
 62
7
370
60
100
AcDbLine
 10
158.95535268709
 20
6.56643988371677
 11
158.95535268709
 21
18.4721141611453
  0
LINE
  5
11218
330
1F
100
AcDbEntity
  8
Слой1
  6
CONTINUOUS
 62
7
370
60
100
AcDbLine
 10
168.921464982475
 20
39.329507114212
 11
168.921464982475
 21
44.9463771887921
  0
LINE
  5
11219
330
1F
100
AcDbEntity
  8
Слой1
  6
CONTINUOUS
 62
7
370
60
100
AcDbLine
 10
67.5741376670446
 20
12.4961964457802
 11
67.5285400323407
 21
12.1545368911311
  0
LINE
  5
1121A
330
1F
100
AcDbEntity
  8
Слой1
  6
CONTINUOUS
 62
7
370
60
100
AcDbLine
 10
148.319716629335
 20
65.2431214282655
 11
148.570229211629
 21
65.7007336942778
  0
LINE
  5
1121B
330
1F
100
AcDbEntity
  8
Слой1
  6
CONTINUOUS
 62
7
370
60
100
AcDbLine
 10
84.2418755848105
 20
71.5596444939932
 11
85.919752594032
 21
71.5596444939944
  0
LINE
  5
1121C
330
1F
100
AcDbEntity
  8
Слой1
  6
CONTINUOUS
 62
7
370
60
100
AcDbLine
 10
133.693768241942
 20
29.908263821622
 11
132.877736074974
 21
29.928745119855
  0
LINE
  5
1121D
330
1F
100
AcDbEntity
  8
Слой1
  6
CONTINUOUS
 62
7
370
60
100
AcDbLine
 10
227.345884180491
 20
70.0124392329056
 11
227.295036440067
 21
71.0988623925871
  0
LINE
  5
1121E
330
1F
100
AcDbEntity
  8
Слой1
  6
CONTINUOUS
 62
7
370
60
100
AcDbLine
 10
143.459648645782
 20
137.277976515673
 11
163.420196062976
 21
137.277976515673
  0
LINE
  5
1121F
330
1F
100
AcDbEntity
  8
Слой1
  6
CONTINUOUS
 62
7
370
60
100
AcDbLine
 10
227.290333105443
 20
57.1067649554791
 11
230.290333105442
 21
57.1067649554791
  0
LINE
  5
11220
330
1F
100
AcDbEntity
  8
Слой1
  6
CONTINUOUS
 62
7
370
60
100
AcDbLine
 10
113.51786556463
 20
19.3445944536669
 11
114.046951014459
 21
19.7989358366738
  0
LINE
  5
11221
330
1F
100
AcDbEntity
  8
Слой1
  6
CONTINUOUS
 62
7
370
60
100
AcDbLine
 10
144.00820719342
 20
19.4721141611453
 11
162.83199638671
 21
19.4721141611453
  0
LINE
  5
11222
330
1F
100
AcDbEntity
  8
Слой1
  6
CONTINUOUS
 62
7
370
60
100
AcDbLine
 10
120.217814170831
 20
137.277976515673
 11
131.385210254607
 21
137.277976515673
  0
LINE
  5
11223
330
1F
100
AcDbEntity
  8
Слой1
  6
CONTINUOUS
 62
7
370
60
100
AcDbLine
 10
11.7666903431621
 20
6.52434707526884
 11
12.0120362058889
 21
6.71976771453531
  0
LINE
  5
11224
330
1F
100
AcDbEntity
  8
Слой1
  6
CONTINUOUS
 62
7
370
60
100
AcDbLine
 10
148.317814170831
 20
13.8547131444853
 11
149.317814170831
 21
13.8547131444853
  0
LINE
  5
11225
330
1F
100
AcDbEntity
  8
Слой1
  6
CONTINUOUS
 62
7
370
60
100
AcDbLine
 10
8.21027065616224
 20
39.2213711598757
 11
8.29573810486454
 21
39.7117394474341
  0
LINE
  5
11226
330
1F
100
AcDbEntity
  8
Слой1
  6
CONTINUOUS
 62
7
370
60
100
AcDbLine
 10
146.042370314977
 20
15.3057742820006
 11
146.421295084674
 21
15.2355665799628
  0
LINE
  5
11227
330
1F
100
AcDbEntity
  8
Слой1
  6
CONTINUOUS
 62
7
370
60
100
AcDbLine
 10
6.67371332957653
 20
32.1697179551071
 11
6.86347298902979
 21
33.2223854757969
  0
LINE
  5
11228
330
1F
100
AcDbEntity
  8
Слой1
  6
CONTINUOUS
 62
7
370
60
100
AcDbLine
 10
159.226968097061
 20
35.4794613323512
 11
159.103138788093
 21
35.1733471452319
  0
LINE
  5
11229
330
1F
100
AcDbEntity
  8
Слой1
  6
CONTINUOUS
 62
7
370
60
100
AcDbLine
 10
50.9655836631726
 20
56.1862728684038
 11
50.4253056029012
 21
56.0294738032081
  0
LINE
  5
1122A
330
1F
100
AcDbEntity
  8
Слой1
  6
CONTINUOUS
 62
7
370
60
100
AcDbLine
 10
152.29424429331
 20
111.901500874735
 11
152.293840891058
 21
112.293067072953
  0
LINE
  5
1122B
330
1F
100
AcDbEntity
  8
Слой1
  6
CONTINUOUS
 62
7
370
60
100
AcDbLine
 10
228.108796744103
 20
75.3478973690233
 11
228.557459089694
 21
76.3386561056727
  0
LINE
  5
1122C
330
1F
100
AcDbEntity
  8
Слой1
  6
CONTINUOUS
 62
7
370
60
100
AcDbLine
 10
122.597942236618
 20
28.1927726610264
 11
121.390761788869
 21
27.6525602071775
  0
LINE
  5
1122D
330
1F
100
AcDbEntity
  8
Слой1
  6
CONTINUOUS
 62
7
370
60
100
AcDbLine
 10
174.058652909968
 20
34.6999608452303
 11
174.964994058449
 21
34.8752223328448
  0
LINE
  5
1122E
330
1F
100
AcDbEntity
  8
Слой1
  6
CONTINUOUS
 62
7
370
60
100
AcDbLine
 10
48.3330188520891
 20
63.8595682991856
 11
49.3330188520891
 21
63.8595682991856
  0
LINE
  5
1122F
330
1F
100
AcDbEntity
  8
Слой1
  6
CONTINUOUS
 62
7
370
60
100
AcDbLine
 10
8.78788790182939
 20
15.0435180635788
 11
9.02507121677009
 21
15.5284580180626
  0
LINE
  5
11230
330
1F
100
AcDbEntity
  8
Слой1
  6
CONTINUOUS
 62
7
370
60
100
AcDbLine
 10
262.223834346933
 20
74.0113301156193
 11
262.526279848611
 21
74.0809105944944
  0
LINE
  5
11231
330
1F
100
AcDbEntity
  8
Слой1
  6
CONTINUOUS
 62
7
370
60
100
AcDbLine
 10
74.8433080543495
 20
1.73260623152321
 11
75.2731555636095
 21
1.809542005667
  0
LINE
  5
11232
330
1F
100
AcDbEntity
  8
Слой1
  6
CONTINUOUS
 62
7
370
60
100
AcDbLine
 10
13.0102981360501
 20
39.0697328958584
 11
17.0112998934029
 21
39.0697328958585
  0
LINE
  5
11233
330
1F
100
AcDbEntity
  8
Слой1
  6
CONTINUOUS
 62
7
370
60
100
AcDbLine
 10
128.917814170831
 20
29.7664398837826
 11
129.917814170831
 21
29.7664398837826
  0
LINE
  5
11234
330
1F
100
AcDbEntity
  8
Слой1
  6
CONTINUOUS
 62
7
370
60
100
AcDbLine
 10
239.290333105442
 20
73.3008184654154
 11
240.290333105442
 21
73.3008184654154
  0
LINE
  5
11235
330
1F
100
AcDbEntity
  8
Слой1
  6
CONTINUOUS
 62
7
370
60
100
AcDbLine
 10
13.2197212711533
 20
32.9982950905372
 11
12.9159945946244
 21
33.0766144660021
  0
LINE
  5
11236
330
1F
100
AcDbEntity
  8
Слой1
  6
CONTINUOUS
 62
7
370
60
100
AcDbLine
 10
52.3452131871529
 20
0.543779880234797
 11
52.3903278124136
 21
0.358722923799587
  0
LINE
  5
11237
330
1F
100
AcDbEntity
  8
Слой1
  6
CONTINUOUS
 62
7
370
60
100
AcDbLine
 10
195.803379566809
 20
68.7211478322522
 11
195.880013065969
 21
68.3140356411183
  0
LINE
  5
11238
330
1F
100
AcDbEntity
  8
Слой1
  6
CONTINUOUS
 62
7
370
60
100
AcDbLine
 10
126.032615692516
 20
140.368909203177
 11
126.033015910662
 21
140.757384718449
  0
LINE
  5
11239
330
1F
100
AcDbEntity
  8
Слой1
  6
CONTINUOUS
 62
7
370
60
100
AcDbLine
 10
171.03473924382
 20
31.1185329586715
 11
171.234717807708
 21
31.8892418047651
  0
LINE
  5
1123A
330
1F
100
AcDbEntity
  8
Слой1
  6
CONTINUOUS
 62
7
370
60
100
AcDbLine
 10
167.28788843162
 20
26.9060864405789
 11
167.501337766988
 21
28.1792278140767
  0
LINE
  5
1123B
330
1F
100
AcDbEntity
  8
Слой1
  6
CONTINUOUS
 62
7
370
60
100
AcDbLine
 10
8.02595251115004
 20
37.3305987290033
 11
7.8764774859676
 21
37.1778335321198
  0
LINE
  5
1123C
330
1F
100
AcDbEntity
  8
Слой1
  6
CONTINUOUS
 62
7
370
60
100
AcDbLine
 10
139.617814170831
 20
29.8905927691711
 11
141.367121488786
 21
29.9913721111293
  0
LINE
  5
1123D
330
1F
100
AcDbEntity
  8
Слой1
  6
CONTINUOUS
 62
7
370
60
100
AcDbLine
 10
8.14235374975788
 20
12.0647128472633
 11
8.16023216660537
 21
11.5672732987333
  0
LINE
  5
1123E
330
1F
100
AcDbEntity
  8
Слой1
  6
CONTINUOUS
 62
7
370
60
100
AcDbLine
 10
139.617814170831
 20
15.7546184295099
 11
139.617814170831
 21
18.4721141611453
  0
LINE
  5
1123F
330
1F
100
AcDbEntity
  8
Слой1
  6
CONTINUOUS
 62
7
370
60
100
AcDbLine
 10
129.91781417083
 20
124.277976515672
 11
129.917814170831
 21
128.277976515672
  0
LINE
  5
11240
330
1F
100
AcDbEntity
  8
Слой1
  6
CONTINUOUS
 62
7
370
60
100
AcDbLine
 10
52.336701957051
 20
26.3400093502141
 11
52.3903278124136
 21
26.5227815422295
  0
LINE
  5
11241
330
1F
100
AcDbEntity
  8
Слой1
  6
CONTINUOUS
 62
7
370
60
100
AcDbLine
 10
47.9895744007957
 20
20.0128058829408
 11
48.1590094771942
 21
20.1412574506909
  0
LINE
  5
11242
330
1F
100
AcDbEntity
  8
Слой1
  6
CONTINUOUS
 62
7
370
60
100
AcDbLine
 10
65.7098082308069
 20
78.7629517268802
 11
66.7098082308069
 21
78.7629517268802
  0
LINE
  5
11243
330
1F
100
AcDbEntity
  8
Слой1
  6
CONTINUOUS
 62
7
370
60
100
AcDbLine
 10
123.233051651838
 20
140.760475401396
 11
123.203953860951
 21
140.946022105259
  0
LINE
  5
11244
330
1F
100
AcDbEntity
  8
Слой1
  6
CONTINUOUS
 62
7
370
60
100
AcDbLine
 10
46.5618155889074
 20
0.396064814814918
 11
46.5486068181683
 21
0.287036243580451
  0
LINE
  5
11245
330
1F
100
AcDbEntity
  8
Слой1
  6
CONTINUOUS
 62
7
370
60
100
AcDbLine
 10
47.8249392983299
 20
46.0423158729582
 11
47.9895744007957
 21
46.1768645013707
  0
LINE
  5
11246
330
1F
100
AcDbEntity
  8
Слой1
  6
CONTINUOUS
 62
7
370
60
100
AcDbLine
 10
158.95535268709
 20
128.277976515672
 11
165.919610849689
 21
128.277976515673
  0
LINE
  5
11247
330
1F
100
AcDbEntity
  8
Слой1
  6
CONTINUOUS
 62
7
370
60
100
AcDbLine
 10
126.033015910662
 20
111.904591557681
 11
126.062572999877
 21
111.719211713187
  0
LINE
  5
11248
330
1F
100
AcDbEntity
  8
Слой1
  6
CONTINUOUS
 62
7
370
60
100
AcDbLine
 10
38.6954803358296
 20
71.9659521812589
 11
36.9673447206906
 21
71.6765046659747
  0
LINE
  5
11249
330
1F
100
AcDbEntity
  8
Слой1
  6
CONTINUOUS
 62
7
370
60
100
AcDbLine
 10
120.217814170831
 20
128.277976515672
 11
128.917814170831
 21
128.277976515673
  0
LINE
  5
1124A
330
1F
100
AcDbEntity
  8
Слой1
  6
CONTINUOUS
 62
7
370
60
100
AcDbLine
 10
41.388764644897
 20
55.5800981225828
 11
38.89668197914
 21
55.9459729061073
  0
LINE
  5
1124B
330
1F
100
AcDbEntity
  8
Слой1
  6
CONTINUOUS
 62
7
370
60
100
AcDbLine
 10
168.199431961792
 20
66.0346127755733
 11
168.390055303682
 21
65.6857810201045
  0
LINE
  5
1124C
330
1F
100
AcDbEntity
  8
Слой1
  6
CONTINUOUS
 62
7
370
60
100
AcDbLine
 10
70.1598204696279
 20
38.2099091615247
 11
70.1598204696279
 21
42.2099091615247
  0
LINE
  5
1124D
330
1F
100
AcDbEntity
  8
Слой1
  6
CONTINUOUS
 62
7
370
60
100
AcDbLine
 10
218.850928936393
 20
68.7219474838383
 11
218.908985633191
 21
69.1318925820893
  0
LINE
  5
1124E
330
1F
100
AcDbEntity
  8
Слой1
  6
CONTINUOUS
 62
7
370
60
100
AcDbLine
 10
51.2074237653315
 20
34.5111367876346
 11
51.5933063552301
 21
34.8179214396911
  0
LINE
  5
1124F
330
1F
100
AcDbEntity
  8
Слой1
  6
CONTINUOUS
 62
7
370
60
100
AcDbLine
 10
273.19402088346
 20
74.0475155038828
 11
273.502565033378
 21
74.0809105944944
  0
LINE
  5
11250
330
1F
100
AcDbEntity
  8
Слой1
  6
CONTINUOUS
 62
7
370
60
100
AcDbLine
 10
129.963476681476
 20
23.3903576808108
 11
129.951953905723
 21
23.4019195163006
  0
LINE
  5
11251
330
1F
100
AcDbEntity
  8
Слой1
  6
CONTINUOUS
 62
7
370
60
100
AcDbLine
 10
128.149625671431
 20
64.2286524777652
 11
128.149625671435
 21
66.3188242255135
  0
LINE
  5
11252
330
1F
100
AcDbEntity
  8
Слой1
  6
CONTINUOUS
 62
7
370
60
100
AcDbLine
 10
176.0370642423
 20
70.322992008081
 11
176.0370642423
 21
64.4289384981448
  0
LINE
  5
11253
330
1F
100
AcDbEntity
  8
Слой1
  6
CONTINUOUS
 62
7
370
60
100
AcDbLine
 10
116.928100180657
 20
17.3958326344795
 11
117.101096275044
 21
17.4372432750427
  0
LINE
  5
11254
330
1F
100
AcDbEntity
  8
Слой1
  6
CONTINUOUS
 62
7
370
60
100
AcDbLine
 10
165.686010671711
 20
36.3034872970172
 11
166.686010671711
 21
36.3034872970172
  0
LINE
  5
11255
330
1F
100
AcDbEntity
  8
Слой1
  6
CONTINUOUS
 62
7
370
60
100
AcDbLine
 10
24.8867154257553
 20
70.9667820820366
 11
25.7082675294346
 21
70.943211971678
  0
LINE
  5
11256
330
1F
100
AcDbEntity
  8
Слой1
  6
CONTINUOUS
 62
7
370
60
100
AcDbLine
 10
59.2991311474737
 20
78.7629517268802
 11
59.2991311474737
 21
86.0454520943246
  0
LINE
  5
11257
330
1F
100
AcDbEntity
  8
Слой1
  6
CONTINUOUS
 62
7
370
60
100
AcDbLine
 10
286.594561221486
 20
63.7375332882718
 11
286.594561221486
 21
66.7913336825679
  0
LINE
  5
11258
330
1F
100
AcDbEntity
  8
Слой1
  6
CONTINUOUS
 62
7
370
60
100
AcDbLine
 10
115.824063137922
 20
9.84277120918382
 11
115.873182096013
 21
10.6960397112158
  0
LINE
  5
11259
330
1F
100
AcDbEntity
  8
Слой1
  6
CONTINUOUS
 62
7
370
60
100
AcDbLine
 10
7.0712694622137
 20
61.5233214338885
 11
7.18715000769587
 21
61.6672885540915
  0
LINE
  5
1125A
330
1F
100
AcDbEntity
  8
Слой1
  6
CONTINUOUS
 62
7
370
60
100
AcDbLine
 10
75.0371047788
 20
32.2968771818846
 11
74.6881924733106
 21
32.0342972937779
  0
LINE
  5
1125B
330
1F
100
AcDbEntity
  8
Слой1
  6
CONTINUOUS
 62
7
370
60
100
AcDbLine
 10
160.829757600333
 20
14.9135180529215
 11
161.215640190231
 21
15.220302704978
  0
LINE
  5
1125C
330
1F
100
AcDbEntity
  8
Слой1
  6
CONTINUOUS
 62
7
370
60
100
AcDbLine
 10
12.4533873754251
 20
58.130835175677
 11
12.0894545227724
 21
58.0315428237468
  0
LINE
  5
1125D
330
1F
100
AcDbEntity
  8
Слой1
  6
CONTINUOUS
 62
7
370
60
100
AcDbLine
 10
65.3472717440954
 20
37.3515957156412
 11
65.4356584281905
 21
37.0458098756706
  0
LINE
  5
1125E
330
1F
100
AcDbEntity
  8
Слой1
  6
CONTINUOUS
 62
7
370
60
100
AcDbLine
 10
19.2954803358296
 20
63.8595682991856
 11
19.2954803358296
 21
70.8415325856899
  0
LINE
  5
1125F
330
1F
100
AcDbEntity
  8
Слой1
  6
CONTINUOUS
 62
7
370
60
100
AcDbLine
 10
38.6954803358296
 20
36.1640586184325
 11
39.6954803358292
 21
36.16405861843
  0
LINE
  5
11260
330
1F
100
AcDbEntity
  8
Слой1
  6
CONTINUOUS
 62
7
370
60
100
AcDbLine
 10
120.217814170831
 20
26.5881131290333
 11
119.217814170831
 21
26.5881131290333
  0
LINE
  5
11261
330
1F
100
AcDbEntity
  8
Слой1
  6
CONTINUOUS
 62
7
370
60
100
AcDbLine
 10
152.293840891058
 20
140.368909203177
 11
155.093808333988
 21
140.368909203177
  0
LINE
  5
11262
330
1F
100
AcDbEntity
  8
Слой1
  6
CONTINUOUS
 62
7
370
60
100
AcDbLine
 10
165.686010671711
 20
43.4025267322016
 11
165.686010671711
 21
45.3191042652047
  0
LINE
  5
11263
330
1F
100
AcDbEntity
  8
Слой1
  6
CONTINUOUS
 62
7
370
60
100
AcDbLine
 10
11.7161654419574
 20
57.9771244947017
 11
12.0894545227724
 21
58.0315428237468
  0
LINE
  5
11264
330
1F
100
AcDbEntity
  8
Слой1
  6
CONTINUOUS
 62
7
370
60
100
AcDbLine
 10
42.0725318773704
 20
11.9056742774276
 11
46.0725318773702
 21
11.9056742774262
  0
LINE
  5
11265
330
1F
100
AcDbEntity
  8
Слой1
  6
CONTINUOUS
 62
7
370
60
100
AcDbLine
 10
228.308340959151
 20
66.3682616684152
 11
228.611789798355
 21
65.7441679166963
  0
LINE
  5
11266
330
1F
100
AcDbEntity
  8
Слой1
  6
CONTINUOUS
 62
7
370
60
100
AcDbLine
 10
67.5285400323407
 20
12.1545368911311
 11
67.5421387998345
 21
11.8101164081509
  0
LINE
  5
11267
330
1F
100
AcDbEntity
  8
Слой1
  6
CONTINUOUS
 62
7
370
60
100
AcDbLine
 10
82.4197525940335
 20
59.653970216565
 11
82.4197525940335
 21
60.5356645163649
  0
LINE
  5
11268
330
1F
100
AcDbEntity
  8
Слой1
  6
CONTINUOUS
 62
7
370
60
100
AcDbLine
 10
148.570229211629
 20
65.7007336942778
 11
148.735846143874
 21
66.1954422667181
  0
LINE
  5
11269
330
1F
100
AcDbEntity
  8
Слой1
  6
CONTINUOUS
 62
7
370
60
100
AcDbLine
 10
126.532185464428
 20
68.724498502942
 11
133.149625671435
 21
68.72449850294
  0
LINE
  5
1126A
330
1F
100
AcDbEntity
  8
Слой1
  6
CONTINUOUS
 62
7
370
60
100
AcDbLine
 10
165.686010671711
 20
45.3034872970172
 11
166.686010671711
 21
45.3034872970172
  0
LINE
  5
1126B
330
1F
100
AcDbEntity
  8
Слой1
  6
CONTINUOUS
 62
7
370
60
100
AcDbLine
 10
132.877736074974
 20
29.928745119855
 11
132.061447016966
 21
29.9291386660213
  0
LINE
  5
1126C
330
1F
100
AcDbEntity
  8
Слой1
  6
CONTINUOUS
 62
7
370
60
100
AcDbLine
 10
157.95535268709
 20
133.277976515672
 11
158.95535268709
 21
133.277976515674
  0
LINE
  5
1126D
330
1F
100
AcDbEntity
  8
Слой1
  6
CONTINUOUS
 62
7
370
60
100
AcDbLine
 10
207.829248514229
 20
65.7217251822798
 11
207.829248514232
 21
73.4202718145969
  0
LINE
  5
1126E
330
1F
100
AcDbEntity
  8
Слой1
  6
CONTINUOUS
 62
7
370
60
100
AcDbLine
 10
128.91781417083
 20
133.277976515674
 11
129.91781417083
 21
133.277976515674
  0
LINE
  5
1126F
330
1F
100
AcDbEntity
  8
Слой1
  6
CONTINUOUS
 62
7
370
60
100
AcDbLine
 10
48.3330188520899
 20
36.16405861843
 11
48.3330188520891
 21
46.4274994878825
  0
LINE
  5
11270
330
1F
100
AcDbEntity
  8
Слой1
  6
CONTINUOUS
 62
7
370
60
100
AcDbLine
 10
12.3637382320359
 20
0.623033838092056
 11
12.2131051846482
 21
0.752068402854798
  0
LINE
  5
11271
330
1F
100
AcDbEntity
  8
Слой1
  6
CONTINUOUS
 62
7
370
60
100
AcDbLine
 10
50.457337170547
 20
79.341203378333
 11
50.9853094970657
 21
80.0950471633617
  0
LINE
  5
11272
330
1F
100
AcDbEntity
  8
Слой1
  6
CONTINUOUS
 62
7
370
60
100
AcDbLine
 10
159.103138788093
 20
35.1733471452319
 11
158.95535268709
 21
34.878052611477
  0
LINE
  5
11273
330
1F
100
AcDbEntity
  8
Слой1
  6
CONTINUOUS
 62
7
370
60
100
AcDbLine
 10
129.917814170831
 20
129.277976515675
 11
138.617814170831
 21
129.277976509627
  0
LINE
  5
11274
330
1F
100
AcDbEntity
  8
Слой1
  6
CONTINUOUS
 62
7
370
60
100
AcDbLine
 10
6.95571556504287
 20
36.4239823801262
 11
6.96999189885578
 21
36.6012919289886
  0
LINE
  5
11275
330
1F
100
AcDbEntity
  8
Слой1
  6
CONTINUOUS
 62
7
370
60
100
AcDbLine
 10
20.3067883857656
 20
43.0228728977437
 11
20.3181684401586
 21
43.0111705576804
  0
LINE
  5
11276
330
1F
100
AcDbEntity
  8
Слой1
  6
CONTINUOUS
 62
7
370
60
100
AcDbLine
 10
138.617814170831
 20
19.4721141611454
 11
138.617814170831
 21
29.8664398837168
  0
LINE
  5
11277
330
1F
100
AcDbEntity
  8
Слой1
  6
CONTINUOUS
 62
7
370
60
100
AcDbLine
 10
201.791399118631
 20
64.1617689417873
 11
202.520732712263
 21
64.3502704565335
  0
LINE
  5
11278
330
1F
100
AcDbEntity
  8
Слой1
  6
CONTINUOUS
 62
7
370
60
100
AcDbLine
 10
239.290333105442
 20
64.7276873923693
 11
240.290333105439
 21
64.7276873923693
  0
LINE
  5
11279
330
1F
100
AcDbEntity
  8
Слой1
  6
CONTINUOUS
 62
7
370
60
100
AcDbLine
 10
69.1102490198964
 20
79.9615796040651
 11
69.3613919825303
 21
79.7504463355513
  0
LINE
  5
1127A
330
1F
100
AcDbEntity
  8
Слой1
  6
CONTINUOUS
 62
7
370
60
100
AcDbLine
 10
160.960691737077
 20
7.95791624155318
 11
160.621104231112
 21
8.40994702906019
  0
LINE
  5
1127B
330
1F
100
AcDbEntity
  8
Слой1
  6
CONTINUOUS
 62
7
370
60
100
AcDbLine
 10
195.880013065969
 20
68.3140356411183
 11
195.979174572715
 21
67.911816764208
  0
LINE
  5
1127C
330
1F
100
AcDbEntity
  8
Слой1
  6
CONTINUOUS
 62
7
370
60
100
AcDbLine
 10
13.0102981360501
 20
38.0697328958584
 11
13.0102981360501
 21
39.0697328958584
  0
LINE
  5
1127D
330
1F
100
AcDbEntity
  8
Слой1
  6
CONTINUOUS
 62
7
370
60
100
AcDbLine
 10
171.234717807708
 20
31.8892418047651
 11
171.323878042426
 21
32.6804649111055
  0
LINE
  5
1127E
330
1F
100
AcDbEntity
  8
Слой1
  6
CONTINUOUS
 62
7
370
60
100
AcDbLine
 10
167.501337766988
 20
28.1792278140767
 11
167.694581460435
 21
29.4555923586424
  0
LINE
  5
1127F
330
1F
100
AcDbEntity
  8
Слой1
  6
CONTINUOUS
 62
7
370
60
100
AcDbLine
 10
7.05453783466508
 20
0
 11
12.6605274179984
 21
0
  0
LINE
  5
11280
330
1F
100
AcDbEntity
  8
Слой1
  6
CONTINUOUS
 62
7
370
60
100
AcDbLine
 10
13.0102981360501
 20
11.9056742774286
 11
17.0112998934029
 21
11.9056742774286
  0
LINE
  5
11281
330
1F
100
AcDbEntity
  8
Слой1
  6
CONTINUOUS
 62
7
370
60
100
AcDbLine
 10
52.3452131871529
 20
26.7078384986647
 11
52.3903278124136
 21
26.5227815422295
  0
LINE
  5
11282
330
1F
100
AcDbEntity
  8
Слой1
  6
CONTINUOUS
 62
7
370
60
100
AcDbLine
 10
8.15906013009321
 20
12.5621931374123
 11
8.21027065616224
 21
13.0573125414458
  0
LINE
  5
11283
330
1F
100
AcDbEntity
  8
Слой1
  6
CONTINUOUS
 62
7
370
60
100
AcDbLine
 10
66.4213906830111
 20
7.92535331012368
 11
66.5916275840533
 21
8.19430792223398
  0
LINE
  5
11284
330
1F
100
AcDbEntity
  8
Слой1
  6
CONTINUOUS
 62
7
370
60
100
AcDbLine
 10
12.2956395610177
 20
33.0178149726632
 11
12.0120362058889
 21
32.8838263329652
  0
LINE
  5
11285
330
1F
100
AcDbEntity
  8
Слой1
  6
CONTINUOUS
 62
7
370
60
100
AcDbLine
 10
123.232648249586
 20
140.368909203177
 11
126.032615692516
 21
140.368909203177
  0
LINE
  5
11286
330
1F
100
AcDbEntity
  8
Слой1
  6
CONTINUOUS
 62
7
370
60
100
AcDbLine
 10
129.917814170831
 20
128.277976515672
 11
138.617814170831
 21
128.27797652172
  0
LINE
  5
11287
330
1F
100
AcDbEntity
  8
Слой1
  6
CONTINUOUS
 62
7
370
60
100
AcDbLine
 10
123.203953860951
 20
140.946022105259
 11
123.118943132573
 21
141.113495795163
  0
LINE
  5
11288
330
1F
100
AcDbEntity
  8
Слой1
  6
CONTINUOUS
 62
7
370
60
100
AcDbLine
 10
46.5486068181683
 20
0.287036243580451
 11
46.5747395021192
 21
0.180364861291719
  0
LINE
  5
11289
330
1F
100
AcDbEntity
  8
Слой1
  6
CONTINUOUS
 62
7
370
60
100
AcDbLine
 10
66.6292782198571
 20
41.5233561719669
 11
66.7782867784737
 21
40.981045525763
  0
LINE
  5
1128A
330
1F
100
AcDbEntity
  8
Слой1
  6
CONTINUOUS
 62
7
370
60
100
AcDbLine
 10
47.9895744007957
 20
46.1768645013707
 11
48.1590094771942
 21
46.3053160691208
  0
LINE
  5
1128B
330
1F
100
AcDbEntity
  8
Слой1
  6
CONTINUOUS
 62
7
370
60
100
AcDbLine
 10
126.062572999877
 20
111.719211713187
 11
126.14796898454
 21
111.552038646963
  0
LINE
  5
1128C
330
1F
100
AcDbEntity
  8
Слой1
  6
CONTINUOUS
 62
7
370
60
100
AcDbLine
 10
49.3330188520891
 20
63.8595682991856
 11
49.3330188520891
 21
55.7599864226388
  0
LINE
  5
1128D
330
1F
100
AcDbEntity
  8
Слой1
  6
CONTINUOUS
 62
7
370
60
100
AcDbLine
 10
128.91781417083
 20
124.277976515672
 11
128.917814170831
 21
128.277976515673
  0
LINE
  5
1128E
330
1F
100
AcDbEntity
  8
Слой1
  6
CONTINUOUS
 62
7
370
60
100
AcDbLine
 10
166.686010671711
 20
42.7992670412846
 11
166.686010671711
 21
45.3034872970172
  0
LINE
  5
1128F
330
1F
100
AcDbEntity
  8
Слой1
  6
CONTINUOUS
 62
7
370
60
100
AcDbLine
 10
46.5618155889074
 20
26.5601234332448
 11
46.5486068181683
 21
26.4510948620103
  0
LINE
  5
11290
330
1F
100
AcDbEntity
  8
Слой1
  6
CONTINUOUS
 62
7
370
60
100
AcDbLine
 10
39.6954803358296
 20
72.1555484001605
 11
41.1146165627208
 21
72.4527723710483
  0
LINE
  5
11291
330
1F
100
AcDbEntity
  8
Слой1
  6
CONTINUOUS
 62
7
370
60
100
AcDbLine
 10
70.1691132506364
 20
45.3077298558617
 11
69.6980564866251
 21
45.3695085754717
  0
LINE
  5
11292
330
1F
100
AcDbEntity
  8
Слой1
  6
CONTINUOUS
 62
7
370
60
100
AcDbLine
 10
120.838964608713
 20
8.26604694984737
 11
121.223143351723
 21
7.81658953263213
  0
LINE
  5
11293
330
1F
100
AcDbEntity
  8
Слой1
  6
CONTINUOUS
 62
7
370
60
100
AcDbLine
 10
168.390055303682
 20
65.6857810201045
 11
168.598157651001
 21
65.3470860760364
  0
LINE
  5
11294
330
1F
100
AcDbEntity
  8
Слой1
  6
CONTINUOUS
 62
7
370
60
100
AcDbLine
 10
195.71418072792
 20
70.1318925820893
 11
195.728490262253
 21
70.4130421493476
  0
LINE
  5
11295
330
1F
100
AcDbEntity
  8
Слой1
  6
CONTINUOUS
 62
7
370
60
100
AcDbLine
 10
3.89553172962892
 20
60.4436693591996
 11
4.42461717945823
 21
60.8980107422063
  0
LINE
  5
11296
330
1F
100
AcDbEntity
  8
Слой1
  6
CONTINUOUS
 62
7
370
60
100
AcDbLine
 10
70.1598204696279
 20
38.2099091615247
 11
71.1598204696279
 21
38.2099091615247
  0
LINE
  5
11297
330
1F
100
AcDbEntity
  8
Слой1
  6
CONTINUOUS
 62
7
370
60
100
AcDbLine
 10
131.547233724417
 20
18.4319052057866
 11
132.085412326997
 21
18.4214800429052
  0
LINE
  5
11298
330
1F
100
AcDbEntity
  8
Слой1
  6
CONTINUOUS
 62
7
370
60
100
AcDbLine
 10
129.951953905723
 20
23.4019195163006
 11
129.94050227516
 21
23.4135518229673
  0
LINE
  5
11299
330
1F
100
AcDbEntity
  8
Слой1
  6
CONTINUOUS
 62
7
370
60
100
AcDbLine
 10
156.184149423908
 20
6.96250469853169
 11
156.170940653169
 21
6.85347612729722
  0
LINE
  5
1129A
330
1F
100
AcDbEntity
  8
Слой1
  6
CONTINUOUS
 62
7
370
60
100
AcDbLine
 10
117.101096275044
 20
17.4372432750427
 11
117.310786733648
 21
17.4785942133936
  0
LINE
  5
1129B
330
1F
100
AcDbEntity
  8
Слой1
  6
CONTINUOUS
 62
7
370
60
100
AcDbLine
 10
128.149625671435
 20
66.3188242255135
 11
129.149625671435
 21
66.3188242255135
  0
LINE
  5
1129C
330
1F
100
AcDbEntity
  8
Слой1
  6
CONTINUOUS
 62
7
370
60
100
AcDbLine
 10
25.7082675294346
 20
70.943211971678
 11
26.5300528648292
 21
70.9300867405429
  0
LINE
  5
1129D
330
1F
100
AcDbEntity
  8
Слой1
  6
CONTINUOUS
 62
7
370
60
100
AcDbLine
 10
115.824063137922
 20
9.84277120918382
 11
115.881587482625
 21
8.99002813042534
  0
LINE
  5
1129E
330
1F
100
AcDbEntity
  8
Слой1
  6
CONTINUOUS
 62
7
370
60
100
AcDbLine
 10
46.9222485316157
 20
28.8962345443559
 11
46.9348916038778
 21
28.4198167785205
  0
LINE
  5
1129F
330
1F
100
AcDbEntity
  8
Слой1
  6
CONTINUOUS
 62
7
370
60
100
AcDbLine
 10
131.457965418263
 20
17.9738108253805
 11
131.555069194656
 21
18.4721141611453
  0
LINE
  5
112A0
330
1F
100
AcDbEntity
  8
Слой1
  6
CONTINUOUS
 62
7
370
60
100
AcDbLine
 10
7.18715000769587
 20
61.6672885540915
 11
7.31078592692754
 21
61.8046530036281
  0
LINE
  5
112A1
330
1F
100
AcDbEntity
  8
Слой1
  6
CONTINUOUS
 62
7
370
60
100
AcDbLine
 10
176.691154945548
 20
35.522086546579
 11
177.489465306181
 21
35.9856288149619
  0
LINE
  5
112A2
330
1F
100
AcDbEntity
  8
Слой1
  6
CONTINUOUS
 62
7
370
60
100
AcDbLine
 10
158.95535268709
 20
19.4721141611432
 11
158.95535268709
 21
34.1664398837168
  0
LINE
  5
112A3
330
1F
100
AcDbEntity
  8
Слой1
  6
CONTINUOUS
 62
7
370
60
100
AcDbLine
 10
176.332142065808
 20
35.0226898837165
 11
176.332142065808
 21
40.282948903565
  0
LINE
  5
112A4
330
1F
100
AcDbEntity
  8
Слой1
  6
CONTINUOUS
 62
7
370
60
100
AcDbLine
 10
65.3474355414283
 20
37.6698992799038
 11
65.4361368901854
 21
37.9755939913081
  0
LINE
  5
112A5
330
1F
100
AcDbEntity
  8
Слой1
  6
CONTINUOUS
 62
7
370
60
100
AcDbLine
 10
152.265146502423
 20
140.946022105259
 11
152.180135774045
 21
141.113495795163
  0
LINE
  5
112A6
330
1F
100
AcDbEntity
  8
Слой1
  6
CONTINUOUS
 62
7
370
60
100
AcDbLine
 10
12.9756084016172
 20
69.291847566559
 11
11.7684279538682
 21
68.7516351127101
  0
LINE
  5
112A7
330
1F
100
AcDbEntity
  8
Слой1
  6
CONTINUOUS
 62
7
370
60
100
AcDbLine
 10
212.867097909823
 20
64.1617689417857
 11
213.616314565194
 21
64.0834445191878
  0
LINE
  5
112A8
330
1F
100
AcDbEntity
  8
Слой1
  6
CONTINUOUS
 62
7
370
60
100
AcDbLine
 10
157.95535268709
 20
26.8298807531693
 11
157.781343312195
 21
26.7076973344077
  0
LINE
  5
112A9
330
1F
100
AcDbEntity
  8
Слой1
  6
CONTINUOUS
 62
7
370
60
100
AcDbLine
 10
82.4197525940335
 20
59.653970216565
 11
85.419752594032
 21
59.6539702165651
  0
LINE
  5
112AA
330
1F
100
AcDbEntity
  8
Слой1
  6
CONTINUOUS
 62
7
370
60
100
AcDbLine
 10
157.95535268709
 20
129.277976515674
 11
157.95535268709
 21
133.277976515672
  0
LINE
  5
112AB
330
1F
100
AcDbEntity
  8
Слой1
  6
CONTINUOUS
 62
7
370
60
100
AcDbLine
 10
5.8189745403387
 20
63.2787612487034
 11
5.5923533328038
 21
62.6192156977146
  0
LINE
  5
112AC
330
1F
100
AcDbEntity
  8
Слой1
  6
CONTINUOUS
 62
7
370
60
100
AcDbLine
 10
120.225687826516
 20
11.0772433838763
 11
120.38776644892
 21
11.6458696201956
  0
LINE
  5
112AD
330
1F
100
AcDbEntity
  8
Слой1
  6
CONTINUOUS
 62
7
370
60
100
AcDbLine
 10
117.122174548504
 20
24.8903525600888
 11
117.720119257372
 21
25.4275840234845
  0
LINE
  5
112AE
330
1F
100
AcDbEntity
  8
Слой1
  6
CONTINUOUS
 62
7
370
60
100
AcDbLine
 10
29.9954803358296
 20
70.9896676747037
 11
31.7447876537845
 21
71.0904470166619
  0
LINE
  5
112AF
330
1F
100
AcDbEntity
  8
Слой1
  6
CONTINUOUS
 62
7
370
60
100
AcDbLine
 10
132.061447016966
 20
29.9291386660213
 11
131.245395480622
 21
29.9094442217565
  0
LINE
  5
112B0
330
1F
100
AcDbEntity
  8
Слой1
  6
CONTINUOUS
 62
7
370
60
100
AcDbLine
 10
169.064604936899
 20
64.7035784480396
 11
168.823201340116
 21
65.0194030125646
  0
LINE
  5
112B1
330
1F
100
AcDbEntity
  8
Слой1
  6
CONTINUOUS
 62
7
370
60
100
AcDbLine
 10
114.046951014459
 20
19.7989358366738
 11
114.511336625009
 21
20.3192275916033
  0
LINE
  5
112B2
330
1F
100
AcDbEntity
  8
Слой1
  6
CONTINUOUS
 62
7
370
60
100
AcDbLine
 10
160.962327092269
 20
36.0691721268006
 11
161.132563993311
 21
36.3381267389108
  0
LINE
  5
112B3
330
1F
100
AcDbEntity
  8
Слой1
  6
CONTINUOUS
 62
7
370
60
100
AcDbLine
 10
120.217814170831
 20
129.277976515675
 11
128.917814170831
 21
129.277976515673
  0
LINE
  5
112B4
330
1F
100
AcDbEntity
  8
Слой1
  6
CONTINUOUS
 62
7
370
60
100
AcDbLine
 10
119.442179861645
 20
26.5881131290333
 11
119.467444451281
 21
26.603851664901
  0
LINE
  5
112B5
330
1F
100
AcDbEntity
  8
Слой1
  6
CONTINUOUS
 62
7
370
60
100
AcDbLine
 10
154.949392761656
 20
32.435175246788
 11
156.336197698256
 21
32.8583321765041
  0
LINE
  5
112B6
330
1F
100
AcDbEntity
  8
Слой1
  6
CONTINUOUS
 62
7
370
60
100
AcDbLine
 10
12.2131051846482
 20
0.752068402854798
 11
12.0532730294509
 21
0.869515906165134
  0
LINE
  5
112B7
330
1F
100
AcDbEntity
  8
Слой1
  6
CONTINUOUS
 62
7
370
60
100
AcDbLine
 10
138.617814170831
 20
129.277976509627
 11
138.61781417083
 21
133.277976515674
  0
LINE
  5
112B8
330
1F
100
AcDbEntity
  8
Слой1
  6
CONTINUOUS
 62
7
370
60
100
AcDbLine
 10
6.86347298902979
 20
33.2223854757969
 11
6.97406429011464
 21
34.2862873517212
  0
LINE
  5
112B9
330
1F
100
AcDbEntity
  8
Слой1
  6
CONTINUOUS
 62
7
370
60
100
AcDbLine
 10
148.735846143874
 20
66.1954422667181
 11
148.769396788476
 21
66.5001136678116
  0
LINE
  5
112BA
330
1F
100
AcDbEntity
  8
Слой1
  6
CONTINUOUS
 62
7
370
60
100
AcDbLine
 10
178.906931813231
 20
37.1641250689017
 11
179.109940585676
 21
37.4218797644239
  0
LINE
  5
112BB
330
1F
100
AcDbEntity
  8
Слой1
  6
CONTINUOUS
 62
7
370
60
100
AcDbLine
 10
50.9655836631726
 20
56.1862728684038
 11
51.5014235467227
 21
56.3576261539102
  0
LINE
  5
112BC
330
1F
100
AcDbEntity
  8
Слой1
  6
CONTINUOUS
 62
7
370
60
100
AcDbLine
 10
130.020221791939
 20
29.8420741525903
 11
130.122652740962
 21
29.8494498871497
  0
LINE
  5
112BD
330
1F
100
AcDbEntity
  8
Слой1
  6
CONTINUOUS
 62
7
370
60
100
AcDbLine
 10
310.135975749613
 20
73.2636742931767
 11
311.135975743568
 21
73.2636742933171
  0
LINE
  5
112BE
330
1F
100
AcDbEntity
  8
Слой1
  6
CONTINUOUS
 62
7
370
60
100
AcDbLine
 10
6.95571556504287
 20
36.4239823801262
 11
7.00486919931016
 21
35.3554780246324
  0
LINE
  5
112BF
330
1F
100
AcDbEntity
  8
Слой1
  6
CONTINUOUS
 62
7
370
60
100
AcDbLine
 10
155.094208552134
 20
111.904591557681
 11
155.093808333988
 21
112.293067072953
  0
LINE
  5
112C0
330
1F
100
AcDbEntity
  8
Слой1
  6
CONTINUOUS
 62
7
370
60
100
AcDbLine
 10
195.728490262253
 20
70.4130421493476
 11
195.753419783972
 21
70.6934496401341
  0
LINE
  5
112C1
330
1F
100
AcDbEntity
  8
Слой1
  6
CONTINUOUS
 62
7
370
60
100
AcDbLine
 10
49.3330188520891
 20
75.9771275170097
 11
48.8846781614937
 21
75.4837460211057
  0
LINE
  5
112C2
330
1F
100
AcDbEntity
  8
Слой1
  6
CONTINUOUS
 62
7
370
60
100
AcDbLine
 10
160.079671005548
 20
38.2421284728004
 11
159.867161183432
 21
37.9186023818936
  0
LINE
  5
112C3
330
1F
100
AcDbEntity
  8
Слой1
  6
CONTINUOUS
 62
7
370
60
100
AcDbLine
 10
163.878840817774
 20
43.0606843074594
 11
163.504288876854
 21
42.7731272395014
  0
LINE
  5
112C4
330
1F
100
AcDbEntity
  8
Слой1
  6
CONTINUOUS
 62
7
370
60
100
AcDbLine
 10
262.526279848611
 20
74.0809105944944
 11
262.834823998528
 21
74.0475155038828
  0
LINE
  5
112C5
330
1F
100
AcDbEntity
  8
Слой1
  6
CONTINUOUS
 62
7
370
60
100
AcDbLine
 10
20.3181684401586
 20
43.0111705576804
 11
20.3296200707219
 21
42.9995382510137
  0
LINE
  5
112C6
330
1F
100
AcDbEntity
  8
Слой1
  6
CONTINUOUS
 62
7
370
60
100
AcDbLine
 10
310.135975749615
 20
68.0034152733281
 11
310.135975743566
 21
70.6636742933171
  0
LINE
  5
112C7
330
1F
100
AcDbEntity
  8
Слой1
  6
CONTINUOUS
 62
7
370
60
100
AcDbLine
 10
75.2731555636095
 20
1.809542005667
 11
75.6734462661363
 21
1.98405661259349
  0
LINE
  5
112C8
330
1F
100
AcDbEntity
  8
Слой1
  6
CONTINUOUS
 62
7
370
60
100
AcDbLine
 10
51.5933063552301
 20
34.8179214396911
 11
52.0324332646886
 21
35.0419521369485
  0
LINE
  5
112C9
330
1F
100
AcDbEntity
  8
Слой1
  6
CONTINUOUS
 62
7
370
60
100
AcDbLine
 10
202.520732712263
 20
64.3502704565335
 11
203.344024047242
 21
64.7240915479579
  0
LINE
  5
112CA
330
1F
100
AcDbEntity
  8
Слой1
  6
CONTINUOUS
 62
7
370
60
100
AcDbLine
 10
240.290333105439
 20
64.7276873923693
 11
240.833468807756
 21
64.950497711846
  0
LINE
  5
112CB
330
1F
100
AcDbEntity
  8
Слой1
  6
CONTINUOUS
 62
7
370
60
100
AcDbLine
 10
160.621104231112
 20
8.40994702906019
 11
160.359480839162
 21
8.91115028907234
  0
LINE
  5
112CC
330
1F
100
AcDbEntity
  8
Слой1
  6
CONTINUOUS
 62
7
370
60
100
AcDbLine
 10
195.979174572715
 20
67.911816764208
 11
196.100557001141
 21
67.5157368033001
  0
LINE
  5
112CD
330
1F
100
AcDbEntity
  8
Слой1
  6
CONTINUOUS
 62
7
370
60
100
AcDbLine
 10
171.323878042426
 20
32.6804649111055
 11
171.300433668165
 21
33.4763505264909
  0
LINE
  5
112CE
330
1F
100
AcDbEntity
  8
Слой1
  6
CONTINUOUS
 62
7
370
60
100
AcDbLine
 10
167.694581460435
 20
29.4555923586424
 11
167.779660650692
 21
30.0847577314062
  0
LINE
  5
112CF
330
1F
100
AcDbEntity
  8
Слой1
  6
CONTINUOUS
 62
7
370
60
100
AcDbLine
 10
164.445100693048
 20
45.300809028356
 11
164.693222256308
 21
45.3078056844594
  0
LINE
  5
112D0
330
1F
100
AcDbEntity
  8
Слой1
  6
CONTINUOUS
 62
7
370
60
100
AcDbLine
 10
244.290333105443
 20
69.0124392329056
 11
244.290333105442
 21
70.01243923291
  0
LINE
  5
112D1
330
1F
100
AcDbEntity
  8
Слой1
  6
CONTINUOUS
 62
7
370
60
100
AcDbLine
 10
66.7098082308069
 20
78.7629517268802
 11
66.7146272751048
 21
81.0524360855455
  0
LINE
  5
112D2
330
1F
100
AcDbEntity
  8
Слой1
  6
CONTINUOUS
 62
7
370
60
100
AcDbLine
 10
66.5916275840533
 20
8.19430792223398
 11
66.8299617001828
 21
8.40529141670838
  0
LINE
  5
112D3
330
1F
100
AcDbEntity
  8
Слой1
  6
CONTINUOUS
 62
7
370
60
100
AcDbLine
 10
48.1590094771942
 20
20.1412574506909
 11
48.3330188520891
 21
20.2634408694526
  0
LINE
  5
112D4
330
1F
100
AcDbEntity
  8
Слой1
  6
CONTINUOUS
 62
7
370
60
100
AcDbLine
 10
48.3946431014801
 20
75.031750097118
 11
48.8846781614937
 21
75.4837460211057
  0
LINE
  5
112D5
330
1F
100
AcDbEntity
  8
Слой1
  6
CONTINUOUS
 62
7
370
60
100
AcDbLine
 10
9.59548033582967
 20
8.87789351851809
 11
10.5954803358297
 21
8.87789351851809
  0
LINE
  5
112D6
330
1F
100
AcDbEntity
  8
Слой1
  6
CONTINUOUS
 62
7
370
60
100
AcDbLine
 10
164.693222256308
 20
45.3078056844594
 11
164.941385257543
 21
45.3131337393825
  0
LINE
  5
112D7
330
1F
100
AcDbEntity
  8
Слой1
  6
CONTINUOUS
 62
7
370
60
100
AcDbLine
 10
267.514422440994
 20
74.2456011149673
 11
268.514422440994
 21
74.2456011149673
  0
LINE
  5
112D8
330
1F
100
AcDbEntity
  8
Слой1
  6
CONTINUOUS
 62
7
370
60
100
AcDbLine
 10
123.118943132573
 20
141.113495795163
 11
122.986340909104
 21
141.246502979481
  0
LINE
  5
112D9
330
1F
100
AcDbEntity
  8
Слой1
  6
CONTINUOUS
 62
7
370
60
100
AcDbLine
 10
66.7782867784737
 20
40.981045525763
 11
66.8124260452503
 21
40.4196731912193
  0
LINE
  5
112DA
330
1F
100
AcDbEntity
  8
Слой1
  6
CONTINUOUS
 62
7
370
60
100
AcDbLine
 10
9.59548033582967
 20
35.041952136948
 11
9.59548033582964
 21
42.6084723055249
  0
LINE
  5
112DB
330
1F
100
AcDbEntity
  8
Слой1
  6
CONTINUOUS
 62
7
370
60
100
AcDbLine
 10
46.7174632511427
 20
0.846517409568764
 11
46.5618155889074
 21
0.396064814814895
  0
LINE
  5
112DC
330
1F
100
AcDbEntity
  8
Слой1
  6
CONTINUOUS
 62
7
370
60
100
AcDbLine
 10
118.03738370994
 20
20.5973705898575
 11
118.206566959146
 21
21.1100105341936
  0
LINE
  5
112DD
330
1F
100
AcDbEntity
  8
Слой1
  6
CONTINUOUS
 62
7
370
60
100
AcDbLine
 10
126.14796898454
 20
111.552038646963
 11
126.280844710685
 21
111.419436423494
  0
LINE
  5
112DE
330
1F
100
AcDbEntity
  8
Слой1
  6
CONTINUOUS
 62
7
370
60
100
AcDbLine
 10
46.5486068181683
 20
26.4510948620103
 11
46.5747395021192
 21
26.3444234797216
  0
LINE
  5
112DF
330
1F
100
AcDbEntity
  8
Слой1
  6
CONTINUOUS
 62
7
370
60
100
AcDbLine
 10
39.6954803358296
 20
63.8595682991856
 11
39.6954803358296
 21
72.1555484001605
  0
LINE
  5
112E0
330
1F
100
AcDbEntity
  8
Слой1
  6
CONTINUOUS
 62
7
370
60
100
AcDbLine
 10
159.326055897577
 20
35.7944553022998
 11
159.226968097061
 21
35.4794613323512
  0
LINE
  5
112E1
330
1F
100
AcDbEntity
  8
Слой1
  6
CONTINUOUS
 62
7
370
60
100
AcDbLine
 10
121.223143351723
 20
7.81658953263213
 11
121.675606864452
 21
7.43595578988188
  0
LINE
  5
112E2
330
1F
100
AcDbEntity
  8
Слой1
  6
CONTINUOUS
 62
7
370
60
100
AcDbLine
 10
273.502565033378
 20
74.0809105944944
 11
273.805010535055
 21
74.0113301156193
  0
LINE
  5
112E3
330
1F
100
AcDbEntity
  8
Слой1
  6
CONTINUOUS
 62
7
370
60
100
AcDbLine
 10
168.823201340116
 20
65.0194030125646
 11
168.598157651001
 21
65.3470860760364
  0
LINE
  5
112E4
330
1F
100
AcDbEntity
  8
Слой1
  6
CONTINUOUS
 62
7
370
60
100
AcDbLine
 10
285.594561227535
 20
63.6456427808207
 11
285.594561221486
 21
66.7913336825679
  0
LINE
  5
112E5
330
1F
100
AcDbEntity
  8
Слой1
  6
CONTINUOUS
 62
7
370
60
100
AcDbLine
 10
69.6980564866251
 20
45.3695085754717
 11
69.2244895409971
 21
45.3314897232284
  0
LINE
  5
112E6
330
1F
100
AcDbEntity
  8
Слой1
  6
CONTINUOUS
 62
7
370
60
100
AcDbLine
 10
103.91975259403
 20
71.5596444939886
 11
105.59762960325
 21
71.5596444939936
  0
LINE
  5
112E7
330
1F
100
AcDbEntity
  8
Слой1
  6
CONTINUOUS
 62
7
370
60
100
AcDbLine
 10
195.71418072792
 20
70.1318925820893
 11
202.829248514229
 21
70.1318925820871
  0
LINE
  5
112E8
330
1F
100
AcDbEntity
  8
Слой1
  6
CONTINUOUS
 62
7
370
60
100
AcDbLine
 10
132.085412326997
 20
18.4214800429052
 11
133.77372971553
 21
18.2822195117478
  0
LINE
  5
112E9
330
1F
100
AcDbEntity
  8
Слой1
  6
CONTINUOUS
 62
7
370
60
100
AcDbLine
 10
129.94050227516
 20
23.4135518229673
 11
129.929122220767
 21
23.4252541630306
  0
LINE
  5
112EA
330
1F
100
AcDbEntity
  8
Слой1
  6
CONTINUOUS
 62
7
370
60
100
AcDbLine
 10
156.170940653169
 20
6.85347612729722
 11
156.19707333712
 21
6.74680474500849
  0
LINE
  5
112EB
330
1F
100
AcDbEntity
  8
Слой1
  6
CONTINUOUS
 62
7
370
60
100
AcDbLine
 10
162.069476441598
 20
40.2983557078079
 11
162.115074076302
 21
40.6400152624571
  0
LINE
  5
112EC
330
1F
100
AcDbEntity
  8
Слой1
  6
CONTINUOUS
 62
7
370
60
100
AcDbLine
 10
73.8580542615238
 20
31.7828469127076
 11
74.2879017707838
 21
31.8597826868514
  0
LINE
  5
112ED
330
1F
100
AcDbEntity
  8
Слой1
  6
CONTINUOUS
 62
7
370
60
100
AcDbLine
 10
130.204230685422
 20
64.0456810954788
 11
129.681189013169
 21
63.9508760365372
  0
LINE
  5
112EE
330
1F
100
AcDbEntity
  8
Слой1
  6
CONTINUOUS
 62
7
370
60
100
AcDbLine
 10
115.873182096013
 20
10.6960397112158
 11
116.028179608377
 21
11.5365488305983
  0
LINE
  5
112EF
330
1F
100
AcDbEntity
  8
Слой1
  6
CONTINUOUS
 62
7
370
60
100
AcDbLine
 10
131.629126303461
 20
19.1995096334704
 11
131.642939094907
 21
19.4257982988989
  0
LINE
  5
112F0
330
1F
100
AcDbEntity
  8
Слой1
  6
CONTINUOUS
 62
7
370
60
100
AcDbLine
 10
152.293840891058
 20
140.368909203177
 11
152.29424429331
 21
140.760475401396
  0
LINE
  5
112F1
330
1F
100
AcDbEntity
  8
Слой1
  6
CONTINUOUS
 62
7
370
60
100
AcDbLine
 10
263.514422440995
 20
77.8376883705731
 11
263.472583020342
 21
77.5602850085337
  0
LINE
  5
112F2
330
1F
100
AcDbEntity
  8
Слой1
  6
CONTINUOUS
 62
7
370
60
100
AcDbLine
 10
7.31078592692754
 20
61.8046530036281
 11
7.44180169108665
 21
61.9349975549625
  0
LINE
  5
112F3
330
1F
100
AcDbEntity
  8
Слой1
  6
CONTINUOUS
 62
7
370
60
100
AcDbLine
 10
131.224500492087
 20
17.278514646887
 11
131.457965418263
 21
17.9738108253805
  0
LINE
  5
112F4
330
1F
100
AcDbEntity
  8
Слой1
  6
CONTINUOUS
 62
7
370
60
100
AcDbLine
 10
152.180135774045
 20
141.113495795163
 11
152.047533550576
 21
141.246502979481
  0
LINE
  5
112F5
330
1F
100
AcDbEntity
  8
Слой1
  6
CONTINUOUS
 62
7
370
60
100
AcDbLine
 10
35.6229613399256
 20
14.3291711589774
 11
36.3655878894199
 21
14.624804692086
  0
LINE
  5
112F6
330
1F
100
AcDbEntity
  8
Слой1
  6
CONTINUOUS
 62
7
370
60
100
AcDbLine
 10
62.5983498974736
 20
78.7629517268802
 11
63.5983498974736
 21
78.7629517268802
  0
LINE
  5
112F7
330
1F
100
AcDbEntity
  8
Слой1
  6
CONTINUOUS
 62
7
370
60
100
AcDbLine
 10
133.149625671432
 20
67.72449850294
 11
133.149625671435
 21
68.72449850294
  0
LINE
  5
112F8
330
1F
100
AcDbEntity
  8
Слой1
  6
CONTINUOUS
 62
7
370
60
100
AcDbLine
 10
157.781343312195
 20
26.7076973344077
 11
157.611908235797
 21
26.5792457666576
  0
LINE
  5
112F9
330
1F
100
AcDbEntity
  8
Слой1
  6
CONTINUOUS
 62
7
370
60
100
AcDbLine
 10
213.616314565194
 20
64.0834445191878
 11
214.368865235722
 21
64.11702725508
  0
LINE
  5
112FA
330
1F
100
AcDbEntity
  8
Слой1
  6
CONTINUOUS
 62
7
370
60
100
AcDbLine
 10
12.7523452950759
 20
26.337943737558
 11
12.6341104438995
 21
26.4971943382982
  0
LINE
  5
112FB
330
1F
100
AcDbEntity
  8
Слой1
  6
CONTINUOUS
 62
7
370
60
100
AcDbLine
 10
29.9954803358296
 20
63.8595682991856
 11
29.9954803358296
 21
70.9896676747037
  0
LINE
  5
112FC
330
1F
100
AcDbEntity
  8
Слой1
  6
CONTINUOUS
 62
7
370
60
100
AcDbLine
 10
120.38776644892
 20
11.6458696201956
 11
120.640589833385
 21
12.1803652822345
  0
LINE
  5
112FD
330
1F
100
AcDbEntity
  8
Слой1
  6
CONTINUOUS
 62
7
370
60
100
AcDbLine
 10
69.3379044085161
 20
14.9168654907825
 11
68.9633524675962
 21
14.6293084228245
  0
LINE
  5
112FE
330
1F
100
AcDbEntity
  8
Слой1
  6
CONTINUOUS
 62
7
370
60
100
AcDbLine
 10
117.202133190985
 20
20.9588513970993
 11
117.346693605772
 21
21.0739909602277
  0
LINE
  5
112FF
330
1F
100
AcDbEntity
  8
Слой1
  6
CONTINUOUS
 62
7
370
60
100
AcDbLine
 10
273.405179858714
 20
76.9358411816889
 11
273.682456837516
 21
76.9785101331341
  0
LINE
  5
11300
330
1F
100
AcDbEntity
  8
Слой1
  6
CONTINUOUS
 62
7
370
60
100
AcDbLine
 10
131.245395480622
 20
29.9094442217565
 11
130.430075734788
 21
29.8696737156581
  0
LINE
  5
11301
330
1F
100
AcDbEntity
  8
Слой1
  6
CONTINUOUS
 62
7
370
60
100
AcDbLine
 10
148.317814170831
 20
133.277976515672
 11
149.317814170832
 21
133.277976515674
  0
LINE
  5
11302
330
1F
100
AcDbEntity
  8
Слой1
  6
CONTINUOUS
 62
7
370
60
100
AcDbLine
 10
128.917814170831
 20
129.277976515673
 11
128.91781417083
 21
133.277976515674
  0
LINE
  5
11303
330
1F
100
AcDbEntity
  8
Слой1
  6
CONTINUOUS
 62
7
370
60
100
AcDbLine
 10
69.2845979782298
 20
78.2631999744343
 11
69.487606750675
 21
78.5209546699564
  0
LINE
  5
11304
330
1F
100
AcDbEntity
  8
Слой1
  6
CONTINUOUS
 62
7
370
60
100
AcDbLine
 10
161.132563993311
 20
36.3381267389108
 11
161.370898109441
 21
36.5491102333853
  0
LINE
  5
11305
330
1F
100
AcDbEntity
  8
Слой1
  6
CONTINUOUS
 62
7
370
60
100
AcDbLine
 10
54.822766858047
 20
86.3998839338885
 11
55.0708884213069
 21
86.406880589992
  0
LINE
  5
11306
330
1F
100
AcDbEntity
  8
Слой1
  6
CONTINUOUS
 62
7
370
60
100
AcDbLine
 10
117.584870207262
 20
19.4721141611453
 11
131.629126303461
 21
19.4721141611453
  0
LINE
  5
11307
330
1F
100
AcDbEntity
  8
Слой1
  6
CONTINUOUS
 62
7
370
60
100
AcDbLine
 10
230.290333105442
 20
57.1067649554791
 11
230.29033310544
 21
67.1067649554791
  0
LINE
  5
11308
330
1F
100
AcDbEntity
  8
Слой1
  6
CONTINUOUS
 62
7
370
60
100
AcDbLine
 10
11.7684279538682
 20
68.7516351127101
 11
10.5954803358297
 21
68.1406457395959
  0
LINE
  5
11309
330
1F
100
AcDbEntity
  8
Слой1
  6
CONTINUOUS
 62
7
370
60
100
AcDbLine
 10
148.317814170831
 20
30.8668772757263
 11
146.589678555692
 21
30.5774297604421
  0
LINE
  5
1130A
330
1F
100
AcDbEntity
  8
Слой1
  6
CONTINUOUS
 62
7
370
60
100
AcDbLine
 10
131.639667148977
 20
19.4721141611453
 11
143.454818745779
 21
19.4721141611453
  0
LINE
  5
1130B
330
1F
100
AcDbEntity
  8
Слой1
  6
CONTINUOUS
 62
7
370
60
100
AcDbLine
 10
8.41504987493872
 20
40.1949893245706
 11
8.58423312414511
 21
40.7076292689068
  0
LINE
  5
1130C
330
1F
100
AcDbEntity
  8
Слой1
  6
CONTINUOUS
 62
7
370
60
100
AcDbLine
 10
6.97406429011464
 20
34.2862873517212
 11
7.00486919931016
 21
35.3554780246324
  0
LINE
  5
1130D
330
1F
100
AcDbEntity
  8
Слой1
  6
CONTINUOUS
 62
7
370
60
100
AcDbLine
 10
148.769396788476
 20
66.5001136678116
 11
148.794776249912
 21
66.8055742893895
  0
LINE
  5
1130E
330
1F
100
AcDbEntity
  8
Слой1
  6
CONTINUOUS
 62
7
370
60
100
AcDbLine
 10
166.23318300598
 20
21.8521357699171
 11
166.309708201768
 21
22.1796863431708
  0
LINE
  5
1130F
330
1F
100
AcDbEntity
  8
Слой1
  6
CONTINUOUS
 62
7
370
60
100
AcDbLine
 10
179.109940585676
 20
37.4218797644239
 11
179.22532638771
 21
37.7290216883652
  0
LINE
  5
11310
330
1F
100
AcDbEntity
  8
Слой1
  6
CONTINUOUS
 62
7
370
60
100
AcDbLine
 10
50.9853094970657
 20
80.0950471633617
 11
51.4352348417678
 21
80.8979185191782
  0
LINE
  5
11311
330
1F
100
AcDbEntity
  8
Слой1
  6
CONTINUOUS
 62
7
370
60
100
AcDbLine
 10
130.122652740962
 20
29.8494498871497
 11
130.225106035934
 21
29.8565084371191
  0
LINE
  5
11312
330
1F
100
AcDbEntity
  8
Слой1
  6
CONTINUOUS
 62
7
370
60
100
AcDbLine
 10
67.5421387998345
 20
11.8101164081509
 11
67.6145320126826
 21
11.4731154907824
  0
LINE
  5
11313
330
1F
100
AcDbEntity
  8
Слой1
  6
CONTINUOUS
 62
7
370
60
100
AcDbLine
 10
6.96999189885578
 20
36.6012919289886
 11
7.03831451549927
 21
36.7655311139596
  0
LINE
  5
11314
330
1F
100
AcDbEntity
  8
Слой1
  6
CONTINUOUS
 62
7
370
60
100
AcDbLine
 10
159.867161183432
 20
37.9186023818936
 11
159.695489911387
 21
37.5716751123576
  0
LINE
  5
11315
330
1F
100
AcDbEntity
  8
Слой1
  6
CONTINUOUS
 62
7
370
60
100
AcDbLine
 10
163.504288876854
 20
42.7731272395014
 11
163.163025755833
 21
42.4467567353034
  0
LINE
  5
11316
330
1F
100
AcDbEntity
  8
Слой1
  6
CONTINUOUS
 62
7
370
60
100
AcDbLine
 10
12.6605274179984
 20
0
 11
12.7060040221626
 21
0.0119213175589039
  0
LINE
  5
11317
330
1F
100
AcDbEntity
  8
Слой1
  6
CONTINUOUS
 62
7
370
60
100
AcDbLine
 10
49.3330188520891
 20
55.7599864226388
 11
49.8809846014878
 21
55.8873436632758
  0
LINE
  5
11318
330
1F
100
AcDbEntity
  8
Слой1
  6
CONTINUOUS
 62
7
370
60
100
AcDbLine
 10
122.597942236618
 20
28.1927726610264
 11
123.83508941457
 21
28.6602991188951
  0
LINE
  5
11319
330
1F
100
AcDbEntity
  8
Слой1
  6
CONTINUOUS
 62
7
370
60
100
AcDbLine
 10
20.3296200707219
 20
42.9995382510137
 11
20.3411428464748
 21
42.9879764155239
  0
LINE
  5
1131A
330
1F
100
AcDbEntity
  8
Слой1
  6
CONTINUOUS
 62
7
370
60
100
AcDbLine
 10
202.829248514227
 20
69.1318925820893
 11
202.829248514229
 21
70.1318925820871
  0
LINE
  5
1131B
330
1F
100
AcDbEntity
  8
Слой1
  6
CONTINUOUS
 62
7
370
60
100
AcDbLine
 10
262.623665023275
 20
76.9358411816889
 11
262.900529501741
 21
76.9811095255361
  0
LINE
  5
1131C
330
1F
100
AcDbEntity
  8
Слой1
  6
CONTINUOUS
 62
7
370
60
100
AcDbLine
 10
231.290333105442
 20
57.1067649554791
 11
234.017695310167
 21
57.1067649554791
  0
LINE
  5
1131D
330
1F
100
AcDbEntity
  8
Слой1
  6
CONTINUOUS
 62
7
370
60
100
AcDbLine
 10
69.3613919825303
 20
79.7504463355513
 11
69.5367735590164
 21
79.473153444581
  0
LINE
  5
1131E
330
1F
100
AcDbEntity
  8
Слой1
  6
CONTINUOUS
 62
7
370
60
100
AcDbLine
 10
160.359480839162
 20
8.91115028907234
 11
160.182775509405
 21
9.44820404196653
  0
LINE
  5
1131F
330
1F
100
AcDbEntity
  8
Слой1
  6
CONTINUOUS
 62
7
370
60
100
AcDbLine
 10
196.100557001141
 20
67.5157368033001
 11
196.243784451015
 21
67.1270223490181
  0
LINE
  5
11320
330
1F
100
AcDbEntity
  8
Слой1
  6
CONTINUOUS
 62
7
370
60
100
AcDbLine
 10
171.300433668165
 20
33.4763505264909
 11
171.164854381002
 21
34.2609534887299
  0
LINE
  5
11321
330
1F
100
AcDbEntity
  8
Слой1
  6
CONTINUOUS
 62
7
370
60
100
AcDbLine
 10
165.919610849689
 20
18.4721141611453
 11
165.919610849689
 21
19.4721141611453
  0
LINE
  5
11322
330
1F
100
AcDbEntity
  8
Слой1
  6
CONTINUOUS
 62
7
370
60
100
AcDbLine
 10
123.232648249586
 20
140.368909203177
 11
123.233051651838
 21
140.760475401396
  0
LINE
  5
11323
330
1F
100
AcDbEntity
  8
Слой1
  6
CONTINUOUS
 62
7
370
60
100
AcDbLine
 10
141.367121488786
 20
29.9913721111293
 11
143.113055578564
 21
30.1395163738102
  0
LINE
  5
11324
330
1F
100
AcDbEntity
  8
Слой1
  6
CONTINUOUS
 62
7
370
60
100
AcDbLine
 10
8.29573810486454
 20
39.7117394474341
 11
8.41504987493872
 21
40.1949893245706
  0
LINE
  5
11325
330
1F
100
AcDbEntity
  8
Слой1
  6
CONTINUOUS
 62
7
370
60
100
AcDbLine
 10
66.8299617001828
 20
8.40529141670838
 11
67.221030002717
 21
8.80948192906626
  0
LINE
  5
11326
330
1F
100
AcDbEntity
  8
Слой1
  6
CONTINUOUS
 62
7
370
60
100
AcDbLine
 10
7.15400750971321
 20
36.9006518781476
 11
7.30576634565607
 21
36.9934513691926
  0
LINE
  5
11327
330
1F
100
AcDbEntity
  8
Слой1
  6
CONTINUOUS
 62
7
370
60
100
AcDbLine
 10
12.2956395610177
 20
33.0178149726632
 11
12.60240260028
 21
33.083238640789
  0
LINE
  5
11328
330
1F
100
AcDbEntity
  8
Слой1
  6
CONTINUOUS
 62
7
370
60
100
AcDbLine
 10
161.635907236408
 20
6.56643988371689
 11
161.821087722863
 21
6.611044748628
  0
LINE
  5
11329
330
1F
100
AcDbEntity
  8
Слой1
  6
CONTINUOUS
 62
7
370
60
100
AcDbLine
 10
48.3330188520899
 20
10.0000000000001
 11
49.3330188520899
 21
10.0000000000001
  0
LINE
  5
1132A
330
1F
100
AcDbEntity
  8
Слой1
  6
CONTINUOUS
 62
7
370
60
100
AcDbLine
 10
126.633633728404
 20
141.356766263887
 11
131.629126303461
 21
141.368909203178
  0
LINE
  5
1132B
330
1F
100
AcDbEntity
  8
Слой1
  6
CONTINUOUS
 62
7
370
60
100
AcDbLine
 10
244.290333105443
 20
69.0124392329056
 11
252.096126400126
 21
69.0124392329077
  0
LINE
  5
1132C
330
1F
100
AcDbEntity
  8
Слой1
  6
CONTINUOUS
 62
7
370
60
100
AcDbLine
 10
122.986340909104
 20
141.246502979481
 11
122.81912722007
 21
141.332023988297
  0
LINE
  5
1132D
330
1F
100
AcDbEntity
  8
Слой1
  6
CONTINUOUS
 62
7
370
60
100
AcDbLine
 10
208.72359433519
 20
65.5631390917347
 11
209.605460538167
 21
65.3456166891359
  0
LINE
  5
1132E
330
1F
100
AcDbEntity
  8
Слой1
  6
CONTINUOUS
 62
7
370
60
100
AcDbLine
 10
46.5747395021192
 20
0.180364861291719
 11
46.6368482725379
 21
0.0897878133881022
  0
LINE
  5
1132F
330
1F
100
AcDbEntity
  8
Слой1
  6
CONTINUOUS
 62
7
370
60
100
AcDbLine
 10
66.8124260452503
 20
40.4196731912193
 11
66.730232649734
 21
39.8633022418874
  0
LINE
  5
11330
330
1F
100
AcDbEntity
  8
Слой1
  6
CONTINUOUS
 62
7
370
60
100
AcDbLine
 10
48.1590094771942
 20
46.3053160691208
 11
48.3330188520891
 21
46.4274994878825
  0
LINE
  5
11331
330
1F
100
AcDbEntity
  8
Слой1
  6
CONTINUOUS
 62
7
370
60
100
AcDbLine
 10
116.676871669666
 20
6.56643988371677
 11
122.282861252999
 21
6.56643988371677
  0
LINE
  5
11332
330
1F
100
AcDbEntity
  8
Слой1
  6
CONTINUOUS
 62
7
370
60
100
AcDbLine
 10
63.5983498974736
 20
82.4871405425989
 11
63.9994924305273
 21
82.2278685549255
  0
LINE
  5
11333
330
1F
100
AcDbEntity
  8
Слой1
  6
CONTINUOUS
 62
7
370
60
100
AcDbLine
 10
126.280844710685
 20
111.419436423494
 11
126.448193376437
 21
111.334385072307
  0
LINE
  5
11334
330
1F
100
AcDbEntity
  8
Слой1
  6
CONTINUOUS
 62
7
370
60
100
AcDbLine
 10
46.5618155889074
 20
26.5601234332448
 11
46.7174632511427
 21
27.0105760279987
  0
LINE
  5
11335
330
1F
100
AcDbEntity
  8
Слой1
  6
CONTINUOUS
 62
7
370
60
100
AcDbLine
 10
203.344024047242
 20
64.7240915479579
 11
204.190284692002
 21
65.0425154034998
  0
LINE
  5
11336
330
1F
100
AcDbEntity
  8
Слой1
  6
CONTINUOUS
 62
7
370
60
100
AcDbLine
 10
128.917814170831
 20
16.9430579249213
 11
129.917814170831
 21
16.9430579249213
  0
LINE
  5
11337
330
1F
100
AcDbEntity
  8
Слой1
  6
CONTINUOUS
 62
7
370
60
100
AcDbLine
 10
138.61781417083
 20
124.277976515672
 11
139.617814170832
 21
124.277976515672
  0
LINE
  5
11338
330
1F
100
AcDbEntity
  8
Слой1
  6
CONTINUOUS
 62
7
370
60
100
AcDbLine
 10
121.675606864452
 20
7.43595578988184
 11
121.835439019649
 21
7.31850828657157
  0
LINE
  5
11339
330
1F
100
AcDbEntity
  8
Слой1
  6
CONTINUOUS
 62
7
370
60
100
AcDbLine
 10
4.42461717945823
 20
60.8980107422063
 11
4.88900279000825
 21
61.4183024971359
  0
LINE
  5
1133A
330
1F
100
AcDbEntity
  8
Слой1
  6
CONTINUOUS
 62
7
370
60
100
AcDbLine
 10
69.2244895409971
 20
45.3314897232284
 11
68.7693218881554
 21
45.1953519513797
  0
LINE
  5
1133B
330
1F
100
AcDbEntity
  8
Слой1
  6
CONTINUOUS
 62
7
370
60
100
AcDbLine
 10
54.2744256295935
 20
86.3068522288447
 11
54.822766858047
 21
86.3998839338885
  0
LINE
  5
1133C
330
1F
100
AcDbEntity
  8
Слой1
  6
CONTINUOUS
 62
7
370
60
100
AcDbLine
 10
121.956897325182
 20
111.300288846723
 11
122.633670106401
 21
111.300288846723
  0
LINE
  5
1133D
330
1F
100
AcDbEntity
  8
Слой1
  6
CONTINUOUS
 62
7
370
60
100
AcDbLine
 10
133.77372971553
 20
18.2822195117478
 11
135.449947368274
 21
18.037059399591
  0
LINE
  5
1133E
330
1F
100
AcDbEntity
  8
Слой1
  6
CONTINUOUS
 62
7
370
60
100
AcDbLine
 10
75.3936662406904
 20
36.9249765423372
 11
74.7092370753286
 21
38.6170124367313
  0
LINE
  5
1133F
330
1F
100
AcDbEntity
  8
Слой1
  6
CONTINUOUS
 62
7
370
60
100
AcDbLine
 10
162.069476441598
 20
40.2983557078079
 11
162.083075209092
 21
39.9539352248278
  0
LINE
  5
11340
330
1F
100
AcDbEntity
  8
Слой1
  6
CONTINUOUS
 62
7
370
60
100
AcDbLine
 10
156.339797086144
 20
7.41295729328554
 11
156.184149423908
 21
6.96250469853167
  0
LINE
  5
11341
330
1F
100
AcDbEntity
  8
Слой1
  6
CONTINUOUS
 62
7
370
60
100
AcDbLine
 10
117.648286346151
 20
17.7329799942902
 11
117.498811320969
 21
17.5802147974066
  0
LINE
  5
11342
330
1F
100
AcDbEntity
  8
Слой1
  6
CONTINUOUS
 62
7
370
60
100
AcDbLine
 10
26.5300528648292
 20
70.9300867405429
 11
27.3519386453609
 21
70.9274085094462
  0
LINE
  5
11343
330
1F
100
AcDbEntity
  8
Слой1
  6
CONTINUOUS
 62
7
370
60
100
AcDbLine
 10
115.881587482625
 20
8.99002813042534
 11
116.04485951549
 21
8.15108710038321
  0
LINE
  5
11344
330
1F
100
AcDbEntity
  8
Слой1
  6
CONTINUOUS
 62
7
370
60
100
AcDbLine
 10
131.642939094907
 20
19.4257982988989
 11
131.591254231449
 21
20.157420689529
  0
LINE
  5
11345
330
1F
100
AcDbEntity
  8
Слой1
  6
CONTINUOUS
 62
7
370
60
100
AcDbLine
 10
39.6954803358292
 20
36.16405861843
 11
39.6954803358296
 21
41.4828532852029
  0
LINE
  5
11346
330
1F
100
AcDbEntity
  8
Слой1
  6
CONTINUOUS
 62
7
370
60
100
AcDbLine
 10
137.149625671434
 20
67.6033921057817
 11
137.149625671434
 21
72.0128777354498
  0
LINE
  5
11347
330
1F
100
AcDbEntity
  8
Слой1
  6
CONTINUOUS
 62
7
370
60
100
AcDbLine
 10
9.59548033582964
 20
16.4444136870951
 11
9.29468482915954
 21
15.9961450762064
  0
LINE
  5
11348
330
1F
100
AcDbEntity
  8
Слой1
  6
CONTINUOUS
 62
7
370
60
100
AcDbLine
 10
263.472583020342
 20
77.5602850085337
 11
263.346918948262
 21
77.3094629533244
  0
LINE
  5
11349
330
1F
100
AcDbEntity
  8
Слой1
  6
CONTINUOUS
 62
7
370
60
100
AcDbLine
 10
7.44180169108665
 20
61.9349975549625
 11
7.57979935598432
 21
62.0579263026319
  0
LINE
  5
1134A
330
1F
100
AcDbEntity
  8
Слой1
  6
CONTINUOUS
 62
7
370
60
100
AcDbLine
 10
65.4361368901854
 20
37.9755939913081
 11
65.6063737912276
 21
38.2445486034183
  0
LINE
  5
1134B
330
1F
100
AcDbEntity
  8
Слой1
  6
CONTINUOUS
 62
7
370
60
100
AcDbLine
 10
20.5003189059613
 20
70.9485247926823
 11
20.3978879569376
 21
70.9411490581229
  0
LINE
  5
1134C
330
1F
100
AcDbEntity
  8
Слой1
  6
CONTINUOUS
 62
7
370
60
100
AcDbLine
 10
285.594561221486
 20
66.7913336825679
 11
286.594561221486
 21
66.7913336825679
  0
LINE
  5
1134D
330
1F
100
AcDbEntity
  8
Слой1
  6
CONTINUOUS
 62
7
370
60
100
AcDbLine
 10
9.59548033582964
 20
63.8595682991856
 11
10.5954803358306
 21
63.8595682991856
  0
LINE
  5
1134E
330
1F
100
AcDbEntity
  8
Слой1
  6
CONTINUOUS
 62
7
370
60
100
AcDbLine
 10
94.419752594032
 20
75.8480237265013
 11
95.419752594032
 21
75.8480237265013
  0
LINE
  5
1134F
330
1F
100
AcDbEntity
  8
Слой1
  6
CONTINUOUS
 62
7
370
60
100
AcDbLine
 10
152.047533550576
 20
141.246502979481
 11
151.880319861542
 21
141.332023988297
  0
LINE
  5
11350
330
1F
100
AcDbEntity
  8
Слой1
  6
CONTINUOUS
 62
7
370
60
100
AcDbLine
 10
182.009523547719
 20
64.7035784480276
 11
181.752383745659
 21
64.4004283626006
  0
LINE
  5
11351
330
1F
100
AcDbEntity
  8
Слой1
  6
CONTINUOUS
 62
7
370
60
100
AcDbLine
 10
217.92093457132
 20
66.2143175019484
 11
217.599710846558
 21
65.8057864908508
  0
LINE
  5
11352
330
1F
100
AcDbEntity
  8
Слой1
  6
CONTINUOUS
 62
7
370
60
100
AcDbLine
 10
148.317814170831
 20
30.9664398837163
 11
149.317814170831
 21
30.9664398837163
  0
LINE
  5
11353
330
1F
100
AcDbEntity
  8
Слой1
  6
CONTINUOUS
 62
7
370
60
100
AcDbLine
 10
157.611908235797
 20
26.5792457666576
 11
157.447273133331
 21
26.4446971382451
  0
LINE
  5
11354
330
1F
100
AcDbEntity
  8
Слой1
  6
CONTINUOUS
 62
7
370
60
100
AcDbLine
 10
170.563294980883
 20
30.3904553173771
 11
170.214382675394
 21
30.1278754292704
  0
LINE
  5
11355
330
1F
100
AcDbEntity
  8
Слой1
  6
CONTINUOUS
 62
7
370
60
100
AcDbLine
 10
214.368865235722
 20
64.11702725508
 11
215.108127231541
 21
64.261775358344
  0
LINE
  5
11356
330
1F
100
AcDbEntity
  8
Слой1
  6
CONTINUOUS
 62
7
370
60
100
AcDbLine
 10
33.9622976013468
 20
56.9560841416663
 11
31.5269083115103
 21
57.5989055609842
  0
LINE
  5
11357
330
1F
100
AcDbEntity
  8
Слой1
  6
CONTINUOUS
 62
7
370
60
100
AcDbLine
 10
12.5043340703352
 20
26.6471887606389
 11
12.6341104438995
 21
26.4971943382982
  0
LINE
  5
11358
330
1F
100
AcDbEntity
  8
Слой1
  6
CONTINUOUS
 62
7
370
60
100
AcDbLine
 10
148.317814170831
 20
129.277976515674
 11
148.317814170831
 21
133.277976515672
  0
LINE
  5
11359
330
1F
100
AcDbEntity
  8
Слой1
  6
CONTINUOUS
 62
7
370
60
100
AcDbLine
 10
120.640589833385
 20
12.1803652822345
 11
120.977360555588
 21
12.6663598883137
  0
LINE
  5
1135A
330
1F
100
AcDbEntity
  8
Слой1
  6
CONTINUOUS
 62
7
370
60
100
AcDbLine
 10
68.6220893465752
 20
14.3029379186265
 11
68.9633524675962
 21
14.6293084228245
  0
LINE
  5
1135B
330
1F
100
AcDbEntity
  8
Слой1
  6
CONTINUOUS
 62
7
370
60
100
AcDbLine
 10
170.485022622889
 20
43.9826100800547
 11
170.211028131634
 21
44.212999774773
  0
LINE
  5
1135C
330
1F
100
AcDbEntity
  8
Слой1
  6
CONTINUOUS
 62
7
370
60
100
AcDbLine
 10
120.217814170831
 20
129.277976515675
 11
120.217814170831
 21
137.277976515673
  0
LINE
  5
1135D
330
1F
100
AcDbEntity
  8
Слой1
  6
CONTINUOUS
 62
7
370
60
100
AcDbLine
 10
69.487606750675
 20
78.5209546699564
 11
69.6029925527089
 21
78.8280965938978
  0
LINE
  5
1135E
330
1F
100
AcDbEntity
  8
Слой1
  6
CONTINUOUS
 62
7
370
60
100
AcDbLine
 10
161.370898109441
 20
36.5491102333853
 11
161.761966411975
 21
36.9533007457431
  0
LINE
  5
1135F
330
1F
100
AcDbEntity
  8
Слой1
  6
CONTINUOUS
 62
7
370
60
100
AcDbLine
 10
55.0708884213069
 20
86.406880589992
 11
55.3190514225416
 21
86.4122086449151
  0
LINE
  5
11360
330
1F
100
AcDbEntity
  8
Слой1
  6
CONTINUOUS
 62
7
370
60
100
AcDbLine
 10
146.589678555692
 20
30.5774297604421
 11
144.854334205935
 21
30.3349167583502
  0
LINE
  5
11361
330
1F
100
AcDbEntity
  8
Слой1
  6
CONTINUOUS
 62
7
370
60
100
AcDbLine
 10
167.770631078214
 20
67.0346127755733
 11
171.0370642423
 21
67.0346127755733
  0
LINE
  5
11362
330
1F
100
AcDbEntity
  8
Слой1
  6
CONTINUOUS
 62
7
370
60
100
AcDbLine
 10
137.107429402009
 20
17.6869702569307
 11
138.617814170831
 21
17.2671898226614
  0
LINE
  5
11363
330
1F
100
AcDbEntity
  8
Слой1
  6
CONTINUOUS
 62
7
370
60
100
AcDbLine
 10
149.317814170831
 20
14.450857257748
 11
149.317814170831
 21
18.4721141611453
  0
LINE
  5
11364
330
1F
100
AcDbEntity
  8
Слой1
  6
CONTINUOUS
 62
7
370
60
100
AcDbLine
 10
8.58423312414511
 20
40.7076292689068
 11
8.78788790182939
 21
41.2075766820087
  0
LINE
  5
11365
330
1F
100
AcDbEntity
  8
Слой1
  6
CONTINUOUS
 62
7
370
60
100
AcDbLine
 10
153.553447867471
 20
32.043221714156
 11
152.149065002732
 21
31.6826686825896
  0
LINE
  5
11366
330
1F
100
AcDbEntity
  8
Слой1
  6
CONTINUOUS
 62
7
370
60
100
AcDbLine
 10
237.006188866063
 20
65.1070555711683
 11
237.592189312004
 21
65.14233030651
  0
LINE
  5
11367
330
1F
100
AcDbEntity
  8
Слой1
  6
CONTINUOUS
 62
7
370
60
100
AcDbLine
 10
148.794776249912
 20
66.8055742893895
 11
148.811966323345
 21
67.1116050227692
  0
LINE
  5
11368
330
1F
100
AcDbEntity
  8
Слой1
  6
CONTINUOUS
 62
7
370
60
100
AcDbLine
 10
179.22532638771
 20
37.7290216883652
 11
179.24224533447
 21
38.0566858365321
  0
LINE
  5
11369
330
1F
100
AcDbEntity
  8
Слой1
  6
CONTINUOUS
 62
7
370
60
100
AcDbLine
 10
7.03831451549927
 20
36.7655311139596
 11
7.15400750971321
 21
36.9006518781476
  0
LINE
  5
1136A
330
1F
100
AcDbEntity
  8
Слой1
  6
CONTINUOUS
 62
7
370
60
100
AcDbLine
 10
51.4352348417678
 20
80.8979185191782
 11
51.8026008408259
 21
81.7417653373461
  0
LINE
  5
1136B
330
1F
100
AcDbEntity
  8
Слой1
  6
CONTINUOUS
 62
7
370
60
100
AcDbLine
 10
130.225106035934
 20
29.8565084371191
 11
130.327580694671
 21
29.8632497348306
  0
LINE
  5
1136C
330
1F
100
AcDbEntity
  8
Слой1
  6
CONTINUOUS
 62
7
370
60
100
AcDbLine
 10
8.15906013009321
 20
38.7262517558422
 11
8.14235374975788
 21
38.2287714656932
  0
LINE
  5
1136D
330
1F
100
AcDbEntity
  8
Слой1
  6
CONTINUOUS
 62
7
370
60
100
AcDbLine
 10
159.695489911387
 20
37.5716751123576
 11
159.567195546642
 21
37.2064763829403
  0
LINE
  5
1136E
330
1F
100
AcDbEntity
  8
Слой1
  6
CONTINUOUS
 62
7
370
60
100
AcDbLine
 10
49.3330188520891
 20
75.9771275170097
 11
49.480804953092
 21
76.2724220507645
  0
LINE
  5
1136F
330
1F
100
AcDbEntity
  8
Слой1
  6
CONTINUOUS
 62
7
370
60
100
AcDbLine
 10
163.163025755833
 20
42.4467567353034
 11
162.859053084199
 21
42.0853997944829
  0
LINE
  5
11370
330
1F
100
AcDbEntity
  8
Слой1
  6
CONTINUOUS
 62
7
370
60
100
AcDbLine
 10
12.7060040221626
 20
0.0119213175589039
 11
12.7428343429936
 21
0.0411406058138709
  0
LINE
  5
11371
330
1F
100
AcDbEntity
  8
Слой1
  6
CONTINUOUS
 62
7
370
60
100
AcDbLine
 10
20.3411428464748
 20
42.9879764155239
 11
20.3527363337593
 21
42.9764854863391
  0
LINE
  5
11372
330
1F
100
AcDbEntity
  8
Слой1
  6
CONTINUOUS
 62
7
370
60
100
AcDbLine
 10
262.834823998528
 20
74.0475155038828
 11
263.115377843818
 21
73.9148344411085
  0
LINE
  5
11373
330
1F
100
AcDbEntity
  8
Слой1
  6
CONTINUOUS
 62
7
370
60
100
AcDbLine
 10
13.0102981360501
 20
38.0697328958584
 11
17.0112998934029
 21
38.0697328958584
  0
LINE
  5
11374
330
1F
100
AcDbEntity
  8
Слой1
  6
CONTINUOUS
 62
7
370
60
100
AcDbLine
 10
42.0725318773707
 20
39.069732895859
 11
46.0725318773706
 21
39.0697328958575
  0
LINE
  5
11375
330
1F
100
AcDbEntity
  8
Слой1
  6
CONTINUOUS
 62
7
370
60
100
AcDbLine
 10
310.135975743566
 20
70.6636742933171
 11
311.135975743566
 21
70.6636742933171
  0
LINE
  5
11376
330
1F
100
AcDbEntity
  8
Слой1
  6
CONTINUOUS
 62
7
370
60
100
AcDbLine
 10
196.243784451016
 20
67.1270223490181
 11
196.464722623479
 21
66.6566303929567
  0
LINE
  5
11377
330
1F
100
AcDbEntity
  8
Слой1
  6
CONTINUOUS
 62
7
370
60
100
AcDbLine
 10
160.182775509405
 20
9.44820404196653
 11
160.09568506844
 21
10.0068334022354
  0
LINE
  5
11378
330
1F
100
AcDbEntity
  8
Слой1
  6
CONTINUOUS
 62
7
370
60
100
AcDbLine
 10
251.763935069874
 20
67.6655168058213
 11
251.537665427942
 21
67.0094861220071
  0
LINE
  5
11379
330
1F
100
AcDbEntity
  8
Слой1
  6
CONTINUOUS
 62
7
370
60
100
AcDbLine
 10
7.47876244004287
 20
10.8708033913259
 11
7.30576634565607
 21
10.8293927507628
  0
LINE
  5
1137A
330
1F
100
AcDbEntity
  8
Слой1
  6
CONTINUOUS
 62
7
370
60
100
AcDbLine
 10
143.113055578564
 20
30.1395163738102
 11
144.854334205935
 21
30.3349167583502
  0
LINE
  5
1137B
330
1F
100
AcDbEntity
  8
Слой1
  6
CONTINUOUS
 62
7
370
60
100
AcDbLine
 10
38.6954803358296
 20
63.8595682991856
 11
39.6954803358296
 21
63.8595682991856
  0
LINE
  5
1137C
330
1F
100
AcDbEntity
  8
Слой1
  6
CONTINUOUS
 62
7
370
60
100
AcDbLine
 10
12.9159945946244
 20
33.0766144660021
 11
12.60240260028
 21
33.083238640789
  0
LINE
  5
1137D
330
1F
100
AcDbEntity
  8
Слой1
  6
CONTINUOUS
 62
7
370
60
100
AcDbLine
 10
50.4733512334385
 20
3.44039351851866
 11
50.5604416744044
 21
2.88176415824973
  0
LINE
  5
1137E
330
1F
100
AcDbEntity
  8
Слой1
  6
CONTINUOUS
 62
7
370
60
100
AcDbLine
 10
268.514422440994
 20
58.7423385544327
 11
268.514422440994
 21
74.2456011149673
  0
LINE
  5
1137F
330
1F
100
AcDbEntity
  8
Слой1
  6
CONTINUOUS
 62
7
370
60
100
AcDbLine
 10
47.8667189605067
 20
74.6246496467111
 11
47.3050052485973
 21
74.2656059429689
  0
LINE
  5
11380
330
1F
100
AcDbEntity
  8
Слой1
  6
CONTINUOUS
 62
7
370
60
100
AcDbLine
 10
161.821087722863
 20
6.611044748628
 11
161.959035792052
 21
6.74239061550097
  0
LINE
  5
11381
330
1F
100
AcDbEntity
  8
Слой1
  6
CONTINUOUS
 62
7
370
60
100
AcDbLine
 10
164.941385257543
 20
45.3131337393825
 11
165.189578475646
 21
45.3167929522082
  0
LINE
  5
11382
330
1F
100
AcDbEntity
  8
Слой1
  6
CONTINUOUS
 62
7
370
60
100
AcDbLine
 10
46.6368482725379
 20
0.0897878133881022
 11
46.7269347591589
 21
0.0269696161984257
  0
LINE
  5
11383
330
1F
100
AcDbEntity
  8
Слой1
  6
CONTINUOUS
 62
7
370
60
100
AcDbLine
 10
122.81912722007
 20
141.332023988297
 11
122.633670106401
 21
141.361687429407
  0
LINE
  5
11384
330
1F
100
AcDbEntity
  8
Слой1
  6
CONTINUOUS
 62
7
370
60
100
AcDbLine
 10
62.5983498974736
 20
78.7629517268802
 11
62.5983498974736
 21
83.2589230024083
  0
LINE
  5
11385
330
1F
100
AcDbEntity
  8
Слой1
  6
CONTINUOUS
 62
7
370
60
100
AcDbLine
 10
48.3330188520899
 20
36.16405861843
 11
49.3330188520899
 21
36.16405861843
  0
LINE
  5
11386
330
1F
100
AcDbEntity
  8
Слой1
  6
CONTINUOUS
 62
7
370
60
100
AcDbLine
 10
149.317814170831
 20
13.4236660982438
 11
148.317814170831
 21
13.4236660982438
  0
LINE
  5
11387
330
1F
100
AcDbEntity
  8
Слой1
  6
CONTINUOUS
 62
7
370
60
100
AcDbLine
 10
46.5747395021192
 20
26.3444234797216
 11
46.6368482725379
 21
26.253846431818
  0
LINE
  5
11388
330
1F
100
AcDbEntity
  8
Слой1
  6
CONTINUOUS
 62
7
370
60
100
AcDbLine
 10
63.5983498974736
 20
78.7629517268802
 11
63.5983498974736
 21
82.4871405425989
  0
LINE
  5
11389
330
1F
100
AcDbEntity
  8
Слой1
  6
CONTINUOUS
 62
7
370
60
100
AcDbLine
 10
121.835439019649
 20
7.31850828657157
 11
121.986072067037
 21
7.18947372180883
  0
LINE
  5
1138A
330
1F
100
AcDbEntity
  8
Слой1
  6
CONTINUOUS
 62
7
370
60
100
AcDbLine
 10
169.321744738943
 20
64.4004283626007
 11
169.064604936899
 21
64.7035784480396
  0
LINE
  5
1138B
330
1F
100
AcDbEntity
  8
Слой1
  6
CONTINUOUS
 62
7
370
60
100
AcDbLine
 10
85.419752594032
 20
59.653970216565
 11
85.419752594032
 21
68.5318637350831
  0
LINE
  5
1138C
330
1F
100
AcDbEntity
  8
Слой1
  6
CONTINUOUS
 62
7
370
60
100
AcDbLine
 10
195.753419783972
 20
70.6934496401341
 11
195.788933641491
 21
70.972714045074
  0
LINE
  5
1138D
330
1F
100
AcDbEntity
  8
Слой1
  6
CONTINUOUS
 62
7
370
60
100
AcDbLine
 10
4.88900279000825
 20
61.4183024971359
 11
5.28053864486121
 21
61.995413560882
  0
LINE
  5
1138E
330
1F
100
AcDbEntity
  8
Слой1
  6
CONTINUOUS
 62
7
370
60
100
AcDbLine
 10
7.15400750971321
 20
10.7365932597177
 11
7.30576634565607
 21
10.8293927507628
  0
LINE
  5
1138F
330
1F
100
AcDbEntity
  8
Слой1
  6
CONTINUOUS
 62
7
370
60
100
AcDbLine
 10
68.7693218881554
 20
45.1953519513797
 11
68.3526506156904
 21
44.9671061719669
  0
LINE
  5
11390
330
1F
100
AcDbEntity
  8
Слой1
  6
CONTINUOUS
 62
7
370
60
100
AcDbLine
 10
122.633670106401
 20
111.300288846723
 11
122.81912722007
 21
111.329952287834
  0
LINE
  5
11391
330
1F
100
AcDbEntity
  8
Слой1
  6
CONTINUOUS
 62
7
370
60
100
AcDbLine
 10
135.449947368274
 20
18.037059399591
 11
137.107429402009
 21
17.6869702569307
  0
LINE
  5
11392
330
1F
100
AcDbEntity
  8
Слой1
  6
CONTINUOUS
 62
7
370
60
100
AcDbLine
 10
74.7092370753286
 20
38.6170124367313
 11
73.9269658124062
 21
40.2660971590914
  0
LINE
  5
11393
330
1F
100
AcDbEntity
  8
Слой1
  6
CONTINUOUS
 62
7
370
60
100
AcDbLine
 10
143.821245067478
 20
17.2683478123954
 11
144.428585572723
 21
16.6173004791506
  0
LINE
  5
11394
330
1F
100
AcDbEntity
  8
Слой1
  6
CONTINUOUS
 62
7
370
60
100
AcDbLine
 10
156.19707333712
 20
6.74680474500849
 11
156.259182107539
 21
6.65622769710487
  0
LINE
  5
11395
330
1F
100
AcDbEntity
  8
Слой1
  6
CONTINUOUS
 62
7
370
60
100
AcDbLine
 10
162.083075209092
 20
39.9539352248278
 11
162.15546842194
 21
39.6169343074593
  0
LINE
  5
11396
330
1F
100
AcDbEntity
  8
Слой1
  6
CONTINUOUS
 62
7
370
60
100
AcDbLine
 10
117.648286346151
 20
17.7329799942902
 11
117.745789680996
 21
17.9231722344743
  0
LINE
  5
11397
330
1F
100
AcDbEntity
  8
Слой1
  6
CONTINUOUS
 62
7
370
60
100
AcDbLine
 10
74.6881924733106
 20
32.0342972937779
 11
74.2879017707838
 21
31.8597826868514
  0
LINE
  5
11398
330
1F
100
AcDbEntity
  8
Слой1
  6
CONTINUOUS
 62
7
370
60
100
AcDbLine
 10
128.99287365761
 20
14.6994936056492
 11
129.917814170831
 21
14.6994936056492
  0
LINE
  5
11399
330
1F
100
AcDbEntity
  8
Слой1
  6
CONTINUOUS
 62
7
370
60
100
AcDbLine
 10
131.591254231449
 20
20.157420689529
 11
131.444090075516
 21
20.875950688061
  0
LINE
  5
1139A
330
1F
100
AcDbEntity
  8
Слой1
  6
CONTINUOUS
 62
7
370
60
100
AcDbLine
 10
46.7174632511427
 20
27.0105760279987
 11
46.8320846667973
 21
27.4731726837942
  0
LINE
  5
1139B
330
1F
100
AcDbEntity
  8
Слой1
  6
CONTINUOUS
 62
7
370
60
100
AcDbLine
 10
116.028179608377
 20
11.5365488305983
 11
116.296047164578
 21
12.572099220394
  0
LINE
  5
1139C
330
1F
100
AcDbEntity
  8
Слой1
  6
CONTINUOUS
 62
7
370
60
100
AcDbLine
 10
9.02507121677009
 20
15.5284580180626
 11
9.29468482915954
 21
15.9961450762064
  0
LINE
  5
1139D
330
1F
100
AcDbEntity
  8
Слой1
  6
CONTINUOUS
 62
7
370
60
100
AcDbLine
 10
263.346918948262
 20
77.3094629533244
 11
263.149777601771
 21
77.1098672321902
  0
LINE
  5
1139E
330
1F
100
AcDbEntity
  8
Слой1
  6
CONTINUOUS
 62
7
370
60
100
AcDbLine
 10
7.57979935598432
 20
62.0579263026319
 11
7.72435977077123
 21
62.1730658657604
  0
LINE
  5
1139F
330
1F
100
AcDbEntity
  8
Слой1
  6
CONTINUOUS
 62
7
370
60
100
AcDbLine
 10
215.829248514229
 20
67.2262183046612
 11
216.829248514227
 21
67.2262183046608
  0
LINE
  5
113A0
330
1F
100
AcDbEntity
  8
Слой1
  6
CONTINUOUS
 62
7
370
60
100
AcDbLine
 10
28.1737920682211
 20
70.9351777111448
 11
27.3519386453609
 21
70.9274085094462
  0
LINE
  5
113A1
330
1F
100
AcDbEntity
  8
Слой1
  6
CONTINUOUS
 62
7
370
60
100
AcDbLine
 10
42.0725318773704
 20
11.9056742774276
 11
42.0725318773707
 21
12.9056742774291
  0
LINE
  5
113A2
330
1F
100
AcDbEntity
  8
Слой1
  6
CONTINUOUS
 62
7
370
60
100
AcDbLine
 10
156.544582366617
 20
9.29861580964282
 11
156.557225438879
 21
8.82219804380741
  0
LINE
  5
113A3
330
1F
100
AcDbEntity
  8
Слой1
  6
CONTINUOUS
 62
7
370
60
100
AcDbLine
 10
65.6063737912276
 20
38.2445486034183
 11
65.8447079073571
 21
38.4555320978928
  0
LINE
  5
113A4
330
1F
100
AcDbEntity
  8
Слой1
  6
CONTINUOUS
 62
7
370
60
100
AcDbLine
 10
20.5003189059613
 20
70.9485247926823
 11
20.6027722009328
 21
70.9555833426516
  0
LINE
  5
113A5
330
1F
100
AcDbEntity
  8
Слой1
  6
CONTINUOUS
 62
7
370
60
100
AcDbLine
 10
175.0370642423
 20
77.4289384981448
 11
176.037064242302
 21
77.4289384981448
  0
LINE
  5
113A6
330
1F
100
AcDbEntity
  8
Слой1
  6
CONTINUOUS
 62
7
370
60
100
AcDbLine
 10
94.419752594032
 20
70.053970216565
 11
95.4197525940283
 21
70.053970216565
  0
LINE
  5
113A7
330
1F
100
AcDbEntity
  8
Слой1
  6
CONTINUOUS
 62
7
370
60
100
AcDbLine
 10
151.880319861542
 20
141.332023988297
 11
151.694862747873
 21
141.361687429407
  0
LINE
  5
113A8
330
1F
100
AcDbEntity
  8
Слой1
  6
CONTINUOUS
 62
7
370
60
100
AcDbLine
 10
0.000951874968495758
 20
59.1041317710972
 11
0
 21
59.0464812120422
  0
LINE
  5
113A9
330
1F
100
AcDbEntity
  8
Слой1
  6
CONTINUOUS
 62
7
370
60
100
AcDbLine
 10
12.0120362058889
 20
32.8838263329652
 11
11.7666903431621
 21
32.6884056936987
  0
LINE
  5
113AA
330
1F
100
AcDbEntity
  8
Слой1
  6
CONTINUOUS
 62
7
370
60
100
AcDbLine
 10
12.9756084016172
 20
69.291847566559
 11
14.2127555795687
 21
69.7593740244277
  0
LINE
  5
113AB
330
1F
100
AcDbEntity
  8
Слой1
  6
CONTINUOUS
 62
7
370
60
100
AcDbLine
 10
126.381705510756
 20
29.3709479172448
 11
125.097831322683
 21
29.0534873717908
  0
LINE
  5
113AC
330
1F
100
AcDbEntity
  8
Слой1
  6
CONTINUOUS
 62
7
370
60
100
AcDbLine
 10
129.929122220767
 20
23.4252541630306
 11
129.917814170831
 21
23.4370260960746
  0
LINE
  5
113AD
330
1F
100
AcDbEntity
  8
Слой1
  6
CONTINUOUS
 62
7
370
60
100
AcDbLine
 10
157.447273133331
 20
26.4446971382451
 11
157.287657287011
 21
26.304230658346
  0
LINE
  5
113AE
330
1F
100
AcDbEntity
  8
Слой1
  6
CONTINUOUS
 62
7
370
60
100
AcDbLine
 10
215.108127231541
 20
64.261775358344
 11
215.817771389227
 21
64.5144915654292
  0
LINE
  5
113AF
330
1F
100
AcDbEntity
  8
Слой1
  6
CONTINUOUS
 62
7
370
60
100
AcDbLine
 10
126.477516478261
 20
67.7244985029421
 11
133.149625671432
 21
67.72449850294
  0
LINE
  5
113B0
330
1F
100
AcDbEntity
  8
Слой1
  6
CONTINUOUS
 62
7
370
60
100
AcDbLine
 10
157.95535268709
 20
7.44813418351662
 11
158.95535268709
 21
7.44813418351662
  0
LINE
  5
113B1
330
1F
100
AcDbEntity
  8
Слой1
  6
CONTINUOUS
 62
7
370
60
100
AcDbLine
 10
273.128315380247
 20
76.9811095255361
 11
272.879067280217
 21
77.1098672321902
  0
LINE
  5
113B2
330
1F
100
AcDbEntity
  8
Слой1
  6
CONTINUOUS
 62
7
370
60
100
AcDbLine
 10
171.200372568439
 20
43.1839746059388
 11
170.980930088124
 21
43.4668127053942
  0
LINE
  5
113B3
330
1F
100
AcDbEntity
  8
Слой1
  6
CONTINUOUS
 62
7
370
60
100
AcDbLine
 10
84.0094144105563
 20
69.9049667261573
 11
83.9916246279666
 21
69.3477366327538
  0
LINE
  5
113B4
330
1F
100
AcDbEntity
  8
Слой1
  6
CONTINUOUS
 62
7
370
60
100
AcDbLine
 10
31.7447876537845
 20
71.0904470166619
 11
33.4907217435632
 21
71.2385912793428
  0
LINE
  5
113B5
330
1F
100
AcDbEntity
  8
Слой1
  6
CONTINUOUS
 62
7
370
60
100
AcDbLine
 10
139.617814170831
 20
129.277976516865
 11
148.317814170831
 21
129.277976515674
  0
LINE
  5
113B6
330
1F
100
AcDbEntity
  8
Слой1
  6
CONTINUOUS
 62
7
370
60
100
AcDbLine
 10
136.974272480362
 20
29.8283336039137
 11
137.796125903222
 21
29.8361028056122
  0
LINE
  5
113B7
330
1F
100
AcDbEntity
  8
Слой1
  6
CONTINUOUS
 62
7
370
60
100
AcDbLine
 10
158.95535268709
 20
129.277976515675
 11
165.919610849689
 21
129.277976515673
  0
LINE
  5
113B8
330
1F
100
AcDbEntity
  8
Слой1
  6
CONTINUOUS
 62
7
370
60
100
AcDbLine
 10
76.3789200335161
 20
6.87473586115284
 11
76.6239179717448
 21
6.11713467205298
  0
LINE
  5
113B9
330
1F
100
AcDbEntity
  8
Слой1
  6
CONTINUOUS
 62
7
370
60
100
AcDbLine
 10
237.592189312004
 20
65.14233030651
 11
238.176891225084
 21
65.0897517706184
  0
LINE
  5
113BA
330
1F
100
AcDbEntity
  8
Слой1
  6
CONTINUOUS
 62
7
370
60
100
AcDbLine
 10
19.2954803358296
 20
10.5
 11
19.2954803358296
 21
17.7947413990512
  0
LINE
  5
113BB
330
1F
100
AcDbEntity
  8
Слой1
  6
CONTINUOUS
 62
7
370
60
100
AcDbLine
 10
198.840725639226
 20
64.5144915654313
 11
198.829248514225
 21
67.2262183046633
  0
LINE
  5
113BC
330
1F
100
AcDbEntity
  8
Слой1
  6
CONTINUOUS
 62
7
370
60
100
AcDbLine
 10
8.78788790182939
 20
41.2075766820087
 11
9.02507121677009
 21
41.6925166364925
  0
LINE
  5
113BD
330
1F
100
AcDbEntity
  8
Слой1
  6
CONTINUOUS
 62
7
370
60
100
AcDbLine
 10
152.149065002732
 20
31.6826686825896
 11
150.736950397722
 21
31.3536974655157
  0
LINE
  5
113BE
330
1F
100
AcDbEntity
  8
Слой1
  6
CONTINUOUS
 62
7
370
60
100
AcDbLine
 10
18.7860823217763
 20
70.7829324229187
 11
18.2776510711359
 21
70.7164645421747
  0
LINE
  5
113BF
330
1F
100
AcDbEntity
  8
Слой1
  6
CONTINUOUS
 62
7
370
60
100
AcDbLine
 10
179.24224533447
 20
38.0566858365321
 11
179.159107394017
 21
38.3740785390484
  0
LINE
  5
113C0
330
1F
100
AcDbEntity
  8
Слой1
  6
CONTINUOUS
 62
7
370
60
100
AcDbLine
 10
148.811966323345
 20
67.1116050227692
 11
148.820954678235
 21
67.4179863503234
  0
LINE
  5
113C1
330
1F
100
AcDbEntity
  8
Слой1
  6
CONTINUOUS
 62
7
370
60
100
AcDbLine
 10
51.5014235467227
 20
56.3576261539102
 11
52.0324332646882
 21
56.5434083077676
  0
LINE
  5
113C2
330
1F
100
AcDbEntity
  8
Слой1
  6
CONTINUOUS
 62
7
370
60
100
AcDbLine
 10
130.327580694671
 20
29.8632497348306
 11
130.430075734788
 21
29.8696737156581
  0
LINE
  5
113C3
330
1F
100
AcDbEntity
  8
Слой1
  6
CONTINUOUS
 62
7
370
60
100
AcDbLine
 10
230.29033310544
 20
67.1067649554791
 11
231.29033310544
 21
67.1067649554796
  0
LINE
  5
113C4
330
1F
100
AcDbEntity
  8
Слой1
  6
CONTINUOUS
 62
7
370
60
100
AcDbLine
 10
8.14235374975788
 20
38.2287714656932
 11
8.16023216660537
 21
37.7313319171632
  0
LINE
  5
113C5
330
1F
100
AcDbEntity
  8
Слой1
  6
CONTINUOUS
 62
7
370
60
100
AcDbLine
 10
49.480804953092
 20
76.2724220507645
 11
49.6046342620599
 21
76.5785362378838
  0
LINE
  5
113C6
330
1F
100
AcDbEntity
  8
Слой1
  6
CONTINUOUS
 62
7
370
60
100
AcDbLine
 10
159.567195546642
 20
37.2064763829403
 11
159.484175068956
 21
36.8284060769413
  0
LINE
  5
113C7
330
1F
100
AcDbEntity
  8
Слой1
  6
CONTINUOUS
 62
7
370
60
100
AcDbLine
 10
12.7428343429936
 20
0.0411406058138709
 11
12.7647865983981
 21
0.0827138883556927
  0
LINE
  5
113C8
330
1F
100
AcDbEntity
  8
Слой1
  6
CONTINUOUS
 62
7
370
60
100
AcDbLine
 10
162.859053084199
 20
42.0853997944829
 11
162.59593522602
 21
41.6932936653712
  0
LINE
  5
113C9
330
1F
100
AcDbEntity
  8
Слой1
  6
CONTINUOUS
 62
7
370
60
100
AcDbLine
 10
76.0223585716257
 20
2.24663650070024
 11
76.3008717500572
 21
2.58296729619788
  0
LINE
  5
113CA
330
1F
100
AcDbEntity
  8
Слой1
  6
CONTINUOUS
 62
7
370
60
100
AcDbLine
 10
28.9954803358296
 20
63.8595682991856
 11
29.9954803358296
 21
63.8595682991856
  0
LINE
  5
113CB
330
1F
100
AcDbEntity
  8
Слой1
  6
CONTINUOUS
 62
7
370
60
100
AcDbLine
 10
139.617814170831
 20
15.7546184295099
 11
138.617814170831
 21
15.7546184295099
  0
LINE
  5
113CC
330
1F
100
AcDbEntity
  8
Слой1
  6
CONTINUOUS
 62
7
370
60
100
AcDbLine
 10
143.584631436348
 20
15.8570092361337
 11
146.042370314977
 21
15.3057742820006
  0
LINE
  5
113CD
330
1F
100
AcDbEntity
  8
Слой1
  6
CONTINUOUS
 62
7
370
60
100
AcDbLine
 10
196.737562457134
 20
66.2143175019509
 11
196.464722623479
 21
66.6566303929567
  0
LINE
  5
113CE
330
1F
100
AcDbEntity
  8
Слой1
  6
CONTINUOUS
 62
7
370
60
100
AcDbLine
 10
69.6029925527089
 20
78.8280965938978
 11
69.6199114994694
 21
79.1557607420647
  0
LINE
  5
113CF
330
1F
100
AcDbEntity
  8
Слой1
  6
CONTINUOUS
 62
7
370
60
100
AcDbLine
 10
251.763935069874
 20
67.6655168058213
 11
251.950313938377
 21
68.333975575187
  0
LINE
  5
113D0
330
1F
100
AcDbEntity
  8
Слой1
  6
CONTINUOUS
 62
7
370
60
100
AcDbLine
 10
7.47876244004287
 20
10.8708033913259
 11
7.68845289864714
 21
10.9121543296769
  0
LINE
  5
113D1
330
1F
100
AcDbEntity
  8
Слой1
  6
CONTINUOUS
 62
7
370
60
100
AcDbLine
 10
50.4733512334386
 20
3.44039351851864
 11
50.4399349768349
 21
4.06687611204775
  0
LINE
  5
113D2
330
1F
100
AcDbEntity
  8
Слой1
  6
CONTINUOUS
 62
7
370
60
100
AcDbLine
 10
6.4058457733762
 20
4.97010894688149
 11
6.25084826101242
 21
4.12959982749908
  0
LINE
  5
113D3
330
1F
100
AcDbEntity
  8
Слой1
  6
CONTINUOUS
 62
7
370
60
100
AcDbLine
 10
161.959035792052
 20
6.74239061550097
 11
162.012661647415
 21
6.92516280751636
  0
LINE
  5
113D4
330
1F
100
AcDbEntity
  8
Слой1
  6
CONTINUOUS
 62
7
370
60
100
AcDbLine
 10
67.221030002717
 20
8.80948192906626
 11
67.5204835824573
 21
9.2855406871075
  0
LINE
  5
113D5
330
1F
100
AcDbEntity
  8
Слой1
  6
CONTINUOUS
 62
7
370
60
100
AcDbLine
 10
47.3050052485973
 20
74.2656059429689
 11
46.7138638632553
 21
73.9574070820367
  0
LINE
  5
113D6
330
1F
100
AcDbEntity
  8
Слой1
  6
CONTINUOUS
 62
7
370
60
100
AcDbLine
 10
169.384244463607
 20
29.8764250482001
 11
169.814091972867
 21
29.9533608223439
  0
LINE
  5
113D7
330
1F
100
AcDbEntity
  8
Слой1
  6
CONTINUOUS
 62
7
370
60
100
AcDbLine
 10
209.605460538167
 20
65.3456166891359
 11
210.470967754004
 21
65.0701148653319
  0
LINE
  5
113D8
330
1F
100
AcDbEntity
  8
Слой1
  6
CONTINUOUS
 62
7
370
60
100
AcDbLine
 10
50.5604416744044
 20
29.0458227766796
 11
50.4733512334385
 21
29.6044521369485
  0
LINE
  5
113D9
330
1F
100
AcDbEntity
  8
Слой1
  6
CONTINUOUS
 62
7
370
60
100
AcDbLine
 10
250.968876412526
 20
65.7441679166962
 11
251.272325251593
 21
66.3682616684955
  0
LINE
  5
113DA
330
1F
100
AcDbEntity
  8
Слой1
  6
CONTINUOUS
 62
7
370
60
100
AcDbLine
 10
119.217814170831
 20
7.44813418351662
 11
120.217814170831
 21
7.44813418351662
  0
LINE
  5
113DB
330
1F
100
AcDbEntity
  8
Слой1
  6
CONTINUOUS
 62
7
370
60
100
AcDbLine
 10
46.6368482725379
 20
26.253846431818
 11
46.7269347591589
 21
26.1910282346283
  0
LINE
  5
113DC
330
1F
100
AcDbEntity
  8
Слой1
  6
CONTINUOUS
 62
7
370
60
100
AcDbLine
 10
126.448193376437
 20
111.334385072307
 11
126.633633728404
 21
111.305210012244
  0
LINE
  5
113DD
330
1F
100
AcDbEntity
  8
Слой1
  6
CONTINUOUS
 62
7
370
60
100
AcDbLine
 10
66.8505672823571
 20
43.1814580238187
 11
66.6923301212332
 21
42.8752368677679
  0
LINE
  5
113DE
330
1F
100
AcDbEntity
  8
Слой1
  6
CONTINUOUS
 62
7
370
60
100
AcDbLine
 10
204.190284692002
 20
65.0425154034998
 11
205.055791907839
 21
65.3041412622732
  0
LINE
  5
113DF
330
1F
100
AcDbEntity
  8
Слой1
  6
CONTINUOUS
 62
7
370
60
100
AcDbLine
 10
139.617814170831
 20
128.277976514482
 11
148.317814170831
 21
128.277976515673
  0
LINE
  5
113E0
330
1F
100
AcDbEntity
  8
Слой1
  6
CONTINUOUS
 62
7
370
60
100
AcDbLine
 10
121.986072067037
 20
7.18947372180883
 11
122.126667905336
 21
7.04957002592578
  0
LINE
  5
113E1
330
1F
100
AcDbEntity
  8
Слой1
  6
CONTINUOUS
 62
7
370
60
100
AcDbLine
 10
207.829248514229
 20
81.6262183046602
 11
207.629614568033
 21
81.6433317459102
  0
LINE
  5
113E2
330
1F
100
AcDbEntity
  8
Слой1
  6
CONTINUOUS
 62
7
370
60
100
AcDbLine
 10
66.6292782198569
 20
41.5233561719668
 11
66.5568850070088
 21
41.8603570893353
  0
LINE
  5
113E3
330
1F
100
AcDbEntity
  8
Слой1
  6
CONTINUOUS
 62
7
370
60
100
AcDbLine
 10
195.788933641491
 20
70.972714045074
 11
195.834981046618
 21
71.2504359895139
  0
LINE
  5
113E4
330
1F
100
AcDbEntity
  8
Слой1
  6
CONTINUOUS
 62
7
370
60
100
AcDbLine
 10
249.290333105441
 20
57.1067649554793
 11
252.290333105439
 21
57.1067649554791
  0
LINE
  5
113E5
330
1F
100
AcDbEntity
  8
Слой1
  6
CONTINUOUS
 62
7
370
60
100
AcDbLine
 10
144.428585572723
 20
16.6173004791506
 11
145.105111374502
 21
16.0384758433895
  0
LINE
  5
113E6
330
1F
100
AcDbEntity
  8
Слой1
  6
CONTINUOUS
 62
7
370
60
100
AcDbLine
 10
156.259182107539
 20
6.65622769710487
 11
156.34926859416
 21
6.5934094999152
  0
LINE
  5
113E7
330
1F
100
AcDbEntity
  8
Слой1
  6
CONTINUOUS
 62
7
370
60
100
AcDbLine
 10
73.9269658124062
 20
40.2660971590914
 11
73.0495335474766
 21
41.8665787649765
  0
LINE
  5
113E8
330
1F
100
AcDbEntity
  8
Слой1
  6
CONTINUOUS
 62
7
370
60
100
AcDbLine
 10
216.829248514228
 20
65.1106356786919
 11
216.829248514227
 21
67.2262183046608
  0
LINE
  5
113E9
330
1F
100
AcDbEntity
  8
Слой1
  6
CONTINUOUS
 62
7
370
60
100
AcDbLine
 10
117.745789680996
 20
17.9231722344743
 11
117.782566001606
 21
18.1337131824501
  0
LINE
  5
113EA
330
1F
100
AcDbEntity
  8
Слой1
  6
CONTINUOUS
 62
7
370
60
100
AcDbLine
 10
166.80059239462
 20
24.3707517056271
 11
167.054287078523
 21
25.6364880853842
  0
LINE
  5
113EB
330
1F
100
AcDbEntity
  8
Слой1
  6
CONTINUOUS
 62
7
370
60
100
AcDbLine
 10
162.218520323317
 20
40.9688150032604
 11
162.115074076302
 21
40.6400152624571
  0
LINE
  5
113EC
330
1F
100
AcDbEntity
  8
Слой1
  6
CONTINUOUS
 62
7
370
60
100
AcDbLine
 10
116.04485951549
 20
8.15108710038321
 11
116.311337202838
 21
7.33900985605883
  0
LINE
  5
113ED
330
1F
100
AcDbEntity
  8
Слой1
  6
CONTINUOUS
 62
7
370
60
100
AcDbLine
 10
131.444090075516
 20
20.875950688061
 11
131.203987450788
 21
21.5689827054894
  0
LINE
  5
113EE
330
1F
100
AcDbEntity
  8
Слой1
  6
CONTINUOUS
 62
7
370
60
100
AcDbLine
 10
126.477516478261
 20
67.7244985029421
 11
126.478296667183
 21
67.4179863517103
  0
LINE
  5
113EF
330
1F
100
AcDbEntity
  8
Слой1
  6
CONTINUOUS
 62
7
370
60
100
AcDbLine
 10
262.900529501741
 20
76.9811095255361
 11
263.149777601771
 21
77.1098672321902
  0
LINE
  5
113F0
330
1F
100
AcDbEntity
  8
Слой1
  6
CONTINUOUS
 62
7
370
60
100
AcDbLine
 10
61.5780387334381
 20
84.2830495114714
 11
61.3585962531225
 21
84.5658876109268
  0
LINE
  5
113F1
330
1F
100
AcDbEntity
  8
Слой1
  6
CONTINUOUS
 62
7
370
60
100
AcDbLine
 10
65.8447079073571
 20
38.4555320978928
 11
66.2357762098912
 21
38.8597226102507
  0
LINE
  5
113F2
330
1F
100
AcDbEntity
  8
Слой1
  6
CONTINUOUS
 62
7
370
60
100
AcDbLine
 10
20.6027722009328
 20
70.9555833426516
 11
20.7052468596702
 21
70.9623246403632
  0
LINE
  5
113F3
330
1F
100
AcDbEntity
  8
Слой1
  6
CONTINUOUS
 62
7
370
60
100
AcDbLine
 10
144.00820719342
 20
141.368909203178
 11
151.694862747873
 21
141.3609901995
  0
LINE
  5
113F4
330
1F
100
AcDbEntity
  8
Слой1
  6
CONTINUOUS
 62
7
370
60
100
AcDbLine
 10
165.686010671711
 20
36.3034872970172
 11
165.686010671711
 21
40.6516756892482
  0
LINE
  5
113F5
330
1F
100
AcDbEntity
  8
Слой1
  6
CONTINUOUS
 62
7
370
60
100
AcDbLine
 10
182.25092714451
 20
65.0194030125475
 11
182.475970833626
 21
65.34708607602
  0
LINE
  5
113F6
330
1F
100
AcDbEntity
  8
Слой1
  6
CONTINUOUS
 62
7
370
60
100
AcDbLine
 10
123.83508941457
 20
28.6602991188951
 11
125.097831322683
 21
29.0534873717908
  0
LINE
  5
113F7
330
1F
100
AcDbEntity
  8
Слой1
  6
CONTINUOUS
 62
7
370
60
100
AcDbLine
 10
168.488948200989
 20
45.0900517344242
 11
168.921464982475
 21
44.9463771887921
  0
LINE
  5
113F8
330
1F
100
AcDbEntity
  8
Слой1
  6
CONTINUOUS
 62
7
370
60
100
AcDbLine
 10
84.2418755848105
 20
71.5596444939932
 11
84.134721391785
 21
71.0125249163174
  0
LINE
  5
113F9
330
1F
100
AcDbEntity
  8
Слой1
  6
CONTINUOUS
 62
7
370
60
100
AcDbLine
 10
148.820954678235
 20
67.4179863503234
 11
148.821734867185
 21
67.7244985029418
  0
LINE
  5
113FA
330
1F
100
AcDbEntity
  8
Слой1
  6
CONTINUOUS
 62
7
370
60
100
AcDbLine
 10
144.526502460426
 20
20.5459963812554
 11
145.245295174927
 21
20.8956110426942
  0
LINE
  5
113FB
330
1F
100
AcDbEntity
  8
Слой1
  6
CONTINUOUS
 62
7
370
60
100
AcDbLine
 10
157.287657287011
 20
26.304230658346
 11
157.133273293759
 21
26.1580334182925
  0
LINE
  5
113FC
330
1F
100
AcDbEntity
  8
Слой1
  6
CONTINUOUS
 62
7
370
60
100
AcDbLine
 10
48.3330188520891
 20
55.5672967662164
 11
46.9500920606629
 21
55.3832185039215
  0
LINE
  5
113FD
330
1F
100
AcDbEntity
  8
Слой1
  6
CONTINUOUS
 62
7
370
60
100
AcDbLine
 10
12.3637382320359
 20
26.7870924565219
 11
12.2131051846482
 21
26.9161270212847
  0
LINE
  5
113FE
330
1F
100
AcDbEntity
  8
Слой1
  6
CONTINUOUS
 62
7
370
60
100
AcDbLine
 10
165.69530345272
 20
43.4013079913542
 11
165.224246688708
 21
43.4630867109642
  0
LINE
  5
113FF
330
1F
100
AcDbEntity
  8
Слой1
  6
CONTINUOUS
 62
7
370
60
100
AcDbLine
 10
272.879067280217
 20
77.1098672321902
 11
272.681925933727
 21
77.3094629533244
  0
LINE
  5
11400
330
1F
100
AcDbEntity
  8
Слой1
  6
CONTINUOUS
 62
7
370
60
100
AcDbLine
 10
83.9916246279666
 20
69.3477366327538
 11
84.0038416244971
 21
68.7903565125891
  0
LINE
  5
11401
330
1F
100
AcDbEntity
  8
Слой1
  6
CONTINUOUS
 62
7
370
60
100
AcDbLine
 10
68.3181166749412
 20
13.941580977806
 11
68.0549988167625
 21
13.5494748486943
  0
LINE
  5
11402
330
1F
100
AcDbEntity
  8
Слой1
  6
CONTINUOUS
 62
7
370
60
100
AcDbLine
 10
120.977360555588
 20
12.6663598883137
 11
121.389024178163
 21
13.0907869589856
  0
LINE
  5
11403
330
1F
100
AcDbEntity
  8
Слой1
  6
CONTINUOUS
 62
7
370
60
100
AcDbLine
 10
117.720119257372
 20
25.4275840234845
 11
118.375064885756
 21
25.89363310243
  0
LINE
  5
11404
330
1F
100
AcDbEntity
  8
Слой1
  6
CONTINUOUS
 62
7
370
60
100
AcDbLine
 10
33.4907217435632
 20
71.2385912793428
 11
35.2320003709338
 21
71.4339916638828
  0
LINE
  5
11405
330
1F
100
AcDbEntity
  8
Слой1
  6
CONTINUOUS
 62
7
370
60
100
AcDbLine
 10
136.974272480362
 20
29.8283336039137
 11
136.15238669983
 21
29.8310118350103
  0
LINE
  5
11406
330
1F
100
AcDbEntity
  8
Слой1
  6
CONTINUOUS
 62
7
370
60
100
AcDbLine
 10
148.317814170831
 20
19.4721141611453
 11
148.317814170831
 21
30.9921178732761
  0
LINE
  5
11407
330
1F
100
AcDbEntity
  8
Слой1
  6
CONTINUOUS
 62
7
370
60
100
AcDbLine
 10
115.44130837534
 20
22.1796863431708
 11
115.214687167805
 21
21.520140792182
  0
LINE
  5
11408
330
1F
100
AcDbEntity
  8
Слой1
  6
CONTINUOUS
 62
7
370
60
100
AcDbLine
 10
161.761966411975
 20
36.9533007457431
 11
162.061419991715
 21
37.4293595037844
  0
LINE
  5
11409
330
1F
100
AcDbEntity
  8
Слой1
  6
CONTINUOUS
 62
7
370
60
100
AcDbLine
 10
8.09778542237086
 20
66.5266589290171
 11
7.49984071350259
 21
65.9894274656214
  0
LINE
  5
1140A
330
1F
100
AcDbEntity
  8
Слой1
  6
CONTINUOUS
 62
7
370
60
100
AcDbLine
 10
55.3190514225416
 20
86.4122086449151
 11
55.5672446406452
 21
86.4158678577408
  0
LINE
  5
1140B
330
1F
100
AcDbEntity
  8
Слой1
  6
CONTINUOUS
 62
7
370
60
100
AcDbLine
 10
172.220683732475
 20
34.6291485094093
 11
173.220683732475
 21
34.6291485094093
  0
LINE
  5
1140C
330
1F
100
AcDbEntity
  8
Слой1
  6
CONTINUOUS
 62
7
370
60
100
AcDbLine
 10
129.91781417083
 20
29.8343813041493
 11
130.020221791939
 21
29.8420741525903
  0
LINE
  5
1140D
330
1F
100
AcDbEntity
  8
Слой1
  6
CONTINUOUS
 62
7
370
60
100
AcDbLine
 10
139.617814170831
 20
16.9660078816491
 11
141.149242146511
 21
16.4998306554516
  0
LINE
  5
1140E
330
1F
100
AcDbEntity
  8
Слой1
  6
CONTINUOUS
 62
7
370
60
100
AcDbLine
 10
148.317814170831
 20
13.4236660982438
 11
148.317814170831
 21
18.4721141611453
  0
LINE
  5
1140F
330
1F
100
AcDbEntity
  8
Слой1
  6
CONTINUOUS
 62
7
370
60
100
AcDbLine
 10
160.873625743512
 20
35.7634774153963
 11
160.962327092269
 21
36.0691721268006
  0
LINE
  5
11410
330
1F
100
AcDbEntity
  8
Слой1
  6
CONTINUOUS
 62
7
370
60
100
AcDbLine
 10
18.2776510711359
 20
70.7164645421747
 11
17.7703080944565
 21
70.6421448286905
  0
LINE
  5
11411
330
1F
100
AcDbEntity
  8
Слой1
  6
CONTINUOUS
 62
7
370
60
100
AcDbLine
 10
179.159107394017
 20
38.3740785390484
 11
178.983725817531
 21
38.6513714300187
  0
LINE
  5
11412
330
1F
100
AcDbEntity
  8
Слой1
  6
CONTINUOUS
 62
7
370
60
100
AcDbLine
 10
17.0112998934029
 20
11.9056742774286
 11
17.0112998934029
 21
12.9056742774286
  0
LINE
  5
11413
330
1F
100
AcDbEntity
  8
Слой1
  6
CONTINUOUS
 62
7
370
60
100
AcDbLine
 10
231.290333105442
 20
57.1067649554791
 11
231.29033310544
 21
67.1067649554796
  0
LINE
  5
11414
330
1F
100
AcDbEntity
  8
Слой1
  6
CONTINUOUS
 62
7
370
60
100
AcDbLine
 10
51.8026008408259
 20
81.7417653373461
 11
52.0837231295671
 21
82.6181245608206
  0
LINE
  5
11415
330
1F
100
AcDbEntity
  8
Слой1
  6
CONTINUOUS
 62
7
370
60
100
AcDbLine
 10
7.05453783466508
 20
26.1640586184299
 11
12.6605274179984
 21
26.1640586184299
  0
LINE
  5
11416
330
1F
100
AcDbEntity
  8
Слой1
  6
CONTINUOUS
 62
7
370
60
100
AcDbLine
 10
12.7647865983981
 20
0.0827138883556927
 11
12.76814641204
 21
0.12960686214642
  0
LINE
  5
11417
330
1F
100
AcDbEntity
  8
Слой1
  6
CONTINUOUS
 62
7
370
60
100
AcDbLine
 10
8.15906013009321
 20
38.7262517558422
 11
8.21027065616224
 21
39.2213711598757
  0
LINE
  5
11418
330
1F
100
AcDbEntity
  8
Слой1
  6
CONTINUOUS
 62
7
370
60
100
AcDbLine
 10
49.6046342620599
 20
76.5785362378838
 11
49.7037220625763
 21
76.8935302078324
  0
LINE
  5
11419
330
1F
100
AcDbEntity
  8
Слой1
  6
CONTINUOUS
 62
7
370
60
100
AcDbLine
 10
159.484175068956
 20
36.8284060769413
 11
159.44765603159
 21
36.4430543987263
  0
LINE
  5
1141A
330
1F
100
AcDbEntity
  8
Слой1
  6
CONTINUOUS
 62
7
370
60
100
AcDbLine
 10
162.59593522602
 20
41.6932936653712
 11
162.37675748444
 21
41.2750361593112
  0
LINE
  5
1141B
330
1F
100
AcDbEntity
  8
Слой1
  6
CONTINUOUS
 62
7
370
60
100
AcDbLine
 10
174.964994058449
 20
34.8752223328448
 11
175.437195118719
 21
35.0226898837165
  0
LINE
  5
1141C
330
1F
100
AcDbEntity
  8
Слой1
  6
CONTINUOUS
 62
7
370
60
100
AcDbLine
 10
138.617814170831
 20
29.8664398837168
 11
139.617814170831
 21
29.8664398837168
  0
LINE
  5
1141D
330
1F
100
AcDbEntity
  8
Слой1
  6
CONTINUOUS
 62
7
370
60
100
AcDbLine
 10
143.743547988115
 20
64.8589216934265
 11
144.142164280978
 21
64.5072604343842
  0
LINE
  5
1141E
330
1F
100
AcDbEntity
  8
Слой1
  6
CONTINUOUS
 62
7
370
60
100
AcDbLine
 10
263.115377843818
 20
73.9148344411085
 11
263.336944890745
 21
73.6975264379396
  0
LINE
  5
1141F
330
1F
100
AcDbEntity
  8
Слой1
  6
CONTINUOUS
 62
7
370
60
100
AcDbLine
 10
46.0725318773702
 20
38.0697328958561
 11
46.0725318773706
 21
39.0697328958575
  0
LINE
  5
11420
330
1F
100
AcDbEntity
  8
Слой1
  6
CONTINUOUS
 62
7
370
60
100
AcDbLine
 10
311.135975743566
 20
68.0034152733281
 11
311.135975743566
 21
70.6636742933171
  0
LINE
  5
11421
330
1F
100
AcDbEntity
  8
Слой1
  6
CONTINUOUS
 62
7
370
60
100
AcDbLine
 10
160.082273610106
 20
13.1417871059391
 11
160.131155560679
 21
13.6323304280141
  0
LINE
  5
11422
330
1F
100
AcDbEntity
  8
Слой1
  6
CONTINUOUS
 62
7
370
60
100
AcDbLine
 10
161.999185979506
 20
43.3339108802078
 11
161.898116128479
 21
42.4191321555922
  0
LINE
  5
11423
330
1F
100
AcDbEntity
  8
Слой1
  6
CONTINUOUS
 62
7
370
60
100
AcDbLine
 10
76.3008717500572
 20
2.58296729619788
 11
76.4938028345628
 21
2.97471414199458
  0
LINE
  5
11424
330
1F
100
AcDbEntity
  8
Слой1
  6
CONTINUOUS
 62
7
370
60
100
AcDbLine
 10
69.6199114994694
 20
79.1557607420647
 11
69.5367735590164
 21
79.473153444581
  0
LINE
  5
11425
330
1F
100
AcDbEntity
  8
Слой1
  6
CONTINUOUS
 62
7
370
60
100
AcDbLine
 10
251.950313938377
 20
68.333975575187
 11
252.096126400527
 21
69.0124392329077
  0
LINE
  5
11426
330
1F
100
AcDbEntity
  8
Слой1
  6
CONTINUOUS
 62
7
370
60
100
AcDbLine
 10
7.68845289864714
 20
10.9121543296769
 11
7.8764774859676
 21
11.0137749136899
  0
LINE
  5
11427
330
1F
100
AcDbEntity
  8
Слой1
  6
CONTINUOUS
 62
7
370
60
100
AcDbLine
 10
71.1450742624536
 20
12.1596684803403
 11
72.1450742624536
 21
12.1596684803403
  0
LINE
  5
11428
330
1F
100
AcDbEntity
  8
Слой1
  6
CONTINUOUS
 62
7
370
60
100
AcDbLine
 10
51.3383579020761
 20
27.5555349762663
 11
51.7468832882004
 21
27.1646916368654
  0
LINE
  5
11429
330
1F
100
AcDbEntity
  8
Слой1
  6
CONTINUOUS
 62
7
370
60
100
AcDbLine
 10
162.012661647415
 20
6.92516280751636
 11
161.967547022154
 21
7.11021976395157
  0
LINE
  5
1142A
330
1F
100
AcDbEntity
  8
Слой1
  6
CONTINUOUS
 62
7
370
60
100
AcDbLine
 10
218.76700088127
 20
71.5262183046607
 11
218.823515981833
 21
71.2504359895096
  0
LINE
  5
1142B
330
1F
100
AcDbEntity
  8
Слой1
  6
CONTINUOUS
 62
7
370
60
100
AcDbLine
 10
50.4399349768349
 20
4.06687611204775
 11
50.4218794759077
 21
4.69398940730355
  0
LINE
  5
1142C
330
1F
100
AcDbEntity
  8
Слой1
  6
CONTINUOUS
 62
7
370
60
100
AcDbLine
 10
6.25084826101242
 20
4.12959982749908
 11
6.20172930292113
 21
3.27633132546705
  0
LINE
  5
1142D
330
1F
100
AcDbEntity
  8
Слой1
  6
CONTINUOUS
 62
7
370
60
100
AcDbLine
 10
67.5204835824573
 20
9.2855406871075
 11
67.7154864425597
 21
9.81306156070298
  0
LINE
  5
1142E
330
1F
100
AcDbEntity
  8
Слой1
  6
CONTINUOUS
 62
7
370
60
100
AcDbLine
 10
117.310786733648
 20
17.4785942133936
 11
117.498811320969
 21
17.5802147974066
  0
LINE
  5
1142F
330
1F
100
AcDbEntity
  8
Слой1
  6
CONTINUOUS
 62
7
370
60
100
AcDbLine
 10
170.214382675394
 20
30.1278754292704
 11
169.814091972867
 21
29.9533608223439
  0
LINE
  5
11430
330
1F
100
AcDbEntity
  8
Слой1
  6
CONTINUOUS
 62
7
370
60
100
AcDbLine
 10
46.7269347591589
 20
0.0269696161984257
 11
46.8333976201574
 21
0
  0
LINE
  5
11431
330
1F
100
AcDbEntity
  8
Слой1
  6
CONTINUOUS
 62
7
370
60
100
AcDbLine
 10
50.4733512334386
 20
29.6044521369485
 11
50.4399349768349
 21
30.2309347304776
  0
LINE
  5
11432
330
1F
100
AcDbEntity
  8
Слой1
  6
CONTINUOUS
 62
7
370
60
100
AcDbLine
 10
49.8253221965887
 20
77.5421293042589
 11
49.7774404271794
 21
77.2154078181681
  0
LINE
  5
11433
330
1F
100
AcDbEntity
  8
Слой1
  6
CONTINUOUS
 62
7
370
60
100
AcDbLine
 10
251.537665427942
 20
67.0094861220071
 11
251.272325251593
 21
66.3682616684955
  0
LINE
  5
11434
330
1F
100
AcDbEntity
  8
Слой1
  6
CONTINUOUS
 62
7
370
60
100
AcDbLine
 10
161.654767099689
 20
15.4443334022352
 11
162.372496882071
 21
15.7496420557423
  0
LINE
  5
11435
330
1F
100
AcDbEntity
  8
Слой1
  6
CONTINUOUS
 62
7
370
60
100
AcDbLine
 10
148.317814170831
 20
30.9921178732762
 11
149.317814170831
 21
30.9921178732762
  0
LINE
  5
11436
330
1F
100
AcDbEntity
  8
Слой1
  6
CONTINUOUS
 62
7
370
60
100
AcDbLine
 10
121.956897325182
 20
141.361687429407
 11
122.633670106401
 21
141.361687429407
  0
LINE
  5
11437
330
1F
100
AcDbEntity
  8
Слой1
  6
CONTINUOUS
 62
7
370
60
100
AcDbLine
 10
298.948330566193
 20
73.5767521829249
 11
299.948330560148
 21
73.5767521830653
  0
LINE
  5
11438
330
1F
100
AcDbEntity
  8
Слой1
  6
CONTINUOUS
 62
7
370
60
100
AcDbLine
 10
126.633633728404
 20
111.305210012244
 11
131.629126303461
 21
111.293067072952
  0
LINE
  5
11439
330
1F
100
AcDbEntity
  8
Слой1
  6
CONTINUOUS
 62
7
370
60
100
AcDbLine
 10
89.1471147987571
 20
59.653970216565
 11
89.1471147987571
 21
60.5356645163649
  0
LINE
  5
1143A
330
1F
100
AcDbEntity
  8
Слой1
  6
CONTINUOUS
 62
7
370
60
100
AcDbLine
 10
128.917814170831
 20
14.9762681298387
 11
128.917814170831
 21
18.472114161145
  0
LINE
  5
1143B
330
1F
100
AcDbEntity
  8
Слой1
  6
CONTINUOUS
 62
7
370
60
100
AcDbLine
 10
139.617814170832
 20
124.277976515672
 11
139.617814170831
 21
128.277976514482
  0
LINE
  5
1143C
330
1F
100
AcDbEntity
  8
Слой1
  6
CONTINUOUS
 62
7
370
60
100
AcDbLine
 10
66.6923301212332
 20
42.8752368677679
 11
66.5888838742189
 21
42.5464371269646
  0
LINE
  5
1143D
330
1F
100
AcDbEntity
  8
Слой1
  6
CONTINUOUS
 62
7
370
60
100
AcDbLine
 10
180.037064242299
 20
67.0346127755733
 11
183.303497406388
 21
67.0346127755733
  0
LINE
  5
1143E
330
1F
100
AcDbEntity
  8
Слой1
  6
CONTINUOUS
 62
7
370
60
100
AcDbLine
 10
207.429431574606
 20
81.65189629422
 11
207.629614568033
 21
81.6433317459102
  0
LINE
  5
1143F
330
1F
100
AcDbEntity
  8
Слой1
  6
CONTINUOUS
 62
7
370
60
100
AcDbLine
 10
122.126667905336
 20
7.04957002592578
 11
122.256444278901
 21
6.89957560358507
  0
LINE
  5
11440
330
1F
100
AcDbEntity
  8
Слой1
  6
CONTINUOUS
 62
7
370
60
100
AcDbLine
 10
50.4318848791086
 20
5.94860165262421
 11
50.4191955727811
 21
5.32135682984344
  0
LINE
  5
11441
330
1F
100
AcDbEntity
  8
Слой1
  6
CONTINUOUS
 62
7
370
60
100
AcDbLine
 10
195.834981046618
 20
71.2504359895139
 11
195.891496147183
 21
71.5262183046655
  0
LINE
  5
11442
330
1F
100
AcDbEntity
  8
Слой1
  6
CONTINUOUS
 62
7
370
60
100
AcDbLine
 10
5.5923533328038
 20
62.6192156977146
 11
5.28053864486121
 21
61.995413560882
  0
LINE
  5
11443
330
1F
100
AcDbEntity
  8
Слой1
  6
CONTINUOUS
 62
7
370
60
100
AcDbLine
 10
117.346693605772
 20
21.0739909602278
 11
117.549419360473
 21
21.1663078707219
  0
LINE
  5
11444
330
1F
100
AcDbEntity
  8
Слой1
  6
CONTINUOUS
 62
7
370
60
100
AcDbLine
 10
122.81912722007
 20
111.329952287834
 11
122.986340909104
 21
111.41547329665
  0
LINE
  5
11445
330
1F
100
AcDbEntity
  8
Слой1
  6
CONTINUOUS
 62
7
370
60
100
AcDbLine
 10
85.419752594032
 20
68.5318637350831
 11
86.419752594032
 21
68.5318637350836
  0
LINE
  5
11446
330
1F
100
AcDbEntity
  8
Слой1
  6
CONTINUOUS
 62
7
370
60
100
AcDbLine
 10
145.105111374502
 20
16.0384758433895
 11
145.842285969774
 21
15.5391776003302
  0
LINE
  5
11447
330
1F
100
AcDbEntity
  8
Слой1
  6
CONTINUOUS
 62
7
370
60
100
AcDbLine
 10
162.15546842194
 20
39.6169343074594
 11
162.304476980557
 21
39.0746236612555
  0
LINE
  5
11448
330
1F
100
AcDbEntity
  8
Слой1
  6
CONTINUOUS
 62
7
370
60
100
AcDbLine
 10
8.4150498749435
 20
61.6964454954069
 11
8.35164780607065
 21
61.1154575132648
  0
LINE
  5
11449
330
1F
100
AcDbEntity
  8
Слой1
  6
CONTINUOUS
 62
7
370
60
100
AcDbLine
 10
117.832604491163
 20
19.6237524251626
 11
117.918071939866
 21
20.114120712721
  0
LINE
  5
1144A
330
1F
100
AcDbEntity
  8
Слой1
  6
CONTINUOUS
 62
7
370
60
100
AcDbLine
 10
167.054287078523
 20
25.6364880853842
 11
167.28788843162
 21
26.906086440579
  0
LINE
  5
1144B
330
1F
100
AcDbEntity
  8
Слой1
  6
CONTINUOUS
 62
7
370
60
100
AcDbLine
 10
272.514422440994
 20
73.1117624446472
 11
272.553799184669
 21
73.419600383477
  0
LINE
  5
1144C
330
1F
100
AcDbEntity
  8
Слой1
  6
CONTINUOUS
 62
7
370
60
100
AcDbLine
 10
216.829248514228
 20
65.1106356786919
 11
217.234244822457
 21
65.4363046190272
  0
LINE
  5
1144D
330
1F
100
AcDbEntity
  8
Слой1
  6
CONTINUOUS
 62
7
370
60
100
AcDbLine
 10
59.2991311474737
 20
86.0454520943246
 11
58.8666143659876
 21
86.1891266399568
  0
LINE
  5
1144E
330
1F
100
AcDbEntity
  8
Слой1
  6
CONTINUOUS
 62
7
370
60
100
AcDbLine
 10
131.203987450788
 20
21.5689827054894
 11
130.875091785414
 21
22.2245513814342
  0
LINE
  5
1144F
330
1F
100
AcDbEntity
  8
Слой1
  6
CONTINUOUS
 62
7
370
60
100
AcDbLine
 10
117.584870207262
 20
18.4721141611453
 11
117.584870207262
 21
19.4721141611453
  0
LINE
  5
11450
330
1F
100
AcDbEntity
  8
Слой1
  6
CONTINUOUS
 62
7
370
60
100
AcDbLine
 10
116.296047164578
 20
12.572099220394
 11
116.485806824031
 21
13.6247667410838
  0
LINE
  5
11451
330
1F
100
AcDbEntity
  8
Слой1
  6
CONTINUOUS
 62
7
370
60
100
AcDbLine
 10
61.3585962531225
 20
84.5658876109268
 11
61.1197496455091
 21
84.832542239055
  0
LINE
  5
11452
330
1F
100
AcDbEntity
  8
Слой1
  6
CONTINUOUS
 62
7
370
60
100
AcDbLine
 10
95.419752594032
 20
75.8480237265013
 11
95.4197525940335
 21
79.653970216565
  0
LINE
  5
11453
330
1F
100
AcDbEntity
  8
Слой1
  6
CONTINUOUS
 62
7
370
60
100
AcDbLine
 10
20.7052468596702
 20
70.9623246403632
 11
20.8077418997869
 21
70.9687486211906
  0
LINE
  5
11454
330
1F
100
AcDbEntity
  8
Слой1
  6
CONTINUOUS
 62
7
370
60
100
AcDbLine
 10
166.686010671711
 20
22.1796863431708
 11
166.686010671711
 21
30.3726913387582
  0
LINE
  5
11455
330
1F
100
AcDbEntity
  8
Слой1
  6
CONTINUOUS
 62
7
370
60
100
AcDbLine
 10
156.519145664114
 20
18.4721141611453
 11
156.519145664114
 21
19.4721141611453
  0
LINE
  5
11456
330
1F
100
AcDbEntity
  8
Слой1
  6
CONTINUOUS
 62
7
370
60
100
AcDbLine
 10
182.475970833626
 20
65.34708607602
 11
182.684073180937
 21
65.6857810200942
  0
LINE
  5
11457
330
1F
100
AcDbEntity
  8
Слой1
  6
CONTINUOUS
 62
7
370
60
100
AcDbLine
 10
129.917814170831
 20
15.4327485701458
 11
130.495699004488
 21
16.0091324050157
  0
LINE
  5
11458
330
1F
100
AcDbEntity
  8
Слой1
  6
CONTINUOUS
 62
7
370
60
100
AcDbLine
 10
14.2127555795687
 20
69.7593740244277
 11
15.4754974876821
 21
70.1525622773234
  0
LINE
  5
11459
330
1F
100
AcDbEntity
  8
Слой1
  6
CONTINUOUS
 62
7
370
60
100
AcDbLine
 10
122.842055106154
 20
13.400676355824
 11
122.538328429625
 21
13.478995731289
  0
LINE
  5
1145A
330
1F
100
AcDbEntity
  8
Слой1
  6
CONTINUOUS
 62
7
370
60
100
AcDbLine
 10
84.134721391785
 20
71.0125249163174
 11
84.0571594365028
 21
70.4604325359571
  0
LINE
  5
1145B
330
1F
100
AcDbEntity
  8
Слой1
  6
CONTINUOUS
 62
7
370
60
100
AcDbLine
 10
215.817771389227
 20
64.5144915654292
 11
215.829248514229
 21
67.2262183046612
  0
LINE
  5
1145C
330
1F
100
AcDbEntity
  8
Слой1
  6
CONTINUOUS
 62
7
370
60
100
AcDbLine
 10
144.00820719342
 20
18.4721141611472
 11
162.83199638671
 21
18.4721141611403
  0
LINE
  5
1145D
330
1F
100
AcDbEntity
  8
Слой1
  6
CONTINUOUS
 62
7
370
60
100
AcDbLine
 10
12.2131051846482
 20
26.9161270212847
 11
12.0532730294509
 21
27.033574524595
  0
LINE
  5
1145E
330
1F
100
AcDbEntity
  8
Слой1
  6
CONTINUOUS
 62
7
370
60
100
AcDbLine
 10
33.9622976013468
 20
56.9560841416663
 11
36.4200364799761
 21
56.4048491875332
  0
LINE
  5
1145F
330
1F
100
AcDbEntity
  8
Слой1
  6
CONTINUOUS
 62
7
370
60
100
AcDbLine
 10
145.095020657633
 20
64.0456810909086
 11
145.618062329758
 21
63.9508760316143
  0
LINE
  5
11460
330
1F
100
AcDbEntity
  8
Слой1
  6
CONTINUOUS
 62
7
370
60
100
AcDbLine
 10
170.485022622889
 20
43.9826100800547
 11
170.74208348051
 21
43.7334673335224
  0
LINE
  5
11461
330
1F
100
AcDbEntity
  8
Слой1
  6
CONTINUOUS
 62
7
370
60
100
AcDbLine
 10
272.681925933727
 20
77.3094629533244
 11
272.556261861646
 21
77.5602850085337
  0
LINE
  5
11462
330
1F
100
AcDbEntity
  8
Слой1
  6
CONTINUOUS
 62
7
370
60
100
AcDbLine
 10
68.0549988167625
 20
13.5494748486943
 11
67.8358210751828
 21
13.1312173426343
  0
LINE
  5
11463
330
1F
100
AcDbEntity
  8
Слой1
  6
CONTINUOUS
 62
7
370
60
100
AcDbLine
 10
121.389024178163
 20
13.0907869589856
 11
121.63437004089
 21
13.2862075982521
  0
LINE
  5
11464
330
1F
100
AcDbEntity
  8
Слой1
  6
CONTINUOUS
 62
7
370
60
100
AcDbLine
 10
135.330601364436
 20
29.8441370661454
 11
136.15238669983
 21
29.8310118350103
  0
LINE
  5
11465
330
1F
100
AcDbEntity
  8
Слой1
  6
CONTINUOUS
 62
7
370
60
100
AcDbLine
 10
170.980930088124
 20
43.4668127053942
 11
170.74208348051
 21
43.7334673335224
  0
LINE
  5
11466
330
1F
100
AcDbEntity
  8
Слой1
  6
CONTINUOUS
 62
7
370
60
100
AcDbLine
 10
115.44130837534
 20
22.1796863431707
 11
115.743050011014
 21
22.9247417138824
  0
LINE
  5
11467
330
1F
100
AcDbEntity
  8
Слой1
  6
CONTINUOUS
 62
7
370
60
100
AcDbLine
 10
7.49984071350259
 20
65.9894274656214
 11
6.96659248656181
 21
65.3879277992953
  0
LINE
  5
11468
330
1F
100
AcDbEntity
  8
Слой1
  6
CONTINUOUS
 62
7
370
60
100
AcDbLine
 10
129.917814170831
 20
19.4721141611439
 11
129.917814170831
 21
29.8343813041494
  0
LINE
  5
11469
330
1F
100
AcDbEntity
  8
Слой1
  6
CONTINUOUS
 62
7
370
60
100
AcDbLine
 10
37.1280009069106
 20
14.8648458732876
 11
37.9060451877564
 21
15.047986461239
  0
LINE
  5
1146A
330
1F
100
AcDbEntity
  8
Слой1
  6
CONTINUOUS
 62
7
370
60
100
AcDbLine
 10
238.747197403125
 20
64.950497711846
 11
238.176891225084
 21
65.0897517706184
  0
LINE
  5
1146B
330
1F
100
AcDbEntity
  8
Слой1
  6
CONTINUOUS
 62
7
370
60
100
AcDbLine
 10
240.290333105442
 20
73.3008184654154
 11
240.290333105439
 21
84.7067649554791
  0
LINE
  5
1146C
330
1F
100
AcDbEntity
  8
Слой1
  6
CONTINUOUS
 62
7
370
60
100
AcDbLine
 10
17.7703080944565
 20
70.6421448286905
 11
17.2641746421981
 21
70.5599910442168
  0
LINE
  5
1146D
330
1F
100
AcDbEntity
  8
Слой1
  6
CONTINUOUS
 62
7
370
60
100
AcDbLine
 10
19.2954803358296
 20
10.5
 11
20.2954803358306
 21
10.5
  0
LINE
  5
1146E
330
1F
100
AcDbEntity
  8
Слой1
  6
CONTINUOUS
 62
7
370
60
100
AcDbLine
 10
178.983725817531
 20
38.6513714300187
 11
178.732582854898
 21
38.8625046985314
  0
LINE
  5
1146F
330
1F
100
AcDbEntity
  8
Слой1
  6
CONTINUOUS
 62
7
370
60
100
AcDbLine
 10
12.76814641204
 20
0.12960686214642
 11
12.7523452950759
 21
0.173885119128067
  0
LINE
  5
11470
330
1F
100
AcDbEntity
  8
Слой1
  6
CONTINUOUS
 62
7
370
60
100
AcDbLine
 10
49.7037220625763
 20
76.8935302078324
 11
49.7774404271794
 21
77.2154078181681
  0
LINE
  5
11471
330
1F
100
AcDbEntity
  8
Слой1
  6
CONTINUOUS
 62
7
370
60
100
AcDbLine
 10
147.149625671433
 20
64.2286524716355
 11
147.59803485752
 21
64.4952884439366
  0
LINE
  5
11472
330
1F
100
AcDbEntity
  8
Слой1
  6
CONTINUOUS
 62
7
370
60
100
AcDbLine
 10
176.332142065808
 20
35.3641721994915
 11
176.691154945548
 21
35.522086546579
  0
LINE
  5
11473
330
1F
100
AcDbEntity
  8
Слой1
  6
CONTINUOUS
 62
7
370
60
100
AcDbLine
 10
9.59548033582967
 20
35.041952136948
 11
10.5954803358297
 21
35.041952136948
  0
LINE
  5
11474
330
1F
100
AcDbEntity
  8
Слой1
  6
CONTINUOUS
 62
7
370
60
100
AcDbLine
 10
144.142164280978
 20
64.5072604343842
 11
144.597626078998
 21
64.2331890192534
  0
LINE
  5
11475
330
1F
100
AcDbEntity
  8
Слой1
  6
CONTINUOUS
 62
7
370
60
100
AcDbLine
 10
234.017695310167
 20
57.1067649554791
 11
234.017695310167
 21
57.988459255279
  0
LINE
  5
11476
330
1F
100
AcDbEntity
  8
Слой1
  6
CONTINUOUS
 62
7
370
60
100
AcDbLine
 10
160.131155560679
 20
13.6323304280141
 11
160.276492920974
 21
14.1033922579546
  0
LINE
  5
11477
330
1F
100
AcDbEntity
  8
Слой1
  6
CONTINUOUS
 62
7
370
60
100
AcDbLine
 10
161.898116128479
 20
42.4191321555922
 11
161.706056964568
 21
41.519049655288
  0
LINE
  5
11478
330
1F
100
AcDbEntity
  8
Слой1
  6
CONTINUOUS
 62
7
370
60
100
AcDbLine
 10
119.098756376158
 20
26.3741780158238
 11
119.217814170831
 21
26.4483448793558
  0
LINE
  5
11479
330
1F
100
AcDbEntity
  8
Слой1
  6
CONTINUOUS
 62
7
370
60
100
AcDbLine
 10
71.1543670434621
 20
15.2574891746773
 11
71.6021149838895
 21
15.0986406085511
  0
LINE
  5
1147A
330
1F
100
AcDbEntity
  8
Слой1
  6
CONTINUOUS
 62
7
370
60
100
AcDbLine
 10
197.058786181896
 20
65.8057864908532
 11
197.424252205997
 21
65.4363046190296
  0
LINE
  5
1147B
330
1F
100
AcDbEntity
  8
Слой1
  6
CONTINUOUS
 62
7
370
60
100
AcDbLine
 10
129.917814170831
 20
14.6984916898176
 11
128.991262296497
 21
14.6984916898176
  0
LINE
  5
1147C
330
1F
100
AcDbEntity
  8
Слой1
  6
CONTINUOUS
 62
7
370
60
100
AcDbLine
 10
161.967547022154
 20
7.11021976395157
 11
161.83582178719
 21
7.24780562445762
  0
LINE
  5
1147D
330
1F
100
AcDbEntity
  8
Слой1
  6
CONTINUOUS
 62
7
370
60
100
AcDbLine
 10
218.823515981833
 20
71.2504359895096
 11
218.869563386959
 21
70.9727140450706
  0
LINE
  5
1147E
330
1F
100
AcDbEntity
  8
Слой1
  6
CONTINUOUS
 62
7
370
60
100
AcDbLine
 10
6.20172930292113
 20
3.27633132546705
 11
6.25925364762379
 21
2.42358824670857
  0
LINE
  5
1147F
330
1F
100
AcDbEntity
  8
Слой1
  6
CONTINUOUS
 62
7
370
60
100
AcDbLine
 10
50.4191955727811
 20
5.32135682984344
 11
50.4218794759077
 21
4.69398940730355
  0
LINE
  5
11480
330
1F
100
AcDbEntity
  8
Слой1
  6
CONTINUOUS
 62
7
370
60
100
AcDbLine
 10
166.686010671711
 20
23.8426607815879
 11
166.80059239462
 21
24.3707517056271
  0
LINE
  5
11481
330
1F
100
AcDbEntity
  8
Слой1
  6
CONTINUOUS
 62
7
370
60
100
AcDbLine
 10
165.437790688146
 20
45.3187831574791
 11
165.686010671711
 21
45.3191042652047
  0
LINE
  5
11482
330
1F
100
AcDbEntity
  8
Слой1
  6
CONTINUOUS
 62
7
370
60
100
AcDbLine
 10
117.782566001606
 20
141.368909203178
 11
121.956897325182
 21
141.361687429407
  0
LINE
  5
11483
330
1F
100
AcDbEntity
  8
Слой1
  6
CONTINUOUS
 62
7
370
60
100
AcDbLine
 10
210.470967754004
 20
65.0701148653319
 11
211.316308577467
 21
64.7378455652574
  0
LINE
  5
11484
330
1F
100
AcDbEntity
  8
Слой1
  6
CONTINUOUS
 62
7
370
60
100
AcDbLine
 10
50.4399349768349
 20
30.2309347304776
 11
50.4218794759077
 21
30.8580480257334
  0
LINE
  5
11485
330
1F
100
AcDbEntity
  8
Слой1
  6
CONTINUOUS
 62
7
370
60
100
AcDbLine
 10
46.8320846667973
 20
1.30911406536427
 11
46.9047560209588
 21
1.7801263891565
  0
LINE
  5
11486
330
1F
100
AcDbEntity
  8
Слой1
  6
CONTINUOUS
 62
7
370
60
100
AcDbLine
 10
162.372496882071
 20
15.7496420557423
 11
163.048761388445
 21
16.1382494821278
  0
LINE
  5
11487
330
1F
100
AcDbEntity
  8
Слой1
  6
CONTINUOUS
 62
7
370
60
100
AcDbLine
 10
46.7269347591589
 20
26.1910282346283
 11
46.8333976201574
 21
26.16405861843
  0
LINE
  5
11488
330
1F
100
AcDbEntity
  8
Слой1
  6
CONTINUOUS
 62
7
370
60
100
AcDbLine
 10
251.023207121187
 20
76.3386561056729
 11
251.471869466814
 21
75.3478973690382
  0
LINE
  5
11489
330
1F
100
AcDbEntity
  8
Слой1
  6
CONTINUOUS
 62
7
370
60
100
AcDbLine
 10
66.5888838742189
 20
42.5464371269646
 11
66.543286239515
 21
42.2047775723154
  0
LINE
  5
1148A
330
1F
100
AcDbEntity
  8
Слой1
  6
CONTINUOUS
 62
7
370
60
100
AcDbLine
 10
8.75273105075535
 20
66.9927080079626
 11
8.09778542237086
 21
66.5266589290171
  0
LINE
  5
1148B
330
1F
100
AcDbEntity
  8
Слой1
  6
CONTINUOUS
 62
7
370
60
100
AcDbLine
 10
205.055791907839
 20
65.3041412622732
 11
205.936738289522
 21
65.5078182203391
  0
LINE
  5
1148C
330
1F
100
AcDbEntity
  8
Слой1
  6
CONTINUOUS
 62
7
370
60
100
AcDbLine
 10
165.686010671711
 20
22.1796863431707
 11
166.686010671711
 21
22.1796863431707
  0
LINE
  5
1148D
330
1F
100
AcDbEntity
  8
Слой1
  6
CONTINUOUS
 62
7
370
60
100
AcDbLine
 10
117.549419360473
 20
21.1663078707219
 11
117.771306247868
 21
21.146652011949
  0
LINE
  5
1148E
330
1F
100
AcDbEntity
  8
Слой1
  6
CONTINUOUS
 62
7
370
60
100
AcDbLine
 10
122.256444278901
 20
6.89957560358507
 11
122.374679130077
 21
6.74032500284484
  0
LINE
  5
1148F
330
1F
100
AcDbEntity
  8
Слой1
  6
CONTINUOUS
 62
7
370
60
100
AcDbLine
 10
252.290333105438
 20
57.1067649554791
 11
252.290333105438
 21
57.988459255279
  0
LINE
  5
11490
330
1F
100
AcDbEntity
  8
Слой1
  6
CONTINUOUS
 62
7
370
60
100
AcDbLine
 10
122.986340909104
 20
111.41547329665
 11
123.118943132573
 21
111.548480480968
  0
LINE
  5
11491
330
1F
100
AcDbEntity
  8
Слой1
  6
CONTINUOUS
 62
7
370
60
100
AcDbLine
 10
104.419752594031
 20
59.6539702165651
 11
107.41975259403
 21
59.653970216565
  0
LINE
  5
11492
330
1F
100
AcDbEntity
  8
Слой1
  6
CONTINUOUS
 62
7
370
60
100
AcDbLine
 10
145.842285969774
 20
15.5391776003302
 11
146.630807580015
 21
15.1257059693568
  0
LINE
  5
11493
330
1F
100
AcDbEntity
  8
Слой1
  6
CONTINUOUS
 62
7
370
60
100
AcDbLine
 10
156.34926859416
 20
6.5934094999152
 11
156.455731455158
 21
6.56643988371689
  0
LINE
  5
11494
330
1F
100
AcDbEntity
  8
Слой1
  6
CONTINUOUS
 62
7
370
60
100
AcDbLine
 10
120.314664024781
 20
9.32157075139376
 11
120.217814170831
 21
9.76552032190712
  0
LINE
  5
11495
330
1F
100
AcDbEntity
  8
Слой1
  6
CONTINUOUS
 62
7
370
60
100
AcDbLine
 10
8.35164780607065
 20
61.1154575132648
 11
8.39825834495857
 21
60.5328819255549
  0
LINE
  5
11496
330
1F
100
AcDbEntity
  8
Слой1
  6
CONTINUOUS
 62
7
370
60
100
AcDbLine
 10
100.692390389305
 20
59.653970216565
 11
100.692390389305
 21
60.5356645163649
  0
LINE
  5
11497
330
1F
100
AcDbEntity
  8
Слой1
  6
CONTINUOUS
 62
7
370
60
100
AcDbLine
 10
50.4318848791086
 20
32.1126602710541
 11
50.4191955727811
 21
31.4854154482733
  0
LINE
  5
11498
330
1F
100
AcDbEntity
  8
Слой1
  6
CONTINUOUS
 62
7
370
60
100
AcDbLine
 10
75.0371047788
 20
32.2968771818846
 11
75.3156179572315
 21
32.6332079773823
  0
LINE
  5
11499
330
1F
100
AcDbEntity
  8
Слой1
  6
CONTINUOUS
 62
7
370
60
100
AcDbLine
 10
217.599710846558
 20
65.8057864908508
 11
217.234244822457
 21
65.4363046190272
  0
LINE
  5
1149A
330
1F
100
AcDbEntity
  8
Слой1
  6
CONTINUOUS
 62
7
370
60
100
AcDbLine
 10
58.8666143659876
 20
86.1891266399568
 11
58.4238742854761
 21
86.2972671154428
  0
LINE
  5
1149B
330
1F
100
AcDbEntity
  8
Слой1
  6
CONTINUOUS
 62
7
370
60
100
AcDbLine
 10
262.346388044472
 20
76.9785101331341
 11
262.623665023275
 21
76.9358411816889
  0
LINE
  5
1149C
330
1F
100
AcDbEntity
  8
Слой1
  6
CONTINUOUS
 62
7
370
60
100
AcDbLine
 10
116.311337202838
 20
7.33900985605883
 11
116.676871669666
 21
6.56643988371677
  0
LINE
  5
1149D
330
1F
100
AcDbEntity
  8
Слой1
  6
CONTINUOUS
 62
7
370
60
100
AcDbLine
 10
157.95535268709
 20
34.1664398837168
 11
158.95535268709
 21
34.1664398837168
  0
LINE
  5
1149E
330
1F
100
AcDbEntity
  8
Слой1
  6
CONTINUOUS
 62
7
370
60
100
AcDbLine
 10
61.1197496455091
 20
84.832542239055
 11
60.8626887878878
 21
85.0816849855872
  0
LINE
  5
1149F
330
1F
100
AcDbEntity
  8
Слой1
  6
CONTINUOUS
 62
7
370
60
100
AcDbLine
 10
171.0370642423
 20
66.0346127755733
 11
171.0370642423
 21
67.0346127755733
  0
LINE
  5
114A0
330
1F
100
AcDbEntity
  8
Слой1
  6
CONTINUOUS
 62
7
370
60
100
AcDbLine
 10
116.578049400044
 20
16.8263636454131
 11
116.592325733857
 21
17.0036731942755
  0
LINE
  5
114A1
330
1F
100
AcDbEntity
  8
Слой1
  6
CONTINUOUS
 62
7
370
60
100
AcDbLine
 10
66.2357762098912
 20
38.8597226102507
 11
66.5352297896315
 21
39.3357813682919
  0
LINE
  5
114A2
330
1F
100
AcDbEntity
  8
Слой1
  6
CONTINUOUS
 62
7
370
60
100
AcDbLine
 10
35.6229613399256
 20
40.4932297774073
 11
36.3655878894199
 21
40.7888633105159
  0
LINE
  5
114A3
330
1F
100
AcDbEntity
  8
Слой1
  6
CONTINUOUS
 62
7
370
60
100
AcDbLine
 10
182.684073180937
 20
65.6857810200942
 11
182.87469652281
 21
66.0346127755733
  0
LINE
  5
114A4
330
1F
100
AcDbEntity
  8
Слой1
  6
CONTINUOUS
 62
7
370
60
100
AcDbLine
 10
15.4754974876821
 20
70.1525622773234
 11
16.7593716757553
 21
70.4700228227774
  0
LINE
  5
114A5
330
1F
100
AcDbEntity
  8
Слой1
  6
CONTINUOUS
 62
7
370
60
100
AcDbLine
 10
148.317814170831
 20
16.4672439280715
 11
149.317814170831
 21
16.4672439280715
  0
LINE
  5
114A6
330
1F
100
AcDbEntity
  8
Слой1
  6
CONTINUOUS
 62
7
370
60
100
AcDbLine
 10
167.596158894704
 20
45.2700868252233
 11
168.046208120477
 21
45.1981922099102
  0
LINE
  5
114A7
330
1F
100
AcDbEntity
  8
Слой1
  6
CONTINUOUS
 62
7
370
60
100
AcDbLine
 10
171.164854381002
 20
34.2609534887299
 11
170.919856442774
 21
35.0185546778297
  0
LINE
  5
114A8
330
1F
100
AcDbEntity
  8
Слой1
  6
CONTINUOUS
 62
7
370
60
100
AcDbLine
 10
48.3330188520891
 20
55.5672967662164
 11
48.3330188520891
 21
63.8595682991856
  0
LINE
  5
114A9
330
1F
100
AcDbEntity
  8
Слой1
  6
CONTINUOUS
 62
7
370
60
100
AcDbLine
 10
84.0571594365028
 20
70.4604325359571
 11
84.0094144105563
 21
69.9049667261573
  0
LINE
  5
114AA
330
1F
100
AcDbEntity
  8
Слой1
  6
CONTINUOUS
 62
7
370
60
100
AcDbLine
 10
129.095691837055
 20
14.763424126532
 11
129.364243230751
 21
14.9762681298393
  0
LINE
  5
114AB
330
1F
100
AcDbEntity
  8
Слой1
  6
CONTINUOUS
 62
7
370
60
100
AcDbLine
 10
145.245295174927
 20
20.8956110426942
 11
145.987921724421
 21
21.1912445758027
  0
LINE
  5
114AC
330
1F
100
AcDbEntity
  8
Слой1
  6
CONTINUOUS
 62
7
370
60
100
AcDbLine
 10
172.220683732475
 20
42.1598480970161
 11
173.220683732475
 21
42.1598480970161
  0
LINE
  5
114AD
330
1F
100
AcDbEntity
  8
Слой1
  6
CONTINUOUS
 62
7
370
60
100
AcDbLine
 10
175.332142065808
 20
40.282948903565
 11
174.890475555793
 21
40.4647949630432
  0
LINE
  5
114AE
330
1F
100
AcDbEntity
  8
Слой1
  6
CONTINUOUS
 62
7
370
60
100
AcDbLine
 10
165.69530345272
 20
43.4013079913542
 11
166.143051393147
 21
43.242459425228
  0
LINE
  5
114AF
330
1F
100
AcDbEntity
  8
Слой1
  6
CONTINUOUS
 62
7
370
60
100
AcDbLine
 10
272.556261861646
 20
77.5602850085337
 11
272.514422440994
 21
77.8376883705731
  0
LINE
  5
114B0
330
1F
100
AcDbEntity
  8
Слой1
  6
CONTINUOUS
 62
7
370
60
100
AcDbLine
 10
157.95535268709
 20
6.56643988371677
 11
157.95535268709
 21
18.4721141611453
  0
LINE
  5
114B1
330
1F
100
AcDbEntity
  8
Слой1
  6
CONTINUOUS
 62
7
370
60
100
AcDbLine
 10
121.63437004089
 20
13.2862075982521
 11
121.917973396019
 21
13.4201962379501
  0
LINE
  5
114B2
330
1F
100
AcDbEntity
  8
Слой1
  6
CONTINUOUS
 62
7
370
60
100
AcDbLine
 10
36.9673447206906
 20
71.6765046659747
 11
35.2320003709338
 21
71.4339916638828
  0
LINE
  5
114B3
330
1F
100
AcDbEntity
  8
Слой1
  6
CONTINUOUS
 62
7
370
60
100
AcDbLine
 10
145.618062329758
 20
63.9508760316143
 11
146.149625671433
 21
63.9518779474459
  0
LINE
  5
114B4
330
1F
100
AcDbEntity
  8
Слой1
  6
CONTINUOUS
 62
7
370
60
100
AcDbLine
 10
6.96659248656181
 20
65.3879277992953
 11
6.50490365872188
 21
64.729901244836
  0
LINE
  5
114B5
330
1F
100
AcDbEntity
  8
Слой1
  6
CONTINUOUS
 62
7
370
60
100
AcDbLine
 10
12.6605274179984
 20
26.1640586184299
 11
12.7060040221626
 21
26.1759799359888
  0
LINE
  5
114B6
330
1F
100
AcDbEntity
  8
Слой1
  6
CONTINUOUS
 62
7
370
60
100
AcDbLine
 10
55.5672446406452
 20
86.4158678577408
 11
55.815456853145
 21
86.4178580630117
  0
LINE
  5
114B7
330
1F
100
AcDbEntity
  8
Слой1
  6
CONTINUOUS
 62
7
370
60
100
AcDbLine
 10
162.83199638671
 20
18.4721141611453
 11
162.83199638671
 21
19.4721141611453
  0
LINE
  5
114B8
330
1F
100
AcDbEntity
  8
Слой1
  6
CONTINUOUS
 62
7
370
60
100
AcDbLine
 10
36.3655878894199
 20
14.624804692086
 11
37.1280009069106
 21
14.8648458732876
  0
LINE
  5
114B9
330
1F
100
AcDbEntity
  8
Слой1
  6
CONTINUOUS
 62
7
370
60
100
AcDbLine
 10
155.094208552134
 20
111.904591557681
 11
155.123765641349
 21
111.719211713187
  0
LINE
  5
114BA
330
1F
100
AcDbEntity
  8
Слой1
  6
CONTINUOUS
 62
7
370
60
100
AcDbLine
 10
149.317814170831
 20
19.4721141611453
 11
149.317814170831
 21
31.0564734946279
  0
LINE
  5
114BB
330
1F
100
AcDbEntity
  8
Слой1
  6
CONTINUOUS
 62
7
370
60
100
AcDbLine
 10
173.220683732475
 20
34.6291485094093
 11
173.220683732475
 21
42.1598480968757
  0
LINE
  5
114BC
330
1F
100
AcDbEntity
  8
Слой1
  6
CONTINUOUS
 62
7
370
60
100
AcDbLine
 10
75.6734462661363
 20
1.98405661259349
 11
76.0223585716257
 21
2.24663650070024
  0
LINE
  5
114BD
330
1F
100
AcDbEntity
  8
Слой1
  6
CONTINUOUS
 62
7
370
60
100
AcDbLine
 10
17.2641746421981
 20
70.5599910442168
 11
16.7593716757553
 21
70.4700228227774
  0
LINE
  5
114BE
330
1F
100
AcDbEntity
  8
Слой1
  6
CONTINUOUS
 62
7
370
60
100
AcDbLine
 10
20.2954803358306
 20
10.5
 11
20.2954803358296
 21
16.8705862123578
  0
LINE
  5
114BF
330
1F
100
AcDbEntity
  8
Слой1
  6
CONTINUOUS
 62
7
370
60
100
AcDbLine
 10
298.948330560146
 20
66.0460525954585
 11
298.948330560146
 21
69.0807809073968
  0
LINE
  5
114C0
330
1F
100
AcDbEntity
  8
Слой1
  6
CONTINUOUS
 62
7
370
60
100
AcDbLine
 10
52.0837231295671
 20
82.6181245608206
 11
52.2757822934781
 21
83.5182070611248
  0
LINE
  5
114C1
330
1F
100
AcDbEntity
  8
Слой1
  6
CONTINUOUS
 62
7
370
60
100
AcDbLine
 10
158.270414830183
 20
34.1664398837162
 11
158.507011996495
 21
34.3846711155731
  0
LINE
  5
114C2
330
1F
100
AcDbEntity
  8
Слой1
  6
CONTINUOUS
 62
7
370
60
100
AcDbLine
 10
142.149625671432
 20
67.72449850294
 11
148.821734867185
 21
67.7244985029418
  0
LINE
  5
114C3
330
1F
100
AcDbEntity
  8
Слой1
  6
CONTINUOUS
 62
7
370
60
100
AcDbLine
 10
105.835663563563
 20
68.7903565125891
 11
105.847880560093
 21
69.3477366327539
  0
LINE
  5
114C4
330
1F
100
AcDbEntity
  8
Слой1
  6
CONTINUOUS
 62
7
370
60
100
AcDbLine
 10
252.285629770707
 20
71.0988623925833
 11
252.234782030173
 21
70.0124392329056
  0
LINE
  5
114C5
330
1F
100
AcDbEntity
  8
Слой1
  6
CONTINUOUS
 62
7
370
60
100
AcDbLine
 10
144.597626078998
 20
64.2331890192534
 11
145.095020657633
 21
64.0456810909086
  0
LINE
  5
114C6
330
1F
100
AcDbEntity
  8
Слой1
  6
CONTINUOUS
 62
7
370
60
100
AcDbLine
 10
263.336944890745
 20
73.6975264379396
 11
263.475045697319
 21
73.419600383477
  0
LINE
  5
114C7
330
1F
100
AcDbEntity
  8
Слой1
  6
CONTINUOUS
 62
7
370
60
100
AcDbLine
 10
76.4938028345626
 20
2.97471414199458
 11
76.6937813984508
 21
3.74542298808824
  0
LINE
  5
114C8
330
1F
100
AcDbEntity
  8
Слой1
  6
CONTINUOUS
 62
7
370
60
100
AcDbLine
 10
161.706056964568
 20
41.519049655288
 11
161.424934675827
 21
40.6426904318135
  0
LINE
  5
114C9
330
1F
100
AcDbEntity
  8
Слой1
  6
CONTINUOUS
 62
7
370
60
100
AcDbLine
 10
160.276492920974
 20
14.1033922579546
 11
160.512494750659
 21
14.5362032239774
  0
LINE
  5
114CA
330
1F
100
AcDbEntity
  8
Слой1
  6
CONTINUOUS
 62
7
370
60
100
AcDbLine
 10
42.0725318773704
 20
38.0697328958575
 11
46.0725318773702
 21
38.0697328958561
  0
LINE
  5
114CB
330
1F
100
AcDbEntity
  8
Слой1
  6
CONTINUOUS
 62
7
370
60
100
AcDbLine
 10
71.6021149838895
 20
15.0986406085511
 11
72.0067846168495
 21
14.8497358611528
  0
LINE
  5
114CC
330
1F
100
AcDbEntity
  8
Слой1
  6
CONTINUOUS
 62
7
370
60
100
AcDbLine
 10
197.424252205997
 20
65.4363046190296
 11
197.829248514226
 21
65.1106356786942
  0
LINE
  5
114CD
330
1F
100
AcDbEntity
  8
Слой1
  6
CONTINUOUS
 62
7
370
60
100
AcDbLine
 10
116.578049400044
 20
16.8263636454131
 11
116.627203034311
 21
15.7578592899193
  0
LINE
  5
114CE
330
1F
100
AcDbEntity
  8
Слой1
  6
CONTINUOUS
 62
7
370
60
100
AcDbLine
 10
245.562970900714
 20
57.1067649554791
 11
245.562970900714
 21
57.988459255279
  0
LINE
  5
114CF
330
1F
100
AcDbEntity
  8
Слой1
  6
CONTINUOUS
 62
7
370
60
100
AcDbLine
 10
6.4058457733762
 20
31.1341675653114
 11
6.25084826101242
 21
30.293658445929
  0
LINE
  5
114D0
330
1F
100
AcDbEntity
  8
Слой1
  6
CONTINUOUS
 62
7
370
60
100
AcDbLine
 10
8.02595251115004
 20
11.1665401105735
 11
8.12345584599532
 21
11.3567323507575
  0
LINE
  5
114D1
330
1F
100
AcDbEntity
  8
Слой1
  6
CONTINUOUS
 62
7
370
60
100
AcDbLine
 10
51.3383579020761
 20
1.3914763578364
 11
50.9987703961106
 21
1.84350714534341
  0
LINE
  5
114D2
330
1F
100
AcDbEntity
  8
Слой1
  6
CONTINUOUS
 62
7
370
60
100
AcDbLine
 10
6.25925364762379
 20
2.42358824670857
 11
6.42252568048866
 21
1.58464721666646
  0
LINE
  5
114D3
330
1F
100
AcDbEntity
  8
Слой1
  6
CONTINUOUS
 62
7
370
60
100
AcDbLine
 10
218.869563386959
 20
70.9727140450706
 11
218.905077244478
 21
70.6934496401318
  0
LINE
  5
114D4
330
1F
100
AcDbEntity
  8
Слой1
  6
CONTINUOUS
 62
7
370
60
100
AcDbLine
 10
6.40584577337622
 20
4.97010894688149
 11
6.67371332957653
 21
6.00565933667724
  0
LINE
  5
114D5
330
1F
100
AcDbEntity
  8
Слой1
  6
CONTINUOUS
 62
7
370
60
100
AcDbLine
 10
170.563294980883
 20
30.3904553173771
 11
170.841808159315
 21
30.7267861128748
  0
LINE
  5
114D6
330
1F
100
AcDbEntity
  8
Слой1
  6
CONTINUOUS
 62
7
370
60
100
AcDbLine
 10
173.138425038812
 20
34.6268066818505
 11
173.167883580757
 21
34.6291485094108
  0
LINE
  5
114D7
330
1F
100
AcDbEntity
  8
Слой1
  6
CONTINUOUS
 62
7
370
60
100
AcDbLine
 10
117.584870207262
 20
18.472114161145
 11
143.286413764314
 21
18.472114161145
  0
LINE
  5
114D8
330
1F
100
AcDbEntity
  8
Слой1
  6
CONTINUOUS
 62
7
370
60
100
AcDbLine
 10
63.9994924305273
 20
82.2278685549255
 11
64.4120859453485
 21
81.9872362899559
  0
LINE
  5
114D9
330
1F
100
AcDbEntity
  8
Слой1
  6
CONTINUOUS
 62
7
370
60
100
AcDbLine
 10
50.4191955727811
 20
31.4854154482733
 11
50.4218794759077
 21
30.8580480257334
  0
LINE
  5
114DA
330
1F
100
AcDbEntity
  8
Слой1
  6
CONTINUOUS
 62
7
370
60
100
AcDbLine
 10
117.918071939866
 20
20.114120712721
 11
118.03738370994
 21
20.5973705898575
  0
LINE
  5
114DB
330
1F
100
AcDbEntity
  8
Слой1
  6
CONTINUOUS
 62
7
370
60
100
AcDbLine
 10
9.59548033582964
 20
42.6084723055249
 11
9.29468482915954
 21
42.1602036946363
  0
LINE
  5
114DC
330
1F
100
AcDbEntity
  8
Слой1
  6
CONTINUOUS
 62
7
370
60
100
AcDbLine
 10
163.048761388445
 20
16.1382494821278
 11
163.673935993664
 21
16.6046250040112
  0
LINE
  5
114DD
330
1F
100
AcDbEntity
  8
Слой1
  6
CONTINUOUS
 62
7
370
60
100
AcDbLine
 10
46.8333976201574
 20
0
 11
52.0135734014073
 21
0
  0
LINE
  5
114DE
330
1F
100
AcDbEntity
  8
Слой1
  6
CONTINUOUS
 62
7
370
60
100
AcDbLine
 10
251.471869466814
 20
75.3478973690382
 11
251.825147910014
 21
74.3192598642914
  0
LINE
  5
114DF
330
1F
100
AcDbEntity
  8
Слой1
  6
CONTINUOUS
 62
7
370
60
100
AcDbLine
 10
66.5568850070088
 20
41.8603570893353
 11
66.543286239515
 21
42.2047775723154
  0
LINE
  5
114E0
330
1F
100
AcDbEntity
  8
Слой1
  6
CONTINUOUS
 62
7
370
60
100
AcDbLine
 10
46.8320846667973
 20
27.4731726837942
 11
46.9047560209588
 21
27.9441850075864
  0
LINE
  5
114E1
330
1F
100
AcDbEntity
  8
Слой1
  6
CONTINUOUS
 62
7
370
60
100
AcDbLine
 10
50.4253056029012
 20
56.0294738032081
 11
49.8809846014878
 21
55.8873436632758
  0
LINE
  5
114E2
330
1F
100
AcDbEntity
  8
Слой1
  6
CONTINUOUS
 62
7
370
60
100
AcDbLine
 10
44.1628144296092
 20
55.2948325132756
 11
45.5579361815638
 21
55.2922606819185
  0
LINE
  5
114E3
330
1F
100
AcDbEntity
  8
Слой1
  6
CONTINUOUS
 62
7
370
60
100
AcDbLine
 10
117.771306247868
 20
21.146652011949
 11
117.954646627803
 21
21.0201354175149
  0
LINE
  5
114E4
330
1F
100
AcDbEntity
  8
Слой1
  6
CONTINUOUS
 62
7
370
60
100
AcDbLine
 10
86.419752594032
 20
59.653970216565
 11
86.419752594032
 21
68.5318637350836
  0
LINE
  5
114E5
330
1F
100
AcDbEntity
  8
Слой1
  6
CONTINUOUS
 62
7
370
60
100
AcDbLine
 10
50.4599397751052
 20
6.5753472222224
 11
50.4318848791086
 21
5.94860165262421
  0
LINE
  5
114E6
330
1F
100
AcDbEntity
  8
Слой1
  6
CONTINUOUS
 62
7
370
60
100
AcDbLine
 10
52.3768521445054
 20
84.4329857857404
 11
52.5853767995946
 21
84.9485926797838
  0
LINE
  5
114E7
330
1F
100
AcDbEntity
  8
Слой1
  6
CONTINUOUS
 62
7
370
60
100
AcDbLine
 10
123.118943132573
 20
111.548480480968
 11
123.203953860951
 21
111.715954170871
  0
LINE
  5
114E8
330
1F
100
AcDbEntity
  8
Слой1
  6
CONTINUOUS
 62
7
370
60
100
AcDbLine
 10
122.282861252999
 20
6.56643988371677
 11
122.328337857164
 21
6.57836120127567
  0
LINE
  5
114E9
330
1F
100
AcDbEntity
  8
Слой1
  6
CONTINUOUS
 62
7
370
60
100
AcDbLine
 10
207.229065453853
 20
81.6518962942201
 11
207.028882460426
 21
81.6433317459105
  0
LINE
  5
114EA
330
1F
100
AcDbEntity
  8
Слой1
  6
CONTINUOUS
 62
7
370
60
100
AcDbLine
 10
146.630807580015
 20
15.1257059693568
 11
147.46072652244
 21
14.8032781969153
  0
LINE
  5
114EB
330
1F
100
AcDbEntity
  8
Слой1
  6
CONTINUOUS
 62
7
370
60
100
AcDbLine
 10
8.39825834495857
 20
60.5328819255549
 11
8.55322959160399
 21
59.9693654923925
  0
LINE
  5
114EC
330
1F
100
AcDbEntity
  8
Слой1
  6
CONTINUOUS
 62
7
370
60
100
AcDbLine
 10
162.304476980557
 20
39.0746236612555
 11
162.338616247334
 21
38.5132513267118
  0
LINE
  5
114ED
330
1F
100
AcDbEntity
  8
Слой1
  6
CONTINUOUS
 62
7
370
60
100
AcDbLine
 10
156.52708985596
 20
8.34656627287327
 11
156.454418501798
 21
7.87555394908104
  0
LINE
  5
114EE
330
1F
100
AcDbEntity
  8
Слой1
  6
CONTINUOUS
 62
7
370
60
100
AcDbLine
 10
75.3156179572315
 20
32.6332079773823
 11
75.5085490417371
 21
33.024954823179
  0
LINE
  5
114EF
330
1F
100
AcDbEntity
  8
Слой1
  6
CONTINUOUS
 62
7
370
60
100
AcDbLine
 10
272.553799184669
 20
73.419600383477
 11
272.691899991243
 21
73.6975264379396
  0
LINE
  5
114F0
330
1F
100
AcDbEntity
  8
Слой1
  6
CONTINUOUS
 62
7
370
60
100
AcDbLine
 10
100.692390389306
 20
59.653970216565
 11
103.419752594031
 21
59.653970216565
  0
LINE
  5
114F1
330
1F
100
AcDbEntity
  8
Слой1
  6
CONTINUOUS
 62
7
370
60
100
AcDbLine
 10
10.9636225219522
 20
58.0054495045311
 11
10.5954803358296
 21
58.0877746112038
  0
LINE
  5
114F2
330
1F
100
AcDbEntity
  8
Слой1
  6
CONTINUOUS
 62
7
370
60
100
AcDbLine
 10
58.4238742854761
 20
86.2972671154428
 11
57.9738250597034
 21
86.3691617307559
  0
LINE
  5
114F3
330
1F
100
AcDbEntity
  8
Слой1
  6
CONTINUOUS
 62
7
370
60
100
AcDbLine
 10
130.463081540222
 20
22.8313381688963
 11
129.97507016876
 21
23.378866751626
  0
LINE
  5
114F4
330
1F
100
AcDbEntity
  8
Слой1
  6
CONTINUOUS
 62
7
370
60
100
AcDbLine
 10
116.485806824031
 20
13.6247667410838
 11
116.596398125116
 21
14.6886686170081
  0
LINE
  5
114F5
330
1F
100
AcDbEntity
  8
Слой1
  6
CONTINUOUS
 62
7
370
60
100
AcDbLine
 10
115.214687167805
 20
21.520140792182
 11
114.902872479862
 21
20.8963386553495
  0
LINE
  5
114F6
330
1F
100
AcDbEntity
  8
Слой1
  6
CONTINUOUS
 62
7
370
60
100
AcDbLine
 10
70.1598204696279
 20
42.2099091615247
 11
71.1598204696279
 21
42.2099091615247
  0
LINE
  5
114F7
330
1F
100
AcDbEntity
  8
Слой1
  6
CONTINUOUS
 62
7
370
60
100
AcDbLine
 10
60.8626887878878
 20
85.0816849855872
 11
60.5886942966326
 21
85.3120746803056
  0
LINE
  5
114F8
330
1F
100
AcDbEntity
  8
Слой1
  6
CONTINUOUS
 62
7
370
60
100
AcDbLine
 10
10.5954803358297
 20
8.87789351851809
 11
10.5954803358296
 21
17.5073379419214
  0
LINE
  5
114F9
330
1F
100
AcDbEntity
  8
Слой1
  6
CONTINUOUS
 62
7
370
60
100
AcDbLine
 10
66.730232649734
 20
39.8633022418874
 11
66.5352297896315
 21
39.3357813682919
  0
LINE
  5
114FA
330
1F
100
AcDbEntity
  8
Слой1
  6
CONTINUOUS
 62
7
370
60
100
AcDbLine
 10
130.204230685422
 20
64.0456810954788
 11
130.701625264242
 21
64.2331890235103
  0
LINE
  5
114FB
330
1F
100
AcDbEntity
  8
Слой1
  6
CONTINUOUS
 62
7
370
60
100
AcDbLine
 10
155.694826369876
 20
141.356766263887
 11
155.509386017908
 21
141.327591203824
  0
LINE
  5
114FC
330
1F
100
AcDbEntity
  8
Слой1
  6
CONTINUOUS
 62
7
370
60
100
AcDbLine
 10
38.6954803358296
 20
10.0000000000026
 11
38.6954803358296
 21
15.1732283268372
  0
LINE
  5
114FD
330
1F
100
AcDbEntity
  8
Слой1
  6
CONTINUOUS
 62
7
370
60
100
AcDbLine
 10
165.686010671711
 20
22.1796863431708
 11
165.686010671711
 21
30.7581101383162
  0
LINE
  5
114FE
330
1F
100
AcDbEntity
  8
Слой1
  6
CONTINUOUS
 62
7
370
60
100
AcDbLine
 10
144.00820719342
 20
111.293067072953
 11
151.694862747873
 21
111.300986076631
  0
LINE
  5
114FF
330
1F
100
AcDbEntity
  8
Слой1
  6
CONTINUOUS
 62
7
370
60
100
AcDbLine
 10
167.596158894704
 20
45.2700868252233
 11
167.141762786865
 21
45.3052623637448
  0
LINE
  5
11500
330
1F
100
AcDbEntity
  8
Слой1
  6
CONTINUOUS
 62
7
370
60
100
AcDbLine
 10
20.2954803358296
 20
16.8705862123578
 11
20.3067883857656
 21
16.8588142793138
  0
LINE
  5
11501
330
1F
100
AcDbEntity
  8
Слой1
  6
CONTINUOUS
 62
7
370
60
100
AcDbLine
 10
67.6145320126828
 20
11.4731154907825
 11
67.7635405712994
 21
10.9308048445786
  0
LINE
  5
11502
330
1F
100
AcDbEntity
  8
Слой1
  6
CONTINUOUS
 62
7
370
60
100
AcDbLine
 10
165.158328483588
 20
18.3990325829647
 11
165.193846497635
 21
18.4721141611453
  0
LINE
  5
11503
330
1F
100
AcDbEntity
  8
Слой1
  6
CONTINUOUS
 62
7
370
60
100
AcDbLine
 10
38.89668197914
 20
55.9459729061073
 11
36.4200364799761
 21
56.4048491875332
  0
LINE
  5
11504
330
1F
100
AcDbEntity
  8
Слой1
  6
CONTINUOUS
 62
7
370
60
100
AcDbLine
 10
166.143051393147
 20
43.242459425228
 11
166.547721026107
 21
42.9935546778297
  0
LINE
  5
11505
330
1F
100
AcDbEntity
  8
Слой1
  6
CONTINUOUS
 62
7
370
60
100
AcDbLine
 10
170.211028131634
 20
44.212999774773
 11
169.921464982475
 21
44.4234886707266
  0
LINE
  5
11506
330
1F
100
AcDbEntity
  8
Слой1
  6
CONTINUOUS
 62
7
370
60
100
AcDbLine
 10
146.149625671433
 20
63.9518779474459
 11
146.149625671434
 21
66.3188242255135
  0
LINE
  5
11507
330
1F
100
AcDbEntity
  8
Слой1
  6
CONTINUOUS
 62
7
370
60
100
AcDbLine
 10
139.617814170831
 20
129.277976516865
 11
139.617814170832
 21
133.277976515674
  0
LINE
  5
11508
330
1F
100
AcDbEntity
  8
Слой1
  6
CONTINUOUS
 62
7
370
60
100
AcDbLine
 10
71.1543670434621
 20
15.2574891746773
 11
70.6833102794509
 21
15.3192678942873
  0
LINE
  5
11509
330
1F
100
AcDbEntity
  8
Слой1
  6
CONTINUOUS
 62
7
370
60
100
AcDbLine
 10
162.338616247334
 20
38.5132513267118
 11
162.256422851817
 21
37.9568803773799
  0
LINE
  5
1150A
330
1F
100
AcDbEntity
  8
Слой1
  6
CONTINUOUS
 62
7
370
60
100
AcDbLine
 10
115.743050011014
 20
22.9247417138824
 11
116.127237493723
 21
23.6308263393034
  0
LINE
  5
1150B
330
1F
100
AcDbEntity
  8
Слой1
  6
CONTINUOUS
 62
7
370
60
100
AcDbLine
 10
12.7060040221626
 20
26.1759799359888
 11
12.7428343429936
 21
26.2051992242438
  0
LINE
  5
1150C
330
1F
100
AcDbEntity
  8
Слой1
  6
CONTINUOUS
 62
7
370
60
100
AcDbLine
 10
55.815456853145
 20
86.4178580630117
 11
56.0636768367098
 21
86.4181791707373
  0
LINE
  5
1150D
330
1F
100
AcDbEntity
  8
Слой1
  6
CONTINUOUS
 62
7
370
60
100
AcDbLine
 10
139.617814170831
 20
19.4721141611454
 11
139.617814170831
 21
29.8905927691711
  0
LINE
  5
1150E
330
1F
100
AcDbEntity
  8
Слой1
  6
CONTINUOUS
 62
7
370
60
100
AcDbLine
 10
94.419752594032
 20
75.8480237265013
 11
94.4197525940306
 21
79.653970216565
  0
LINE
  5
1150F
330
1F
100
AcDbEntity
  8
Слой1
  6
CONTINUOUS
 62
7
370
60
100
AcDbLine
 10
52.5853767995946
 20
84.9485926797838
 11
52.8938871083329
 21
85.4113608618874
  0
LINE
  5
11510
330
1F
100
AcDbEntity
  8
Слой1
  6
CONTINUOUS
 62
7
370
60
100
AcDbLine
 10
10.5954803358297
 20
68.1406457395959
 11
10.2181765044387
 21
67.9254186487447
  0
LINE
  5
11511
330
1F
100
AcDbEntity
  8
Слой1
  6
CONTINUOUS
 62
7
370
60
100
AcDbLine
 10
137.796125903222
 20
29.8361028056122
 11
138.617814170831
 21
29.8543181847346
  0
LINE
  5
11512
330
1F
100
AcDbEntity
  8
Слой1
  6
CONTINUOUS
 62
7
370
60
100
AcDbLine
 10
155.123765641349
 20
111.719211713187
 11
155.209161626012
 21
111.552038646963
  0
LINE
  5
11513
330
1F
100
AcDbEntity
  8
Слой1
  6
CONTINUOUS
 62
7
370
60
100
AcDbLine
 10
12.9159945946244
 20
6.91255584757221
 11
13.2197212711533
 21
6.83423647210727
  0
LINE
  5
11514
330
1F
100
AcDbEntity
  8
Слой1
  6
CONTINUOUS
 62
7
370
60
100
AcDbLine
 10
52.2757822934781
 20
83.5182070611248
 11
52.3768521445054
 21
84.4329857857404
  0
LINE
  5
11515
330
1F
100
AcDbEntity
  8
Слой1
  6
CONTINUOUS
 62
7
370
60
100
AcDbLine
 10
157.489052795508
 20
33.5255747411785
 11
157.95535268709
 21
33.8851546147903
  0
LINE
  5
11516
330
1F
100
AcDbEntity
  8
Слой1
  6
CONTINUOUS
 62
7
370
60
100
AcDbLine
 10
7.30576634565607
 20
36.9934513691926
 11
7.47876244004287
 21
37.0348620097558
  0
LINE
  5
11517
330
1F
100
AcDbEntity
  8
Слой1
  6
CONTINUOUS
 62
7
370
60
100
AcDbLine
 10
49.3330188520899
 20
10.0000000000001
 11
49.3330188520891
 21
20.80479606504
  0
LINE
  5
11518
330
1F
100
AcDbEntity
  8
Слой1
  6
CONTINUOUS
 62
7
370
60
100
AcDbLine
 10
105.847880560093
 20
69.3477366327539
 11
105.830090777503
 21
69.9049667261575
  0
LINE
  5
11519
330
1F
100
AcDbEntity
  8
Слой1
  6
CONTINUOUS
 62
7
370
60
100
AcDbLine
 10
235.290333105442
 20
69.0124392329056
 11
235.29033310544
 21
70.0124392329056
  0
LINE
  5
1151A
330
1F
100
AcDbEntity
  8
Слой1
  6
CONTINUOUS
 62
7
370
60
100
AcDbLine
 10
49.8253221965886
 20
77.5421293042589
 11
49.8618412339548
 21
77.9274809824739
  0
LINE
  5
1151B
330
1F
100
AcDbEntity
  8
Слой1
  6
CONTINUOUS
 62
7
370
60
100
AcDbLine
 10
177.489465306181
 20
35.9856288149619
 11
178.231138212633
 21
36.5352579320092
  0
LINE
  5
1151C
330
1F
100
AcDbEntity
  8
Слой1
  6
CONTINUOUS
 62
7
370
60
100
AcDbLine
 10
126.886508477199
 20
29.4609161386842
 11
127.392641929458
 21
29.543069923158
  0
LINE
  5
1151D
330
1F
100
AcDbEntity
  8
Слой1
  6
CONTINUOUS
 62
7
370
60
100
AcDbLine
 10
12.5043340703352
 20
0.483130142208984
 11
12.3637382320359
 21
0.623033838092056
  0
LINE
  5
1151E
330
1F
100
AcDbEntity
  8
Слой1
  6
CONTINUOUS
 62
7
370
60
100
AcDbLine
 10
76.6239179717448
 20
6.11713467205298
 11
76.7594972589078
 21
5.332531709814
  0
LINE
  5
1151F
330
1F
100
AcDbEntity
  8
Слой1
  6
CONTINUOUS
 62
7
370
60
100
AcDbLine
 10
227.295036440067
 20
71.0988623925871
 11
227.346818558661
 21
72.1852414179703
  0
LINE
  5
11520
330
1F
100
AcDbEntity
  8
Слой1
  6
CONTINUOUS
 62
7
370
60
100
AcDbLine
 10
160.512494750659
 20
14.5362032239774
 11
160.829757600333
 21
14.9135180529215
  0
LINE
  5
11521
330
1F
100
AcDbEntity
  8
Слой1
  6
CONTINUOUS
 62
7
370
60
100
AcDbLine
 10
161.424934675827
 20
40.6426904318135
 11
161.057568676769
 21
39.7988436136456
  0
LINE
  5
11522
330
1F
100
AcDbEntity
  8
Слой1
  6
CONTINUOUS
 62
7
370
60
100
AcDbLine
 10
119.467444451281
 20
26.603851664901
 11
119.84051033944
 21
26.8263437432121
  0
LINE
  5
11523
330
1F
100
AcDbEntity
  8
Слой1
  6
CONTINUOUS
 62
7
370
60
100
AcDbLine
 10
151.694862747873
 20
111.300288846723
 11
151.880319861542
 21
111.329952287834
  0
LINE
  5
11524
330
1F
100
AcDbEntity
  8
Слой1
  6
CONTINUOUS
 62
7
370
60
100
AcDbLine
 10
165.224246688708
 20
43.4630867109642
 11
164.75067974308
 21
43.4250678587209
  0
LINE
  5
11525
330
1F
100
AcDbEntity
  8
Слой1
  6
CONTINUOUS
 62
7
370
60
100
AcDbLine
 10
73.0652013163198
 20
13.3627312072939
 11
72.0067846168495
 21
14.8497358611528
  0
LINE
  5
11526
330
1F
100
AcDbEntity
  8
Слой1
  6
CONTINUOUS
 62
7
370
60
100
AcDbLine
 10
197.829248514226
 20
65.1106356786942
 11
197.829248514227
 21
67.2262183046631
  0
LINE
  5
11527
330
1F
100
AcDbEntity
  8
Слой1
  6
CONTINUOUS
 62
7
370
60
100
AcDbLine
 10
8.12345584599532
 20
11.3567323507575
 11
8.1602321666054
 21
11.5672732987333
  0
LINE
  5
11528
330
1F
100
AcDbEntity
  8
Слой1
  6
CONTINUOUS
 62
7
370
60
100
AcDbLine
 10
6.25084826101242
 20
30.293658445929
 11
6.20172930292113
 21
29.4403899438969
  0
LINE
  5
11529
330
1F
100
AcDbEntity
  8
Слой1
  6
CONTINUOUS
 62
7
370
60
100
AcDbLine
 10
164.445100693048
 20
45.300809028356
 11
163.896759464595
 21
45.2077773233121
  0
LINE
  5
1152A
330
1F
100
AcDbEntity
  8
Слой1
  6
CONTINUOUS
 62
7
370
60
100
AcDbLine
 10
245.562970900716
 20
57.1067649554791
 11
248.290333105441
 21
57.1067649554791
  0
LINE
  5
1152B
330
1F
100
AcDbEntity
  8
Слой1
  6
CONTINUOUS
 62
7
370
60
100
AcDbLine
 10
6.42252568048866
 20
1.58464721666646
 11
6.6890033678369
 21
0.772569972342058
  0
LINE
  5
1152C
330
1F
100
AcDbEntity
  8
Слой1
  6
CONTINUOUS
 62
7
370
60
100
AcDbLine
 10
218.930006766198
 20
70.4130421493464
 11
218.944316300533
 21
70.1318925820893
  0
LINE
  5
1152D
330
1F
100
AcDbEntity
  8
Слой1
  6
CONTINUOUS
 62
7
370
60
100
AcDbLine
 10
138.61781417083
 20
124.277976515672
 11
138.617814170831
 21
128.27797652172
  0
LINE
  5
1152E
330
1F
100
AcDbEntity
  8
Слой1
  6
CONTINUOUS
 62
7
370
60
100
AcDbLine
 10
170.841808159315
 20
30.7267861128748
 11
171.03473924382
 21
31.1185329586715
  0
LINE
  5
1152F
330
1F
100
AcDbEntity
  8
Слой1
  6
CONTINUOUS
 62
7
370
60
100
AcDbLine
 10
126.633633728404
 20
141.356766263887
 11
126.448193376437
 21
141.327591203824
  0
LINE
  5
11530
330
1F
100
AcDbEntity
  8
Слой1
  6
CONTINUOUS
 62
7
370
60
100
AcDbLine
 10
64.4120859453485
 20
81.9872362899559
 11
64.8352649433611
 21
81.7657485226686
  0
LINE
  5
11531
330
1F
100
AcDbEntity
  8
Слой1
  6
CONTINUOUS
 62
7
370
60
100
AcDbLine
 10
51.3383579020761
 20
27.5555349762663
 11
50.9987703961106
 21
28.0075657637733
  0
LINE
  5
11532
330
1F
100
AcDbEntity
  8
Слой1
  6
CONTINUOUS
 62
7
370
60
100
AcDbLine
 10
211.829248514227
 20
69.1318925820893
 11
211.82924851423
 21
70.13189258209
  0
LINE
  5
11533
330
1F
100
AcDbEntity
  8
Слой1
  6
CONTINUOUS
 62
7
370
60
100
AcDbLine
 10
46.9047560209588
 20
1.7801263891565
 11
46.9348916038778
 21
2.25575816009064
  0
LINE
  5
11534
330
1F
100
AcDbEntity
  8
Слой1
  6
CONTINUOUS
 62
7
370
60
100
AcDbLine
 10
9.29468482915954
 20
42.1602036946363
 11
9.02507121677009
 21
41.6925166364925
  0
LINE
  5
11535
330
1F
100
AcDbEntity
  8
Слой1
  6
CONTINUOUS
 62
7
370
60
100
AcDbLine
 10
163.673935993664
 20
16.6046250040112
 11
164.239123186223
 21
17.1421311451776
  0
LINE
  5
11536
330
1F
100
AcDbEntity
  8
Слой1
  6
CONTINUOUS
 62
7
370
60
100
AcDbLine
 10
240.833468807756
 20
64.950497711846
 11
241.403774985797
 21
65.0897517706184
  0
LINE
  5
11537
330
1F
100
AcDbEntity
  8
Слой1
  6
CONTINUOUS
 62
7
370
60
100
AcDbLine
 10
149.317814170831
 20
128.277976515673
 11
157.95535268709
 21
128.277976515673
  0
LINE
  5
11538
330
1F
100
AcDbEntity
  8
Слой1
  6
CONTINUOUS
 62
7
370
60
100
AcDbLine
 10
251.825147910014
 20
74.3192598642914
 11
252.079896757563
 21
73.2619028766689
  0
LINE
  5
11539
330
1F
100
AcDbEntity
  8
Слой1
  6
CONTINUOUS
 62
7
370
60
100
AcDbLine
 10
205.936738289522
 20
65.5078182203391
 11
206.829248514229
 21
65.6526502935832
  0
LINE
  5
1153A
330
1F
100
AcDbEntity
  8
Слой1
  6
CONTINUOUS
 62
7
370
60
100
AcDbLine
 10
166.686010671711
 20
40.6516756892482
 11
165.686010671711
 21
40.6516756892482
  0
LINE
  5
1153B
330
1F
100
AcDbEntity
  8
Слой1
  6
CONTINUOUS
 62
7
370
60
100
AcDbLine
 10
46.8333976201574
 20
26.16405861843
 11
52.0135734014073
 21
26.16405861843
  0
LINE
  5
1153C
330
1F
100
AcDbEntity
  8
Слой1
  6
CONTINUOUS
 62
7
370
60
100
AcDbLine
 10
117.954646627803
 20
21.0201354175149
 11
118.051757913915
 21
20.8196621233041
  0
LINE
  5
1153D
330
1F
100
AcDbEntity
  8
Слой1
  6
CONTINUOUS
 62
7
370
60
100
AcDbLine
 10
105.59762960325
 20
71.5596444939936
 11
105.704783796275
 21
71.0125249163176
  0
LINE
  5
1153E
330
1F
100
AcDbEntity
  8
Слой1
  6
CONTINUOUS
 62
7
370
60
100
AcDbLine
 10
50.4599397751053
 20
6.57534722222235
 11
50.5088217256784
 21
7.06589054429737
  0
LINE
  5
1153F
330
1F
100
AcDbEntity
  8
Слой1
  6
CONTINUOUS
 62
7
370
60
100
AcDbLine
 10
123.203953860951
 20
111.715954170871
 11
123.233051651838
 21
111.901500874735
  0
LINE
  5
11540
330
1F
100
AcDbEntity
  8
Слой1
  6
CONTINUOUS
 62
7
370
60
100
AcDbLine
 10
122.328337857164
 20
6.57836120127567
 11
122.365168177995
 21
6.60758048953064
  0
LINE
  5
11541
330
1F
100
AcDbEntity
  8
Слой1
  6
CONTINUOUS
 62
7
370
60
100
AcDbLine
 10
46.9500920606629
 20
55.3832185039215
 11
45.5579361815638
 21
55.2922606819185
  0
LINE
  5
11542
330
1F
100
AcDbEntity
  8
Слой1
  6
CONTINUOUS
 62
7
370
60
100
AcDbLine
 10
207.028882460426
 20
81.6433317459105
 11
206.82924851423
 21
81.6262183046614
  0
LINE
  5
11543
330
1F
100
AcDbEntity
  8
Слой1
  6
CONTINUOUS
 62
7
370
60
100
AcDbLine
 10
157.95535268709
 20
25.7983310339103
 11
158.95535268709
 21
25.7983310339103
  0
LINE
  5
11544
330
1F
100
AcDbEntity
  8
Слой1
  6
CONTINUOUS
 62
7
370
60
100
AcDbLine
 10
50.4599397751052
 20
32.7394058406523
 11
50.4318848791086
 21
32.1126602710541
  0
LINE
  5
11545
330
1F
100
AcDbEntity
  8
Слой1
  6
CONTINUOUS
 62
7
370
60
100
AcDbLine
 10
217.92093457132
 20
66.2143175019484
 11
218.193774404975
 21
66.6566303929541
  0
LINE
  5
11546
330
1F
100
AcDbEntity
  8
Слой1
  6
CONTINUOUS
 62
7
370
60
100
AcDbLine
 10
285.594561221486
 20
74.0391449993266
 11
286.594561221487
 21
74.039144999467
  0
LINE
  5
11547
330
1F
100
AcDbEntity
  8
Слой1
  6
CONTINUOUS
 62
7
370
60
100
AcDbLine
 10
70.1691132506364
 20
45.3077298558617
 11
70.6168611910638
 21
45.1488812897355
  0
LINE
  5
11548
330
1F
100
AcDbEntity
  8
Слой1
  6
CONTINUOUS
 62
7
370
60
100
AcDbLine
 10
42.0725318773704
 20
38.0697328958575
 11
42.0725318773707
 21
39.069732895859
  0
LINE
  5
11549
330
1F
100
AcDbEntity
  8
Слой1
  6
CONTINUOUS
 62
7
370
60
100
AcDbLine
 10
10.5954803358296
 20
58.0877746112038
 11
10.5954803358306
 21
63.8595682991856
  0
LINE
  5
1154A
330
1F
100
AcDbEntity
  8
Слой1
  6
CONTINUOUS
 62
7
370
60
100
AcDbLine
 10
103.91975259403
 20
71.5596444939886
 11
103.919752594031
 21
72.5596444939929
  0
LINE
  5
1154B
330
1F
100
AcDbEntity
  8
Слой1
  6
CONTINUOUS
 62
7
370
60
100
AcDbLine
 10
116.627203034311
 20
15.7578592899193
 11
116.596398125116
 21
14.6886686170081
  0
LINE
  5
1154C
330
1F
100
AcDbEntity
  8
Слой1
  6
CONTINUOUS
 62
7
370
60
100
AcDbLine
 10
118.051757913915
 20
20.8196621233041
 11
118.037383709939
 21
20.5973705898574
  0
LINE
  5
1154D
330
1F
100
AcDbEntity
  8
Слой1
  6
CONTINUOUS
 62
7
370
60
100
AcDbLine
 10
114.511336625009
 20
20.3192275916033
 11
114.902872479862
 21
20.8963386553495
  0
LINE
  5
1154E
330
1F
100
AcDbEntity
  8
Слой1
  6
CONTINUOUS
 62
7
370
60
100
AcDbLine
 10
60.5886942966326
 20
85.3120746803056
 11
60.2991311474737
 21
85.5225635762592
  0
LINE
  5
1154F
330
1F
100
AcDbEntity
  8
Слой1
  6
CONTINUOUS
 62
7
370
60
100
AcDbLine
 10
116.592325733857
 20
17.0036731942755
 11
116.6606483505
 21
17.1679123792465
  0
LINE
  5
11550
330
1F
100
AcDbEntity
  8
Слой1
  6
CONTINUOUS
 62
7
370
60
100
AcDbLine
 10
130.701625264242
 20
64.2331890235103
 11
131.157087062495
 21
64.5072604383763
  0
LINE
  5
11551
330
1F
100
AcDbEntity
  8
Слой1
  6
CONTINUOUS
 62
7
370
60
100
AcDbLine
 10
155.509386017908
 20
141.327591203824
 11
155.342037352157
 21
141.242539852637
  0
LINE
  5
11552
330
1F
100
AcDbEntity
  8
Слой1
  6
CONTINUOUS
 62
7
370
60
100
AcDbLine
 10
21.6230616456214
 20
71.0085191272891
 11
22.4391131819646
 21
71.0282135715539
  0
LINE
  5
11553
330
1F
100
AcDbEntity
  8
Слой1
  6
CONTINUOUS
 62
7
370
60
100
AcDbLine
 10
127.709569994127
 20
64.5047979325815
 11
128.149625671434
 21
64.2286524777636
  0
LINE
  5
11554
330
1F
100
AcDbEntity
  8
Слой1
  6
CONTINUOUS
 62
7
370
60
100
AcDbLine
 10
37.9060451877564
 20
15.047986461239
 11
38.6954803358296
 21
15.1732283268372
  0
LINE
  5
11555
330
1F
100
AcDbEntity
  8
Слой1
  6
CONTINUOUS
 62
7
370
60
100
AcDbLine
 10
67.7635405712994
 20
10.9308048445786
 11
67.797679838076
 21
10.3694325100349
  0
LINE
  5
11556
330
1F
100
AcDbEntity
  8
Слой1
  6
CONTINUOUS
 62
7
370
60
100
AcDbLine
 10
51.5933063552301
 20
8.65386282126121
 11
52.0324332646886
 21
8.87789351851857
  0
LINE
  5
11557
330
1F
100
AcDbEntity
  8
Слой1
  6
CONTINUOUS
 62
7
370
60
100
AcDbLine
 10
145.987921724421
 20
21.1912445758027
 11
146.750334741912
 21
21.4312857570044
  0
LINE
  5
11558
330
1F
100
AcDbEntity
  8
Слой1
  6
CONTINUOUS
 62
7
370
60
100
AcDbLine
 10
128.408416156777
 20
29.6838575173861
 11
128.917814170831
 21
29.7424576801573
  0
LINE
  5
11559
330
1F
100
AcDbEntity
  8
Слой1
  6
CONTINUOUS
 62
7
370
60
100
AcDbLine
 10
148.317814170831
 20
20.8664398837168
 11
149.317814170831
 21
20.8664398837168
  0
LINE
  5
1155A
330
1F
100
AcDbEntity
  8
Слой1
  6
CONTINUOUS
 62
7
370
60
100
AcDbLine
 10
167.141762786865
 20
45.3052623637448
 11
166.686010671711
 21
45.3034872970172
  0
LINE
  5
1155B
330
1F
100
AcDbEntity
  8
Слой1
  6
CONTINUOUS
 62
7
370
60
100
AcDbLine
 10
167.606137725577
 20
41.5065500239708
 11
166.547721026107
 21
42.9935546778297
  0
LINE
  5
1155C
330
1F
100
AcDbEntity
  8
Слой1
  6
CONTINUOUS
 62
7
370
60
100
AcDbLine
 10
175.037064241109
 20
64.4289384981448
 11
175.0370642423
 21
70.322992008081
  0
LINE
  5
1155D
330
1F
100
AcDbEntity
  8
Слой1
  6
CONTINUOUS
 62
7
370
60
100
AcDbLine
 10
272.514422440994
 20
77.8376883705731
 11
272.514422440994
 21
78.8328480077854
  0
LINE
  5
1155E
330
1F
100
AcDbEntity
  8
Слой1
  6
CONTINUOUS
 62
7
370
60
100
AcDbLine
 10
118.375064885756
 20
25.89363310243
 11
118.734584342543
 21
26.137408905188
  0
LINE
  5
1155F
330
1F
100
AcDbEntity
  8
Слой1
  6
CONTINUOUS
 62
7
370
60
100
AcDbLine
 10
121.917973396019
 20
13.4201962379501
 11
122.224736435281
 21
13.4856199060758
  0
LINE
  5
11560
330
1F
100
AcDbEntity
  8
Слой1
  6
CONTINUOUS
 62
7
370
60
100
AcDbLine
 10
146.149625671434
 20
66.3188242255135
 11
147.149625671432
 21
66.3188242255135
  0
LINE
  5
11561
330
1F
100
AcDbEntity
  8
Слой1
  6
CONTINUOUS
 62
7
370
60
100
AcDbLine
 10
171.302206453708
 20
34.7891828712279
 11
172.215777237712
 21
34.6566714034777
  0
LINE
  5
11562
330
1F
100
AcDbEntity
  8
Слой1
  6
CONTINUOUS
 62
7
370
60
100
AcDbLine
 10
172.220683732475
 20
42.1598480968757
 11
172.005409295078
 21
42.3531886060318
  0
LINE
  5
11563
330
1F
100
AcDbEntity
  8
Слой1
  6
CONTINUOUS
 62
7
370
60
100
AcDbLine
 10
56.0636768367098
 20
78.7629517268802
 11
56.0636768367098
 21
86.4181791707373
  0
LINE
  5
11564
330
1F
100
AcDbEntity
  8
Слой1
  6
CONTINUOUS
 62
7
370
60
100
AcDbLine
 10
5.8189745403387
 20
63.2787612487033
 11
6.12071617601323
 21
64.023816619415
  0
LINE
  5
11565
330
1F
100
AcDbEntity
  8
Слой1
  6
CONTINUOUS
 62
7
370
60
100
AcDbLine
 10
12.7428343429936
 20
26.2051992242438
 11
12.7647865983981
 21
26.2467725067856
  0
LINE
  5
11566
330
1F
100
AcDbEntity
  8
Слой1
  6
CONTINUOUS
 62
7
370
60
100
AcDbLine
 10
37.9060451877564
 20
41.2120450796689
 11
37.1280009069106
 21
41.0289044917175
  0
LINE
  5
11567
330
1F
100
AcDbEntity
  8
Слой1
  6
CONTINUOUS
 62
7
370
60
100
AcDbLine
 10
70.6833102794509
 20
15.3192678942873
 11
70.2097433338228
 21
15.281249042044
  0
LINE
  5
11568
330
1F
100
AcDbEntity
  8
Слой1
  6
CONTINUOUS
 62
7
370
60
100
AcDbLine
 10
163.729734308964
 20
19.4721141611453
 11
165.919610849689
 21
19.4721141611453
  0
LINE
  5
11569
330
1F
100
AcDbEntity
  8
Слой1
  6
CONTINUOUS
 62
7
370
60
100
AcDbLine
 10
174.890475555793
 20
40.4647949630432
 11
174.457598778362
 21
40.666673617136
  0
LINE
  5
1156A
330
1F
100
AcDbEntity
  8
Слой1
  6
CONTINUOUS
 62
7
370
60
100
AcDbLine
 10
34.9041686254251
 20
13.9795564975387
 11
35.6229613399256
 21
14.3291711589774
  0
LINE
  5
1156B
330
1F
100
AcDbEntity
  8
Слой1
  6
CONTINUOUS
 62
7
370
60
100
AcDbLine
 10
10.2181765044387
 20
67.9254186487447
 11
9.84511061628041
 21
67.7029265704336
  0
LINE
  5
1156C
330
1F
100
AcDbEntity
  8
Слой1
  6
CONTINUOUS
 62
7
370
60
100
AcDbLine
 10
109.65260726199
 20
17.8983348010949
 11
109.622333835001
 21
17.9474063065096
  0
LINE
  5
1156D
330
1F
100
AcDbEntity
  8
Слой1
  6
CONTINUOUS
 62
7
370
60
100
AcDbLine
 10
46.9348916038778
 20
2.25575816009064
 11
46.9222485316157
 21
2.73217592592605
  0
LINE
  5
1156E
330
1F
100
AcDbEntity
  8
Слой1
  6
CONTINUOUS
 62
7
370
60
100
AcDbLine
 10
272.514422440994
 20
62.7556123649746
 11
272.514422440994
 21
73.1117624446472
  0
LINE
  5
1156F
330
1F
100
AcDbEntity
  8
Слой1
  6
CONTINUOUS
 62
7
370
60
100
AcDbLine
 10
13.0102981360501
 20
11.9056742774286
 11
13.0102981360501
 21
12.9056742774286
  0
LINE
  5
11570
330
1F
100
AcDbEntity
  8
Слой1
  6
CONTINUOUS
 62
7
370
60
100
AcDbLine
 10
142.149625671432
 20
67.72449850294
 11
142.149625671432
 21
68.7244985029443
  0
LINE
  5
11571
330
1F
100
AcDbEntity
  8
Слой1
  6
CONTINUOUS
 62
7
370
60
100
AcDbLine
 10
157.489052795508
 20
33.5255747411785
 11
156.927339083598
 21
33.1665310374363
  0
LINE
  5
11572
330
1F
100
AcDbEntity
  8
Слой1
  6
CONTINUOUS
 62
7
370
60
100
AcDbLine
 10
7.47876244004287
 20
37.0348620097558
 11
7.68845289864714
 21
37.0762129481068
  0
LINE
  5
11573
330
1F
100
AcDbEntity
  8
Слой1
  6
CONTINUOUS
 62
7
370
60
100
AcDbLine
 10
105.830090777503
 20
69.9049667261575
 11
105.782345751557
 21
70.4604325359572
  0
LINE
  5
11574
330
1F
100
AcDbEntity
  8
Слой1
  6
CONTINUOUS
 62
7
370
60
100
AcDbLine
 10
169.921464982475
 20
37.3724459205636
 11
169.921464982475
 21
44.9307602204641
  0
LINE
  5
11575
330
1F
100
AcDbEntity
  8
Слой1
  6
CONTINUOUS
 62
7
370
60
100
AcDbLine
 10
49.9448617116406
 20
78.3055512884729
 11
49.8618412339548
 21
77.9274809824739
  0
LINE
  5
11576
330
1F
100
AcDbEntity
  8
Слой1
  6
CONTINUOUS
 62
7
370
60
100
AcDbLine
 10
12.2956395610177
 20
6.85375635423334
 11
12.0120362058889
 21
6.71976771453531
  0
LINE
  5
11577
330
1F
100
AcDbEntity
  8
Слой1
  6
CONTINUOUS
 62
7
370
60
100
AcDbLine
 10
178.231138212633
 20
36.5352579320092
 11
178.906931813231
 21
37.1641250689017
  0
LINE
  5
11578
330
1F
100
AcDbEntity
  8
Слой1
  6
CONTINUOUS
 62
7
370
60
100
AcDbLine
 10
227.484539810754
 20
69.0124392329077
 11
235.290333105442
 21
69.0124392329056
  0
LINE
  5
11579
330
1F
100
AcDbEntity
  8
Слой1
  6
CONTINUOUS
 62
7
370
60
100
AcDbLine
 10
76.6937813984508
 20
3.74542298808824
 11
76.7829416331683
 21
4.53664609442863
  0
LINE
  5
1157A
330
1F
100
AcDbEntity
  8
Слой1
  6
CONTINUOUS
 62
7
370
60
100
AcDbLine
 10
161.057568676769
 20
39.7988436136456
 11
160.607643332067
 21
38.9959722578291
  0
LINE
  5
1157B
330
1F
100
AcDbEntity
  8
Слой1
  6
CONTINUOUS
 62
7
370
60
100
AcDbLine
 10
119.84051033944
 20
26.8263437432121
 11
120.217814170831
 21
27.0415708340633
  0
LINE
  5
1157C
330
1F
100
AcDbEntity
  8
Слой1
  6
CONTINUOUS
 62
7
370
60
100
AcDbLine
 10
151.880319861542
 20
111.329952287834
 11
152.047533550576
 21
111.41547329665
  0
LINE
  5
1157D
330
1F
100
AcDbEntity
  8
Слой1
  6
CONTINUOUS
 62
7
370
60
100
AcDbLine
 10
164.75067974308
 20
43.4250678587209
 11
164.295512090239
 21
43.2889300868722
  0
LINE
  5
1157E
330
1F
100
AcDbEntity
  8
Слой1
  6
CONTINUOUS
 62
7
370
60
100
AcDbLine
 10
170.919856442774
 20
35.0185546778297
 11
170.235427277412
 21
36.7105905722238
  0
LINE
  5
1157F
330
1F
100
AcDbEntity
  8
Слой1
  6
CONTINUOUS
 62
7
370
60
100
AcDbLine
 10
6.20172930292113
 20
29.4403899438969
 11
6.25925364762379
 21
28.5876468651385
  0
LINE
  5
11580
330
1F
100
AcDbEntity
  8
Слой1
  6
CONTINUOUS
 62
7
370
60
100
AcDbLine
 10
160.09568506844
 20
10.0068334022354
 11
160.062268811836
 21
10.6333159957645
  0
LINE
  5
11581
330
1F
100
AcDbEntity
  8
Слой1
  6
CONTINUOUS
 62
7
370
60
100
AcDbLine
 10
72.1450742624536
 20
8.15966848034027
 11
72.1450742624536
 21
12.1596684803403
  0
LINE
  5
11582
330
1F
100
AcDbEntity
  8
Слой1
  6
CONTINUOUS
 62
7
370
60
100
AcDbLine
 10
103.419752594031
 20
59.653970216565
 11
103.419752594031
 21
68.5318637350836
  0
LINE
  5
11583
330
1F
100
AcDbEntity
  8
Слой1
  6
CONTINUOUS
 62
7
370
60
100
AcDbLine
 10
8.29573810486454
 20
13.5476808290042
 11
8.21027065616224
 21
13.0573125414458
  0
LINE
  5
11584
330
1F
100
AcDbEntity
  8
Слой1
  6
CONTINUOUS
 62
7
370
60
100
AcDbLine
 10
163.896759464595
 20
45.2077773233121
 11
163.378571872309
 21
45.0057510374814
  0
LINE
  5
11585
330
1F
100
AcDbEntity
  8
Слой1
  6
CONTINUOUS
 62
7
370
60
100
AcDbLine
 10
197.829248514227
 20
67.2262183046631
 11
198.829248514225
 21
67.2262183046633
  0
LINE
  5
11586
330
1F
100
AcDbEntity
  8
Слой1
  6
CONTINUOUS
 62
7
370
60
100
AcDbLine
 10
52.2134879521886
 20
0.681365740740853
 11
51.7468832882004
 21
1.00063301843556
  0
LINE
  5
11587
330
1F
100
AcDbEntity
  8
Слой1
  6
CONTINUOUS
 62
7
370
60
100
AcDbLine
 10
172.215777237712
 20
34.6566714034777
 11
172.220683732475
 21
34.6565125876218
  0
LINE
  5
11588
330
1F
100
AcDbEntity
  8
Слой1
  6
CONTINUOUS
 62
7
370
60
100
AcDbLine
 10
6.6890033678369
 20
0.772569972342058
 11
7.05453783466508
 21
0
  0
LINE
  5
11589
330
1F
100
AcDbEntity
  8
Слой1
  6
CONTINUOUS
 62
7
370
60
100
AcDbLine
 10
6.67371332957653
 20
6.00565933667724
 11
6.86347298902979
 21
7.05832685736698
  0
LINE
  5
1158A
330
1F
100
AcDbEntity
  8
Слой1
  6
CONTINUOUS
 62
7
370
60
100
AcDbLine
 10
126.280844710685
 20
141.242539852637
 11
126.448193376437
 21
141.327591203824
  0
LINE
  5
1158B
330
1F
100
AcDbEntity
  8
Слой1
  6
CONTINUOUS
 62
7
370
60
100
AcDbLine
 10
50.9987703961106
 20
1.84350714534341
 11
50.7371470041609
 21
2.34471040535557
  0
LINE
  5
1158C
330
1F
100
AcDbEntity
  8
Слой1
  6
CONTINUOUS
 62
7
370
60
100
AcDbLine
 10
149.317814170832
 20
124.277976515673
 11
149.317814170831
 21
128.277976515673
  0
LINE
  5
1158D
330
1F
100
AcDbEntity
  8
Слой1
  6
CONTINUOUS
 62
7
370
60
100
AcDbLine
 10
164.239123186223
 20
17.1421311451776
 11
164.736279198015
 21
17.7431180954204
  0
LINE
  5
1158E
330
1F
100
AcDbEntity
  8
Слой1
  6
CONTINUOUS
 62
7
370
60
100
AcDbLine
 10
162.911961858685
 20
44.7030827435503
 11
163.378571872309
 21
45.0057510374814
  0
LINE
  5
1158F
330
1F
100
AcDbEntity
  8
Слой1
  6
CONTINUOUS
 62
7
370
60
100
AcDbLine
 10
241.403774985797
 20
65.0897517706184
 11
241.988476898877
 21
65.14233030651
  0
LINE
  5
11590
330
1F
100
AcDbEntity
  8
Слой1
  6
CONTINUOUS
 62
7
370
60
100
AcDbLine
 10
166.686010671711
 20
37.2778329321334
 11
165.686010671711
 21
37.2778329321334
  0
LINE
  5
11591
330
1F
100
AcDbEntity
  8
Слой1
  6
CONTINUOUS
 62
7
370
60
100
AcDbLine
 10
211.82924851423
 20
70.13189258209
 11
218.944316300533
 21
70.1318925820893
  0
LINE
  5
11592
330
1F
100
AcDbEntity
  8
Слой1
  6
CONTINUOUS
 62
7
370
60
100
AcDbLine
 10
8.55322959160399
 20
59.9693654923925
 11
8.8110692902005
 21
59.4448795082532
  0
LINE
  5
11593
330
1F
100
AcDbEntity
  8
Слой1
  6
CONTINUOUS
 62
7
370
60
100
AcDbLine
 10
252.079896757563
 20
73.2619028766689
 11
252.233847652194
 21
72.1852414179718
  0
LINE
  5
11594
330
1F
100
AcDbEntity
  8
Слой1
  6
CONTINUOUS
 62
7
370
60
100
AcDbLine
 10
148.317814170831
 20
124.277976515675
 11
148.317814170831
 21
128.277976515673
  0
LINE
  5
11595
330
1F
100
AcDbEntity
  8
Слой1
  6
CONTINUOUS
 62
7
370
60
100
AcDbLine
 10
263.514422440995
 20
73.1117624446472
 11
263.514422440995
 21
62.7556123649746
  0
LINE
  5
11596
330
1F
100
AcDbEntity
  8
Слой1
  6
CONTINUOUS
 62
7
370
60
100
AcDbLine
 10
46.9348916038778
 20
28.4198167785205
 11
46.9047560209588
 21
27.9441850075864
  0
LINE
  5
11597
330
1F
100
AcDbEntity
  8
Слой1
  6
CONTINUOUS
 62
7
370
60
100
AcDbLine
 10
161.369217123202
 20
7.56707290215231
 11
160.960691737077
 21
7.95791624155318
  0
LINE
  5
11598
330
1F
100
AcDbEntity
  8
Слой1
  6
CONTINUOUS
 62
7
370
60
100
AcDbLine
 10
50.5088217256784
 20
7.06589054429737
 11
50.6541590859728
 21
7.53695237423785
  0
LINE
  5
11599
330
1F
100
AcDbEntity
  8
Слой1
  6
CONTINUOUS
 62
7
370
60
100
AcDbLine
 10
109.622333835001
 20
17.9474063065096
 11
109.62328570997
 21
18.0050568655646
  0
LINE
  5
1159A
330
1F
100
AcDbEntity
  8
Слой1
  6
CONTINUOUS
 62
7
370
60
100
AcDbLine
 10
6.50490365872188
 20
64.729901244836
 11
6.12071617601323
 21
64.023816619415
  0
LINE
  5
1159B
330
1F
100
AcDbEntity
  8
Слой1
  6
CONTINUOUS
 62
7
370
60
100
AcDbLine
 10
122.365168177995
 20
6.60758048953064
 11
122.387120433399
 21
6.64915377207246
  0
LINE
  5
1159C
330
1F
100
AcDbEntity
  8
Слой1
  6
CONTINUOUS
 62
7
370
60
100
AcDbLine
 10
68.3526506156904
 20
44.9671061719669
 11
67.9780986747705
 21
44.6795491040089
  0
LINE
  5
1159D
330
1F
100
AcDbEntity
  8
Слой1
  6
CONTINUOUS
 62
7
370
60
100
AcDbLine
 10
20.3978879569376
 20
70.9411490581229
 11
20.2954803358294
 21
70.9334562096819
  0
LINE
  5
1159E
330
1F
100
AcDbEntity
  8
Слой1
  6
CONTINUOUS
 62
7
370
60
100
AcDbLine
 10
86.419752594032
 20
59.653970216565
 11
89.1471147987571
 21
59.653970216565
  0
LINE
  5
1159F
330
1F
100
AcDbEntity
  8
Слой1
  6
CONTINUOUS
 62
7
370
60
100
AcDbLine
 10
149.17367129967
 20
14.4508572577488
 11
149.202478022034
 21
14.4466278525726
  0
LINE
  5
115A0
330
1F
100
AcDbEntity
  8
Слой1
  6
CONTINUOUS
 62
7
370
60
100
AcDbLine
 10
129.681189013169
 20
63.9508760365372
 11
129.149625671432
 21
63.9518779527502
  0
LINE
  5
115A1
330
1F
100
AcDbEntity
  8
Слой1
  6
CONTINUOUS
 62
7
370
60
100
AcDbLine
 10
8.8110692902005
 20
59.4448795082532
 11
9.16263947733633
 21
58.9780120096541
  0
LINE
  5
115A2
330
1F
100
AcDbEntity
  8
Слой1
  6
CONTINUOUS
 62
7
370
60
100
AcDbLine
 10
75.7085276056251
 20
33.7956636692726
 11
75.5085490417369
 21
33.024954823179
  0
LINE
  5
115A3
330
1F
100
AcDbEntity
  8
Слой1
  6
CONTINUOUS
 62
7
370
60
100
AcDbLine
 10
50.4599397751053
 20
32.7394058406522
 11
50.5088217256784
 21
33.2299491627273
  0
LINE
  5
115A4
330
1F
100
AcDbEntity
  8
Слой1
  6
CONTINUOUS
 62
7
370
60
100
AcDbLine
 10
118.206566959146
 20
21.1100105341936
 11
118.41022173683
 21
21.6099579472956
  0
LINE
  5
115A5
330
1F
100
AcDbEntity
  8
Слой1
  6
CONTINUOUS
 62
7
370
60
100
AcDbLine
 10
156.557225438879
 20
8.82219804380741
 11
156.52708985596
 21
8.34656627287327
  0
LINE
  5
115A6
330
1F
100
AcDbEntity
  8
Слой1
  6
CONTINUOUS
 62
7
370
60
100
AcDbLine
 10
7.8764774859676
 20
11.0137749136899
 11
8.02595251115004
 21
11.1665401105735
  0
LINE
  5
115A7
330
1F
100
AcDbEntity
  8
Слой1
  6
CONTINUOUS
 62
7
370
60
100
AcDbLine
 10
70.6168611910638
 20
45.1488812897355
 11
71.0215308240238
 21
44.8999765423372
  0
LINE
  5
115A8
330
1F
100
AcDbEntity
  8
Слой1
  6
CONTINUOUS
 62
7
370
60
100
AcDbLine
 10
126.563405200698
 20
66.1954422735983
 11
126.740085106958
 21
65.7068836567779
  0
LINE
  5
115A9
330
1F
100
AcDbEntity
  8
Слой1
  6
CONTINUOUS
 62
7
370
60
100
AcDbLine
 10
157.95535268709
 20
19.4721141611432
 11
157.95535268709
 21
34.1664398837168
  0
LINE
  5
115AA
330
1F
100
AcDbEntity
  8
Слой1
  6
CONTINUOUS
 62
7
370
60
100
AcDbLine
 10
218.193774404975
 20
66.6566303929541
 11
218.414712577438
 21
67.1270223490155
  0
LINE
  5
115AB
330
1F
100
AcDbEntity
  8
Слой1
  6
CONTINUOUS
 62
7
370
60
100
AcDbLine
 10
116.6606483505
 20
17.1679123792465
 11
116.776341344714
 21
17.3030331434345
  0
LINE
  5
115AC
330
1F
100
AcDbEntity
  8
Слой1
  6
CONTINUOUS
 62
7
370
60
100
AcDbLine
 10
7.72435977077118
 20
62.1730658657604
 11
7.92708552547156
 21
62.2653827762545
  0
LINE
  5
115AD
330
1F
100
AcDbEntity
  8
Слой1
  6
CONTINUOUS
 62
7
370
60
100
AcDbLine
 10
123.232648249586
 20
112.293067072953
 11
126.032615692516
 21
112.293067072953
  0
LINE
  5
115AE
330
1F
100
AcDbEntity
  8
Слой1
  6
CONTINUOUS
 62
7
370
60
100
AcDbLine
 10
117.782566001606
 20
111.293067072953
 11
121.956897325182
 21
111.300288846723
  0
LINE
  5
115AF
330
1F
100
AcDbEntity
  8
Слой1
  6
CONTINUOUS
 62
7
370
60
100
AcDbLine
 10
22.4391131819646
 20
71.0282135715539
 11
23.255402239973
 21
71.0278200253876
  0
LINE
  5
115B0
330
1F
100
AcDbEntity
  8
Слой1
  6
CONTINUOUS
 62
7
370
60
100
AcDbLine
 10
263.514422440995
 20
77.8376883705731
 11
263.514422440995
 21
78.8328480077854
  0
LINE
  5
115B1
330
1F
100
AcDbEntity
  8
Слой1
  6
CONTINUOUS
 62
7
370
60
100
AcDbLine
 10
131.157087062495
 20
64.5072604383763
 11
131.555703355628
 21
64.8589216972084
  0
LINE
  5
115B2
330
1F
100
AcDbEntity
  8
Слой1
  6
CONTINUOUS
 62
7
370
60
100
AcDbLine
 10
155.342037352157
 20
141.242539852637
 11
155.209161626012
 21
141.109937629168
  0
LINE
  5
115B3
330
1F
100
AcDbEntity
  8
Слой1
  6
CONTINUOUS
 62
7
370
60
100
AcDbLine
 10
57.0636768367098
 20
86.4025622025498
 11
57.5194289518643
 21
86.4043372692774
  0
LINE
  5
115B4
330
1F
100
AcDbEntity
  8
Слой1
  6
CONTINUOUS
 62
7
370
60
100
AcDbLine
 10
163.502815380741
 20
18.4721141611453
 11
165.919610849689
 21
18.4721141611453
  0
LINE
  5
115B5
330
1F
100
AcDbEntity
  8
Слой1
  6
CONTINUOUS
 62
7
370
60
100
AcDbLine
 10
175.332142065808
 20
40.2829489037054
 11
176.332142065808
 21
40.2829489037054
  0
LINE
  5
115B6
330
1F
100
AcDbEntity
  8
Слой1
  6
CONTINUOUS
 62
7
370
60
100
AcDbLine
 10
157.95535268709
 20
15.2038428449338
 11
158.95535268709
 21
15.2038428449338
  0
LINE
  5
115B7
330
1F
100
AcDbEntity
  8
Слой1
  6
CONTINUOUS
 62
7
370
60
100
AcDbLine
 10
62.5983498974736
 20
83.2589230024083
 11
62.3830754600767
 21
83.4522635115644
  0
LINE
  5
115B8
330
1F
100
AcDbEntity
  8
Слой1
  6
CONTINUOUS
 62
7
370
60
100
AcDbLine
 10
38.6954803358296
 20
10.0000000000026
 11
39.6954803358292
 21
10.0000000000001
  0
LINE
  5
115B9
330
1F
100
AcDbEntity
  8
Слой1
  6
CONTINUOUS
 62
7
370
60
100
AcDbLine
 10
137.149625671434
 20
72.0128777354498
 11
138.149625671434
 21
72.0128777354498
  0
LINE
  5
115BA
330
1F
100
AcDbEntity
  8
Слой1
  6
CONTINUOUS
 62
7
370
60
100
AcDbLine
 10
67.7154864425597
 20
9.81306156070298
 11
67.797679838076
 21
10.3694325100349
  0
LINE
  5
115BB
330
1F
100
AcDbEntity
  8
Слой1
  6
CONTINUOUS
 62
7
370
60
100
AcDbLine
 10
122.538328429625
 20
13.478995731289
 11
122.224736435281
 21
13.4856199060758
  0
LINE
  5
115BC
330
1F
100
AcDbEntity
  8
Слой1
  6
CONTINUOUS
 62
7
370
60
100
AcDbLine
 10
147.149625671432
 20
64.2286524716351
 11
147.149625671432
 21
66.3188242255135
  0
LINE
  5
115BD
330
1F
100
AcDbEntity
  8
Слой1
  6
CONTINUOUS
 62
7
370
60
100
AcDbLine
 10
172.220683732475
 20
34.6291485094093
 11
172.220683732475
 21
42.1598480968757
  0
LINE
  5
115BE
330
1F
100
AcDbEntity
  8
Слой1
  6
CONTINUOUS
 62
7
370
60
100
AcDbLine
 10
166.686010671711
 20
36.3034872970105
 11
166.686010671711
 21
40.6516756892482
  0
LINE
  5
115BF
330
1F
100
AcDbEntity
  8
Слой1
  6
CONTINUOUS
 62
7
370
60
100
AcDbLine
 10
84.5190971721153
 20
72.5596444939915
 11
85.919752594032
 21
72.5596444939944
  0
LINE
  5
115C0
330
1F
100
AcDbEntity
  8
Слой1
  6
CONTINUOUS
 62
7
370
60
100
AcDbLine
 10
172.005409295078
 20
42.3531886060318
 11
171.795581598794
 21
42.5524270906412
  0
LINE
  5
115C1
330
1F
100
AcDbEntity
  8
Слой1
  6
CONTINUOUS
 62
7
370
60
100
AcDbLine
 10
12.7647865983981
 20
26.2467725067856
 11
12.76814641204
 21
26.2936654805763
  0
LINE
  5
115C2
330
1F
100
AcDbEntity
  8
Слой1
  6
CONTINUOUS
 62
7
370
60
100
AcDbLine
 10
116.588926321563
 20
24.2888528937627
 11
116.127237493723
 21
23.6308263393034
  0
LINE
  5
115C3
330
1F
100
AcDbEntity
  8
Слой1
  6
CONTINUOUS
 62
7
370
60
100
AcDbLine
 10
36.3655878894199
 20
40.7888633105159
 11
37.1280009069106
 21
41.0289044917175
  0
LINE
  5
115C4
330
1F
100
AcDbEntity
  8
Слой1
  6
CONTINUOUS
 62
7
370
60
100
AcDbLine
 10
70.2097433338228
 20
15.281249042044
 11
69.7545756809811
 21
15.1451112701953
  0
LINE
  5
115C5
330
1F
100
AcDbEntity
  8
Слой1
  6
CONTINUOUS
 62
7
370
60
100
AcDbLine
 10
174.457598778362
 20
40.666673617136
 11
174.03441978035
 21
40.8881613844233
  0
LINE
  5
115C6
330
1F
100
AcDbEntity
  8
Слой1
  6
CONTINUOUS
 62
7
370
60
100
AcDbLine
 10
76.3789200335161
 20
6.87473586115282
 11
75.6944908681543
 21
8.56677175554689
  0
LINE
  5
115C7
330
1F
100
AcDbEntity
  8
Слой1
  6
CONTINUOUS
 62
7
370
60
100
AcDbLine
 10
9.84511061628041
 20
67.7029265704336
 11
9.47642254115708
 21
67.4732529213564
  0
LINE
  5
115C8
330
1F
100
AcDbEntity
  8
Слой1
  6
CONTINUOUS
 62
7
370
60
100
AcDbLine
 10
52.8938871083329
 20
85.4113608618874
 11
53.289628023684
 21
85.8021576490829
  0
LINE
  5
115C9
330
1F
100
AcDbEntity
  8
Слой1
  6
CONTINUOUS
 62
7
370
60
100
AcDbLine
 10
155.209161626012
 20
111.552038646963
 11
155.342037352157
 21
111.419436423494
  0
LINE
  5
115CA
330
1F
100
AcDbEntity
  8
Слой1
  6
CONTINUOUS
 62
7
370
60
100
AcDbLine
 10
199.550369796912
 20
64.261775358346
 11
198.840725639226
 21
64.5144915654313
  0
LINE
  5
115CB
330
1F
100
AcDbEntity
  8
Слой1
  6
CONTINUOUS
 62
7
370
60
100
AcDbLine
 10
239.290333105442
 20
73.3008184654154
 11
239.290333105442
 21
84.7067649554791
  0
LINE
  5
115CC
330
1F
100
AcDbEntity
  8
Слой1
  6
CONTINUOUS
 62
7
370
60
100
AcDbLine
 10
109.655162644187
 20
18.0531021992633
 11
109.62328570997
 21
18.0050568655646
  0
LINE
  5
115CD
330
1F
100
AcDbEntity
  8
Слой1
  6
CONTINUOUS
 62
7
370
60
100
AcDbLine
 10
299.948330560144
 20
66.0460525954585
 11
299.948330560146
 21
69.0807809073968
  0
LINE
  5
115CE
330
1F
100
AcDbEntity
  8
Слой1
  6
CONTINUOUS
 62
7
370
60
100
AcDbLine
 10
162.061419991715
 20
37.4293595037844
 11
162.256422851817
 21
37.9568803773799
  0
LINE
  5
115CF
330
1F
100
AcDbEntity
  8
Слой1
  6
CONTINUOUS
 62
7
370
60
100
AcDbLine
 10
7.8764774859676
 20
37.1778335321198
 11
7.68845289864714
 21
37.0762129481068
  0
LINE
  5
115D0
330
1F
100
AcDbEntity
  8
Слой1
  6
CONTINUOUS
 62
7
370
60
100
AcDbLine
 10
156.927339083598
 20
33.1665310374363
 11
156.336197698256
 21
32.8583321765041
  0
LINE
  5
115D1
330
1F
100
AcDbEntity
  8
Слой1
  6
CONTINUOUS
 62
7
370
60
100
AcDbLine
 10
19.2954803358296
 20
63.8595682991856
 11
20.2954803358296
 21
63.8595682991856
  0
LINE
  5
115D2
330
1F
100
AcDbEntity
  8
Слой1
  6
CONTINUOUS
 62
7
370
60
100
AcDbLine
 10
227.630352272598
 20
68.3339755751334
 11
227.484539810754
 21
69.0124392329077
  0
LINE
  5
115D3
330
1F
100
AcDbEntity
  8
Слой1
  6
CONTINUOUS
 62
7
370
60
100
AcDbLine
 10
105.704783796275
 20
71.0125249163176
 11
105.782345751557
 21
70.4604325359572
  0
LINE
  5
115D4
330
1F
100
AcDbEntity
  8
Слой1
  6
CONTINUOUS
 62
7
370
60
100
AcDbLine
 10
127.392641929458
 20
29.543069923158
 11
127.899984906137
 21
29.6173896366421
  0
LINE
  5
115D5
330
1F
100
AcDbEntity
  8
Слой1
  6
CONTINUOUS
 62
7
370
60
100
AcDbLine
 10
149.317814170831
 20
129.277976515674
 11
157.95535268709
 21
129.277976515674
  0
LINE
  5
115D6
330
1F
100
AcDbEntity
  8
Слой1
  6
CONTINUOUS
 62
7
370
60
100
AcDbLine
 10
170.965569290221
 20
34.8771979474999
 11
171.302206453708
 21
34.7891828712279
  0
LINE
  5
115D7
330
1F
100
AcDbEntity
  8
Слой1
  6
CONTINUOUS
 62
7
370
60
100
AcDbLine
 10
263.475045697319
 20
73.419600383477
 11
263.514422440995
 21
73.1117624446472
  0
LINE
  5
115D8
330
1F
100
AcDbEntity
  8
Слой1
  6
CONTINUOUS
 62
7
370
60
100
AcDbLine
 10
76.7594972589078
 20
5.332531709814
 11
76.7829416331683
 21
4.53664609442863
  0
LINE
  5
115D9
330
1F
100
AcDbEntity
  8
Слой1
  6
CONTINUOUS
 62
7
370
60
100
AcDbLine
 10
152.047533550576
 20
111.41547329665
 11
152.180135774045
 21
111.548480480968
  0
LINE
  5
115DA
330
1F
100
AcDbEntity
  8
Слой1
  6
CONTINUOUS
 62
7
370
60
100
AcDbLine
 10
160.607643332067
 20
38.9959722578291
 11
160.079671005548
 21
38.2421284728004
  0
LINE
  5
115DB
330
1F
100
AcDbEntity
  8
Слой1
  6
CONTINUOUS
 62
7
370
60
100
AcDbLine
 10
121.390761788869
 20
27.6525602071775
 11
120.217814170831
 21
27.0415708340633
  0
LINE
  5
115DC
330
1F
100
AcDbEntity
  8
Слой1
  6
CONTINUOUS
 62
7
370
60
100
AcDbLine
 10
161.215640190231
 20
15.220302704978
 11
161.65476709969
 21
15.4443334022353
  0
LINE
  5
115DD
330
1F
100
AcDbEntity
  8
Слой1
  6
CONTINUOUS
 62
7
370
60
100
AcDbLine
 10
164.295512090239
 20
43.2889300868722
 11
163.878840817774
 21
43.0606843074594
  0
LINE
  5
115DE
330
1F
100
AcDbEntity
  8
Слой1
  6
CONTINUOUS
 62
7
370
60
100
AcDbLine
 10
57.9738250597034
 20
86.3691617307559
 11
57.5194289518643
 21
86.4043372692774
  0
LINE
  5
115DF
330
1F
100
AcDbEntity
  8
Слой1
  6
CONTINUOUS
 62
7
370
60
100
AcDbLine
 10
169.45315601449
 20
38.3596752945839
 11
170.235427277412
 21
36.7105905722238
  0
LINE
  5
115E0
330
1F
100
AcDbEntity
  8
Слой1
  6
CONTINUOUS
 62
7
370
60
100
AcDbLine
 10
6.25925364762379
 20
28.5876468651385
 11
6.42252568048866
 21
27.7487058350963
  0
LINE
  5
115E1
330
1F
100
AcDbEntity
  8
Слой1
  6
CONTINUOUS
 62
7
370
60
100
AcDbLine
 10
19.2954803358296
 20
36.6640586184299
 11
19.2954803358296
 21
43.9588000174811
  0
LINE
  5
115E2
330
1F
100
AcDbEntity
  8
Слой1
  6
CONTINUOUS
 62
7
370
60
100
AcDbLine
 10
160.044213310909
 20
11.2604292910203
 11
160.062268811836
 21
10.6333159957645
  0
LINE
  5
115E3
330
1F
100
AcDbEntity
  8
Слой1
  6
CONTINUOUS
 62
7
370
60
100
AcDbLine
 10
59.2991311474737
 20
78.7629517268802
 11
60.2991311474737
 21
78.7629517268802
  0
LINE
  5
115E4
330
1F
100
AcDbEntity
  8
Слой1
  6
CONTINUOUS
 62
7
370
60
100
AcDbLine
 10
227.345884180491
 20
70.0124392329056
 11
235.29033310544
 21
70.0124392329056
  0
LINE
  5
115E5
330
1F
100
AcDbEntity
  8
Слой1
  6
CONTINUOUS
 62
7
370
60
100
AcDbLine
 10
207.829248514229
 20
65.7217251822798
 11
208.72359433519
 21
65.5631390917347
  0
LINE
  5
115E6
330
1F
100
AcDbEntity
  8
Слой1
  6
CONTINUOUS
 62
7
370
60
100
AcDbLine
 10
165.754234791353
 20
19.8376552838083
 11
165.919610849689
 21
20.5998889577907
  0
LINE
  5
115E7
330
1F
100
AcDbEntity
  8
Слой1
  6
CONTINUOUS
 62
7
370
60
100
AcDbLine
 10
52.1987538878624
 20
0.0446048649112299
 11
52.0135734014073
 21
0
  0
LINE
  5
115E8
330
1F
100
AcDbEntity
  8
Слой1
  6
CONTINUOUS
 62
7
370
60
100
AcDbLine
 10
46.7138638632553
 20
73.9574070820367
 11
45.3270589266553
 21
73.5342501523206
  0
LINE
  5
115E9
330
1F
100
AcDbEntity
  8
Слой1
  6
CONTINUOUS
 62
7
370
60
100
AcDbLine
 10
248.29033310544
 20
67.1067649554796
 11
249.29033310544
 21
67.1067649554791
  0
LINE
  5
115EA
330
1F
100
AcDbEntity
  8
Слой1
  6
CONTINUOUS
 62
7
370
60
100
AcDbLine
 10
51.7468832882004
 20
27.1646916368654
 11
52.2134879521886
 21
26.8454243591707
  0
LINE
  5
115EB
330
1F
100
AcDbEntity
  8
Слой1
  6
CONTINUOUS
 62
7
370
60
100
AcDbLine
 10
65.2681417207916
 20
81.5638698685758
 11
64.8352649433611
 21
81.7657485226686
  0
LINE
  5
115EC
330
1F
100
AcDbEntity
  8
Слой1
  6
CONTINUOUS
 62
7
370
60
100
AcDbLine
 10
50.5604416744044
 20
2.88176415824973
 11
50.7371470041609
 21
2.34471040535557
  0
LINE
  5
115ED
330
1F
100
AcDbEntity
  8
Слой1
  6
CONTINUOUS
 62
7
370
60
100
AcDbLine
 10
157.95535268709
 20
124.277976515675
 11
157.95535268709
 21
128.277976515673
  0
LINE
  5
115EE
330
1F
100
AcDbEntity
  8
Слой1
  6
CONTINUOUS
 62
7
370
60
100
AcDbLine
 10
6.96999189885578
 20
10.4372333105588
 11
6.95571556504287
 21
10.2599237616963
  0
LINE
  5
115EF
330
1F
100
AcDbEntity
  8
Слой1
  6
CONTINUOUS
 62
7
370
60
100
AcDbLine
 10
164.736279198015
 20
17.7431180954204
 11
165.158328483588
 21
18.3990325829647
  0
LINE
  5
115F0
330
1F
100
AcDbEntity
  8
Слой1
  6
CONTINUOUS
 62
7
370
60
100
AcDbLine
 10
298.948330560146
 20
69.0807809073968
 11
299.948330560146
 21
69.0807809073968
  0
LINE
  5
115F1
330
1F
100
AcDbEntity
  8
Слой1
  6
CONTINUOUS
 62
7
370
60
100
AcDbLine
 10
20.3181684401586
 20
16.8471119392505
 11
20.3067883857656
 21
16.8588142793138
  0
LINE
  5
115F2
330
1F
100
AcDbEntity
  8
Слой1
  6
CONTINUOUS
 62
7
370
60
100
AcDbLine
 10
50.9987703961106
 20
28.0075657637733
 11
50.7371470041609
 21
28.5087690237855
  0
LINE
  5
115F3
330
1F
100
AcDbEntity
  8
Слой1
  6
CONTINUOUS
 62
7
370
60
100
AcDbLine
 10
50.2448273484308
 20
79.0176772874262
 11
50.457337170547
 21
79.341203378333
  0
LINE
  5
115F4
330
1F
100
AcDbEntity
  8
Слой1
  6
CONTINUOUS
 62
7
370
60
100
AcDbLine
 10
143.459648645782
 20
120.277976515673
 11
163.420196062976
 21
120.277976515673
  0
LINE
  5
115F5
330
1F
100
AcDbEntity
  8
Слой1
  6
CONTINUOUS
 62
7
370
60
100
AcDbLine
 10
206.829248514229
 20
73.4202718145969
 11
207.829248514232
 21
73.4202718145969
  0
LINE
  5
115F6
330
1F
100
AcDbEntity
  8
Слой1
  6
CONTINUOUS
 62
7
370
60
100
AcDbLine
 10
20.2954803358296
 20
63.8595682991856
 11
20.2954803358296
 21
70.9334562096819
  0
LINE
  5
115F7
330
1F
100
AcDbEntity
  8
Слой1
  6
CONTINUOUS
 62
7
370
60
100
AcDbLine
 10
123.233051651838
 20
111.901500874735
 11
123.232648249586
 21
112.293067072953
  0
LINE
  5
115F8
330
1F
100
AcDbEntity
  8
Слой1
  6
CONTINUOUS
 62
7
370
60
100
AcDbLine
 10
122.390480247041
 20
6.69604674586319
 11
122.387120433399
 21
6.64915377207246
  0
LINE
  5
115F9
330
1F
100
AcDbEntity
  8
Слой1
  6
CONTINUOUS
 62
7
370
60
100
AcDbLine
 10
50.8901609156577
 20
7.96976334026067
 11
50.6541590859728
 21
7.53695237423785
  0
LINE
  5
115FA
330
1F
100
AcDbEntity
  8
Слой1
  6
CONTINUOUS
 62
7
370
60
100
AcDbLine
 10
67.6368355537494
 20
44.3531785998109
 11
67.9780986747705
 21
44.6795491040089
  0
LINE
  5
115FB
330
1F
100
AcDbEntity
  8
Слой1
  6
CONTINUOUS
 62
7
370
60
100
AcDbLine
 10
128.917814170831
 20
14.9762681298387
 11
129.917814170831
 21
14.9762681298387
  0
LINE
  5
115FC
330
1F
100
AcDbEntity
  8
Слой1
  6
CONTINUOUS
 62
7
370
60
100
AcDbLine
 10
9.16263947733633
 20
58.9780120096541
 11
9.59548033582964
 21
58.5853090061646
  0
LINE
  5
115FD
330
1F
100
AcDbEntity
  8
Слой1
  6
CONTINUOUS
 62
7
370
60
100
AcDbLine
 10
31.5269083115103
 20
57.5989055609842
 11
29.1172802698965
 21
58.3324129373973
  0
LINE
  5
115FE
330
1F
100
AcDbEntity
  8
Слой1
  6
CONTINUOUS
 62
7
370
60
100
AcDbLine
 10
149.202478022034
 20
14.4466278525726
 11
150.092332900106
 21
14.416905547684
  0
LINE
  5
115FF
330
1F
100
AcDbEntity
  8
Слой1
  6
CONTINUOUS
 62
7
370
60
100
AcDbLine
 10
75.6386641789191
 20
36.1673753532374
 11
75.7742434660821
 21
35.3827723909984
  0
LINE
  5
11600
330
1F
100
AcDbEntity
  8
Слой1
  6
CONTINUOUS
 62
7
370
60
100
AcDbLine
 10
129.149625671432
 20
63.9518779527502
 11
129.149625671435
 21
66.3188242255135
  0
LINE
  5
11601
330
1F
100
AcDbEntity
  8
Слой1
  6
CONTINUOUS
 62
7
370
60
100
AcDbLine
 10
50.5088217256784
 20
33.2299491627273
 11
50.6541590859728
 21
33.7010109926677
  0
LINE
  5
11602
330
1F
100
AcDbEntity
  8
Слой1
  6
CONTINUOUS
 62
7
370
60
100
AcDbLine
 10
218.553859791674
 20
67.516975700576
 11
218.414712577438
 21
67.1270223490155
  0
LINE
  5
11603
330
1F
100
AcDbEntity
  8
Слой1
  6
CONTINUOUS
 62
7
370
60
100
AcDbLine
 10
118.41022173683
 20
21.6099579472956
 11
118.647405051771
 21
22.0948979017793
  0
LINE
  5
11604
330
1F
100
AcDbEntity
  8
Слой1
  6
CONTINUOUS
 62
7
370
60
100
AcDbLine
 10
8.14897241286672
 20
62.2457269174817
 11
7.92708552547156
 21
62.2653827762545
  0
LINE
  5
11605
330
1F
100
AcDbEntity
  8
Слой1
  6
CONTINUOUS
 62
7
370
60
100
AcDbLine
 10
211.316308577467
 20
64.7378455652574
 11
212.137764316191
 21
64.3502704565321
  0
LINE
  5
11606
330
1F
100
AcDbEntity
  8
Слой1
  6
CONTINUOUS
 62
7
370
60
100
AcDbLine
 10
0.0302734269888106
 20
58.9974097066275
 11
0
 21
59.0464812120422
  0
LINE
  5
11607
330
1F
100
AcDbEntity
  8
Слой1
  6
CONTINUOUS
 62
7
370
60
100
AcDbLine
 10
72.0799475234941
 20
43.4129718884783
 11
71.0215308240237
 21
44.8999765423372
  0
LINE
  5
11608
330
1F
100
AcDbEntity
  8
Слой1
  6
CONTINUOUS
 62
7
370
60
100
AcDbLine
 10
120.533399687609
 20
8.77224390308011
 11
120.838964608713
 21
8.26604694984737
  0
LINE
  5
11609
330
1F
100
AcDbEntity
  8
Слой1
  6
CONTINUOUS
 62
7
370
60
100
AcDbLine
 10
126.994995125004
 20
65.2541959122498
 11
126.740085106958
 21
65.7068836567779
  0
LINE
  5
1160A
330
1F
100
AcDbEntity
  8
Слой1
  6
CONTINUOUS
 62
7
370
60
100
AcDbLine
 10
116.693603297215
 20
20.4242465283559
 11
116.809483842697
 21
20.5682136485589
  0
LINE
  5
1160B
330
1F
100
AcDbEntity
  8
Слой1
  6
CONTINUOUS
 62
7
370
60
100
AcDbLine
 10
272.913467038171
 20
73.9148344411085
 11
272.691899991243
 21
73.6975264379396
  0
LINE
  5
1160C
330
1F
100
AcDbEntity
  8
Слой1
  6
CONTINUOUS
 62
7
370
60
100
AcDbLine
 10
60.2991311474737
 20
78.7629517268802
 11
60.2991311474737
 21
85.5225635762592
  0
LINE
  5
1160D
330
1F
100
AcDbEntity
  8
Слой1
  6
CONTINUOUS
 62
7
370
60
100
AcDbLine
 10
117.782566001606
 20
18.1337131824501
 11
117.770403571465
 21
18.4721141611453
  0
LINE
  5
1160E
330
1F
100
AcDbEntity
  8
Слой1
  6
CONTINUOUS
 62
7
370
60
100
AcDbLine
 10
155.123765641349
 20
140.942764562943
 11
155.209161626012
 21
141.109937629168
  0
LINE
  5
1160F
330
1F
100
AcDbEntity
  8
Слой1
  6
CONTINUOUS
 62
7
370
60
100
AcDbLine
 10
103.919752594031
 20
72.5596444939929
 11
105.320408015945
 21
72.5596444939926
  0
LINE
  5
11610
330
1F
100
AcDbEntity
  8
Слой1
  6
CONTINUOUS
 62
7
370
60
100
AcDbLine
 10
62.1732477637928
 20
83.6515019961738
 11
62.3830754600767
 21
83.4522635115644
  0
LINE
  5
11611
330
1F
100
AcDbEntity
  8
Слой1
  6
CONTINUOUS
 62
7
370
60
100
AcDbLine
 10
236.432016176309
 20
64.9847177113847
 11
237.006188866063
 21
65.1070555711683
  0
LINE
  5
11612
330
1F
100
AcDbEntity
  8
Слой1
  6
CONTINUOUS
 62
7
370
60
100
AcDbLine
 10
137.149625671434
 20
79.0188242251705
 11
138.149625671435
 21
79.0188242255135
  0
LINE
  5
11613
330
1F
100
AcDbEntity
  8
Слой1
  6
CONTINUOUS
 62
7
370
60
100
AcDbLine
 10
126.487285021973
 20
67.1116050255403
 11
126.478296667183
 21
67.4179863517103
  0
LINE
  5
11614
330
1F
100
AcDbEntity
  8
Слой1
  6
CONTINUOUS
 62
7
370
60
100
AcDbLine
 10
147.528379022757
 20
21.6144263449557
 11
146.750334741912
 21
21.4312857570044
  0
LINE
  5
11615
330
1F
100
AcDbEntity
  8
Слой1
  6
CONTINUOUS
 62
7
370
60
100
AcDbLine
 10
42.0725318773707
 20
12.9056742774291
 11
46.0725318773706
 21
12.9056742774276
  0
LINE
  5
11616
330
1F
100
AcDbEntity
  8
Слой1
  6
CONTINUOUS
 62
7
370
60
100
AcDbLine
 10
118.734584342543
 20
26.137408905188
 11
119.098756376158
 21
26.3741780158238
  0
LINE
  5
11617
330
1F
100
AcDbEntity
  8
Слой1
  6
CONTINUOUS
 62
7
370
60
100
AcDbLine
 10
41.1146165627208
 20
72.4527723710483
 11
42.5267311677306
 21
72.7817435881222
  0
LINE
  5
11618
330
1F
100
AcDbEntity
  8
Слой1
  6
CONTINUOUS
 62
7
370
60
100
AcDbLine
 10
171.795581598794
 20
42.5524270906412
 11
171.591362175621
 21
42.7574101706165
  0
LINE
  5
11619
330
1F
100
AcDbEntity
  8
Слой1
  6
CONTINUOUS
 62
7
370
60
100
AcDbLine
 10
12.76814641204
 20
26.2936654805763
 11
12.7523452950759
 21
26.337943737558
  0
LINE
  5
1161A
330
1F
100
AcDbEntity
  8
Слой1
  6
CONTINUOUS
 62
7
370
60
100
AcDbLine
 10
69.7545756809811
 20
15.1451112701953
 11
69.3379044085161
 21
14.9168654907825
  0
LINE
  5
1161B
330
1F
100
AcDbEntity
  8
Слой1
  6
CONTINUOUS
 62
7
370
60
100
AcDbLine
 10
56.0636768367098
 20
78.7629517268802
 11
57.0636768367098
 21
78.7629517268802
  0
LINE
  5
1161C
330
1F
100
AcDbEntity
  8
Слой1
  6
CONTINUOUS
 62
7
370
60
100
AcDbLine
 10
173.621826265528
 20
41.1287936493929
 11
174.03441978035
 21
40.8881613844233
  0
LINE
  5
1161D
330
1F
100
AcDbEntity
  8
Слой1
  6
CONTINUOUS
 62
7
370
60
100
AcDbLine
 10
74.9122196052319
 20
10.2158564779071
 11
75.6944908681543
 21
8.56677175554689
  0
LINE
  5
1161E
330
1F
100
AcDbEntity
  8
Слой1
  6
CONTINUOUS
 62
7
370
60
100
AcDbLine
 10
206.829248514229
 20
65.6526502935832
 11
206.829248514229
 21
73.4202718145969
  0
LINE
  5
1161F
330
1F
100
AcDbEntity
  8
Слой1
  6
CONTINUOUS
 62
7
370
60
100
AcDbLine
 10
9.1122505075421
 20
67.2364838107206
 11
9.47642254115708
 21
67.4732529213564
  0
LINE
  5
11620
330
1F
100
AcDbEntity
  8
Слой1
  6
CONTINUOUS
 62
7
370
60
100
AcDbLine
 10
53.289628023684
 20
85.8021576490829
 11
53.756238037308
 21
86.104825943014
  0
LINE
  5
11621
330
1F
100
AcDbEntity
  8
Слой1
  6
CONTINUOUS
 62
7
370
60
100
AcDbLine
 10
150.736950397722
 20
31.3536974655157
 11
149.317814170831
 21
31.0564734946279
  0
ARC
  5
11622
330
1F
100
AcDbEntity
  8
Слой1
  6
CONTINUOUS
 62
7
370
60
100
AcDbCircle
 10
137.422429450195
 20
109.882550928175
 40
12.0213513699913
100
AcDbArc
 50
59.8538100420852
 51
120.146189957915
  0
ARC
  5
11623
330
1F
100
AcDbEntity
  8
Слой1
  6
CONTINUOUS
 62
7
370
60
100
AcDbCircle
 10
153.215332941251
 20
127.856691880778
 40
12.7112610671965
100
AcDbArc
 50
323.400306978387
 51
361.899280691378
  0
ARC
  5
11624
330
1F
100
AcDbEntity
  8
Слой1
  6
CONTINUOUS
 62
7
370
60
100
AcDbCircle
 10
119.747196824342
 20
110.389655118922
 40
2.16238928695227
100
AcDbArc
 50
155.305230016781
 51
255.829172162077
  0
ARC
  5
11625
330
1F
100
AcDbEntity
  8
Слой1
  6
CONTINUOUS
 62
7
370
60
100
AcDbCircle
 10
122.583792726047
 20
121.541108388386
 40
13.6689579094207
100
AcDbArc
 50
255.744293202272
 51
311.432919404803
  0
ARC
  5
11626
330
1F
100
AcDbEntity
  8
Слой1
  6
CONTINUOUS
 62
7
370
60
100
AcDbCircle
 10
156.491338402556
 20
115.578686868346
 40
7.65754123250786
100
AcDbArc
 50
270.208061854369
 51
325.8966880569
  0
ARC
  5
11627
330
1F
100
AcDbEntity
  8
Слой1
  6
CONTINUOUS
 62
7
370
60
100
AcDbCircle
 10
154.992278557546
 20
127.152064723511
 40
19.2913874620942
100
AcDbArc
 50
235.293209962264
 51
274.539571712827
  0
ARC
  5
11628
330
1F
100
AcDbEntity
  8
Слой1
  6
CONTINUOUS
 62
7
370
60
100
AcDbCircle
 10
154.992278557546
 20
125.509911552619
 40
19.2913874620942
100
AcDbArc
 50
85.460428287173
 51
124.706790037736
  0
ARC
  5
11629
330
1F
100
AcDbEntity
  8
Слой1
  6
CONTINUOUS
 62
7
370
60
100
AcDbCircle
 10
156.491338402556
 20
137.083289407784
 40
7.65754123250789
100
AcDbArc
 50
34.1033119431003
 51
89.7919381456303
  0
ARC
  5
1162A
330
1F
100
AcDbEntity
  8
Слой1
  6
CONTINUOUS
 62
7
370
60
100
AcDbCircle
 10
119.747196824342
 20
142.272321157208
 40
2.16238928695224
100
AcDbArc
 50
104.170827837921
 51
204.694769983221
  0
ARC
  5
1162B
330
1F
100
AcDbEntity
  8
Слой1
  6
CONTINUOUS
 62
7
370
60
100
AcDbCircle
 10
122.583792726047
 20
131.120867887744
 40
13.6689579094211
100
AcDbArc
 50
48.5670805951976
 51
104.255706797727
  0
ARC
  5
1162C
330
1F
100
AcDbEntity
  8
Слой1
  6
CONTINUOUS
 62
7
370
60
100
AcDbCircle
 10
153.215332941251
 20
129.699261150568
 40
12.7112610671964
100
AcDbArc
 50
358.100719308622
 51
396.599693021613
  0
ARC
  5
1162D
330
1F
100
AcDbEntity
  8
Слой1
  6
CONTINUOUS
 62
7
370
60
100
AcDbCircle
 10
137.422429450195
 20
147.673402103172
 40
12.0213513699914
100
AcDbArc
 50
239.853810042085
 51
300.146189957915
  0
ARC
  5
1162E
330
1F
100
AcDbEntity
  8
Слой1
  6
CONTINUOUS
 62
7
370
60
100
AcDbCircle
 10
309.705287946832
 20
70.633544783323
 40
2.99406893893069
100
AcDbArc
 50
298.544465066514
 51
421.455534933459
  0
ARC
  5
1162F
330
1F
100
AcDbEntity
  8
Слой1
  6
CONTINUOUS
 62
7
370
60
100
AcDbCircle
 10
311.56666354596
 20
70.6335447832528
 40
2.99406893868306
100
AcDbArc
 50
118.544465060643
 51
241.455534939384
  0
ARC
  5
11630
330
1F
100
AcDbEntity
  8
Слой1
  6
CONTINUOUS
 62
7
370
60
100
AcDbCircle
 10
297.900127237938
 20
69.8114023892629
 40
4.28637328271796
100
AcDbArc
 50
298.544465065498
 51
421.455534934449
  0
ARC
  5
11631
330
1F
100
AcDbEntity
  8
Слой1
  6
CONTINUOUS
 62
7
370
60
100
AcDbCircle
 10
300.996533887948
 20
69.8114023891927
 40
4.28637328243881
100
AcDbArc
 50
118.544465060657
 51
241.455534939396
  0
ARC
  5
11632
330
1F
100
AcDbEntity
  8
Слой1
  6
CONTINUOUS
 62
7
370
60
100
AcDbCircle
 10
283.528969618537
 20
68.8883391438705
 40
5.99405145441117
100
AcDbArc
 50
300.759727551975
 51
419.240272447986
  0
ARC
  5
11633
330
1F
100
AcDbEntity
  8
Слой1
  6
CONTINUOUS
 62
7
370
60
100
AcDbCircle
 10
288.687497939575
 20
68.8423938915981
 40
6.04751846775037
100
AcDbArc
 50
120.759727552089
 51
239.240272514603
  0
ARC
  5
11634
330
1F
100
AcDbEntity
  8
Слой1
  6
CONTINUOUS
 62
7
370
60
100
AcDbCircle
 10
268.18951561642
 20
63.0661927085908
 40
4.33604418693882
100
AcDbArc
 50
274.297293486275
 51
355.892524718988
  0
ARC
  5
11635
330
1F
100
AcDbEntity
  8
Слой1
  6
CONTINUOUS
 62
7
370
60
100
AcDbCircle
 10
267.839329271616
 20
63.0661927085905
 40
4.3360441869384
100
AcDbArc
 50
184.107475281008
 51
265.70270651373
  0
ARC
  5
11636
330
1F
100
AcDbEntity
  8
Слой1
  6
CONTINUOUS
 62
7
370
60
100
AcDbCircle
 10
261.482030804543
 20
75.5280898244882
 40
1.6884408517774
100
AcDbArc
 50
59.2077764951462
 51
296.06192690484
  0
ARC
  5
11637
330
1F
100
AcDbEntity
  8
Слой1
  6
CONTINUOUS
 62
7
370
60
100
AcDbCircle
 10
268.365037423709
 20
77.5151007998419
 40
4.35360238488863
100
AcDbArc
 50
17.6186254188629
 51
88.0336257874442
  0
ARC
  5
11638
330
1F
100
AcDbEntity
  8
Слой1
  6
CONTINUOUS
 62
7
370
60
100
AcDbCircle
 10
267.66380746541
 20
77.5151007901414
 40
4.35360239462059
100
AcDbArc
 50
91.966374222412
 51
162.381374487864
  0
ARC
  5
11639
330
1F
100
AcDbEntity
  8
Слой1
  6
CONTINUOUS
 62
7
370
60
100
AcDbCircle
 10
274.546814077446
 20
75.5280898244882
 40
1.68844085177738
100
AcDbArc
 50
243.93807309516
 51
480.792223504854
  0
ARC
  5
1163A
330
1F
100
AcDbEntity
  8
Слой1
  6
CONTINUOUS
 62
7
370
60
100
AcDbCircle
 10
223.568813226506
 20
62.6129831039206
 40
5.93598610476641
100
AcDbArc
 50
308.824878353635
 51
391.83615126913
  0
ARC
  5
1163B
330
1F
100
AcDbEntity
  8
Слой1
  6
CONTINUOUS
 62
7
370
60
100
AcDbCircle
 10
256.011852984375
 20
62.6129831039206
 40
5.93598610476636
100
AcDbArc
 50
148.16384873087
 51
231.175121646366
  0
ARC
  5
1163C
330
1F
100
AcDbEntity
  8
Слой1
  6
CONTINUOUS
 62
7
370
60
100
AcDbCircle
 10
237.681038837344
 20
60.6389905661921
 40
4.52165921186505
100
AcDbArc
 50
106.035389997437
 51
215.886788203831
  0
ARC
  5
1163D
330
1F
100
AcDbEntity
  8
Слой1
  6
CONTINUOUS
 62
7
370
60
100
AcDbCircle
 10
241.899627373537
 20
60.6389905661921
 40
4.52165921186518
100
AcDbArc
 50
324.113211796172
 51
433.964610002561
  0
ARC
  5
1163E
330
1F
100
AcDbEntity
  8
Слой1
  6
CONTINUOUS
 62
7
370
60
100
AcDbCircle
 10
236.496065354827
 20
68.7732589121768
 40
16.3790440073678
100
AcDbArc
 50
27.5094508679743
 51
76.6055426848068
  0
ARC
  5
1163F
330
1F
100
AcDbEntity
  8
Слой1
  6
CONTINUOUS
 62
7
370
60
100
AcDbCircle
 10
243.084600856054
 20
68.7732589121771
 40
16.3790440073675
100
AcDbArc
 50
103.394457315193
 51
152.490549132026
  0
ARC
  5
11640
330
1F
100
AcDbEntity
  8
Слой1
  6
CONTINUOUS
 62
7
370
60
100
AcDbCircle
 10
209.035588580982
 20
68.2643752641607
 40
13.5427761529581
100
AcDbArc
 50
99.3762140816534
 51
166.063001431731
  0
ARC
  5
11641
330
1F
100
AcDbEntity
  8
Слой1
  6
CONTINUOUS
 62
7
370
60
100
AcDbCircle
 10
205.622908447469
 20
68.2643752641598
 40
13.5427761529593
100
AcDbArc
 50
13.9369985682499
 51
80.6237859183222
  0
ARC
  5
11642
330
1F
100
AcDbEntity
  8
Слой1
  6
CONTINUOUS
 62
7
370
60
100
AcDbCircle
 10
172.163584544021
 20
67.586048443958
 40
4.26898451396534
100
AcDbArc
 50
228.264367102486
 51
312.307253414452
  0
ARC
  5
11643
330
1F
100
AcDbEntity
  8
Слой1
  6
CONTINUOUS
 62
7
370
60
100
AcDbCircle
 10
178.910543940082
 20
67.5860484474587
 40
4.26898451691002
100
AcDbArc
 50
227.692746630582
 51
311.735632871238
  0
ARC
  5
11644
330
1F
100
AcDbEntity
  8
Слой1
  6
CONTINUOUS
 62
7
370
60
100
AcDbCircle
 10
175.155292617341
 20
69.6092270678644
 40
7.8206051429236
100
AcDbArc
 50
90.8662047031797
 51
199.220777435659
  0
ARC
  5
11645
330
1F
100
AcDbEntity
  8
Слой1
  6
CONTINUOUS
 62
7
370
60
100
AcDbCircle
 10
175.918835867261
 20
69.6092270678644
 40
7.82060514292353
100
AcDbArc
 50
340.77922256434
 51
449.133795296819
  0
ARC
  5
11646
330
1F
100
AcDbEntity
  8
Слой1
  6
CONTINUOUS
 62
7
370
60
100
AcDbCircle
 10
137.649625670212
 20
59.5111192100369
 40
8.10770501547671
100
AcDbArc
 50
93.5356589209049
 51
138.731000000176
  0
ARC
  5
11647
330
1F
100
AcDbEntity
  8
Слой1
  6
CONTINUOUS
 62
7
370
60
100
AcDbCircle
 10
137.649625670212
 20
59.511119210037
 40
8.10770501547654
100
AcDbArc
 50
41.2689999642664
 51
86.4643410617902
  0
ARC
  5
11648
330
1F
100
AcDbEntity
  8
Слой1
  6
CONTINUOUS
 62
7
370
60
100
AcDbCircle
 10
137.921346025143
 20
67.6003702927711
 40
11.4445027201123
100
AcDbArc
 50
93.8664761066878
 51
174.363073365623
  0
ARC
  5
11649
330
1F
100
AcDbEntity
  8
Слой1
  6
CONTINUOUS
 62
7
370
60
100
AcDbCircle
 10
137.377905320299
 20
67.6003702929386
 40
11.4445027201139
100
AcDbArc
 50
5.63692663353719
 51
86.1335238758872
  0
ARC
  5
1164A
330
1F
100
AcDbEntity
  8
Слой1
  6
CONTINUOUS
 62
7
370
60
100
AcDbCircle
 10
90.1337088443591
 20
73.0666612110644
 40
5.63745777647051
100
AcDbArc
 50
121.321601596967
 51
185.159989667597
  0
ARC
  5
1164B
330
1F
100
AcDbEntity
  8
Слой1
  6
CONTINUOUS
 62
7
370
60
100
AcDbCircle
 10
67.2272241703908
 20
67.7304764672498
 40
16.8100636200993
100
AcDbArc
 50
334.658903139212
 51
363.614915552863
  0
ARC
  5
1164C
330
1F
100
AcDbEntity
  8
Слой1
  6
CONTINUOUS
 62
7
370
60
100
AcDbCircle
 10
96.2076646816407
 20
67.2782734202242
 40
12.4007530679696
100
AcDbArc
 50
58.7741250208039
 51
93.6428809421088
  0
ARC
  5
1164D
330
1F
100
AcDbEntity
  8
Слой1
  6
CONTINUOUS
 62
7
370
60
100
AcDbCircle
 10
122.612281017714
 20
67.7304764672673
 40
16.8100636201472
100
AcDbArc
 50
176.385084447207
 51
205.341096860777
  0
ARC
  5
1164E
330
1F
100
AcDbEntity
  8
Слой1
  6
CONTINUOUS
 62
7
370
60
100
AcDbCircle
 10
93.6318405064263
 20
67.2782734202229
 40
12.4007530679699
100
AcDbArc
 50
86.3571190579357
 51
121.22587497924
  0
ARC
  5
1164F
330
1F
100
AcDbEntity
  8
Слой1
  6
CONTINUOUS
 62
7
370
60
100
AcDbCircle
 10
99.7057963436962
 20
73.0666612110669
 40
5.63745777647524
100
AcDbArc
 50
354.840010332393
 51
418.678398403021
  0
ARC
  5
11650
330
1F
100
AcDbEntity
  8
Слой1
  6
CONTINUOUS
 62
7
370
60
100
AcDbCircle
 10
94.7144708787026
 20
63.4437474130957
 40
6.64774155706116
100
AcDbArc
 50
334.058434303038
 51
443.909832509429
  0
ARC
  5
11651
330
1F
100
AcDbEntity
  8
Слой1
  6
CONTINUOUS
 62
7
370
60
100
AcDbCircle
 10
95.1250343093579
 20
63.4437474130957
 40
6.64774155706126
100
AcDbArc
 50
96.0901674905722
 51
205.941565696961
  0
ARC
  5
11652
330
1F
100
AcDbEntity
  8
Слой1
  6
CONTINUOUS
 62
7
370
60
100
AcDbCircle
 10
63.3218880789399
 20
83.9933066178326
 40
8.26970564698682
100
AcDbArc
 50
252.148217067696
 51
316.139625107964
  0
ARC
  5
11653
330
1F
100
AcDbEntity
  8
Слой1
  6
CONTINUOUS
 62
7
370
60
100
AcDbCircle
 10
60.379009533056
 20
74.3166471369025
 40
1.85059784319972
100
AcDbArc
 50
77.2712366711967
 51
177.421880445223
  0
ARC
  5
11654
330
1F
100
AcDbEntity
  8
Слой1
  6
CONTINUOUS
 62
7
370
60
100
AcDbCircle
 10
49.8366475614546
 20
62.7016205973685
 40
6.53797013287112
100
AcDbArc
 50
289.624312758663
 51
351.178362448274
  0
ARC
  5
11655
330
1F
100
AcDbEntity
  8
Слой1
  6
CONTINUOUS
 62
7
370
60
100
AcDbCircle
 10
-1.9475076400274
 20
72.8650714147077
 40
13.8397549825126
100
AcDbArc
 50
278.447418846174
 51
292.331143085745
  0
ARC
  5
11656
330
1F
100
AcDbEntity
  8
Слой1
  6
CONTINUOUS
 62
7
370
60
100
AcDbCircle
 10
-22.5488874386056
 20
82.108028868105
 40
81.4447517238849
100
AcDbArc
 50
345.487699325555
 51
354.569253195198
  0
ARC
  5
11657
330
1F
100
AcDbEntity
  8
Слой1
  6
CONTINUOUS
 62
7
370
60
100
AcDbCircle
 10
1.60243779743375
 20
65.6570840370787
 40
6.85537110864427
100
AcDbArc
 50
257.18785156932
 51
322.91521390945
  0
ARC
  5
11658
330
1F
100
AcDbEntity
  8
Слой1
  6
CONTINUOUS
 62
7
370
60
100
AcDbCircle
 10
63.9524209953102
 20
71.8104438507491
 40
9.64594235936413
100
AcDbArc
 50
57.675428887479
 51
73.3598763165555
  0
ARC
  5
11659
330
1F
100
AcDbEntity
  8
Слой1
  6
CONTINUOUS
 62
7
370
60
100
AcDbCircle
 10
21.0950143779927
 20
32.6311631648651
 40
26.9241711090702
100
AcDbArc
 50
72.6650169331462
 51
108.721092755082
  0
ARC
  5
1165A
330
1F
100
AcDbEntity
  8
Слой1
  6
CONTINUOUS
 62
7
370
60
100
AcDbCircle
 10
75.2447220932787
 20
11.7457174126601
 40
10.0211540631036
100
AcDbArc
 50
208.295047016385
 51
267.704307795996
  0
ARC
  5
1165B
330
1F
100
AcDbEntity
  8
Слой1
  6
CONTINUOUS
 62
7
370
60
100
AcDbCircle
 10
74.2594683004528
 20
41.7959580938443
 40
10.0211540631034
100
AcDbArc
 50
208.295047016384
 51
267.704307795997
  0
ARC
  5
1165C
330
1F
100
AcDbEntity
  8
Слой1
  6
CONTINUOUS
 62
7
370
60
100
AcDbCircle
 10
40.2892508047973
 20
15.774576511452
 40
7.9261720052514
100
AcDbArc
 50
219.791052766329
 51
271.306685022734
  0
ARC
  5
1165D
330
1F
100
AcDbEntity
  8
Слой1
  6
CONTINUOUS
 62
7
370
60
100
AcDbCircle
 10
37.3115727565799
 20
28.9633493897246
 40
13.8512414221262
100
AcDbArc
 50
279.910397411386
 51
317.421443828762
  0
ARC
  5
1165E
330
1F
100
AcDbEntity
  8
Слой1
  6
CONTINUOUS
 62
7
370
60
100
AcDbCircle
 10
35.697930748299
 20
12.0940612892534
 40
2.04576403531199
100
AcDbArc
 50
112.83028318804
 51
222.883145113246
  0
ARC
  5
1165F
330
1F
100
AcDbEntity
  8
Слой1
  6
CONTINUOUS
 62
7
370
60
100
AcDbCircle
 10
41.0899812971538
 20
2.005949621431
 40
5.87730769481391
100
AcDbArc
 50
7.09786225067884
 51
96.055251656824
  0
ARC
  5
11660
330
1F
100
AcDbEntity
  8
Слой1
  6
CONTINUOUS
 62
7
370
60
100
AcDbCircle
 10
47.0431457120995
 20
14.0175990116603
 40
7.16306937273765
100
AcDbArc
 50
314.149206671305
 51
431.356568721445
  0
ARC
  5
11661
330
1F
100
AcDbEntity
  8
Слой1
  6
CONTINUOUS
 62
7
370
60
100
AcDbCircle
 10
15.1240690173667
 20
12.2449755093401
 40
6.94266330873023
100
AcDbArc
 50
53.0701091027512
 51
130.714033164936
  0
ARC
  5
11662
330
1F
100
AcDbEntity
  8
Слой1
  6
CONTINUOUS
 62
7
370
60
100
AcDbCircle
 10
14.7289775206456
 20
14.938587727378
 40
8.24368629288128
100
AcDbArc
 50
259.450771953343
 51
318.188712113124
  0
ARC
  5
11663
330
1F
100
AcDbEntity
  8
Слой1
  6
CONTINUOUS
 62
7
370
60
100
AcDbCircle
 10
16.4387729887173
 20
12.8326712672206
 40
5.58189606742586
100
AcDbArc
 50
322.604264627894
 51
405.4775355334
  0
ARC
  5
11664
330
1F
100
AcDbEntity
  8
Слой1
  6
CONTINUOUS
 62
7
370
60
100
AcDbCircle
 10
14.1405930822606
 20
3.80997723634628
 40
3.60599748157877
100
AcDbArc
 50
131.171924243384
 51
234.630527470679
  0
ARC
  5
11665
330
1F
100
AcDbEntity
  8
Слой1
  6
CONTINUOUS
 62
7
370
60
100
AcDbCircle
 10
40.2892508047973
 20
41.9386351298819
 40
7.92617200525138
100
AcDbArc
 50
219.791052766329
 51
271.306685022734
  0
ARC
  5
11666
330
1F
100
AcDbEntity
  8
Слой1
  6
CONTINUOUS
 62
7
370
60
100
AcDbCircle
 10
41.0899812971538
 20
28.1700082398609
 40
5.87730769481389
100
AcDbArc
 50
7.09786225067863
 51
96.0552516568242
  0
ARC
  5
11667
330
1F
100
AcDbEntity
  8
Слой1
  6
CONTINUOUS
 62
7
370
60
100
AcDbCircle
 10
47.0431457120995
 20
40.1816576300902
 40
7.16306937273764
100
AcDbArc
 50
314.149206671305
 51
431.356568721445
  0
ARC
  5
11668
330
1F
100
AcDbEntity
  8
Слой1
  6
CONTINUOUS
 62
7
370
60
100
AcDbCircle
 10
37.3115727565799
 20
55.1274080081546
 40
13.8512414221263
100
AcDbArc
 50
279.910397411386
 51
317.421443828761
  0
ARC
  5
11669
330
1F
100
AcDbEntity
  8
Слой1
  6
CONTINUOUS
 62
7
370
60
100
AcDbCircle
 10
35.6979307482989
 20
38.2581199076833
 40
2.04576403531193
100
AcDbArc
 50
112.830283188039
 51
222.883145113247
  0
ARC
  5
1166A
330
1F
100
AcDbEntity
  8
Слой1
  6
CONTINUOUS
 62
7
370
60
100
AcDbCircle
 10
15.1240690173667
 20
38.40903412777
 40
6.94266330873023
100
AcDbArc
 50
53.0701091027512
 51
130.714033164936
  0
ARC
  5
1166B
330
1F
100
AcDbEntity
  8
Слой1
  6
CONTINUOUS
 62
7
370
60
100
AcDbCircle
 10
14.1405930822607
 20
29.9740358547762
 40
3.60599748157875
100
AcDbArc
 50
131.171924243385
 51
234.630527470679
  0
ARC
  5
1166C
330
1F
100
AcDbEntity
  8
Слой1
  6
CONTINUOUS
 62
7
370
60
100
AcDbCircle
 10
14.7289775206456
 20
41.1026463458079
 40
8.24368629288125
100
AcDbArc
 50
259.450771953342
 51
318.188712113124
  0
ARC
  5
1166D
330
1F
100
AcDbEntity
  8
Слой1
  6
CONTINUOUS
 62
7
370
60
100
AcDbCircle
 10
16.4387729887174
 20
38.9967298856505
 40
5.58189606742583
100
AcDbArc
 50
322.604264627894
 51
405.4775355334
  0
ARC
  5
1166E
330
1F
100
AcDbEntity
  8
Слой1
  6
CONTINUOUS
 62
7
370
60
100
AcDbCircle
 10
124.351311355647
 20
21.5050276110947
 40
8.24368629288116
100
AcDbArc
 50
259.450771953342
 51
305.135836522062
  0
ARC
  5
1166F
330
1F
100
AcDbEntity
  8
Слой1
  6
CONTINUOUS
 62
7
370
60
100
AcDbCircle
 10
124.746402852368
 20
18.811415393057
 40
6.94266330873021
100
AcDbArc
 50
53.0701091027508
 51
130.714033164936
  0
ARC
  5
11670
330
1F
100
AcDbEntity
  8
Слой1
  6
CONTINUOUS
 62
7
370
60
100
AcDbCircle
 10
146.933906591581
 20
35.5297892734412
 40
13.851241422126
100
AcDbArc
 50
279.910397411386
 51
317.421443828762
  0
ARC
  5
11671
330
1F
100
AcDbEntity
  8
Слой1
  6
CONTINUOUS
 62
7
370
60
100
AcDbCircle
 10
145.3202645833
 20
18.6605011729702
 40
2.04576403531196
100
AcDbArc
 50
112.83028318804
 51
222.883145113246
  0
ARC
  5
11672
330
1F
100
AcDbEntity
  8
Слой1
  6
CONTINUOUS
 62
7
370
60
100
AcDbCircle
 10
156.665479547101
 20
20.5840388953771
 40
7.16306937273761
100
AcDbArc
 50
314.149206671304
 51
431.356568721446
  0
ARC
  5
11673
330
1F
100
AcDbEntity
  8
Слой1
  6
CONTINUOUS
 62
7
370
60
100
AcDbCircle
 10
150.712315132155
 20
8.57238950514773
 40
5.87730769481396
100
AcDbArc
 50
7.09786225067928
 51
96.055251656824
  0
ARC
  5
11674
330
1F
100
AcDbEntity
  8
Слой1
  6
CONTINUOUS
 62
7
370
60
100
AcDbCircle
 10
169.785658502536
 20
39.8895362293368
 40
10.0211540631034
100
AcDbArc
 50
208.295047016384
 51
267.704307795997
  0
ARC
  5
11675
330
1F
100
AcDbEntity
  8
Слой1
  6
CONTINUOUS
 62
7
370
60
100
AcDbCircle
 10
111.224771632435
 20
24.5580091315458
 40
6.85537110864391
100
AcDbArc
 50
257.187851569319
 51
322.915213909452
  0
ARC
  5
11676
330
1F
100
AcDbEntity
  8
Слой1
  6
CONTINUOUS
 62
7
370
60
100
AcDbCircle
 10
173.574754830314
 20
30.7113689452226
 40
9.6459423593573
100
AcDbArc
 50
57.675428887475
 51
73.3598763165625
  0
ARC
  5
11677
330
1F
100
AcDbEntity
  8
Слой1
  6
CONTINUOUS
 62
7
370
60
100
AcDbCircle
 10
107.674826194974
 20
31.765996509173
 40
13.8397549825105
100
AcDbArc
 50
278.447418846173
 51
292.331143085746
  0
ENDSEC
  0
SECTION
  2
OBJECTS
  0
DICTIONARY
  5
C
330
0
100
AcDbDictionary
281
1
  3
ACAD_GROUP
350
D
  3
ACAD_PLOTSTYLENAME
350
E
  3
ACAD_MLINESTYLE
350
17
  3
ACAD_PLOTSETTINGS
350
19
  3
ACAD_LAYOUT
350
1A
  0
DICTIONARY
  5
D
102
{ACAD_REACTORS
330
C
102
}
330
C
100
AcDbDictionary
281
1
  0
ACDBDICTIONARYWDFLT
  5
E
102
{ACAD_REACTORS
330
C
102
}
330
C
100
AcDbDictionary
281
1
  3
Normal
350
F
100
AcDbDictionaryWithDefault
340
F
  0
DICTIONARY
  5
17
102
{ACAD_REACTORS
330
C
102
}
330
C
100
AcDbDictionary
281
1
  3
Standard
350
18
  0
DICTIONARY
  5
19
102
{ACAD_REACTORS
330
C
102
}
330
C
100
AcDbDictionary
281
1
  0
DICTIONARY
  5
1A
102
{ACAD_REACTORS
330
C
102
}
330
C
100
AcDbDictionary
281
1
  3
Layout1
350
1E
  3
Model
350
22
  3
Layout2
350
26
  0
ACDBPLACEHOLDER
  5
F
102
{ACAD_REACTORS
330
E
102
}
330
E
  0
MLINESTYLE
  5
18
102
{ACAD_REACTORS
330
17
102
}
330
17
100
AcDbMlineStyle
  2
STANDARD
 70
0
  3

 62
256
 51
90.0
 52
90.0
 71
2
 49
0.5
 62
256
  6
BYLAYER
 49
-0.5
 62
256
  6
BYLAYER
  0
LAYOUT
  5
1E
102
{ACAD_REACTORS
330
1A
102
}
330
1A
100
AcDbPlotSettings
  1

  2
None
  4

  6

 40
0.0
 41
0.0
 42
0.0
 43
0.0
 44
0.0
 45
0.0
 46
0.0
 47
0.0
 48
0.0
 49
0.0
140
0.0
141
0.0
142
1.0
143
1.0
 70
688
 72
0
 73
0
 74
5
  7

 75
16
147
1.0
148
0.0
149
0.0
100
AcDbLayout
  1
Layout1
 70
1
 71
1
 10
0.0
 20
0.0
 11
12.0
 21
9.0
 12
0.0
 22
0.0
 32
0.0
 14
1.000000000000000E+20
 24
1.000000000000000E+20
 34
1.000000000000000E+20
 15
-1.000000000000000E+20
 25
-1.000000000000000E+20
 35
-1.000000000000000E+20
146
0.0
 13
0.0
 23
0.0
 33
0.0
 16
1.0
 26
0.0
 36
0.0
 17
0.0
 27
1.0
 37
0.0
 76
0
330
1B
  0
LAYOUT
  5
22
102
{ACAD_REACTORS
330
1A
102
}
330
1A
100
AcDbPlotSettings
  1

  2
None
  4

  6

 40
0.0
 41
0.0
 42
0.0
 43
0.0
 44
0.0
 45
0.0
 46
0.0
 47
0.0
 48
0.0
 49
0.0
140
0.0
141
0.0
142
1.0
143
1.0
 70
1712
 72
0
 73
0
 74
0
  7

 75
0
147
1.0
148
0.0
149
0.0
100
AcDbLayout
  1
Model
 70
1
 71
0
 10
0.0
 20
0.0
 11
12.0
 21
9.0
 12
0.0
 22
0.0
 32
0.0
 14
0.0
 24
0.0
 34
0.0
 15
0.0
 25
0.0
 35
0.0
146
0.0
 13
0.0
 23
0.0
 33
0.0
 16
1.0
 26
0.0
 36
0.0
 17
0.0
 27
1.0
 37
0.0
 76
0
330
1F
  0
LAYOUT
  5
26
102
{ACAD_REACTORS
330
1A
102
}
330
1A
100
AcDbPlotSettings
  1

  2
None
  4

  6

 40
0.0
 41
0.0
 42
0.0
 43
0.0
 44
0.0
 45
0.0
 46
0.0
 47
0.0
 48
0.0
 49
0.0
140
0.0
141
0.0
142
1.0
143
1.0
 70
688
 72
0
 73
0
 74
5
  7

 75
16
147
1.0
148
0.0
149
0.0
100
AcDbLayout
  1
Layout2
 70
1
 71
2
 10
0.0
 20
0.0
 11
12.0
 21
9.0
 12
0.0
 22
0.0
 32
0.0
 14
0.0
 24
0.0
 34
0.0
 15
0.0
 25
0.0
 35
0.0
146
0.0
 13
0.0
 23
0.0
 33
0.0
 16
1.0
 26
0.0
 36
0.0
 17
0.0
 27
1.0
 37
0.0
 76
0
330
23
  0
ENDSEC
  0
EOF
