  0
SECTION
  2
HEADER
  9
$ACADVER
  1
AC1009
  9
$INSBASE
 10
0.0
 20
0.0
 30
0.0
  9
$EXTMIN
 10
880.4203619438656
 20
1502.4059661842759
 30
0.0
  9
$EXTMAX
 10
1121.0867279543779
 20
1711.6656777264609
 30
0.0
  9
$LIMMIN
 10
0.0
 20
0.0
  9
$LIMMAX
 10
420.0
 20
297.0
  9
$ORTHOMODE
 70
     1
  9
$REGENMODE
 70
     1
  9
$FILLMODE
 70
     1
  9
$QTEXTMODE
 70
     0
  9
$MIRRTEXT
 70
     0
  9
$DRAGMODE
 70
     2
  9
$LTSCALE
 40
1.0
  9
$OSMODE
 70
  3071
  9
$ATTMODE
 70
     1
  9
$TEXTSIZE
 40
2.5
  9
$TRACEWID
 40
1.0
  9
$TEXTSTYLE
  7
STANDARD
  9
$CLAYER
  8
0
  9
$CELTYPE
  6
BYLAYER
  9
$CECOLOR
 62
     1
  9
$DIMSCALE
 40
1.0
  9
$DIMASZ
 40
2.5
  9
$DIMEXO
 40
0.625
  9
$DIMDLI
 40
3.75
  9
$DIMRND
 40
0.0
  9
$DIMDLE
 40
0.0
  9
$DIMEXE
 40
1.25
  9
$DIMTP
 40
0.0
  9
$DIMTM
 40
0.0
  9
$DIMTXT
 40
2.5
  9
$DIMCEN
 40
2.5
  9
$DIMTSZ
 40
0.0
  9
$DIMTOL
 70
     0
  9
$DIMLIM
 70
     0
  9
$DIMTIH
 70
     0
  9
$DIMTOH
 70
     0
  9
$DIMSE1
 70
     0
  9
$DIMSE2
 70
     0
  9
$DIMTAD
 70
     1
  9
$DIMZIN
 70
     8
  9
$DIMBLK
  1

  9
$DIMASO
 70
     1
  9
$DIMSHO
 70
     1
  9
$DIMPOST
  1

  9
$DIMAPOST
  1

  9
$DIMALT
 70
     0
  9
$DIMALTD
 70
     3
  9
$DIMALTF
 40
0.03937007874016
  9
$DIMLFAC
 40
1.0
  9
$DIMTOFL
 70
     1
  9
$DIMTVP
 40
0.0
  9
$DIMTIX
 70
     0
  9
$DIMSOXD
 70
     0
  9
$DIMSAH
 70
     0
  9
$DIMBLK1
  1

  9
$DIMBLK2
  1

  9
$DIMSTYLE
  2
ISO-25
  9
$DIMCLRD
 70
     0
  9
$DIMCLRE
 70
     0
  9
$DIMCLRT
 70
     0
  9
$DIMTFAC
 40
1.0
  9
$DIMGAP
 40
0.625
  9
$LUNITS
 70
     2
  9
$LUPREC
 70
     4
  9
$SKETCHINC
 40
1.0
  9
$FILLETRAD
 40
0.0
  9
$AUNITS
 70
     0
  9
$AUPREC
 70
     0
  9
$MENU
  1
.
  9
$ELEVATION
 40
0.0
  9
$PELEVATION
 40
0.0
  9
$THICKNESS
 40
0.0
  9
$LIMCHECK
 70
     0
  9
$BLIPMODE
 70
     0
  9
$CHAMFERA
 40
0.0
  9
$CHAMFERB
 40
0.0
  9
$SKPOLY
 70
     0
  9
$TDCREATE
 40
2454282.8326705331
  9
$TDUPDATE
 40
2454283.3509687851
  9
$TDINDWG
 40
0.109424919
  9
$TDUSRTIMER
 40
0.109416956
  9
$USRTIMER
 70
     1
  9
$ANGBASE
 50
0.0
  9
$ANGDIR
 70
     0
  9
$PDMODE
 70
     0
  9
$PDSIZE
 40
0.0
  9
$PLINEWID
 40
0.0
  9
$COORDS
 70
     0
  9
$SPLFRAME
 70
     0
  9
$SPLINETYPE
 70
     6
  9
$SPLINESEGS
 70
     8
  9
$ATTDIA
 70
     0
  9
$ATTREQ
 70
     1
  9
$HANDLING
 70
     1
  9
$HANDSEED
  5
1081
  9
$SURFTAB1
 70
     6
  9
$SURFTAB2
 70
     6
  9
$SURFTYPE
 70
     6
  9
$SURFU
 70
     6
  9
$SURFV
 70
     6
  9
$UCSNAME
  2

  9
$UCSORG
 10
0.0
 20
0.0
 30
0.0
  9
$UCSXDIR
 10
1.0
 20
0.0
 30
0.0
  9
$UCSYDIR
 10
0.0
 20
1.0
 30
0.0
  9
$PUCSNAME
  2

  9
$PUCSORG
 10
0.0
 20
0.0
 30
0.0
  9
$PUCSXDIR
 10
1.0
 20
0.0
 30
0.0
  9
$PUCSYDIR
 10
0.0
 20
1.0
 30
0.0
  9
$USERI1
 70
     0
  9
$USERI2
 70
     0
  9
$USERI3
 70
     0
  9
$USERI4
 70
     0
  9
$USERI5
 70
     0
  9
$USERR1
 40
0.0
  9
$USERR2
 40
0.0
  9
$USERR3
 40
0.0
  9
$USERR4
 40
0.0
  9
$USERR5
 40
0.0
  9
$WORLDVIEW
 70
     1
  9
$SHADEDGE
 70
     3
  9
$SHADEDIF
 70
    70
  9
$TILEMODE
 70
     1
  9
$MAXACTVP
 70
    64
  9
$PLIMCHECK
 70
     0
  9
$PEXTMIN
 10
0.0
 20
0.0
 30
0.0
  9
$PEXTMAX
 10
0.0
 20
0.0
 30
0.0
  9
$PLIMMIN
 10
0.0
 20
0.0
  9
$PLIMMAX
 10
12.0
 20
9.0
  9
$UNITMODE
 70
     0
  9
$VISRETAIN
 70
     1
  9
$PLINEGEN
 70
     0
  9
$PSLTSCALE
 70
     1
  0
ENDSEC
  0
SECTION
  2
TABLES
  0
TABLE
  2
VPORT
 70
     4
  0
VPORT
  2
*ACTIVE
 70
     0
 10
0.0
 20
0.0
 11
1.0
 21
1.0
 12
1040.0223882974301
 22
1611.4037331052871
 13
0.0
 23
0.0
 14
10.0
 24
10.0
 15
10.0
 25
10.0
 16
0.0
 26
0.0
 36
1.0
 17
0.0
 27
0.0
 37
0.0
 40
320.67535540103438
 41
1.8153241650294689
 42
50.0
 43
0.0
 44
0.0
 50
0.0
 51
0.0
 71
     0
 72
  1000
 73
     1
 74
     3
 75
     0
 76
     0
 77
     0
 78
     0
  0
ENDTAB
  0
TABLE
  2
LTYPE
 70
     1
  0
LTYPE
  2
CONTINUOUS
 70
     0
  3
Solid line
 72
    65
 73
     0
 40
0.0
  0
ENDTAB
  0
TABLE
  2
LAYER
 70
     2
  0
LAYER
  2
0
 70
     0
 62
     7
  6
CONTINUOUS
  0
LAYER
  2
DEFPOINTS
 70
     0
 62
     7
  6
CONTINUOUS
  0
ENDTAB
  0
TABLE
  2
STYLE
 70
     1
  0
STYLE
  2
STANDARD
 70
     0
 40
0.0
 41
1.0
 50
0.0
 71
     0
 42
2.5
  3
txt
  4

  0
ENDTAB
  0
TABLE
  2
VIEW
 70
     0
  0
ENDTAB
  0
TABLE
  2
UCS
 70
     0
  0
ENDTAB
  0
TABLE
  2
APPID
 70
     1
  0
APPID
  2
ACAD
 70
     0
  0
ENDTAB
  0
TABLE
  2
DIMSTYLE
 70
     1
  0
DIMSTYLE
  2
ISO-25
 70
     0
  3

  4

  5

  6

  7

 40
1.0
 41
2.5
 42
0.625
 43
3.75
 44
1.25
 45
0.0
 46
0.0
 47
0.0
 48
0.0
140
2.5
141
2.5
142
0.0
143
0.03937007874016
144
1.0
145
0.0
146
1.0
147
0.625
 71
     0
 72
     0
 73
     0
 74
     0
 75
     0
 76
     0
 77
     1
 78
     8
170
     0
171
     3
172
     1
173
     0
174
     0
175
     0
176
     0
177
     0
178
     0
  0
ENDTAB
  0
ENDSEC
  0
SECTION
  2
BLOCKS
  0
BLOCK
  8
0
  2
$MODEL_SPACE
 70
     0
 10
0.0
 20
0.0
 30
0.0
  3
$MODEL_SPACE
  1

  0
ENDBLK
  5
C4D
  8
0
  0
BLOCK
 67
     1
  8
0
  2
$PAPER_SPACE
 70
     0
 10
0.0
 20
0.0
 30
0.0
  3
$PAPER_SPACE
  1

  0
ENDBLK
  5
C49
 67
     1
  8
0
  0
BLOCK
  8
0
 62
     1
  2
*D2
 70
     1
 10
0.0
 20
0.0
 30
0.0
  3
*D2
  1

  0
LINE
  5
21E
  8
0
 62
     0
 10
936.81611594221272
 20
1120.860257196942
 30
0.0
 11
936.81611594221272
 21
1224.3892382750651
 31
0.0
  0
LINE
  5
21F
  8
0
 62
     0
 10
1749.283506101727
 20
1120.860257196942
 30
0.0
 11
1749.283506101727
 21
1224.3892382750651
 31
0.0
  0
LINE
  5
220
  8
0
 62
     0
 10
939.31611594221238
 20
1223.1392382750651
 30
0.0
 11
1746.7835061017281
 21
1223.1392382750651
 31
0.0
  0
SOLID
  5
221
  8
0
 62
     0
 10
939.31611594221238
 20
1223.555904941732
 30
0.0
 11
939.31611594221238
 21
1222.7225716083981
 31
0.0
 12
936.81611594221272
 22
1223.1392382750651
 32
0.0
 13
936.81611594221272
 23
1223.1392382750651
 33
0.0
  0
SOLID
  5
222
  8
0
 62
     0
 10
1746.7835061017281
 20
1223.555904941732
 30
0.0
 11
1746.7835061017281
 21
1222.7225716083981
 31
0.0
 12
1749.283506101727
 22
1223.1392382750651
 32
0.0
 13
1749.283506101727
 23
1223.1392382750651
 33
0.0
  0
INSERT
  5
223
  8
0
 62
     1
  2
*U3
 10
0.0
 20
0.0
 30
0.0
  0
POINT
  5
224
  8
DEFPOINTS
 62
     0
 10
936.81611594221272
 20
1120.235257196942
 30
0.0
  0
POINT
  5
225
  8
DEFPOINTS
 62
     0
 10
1749.283506101727
 20
1120.235257196942
 30
0.0
  0
POINT
  5
226
  8
DEFPOINTS
 62
     0
 10
1749.283506101727
 20
1223.1392382750651
 30
0.0
  0
ENDBLK
  5
21C
  8
0
 62
     1
  0
BLOCK
  8
0
 62
     1
  2
*U3
 70
     1
 10
0.0
 20
0.0
 30
0.0
  3
*U3
  1

  0
TEXT
  5
A6D
  8
0
 62
     0
 10
1337.008144355304
 20
1224.180904941732
 30
0.0
 40
2.5
  1
812,47
  0
ENDBLK
  5
A6F
  8
0
 62
     1
  0
BLOCK
  8
0
 62
     1
  2
*D4
 70
     1
 10
0.0
 20
0.0
 30
0.0
  3
*D4
  1

  0
LINE
  5
5E0
  8
0
 62
     0
 10
925.4841736020395
 20
1683.378539512232
 30
0.0
 11
925.4841736020395
 21
1682.0789669289591
 31
0.0
  0
LINE
  5
5E1
  8
0
 62
     0
 10
928.33528310711824
 20
1683.339826765616
 30
0.0
 11
928.33528310711824
 21
1682.0789669289591
 31
0.0
  0
LINE
  5
5E2
  8
0
 62
     0
 10
922.98417360203973
 20
1683.3289669289591
 30
0.0
 11
920.48417360203962
 21
1683.3289669289591
 31
0.0
  0
LINE
  5
5E3
  8
0
 62
     0
 10
930.83528310711802
 20
1683.3289669289591
 30
0.0
 11
942.50194977378476
 21
1683.3289669289591
 31
0.0
  0
LINE
  5
5E4
  8
0
 62
     0
 10
925.4841736020395
 20
1683.3289669289591
 30
0.0
 11
928.33528310711824
 21
1683.3289669289591
 31
0.0
  0
SOLID
  5
5E5
  8
0
 62
     0
 10
922.98417360203973
 20
1683.7456335956249
 30
0.0
 11
922.98417360203973
 21
1682.912300262293
 31
0.0
 12
925.4841736020395
 22
1683.3289669289591
 32
0.0
 13
925.4841736020395
 23
1683.3289669289591
 33
0.0
  0
SOLID
  5
5E6
  8
0
 62
     0
 10
930.83528310711802
 20
1683.7456335956249
 30
0.0
 11
930.83528310711802
 21
1682.912300262293
 31
0.0
 12
928.33528310711824
 22
1683.3289669289591
 32
0.0
 13
928.33528310711824
 23
1683.3289669289591
 33
0.0
  0
INSERT
  5
5E7
  8
0
 62
     1
  2
*U5
 10
0.0
 20
0.0
 30
0.0
  0
POINT
  5
5E8
  8
DEFPOINTS
 62
     0
 10
925.4841736020395
 20
1684.003539512232
 30
0.0
  0
POINT
  5
5E9
  8
DEFPOINTS
 62
     0
 10
928.33528310711824
 20
1683.964826765616
 30
0.0
  0
POINT
  5
5EA
  8
DEFPOINTS
 62
     0
 10
928.33528310711824
 20
1683.3289669289591
 30
0.0
  0
ENDBLK
  5
5DE
  8
0
 62
     1
  0
BLOCK
  8
0
 62
     1
  2
*U5
 70
     1
 10
0.0
 20
0.0
 30
0.0
  3
*U5
  1

  0
TEXT
  5
A7E
  8
0
 62
     0
 10
933.96028310711802
 20
1684.370633595626
 30
0.0
 40
2.5
  1
2,85
  0
ENDBLK
  5
A80
  8
0
 62
     1
  0
BLOCK
  8
0
 62
     1
  2
*D6
 70
     1
 10
0.0
 20
0.0
 30
0.0
  3
*D6
  1

  0
LINE
  5
62D
  8
0
 62
     0
 10
899.86688402678408
 20
1605.6429416440151
 30
0.0
 11
899.27445730858039
 21
1603.8538319203581
 31
0.0
  0
LINE
  5
62E
  8
0
 62
     0
 10
902.74421392457714
 20
1604.6901733000741
 30
0.0
 11
902.15178720637357
 21
1602.9010635764159
 31
0.0
  0
LINE
  5
62F
  8
0
 62
     0
 10
897.29411465258579
 20
1605.826328552763
 30
0.0
 11
894.92084187482817
 21
1606.612188796289
 31
0.0
  0
LINE
  5
630
  8
0
 62
     0
 10
904.91799010589432
 20
1603.3018397217679
 30
0.0
 11
915.59771760580281
 21
1599.7654686259
 31
0.0
  0
LINE
  5
631
  8
0
 62
     0
 10
899.66738743034364
 20
1605.0404683092361
 30
0.0
 11
902.5447173281367
 21
1604.0876999652951
 31
0.0
  0
SOLID
  5
632
  8
0
 62
     0
 10
897.42509135984051
 20
1606.2218740157221
 30
0.0
 11
897.16313794533153
 21
1605.4307830898031
 31
0.0
 12
899.66738743034364
 22
1605.0404683092361
 32
0.0
 13
899.66738743034364
 23
1605.0404683092361
 33
0.0
  0
SOLID
  5
633
  8
0
 62
     0
 10
905.04896681314847
 20
1603.6973851847281
 30
0.0
 11
904.78701339863983
 21
1602.9062942588091
 31
0.0
 12
902.5447173281367
 22
1604.0876999652951
 32
0.0
 13
902.5447173281367
 23
1604.0876999652951
 33
0.0
  0
INSERT
  5
634
  8
0
 62
     1
  2
*U7
 10
0.0
 20
0.0
 30
0.0
  0
POINT
  5
635
  8
DEFPOINTS
 62
     0
 10
900.06334908766576
 20
1606.236259838455
 30
0.0
  0
POINT
  5
636
  8
DEFPOINTS
 62
     0
 10
902.94067898545882
 20
1605.2834914945131
 30
0.0
  0
POINT
  5
637
  8
DEFPOINTS
 62
     0
 10
902.5447173281367
 20
1604.0876999652951
 30
0.0
  0
ENDBLK
  5
5FE
  8
0
 62
     1
  0
BLOCK
  8
0
 62
     1
  2
*U7
 70
     1
 10
0.0
 20
0.0
 30
0.0
  3
*U7
  1

  0
TEXT
  5
ADA
  8
0
 62
     0
 10
908.21202284622723
 20
1603.308378074759
 30
0.0
 40
2.5
  1
3,03
 50
341.67877789715112
  0
ENDBLK
  5
ADC
  8
0
 62
     1
  0
BLOCK
  8
0
 62
     1
  2
*D8
 70
     1
 10
0.0
 20
0.0
 30
0.0
  3
*D8
  1

  0
LINE
  5
84C
  8
0
 62
     0
 10
890.7470222936646
 20
1694.20157160804
 30
0.0
 11
890.7470222936646
 21
1715.438521768119
 31
0.0
  0
LINE
  5
84D
  8
0
 62
     0
 10
1119.2665676483191
 20
1694.20157160804
 30
0.0
 11
1119.2665676483191
 21
1715.438521768119
 31
0.0
  0
LINE
  5
84E
  8
0
 62
     0
 10
893.24702229366449
 20
1714.188521768119
 30
0.0
 11
1116.76656764832
 21
1714.188521768119
 31
0.0
  0
SOLID
  5
84F
  8
0
 62
     0
 10
893.24702229366449
 20
1714.605188434786
 30
0.0
 11
893.24702229366449
 21
1713.771855101452
 31
0.0
 12
890.7470222936646
 22
1714.188521768119
 32
0.0
 13
890.7470222936646
 23
1714.188521768119
 33
0.0
  0
SOLID
  5
850
  8
0
 62
     0
 10
1116.76656764832
 20
1714.605188434786
 30
0.0
 11
1116.76656764832
 21
1713.771855101452
 31
0.0
 12
1119.2665676483191
 22
1714.188521768119
 32
0.0
 13
1119.2665676483191
 23
1714.188521768119
 33
0.0
  0
INSERT
  5
851
  8
0
 62
     1
  2
*U9
 10
0.0
 20
0.0
 30
0.0
  0
POINT
  5
852
  8
DEFPOINTS
 62
     0
 10
890.7470222936646
 20
1693.57657160804
 30
0.0
  0
POINT
  5
853
  8
DEFPOINTS
 62
     0
 10
1119.2665676483191
 20
1693.57657160804
 30
0.0
  0
POINT
  5
854
  8
DEFPOINTS
 62
     0
 10
1119.2665676483191
 20
1714.188521768119
 30
0.0
  0
ENDBLK
  5
84A
  8
0
 62
     1
  0
BLOCK
  8
0
 62
     1
  2
*U9
 70
     1
 10
0.0
 20
0.0
 30
0.0
  3
*U9
  1

  0
TEXT
  5
C25
  8
0
 62
     0
 10
998.54846163765899
 20
1715.230188434786
 30
0.0
 40
2.5
  1
228,52
  0
ENDBLK
  5
C27
  8
0
 62
     1
  0
BLOCK
  8
0
 62
     1
  2
*D10
 70
     1
 10
0.0
 20
0.0
 30
0.0
  3
*D10
  1

  0
LINE
  5
864
  8
0
 62
     0
 10
1119.235901143609
 20
1697.3194816870739
 30
0.0
 11
1144.556493496812
 21
1697.3194816870739
 31
0.0
  0
LINE
  5
865
  8
0
 62
     0
 10
1119.235901143606
 20
1503.4490020676039
 30
0.0
 11
1144.556493496812
 21
1503.4490020676039
 31
0.0
  0
LINE
  5
866
  8
0
 62
     0
 10
1143.306493496812
 20
1694.8194816870739
 30
0.0
 11
1143.306493496812
 21
1505.9490020676039
 31
0.0
  0
SOLID
  5
867
  8
0
 62
     0
 10
1142.889826830145
 20
1694.8194816870739
 30
0.0
 11
1143.723160163479
 21
1694.8194816870739
 31
0.0
 12
1143.306493496812
 22
1697.3194816870739
 32
0.0
 13
1143.306493496812
 23
1697.3194816870739
 33
0.0
  0
SOLID
  5
868
  8
0
 62
     0
 10
1142.889826830145
 20
1505.9490020676039
 30
0.0
 11
1143.723160163478
 21
1505.9490020676039
 31
0.0
 12
1143.306493496812
 22
1503.4490020676039
 32
0.0
 13
1143.306493496812
 23
1503.4490020676039
 33
0.0
  0
INSERT
  5
869
  8
0
 62
     1
  2
*U11
 10
0.0
 20
0.0
 30
0.0
  0
POINT
  5
86A
  8
DEFPOINTS
 62
     0
 10
1118.610901143609
 20
1697.3194816870739
 30
0.0
  0
POINT
  5
86B
  8
DEFPOINTS
 62
     0
 10
1118.610901143606
 20
1503.4490020676039
 30
0.0
  0
POINT
  5
86C
  8
DEFPOINTS
 62
     0
 10
1143.306493496812
 20
1503.4490020676039
 30
0.0
  0
ENDBLK
  5
862
  8
0
 62
     1
  0
BLOCK
  8
0
 62
     1
  2
*U11
 70
     1
 10
0.0
 20
0.0
 30
0.0
  3
*U11
  1

  0
TEXT
  5
C29
  8
0
 62
     0
 10
1142.264826830145
 20
1594.342575210673
 30
0.0
 40
2.5
  1
193,87
 50
90.0
  0
ENDBLK
  5
C2B
  8
0
 62
     1
  0
BLOCK
  8
0
 62
     1
  2
*D12
 70
     1
 10
0.0
 20
0.0
 30
0.0
  3
*D12
  1

  0
LINE
  5
C6E
  8
0
 62
     0
 10
963.69857880462007
 20
1685.5870883537621
 30
0.0
 11
963.43815776059353
 21
1684.4903283467929
 31
0.0
  0
LINE
  5
C6F
  8
0
 62
     0
 10
965.28404622200856
 20
1685.2106257936
 30
0.0
 11
965.0236251779819
 21
1684.1138657866311
 31
0.0
  0
LINE
  5
C70
  8
0
 62
     0
 10
961.29456486810284
 20
1686.2840701094949
 30
0.0
 11
958.86219384902927
 21
1686.8616263626609
 31
0.0
  0
LINE
  5
C71
  8
0
 62
     0
 10
967.74477432363835
 20
1684.752495043002
 30
0.0
 11
982.7443956079253
 21
1681.1908981484801
 31
0.0
  0
LINE
  5
C72
  8
0
 62
     0
 10
963.72693588717641
 20
1685.7065138563289
 30
0.0
 11
965.31240330456478
 21
1685.330051296168
 31
0.0
  0
SOLID
  5
C73
  8
0
 62
     0
 10
961.39082424363062
 20
1686.689465279341
 30
0.0
 11
961.19830549257506
 21
1685.878674939649
 31
0.0
 12
963.72693588717641
 22
1685.7065138563289
 32
0.0
 13
963.72693588717641
 23
1685.7065138563289
 33
0.0
  0
SOLID
  5
C74
  8
0
 62
     0
 10
967.84103369916602
 20
1685.1578902128481
 30
0.0
 11
967.64851494811069
 21
1684.3470998731559
 31
0.0
 12
965.31240330456478
 22
1685.330051296168
 32
0.0
 13
965.31240330456478
 23
1685.330051296168
 33
0.0
  0
INSERT
  5
C75
  8
0
 62
     1
  2
*U14
 10
0.0
 20
0.0
 30
0.0
  0
POINT
  5
C76
  8
DEFPOINTS
 62
     0
 10
963.84296786791163
 20
1686.1951811085301
 30
0.0
  0
POINT
  5
C77
  8
DEFPOINTS
 62
     0
 10
965.42843528529977
 20
1685.818718548368
 30
0.0
  0
POINT
  5
C78
  8
DEFPOINTS
 62
     0
 10
965.31240330456478
 20
1685.330051296168
 30
0.0
  0
ENDBLK
  5
C7A
  8
0
 62
     1
  0
BLOCK
  8
0
 62
     1
  2
*D13
 70
     1
 10
0.0
 20
0.0
 30
0.0
  3
*D13
  1

  0
LINE
  5
C80
  8
0
 62
     0
 10
966.36736514808956
 20
1685.5478719951241
 30
0.0
 11
964.98411345566865
 21
1680.7275543913779
 31
0.0
  0
LINE
  5
C81
  8
0
 62
     0
 10
962.90012800838065
 20
1686.5428399693931
 30
0.0
 11
961.51687631595962
 21
1681.722522365646
 31
0.0
  0
LINE
  5
C82
  8
0
 62
     0
 10
967.73191727070355
 20
1681.2394862169961
 30
0.0
 11
970.13493305297834
 21
1680.5499101514761
 31
0.0
  0
LINE
  5
C83
  8
0
 62
     0
 10
959.45864856644448
 20
1683.613606322303
 30
0.0
 11
944.23954861203617
 21
1687.9809214039269
 31
0.0
  0
LINE
  5
C84
  8
0
 62
     0
 10
965.32890148842841
 20
1681.929062282516
 30
0.0
 11
961.86166434871927
 21
1682.924030256783
 31
0.0
  0
SOLID
  5
C85
  8
0
 62
     0
 10
967.84684661495669
 20
1681.639988847375
 30
0.0
 11
967.61698792645018
 21
1680.8389835866169
 31
0.0
 12
965.32890148842841
 22
1681.929062282516
 32
0.0
 13
965.32890148842841
 23
1681.929062282516
 33
0.0
  0
SOLID
  5
C86
  8
0
 62
     0
 10
959.57357791069751
 20
1684.0141089526819
 30
0.0
 11
959.34371922219111
 21
1683.2131036919241
 31
0.0
 12
961.86166434871927
 22
1682.924030256783
 32
0.0
 13
961.86166434871927
 23
1682.924030256783
 33
0.0
  0
INSERT
  5
C87
  8
0
 62
     1
  2
*U15
 10
0.0
 20
0.0
 30
0.0
  0
POINT
  5
C88
  8
DEFPOINTS
 62
     0
 10
966.53975916446961
 20
1686.148625940694
 30
0.0
  0
POINT
  5
C89
  8
DEFPOINTS
 62
     0
 10
963.07252202476047
 20
1687.143593914961
 30
0.0
  0
POINT
  5
C8A
  8
DEFPOINTS
 62
     0
 10
961.86166434871927
 20
1682.924030256783
 30
0.0
  0
ENDBLK
  5
C8C
  8
0
 62
     1
  0
BLOCK
  8
0
 62
     1
  2
*U14
 70
     1
 10
0.0
 20
0.0
 30
0.0
  3
*U14
  1

  0
TEXT
  5
EDB
  8
0
 62
     0
 10
970.9296271607717
 20
1684.6386424813129
 30
0.0
 40
2.5
  1
1.6295
 50
346.64272186401831
  0
ENDBLK
  5
EDD
  8
0
 62
     1
  0
BLOCK
  8
0
 62
     1
  2
*U15
 70
     1
 10
0.0
 20
0.0
 30
0.0
  3
*U15
  1

  0
TEXT
  5
EDF
  8
0
 62
     0
 10
945.01269657398495
 20
1688.409281333116
 30
0.0
 40
2.5
  1
3.6072
 50
343.98849175283539
  0
ENDBLK
  5
EE1
  8
0
 62
     1
  0
ENDSEC
  0
SECTION
  2
ENTITIES
  0
LINE
  5
18B
  8
0
 62
     1
 10
911.7951765366978
 20
1628.0242429291361
 30
0.0
 11
911.7951765366978
 21
1618.0578076400529
 31
0.0
  0
ARC
  5
18C
  8
0
 62
     1
 10
516.58409786367838
 20
1416.5728555843359
 30
0.0
 40
443.60791540592089
 50
27.013217019485531
 51
28.680735931992309
  0
ARC
  5
199
  8
0
 62
     1
 10
901.73979215428074
 20
1647.503327701477
 30
0.0
 40
10.41999927714286
 50
326.32969381517341
 51
344.798179894486
  0
ARC
  5
19E
  8
0
 62
     1
 10
906.07758384401518
 20
1644.6136271208429
 30
0.0
 40
5.207820635802018
 50
170.85773437711131
 51
326.32969381517341
  0
ARC
  5
19F
  8
0
 62
     1
 10
905.17677354863974
 20
1643.7408435034311
 30
0.0
 40
0.9211577390364043
 50
149.6926401802547
 51
314.3061796526024
  0
ARC
  5
1A0
  8
0
 62
     1
 10
902.77411746851249
 20
1645.145256403204
 30
0.0
 40
1.8618499563218001
 50
329.6926401802549
 51
170.85773437711131
  0
ARC
  5
1A1
  8
0
 62
     1
 10
902.0190859433194
 20
1646.9759480869429
 30
0.0
 40
5.4418758986936258
 50
314.3061796526024
 51
210.8698932542647
  0
LINE
  5
1A2
  8
0
 62
     1
 10
911.79517653669757
 20
1632.5368665961321
 30
0.0
 11
911.7951765366978
 21
1644.7709972204609
 31
0.0
  0
ARC
  5
1A3
  8
0
 62
     1
 10
516.58409786367838
 20
1416.5728555843359
 30
0.0
 40
443.60791540592089
 50
29.223869952207188
 51
30.869893254264721
  0
POLYLINE
  5
1C3
  8
0
 62
     1
 66
     1
 10
0.0
 20
0.0
 30
0.0
 70
     1
  0
VERTEX
  5
EB3
  8
0
 62
     1
 10
936.81611594221272
 20
1645.4864881639439
 30
0.0
  0
VERTEX
  5
EB4
  8
0
 62
     1
 10
1074.816115942212
 20
1645.4864881639439
 30
0.0
  0
VERTEX
  5
EB5
  8
0
 62
     1
 10
1074.816115942212
 20
1556.27100610107
 30
0.0
  0
VERTEX
  5
EB6
  8
0
 62
     1
 10
936.81611594221272
 20
1556.27100610107
 30
0.0
  0
SEQEND
  5
EB7
  8
0
 62
     1
  0
POLYLINE
  5
1CC
  8
0
 62
     1
 66
     1
 10
0.0
 20
0.0
 30
0.0
  0
VERTEX
  5
EB8
  8
0
 62
     1
 10
962.25543921508506
 20
1668.2460161751369
 30
0.0
  0
VERTEX
  5
EB9
  8
0
 62
     1
 10
945.51442570795791
 20
1668.2460161751369
 30
0.0
 42
0.0807588582061847
  0
VERTEX
  5
EBA
  8
0
 62
     1
 10
949.59523114281956
 20
1670.1002495789519
 30
0.0
 42
0.8059762631926892
  0
VERTEX
  5
EBB
  8
0
 62
     1
 10
944.61630291693689
 20
1682.800875255266
 30
0.0
 42
1.204132615328624
  0
VERTEX
  5
EBC
  8
0
 62
     1
 10
946.27211022633048
 20
1678.1826875546469
 30
0.0
 42
-0.873997737137545
  0
VERTEX
  5
EBD
  8
0
 62
     1
 10
947.77869230313024
 20
1676.254391367162
 30
0.0
 42
-2.0631682127357238
  0
VERTEX
  5
EBE
  8
0
 62
     1
 10
946.30149112583831
 20
1687.609646162135
 30
0.0
 42
0.007336262336506
  0
VERTEX
  5
EBF
  8
0
 62
     1
 10
961.40650893674547
 20
1678.878480788642
 30
0.0
  0
SEQEND
  5
EC0
  8
0
 62
     1
  0
POLYLINE
  5
1CE
  8
0
 62
     1
 66
     1
 10
0.0
 20
0.0
 30
0.0
  0
VERTEX
  5
EC1
  8
0
 62
     1
 10
967.59279874999118
 20
1668.2460161751369
 30
0.0
  0
VERTEX
  5
EC2
  8
0
 62
     1
 10
981.3185958128862
 20
1668.2460161751369
 30
0.0
 42
-0.0074479519804608
  0
VERTEX
  5
EC3
  8
0
 62
     1
 10
965.66007678518315
 20
1676.525117669762
 30
0.0
  0
SEQEND
  5
EC4
  8
0
 62
     1
  0
POLYLINE
  5
22A
  8
0
 62
     1
 66
     1
 10
0.0
 20
0.0
 30
0.0
 70
     1
  0
VERTEX
  5
EC5
  8
0
 62
     1
 10
930.81611594221272
 20
1651.4864881639439
 30
0.0
  0
VERTEX
  5
EC6
  8
0
 62
     1
 10
1080.816115942212
 20
1651.4864881639439
 30
0.0
  0
VERTEX
  5
EC7
  8
0
 62
     1
 10
1080.816115942212
 20
1550.27100610107
 30
0.0
  0
VERTEX
  5
EC8
  8
0
 62
     1
 10
930.81611594221272
 20
1550.27100610107
 30
0.0
  0
SEQEND
  5
EC9
  8
0
 62
     1
  0
POLYLINE
  5
434
  8
0
 62
     1
 66
     1
 10
0.0
 20
0.0
 30
0.0
 70
     1
  0
VERTEX
  5
ECA
  8
0
 62
     1
 10
910.1026742955612
 20
1658.6778971234439
 30
0.0
 42
-0.6288324604220672
  0
VERTEX
  5
ECB
  8
0
 62
     1
 10
911.7951765366978
 20
1657.8642975570081
 30
0.0
  0
VERTEX
  5
ECC
  8
0
 62
     1
 10
911.7951765366978
 20
1650.2356581824929
 30
0.0
 42
0.3445911467952724
  0
VERTEX
  5
ECD
  8
0
 62
     1
 10
901.51142444900893
 20
1657.9208241918459
 30
0.0
 42
0.3541055961739709
  0
VERTEX
  5
ECE
  8
0
 62
     1
 10
906.49150331926603
 20
1665.442295544347
 30
0.0
 42
-0.8152792493405748
  0
VERTEX
  5
ECF
  8
0
 62
     1
 10
910.38623585520781
 20
1664.925508001777
 30
0.0
 42
-0.2011871423749923
  0
VERTEX
  5
ED0
  8
0
 62
     1
 10
908.9049447642368
 20
1660.5462753836759
 30
0.0
 42
0.8446139895024035
  0
SEQEND
  5
ED1
  8
0
 62
     1
  0
ARC
  5
C8D
  8
0
 62
     1
 10
996.6394912728
 20
1676.3414727978579
 30
0.0
 40
35.324204928603933
 50
175.88143292151611
 51
193.2485586785576
  0
ARC
  5
C8E
  8
0
 62
     1
 10
994.03300205431481
 20
1678.783515880061
 30
0.0
 40
28.462664155086689
 50
184.5509741096372
 51
201.72929896634989
  0
POLYLINE
  5
C92
  8
0
 62
     1
 66
     1
 10
0.0
 20
0.0
 30
0.0
  0
VERTEX
  5
EE2
  8
0
 62
     1
 10
1005.006794970992
 20
1683.6936303779271
 30
0.0
 42
0.3929861459295368
  0
VERTEX
  5
EE3
  8
0
 62
     1
 10
1003.831264728361
 20
1682.600943714948
 30
0.0
  0
VERTEX
  5
EE4
  8
0
 62
     1
 10
1003.618920945206
 20
1679.6978867645059
 30
0.0
 42
-0.5238125273263822
  0
VERTEX
  5
EE5
  8
0
 62
     1
 10
1002.09688859932
 20
1678.8004702039771
 30
0.0
  0
VERTEX
  5
EE6
  8
0
 62
     1
 10
998.99190972981683
 20
1680.233060452261
 30
0.0
 42
0.7860741302757373
  0
VERTEX
  5
EE7
  8
0
 62
     1
 10
997.21505636793529
 20
1678.4443746104091
 30
0.0
  0
VERTEX
  5
EE8
  8
0
 62
     1
 10
998.10870359170838
 20
1676.700517588142
 30
0.0
 42
-0.5957944052009379
  0
VERTEX
  5
EE9
  8
0
 62
     1
 10
996.41920125461718
 20
1674.2367004132821
 30
0.0
 42
-0.0072888841047084
  0
VERTEX
  5
EEA
  8
0
 62
     1
 10
993.85472362868666
 20
1674.540482398425
 30
0.0
 42
-0.2210231514313464
  0
VERTEX
  5
EEB
  8
0
 62
     1
 10
992.64847940273364
 20
1675.3046873091421
 30
0.0
 42
-0.1236508490617038
  0
VERTEX
  5
EEC
  8
0
 62
     1
 10
989.93322455350972
 20
1683.3322922147111
 30
0.0
 42
-0.7895808931684885
  0
VERTEX
  5
EED
  8
0
 62
     1
 10
994.12962081076967
 20
1684.6959378839331
 30
0.0
 42
0.32275873950656
  0
VERTEX
  5
EEE
  8
0
 62
     1
 10
997.65814894155994
 20
1683.8235676007059
 30
0.0
 42
0.7268305791271775
  0
VERTEX
  5
EEF
  8
0
 62
     1
 10
997.45189368763454
 20
1691.440637502641
 30
0.0
 42
0.3503110506010096
  0
VERTEX
  5
EF0
  8
0
 62
     1
 10
986.55463006014463
 20
1687.75125081282
 30
0.0
 42
0.2009690725934404
  0
VERTEX
  5
EF1
  8
0
 62
     1
 10
984.95492872237196
 20
1678.6393270549411
 30
0.0
 42
-0.5583064663473538
  0
VERTEX
  5
EF2
  8
0
 62
     1
 10
982.88949572857541
 20
1676.615337833498
 30
0.0
 42
-0.0455043968428221
  0
VERTEX
  5
EF3
  8
0
 62
     1
 10
965.81934051068833
 20
1682.5401836996789
 30
0.0
 42
-0.0367573320334061
  0
VERTEX
  5
EF4
  8
0
 62
     1
 10
966.67358085227193
 20
1686.631147516061
 30
0.0
 42
0.429127518857437
  0
VERTEX
  5
EF5
  8
0
 62
     1
 10
971.68870809438465
 20
1690.0439016564881
 30
0.0
 42
-0.4328043718060758
  0
VERTEX
  5
EF6
  8
0
 62
     1
 10
973.13903592914698
 20
1691.017733487319
 30
0.0
 42
-0.1882157243904117
  0
VERTEX
  5
EF7
  8
0
 62
     1
 10
975.07269298514495
 20
1689.701388464593
 30
0.0
 42
0.6968210998765081
  0
VERTEX
  5
EF8
  8
0
 62
     1
 10
977.81135886943514
 20
1690.393127811557
 30
0.0
 42
0.4688728132899647
  0
VERTEX
  5
EF9
  8
0
 62
     1
 10
973.33708626757993
 20
1695.0012257917761
 30
0.0
 42
0.3433657700521283
  0
VERTEX
  5
EFA
  8
0
 62
     1
 10
971.19677860842705
 20
1698.362517570398
 30
0.0
 42
-0.1966026359636621
  0
VERTEX
  5
EFB
  8
0
 62
     1
 10
970.76299759631627
 20
1695.2297346723319
 30
0.0
 42
0.1698168759988677
  0
VERTEX
  5
EFC
  8
0
 62
     1
 10
965.35386211146783
 20
1694.8347002158901
 30
0.0
 42
0.4928768094636239
  0
VERTEX
  5
EFD
  8
0
 62
     1
 10
963.76072300046724
 20
1689.2560401824919
 30
0.0
 42
0.0370650916333454
  0
VERTEX
  5
EFE
  8
0
 62
     1
 10
962.2142434211413
 20
1684.2599173540871
 30
0.0
 42
-0.0288572140364113
  0
VERTEX
  5
EFF
  8
0
 62
     1
 10
952.27423733895534
 20
1689.989235760896
 30
0.0
 42
0.1045345387865446
  0
VERTEX
  5
F00
  8
0
 62
     1
 10
942.16099997771164
 20
1693.9381527439341
 30
0.0
 42
0.4070124543656811
  0
VERTEX
  5
F01
  8
0
 62
     1
 10
928.22415240245357
 20
1682.632288814252
 30
0.0
 42
0.3747949949182086
  0
VERTEX
  5
F02
  8
0
 62
     1
 10
938.19004199625533
 20
1668.2460161751369
 30
0.0
  0
VERTEX
  5
F03
  8
0
 62
     1
 10
927.96523896357644
 20
1668.2460161751369
 30
0.0
 42
-0.7017511399790453
  0
VERTEX
  5
F04
  8
0
 62
     1
 10
927.07212029265361
 20
1670.715734638108
 30
0.0
 42
1.0778639065400419
  0
VERTEX
  5
F05
  8
0
 62
     1
 10
925.05439242333205
 20
1672.8011520415671
 30
0.0
 42
-0.2327501277754933
  0
VERTEX
  5
F06
  8
0
 62
     1
 10
918.50097116619315
 20
1670.1344447986071
 30
0.0
 42
-0.8152792493405732
  0
VERTEX
  5
F07
  8
0
 62
     1
 10
917.80831149608775
 20
1675.354625107301
 30
0.0
 42
0.3050868339715924
  0
VERTEX
  5
F08
  8
0
 62
     1
 10
924.92499568176117
 20
1683.9769895945531
 30
0.0
  0
VERTEX
  5
F09
  8
0
 62
     1
 10
923.91116462920229
 20
1683.928852624171
 30
0.0
 42
-0.609829013849865
  0
VERTEX
  5
F0A
  8
0
 62
     1
 10
923.38601213425022
 20
1684.9485910625301
 30
0.0
 42
0.3423436296930153
  0
VERTEX
  5
F0B
  8
0
 62
     1
 10
921.20400375820805
 20
1693.597568388783
 30
0.0
 42
-0.3810394871695037
  0
VERTEX
  5
F0C
  8
0
 62
     1
 10
919.84563699411808
 20
1690.17823327921
 30
0.0
 42
0.3051947763611808
  0
VERTEX
  5
F0D
  8
0
 62
     1
 10
913.40191547829681
 20
1686.7728886367879
 30
0.0
  0
VERTEX
  5
F0E
  8
0
 62
     1
 10
912.87665035714281
 20
1683.3349937718781
 30
0.0
 42
-0.7129525542375113
  0
VERTEX
  5
F0F
  8
0
 62
     1
 10
908.40451233900478
 20
1683.841801370713
 30
0.0
 42
0.1931456724405297
  0
VERTEX
  5
F10
  8
0
 62
     1
 10
902.96552672078144
 20
1691.778102140755
 30
0.0
 42
-0.2934781401848395
  0
VERTEX
  5
F11
  8
0
 62
     1
 10
891.40268879837845
 20
1697.3194816870689
 30
0.0
 42
0.2306770396830056
  0
VERTEX
  5
F12
  8
0
 62
     1
 10
892.42899513757936
 20
1687.7274817512209
 30
0.0
 42
0.6011139644719405
  0
VERTEX
  5
F13
  8
0
 62
     1
 10
901.32168299478474
 20
1676.0753380414999
 30
0.0
 42
-1.0072294547152061
  0
VERTEX
  5
F14
  8
0
 62
     1
 10
901.78763443945695
 20
1673.1196719952079
 30
0.0
 42
0.2191198685172282
  0
VERTEX
  5
F15
  8
0
 62
     1
 10
894.04975622121435
 20
1668.043664418107
 30
0.0
 42
0.9057798105208814
  0
VERTEX
  5
F16
  8
0
 62
     1
 10
897.81636607291898
 20
1665.1348680069821
 30
0.0
 42
0.2267237684572028
  0
VERTEX
  5
F17
  8
0
 62
     1
 10
895.7416127560092
 20
1658.6686636199579
 30
0.0
 42
-0.4351943590858668
  0
VERTEX
  5
F18
  8
0
 62
     1
 10
894.50037788599445
 20
1657.1509560130719
 30
0.0
 42
1.093286587052942
  0
VERTEX
  5
F19
  8
0
 62
     1
 10
894.85041386058413
 20
1654.886995884061
 30
0.0
 42
0.2278908259868238
  0
VERTEX
  5
F1A
  8
0
 62
     1
 10
892.62648995977975
 20
1647.272959897251
 30
0.0
 42
0.104534538786634
  0
VERTEX
  5
F1B
  8
0
 62
     1
 10
895.57274364185389
 20
1639.727558729985
 30
0.0
 42
-0.0281482776483108
  0
VERTEX
  5
F1C
  8
0
 62
     1
 10
899.75273874836387
 20
1632.4992194630399
 30
0.0
 42
0.0260062630527825
  0
VERTEX
  5
F1D
  8
0
 62
     1
 10
897.22264313742176
 20
1631.732711774373
 30
0.0
 42
0.3497123096163168
  0
VERTEX
  5
F1E
  8
0
 62
     1
 10
893.4400704043843
 20
1630.2858446829509
 30
0.0
 42
0.1818650249490876
  0
VERTEX
  5
F1F
  8
0
 62
     1
 10
892.74762670027133
 20
1626.319180182008
 30
0.0
 42
-0.2103173117709406
  0
VERTEX
  5
F20
  8
0
 62
     1
 10
890.3481846881017
 20
1626.110739017598
 30
0.0
 42
0.3538467219927787
  0
VERTEX
  5
F21
  8
0
 62
     1
 10
892.91139543358724
 20
1624.188975819236
 30
0.0
 42
0.4552199156130235
  0
VERTEX
  5
F22
  8
0
 62
     1
 10
896.49741115144286
 20
1620.8605415288
 30
0.0
 42
0.6968210998762051
  0
VERTEX
  5
F23
  8
0
 62
     1
 10
897.07184475956535
 20
1623.1347821546331
 30
0.0
 42
-0.1882157243903857
  0
VERTEX
  5
F24
  8
0
 62
     1
 10
896.14167648017133
 20
1624.50116135284
 30
0.0
 42
-0.4328043718060585
  0
VERTEX
  5
F25
  8
0
 62
     1
 10
896.76505432687304
 20
1625.4295580369719
 30
0.0
 42
0.4050269614309935
  0
VERTEX
  5
F26
  8
0
 62
     1
 10
899.46050683999454
 20
1629.060651719049
 30
0.0
 42
-0.0216784663984917
  0
VERTEX
  5
F27
  8
0
 62
     1
 10
901.24213676448744
 20
1629.3736327096219
 30
0.0
 42
-0.0445862040270173
  0
VERTEX
  5
F28
  8
0
 62
     1
 10
905.55089617874285
 20
1616.8857724514919
 30
0.0
 42
-0.5583064663474222
  0
VERTEX
  5
F29
  8
0
 62
     1
 10
904.04081487752114
 20
1615.344770300999
 30
0.0
 42
0.2009690725934134
  0
VERTEX
  5
F2A
  8
0
 62
     1
 10
897.24248535129175
 20
1614.1512466141551
 30
0.0
 42
0.3503110506009408
  0
VERTEX
  5
F2B
  8
0
 62
     1
 10
894.48986503383196
 20
1606.020890056926
 30
0.0
 42
0.766494537245132
  0
VERTEX
  5
F2C
  8
0
 62
     1
 10
899.90190517055953
 20
1605.867004750158
 30
0.0
 42
0.2610296065807322
  0
VERTEX
  5
F2D
  8
0
 62
     1
 10
898.8319972029941
 20
1608.439108113653
 30
0.0
 42
-0.5648223619585467
  0
VERTEX
  5
F2E
  8
0
 62
     1
 10
900.53943312115484
 20
1611.630505735312
 30
0.0
 42
-0.1236508490618131
  0
VERTEX
  5
F2F
  8
0
 62
     1
 10
906.52876148963037
 20
1609.6046769747529
 30
0.0
 42
-0.2206601264145783
  0
VERTEX
  5
F30
  8
0
 62
     1
 10
907.09892833327945
 20
1608.704708323233
 30
0.0
 42
-0.0065361301726617
  0
VERTEX
  5
F31
  8
0
 62
     1
 10
907.32557751231354
 20
1606.7913731783101
 30
0.0
 42
-0.5957944052008283
  0
VERTEX
  5
F32
  8
0
 62
     1
 10
905.48734428164005
 20
1605.5308497226731
 30
0.0
  0
VERTEX
  5
F33
  8
0
 62
     1
 10
904.69565811691439
 20
1605.936552790168
 30
0.0
 42
0.7628382894591309
  0
VERTEX
  5
F34
  8
0
 62
     1
 10
903.00733484635987
 20
1604.5346709490609
 30
0.0
  0
VERTEX
  5
F35
  8
0
 62
     1
 10
903.9205873320376
 20
1602.5552984983919
 30
0.0
 42
-0.5238125273264643
  0
VERTEX
  5
F36
  8
0
 62
     1
 10
903.25103239908481
 20
1601.419722991852
 30
0.0
  0
VERTEX
  5
F37
  8
0
 62
     1
 10
901.0850860734862
 20
1601.261295084739
 30
0.0
 42
0.3929861459295379
  0
VERTEX
  5
F38
  8
0
 62
     1
 10
900.26984176270969
 20
1600.384241877337
 30
0.0
  0
SEQEND
  5
F39
  8
0
 62
     1
  0
ARC
  5
C98
  8
0
 62
     1
 10
905.85119870875064
 20
1607.8104316298229
 30
0.0
 40
25.430836764885068
 50
76.483161858558091
 51
94.786786723778206
  0
ARC
  5
C99
  8
0
 62
     1
 10
903.95897902239665
 20
1608.680719062253
 30
0.0
 40
20.870503277875411
 50
67.946784461392397
 51
85.036597512279798
  0
POLYLINE
  5
CAA
  8
0
 62
     1
 66
     1
 10
0.0
 20
0.0
 30
0.0
  0
VERTEX
  5
F3A
  8
0
 62
     1
 10
1005.006794970993
 20
1683.6936303779271
 30
0.0
 42
-0.3929861459295368
  0
VERTEX
  5
F3B
  8
0
 62
     1
 10
1006.182325213624
 20
1682.600943714948
 30
0.0
  0
VERTEX
  5
F3C
  8
0
 62
     1
 10
1006.394668996779
 20
1679.6978867645059
 30
0.0
 42
0.5238125273263822
  0
VERTEX
  5
F3D
  8
0
 62
     1
 10
1007.916701342665
 20
1678.8004702039771
 30
0.0
  0
VERTEX
  5
F3E
  8
0
 62
     1
 10
1011.021680212168
 20
1680.233060452261
 30
0.0
 42
-0.7860741302757373
  0
VERTEX
  5
F3F
  8
0
 62
     1
 10
1012.79853357405
 20
1678.4443746104091
 30
0.0
  0
VERTEX
  5
F40
  8
0
 62
     1
 10
1011.904886350277
 20
1676.700517588142
 30
0.0
 42
0.5957944052009379
  0
VERTEX
  5
F41
  8
0
 62
     1
 10
1013.594388687368
 20
1674.2367004132821
 30
0.0
 42
0.0072888841047084
  0
VERTEX
  5
F42
  8
0
 62
     1
 10
1016.1588663132979
 20
1674.540482398425
 30
0.0
 42
0.2210231514313464
  0
VERTEX
  5
F43
  8
0
 62
     1
 10
1017.365110539251
 20
1675.3046873091421
 30
0.0
 42
0.1236508490617038
  0
VERTEX
  5
F44
  8
0
 62
     1
 10
1020.080365388475
 20
1683.3322922147111
 30
0.0
 42
0.7895808931684885
  0
VERTEX
  5
F45
  8
0
 62
     1
 10
1015.8839691312151
 20
1684.6959378839331
 30
0.0
 42
-0.32275873950656
  0
VERTEX
  5
F46
  8
0
 62
     1
 10
1012.355441000425
 20
1683.8235676007059
 30
0.0
 42
-0.7268305791271775
  0
VERTEX
  5
F47
  8
0
 62
     1
 10
1012.56169625435
 20
1691.440637502641
 30
0.0
 42
-0.3503110506010096
  0
VERTEX
  5
F48
  8
0
 62
     1
 10
1023.45895988184
 20
1687.75125081282
 30
0.0
 42
-0.2009690725934404
  0
VERTEX
  5
F49
  8
0
 62
     1
 10
1025.058661219613
 20
1678.6393270549411
 30
0.0
 42
0.5583064663473538
  0
VERTEX
  5
F4A
  8
0
 62
     1
 10
1027.12409421341
 20
1676.615337833498
 30
0.0
 42
0.0455043968428221
  0
VERTEX
  5
F4B
  8
0
 62
     1
 10
1044.1942494312971
 20
1682.5401836996789
 30
0.0
 42
0.0367573320334061
  0
VERTEX
  5
F4C
  8
0
 62
     1
 10
1043.340009089713
 20
1686.631147516061
 30
0.0
 42
-0.429127518857437
  0
VERTEX
  5
F4D
  8
0
 62
     1
 10
1038.3248818476
 20
1690.0439016564881
 30
0.0
 42
0.4328043718060758
  0
VERTEX
  5
F4E
  8
0
 62
     1
 10
1036.874554012838
 20
1691.017733487319
 30
0.0
 42
0.1882157243904117
  0
VERTEX
  5
F4F
  8
0
 62
     1
 10
1034.9408969568401
 20
1689.701388464593
 30
0.0
 42
-0.6968210998765081
  0
VERTEX
  5
F50
  8
0
 62
     1
 10
1032.2022310725499
 20
1690.393127811557
 30
0.0
 42
-0.4688728132899647
  0
VERTEX
  5
F51
  8
0
 62
     1
 10
1036.676503674405
 20
1695.0012257917761
 30
0.0
 42
-0.3433657700521283
  0
VERTEX
  5
F52
  8
0
 62
     1
 10
1038.816811333558
 20
1698.362517570398
 30
0.0
 42
0.1966026359636621
  0
VERTEX
  5
F53
  8
0
 62
     1
 10
1039.250592345669
 20
1695.2297346723319
 30
0.0
 42
-0.1698168759988677
  0
VERTEX
  5
F54
  8
0
 62
     1
 10
1044.6597278305171
 20
1694.8347002158901
 30
0.0
 42
-0.4928768094636239
  0
VERTEX
  5
F55
  8
0
 62
     1
 10
1046.2528669415181
 20
1689.2560401824919
 30
0.0
 42
-0.0370650916333454
  0
VERTEX
  5
F56
  8
0
 62
     1
 10
1047.799346520844
 20
1684.2599173540871
 30
0.0
 42
0.0288572140364113
  0
VERTEX
  5
F57
  8
0
 62
     1
 10
1057.7393526030301
 20
1689.989235760896
 30
0.0
 42
-0.1045345387865446
  0
VERTEX
  5
F58
  8
0
 62
     1
 10
1067.852589964273
 20
1693.9381527439341
 30
0.0
 42
-0.4070124543656811
  0
VERTEX
  5
F59
  8
0
 62
     1
 10
1081.7894375395319
 20
1682.632288814252
 30
0.0
 42
-0.3747949949182086
  0
VERTEX
  5
F5A
  8
0
 62
     1
 10
1071.8235479457301
 20
1668.2460161751369
 30
0.0
  0
VERTEX
  5
F5B
  8
0
 62
     1
 10
1082.048350978409
 20
1668.2460161751369
 30
0.0
 42
0.7017511399790453
  0
VERTEX
  5
F5C
  8
0
 62
     1
 10
1082.9414696493311
 20
1670.715734638108
 30
0.0
 42
-1.0778639065400419
  0
VERTEX
  5
F5D
  8
0
 62
     1
 10
1084.9591975186529
 20
1672.8011520415671
 30
0.0
 42
0.2327501277754933
  0
VERTEX
  5
F5E
  8
0
 62
     1
 10
1091.5126187757919
 20
1670.1344447986071
 30
0.0
 42
0.8152792493405732
  0
VERTEX
  5
F5F
  8
0
 62
     1
 10
1092.205278445897
 20
1675.354625107301
 30
0.0
 42
-0.3050868339715924
  0
VERTEX
  5
F60
  8
0
 62
     1
 10
1085.088594260224
 20
1683.9769895945531
 30
0.0
  0
VERTEX
  5
F61
  8
0
 62
     1
 10
1086.102425312783
 20
1683.928852624171
 30
0.0
 42
0.609829013849865
  0
VERTEX
  5
F62
  8
0
 62
     1
 10
1086.627577807735
 20
1684.9485910625301
 30
0.0
 42
-0.3423436296930153
  0
VERTEX
  5
F63
  8
0
 62
     1
 10
1088.8095861837769
 20
1693.597568388783
 30
0.0
 42
0.3810394871695037
  0
VERTEX
  5
F64
  8
0
 62
     1
 10
1090.167952947867
 20
1690.17823327921
 30
0.0
 42
-0.3051947763611808
  0
VERTEX
  5
F65
  8
0
 62
     1
 10
1096.6116744636879
 20
1686.7728886367879
 30
0.0
  0
VERTEX
  5
F66
  8
0
 62
     1
 10
1097.1369395848419
 20
1683.3349937718781
 30
0.0
 42
0.7129525542375113
  0
VERTEX
  5
F67
  8
0
 62
     1
 10
1101.6090776029801
 20
1683.841801370713
 30
0.0
 42
-0.1931456724405297
  0
VERTEX
  5
F68
  8
0
 62
     1
 10
1107.0480632212041
 20
1691.778102140755
 30
0.0
 42
0.2934781401848395
  0
VERTEX
  5
F69
  8
0
 62
     1
 10
1118.610901143607
 20
1697.3194816870689
 30
0.0
 42
-0.2306770396830056
  0
VERTEX
  5
F6A
  8
0
 62
     1
 10
1117.584594804405
 20
1687.7274817512209
 30
0.0
 42
-0.6011139644719405
  0
VERTEX
  5
F6B
  8
0
 62
     1
 10
1108.6919069472001
 20
1676.0753380414999
 30
0.0
 42
1.0072294547152061
  0
VERTEX
  5
F6C
  8
0
 62
     1
 10
1108.225955502528
 20
1673.1196719952079
 30
0.0
 42
-0.2191198685172282
  0
VERTEX
  5
F6D
  8
0
 62
     1
 10
1115.9638337207709
 20
1668.043664418107
 30
0.0
 42
-0.9057798105208814
  0
VERTEX
  5
F6E
  8
0
 62
     1
 10
1112.197223869066
 20
1665.1348680069821
 30
0.0
 42
-0.2267237684572028
  0
VERTEX
  5
F6F
  8
0
 62
     1
 10
1114.2719771859761
 20
1658.6686636199579
 30
0.0
 42
0.4351943590858668
  0
VERTEX
  5
F70
  8
0
 62
     1
 10
1115.5132120559899
 20
1657.1509560130719
 30
0.0
 42
-1.093286587052942
  0
VERTEX
  5
F71
  8
0
 62
     1
 10
1115.1631760814009
 20
1654.886995884061
 30
0.0
 42
-0.2278908259868238
  0
VERTEX
  5
F72
  8
0
 62
     1
 10
1117.387099982205
 20
1647.272959897251
 30
0.0
 42
-0.104534538786634
  0
VERTEX
  5
F73
  8
0
 62
     1
 10
1114.4408463001309
 20
1639.727558729985
 30
0.0
 42
0.0281482776483108
  0
VERTEX
  5
F74
  8
0
 62
     1
 10
1110.260851193621
 20
1632.4992194630399
 30
0.0
 42
-0.0260062630527825
  0
VERTEX
  5
F75
  8
0
 62
     1
 10
1112.790946804563
 20
1631.732711774373
 30
0.0
 42
-0.3497123096163168
  0
VERTEX
  5
F76
  8
0
 62
     1
 10
1116.573519537601
 20
1630.2858446829509
 30
0.0
 42
-0.1818650249490876
  0
VERTEX
  5
F77
  8
0
 62
     1
 10
1117.265963241714
 20
1626.319180182008
 30
0.0
 42
0.2103173117709406
  0
VERTEX
  5
F78
  8
0
 62
     1
 10
1119.6654052538829
 20
1626.110739017598
 30
0.0
 42
-0.3538467219927787
  0
VERTEX
  5
F79
  8
0
 62
     1
 10
1117.102194508398
 20
1624.188975819236
 30
0.0
 42
-0.4552199156130235
  0
VERTEX
  5
F7A
  8
0
 62
     1
 10
1113.516178790542
 20
1620.8605415288
 30
0.0
 42
-0.6968210998762051
  0
VERTEX
  5
F7B
  8
0
 62
     1
 10
1112.941745182419
 20
1623.1347821546331
 30
0.0
 42
0.1882157243903857
  0
VERTEX
  5
F7C
  8
0
 62
     1
 10
1113.8719134618141
 20
1624.50116135284
 30
0.0
 42
0.4328043718060585
  0
VERTEX
  5
F7D
  8
0
 62
     1
 10
1113.2485356151119
 20
1625.4295580369719
 30
0.0
 42
-0.4050269614309935
  0
VERTEX
  5
F7E
  8
0
 62
     1
 10
1110.5530831019901
 20
1629.060651719049
 30
0.0
 42
0.0216784663984917
  0
VERTEX
  5
F7F
  8
0
 62
     1
 10
1108.771453177498
 20
1629.3736327096219
 30
0.0
 42
0.0445862040270173
  0
VERTEX
  5
F80
  8
0
 62
     1
 10
1104.462693763242
 20
1616.8857724514919
 30
0.0
 42
0.5583064663474222
  0
VERTEX
  5
F81
  8
0
 62
     1
 10
1105.972775064464
 20
1615.344770300999
 30
0.0
 42
-0.2009690725934134
  0
VERTEX
  5
F82
  8
0
 62
     1
 10
1112.7711045906931
 20
1614.1512466141551
 30
0.0
 42
-0.3503110506009408
  0
VERTEX
  5
F83
  8
0
 62
     1
 10
1115.5237249081531
 20
1606.020890056926
 30
0.0
 42
-0.766494537245132
  0
VERTEX
  5
F84
  8
0
 62
     1
 10
1110.1116847714261
 20
1605.867004750158
 30
0.0
 42
-0.2610296065807322
  0
VERTEX
  5
F85
  8
0
 62
     1
 10
1111.181592738991
 20
1608.439108113653
 30
0.0
 42
0.5648223619585467
  0
VERTEX
  5
F86
  8
0
 62
     1
 10
1109.4741568208301
 20
1611.630505735312
 30
0.0
 42
0.1236508490618131
  0
VERTEX
  5
F87
  8
0
 62
     1
 10
1103.4848284523539
 20
1609.6046769747529
 30
0.0
 42
0.2206601264145783
  0
VERTEX
  5
F88
  8
0
 62
     1
 10
1102.914661608705
 20
1608.704708323233
 30
0.0
 42
0.0065361301726617
  0
VERTEX
  5
F89
  8
0
 62
     1
 10
1102.6880124296711
 20
1606.7913731783101
 30
0.0
 42
0.5957944052008283
  0
VERTEX
  5
F8A
  8
0
 62
     1
 10
1104.526245660345
 20
1605.5308497226731
 30
0.0
  0
VERTEX
  5
F8B
  8
0
 62
     1
 10
1105.31793182507
 20
1605.936552790168
 30
0.0
 42
-0.7628382894591309
  0
VERTEX
  5
F8C
  8
0
 62
     1
 10
1107.006255095625
 20
1604.5346709490609
 30
0.0
  0
VERTEX
  5
F8D
  8
0
 62
     1
 10
1106.093002609947
 20
1602.5552984983919
 30
0.0
 42
0.5238125273264643
  0
VERTEX
  5
F8E
  8
0
 62
     1
 10
1106.7625575428999
 20
1601.419722991852
 30
0.0
  0
VERTEX
  5
F8F
  8
0
 62
     1
 10
1108.9285038684991
 20
1601.261295084739
 30
0.0
 42
-0.3929861459295379
  0
VERTEX
  5
F90
  8
0
 62
     1
 10
1109.7437481792749
 20
1600.384241877337
 30
0.0
  0
SEQEND
  5
F91
  8
0
 62
     1
  0
ARC
  5
CAB
  8
0
 62
     1
 10
1015.98058788767
 20
1678.783515880061
 30
0.0
 40
28.462664155086689
 50
338.27070103365008
 51
355.44902589036269
  0
ARC
  5
CAC
  8
0
 62
     1
 10
1013.3740986691849
 20
1676.3414727978579
 30
0.0
 40
35.324204928603933
 50
346.75144132144243
 51
4.1185670784838893
  0
POLYLINE
  5
CAD
  8
0
 62
     1
 66
     1
 10
0.0
 20
0.0
 30
0.0
 70
     1
  0
VERTEX
  5
F92
  8
0
 62
     1
 10
1099.910915646424
 20
1658.6778971234439
 30
0.0
 42
0.6288324604220672
  0
VERTEX
  5
F93
  8
0
 62
     1
 10
1098.218413405287
 20
1657.8642975570081
 30
0.0
  0
VERTEX
  5
F94
  8
0
 62
     1
 10
1098.218413405287
 20
1650.2356581824929
 30
0.0
 42
-0.3445911467952724
  0
VERTEX
  5
F95
  8
0
 62
     1
 10
1108.502165492976
 20
1657.9208241918459
 30
0.0
 42
-0.3541055961739709
  0
VERTEX
  5
F96
  8
0
 62
     1
 10
1103.5220866227189
 20
1665.442295544347
 30
0.0
 42
0.8152792493405748
  0
VERTEX
  5
F97
  8
0
 62
     1
 10
1099.6273540867769
 20
1664.925508001777
 30
0.0
 42
0.2011871423749923
  0
VERTEX
  5
F98
  8
0
 62
     1
 10
1101.108645177748
 20
1660.5462753836759
 30
0.0
 42
-0.8446139895024035
  0
SEQEND
  5
F99
  8
0
 62
     1
  0
POLYLINE
  5
CAE
  8
0
 62
     1
 66
     1
 10
0.0
 20
0.0
 30
0.0
  0
VERTEX
  5
F9A
  8
0
 62
     1
 10
1042.4207911919941
 20
1668.2460161751369
 30
0.0
  0
VERTEX
  5
F9B
  8
0
 62
     1
 10
1028.6949941290991
 20
1668.2460161751369
 30
0.0
 42
0.0074479519804608
  0
VERTEX
  5
F9C
  8
0
 62
     1
 10
1044.3535131568019
 20
1676.525117669762
 30
0.0
  0
SEQEND
  5
F9D
  8
0
 62
     1
  0
POLYLINE
  5
CAF
  8
0
 62
     1
 66
     1
 10
0.0
 20
0.0
 30
0.0
  0
VERTEX
  5
F9E
  8
0
 62
     1
 10
1047.7581507269001
 20
1668.2460161751369
 30
0.0
  0
VERTEX
  5
F9F
  8
0
 62
     1
 10
1064.4991642340269
 20
1668.2460161751369
 30
0.0
 42
-0.0807588582061847
  0
VERTEX
  5
FA0
  8
0
 62
     1
 10
1060.4183587991649
 20
1670.1002495789519
 30
0.0
 42
-0.8059762631926892
  0
VERTEX
  5
FA1
  8
0
 62
     1
 10
1065.3972870250479
 20
1682.800875255266
 30
0.0
 42
-1.204132615328624
  0
VERTEX
  5
FA2
  8
0
 62
     1
 10
1063.741479715655
 20
1678.1826875546469
 30
0.0
 42
0.873997737137545
  0
VERTEX
  5
FA3
  8
0
 62
     1
 10
1062.234897638855
 20
1676.254391367162
 30
0.0
 42
2.0631682127357238
  0
VERTEX
  5
FA4
  8
0
 62
     1
 10
1063.7120988161471
 20
1687.609646162135
 30
0.0
 42
-0.007336262336506
  0
VERTEX
  5
FA5
  8
0
 62
     1
 10
1048.607081005239
 20
1678.878480788642
 30
0.0
  0
SEQEND
  5
FA6
  8
0
 62
     1
  0
ARC
  5
CB0
  8
0
 62
     1
 10
1106.054610919588
 20
1608.680719062253
 30
0.0
 40
20.870503277875411
 50
94.963402487720188
 51
112.0532155386076
  0
ARC
  5
CB1
  8
0
 62
     1
 10
1104.1623912332341
 20
1607.8104316298229
 30
0.0
 40
25.430836764885068
 50
85.213213276221794
 51
103.51683814144189
  0
ARC
  5
CB3
  8
0
 62
     1
 10
1493.429492078307
 20
1416.5728555843359
 30
0.0
 40
443.60791540592089
 50
149.1301067457353
 51
150.7761300477928
  0
LINE
  5
CB4
  8
0
 62
     1
 10
1098.218413405287
 20
1632.5368665961321
 30
0.0
 11
1098.218413405287
 21
1644.7709972204609
 31
0.0
  0
ARC
  5
CB5
  8
0
 62
     1
 10
1107.994503998666
 20
1646.9759480869429
 30
0.0
 40
5.4418758986936258
 50
329.13010674573542
 51
225.6938203473976
  0
ARC
  5
CB6
  8
0
 62
     1
 10
1107.239472473472
 20
1645.145256403204
 30
0.0
 40
1.8618499563218001
 50
9.1422656228886812
 51
210.30735981974519
  0
ARC
  5
CB7
  8
0
 62
     1
 10
1104.8368163933451
 20
1643.7408435034311
 30
0.0
 40
0.9211577390364043
 50
225.6938203473976
 51
30.307359819745301
  0
ARC
  5
CB8
  8
0
 62
     1
 10
1103.93600609797
 20
1644.6136271208429
 30
0.0
 40
5.207820635802018
 50
213.6703061848267
 51
9.1422656228886812
  0
ARC
  5
CB9
  8
0
 62
     1
 10
1108.2737977877041
 20
1647.503327701477
 30
0.0
 40
10.41999927714286
 50
195.201820105514
 51
213.6703061848267
  0
ARC
  5
CBA
  8
0
 62
     1
 10
1493.429492078307
 20
1416.5728555843359
 30
0.0
 40
443.60791540592089
 50
151.3192640680077
 51
152.9867829805145
  0
LINE
  5
CBB
  8
0
 62
     1
 10
1098.218413405287
 20
1628.0242429291361
 30
0.0
 11
1098.218413405287
 21
1618.0578076400529
 31
0.0
  0
LINE
  5
CBC
  8
0
 62
     1
 10
1098.218413405287
 20
1572.7442408255381
 30
0.0
 11
1098.218413405287
 21
1582.710676114621
 31
0.0
  0
ARC
  5
CBD
  8
0
 62
     1
 10
1493.429492078307
 20
1784.1956281703381
 30
0.0
 40
443.60791540592089
 50
207.0132170194855
 51
208.6807359319923
  0
ARC
  5
CBE
  8
0
 62
     1
 10
1108.2737977877041
 20
1553.265156053197
 30
0.0
 40
10.41999927714286
 50
146.3296938151733
 51
164.798179894486
  0
ARC
  5
CBF
  8
0
 62
     1
 10
1103.93600609797
 20
1556.1548566338311
 30
0.0
 40
5.207820635802018
 50
350.85773437711129
 51
146.3296938151733
  0
ARC
  5
CC0
  8
0
 62
     1
 10
1104.8368163933451
 20
1557.027640251242
 30
0.0
 40
0.9211577390364043
 50
329.69264018025473
 51
134.3061796526024
  0
ARC
  5
CC1
  8
0
 62
     1
 10
1107.239472473472
 20
1555.62322735147
 30
0.0
 40
1.8618499563218001
 50
149.69264018025481
 51
350.85773437711129
  0
ARC
  5
CC2
  8
0
 62
     1
 10
1107.994503998666
 20
1553.792535667731
 30
0.0
 40
5.4418758986936258
 50
134.3061796526024
 51
30.869893254264671
  0
LINE
  5
CC3
  8
0
 62
     1
 10
1098.218413405287
 20
1568.2316171585419
 30
0.0
 11
1098.218413405287
 21
1555.9974865342131
 31
0.0
  0
ARC
  5
CC4
  8
0
 62
     1
 10
1493.429492078307
 20
1784.1956281703381
 30
0.0
 40
443.60791540592089
 50
209.2238699522072
 51
210.8698932542647
  0
ARC
  5
CC6
  8
0
 62
     1
 10
1104.1623912332341
 20
1592.9580521248511
 30
0.0
 40
25.430836764885068
 50
256.48316185855811
 51
274.78678672377822
  0
ARC
  5
CC7
  8
0
 62
     1
 10
1106.054610919588
 20
1592.0877646924209
 30
0.0
 40
20.870503277875411
 50
247.94678446139241
 51
265.03659751227991
  0
POLYLINE
  5
CC8
  8
0
 62
     1
 66
     1
 10
0.0
 20
0.0
 30
0.0
  0
VERTEX
  5
FA7
  8
0
 62
     1
 10
1047.7581507269001
 20
1532.5224675795371
 30
0.0
  0
VERTEX
  5
FA8
  8
0
 62
     1
 10
1064.4991642340269
 20
1532.5224675795371
 30
0.0
 42
0.0807588582061847
  0
VERTEX
  5
FA9
  8
0
 62
     1
 10
1060.4183587991649
 20
1530.6682341757221
 30
0.0
 42
0.8059762631926892
  0
VERTEX
  5
FAA
  8
0
 62
     1
 10
1065.3972870250479
 20
1517.9676084994071
 30
0.0
 42
1.204132615328624
  0
VERTEX
  5
FAB
  8
0
 62
     1
 10
1063.741479715655
 20
1522.5857962000271
 30
0.0
 42
-0.873997737137545
  0
VERTEX
  5
FAC
  8
0
 62
     1
 10
1062.234897638855
 20
1524.5140923875119
 30
0.0
 42
-2.0631682127357238
  0
VERTEX
  5
FAD
  8
0
 62
     1
 10
1063.7120988161471
 20
1513.1588375925389
 30
0.0
 42
0.007336262336506
  0
VERTEX
  5
FAE
  8
0
 62
     1
 10
1048.607081005239
 20
1521.890002966031
 30
0.0
  0
SEQEND
  5
FAF
  8
0
 62
     1
  0
POLYLINE
  5
CC9
  8
0
 62
     1
 66
     1
 10
0.0
 20
0.0
 30
0.0
  0
VERTEX
  5
FB0
  8
0
 62
     1
 10
1042.4207911919941
 20
1532.5224675795371
 30
0.0
  0
VERTEX
  5
FB1
  8
0
 62
     1
 10
1028.6949941290991
 20
1532.5224675795371
 30
0.0
 42
-0.0074479519804608
  0
VERTEX
  5
FB2
  8
0
 62
     1
 10
1044.3535131568019
 20
1524.2433660849119
 30
0.0
  0
SEQEND
  5
FB3
  8
0
 62
     1
  0
POLYLINE
  5
CCA
  8
0
 62
     1
 66
     1
 10
0.0
 20
0.0
 30
0.0
 70
     1
  0
VERTEX
  5
FB4
  8
0
 62
     1
 10
1099.910915646424
 20
1542.0905866312301
 30
0.0
 42
-0.6288324604220672
  0
VERTEX
  5
FB5
  8
0
 62
     1
 10
1098.218413405287
 20
1542.9041861976659
 30
0.0
  0
VERTEX
  5
FB6
  8
0
 62
     1
 10
1098.218413405287
 20
1550.5328255721799
 30
0.0
 42
0.3445911467952724
  0
VERTEX
  5
FB7
  8
0
 62
     1
 10
1108.502165492976
 20
1542.8476595628281
 30
0.0
 42
0.3541055961739709
  0
VERTEX
  5
FB8
  8
0
 62
     1
 10
1103.5220866227189
 20
1535.326188210327
 30
0.0
 42
-0.8152792493405748
  0
VERTEX
  5
FB9
  8
0
 62
     1
 10
1099.6273540867769
 20
1535.8429757528961
 30
0.0
 42
-0.2011871423749923
  0
VERTEX
  5
FBA
  8
0
 62
     1
 10
1101.108645177748
 20
1540.2222083709969
 30
0.0
 42
0.8446139895024035
  0
SEQEND
  5
FBB
  8
0
 62
     1
  0
ARC
  5
CCB
  8
0
 62
     1
 10
1013.3740986691849
 20
1524.427010956816
 30
0.0
 40
35.324204928603933
 50
355.88143292151608
 51
13.24855867855765
  0
ARC
  5
CCC
  8
0
 62
     1
 10
1015.98058788767
 20
1521.984967874612
 30
0.0
 40
28.462664155086689
 50
4.5509741096372487
 51
21.729298966349919
  0
POLYLINE
  5
CCD
  8
0
 62
     1
 66
     1
 10
0.0
 20
0.0
 30
0.0
  0
VERTEX
  5
FBC
  8
0
 62
     1
 10
1005.006794970993
 20
1517.0748533767469
 30
0.0
 42
0.3929861459295368
  0
VERTEX
  5
FBD
  8
0
 62
     1
 10
1006.182325213624
 20
1518.167540039726
 30
0.0
  0
VERTEX
  5
FBE
  8
0
 62
     1
 10
1006.394668996779
 20
1521.070596990168
 30
0.0
 42
-0.5238125273263822
  0
VERTEX
  5
FBF
  8
0
 62
     1
 10
1007.916701342665
 20
1521.968013550696
 30
0.0
  0
VERTEX
  5
FC0
  8
0
 62
     1
 10
1011.021680212168
 20
1520.5354233024129
 30
0.0
 42
0.7860741302757373
  0
VERTEX
  5
FC1
  8
0
 62
     1
 10
1012.79853357405
 20
1522.324109144264
 30
0.0
  0
VERTEX
  5
FC2
  8
0
 62
     1
 10
1011.904886350277
 20
1524.0679661665311
 30
0.0
 42
-0.5957944052009379
  0
VERTEX
  5
FC3
  8
0
 62
     1
 10
1013.594388687368
 20
1526.5317833413919
 30
0.0
 42
-0.0072888841047084
  0
VERTEX
  5
FC4
  8
0
 62
     1
 10
1016.1588663132979
 20
1526.228001356249
 30
0.0
 42
-0.2210231514313464
  0
VERTEX
  5
FC5
  8
0
 62
     1
 10
1017.365110539251
 20
1525.4637964455319
 30
0.0
 42
-0.1236508490617038
  0
VERTEX
  5
FC6
  8
0
 62
     1
 10
1020.080365388475
 20
1517.4361915399629
 30
0.0
 42
-0.7895808931684885
  0
VERTEX
  5
FC7
  8
0
 62
     1
 10
1015.8839691312151
 20
1516.0725458707409
 30
0.0
 42
0.32275873950656
  0
VERTEX
  5
FC8
  8
0
 62
     1
 10
1012.355441000425
 20
1516.9449161539681
 30
0.0
 42
0.7268305791271775
  0
VERTEX
  5
FC9
  8
0
 62
     1
 10
1012.56169625435
 20
1509.3278462520329
 30
0.0
 42
0.3503110506010096
  0
VERTEX
  5
FCA
  8
0
 62
     1
 10
1023.45895988184
 20
1513.017232941854
 30
0.0
 42
0.2009690725934404
  0
VERTEX
  5
FCB
  8
0
 62
     1
 10
1025.058661219613
 20
1522.1291566997329
 30
0.0
 42
-0.5583064663473538
  0
VERTEX
  5
FCC
  8
0
 62
     1
 10
1027.12409421341
 20
1524.153145921176
 30
0.0
 42
-0.0455043968428221
  0
VERTEX
  5
FCD
  8
0
 62
     1
 10
1044.1942494312971
 20
1518.2283000549951
 30
0.0
 42
-0.0367573320334061
  0
VERTEX
  5
FCE
  8
0
 62
     1
 10
1043.340009089713
 20
1514.137336238613
 30
0.0
 42
0.429127518857437
  0
VERTEX
  5
FCF
  8
0
 62
     1
 10
1038.3248818476
 20
1510.7245820981859
 30
0.0
 42
-0.4328043718060758
  0
VERTEX
  5
FD0
  8
0
 62
     1
 10
1036.874554012838
 20
1509.750750267355
 30
0.0
 42
-0.1882157243904117
  0
VERTEX
  5
FD1
  8
0
 62
     1
 10
1034.9408969568401
 20
1511.0670952900809
 30
0.0
 42
0.6968210998765081
  0
VERTEX
  5
FD2
  8
0
 62
     1
 10
1032.2022310725499
 20
1510.3753559431159
 30
0.0
 42
0.4688728132899647
  0
VERTEX
  5
FD3
  8
0
 62
     1
 10
1036.676503674405
 20
1505.7672579628979
 30
0.0
 42
0.3433657700521283
  0
VERTEX
  5
FD4
  8
0
 62
     1
 10
1038.816811333558
 20
1502.4059661842759
 30
0.0
 42
-0.1966026359636621
  0
VERTEX
  5
FD5
  8
0
 62
     1
 10
1039.250592345669
 20
1505.5387490823421
 30
0.0
 42
0.1698168759988677
  0
VERTEX
  5
FD6
  8
0
 62
     1
 10
1044.6597278305171
 20
1505.9337835387839
 30
0.0
 42
0.4928768094636239
  0
VERTEX
  5
FD7
  8
0
 62
     1
 10
1046.2528669415181
 20
1511.5124435721821
 30
0.0
 42
0.0370650916333454
  0
VERTEX
  5
FD8
  8
0
 62
     1
 10
1047.799346520844
 20
1516.5085664005869
 30
0.0
 42
-0.0288572140364113
  0
VERTEX
  5
FD9
  8
0
 62
     1
 10
1057.7393526030301
 20
1510.779247993778
 30
0.0
 42
0.1045345387865446
  0
VERTEX
  5
FDA
  8
0
 62
     1
 10
1067.852589964273
 20
1506.8303310107401
 30
0.0
 42
0.4070124543656811
  0
VERTEX
  5
FDB
  8
0
 62
     1
 10
1081.7894375395319
 20
1518.136194940422
 30
0.0
 42
0.3747949949182086
  0
VERTEX
  5
FDC
  8
0
 62
     1
 10
1071.8235479457301
 20
1532.5224675795371
 30
0.0
  0
VERTEX
  5
FDD
  8
0
 62
     1
 10
1082.048350978409
 20
1532.5224675795371
 30
0.0
 42
-0.7017511399790453
  0
VERTEX
  5
FDE
  8
0
 62
     1
 10
1082.9414696493311
 20
1530.052749116566
 30
0.0
 42
1.0778639065400419
  0
VERTEX
  5
FDF
  8
0
 62
     1
 10
1084.9591975186529
 20
1527.9673317131069
 30
0.0
 42
-0.2327501277754933
  0
VERTEX
  5
FE0
  8
0
 62
     1
 10
1091.5126187757919
 20
1530.6340389560669
 30
0.0
 42
-0.8152792493405732
  0
VERTEX
  5
FE1
  8
0
 62
     1
 10
1092.205278445897
 20
1525.413858647373
 30
0.0
 42
0.3050868339715924
  0
VERTEX
  5
FE2
  8
0
 62
     1
 10
1085.088594260224
 20
1516.7914941601209
 30
0.0
  0
VERTEX
  5
FE3
  8
0
 62
     1
 10
1086.102425312783
 20
1516.839631130503
 30
0.0
 42
-0.609829013849865
  0
VERTEX
  5
FE4
  8
0
 62
     1
 10
1086.627577807735
 20
1515.8198926921441
 30
0.0
 42
0.3423436296930153
  0
VERTEX
  5
FE5
  8
0
 62
     1
 10
1088.8095861837769
 20
1507.170915365891
 30
0.0
 42
-0.3810394871695037
  0
VERTEX
  5
FE6
  8
0
 62
     1
 10
1090.167952947867
 20
1510.590250475464
 30
0.0
 42
0.3051947763611808
  0
VERTEX
  5
FE7
  8
0
 62
     1
 10
1096.6116744636879
 20
1513.9955951178861
 30
0.0
  0
VERTEX
  5
FE8
  8
0
 62
     1
 10
1097.1369395848419
 20
1517.4334899827959
 30
0.0
 42
-0.7129525542375113
  0
VERTEX
  5
FE9
  8
0
 62
     1
 10
1101.6090776029801
 20
1516.926682383961
 30
0.0
 42
0.1931456724405297
  0
VERTEX
  5
FEA
  8
0
 62
     1
 10
1107.0480632212041
 20
1508.990381613919
 30
0.0
 42
-0.2934781401848395
  0
VERTEX
  5
FEB
  8
0
 62
     1
 10
1118.610901143607
 20
1503.4490020676051
 30
0.0
 42
0.2306770396830056
  0
VERTEX
  5
FEC
  8
0
 62
     1
 10
1117.584594804405
 20
1513.0410020034531
 30
0.0
 42
0.6011139644719405
  0
VERTEX
  5
FED
  8
0
 62
     1
 10
1108.6919069472001
 20
1524.6931457131741
 30
0.0
 42
-1.0072294547152061
  0
VERTEX
  5
FEE
  8
0
 62
     1
 10
1108.225955502528
 20
1527.6488117594661
 30
0.0
 42
0.2191198685172282
  0
VERTEX
  5
FEF
  8
0
 62
     1
 10
1115.9638337207709
 20
1532.724819336567
 30
0.0
 42
0.9057798105208814
  0
VERTEX
  5
FF0
  8
0
 62
     1
 10
1112.197223869066
 20
1535.6336157476919
 30
0.0
 42
0.2267237684572028
  0
VERTEX
  5
FF1
  8
0
 62
     1
 10
1114.2719771859761
 20
1542.0998201347161
 30
0.0
 42
-0.4351943590858668
  0
VERTEX
  5
FF2
  8
0
 62
     1
 10
1115.5132120559899
 20
1543.6175277416021
 30
0.0
 42
1.093286587052942
  0
VERTEX
  5
FF3
  8
0
 62
     1
 10
1115.1631760814009
 20
1545.881487870613
 30
0.0
 42
0.2278908259868238
  0
VERTEX
  5
FF4
  8
0
 62
     1
 10
1117.387099982205
 20
1553.495523857423
 30
0.0
 42
0.104534538786634
  0
VERTEX
  5
FF5
  8
0
 62
     1
 10
1114.4408463001309
 20
1561.0409250246889
 30
0.0
 42
-0.0281482776483108
  0
VERTEX
  5
FF6
  8
0
 62
     1
 10
1110.260851193621
 20
1568.269264291634
 30
0.0
 42
0.0260062630527825
  0
VERTEX
  5
FF7
  8
0
 62
     1
 10
1112.790946804563
 20
1569.035771980301
 30
0.0
 42
0.3497123096163168
  0
VERTEX
  5
FF8
  8
0
 62
     1
 10
1116.573519537601
 20
1570.482639071723
 30
0.0
 42
0.1818650249490876
  0
VERTEX
  5
FF9
  8
0
 62
     1
 10
1117.265963241714
 20
1574.449303572665
 30
0.0
 42
-0.2103173117709406
  0
VERTEX
  5
FFA
  8
0
 62
     1
 10
1119.6654052538829
 20
1574.657744737076
 30
0.0
 42
0.3538467219927787
  0
VERTEX
  5
FFB
  8
0
 62
     1
 10
1117.102194508398
 20
1576.579507935438
 30
0.0
 42
0.4552199156130235
  0
VERTEX
  5
FFC
  8
0
 62
     1
 10
1113.516178790542
 20
1579.907942225874
 30
0.0
 42
0.6968210998762051
  0
VERTEX
  5
FFD
  8
0
 62
     1
 10
1112.941745182419
 20
1577.63370160004
 30
0.0
 42
-0.1882157243903857
  0
VERTEX
  5
FFE
  8
0
 62
     1
 10
1113.8719134618141
 20
1576.267322401834
 30
0.0
 42
-0.4328043718060585
  0
VERTEX
  5
FFF
  8
0
 62
     1
 10
1113.2485356151119
 20
1575.3389257177009
 30
0.0
 42
0.4050269614309935
  0
VERTEX
  5
1000
  8
0
 62
     1
 10
1110.5530831019901
 20
1571.707832035625
 30
0.0
 42
-0.0216784663984917
  0
VERTEX
  5
1001
  8
0
 62
     1
 10
1108.771453177498
 20
1571.3948510450509
 30
0.0
 42
-0.0445862040270173
  0
VERTEX
  5
1002
  8
0
 62
     1
 10
1104.462693763242
 20
1583.8827113031821
 30
0.0
 42
-0.5583064663474222
  0
VERTEX
  5
1003
  8
0
 62
     1
 10
1105.972775064464
 20
1585.423713453675
 30
0.0
 42
0.2009690725934134
  0
VERTEX
  5
1004
  8
0
 62
     1
 10
1112.7711045906931
 20
1586.617237140518
 30
0.0
 42
0.3503110506009408
  0
VERTEX
  5
1005
  8
0
 62
     1
 10
1115.5237249081531
 20
1594.747593697748
 30
0.0
 42
0.766494537245132
  0
VERTEX
  5
1006
  8
0
 62
     1
 10
1110.1116847714261
 20
1594.9014790045151
 30
0.0
 42
0.2610296065807322
  0
VERTEX
  5
1007
  8
0
 62
     1
 10
1111.181592738991
 20
1592.329375641021
 30
0.0
 42
-0.5648223619585467
  0
VERTEX
  5
1008
  8
0
 62
     1
 10
1109.4741568208301
 20
1589.137978019362
 30
0.0
 42
-0.1236508490618131
  0
VERTEX
  5
1009
  8
0
 62
     1
 10
1103.4848284523539
 20
1591.1638067799211
 30
0.0
 42
-0.2206601264145783
  0
VERTEX
  5
100A
  8
0
 62
     1
 10
1102.914661608705
 20
1592.0637754314409
 30
0.0
 42
-0.0065361301726617
  0
VERTEX
  5
100B
  8
0
 62
     1
 10
1102.6880124296711
 20
1593.9771105763641
 30
0.0
 42
-0.5957944052008283
  0
VERTEX
  5
100C
  8
0
 62
     1
 10
1104.526245660345
 20
1595.237634032
 30
0.0
  0
VERTEX
  5
100D
  8
0
 62
     1
 10
1105.31793182507
 20
1594.831930964506
 30
0.0
 42
0.7628382894591309
  0
VERTEX
  5
100E
  8
0
 62
     1
 10
1107.006255095625
 20
1596.2338128056131
 30
0.0
  0
VERTEX
  5
100F
  8
0
 62
     1
 10
1106.093002609947
 20
1598.213185256282
 30
0.0
 42
-0.5238125273264643
  0
VERTEX
  5
1010
  8
0
 62
     1
 10
1106.7625575428999
 20
1599.3487607628219
 30
0.0
  0
VERTEX
  5
1011
  8
0
 62
     1
 10
1108.9285038684991
 20
1599.507188669935
 30
0.0
 42
0.3929861459295379
  0
VERTEX
  5
1012
  8
0
 62
     1
 10
1109.7437481792749
 20
1600.384241877337
 30
0.0
  0
SEQEND
  5
1013
  8
0
 62
     1
  0
ARC
  5
CCE
  8
0
 62
     1
 10
903.95897902239665
 20
1592.0877646924209
 30
0.0
 40
20.870503277875411
 50
274.9634024877202
 51
292.05321553860762
  0
ARC
  5
CCF
  8
0
 62
     1
 10
905.85119870875064
 20
1592.9580521248511
 30
0.0
 40
25.430836764885068
 50
265.21321327622178
 51
283.51683814144189
  0
POLYLINE
  5
CD1
  8
0
 62
     1
 66
     1
 10
0.0
 20
0.0
 30
0.0
  0
VERTEX
  5
1014
  8
0
 62
     1
 10
1005.006794970992
 20
1517.0748533767469
 30
0.0
 42
-0.3929861459295368
  0
VERTEX
  5
1015
  8
0
 62
     1
 10
1003.831264728361
 20
1518.167540039726
 30
0.0
  0
VERTEX
  5
1016
  8
0
 62
     1
 10
1003.618920945206
 20
1521.070596990168
 30
0.0
 42
0.5238125273263822
  0
VERTEX
  5
1017
  8
0
 62
     1
 10
1002.09688859932
 20
1521.968013550696
 30
0.0
  0
VERTEX
  5
1018
  8
0
 62
     1
 10
998.99190972981683
 20
1520.5354233024129
 30
0.0
 42
-0.7860741302757373
  0
VERTEX
  5
1019
  8
0
 62
     1
 10
997.21505636793529
 20
1522.324109144264
 30
0.0
  0
VERTEX
  5
101A
  8
0
 62
     1
 10
998.10870359170838
 20
1524.0679661665311
 30
0.0
 42
0.5957944052009379
  0
VERTEX
  5
101B
  8
0
 62
     1
 10
996.41920125461718
 20
1526.5317833413919
 30
0.0
 42
0.0072888841047084
  0
VERTEX
  5
101C
  8
0
 62
     1
 10
993.85472362868666
 20
1526.228001356249
 30
0.0
 42
0.2210231514313464
  0
VERTEX
  5
101D
  8
0
 62
     1
 10
992.64847940273364
 20
1525.4637964455319
 30
0.0
 42
0.1236508490617038
  0
VERTEX
  5
101E
  8
0
 62
     1
 10
989.93322455350972
 20
1517.4361915399629
 30
0.0
 42
0.7895808931684885
  0
VERTEX
  5
101F
  8
0
 62
     1
 10
994.12962081076967
 20
1516.0725458707409
 30
0.0
 42
-0.32275873950656
  0
VERTEX
  5
1020
  8
0
 62
     1
 10
997.65814894155994
 20
1516.9449161539681
 30
0.0
 42
-0.7268305791271775
  0
VERTEX
  5
1021
  8
0
 62
     1
 10
997.45189368763454
 20
1509.3278462520329
 30
0.0
 42
-0.3503110506010096
  0
VERTEX
  5
1022
  8
0
 62
     1
 10
986.55463006014463
 20
1513.017232941854
 30
0.0
 42
-0.2009690725934404
  0
VERTEX
  5
1023
  8
0
 62
     1
 10
984.95492872237196
 20
1522.1291566997329
 30
0.0
 42
0.5583064663473538
  0
VERTEX
  5
1024
  8
0
 62
     1
 10
982.88949572857541
 20
1524.153145921176
 30
0.0
 42
0.0455043968428221
  0
VERTEX
  5
1025
  8
0
 62
     1
 10
965.81934051068833
 20
1518.2283000549951
 30
0.0
 42
0.0367573320334061
  0
VERTEX
  5
1026
  8
0
 62
     1
 10
966.67358085227193
 20
1514.137336238613
 30
0.0
 42
-0.429127518857437
  0
VERTEX
  5
1027
  8
0
 62
     1
 10
971.68870809438465
 20
1510.7245820981859
 30
0.0
 42
0.4328043718060758
  0
VERTEX
  5
1028
  8
0
 62
     1
 10
973.13903592914698
 20
1509.750750267355
 30
0.0
 42
0.1882157243904117
  0
VERTEX
  5
1029
  8
0
 62
     1
 10
975.07269298514495
 20
1511.0670952900809
 30
0.0
 42
-0.6968210998765081
  0
VERTEX
  5
102A
  8
0
 62
     1
 10
977.81135886943514
 20
1510.3753559431159
 30
0.0
 42
-0.4688728132899647
  0
VERTEX
  5
102B
  8
0
 62
     1
 10
973.33708626757993
 20
1505.7672579628979
 30
0.0
 42
-0.3433657700521283
  0
VERTEX
  5
102C
  8
0
 62
     1
 10
971.19677860842705
 20
1502.4059661842759
 30
0.0
 42
0.1966026359636621
  0
VERTEX
  5
102D
  8
0
 62
     1
 10
970.76299759631627
 20
1505.5387490823421
 30
0.0
 42
-0.1698168759988677
  0
VERTEX
  5
102E
  8
0
 62
     1
 10
965.35386211146783
 20
1505.9337835387839
 30
0.0
 42
-0.4928768094636239
  0
VERTEX
  5
102F
  8
0
 62
     1
 10
963.76072300046724
 20
1511.5124435721821
 30
0.0
 42
-0.0370650916333454
  0
VERTEX
  5
1030
  8
0
 62
     1
 10
962.2142434211413
 20
1516.5085664005869
 30
0.0
 42
0.0288572140364113
  0
VERTEX
  5
1031
  8
0
 62
     1
 10
952.27423733895534
 20
1510.779247993778
 30
0.0
 42
-0.1045345387865446
  0
VERTEX
  5
1032
  8
0
 62
     1
 10
942.16099997771164
 20
1506.8303310107401
 30
0.0
 42
-0.4070124543656811
  0
VERTEX
  5
1033
  8
0
 62
     1
 10
928.22415240245357
 20
1518.136194940422
 30
0.0
 42
-0.3747949949182086
  0
VERTEX
  5
1034
  8
0
 62
     1
 10
938.19004199625533
 20
1532.5224675795371
 30
0.0
  0
VERTEX
  5
1035
  8
0
 62
     1
 10
927.96523896357644
 20
1532.5224675795371
 30
0.0
 42
0.7017511399790453
  0
VERTEX
  5
1036
  8
0
 62
     1
 10
927.07212029265361
 20
1530.052749116566
 30
0.0
 42
-1.0778639065400419
  0
VERTEX
  5
1037
  8
0
 62
     1
 10
925.05439242333205
 20
1527.9673317131069
 30
0.0
 42
0.2327501277754933
  0
VERTEX
  5
1038
  8
0
 62
     1
 10
918.50097116619315
 20
1530.6340389560669
 30
0.0
 42
0.8152792493405732
  0
VERTEX
  5
1039
  8
0
 62
     1
 10
917.80831149608775
 20
1525.413858647373
 30
0.0
 42
-0.3050868339715924
  0
VERTEX
  5
103A
  8
0
 62
     1
 10
924.92499568176117
 20
1516.7914941601209
 30
0.0
  0
VERTEX
  5
103B
  8
0
 62
     1
 10
923.91116462920229
 20
1516.839631130503
 30
0.0
 42
0.609829013849865
  0
VERTEX
  5
103C
  8
0
 62
     1
 10
923.38601213425022
 20
1515.8198926921441
 30
0.0
 42
-0.3423436296930153
  0
VERTEX
  5
103D
  8
0
 62
     1
 10
921.20400375820805
 20
1507.170915365891
 30
0.0
 42
0.3810394871695037
  0
VERTEX
  5
103E
  8
0
 62
     1
 10
919.84563699411808
 20
1510.590250475464
 30
0.0
 42
-0.3051947763611808
  0
VERTEX
  5
103F
  8
0
 62
     1
 10
913.40191547829681
 20
1513.9955951178861
 30
0.0
  0
VERTEX
  5
1040
  8
0
 62
     1
 10
912.87665035714281
 20
1517.4334899827959
 30
0.0
 42
0.7129525542375113
  0
VERTEX
  5
1041
  8
0
 62
     1
 10
908.40451233900478
 20
1516.926682383961
 30
0.0
 42
-0.1931456724405297
  0
VERTEX
  5
1042
  8
0
 62
     1
 10
902.96552672078144
 20
1508.990381613919
 30
0.0
 42
0.2934781401848395
  0
VERTEX
  5
1043
  8
0
 62
     1
 10
891.40268879837845
 20
1503.4490020676051
 30
0.0
 42
-0.2306770396830056
  0
VERTEX
  5
1044
  8
0
 62
     1
 10
892.42899513757936
 20
1513.0410020034531
 30
0.0
 42
-0.6011139644719405
  0
VERTEX
  5
1045
  8
0
 62
     1
 10
901.32168299478474
 20
1524.6931457131741
 30
0.0
 42
1.0072294547152061
  0
VERTEX
  5
1046
  8
0
 62
     1
 10
901.78763443945695
 20
1527.6488117594661
 30
0.0
 42
-0.2191198685172282
  0
VERTEX
  5
1047
  8
0
 62
     1
 10
894.04975622121435
 20
1532.724819336567
 30
0.0
 42
-0.9057798105208814
  0
VERTEX
  5
1048
  8
0
 62
     1
 10
897.81636607291898
 20
1535.6336157476919
 30
0.0
 42
-0.2267237684572028
  0
VERTEX
  5
1049
  8
0
 62
     1
 10
895.7416127560092
 20
1542.0998201347161
 30
0.0
 42
0.4351943590858668
  0
VERTEX
  5
104A
  8
0
 62
     1
 10
894.50037788599445
 20
1543.6175277416021
 30
0.0
 42
-1.093286587052942
  0
VERTEX
  5
104B
  8
0
 62
     1
 10
894.85041386058413
 20
1545.881487870613
 30
0.0
 42
-0.2278908259868238
  0
VERTEX
  5
104C
  8
0
 62
     1
 10
892.62648995977975
 20
1553.495523857423
 30
0.0
 42
-0.104534538786634
  0
VERTEX
  5
104D
  8
0
 62
     1
 10
895.57274364185389
 20
1561.0409250246889
 30
0.0
 42
0.0281482776483108
  0
VERTEX
  5
104E
  8
0
 62
     1
 10
899.75273874836387
 20
1568.269264291634
 30
0.0
 42
-0.0260062630527825
  0
VERTEX
  5
104F
  8
0
 62
     1
 10
897.22264313742176
 20
1569.035771980301
 30
0.0
 42
-0.3497123096163168
  0
VERTEX
  5
1050
  8
0
 62
     1
 10
893.4400704043843
 20
1570.482639071723
 30
0.0
 42
-0.1818650249490876
  0
VERTEX
  5
1051
  8
0
 62
     1
 10
892.74762670027133
 20
1574.449303572665
 30
0.0
 42
0.2103173117709406
  0
VERTEX
  5
1052
  8
0
 62
     1
 10
890.3481846881017
 20
1574.657744737076
 30
0.0
 42
-0.3538467219927787
  0
VERTEX
  5
1053
  8
0
 62
     1
 10
892.91139543358724
 20
1576.579507935438
 30
0.0
 42
-0.4552199156130235
  0
VERTEX
  5
1054
  8
0
 62
     1
 10
896.49741115144286
 20
1579.907942225874
 30
0.0
 42
-0.6968210998762051
  0
VERTEX
  5
1055
  8
0
 62
     1
 10
897.07184475956535
 20
1577.63370160004
 30
0.0
 42
0.1882157243903857
  0
VERTEX
  5
1056
  8
0
 62
     1
 10
896.14167648017133
 20
1576.267322401834
 30
0.0
 42
0.4328043718060585
  0
VERTEX
  5
1057
  8
0
 62
     1
 10
896.76505432687304
 20
1575.3389257177009
 30
0.0
 42
-0.4050269614309935
  0
VERTEX
  5
1058
  8
0
 62
     1
 10
899.46050683999454
 20
1571.707832035625
 30
0.0
 42
0.0216784663984917
  0
VERTEX
  5
1059
  8
0
 62
     1
 10
901.24213676448744
 20
1571.3948510450509
 30
0.0
 42
0.0445862040270173
  0
VERTEX
  5
105A
  8
0
 62
     1
 10
905.55089617874285
 20
1583.8827113031821
 30
0.0
 42
0.5583064663474222
  0
VERTEX
  5
105B
  8
0
 62
     1
 10
904.04081487752114
 20
1585.423713453675
 30
0.0
 42
-0.2009690725934134
  0
VERTEX
  5
105C
  8
0
 62
     1
 10
897.24248535129175
 20
1586.617237140518
 30
0.0
 42
-0.3503110506009408
  0
VERTEX
  5
105D
  8
0
 62
     1
 10
894.48986503383196
 20
1594.747593697748
 30
0.0
 42
-0.766494537245132
  0
VERTEX
  5
105E
  8
0
 62
     1
 10
899.90190517055953
 20
1594.9014790045151
 30
0.0
 42
-0.2610296065807322
  0
VERTEX
  5
105F
  8
0
 62
     1
 10
898.8319972029941
 20
1592.329375641021
 30
0.0
 42
0.5648223619585467
  0
VERTEX
  5
1060
  8
0
 62
     1
 10
900.53943312115484
 20
1589.137978019362
 30
0.0
 42
0.1236508490618131
  0
VERTEX
  5
1061
  8
0
 62
     1
 10
906.52876148963037
 20
1591.1638067799211
 30
0.0
 42
0.2206601264145783
  0
VERTEX
  5
1062
  8
0
 62
     1
 10
907.09892833327945
 20
1592.0637754314409
 30
0.0
 42
0.0065361301726617
  0
VERTEX
  5
1063
  8
0
 62
     1
 10
907.32557751231354
 20
1593.9771105763641
 30
0.0
 42
0.5957944052008283
  0
VERTEX
  5
1064
  8
0
 62
     1
 10
905.48734428164005
 20
1595.237634032
 30
0.0
  0
VERTEX
  5
1065
  8
0
 62
     1
 10
904.69565811691439
 20
1594.831930964506
 30
0.0
 42
-0.7628382894591309
  0
VERTEX
  5
1066
  8
0
 62
     1
 10
903.00733484635987
 20
1596.2338128056131
 30
0.0
  0
VERTEX
  5
1067
  8
0
 62
     1
 10
903.9205873320376
 20
1598.213185256282
 30
0.0
 42
0.5238125273264643
  0
VERTEX
  5
1068
  8
0
 62
     1
 10
903.25103239908481
 20
1599.3487607628219
 30
0.0
  0
VERTEX
  5
1069
  8
0
 62
     1
 10
901.0850860734862
 20
1599.507188669935
 30
0.0
 42
-0.3929861459295379
  0
VERTEX
  5
106A
  8
0
 62
     1
 10
900.26984176270969
 20
1600.384241877337
 30
0.0
  0
SEQEND
  5
106B
  8
0
 62
     1
  0
ARC
  5
CD2
  8
0
 62
     1
 10
994.03300205431481
 20
1521.984967874612
 30
0.0
 40
28.462664155086689
 50
158.27070103365011
 51
175.44902589036269
  0
ARC
  5
CD3
  8
0
 62
     1
 10
996.6394912728
 20
1524.427010956816
 30
0.0
 40
35.324204928603933
 50
166.75144132144229
 51
184.11856707848381
  0
POLYLINE
  5
CD4
  8
0
 62
     1
 66
     1
 10
0.0
 20
0.0
 30
0.0
 70
     1
  0
VERTEX
  5
106C
  8
0
 62
     1
 10
910.1026742955612
 20
1542.0905866312301
 30
0.0
 42
0.6288324604220672
  0
VERTEX
  5
106D
  8
0
 62
     1
 10
911.7951765366978
 20
1542.9041861976659
 30
0.0
  0
VERTEX
  5
106E
  8
0
 62
     1
 10
911.7951765366978
 20
1550.5328255721799
 30
0.0
 42
-0.3445911467952724
  0
VERTEX
  5
106F
  8
0
 62
     1
 10
901.51142444900893
 20
1542.8476595628281
 30
0.0
 42
-0.3541055961739709
  0
VERTEX
  5
1070
  8
0
 62
     1
 10
906.49150331926603
 20
1535.326188210327
 30
0.0
 42
0.8152792493405748
  0
VERTEX
  5
1071
  8
0
 62
     1
 10
910.38623585520781
 20
1535.8429757528961
 30
0.0
 42
0.2011871423749923
  0
VERTEX
  5
1072
  8
0
 62
     1
 10
908.9049447642368
 20
1540.2222083709969
 30
0.0
 42
-0.8446139895024035
  0
SEQEND
  5
1073
  8
0
 62
     1
  0
POLYLINE
  5
CD5
  8
0
 62
     1
 66
     1
 10
0.0
 20
0.0
 30
0.0
  0
VERTEX
  5
1074
  8
0
 62
     1
 10
967.59279874999118
 20
1532.5224675795371
 30
0.0
  0
VERTEX
  5
1075
  8
0
 62
     1
 10
981.3185958128862
 20
1532.5224675795371
 30
0.0
 42
0.0074479519804608
  0
VERTEX
  5
1076
  8
0
 62
     1
 10
965.66007678518315
 20
1524.2433660849119
 30
0.0
  0
SEQEND
  5
1077
  8
0
 62
     1
  0
POLYLINE
  5
CD6
  8
0
 62
     1
 66
     1
 10
0.0
 20
0.0
 30
0.0
  0
VERTEX
  5
1078
  8
0
 62
     1
 10
962.25543921508506
 20
1532.5224675795371
 30
0.0
  0
VERTEX
  5
1079
  8
0
 62
     1
 10
945.51442570795791
 20
1532.5224675795371
 30
0.0
 42
-0.0807588582061847
  0
VERTEX
  5
107A
  8
0
 62
     1
 10
949.59523114281956
 20
1530.6682341757221
 30
0.0
 42
-0.8059762631926892
  0
VERTEX
  5
107B
  8
0
 62
     1
 10
944.61630291693689
 20
1517.9676084994071
 30
0.0
 42
-1.204132615328624
  0
VERTEX
  5
107C
  8
0
 62
     1
 10
946.27211022633048
 20
1522.5857962000271
 30
0.0
 42
0.873997737137545
  0
VERTEX
  5
107D
  8
0
 62
     1
 10
947.77869230313024
 20
1524.5140923875119
 30
0.0
 42
2.0631682127357238
  0
VERTEX
  5
107E
  8
0
 62
     1
 10
946.30149112583831
 20
1513.1588375925389
 30
0.0
 42
-0.007336262336506
  0
VERTEX
  5
107F
  8
0
 62
     1
 10
961.40650893674547
 20
1521.890002966031
 30
0.0
  0
SEQEND
  5
1080
  8
0
 62
     1
  0
ARC
  5
CD7
  8
0
 62
     1
 10
516.58409786367838
 20
1784.1956281703381
 30
0.0
 40
443.60791540592089
 50
329.1301067457353
 51
330.77613004779278
  0
LINE
  5
CD8
  8
0
 62
     1
 10
911.79517653669757
 20
1568.2316171585419
 30
0.0
 11
911.7951765366978
 21
1555.9974865342131
 31
0.0
  0
ARC
  5
CD9
  8
0
 62
     1
 10
902.0190859433194
 20
1553.792535667731
 30
0.0
 40
5.4418758986936258
 50
149.1301067457353
 51
45.69382034739759
  0
ARC
  5
CDA
  8
0
 62
     1
 10
902.77411746851249
 20
1555.62322735147
 30
0.0
 40
1.8618499563218001
 50
189.14226562288869
 51
30.307359819745141
  0
ARC
  5
CDB
  8
0
 62
     1
 10
905.17677354863974
 20
1557.027640251242
 30
0.0
 40
0.9211577390364043
 50
45.69382034739759
 51
210.3073598197453
  0
ARC
  5
CDC
  8
0
 62
     1
 10
906.07758384401518
 20
1556.1548566338311
 30
0.0
 40
5.207820635802018
 50
33.670306184826657
 51
189.14226562288869
  0
ARC
  5
CDD
  8
0
 62
     1
 10
901.73979215428074
 20
1553.265156053197
 30
0.0
 40
10.41999927714286
 50
15.20182010551401
 51
33.670306184826657
  0
ARC
  5
CDE
  8
0
 62
     1
 10
516.58409786367838
 20
1784.1956281703381
 30
0.0
 40
443.60791540592089
 50
331.31926406800773
 51
332.98678298051448
  0
LINE
  5
CDF
  8
0
 62
     1
 10
911.7951765366978
 20
1572.7442408255381
 30
0.0
 11
911.7951765366978
 21
1582.710676114621
 31
0.0
  0
ENDSEC
  0
EOF
