  0
SECTION
  2
HEADER
  9
$ACADVER
  1
AC1012
  9
$DWGCODEPAGE
  3
dos850
  9
$INSBASE
 10
0.0
 20
0.0
 30
0.0
  9
$EXTMIN
 10
-52.9333
 20
-74.9819
 30
1.000000E+20
  9
$EXTMAX
 10
52.9333
 20
74.9818
 30
-1.000000E+20
  9
$LIMMIN
 10
0.0
 20
0.0
  9
$LIMMAX
 10
0.0
 20
0.0
  9
$ORTHOMODE
 70
     0
  9
$REGENMODE
 70
     1
  9
$FILLMODE
 70
     1
  9
$QTEXTMODE
 70
     0
  9
$MIRRTEXT
 70
     1
  9
$DRAGMODE
 70
     2
  9
$LTSCALE
 40
1.0
  9
$OSMODE
 70
     0
  9
$ATTMODE
 70
     1
  9
$TEXTSIZE
 40
0.2
  9
$TRACEWID
 40
0.05
  9
$TEXTSTYLE
  7
STANDARD
  9
$CLAYER
  8
0
  9
$CELTYPE
  6
CONTINUOUS
  9
$CECOLOR
 62
   256
  9
$CELTSCALE
 40
1.0
  9
$DELOBJ
 70
     1
  9
$DISPSILH
 70
     0
  9
$DIMSCALE
 40
1.0
  9
$DIMASZ
 40
0.18
  9
$DIMEXO
 40
0.0625
  9
$DIMDLI
 40
0.38
  9
$DIMRND
 40
0.0
  9
$DIMDLE
 40
0.0
  9
$DIMEXE
 40
0.18
  9
$DIMTP
 40
0.0
  9
$DIMTM
 40
0.0
  9
$DIMTXT
 40
0.18
  9
$DIMCEN
 40
0.09
  9
$DIMTSZ
 40
0.0
  9
$DIMTOL
 70
     0
  9
$DIMLIM
 70
     0
  9
$DIMTIH
 70
     1
  9
$DIMTOH
 70
     1
  9
$DIMSE1
 70
     0
  9
$DIMSE2
 70
     0
  9
$DIMTAD
 70
     0
  9
$DIMZIN
 70
     0
  9
$DIMBLK
  1

  9
$DIMASO
 70
     1
  9
$DIMSHO
 70
     1
  9
$DIMPOST
  1

  9
$DIMAPOST
  1

  9
$DIMALT
 70
     0
  9
$DIMALTD
 70
     2
  9
$DIMALTF
 40
25.4
  9
$DIMLFAC
 40
1.0
  9
$DIMTOFL
 70
     0
  9
$DIMTVP
 40
0.0
  9
$DIMTIX
 70
     0
  9
$DIMSOXD
 70
     0
  9
$DIMSAH
 70
     0
  9
$DIMBLK1
  1

  9
$DIMBLK2
  1

  9
$DIMSTYLE
  2
STANDARD
  9
$DIMCLRD
 70
     0
  9
$DIMCLRE
 70
     0
  9
$DIMCLRT
 70
     0
  9
$DIMTFAC
 40
1.0
  9
$DIMGAP
 40
0.09
  9
$DIMJUST
 70
     0
  9
$DIMSD1
 70
     0
  9
$DIMSD2
 70
     0
  9
$DIMTOLJ
 70
     1
  9
$DIMTZIN
 70
     0
  9
$DIMALTZ
 70
     0
  9
$DIMALTTZ
 70
     0
  9
$DIMFIT
 70
     3
  9
$DIMUPT
 70
     0
  9
$DIMUNIT
 70
     2
  9
$DIMDEC
 70
     4
  9
$DIMTDEC
 70
     4
  9
$DIMALTU
 70
     2
  9
$DIMALTTD
 70
     2
  9
$DIMTXSTY
  7
STANDARD
  9
$DIMAUNIT
 70
     0
  9
$LUNITS
 70
     2
  9
$LUPREC
 70
     4
  9
$SKETCHINC
 40
0.1
  9
$FILLETRAD
 40
0.0
  9
$AUNITS
 70
     0
  9
$AUPREC
 70
     0
  9
$MENU
  1
acad
  9
$ELEVATION
 40
0.0
  9
$PELEVATION
 40
0.0
  9
$THICKNESS
 40
0.0
  9
$LIMCHECK
 70
     0
  9
$BLIPMODE
 70
     1
  9
$CHAMFERA
 40
0.0
  9
$CHAMFERB
 40
0.0
  9
$CHAMFERC
 40
0.0
  9
$CHAMFERD
 40
0.0
  9
$SKPOLY
 70
     0
  9
$TDCREATE
 40
0.000000000
  9
$TDUPDATE
 40
0.000000000
  9
$TDINDWG
 40
0.0000000000
  9
$TDUSRTIMER
 40
0.0000000000
  9
$USRTIMER
 70
     1
  9
$ANGBASE
 50
0.0
  9
$ANGDIR
 70
     0
  9
$PDMODE
 70
     0
  9
$PDSIZE
 40
0.0
  9
$PLINEWID
 40
0.0
  9
$COORDS
 70
     0
  9
$SPLFRAME
 70
     0
  9
$SPLINETYPE
 70
     6
  9
$SPLINESEGS
 70
     8
  9
$ATTDIA
 70
     0
  9
$ATTREQ
 70
     1
  9
$HANDLING
 70
     1
  9
$HANDSEED
  5
A1
  9
$SURFTAB1
 70
     6
  9
$SURFTAB2
 70
     6
  9
$SURFTYPE
 70
     6
  9
$SURFU
 70
     6
  9
$SURFV
 70
     6
  9
$UCSNAME
  2

  9
$UCSORG
 10
0.0
 20
0.0
 30
0.0
  9
$UCSXDIR
 10
1.0
 20
0.0
 30
0.0
  9
$UCSYDIR
 10
0.0
 20
1.0
 30
0.0
  9
$PUCSNAME
  2

  9
$PUCSORG
 10
0.0
 20
0.0
 30
0.0
  9
$PUCSXDIR
 10
1.0
 20
0.0
 30
0.0
  9
$PUCSYDIR
 10
0.0
 20
1.0
 30
0.0
  9
$USERI1
 70
     0
  9
$USERI2
 70
     0
  9
$USERI3
 70
     0
  9
$USERI4
 70
     0
  9
$USERI5
 70
     0
  9
$USERR1
 40
0.0
  9
$USERR2
 40
0.0
  9
$USERR3
 40
0.0
  9
$USERR4
 40
0.0
  9
$USERR5
 40
0.0
  9
$WORLDVIEW
 70
     1
  9
$SHADEDGE
 70
     3
  9
$SHADEDIF
 70
    70
  9
$TILEMODE
 70
     1
  9
$MAXACTVP
 70
    16
  9
$PINSBASE
 10
0.0
 20
0.0
 30
0.0
  9
$PLIMCHECK
 70
     0
  9
$PEXTMIN
 10
1.000000E+20
 20
1.000000E+20
 30
1.000000E+20
  9
$PEXTMAX
 10
-1.000000E+20
 20
-1.000000E+20
 30
-1.000000E+20
  9
$PLIMMIN
 10
0.0
 20
0.0
  9
$PLIMMAX
 10
12.0
 20
9.0
  9
$UNITMODE
 70
     0
  9
$VISRETAIN
 70
     0
  9
$PLINEGEN
 70
     1
  9
$PSLTSCALE
 70
     0
  9
$TREEDEPTH
 70
  3020
  9
$PICKSTYLE
 70
     1
  9
$CMLSTYLE
  2
STANDARD
  9
$CMLJUST
 70
     0
  9
$CMLSCALE
 40
1.0
  9
$SAVEIMAGES
 70
     0
  0
ENDSEC
  0
SECTION
  2
CLASSES
  0
CLASS
  1
LWPOLYLINE
  2
AcDbPolyline
  3
"AutoCAD"
 90
        0
280
     0
281
     1
  0
CLASS
  1
IMAGE
  2
AcDbRasterImage
  3
ISM
 90
      127
280
     0
281
     1
  0
CLASS
  1
OLE2FRAME
  2
AcDbOle2Frame
  3
""
 90
        0
280
     0
281
     1
  0
CLASS
  1
HATCH
  2
AcDbHatch
  3
"ACAD_SEDONA"
 90
        0
280
     0
281
     1
  0
CLASS
  1
DICTIONARYVAR
  2
AcDbDictionaryVar
  3
"AutoCAD"
 90
        0
280
     0
281
     0
  0
CLASS
  1
RASTERVARIABLES
  2
AcDbRasterVariables
  3
ISM
 90
        0
280
     0
281
     0
  0
CLASS
  1
IMAGEDEF
  2
AcDbRasterImageDef
  3
ISM
 90
        0
280
     0
281
     0
  0
CLASS
  1
IMAGEDEF_REACTOR
  2
AcDbRasterImageDefReactor
  3
ISM
 90
        1
280
     0
281
     0
  0
CLASS
  1
IDBUFFER
  2
AcDbIdBuffer
  3
"Acad"
 90
        0
280
     0
281
     0
  0
CLASS
  1
SPATIAL_FILTER
  2
AcDbSpatialFilter
  3
"Acad"
 90
        0
280
     0
281
     0
  0
CLASS
  1
XRECORD
  2
AcDbXrecord
  3
"<Built In>"
 90
        0
280
     0
281
     0
  0
CLASS
  1
SORTENTSTABLE
  2
AcDbSortentsTable
  3
"AutoCAD"
 90
        0
280
     0
281
     0
  0
CLASS
  1
LAYER_INDEX
  2
AcDbLayerIndex
  3
"Acad"
 90
        0
280
     0
281
     0
  0
CLASS
  1
SPATIAL_INDEX
  2
AcDbSpatialIndex
  3
"Acad"
 90
        0
280
     0
281
     0
  0
CLASS
  1
OBJECT_PTR
  2
CAseDLPNTableRecord
  3
"ASE-LPNTableRecord"
 90
        1
280
     0
281
     0
  0
CLASS
  1
LAYOUT
  2
AcDbLayout
  3
"AutoCAD 2000"
 90
        1
280
     0
281
     0
  0
CLASS
  1
PLOTSETTINGS
  2
AcDbPlotSettings
  3
"AutoCAD 2000"
 90
        1
280
     0
281
     0
  0
CLASS
  1
ACDBDICTIONARYWDFLT
  2
AcDbDictionaryWithDefault
  3
"AutoCAD 2000"
 90
        1
280
     0
281
     0
  0
CLASS
  1
ACDBPLACEHOLDER
  2
AcDbPlaceHolder
  3
"AutoCAD 2000"
 90
        1
280
     0
281
     0
  0
CLASS
  1
VBA_PROJECT
  2
AcDbVbaProject
  3
"acadvba"
 90
        1
280
     0
281
     0
  0
CLASS
  1
WIPEOUT
  2
AcDbWipeout
  3
WipeOut|AutoCAD Express Tool|expresstools@autodesk.com
 90
      127
280
     0
281
     1
  0
CLASS
  1
WIPEOUTVARIABLES
  2
AcDbWipeoutVariables
  3
WipeOut|AutoCAD Express Tool|expresstools@autodesk.com
 90
        0
280
     0
281
     0
  0
CLASS
  1
RTEXT
  2
RText
  3
RText|AutoCAD Express Tool|expresstools@autodesk.com
 90
        0
280
     0
281
     1
  0
CLASS
  1
ARCALIGNEDTEXT
  2
AcDbArcAlignedText
  3
ATEXT|AutoCAD Express Tool|expresstools@autodesk.com
 90
        0
280
     0
281
     1
  0
ENDSEC
  0
SECTION
  2
TABLES
  0
TABLE
  2
VPORT
  5
7
100
AcDbSymbolTable
 70
     1
  0
VPORT
  5
15
100
AcDbSymbolTableRecord
100
AcDbViewportTableRecord
  2
*ACTIVE
 70
     0
 10
0.0
 20
0.0
 11
1.0
 21
1.0
 12
6.591288
 22
4.579184
 13
0.0
 23
0.0
 14
1.0
 24
1.0
 15
0.0
 25
0.0
 16
0.0
 26
0.0
 36
1.0
 17
0.0
 27
0.0
 37
0.0
 40
9.158369
 41
0.688564
 42
50.0
 43
0.0
 44
0.0
 50
0.0
 51
0.0
 71
     0
 72
   100
 73
     1
 74
     1
 75
     0
 76
     0
 77
     0
 78
     0
  0
ENDTAB
  0
TABLE
  2
LTYPE
  5
4
100
AcDbSymbolTable
 70
     3
  0
LTYPE
  5
11
100
AcDbSymbolTableRecord
100
AcDbLinetypeTableRecord
  2
BYBLOCK
 70
    64
  3

 72
    65
 73
     0
 40
0.0
  0
LTYPE
  5
12
100
AcDbSymbolTableRecord
100
AcDbLinetypeTableRecord
  2
BYLAYER
 70
    64
  3

 72
    65
 73
     0
 40
0.0
  0
LTYPE
  5
13
100
AcDbSymbolTableRecord
100
AcDbLinetypeTableRecord
  2
CONTINUOUS
 70
    64
  3
Solid line
 72
    65
 73
     0
 40
0.0
  0
ENDTAB
  0
TABLE
  2
LAYER
  5
2
100
AcDbSymbolTable
 70
     2
  0
LAYER
  5
14
100
AcDbSymbolTableRecord
100
AcDbLayerTableRecord
  2
0
 70
     0
 62
     7
  6
CONTINUOUS
  0
LAYER
  5
24
100
AcDbSymbolTableRecord
100
AcDbLayerTableRecord
  2
LAYER_1
 70
     0
 62
     7
  6
CONTINUOUS
  0
ENDTAB
  0
TABLE
  2
STYLE
  5
3
100
AcDbSymbolTable
 70
     1
  0
STYLE
  5
17
100
AcDbSymbolTableRecord
100
AcDbTextStyleTableRecord
  2
STANDARD
 70
     0
 40
0.0
 41
1.0
 50
0.0
 71
     0
 42
0.0
  3
txt
  4

  0
ENDTAB
  0
TABLE
  2
VIEW
  5
5
100
AcDbSymbolTable
 70
     0
  0
ENDTAB
  0
TABLE
  2
UCS
  5
6
100
AcDbSymbolTable
 70
     0
  0
ENDTAB
  0
TABLE
  2
APPID
  5
8
100
AcDbSymbolTable
 70
     1
  0
APPID
  5
16
100
AcDbSymbolTableRecord
100
AcDbRegAppTableRecord
  2
ACAD
 70
     0
  0
ENDTAB
  0
TABLE
  2
DIMSTYLE
  5
9
100
AcDbSymbolTable
 70
     1
  0
DIMSTYLE
105
18
100
AcDbSymbolTableRecord
100
AcDbDimStyleTableRecord
  2
STANDARD
 70
     0
  3

  4

  5

  6

  7

 40
1.0
 41
0.18
 42
0.0625
 43
0.38
 44
0.18
 45
0.0
 46
0.0
 47
0.0
 48
0.0
 71
     0
 72
     0
 73
     1
 74
     1
 75
     0
 76
     0
 77
     0
 78
     0
140
0.18
141
0.09
142
0.0
143
25.4
144
1.0
145
0.0
146
1.0
147
0.09
170
     0
171
     2
172
     0
173
     0
174
     0
175
     0
176
     0
177
     0
178
     0
270
     2
271
     4
272
     4
273
     2
274
     2
275
     0
280
     0
281
     0
282
     0
283
     1
284
     0
285
     0
286
     0
287
     0
288
     0
340
17
  0
ENDTAB
  0
TABLE
  2
BLOCK_RECORD
  5
1
100
AcDbSymbolTable
 70
     0
  0
BLOCK_RECORD
  5
A
100
AcDbSymbolTableRecord
100
AcDbBlockTableRecord
  2
*MODEL_SPACE
  0
BLOCK_RECORD
  5
B
100
AcDbSymbolTableRecord
100
AcDbBlockTableRecord
  2
*PAPER_SPACE
  0
ENDTAB
  0
ENDSEC
  0
SECTION
  2
BLOCKS
  0
BLOCK
  5
D
100
AcDbEntity
  8
0
100
AcDbBlockBegin
  2
*MODEL_SPACE
 70
     0
 10
0.0
 20
0.0
 30
0.0
  3
*MODEL_SPACE
  1

  0
ENDBLK
  5
E
100
AcDbEntity
  8
0
100
AcDbBlockEnd
  0
BLOCK
  5
F
100
AcDbEntity
 67
     1
  8
0
100
AcDbBlockBegin
  2
*PAPER_SPACE
 70
     0
 10
0.0
 20
0.0
 30
0.0
  3
*PAPER_SPACE
  1

  0
ENDBLK
  5
10
100
AcDbEntity
 67
     1
  8
0
100
AcDbBlockEnd
  0
ENDSEC
  0
SECTION
  2
ENTITIES
  0
SPLINE
  5
25
100
AcDbEntity
  8
LAYER_1
 62
     8
100
AcDbSpline
210
0.0
220
0.0
230
1.0
 70
     1
 71
     3
 72
   192
 73
   188
 74
     0
 42
0.0000000001
 43
0.0000000001
 40
0.0
 40
0.0
 40
0.0
 40
0.0
 40
0.0212765957446809
 40
0.0212765957446809
 40
0.0212765957446809
 40
0.0212765957446809
 40
0.0425531914893617
 40
0.0425531914893617
 40
0.0425531914893617
 40
0.0425531914893617
 40
0.0638297872340425
 40
0.0638297872340425
 40
0.0638297872340425
 40
0.0638297872340425
 40
0.0851063829787234
 40
0.0851063829787234
 40
0.0851063829787234
 40
0.0851063829787234
 40
0.1063829787234043
 40
0.1063829787234043
 40
0.1063829787234043
 40
0.1063829787234043
 40
0.1276595744680851
 40
0.1276595744680851
 40
0.1276595744680851
 40
0.1276595744680851
 40
0.148936170212766
 40
0.148936170212766
 40
0.148936170212766
 40
0.148936170212766
 40
0.1702127659574468
 40
0.1702127659574468
 40
0.1702127659574468
 40
0.1702127659574468
 40
0.1914893617021277
 40
0.1914893617021277
 40
0.1914893617021277
 40
0.1914893617021277
 40
0.2127659574468085
 40
0.2127659574468085
 40
0.2127659574468085
 40
0.2127659574468085
 40
0.2340425531914894
 40
0.2340425531914894
 40
0.2340425531914894
 40
0.2340425531914894
 40
0.2553191489361702
 40
0.2553191489361702
 40
0.2553191489361702
 40
0.2553191489361702
 40
0.276595744680851
 40
0.276595744680851
 40
0.276595744680851
 40
0.276595744680851
 40
0.2978723404255319
 40
0.2978723404255319
 40
0.2978723404255319
 40
0.2978723404255319
 40
0.3191489361702127
 40
0.3191489361702127
 40
0.3191489361702127
 40
0.3191489361702127
 40
0.3404255319148935
 40
0.3404255319148935
 40
0.3404255319148935
 40
0.3404255319148935
 40
0.3617021276595743
 40
0.3617021276595743
 40
0.3617021276595743
 40
0.3617021276595743
 40
0.3829787234042552
 40
0.3829787234042552
 40
0.3829787234042552
 40
0.3829787234042552
 40
0.404255319148936
 40
0.404255319148936
 40
0.404255319148936
 40
0.404255319148936
 40
0.4255319148936168
 40
0.4255319148936168
 40
0.4255319148936168
 40
0.4255319148936168
 40
0.4468085106382976
 40
0.4468085106382976
 40
0.4468085106382976
 40
0.4468085106382976
 40
0.4680851063829785
 40
0.4680851063829785
 40
0.4680851063829785
 40
0.4680851063829785
 40
0.4893617021276593
 40
0.4893617021276593
 40
0.4893617021276593
 40
0.4893617021276593
 40
0.5106382978723402
 40
0.5106382978723402
 40
0.5106382978723402
 40
0.5106382978723402
 40
0.5319148936170211
 40
0.5319148936170211
 40
0.5319148936170211
 40
0.5319148936170211
 40
0.5531914893617019
 40
0.5531914893617019
 40
0.5531914893617019
 40
0.5531914893617019
 40
0.5744680851063828
 40
0.5744680851063828
 40
0.5744680851063828
 40
0.5744680851063828
 40
0.5957446808510637
 40
0.5957446808510637
 40
0.5957446808510637
 40
0.5957446808510637
 40
0.6170212765957446
 40
0.6170212765957446
 40
0.6170212765957446
 40
0.6170212765957446
 40
0.6382978723404255
 40
0.6382978723404255
 40
0.6382978723404255
 40
0.6382978723404255
 40
0.6595744680851063
 40
0.6595744680851063
 40
0.6595744680851063
 40
0.6595744680851063
 40
0.6808510638297872
 40
0.6808510638297872
 40
0.6808510638297872
 40
0.6808510638297872
 40
0.7021276595744681
 40
0.7021276595744681
 40
0.7021276595744681
 40
0.7021276595744681
 40
0.723404255319149
 40
0.723404255319149
 40
0.723404255319149
 40
0.723404255319149
 40
0.7446808510638299
 40
0.7446808510638299
 40
0.7446808510638299
 40
0.7446808510638299
 40
0.7659574468085107
 40
0.7659574468085107
 40
0.7659574468085107
 40
0.7659574468085107
 40
0.7872340425531916
 40
0.7872340425531916
 40
0.7872340425531916
 40
0.7872340425531916
 40
0.8085106382978725
 40
0.8085106382978725
 40
0.8085106382978725
 40
0.8085106382978725
 40
0.8297872340425534
 40
0.8297872340425534
 40
0.8297872340425534
 40
0.8297872340425534
 40
0.8510638297872343
 40
0.8510638297872343
 40
0.8510638297872343
 40
0.8510638297872343
 40
0.8723404255319152
 40
0.8723404255319152
 40
0.8723404255319152
 40
0.8723404255319152
 40
0.893617021276596
 40
0.893617021276596
 40
0.893617021276596
 40
0.893617021276596
 40
0.9148936170212769
 40
0.9148936170212769
 40
0.9148936170212769
 40
0.9148936170212769
 40
0.9361702127659578
 40
0.9361702127659578
 40
0.9361702127659578
 40
0.9361702127659578
 40
0.9574468085106387
 40
0.9574468085106387
 40
0.9574468085106387
 40
0.9574468085106387
 40
0.9787234042553196
 40
0.9787234042553196
 40
0.9787234042553196
 40
0.9787234042553196
 40
1.0
 40
1.0
 40
1.0
 40
1.0
 10
40.851700000000001
 20
74.965299999999999
 30
0.0
 10
40.851700000000001
 20
74.965299999999999
 30
0.0
 10
46.531400000000005
 20
74.965299999999999
 30
0.0
 10
46.531400000000005
 20
74.965299999999999
 30
0.0
 10
46.531400000000005
 20
74.965299999999999
 30
0.0
 10
46.531400000000005
 20
74.965299999999999
 30
0.0
 10
46.6372
 20
74.577200000000005
 30
0.0
 10
46.6372
 20
74.577200000000005
 30
0.0
 10
46.6372
 20
74.577200000000005
 30
0.0
 10
45.014400000000002
 20
74.400800000000004
 30
0.0
 10
43.003599999999999
 20
75.071100000000001
 30
0.0
 10
41.663000000000004
 20
74.224400000000003
 30
0.0
 10
41.663000000000004
 20
74.224400000000003
 30
0.0
 10
41.733600000000003
 20
74.083300000000008
 30
0.0
 10
41.910000000000004
 20
73.801100000000005
 30
0.0
 10
41.980499999999999
 20
73.659999999999997
 30
0.0
 10
41.980499999999999
 20
73.659999999999997
 30
0.0
 10
43.3917
 20
73.695300000000003
 30
0.0
 10
44.8733
 20
74.224400000000003
 30
0.0
 10
46.249200000000002
 20
73.624700000000004
 30
0.0
 10
46.249200000000002
 20
73.624700000000004
 30
0.0
 10
45.755300000000005
 20
73.589399999999998
 30
0.0
 10
45.261400000000002
 20
73.554100000000005
 30
0.0
 10
44.732199999999999
 20
73.48360000000001
 30
0.0
 10
44.732199999999999
 20
73.48360000000001
 30
0.0
 10
45.190800000000003
 20
73.130800000000008
 30
0.0
 10
45.6494
 20
72.848600000000005
 30
0.0
 10
46.108000000000004
 20
72.566400000000002
 30
0.0
 10
46.108000000000004
 20
72.566400000000002
 30
0.0
 10
45.578900000000004
 20
72.143000000000001
 30
0.0
 10
45.049700000000001
 20
71.790300000000002
 30
0.0
 10
44.520500000000006
 20
71.366900000000001
 30
0.0
 10
44.520500000000006
 20
71.366900000000001
 30
0.0
 10
45.755300000000005
 20
69.497200000000007
 30
0.0
 10
48.4011
 20
67.521600000000007
 30
0.0
 10
50.623600000000003
 20
68.968000000000004
 30
0.0
 10
50.623600000000003
 20
68.968000000000004
 30
0.0
 10
50.694200000000002
 20
69.038600000000002
 30
0.0
 10
50.835300000000004
 20
69.144400000000005
 30
0.0
 10
50.941100000000006
 20
69.215000000000003
 30
0.0
 10
50.941100000000006
 20
69.215000000000003
 30
0.0
 10
51.152799999999999
 20
68.9328
 30
0.0
 10
51.399700000000003
 20
68.650500000000008
 30
0.0
 10
51.646700000000003
 20
68.403599999999997
 30
0.0
 10
51.646700000000003
 20
68.403599999999997
 30
0.0
 10
52.07
 20
68.332999999999998
 30
0.0
 10
52.493300000000005
 20
68.262500000000003
 30
0.0
 10
52.916700000000006
 20
68.227199999999996
 30
0.0
 10
52.916700000000006
 20
68.227199999999996
 30
0.0
 10
52.916700000000006
 20
68.227199999999996
 30
0.0
 10
52.916700000000006
 20
67.945000000000007
 30
0.0
 10
52.916700000000006
 20
67.945000000000007
 30
0.0
 10
52.916700000000006
 20
67.945000000000007
 30
0.0
 10
49.3889
 20
68.015500000000003
 30
0.0
 10
45.8611
 20
67.803899999999999
 30
0.0
 10
42.333300000000001
 20
67.909700000000001
 30
0.0
 10
42.333300000000001
 20
67.909700000000001
 30
0.0
 10
40.957500000000003
 20
68.191900000000004
 30
0.0
 10
40.075500000000005
 20
66.392800000000008
 30
0.0
 10
40.816400000000002
 20
65.334400000000002
 30
0.0
 10
40.816400000000002
 20
65.334400000000002
 30
0.0
 10
41.804200000000002
 20
63.5
 30
0.0
 10
44.203000000000003
 20
64.0291
 30
0.0
 10
45.719999999999999
 20
62.900300000000001
 30
0.0
 10
45.719999999999999
 20
62.900300000000001
 30
0.0
 10
43.9208
 20
63.147200000000005
 30
0.0
 10
42.121700000000004
 20
62.935500000000005
 30
0.0
 10
40.357800000000005
 20
62.829700000000003
 30
0.0
 10
40.357800000000005
 20
62.829700000000003
 30
0.0
 10
40.322500000000005
 20
62.618000000000002
 30
0.0
 10
40.251899999999999
 20
62.230000000000004
 30
0.0
 10
40.216700000000003
 20
62.018300000000004
 30
0.0
 10
40.216700000000003
 20
62.018300000000004
 30
0.0
 10
40.851700000000001
 20
61.983000000000004
 30
0.0
 10
41.4514
 20
61.983000000000004
 30
0.0
 10
42.086400000000005
 20
61.983000000000004
 30
0.0
 10
42.086400000000005
 20
61.983000000000004
 30
0.0
 10
41.521900000000002
 20
61.700800000000001
 30
0.0
 10
40.6753
 20
61.665500000000002
 30
0.0
 10
40.534199999999998
 20
60.924700000000001
 30
0.0
 10
40.534199999999998
 20
60.924700000000001
 30
0.0
 10
41.027999999999999
 20
60.818900000000006
 30
0.0
 10
41.521900000000002
 20
60.7483
 30
0.0
 10
42.015799999999999
 20
60.713000000000001
 30
0.0
 10
42.015799999999999
 20
60.713000000000001
 30
0.0
 10
41.557200000000002
 20
60.571899999999999
 30
0.0
 10
41.098600000000005
 20
60.466100000000004
 30
0.0
 10
40.6753
 20
60.325000000000003
 30
0.0
 10
40.6753
 20
60.325000000000003
 30
0.0
 10
40.604700000000001
 20
60.148600000000002
 30
0.0
 10
40.498899999999999
 20
59.831100000000006
 30
0.0
 10
40.4283
 20
59.690000000000005
 30
0.0
 10
40.4283
 20
59.690000000000005
 30
0.0
 10
39.017200000000003
 20
61.912500000000001
 30
0.0
 10
40.992800000000003
 20
65.016900000000007
 30
0.0
 10
38.876100000000001
 20
66.921900000000008
 30
0.0
 10
38.876100000000001
 20
66.921900000000008
 30
0.0
 10
40.287199999999999
 20
67.027799999999999
 30
0.0
 10
41.169200000000004
 20
68.262500000000003
 30
0.0
 10
42.015799999999999
 20
69.285499999999999
 30
0.0
 10
42.015799999999999
 20
69.285499999999999
 30
0.0
 10
40.886900000000004
 20
69.356099999999998
 30
0.0
 10
39.722799999999999
 20
69.426600000000008
 30
0.0
 10
38.593900000000005
 20
69.25030000000001
 30
0.0
 10
38.593900000000005
 20
69.25030000000001
 30
0.0
 10
37.606100000000005
 20
67.7333
 30
0.0
 10
38.311700000000002
 20
65.687200000000004
 30
0.0
 10
37.147500000000001
 20
64.2761
 30
0.0
 10
37.147500000000001
 20
64.2761
 30
0.0
 10
36.053899999999999
 20
62.618000000000002
 30
0.0
 10
38.629200000000004
 20
61.5244
 30
0.0
 10
38.9467
 20
60.0428
 30
0.0
 10
38.9467
 20
60.0428
 30
0.0
 10
38.734999999999999
 20
59.160800000000002
 30
0.0
 10
38.523299999999999
 20
58.208300000000001
 30
0.0
 10
39.052500000000002
 20
57.3264
 30
0.0
 10
39.052500000000002
 20
57.3264
 30
0.0
 10
38.981900000000003
 20
57.255800000000001
 30
0.0
 10
38.840800000000002
 20
57.0794
 30
0.0
 10
38.734999999999999
 20
56.973600000000005
 30
0.0
 10
38.734999999999999
 20
56.973600000000005
 30
0.0
 10
38.241100000000003
 20
57.467500000000001
 30
0.0
 10
37.9589
 20
58.137800000000006
 30
0.0
 10
37.747199999999999
 20
58.808
 30
0.0
 10
37.747199999999999
 20
58.808
 30
0.0
 10
38.593900000000005
 20
59.831100000000006
 30
0.0
 10
37.782499999999999
 20
60.924700000000001
 30
0.0
 10
37.076900000000002
 20
61.700800000000001
 30
0.0
 10
37.076900000000002
 20
61.700800000000001
 30
0.0
 10
37.041699999999999
 20
61.418600000000005
 30
0.0
 10
37.041699999999999
 20
60.818900000000006
 30
0.0
 10
37.006399999999999
 20
60.501400000000004
 30
0.0
 10
37.006399999999999
 20
60.501400000000004
 30
0.0
 10
36.653600000000004
 20
61.383300000000006
 30
0.0
 10
36.547800000000002
 20
62.335800000000006
 30
0.0
 10
36.300800000000002
 20
63.253
 30
0.0
 10
36.300800000000002
 20
63.253
 30
0.0
 10
35.313000000000002
 20
63.182500000000005
 30
0.0
 10
34.289999999999999
 20
62.794400000000003
 30
0.0
 10
33.302199999999999
 20
63.253
 30
0.0
 10
33.302199999999999
 20
63.253
 30
0.0
 10
34.572200000000002
 20
63.782200000000003
 30
0.0
 10
36.9358
 20
63.605800000000002
 30
0.0
 10
37.006399999999999
 20
65.440300000000008
 30
0.0
 10
37.006399999999999
 20
65.440300000000008
 30
0.0
 10
37.147500000000001
 20
66.9572
 30
0.0
 10
37.359200000000001
 20
68.509399999999999
 30
0.0
 10
38.276400000000002
 20
69.744100000000003
 30
0.0
 10
38.276400000000002
 20
69.744100000000003
 30
0.0
 10
40.005000000000003
 20
69.567800000000005
 30
0.0
 10
41.910000000000004
 20
69.920500000000004
 30
0.0
 10
43.497500000000002
 20
69.038600000000002
 30
0.0
 10
43.497500000000002
 20
69.038600000000002
 30
0.0
 10
41.874700000000004
 20
69.356099999999998
 30
0.0
 10
42.862500000000004
 20
67.768600000000006
 30
0.0
 10
43.709200000000003
 20
68.9328
 30
0.0
 10
43.709200000000003
 20
68.9328
 30
0.0
 10
44.450000000000003
 20
68.368300000000005
 30
0.0
 10
45.331900000000005
 20
68.156599999999997
 30
0.0
 10
46.249200000000002
 20
68.368300000000005
 30
0.0
 10
46.249200000000002
 20
68.368300000000005
 30
0.0
 10
45.578900000000004
 20
69.850000000000009
 30
0.0
 10
42.827200000000005
 20
70.096900000000005
 30
0.0
 10
41.169200000000004
 20
70.273300000000006
 30
0.0
 10
41.169200000000004
 20
70.273300000000006
 30
0.0
 10
40.710500000000003
 20
71.084699999999998
 30
0.0
 10
40.992800000000003
 20
71.9666
 30
0.0
 10
41.380800000000001
 20
72.742800000000003
 30
0.0
 10
41.380800000000001
 20
72.742800000000003
 30
0.0
 10
41.310300000000005
 20
72.813299999999998
 30
0.0
 10
41.2044
 20
72.954400000000007
 30
0.0
 10
41.133900000000004
 20
73.025000000000006
 30
0.0
 10
41.133900000000004
 20
73.025000000000006
 30
0.0
 10
41.169200000000004
 20
73.342500000000001
 30
0.0
 10
41.169200000000004
 20
73.624700000000004
 30
0.0
 10
41.2044
 20
73.9422
 30
0.0
 10
41.2044
 20
73.9422
 30
0.0
 10
40.4636
 20
73.9422
 30
0.0
 10
39.722799999999999
 20
73.801100000000005
 30
0.0
 10
39.017200000000003
 20
73.695300000000003
 30
0.0
 10
39.017200000000003
 20
73.695300000000003
 30
0.0
 10
39.334700000000005
 20
73.871600000000001
 30
0.0
 10
39.652200000000001
 20
74.048000000000002
 30
0.0
 10
39.969700000000003
 20
74.224400000000003
 30
0.0
 10
39.969700000000003
 20
74.224400000000003
 30
0.0
 10
40.322500000000005
 20
74.365499999999997
 30
0.0
 10
40.640000000000001
 20
74.612499999999997
 30
0.0
 10
40.851700000000001
 20
74.965299999999999
 30
0.0
  0
SPLINE
  5
26
100
AcDbEntity
  8
LAYER_1
 62
    17
100
AcDbSpline
210
0.0
220
0.0
230
1.0
 70
     1
 71
     3
 72
   168
 73
   164
 74
     0
 42
0.0000000001
 43
0.0000000001
 40
0.0
 40
0.0
 40
0.0
 40
0.0
 40
0.024390243902439
 40
0.024390243902439
 40
0.024390243902439
 40
0.024390243902439
 40
0.0487804878048781
 40
0.0487804878048781
 40
0.0487804878048781
 40
0.0487804878048781
 40
0.0731707317073171
 40
0.0731707317073171
 40
0.0731707317073171
 40
0.0731707317073171
 40
0.0975609756097561
 40
0.0975609756097561
 40
0.0975609756097561
 40
0.0975609756097561
 40
0.1219512195121951
 40
0.1219512195121951
 40
0.1219512195121951
 40
0.1219512195121951
 40
0.1463414634146341
 40
0.1463414634146341
 40
0.1463414634146341
 40
0.1463414634146341
 40
0.1707317073170732
 40
0.1707317073170732
 40
0.1707317073170732
 40
0.1707317073170732
 40
0.1951219512195122
 40
0.1951219512195122
 40
0.1951219512195122
 40
0.1951219512195122
 40
0.2195121951219512
 40
0.2195121951219512
 40
0.2195121951219512
 40
0.2195121951219512
 40
0.2439024390243902
 40
0.2439024390243902
 40
0.2439024390243902
 40
0.2439024390243902
 40
0.2682926829268292
 40
0.2682926829268292
 40
0.2682926829268292
 40
0.2682926829268292
 40
0.2926829268292683
 40
0.2926829268292683
 40
0.2926829268292683
 40
0.2926829268292683
 40
0.3170731707317073
 40
0.3170731707317073
 40
0.3170731707317073
 40
0.3170731707317073
 40
0.3414634146341464
 40
0.3414634146341464
 40
0.3414634146341464
 40
0.3414634146341464
 40
0.3658536585365854
 40
0.3658536585365854
 40
0.3658536585365854
 40
0.3658536585365854
 40
0.3902439024390245
 40
0.3902439024390245
 40
0.3902439024390245
 40
0.3902439024390245
 40
0.4146341463414635
 40
0.4146341463414635
 40
0.4146341463414635
 40
0.4146341463414635
 40
0.4390243902439026
 40
0.4390243902439026
 40
0.4390243902439026
 40
0.4390243902439026
 40
0.4634146341463416
 40
0.4634146341463416
 40
0.4634146341463416
 40
0.4634146341463416
 40
0.4878048780487806
 40
0.4878048780487806
 40
0.4878048780487806
 40
0.4878048780487806
 40
0.5121951219512196
 40
0.5121951219512196
 40
0.5121951219512196
 40
0.5121951219512196
 40
0.5365853658536587
 40
0.5365853658536587
 40
0.5365853658536587
 40
0.5365853658536587
 40
0.5609756097560977
 40
0.5609756097560977
 40
0.5609756097560977
 40
0.5609756097560977
 40
0.5853658536585368
 40
0.5853658536585368
 40
0.5853658536585368
 40
0.5853658536585368
 40
0.6097560975609758
 40
0.6097560975609758
 40
0.6097560975609758
 40
0.6097560975609758
 40
0.6341463414634149
 40
0.6341463414634149
 40
0.6341463414634149
 40
0.6341463414634149
 40
0.6585365853658539
 40
0.6585365853658539
 40
0.6585365853658539
 40
0.6585365853658539
 40
0.682926829268293
 40
0.682926829268293
 40
0.682926829268293
 40
0.682926829268293
 40
0.707317073170732
 40
0.707317073170732
 40
0.707317073170732
 40
0.707317073170732
 40
0.7317073170731711
 40
0.7317073170731711
 40
0.7317073170731711
 40
0.7317073170731711
 40
0.7560975609756101
 40
0.7560975609756101
 40
0.7560975609756101
 40
0.7560975609756101
 40
0.7804878048780491
 40
0.7804878048780491
 40
0.7804878048780491
 40
0.7804878048780491
 40
0.8048780487804882
 40
0.8048780487804882
 40
0.8048780487804882
 40
0.8048780487804882
 40
0.8292682926829272
 40
0.8292682926829272
 40
0.8292682926829272
 40
0.8292682926829272
 40
0.8536585365853663
 40
0.8536585365853663
 40
0.8536585365853663
 40
0.8536585365853663
 40
0.8780487804878053
 40
0.8780487804878053
 40
0.8780487804878053
 40
0.8780487804878053
 40
0.9024390243902444
 40
0.9024390243902444
 40
0.9024390243902444
 40
0.9024390243902444
 40
0.9268292682926834
 40
0.9268292682926834
 40
0.9268292682926834
 40
0.9268292682926834
 40
0.9512195121951225
 40
0.9512195121951225
 40
0.9512195121951225
 40
0.9512195121951225
 40
0.9756097560975615
 40
0.9756097560975615
 40
0.9756097560975615
 40
0.9756097560975615
 40
1.0
 40
1.0
 40
1.0
 40
1.0
 10
-49.882800000000003
 20
71.931399999999996
 30
0.0
 10
-45.684699999999999
 20
75.035800000000009
 30
0.0
 10
-40.287199999999999
 20
74.683000000000007
 30
0.0
 10
-35.4542
 20
73.871600000000001
 30
0.0
 10
-35.4542
 20
73.871600000000001
 30
0.0
 10
-30.444700000000001
 20
72.989699999999999
 30
0.0
 10
-25.400000000000002
 20
72.566400000000002
 30
0.0
 10
-20.3553
 20
72.284100000000009
 30
0.0
 10
-20.3553
 20
72.284100000000009
 30
0.0
 10
-14.3933
 20
71.50800000000001
 30
0.0
 10
-8.4667000000000012
 20
71.4375
 30
0.0
 10
-2.4694000000000003
 20
71.1905
 30
0.0
 10
-2.4694000000000003
 20
71.1905
 30
0.0
 10
0.4939
 20
70.908299999999997
 30
0.0
 10
3.4219000000000004
 20
71.931399999999996
 30
0.0
 10
6.3500000000000005
 20
71.1905
 30
0.0
 10
6.3500000000000005
 20
71.1905
 30
0.0
 10
9.3132999999999999
 20
71.120000000000005
 30
0.0
 10
12.2767
 20
71.084699999999998
 30
0.0
 10
15.24
 20
71.261099999999999
 30
0.0
 10
15.24
 20
71.261099999999999
 30
0.0
 10
9.8778000000000006
 20
69.920500000000004
 30
0.0
 10
4.3039000000000005
 20
70.943600000000004
 30
0.0
 10
-1.1642000000000001
 20
70.520300000000006
 30
0.0
 10
-1.1642000000000001
 20
70.520300000000006
 30
0.0
 10
-2.1167000000000002
 20
70.555500000000009
 30
0.0
 10
-3.0691999999999999
 20
70.590800000000002
 30
0.0
 10
-4.0217000000000001
 20
70.6614
 30
0.0
 10
-4.0217000000000001
 20
70.6614
 30
0.0
 10
-6.1031000000000004
 20
71.225800000000007
 30
0.0
 10
-8.2903000000000002
 20
70.908299999999997
 30
0.0
 10
-10.4069
 20
70.873000000000005
 30
0.0
 10
-10.4069
 20
70.873000000000005
 30
0.0
 10
-17.8858
 20
71.366900000000001
 30
0.0
 10
-25.400000000000002
 20
71.4375
 30
0.0
 10
-32.773000000000003
 20
72.636899999999997
 30
0.0
 10
-32.773000000000003
 20
72.636899999999997
 30
0.0
 10
-36.371400000000001
 20
73.23660000000001
 30
0.0
 10
-40.005000000000003
 20
73.589399999999998
 30
0.0
 10
-43.638600000000004
 20
73.730500000000006
 30
0.0
 10
-43.638600000000004
 20
73.730500000000006
 30
0.0
 10
-43.18
 20
72.636899999999997
 30
0.0
 10
-41.804200000000002
 20
72.531100000000009
 30
0.0
 10
-40.957500000000003
 20
71.860799999999998
 30
0.0
 10
-40.957500000000003
 20
71.860799999999998
 30
0.0
 10
-39.793300000000002
 20
70.943600000000004
 30
0.0
 10
-39.087800000000001
 20
69.638300000000001
 30
0.0
 10
-38.981900000000003
 20
68.191900000000004
 30
0.0
 10
-38.981900000000003
 20
68.191900000000004
 30
0.0
 10
-38.6997
 20
66.569100000000006
 30
0.0
 10
-38.593900000000005
 20
64.911100000000005
 30
0.0
 10
-38.523299999999999
 20
63.2883
 30
0.0
 10
-38.523299999999999
 20
63.2883
 30
0.0
 10
-37.429700000000004
 20
62.935500000000005
 30
0.0
 10
-36.300800000000002
 20
62.618000000000002
 30
0.0
 10
-35.2425
 20
62.265300000000003
 30
0.0
 10
-35.2425
 20
62.265300000000003
 30
0.0
 10
-36.477200000000003
 20
62.653300000000002
 30
0.0
 10
-37.853000000000002
 20
62.159400000000005
 30
0.0
 10
-39.052500000000002
 20
61.7714
 30
0.0
 10
-39.052500000000002
 20
61.7714
 30
0.0
 10
-39.405300000000004
 20
59.7605
 30
0.0
 10
-40.498899999999999
 20
58.0319
 30
0.0
 10
-41.133900000000004
 20
56.0916
 30
0.0
 10
-41.133900000000004
 20
56.0916
 30
0.0
 10
-39.828600000000002
 20
56.197500000000005
 30
0.0
 10
-38.629200000000004
 20
56.726600000000005
 30
0.0
 10
-37.359200000000001
 20
56.938300000000005
 30
0.0
 10
-37.359200000000001
 20
56.938300000000005
 30
0.0
 10
-38.488
 20
55.174400000000006
 30
0.0
 10
-41.027999999999999
 20
55.491900000000001
 30
0.0
 10
-42.791900000000005
 20
54.856900000000003
 30
0.0
 10
-42.791900000000005
 20
54.856900000000003
 30
0.0
 10
-42.791900000000005
 20
54.856900000000003
 30
0.0
 10
-43.038900000000005
 20
54.7864
 30
0.0
 10
-43.038900000000005
 20
54.7864
 30
0.0
 10
-43.038900000000005
 20
54.7864
 30
0.0
 10
-42.862500000000004
 20
54.363
 30
0.0
 10
-42.686100000000003
 20
53.975000000000001
 30
0.0
 10
-42.509700000000002
 20
53.551600000000001
 30
0.0
 10
-42.509700000000002
 20
53.551600000000001
 30
0.0
 10
-44.591100000000004
 20
53.234100000000005
 30
0.0
 10
-46.707799999999999
 20
53.163600000000002
 30
0.0
 10
-48.471700000000006
 20
54.5747
 30
0.0
 10
-48.471700000000006
 20
54.5747
 30
0.0
 10
-50.200300000000006
 20
56.903000000000006
 30
0.0
 10
-49.3889
 20
59.690000000000005
 30
0.0
 10
-50.0944
 20
62.265300000000003
 30
0.0
 10
-50.0944
 20
62.265300000000003
 30
0.0
 10
-51.046900000000001
 20
62.371100000000006
 30
0.0
 10
-51.964200000000005
 20
62.371100000000006
 30
0.0
 10
-52.916700000000006
 20
62.371100000000006
 30
0.0
 10
-52.916700000000006
 20
62.371100000000006
 30
0.0
 10
-52.916700000000006
 20
62.371100000000006
 30
0.0
 10
-52.916700000000006
 20
63.041400000000003
 30
0.0
 10
-52.916700000000006
 20
63.041400000000003
 30
0.0
 10
-52.916700000000006
 20
63.041400000000003
 30
0.0
 10
-48.965500000000006
 20
63.041400000000003
 30
0.0
 10
-45.049700000000001
 20
63.147200000000005
 30
0.0
 10
-41.098600000000005
 20
62.970800000000004
 30
0.0
 10
-41.098600000000005
 20
62.970800000000004
 30
0.0
 10
-41.169200000000004
 20
62.829700000000003
 30
0.0
 10
-41.345500000000001
 20
62.582800000000006
 30
0.0
 10
-41.4161
 20
62.441600000000001
 30
0.0
 10
-41.4161
 20
62.441600000000001
 30
0.0
 10
-43.074200000000005
 20
61.947800000000001
 30
0.0
 10
-44.838000000000001
 20
62.053600000000003
 30
0.0
 10
-46.531400000000005
 20
62.159400000000005
 30
0.0
 10
-46.531400000000005
 20
62.159400000000005
 30
0.0
 10
-46.566700000000004
 20
61.7361
 30
0.0
 10
-46.566700000000004
 20
61.312800000000003
 30
0.0
 10
-46.531400000000005
 20
60.889400000000002
 30
0.0
 10
-46.531400000000005
 20
60.889400000000002
 30
0.0
 10
-44.802800000000005
 20
60.924700000000001
 30
0.0
 10
-43.109400000000001
 20
61.700800000000001
 30
0.0
 10
-41.345500000000001
 20
61.453900000000004
 30
0.0
 10
-41.345500000000001
 20
61.453900000000004
 30
0.0
 10
-41.4161
 20
60.148600000000002
 30
0.0
 10
-42.686100000000003
 20
59.266600000000004
 30
0.0
 10
-42.545000000000002
 20
57.961400000000005
 30
0.0
 10
-42.545000000000002
 20
57.961400000000005
 30
0.0
 10
-40.110800000000005
 20
57.2911
 30
0.0
 10
-40.569400000000002
 20
60.0075
 30
0.0
 10
-39.934400000000004
 20
61.418600000000005
 30
0.0
 10
-39.934400000000004
 20
61.418600000000005
 30
0.0
 10
-38.876100000000001
 20
63.429400000000001
 30
0.0
 10
-39.299399999999999
 20
65.793000000000006
 30
0.0
 10
-39.6875
 20
67.945000000000007
 30
0.0
 10
-39.6875
 20
67.945000000000007
 30
0.0
 10
-39.793300000000002
 20
68.615300000000005
 30
0.0
 10
-39.863900000000001
 20
69.285499999999999
 30
0.0
 10
-40.040300000000002
 20
69.920500000000004
 30
0.0
 10
-40.040300000000002
 20
69.920500000000004
 30
0.0
 10
-41.063300000000005
 20
70.02640000000001
 30
0.0
 10
-42.4392
 20
70.449700000000007
 30
0.0
 10
-43.1447
 20
69.426600000000008
 30
0.0
 10
-43.1447
 20
69.426600000000008
 30
0.0
 10
-43.8855
 20
69.603000000000009
 30
0.0
 10
-44.591100000000004
 20
69.744100000000003
 30
0.0
 10
-45.331900000000005
 20
69.7089
 30
0.0
 10
-45.331900000000005
 20
69.7089
 30
0.0
 10
-45.261400000000002
 20
70.343900000000005
 30
0.0
 10
-44.344200000000001
 20
70.555500000000009
 30
0.0
 10
-44.203000000000003
 20
71.225800000000007
 30
0.0
 10
-44.203000000000003
 20
71.225800000000007
 30
0.0
 10
-44.696899999999999
 20
71.578600000000009
 30
0.0
 10
-45.261400000000002
 20
72.001900000000006
 30
0.0
 10
-45.8964
 20
71.790300000000002
 30
0.0
 10
-45.8964
 20
71.790300000000002
 30
0.0
 10
-46.919400000000003
 20
71.4375
 30
0.0
 10
-48.083600000000004
 20
72.425300000000007
 30
0.0
 10
-48.965500000000006
 20
71.543300000000002
 30
0.0
 10
-48.965500000000006
 20
71.543300000000002
 30
0.0
 10
-49.812200000000004
 20
70.837800000000001
 30
0.0
 10
-50.482500000000002
 20
69.850000000000009
 30
0.0
 10
-51.540800000000004
 20
69.4619
 30
0.0
 10
-51.540800000000004
 20
69.4619
 30
0.0
 10
-51.258600000000001
 20
70.449700000000007
 30
0.0
 10
-50.517800000000001
 20
71.155299999999997
 30
0.0
 10
-49.882800000000003
 20
71.931399999999996
 30
0.0
 10
-49.882800000000003
 20
71.931399999999996
 30
0.0
 10
-49.882800000000003
 20
71.931399999999996
 30
0.0
 10
-49.882800000000003
 20
71.931399999999996
 30
0.0
 10
-49.882800000000003
 20
71.931399999999996
 30
0.0
  0
SPLINE
  5
27
100
AcDbEntity
  8
LAYER_1
 62
    17
100
AcDbSpline
210
0.0
220
0.0
230
1.0
 70
     1
 71
     3
 72
    56
 73
    52
 74
     0
 42
0.0000000001
 43
0.0000000001
 40
0.0
 40
0.0
 40
0.0
 40
0.0
 40
0.0769230769230769
 40
0.0769230769230769
 40
0.0769230769230769
 40
0.0769230769230769
 40
0.1538461538461539
 40
0.1538461538461539
 40
0.1538461538461539
 40
0.1538461538461539
 40
0.2307692307692308
 40
0.2307692307692308
 40
0.2307692307692308
 40
0.2307692307692308
 40
0.3076923076923077
 40
0.3076923076923077
 40
0.3076923076923077
 40
0.3076923076923077
 40
0.3846153846153846
 40
0.3846153846153846
 40
0.3846153846153846
 40
0.3846153846153846
 40
0.4615384615384616
 40
0.4615384615384616
 40
0.4615384615384616
 40
0.4615384615384616
 40
0.5384615384615386
 40
0.5384615384615386
 40
0.5384615384615386
 40
0.5384615384615386
 40
0.6153846153846154
 40
0.6153846153846154
 40
0.6153846153846154
 40
0.6153846153846154
 40
0.6923076923076923
 40
0.6923076923076923
 40
0.6923076923076923
 40
0.6923076923076923
 40
0.7692307692307692
 40
0.7692307692307692
 40
0.7692307692307692
 40
0.7692307692307692
 40
0.846153846153846
 40
0.846153846153846
 40
0.846153846153846
 40
0.846153846153846
 40
0.9230769230769229
 40
0.9230769230769229
 40
0.9230769230769229
 40
0.9230769230769229
 40
1.0
 40
1.0
 40
1.0
 40
1.0
 10
-49.530000000000001
 20
62.088900000000002
 30
0.0
 10
-50.0944
 20
60.7836
 30
0.0
 10
-48.471700000000006
 20
60.325000000000003
 30
0.0
 10
-48.295300000000005
 20
59.196100000000001
 30
0.0
 10
-48.295300000000005
 20
59.196100000000001
 30
0.0
 10
-48.6128
 20
59.196100000000001
 30
0.0
 10
-49.318300000000001
 20
59.196100000000001
 30
0.0
 10
-49.635800000000003
 20
59.196100000000001
 30
0.0
 10
-49.635800000000003
 20
59.196100000000001
 30
0.0
 10
-48.930300000000003
 20
57.467500000000001
 30
0.0
 10
-48.542200000000001
 20
55.068600000000004
 30
0.0
 10
-46.531400000000005
 20
54.363
 30
0.0
 10
-46.531400000000005
 20
54.363
 30
0.0
 10
-46.531400000000005
 20
54.363
 30
0.0
 10
-46.355000000000004
 20
54.609999999999999
 30
0.0
 10
-46.355000000000004
 20
54.609999999999999
 30
0.0
 10
-46.355000000000004
 20
54.609999999999999
 30
0.0
 10
-46.355000000000004
 20
54.609999999999999
 30
0.0
 10
-46.213900000000002
 20
54.257200000000005
 30
0.0
 10
-46.213900000000002
 20
54.257200000000005
 30
0.0
 10
-46.213900000000002
 20
54.257200000000005
 30
0.0
 10
-44.414700000000003
 20
53.692800000000005
 30
0.0
 10
-43.3917
 20
55.5625
 30
0.0
 10
-42.1569
 20
56.444400000000002
 30
0.0
 10
-42.1569
 20
56.444400000000002
 30
0.0
 10
-42.121700000000004
 20
56.620800000000003
 30
0.0
 10
-42.086400000000005
 20
56.973600000000005
 30
0.0
 10
-42.051100000000005
 20
57.114700000000006
 30
0.0
 10
-42.051100000000005
 20
57.114700000000006
 30
0.0
 10
-42.862500000000004
 20
57.2911
 30
0.0
 10
-43.673900000000003
 20
57.467500000000001
 30
0.0
 10
-44.485300000000002
 20
57.502800000000001
 30
0.0
 10
-44.485300000000002
 20
57.502800000000001
 30
0.0
 10
-45.331900000000005
 20
58.631600000000006
 30
0.0
 10
-46.8842
 20
59.478300000000004
 30
0.0
 10
-46.778300000000002
 20
61.030500000000004
 30
0.0
 10
-46.778300000000002
 20
61.030500000000004
 30
0.0
 10
-47.272200000000005
 20
61.101100000000002
 30
0.0
 10
-47.766100000000002
 20
61.101100000000002
 30
0.0
 10
-48.260000000000005
 20
61.206900000000005
 30
0.0
 10
-48.260000000000005
 20
61.206900000000005
 30
0.0
 10
-47.625
 20
61.206900000000005
 30
0.0
 10
-46.990000000000002
 20
61.453900000000004
 30
0.0
 10
-46.743000000000002
 20
62.088900000000002
 30
0.0
 10
-46.743000000000002
 20
62.088900000000002
 30
0.0
 10
-47.660299999999999
 20
62.088900000000002
 30
0.0
 10
-48.6128
 20
62.194700000000005
 30
0.0
 10
-49.530000000000001
 20
62.088900000000002
 30
0.0
 10
-49.530000000000001
 20
62.088900000000002
 30
0.0
 10
-49.530000000000001
 20
62.088900000000002
 30
0.0
 10
-49.530000000000001
 20
62.088900000000002
 30
0.0
 10
-49.530000000000001
 20
62.088900000000002
 30
0.0
  0
SPLINE
  5
28
100
AcDbEntity
  8
LAYER_1
 62
    17
100
AcDbSpline
210
0.0
220
0.0
230
1.0
 70
     1
 71
     3
 72
    16
 73
    12
 74
     0
 42
0.0000000001
 43
0.0000000001
 40
0.0
 40
0.0
 40
0.0
 40
0.0
 40
0.3333333333333333
 40
0.3333333333333333
 40
0.3333333333333333
 40
0.3333333333333333
 40
0.6666666666666666
 40
0.6666666666666666
 40
0.6666666666666666
 40
0.6666666666666666
 40
1.0
 40
1.0
 40
1.0
 40
1.0
 10
-46.072800000000001
 20
60.183900000000001
 30
0.0
 10
-45.825800000000001
 20
58.878600000000006
 30
0.0
 10
-44.238300000000002
 20
57.714400000000005
 30
0.0
 10
-42.897800000000004
 20
58.314100000000003
 30
0.0
 10
-42.897800000000004
 20
58.314100000000003
 30
0.0
 10
-43.462200000000003
 20
59.548900000000003
 30
0.0
 10
-41.980499999999999
 20
59.936900000000001
 30
0.0
 10
-41.768900000000002
 20
60.924700000000001
 30
0.0
 10
-41.768900000000002
 20
60.924700000000001
 30
0.0
 10
-43.250500000000002
 20
61.030500000000004
 30
0.0
 10
-44.696899999999999
 20
60.571899999999999
 30
0.0
 10
-46.072800000000001
 20
60.183900000000001
 30
0.0
  0
SPLINE
  5
29
100
AcDbEntity
  8
LAYER_1
 62
    17
100
AcDbSpline
210
0.0
220
0.0
230
1.0
 70
     0
 71
     3
 72
   164
 73
   160
 74
     0
 42
0.0000000001
 43
0.0000000001
 40
0.0
 40
0.0
 40
0.0
 40
0.0
 40
0.025
 40
0.025
 40
0.025
 40
0.025
 40
0.05
 40
0.05
 40
0.05
 40
0.05
 40
0.075
 40
0.075
 40
0.075
 40
0.075
 40
0.1
 40
0.1
 40
0.1
 40
0.1
 40
0.125
 40
0.125
 40
0.125
 40
0.125
 40
0.15
 40
0.15
 40
0.15
 40
0.15
 40
0.175
 40
0.175
 40
0.175
 40
0.175
 40
0.2
 40
0.2
 40
0.2
 40
0.2
 40
0.225
 40
0.225
 40
0.225
 40
0.225
 40
0.25
 40
0.25
 40
0.25
 40
0.25
 40
0.275
 40
0.275
 40
0.275
 40
0.275
 40
0.3
 40
0.3
 40
0.3
 40
0.3
 40
0.325
 40
0.325
 40
0.325
 40
0.325
 40
0.35
 40
0.35
 40
0.35
 40
0.35
 40
0.3750000000000001
 40
0.3750000000000001
 40
0.3750000000000001
 40
0.3750000000000001
 40
0.4000000000000001
 40
0.4000000000000001
 40
0.4000000000000001
 40
0.4000000000000001
 40
0.4250000000000001
 40
0.4250000000000001
 40
0.4250000000000001
 40
0.4250000000000001
 40
0.4500000000000001
 40
0.4500000000000001
 40
0.4500000000000001
 40
0.4500000000000001
 40
0.4750000000000001
 40
0.4750000000000001
 40
0.4750000000000001
 40
0.4750000000000001
 40
0.5000000000000001
 40
0.5000000000000001
 40
0.5000000000000001
 40
0.5000000000000001
 40
0.5250000000000001
 40
0.5250000000000001
 40
0.5250000000000001
 40
0.5250000000000001
 40
0.5500000000000002
 40
0.5500000000000002
 40
0.5500000000000002
 40
0.5500000000000002
 40
0.5750000000000002
 40
0.5750000000000002
 40
0.5750000000000002
 40
0.5750000000000002
 40
0.6000000000000002
 40
0.6000000000000002
 40
0.6000000000000002
 40
0.6000000000000002
 40
0.6250000000000002
 40
0.6250000000000002
 40
0.6250000000000002
 40
0.6250000000000002
 40
0.6500000000000002
 40
0.6500000000000002
 40
0.6500000000000002
 40
0.6500000000000002
 40
0.6750000000000003
 40
0.6750000000000003
 40
0.6750000000000003
 40
0.6750000000000003
 40
0.7000000000000003
 40
0.7000000000000003
 40
0.7000000000000003
 40
0.7000000000000003
 40
0.7250000000000003
 40
0.7250000000000003
 40
0.7250000000000003
 40
0.7250000000000003
 40
0.7500000000000003
 40
0.7500000000000003
 40
0.7500000000000003
 40
0.7500000000000003
 40
0.7750000000000004
 40
0.7750000000000004
 40
0.7750000000000004
 40
0.7750000000000004
 40
0.8000000000000004
 40
0.8000000000000004
 40
0.8000000000000004
 40
0.8000000000000004
 40
0.8250000000000004
 40
0.8250000000000004
 40
0.8250000000000004
 40
0.8250000000000004
 40
0.8500000000000004
 40
0.8500000000000004
 40
0.8500000000000004
 40
0.8500000000000004
 40
0.8750000000000004
 40
0.8750000000000004
 40
0.8750000000000004
 40
0.8750000000000004
 40
0.9000000000000005
 40
0.9000000000000005
 40
0.9000000000000005
 40
0.9000000000000005
 40
0.9250000000000005
 40
0.9250000000000005
 40
0.9250000000000005
 40
0.9250000000000005
 40
0.9500000000000005
 40
0.9500000000000005
 40
0.9500000000000005
 40
0.9500000000000005
 40
0.9750000000000005
 40
0.9750000000000005
 40
0.9750000000000005
 40
0.9750000000000005
 40
1.0
 40
1.0
 40
1.0
 40
1.0
 10
-49.882800000000003
 20
71.931399999999996
 30
0.0
 10
-45.684699999999999
 20
75.035800000000009
 30
0.0
 10
-40.287199999999999
 20
74.683000000000007
 30
0.0
 10
-35.4542
 20
73.871600000000001
 30
0.0
 10
-35.4542
 20
73.871600000000001
 30
0.0
 10
-30.444700000000001
 20
72.989699999999999
 30
0.0
 10
-25.400000000000002
 20
72.566400000000002
 30
0.0
 10
-20.3553
 20
72.284100000000009
 30
0.0
 10
-20.3553
 20
72.284100000000009
 30
0.0
 10
-14.3933
 20
71.50800000000001
 30
0.0
 10
-8.4667000000000012
 20
71.4375
 30
0.0
 10
-2.4694000000000003
 20
71.1905
 30
0.0
 10
-2.4694000000000003
 20
71.1905
 30
0.0
 10
0.4939
 20
70.908299999999997
 30
0.0
 10
3.4219000000000004
 20
71.931399999999996
 30
0.0
 10
6.3500000000000005
 20
71.1905
 30
0.0
 10
6.3500000000000005
 20
71.1905
 30
0.0
 10
9.3132999999999999
 20
71.120000000000005
 30
0.0
 10
12.2767
 20
71.084699999999998
 30
0.0
 10
15.24
 20
71.261099999999999
 30
0.0
 10
15.24
 20
71.261099999999999
 30
0.0
 10
9.8778000000000006
 20
69.920500000000004
 30
0.0
 10
4.3039000000000005
 20
70.943600000000004
 30
0.0
 10
-1.1642000000000001
 20
70.520300000000006
 30
0.0
 10
-1.1642000000000001
 20
70.520300000000006
 30
0.0
 10
-2.1167000000000002
 20
70.555500000000009
 30
0.0
 10
-3.0691999999999999
 20
70.590800000000002
 30
0.0
 10
-4.0217000000000001
 20
70.6614
 30
0.0
 10
-4.0217000000000001
 20
70.6614
 30
0.0
 10
-6.1031000000000004
 20
71.225800000000007
 30
0.0
 10
-8.2903000000000002
 20
70.908299999999997
 30
0.0
 10
-10.4069
 20
70.873000000000005
 30
0.0
 10
-10.4069
 20
70.873000000000005
 30
0.0
 10
-17.8858
 20
71.366900000000001
 30
0.0
 10
-25.400000000000002
 20
71.4375
 30
0.0
 10
-32.773000000000003
 20
72.636899999999997
 30
0.0
 10
-32.773000000000003
 20
72.636899999999997
 30
0.0
 10
-36.371400000000001
 20
73.23660000000001
 30
0.0
 10
-40.005000000000003
 20
73.589399999999998
 30
0.0
 10
-43.638600000000004
 20
73.730500000000006
 30
0.0
 10
-43.638600000000004
 20
73.730500000000006
 30
0.0
 10
-43.18
 20
72.636899999999997
 30
0.0
 10
-41.804200000000002
 20
72.531100000000009
 30
0.0
 10
-40.957500000000003
 20
71.860799999999998
 30
0.0
 10
-40.957500000000003
 20
71.860799999999998
 30
0.0
 10
-39.793300000000002
 20
70.943600000000004
 30
0.0
 10
-39.087800000000001
 20
69.638300000000001
 30
0.0
 10
-38.981900000000003
 20
68.191900000000004
 30
0.0
 10
-38.981900000000003
 20
68.191900000000004
 30
0.0
 10
-38.6997
 20
66.569100000000006
 30
0.0
 10
-38.593900000000005
 20
64.911100000000005
 30
0.0
 10
-38.523299999999999
 20
63.2883
 30
0.0
 10
-38.523299999999999
 20
63.2883
 30
0.0
 10
-37.429700000000004
 20
62.935500000000005
 30
0.0
 10
-36.300800000000002
 20
62.618000000000002
 30
0.0
 10
-35.2425
 20
62.265300000000003
 30
0.0
 10
-35.2425
 20
62.265300000000003
 30
0.0
 10
-36.477200000000003
 20
62.653300000000002
 30
0.0
 10
-37.853000000000002
 20
62.159400000000005
 30
0.0
 10
-39.052500000000002
 20
61.7714
 30
0.0
 10
-39.052500000000002
 20
61.7714
 30
0.0
 10
-39.405300000000004
 20
59.7605
 30
0.0
 10
-40.498899999999999
 20
58.0319
 30
0.0
 10
-41.133900000000004
 20
56.0916
 30
0.0
 10
-41.133900000000004
 20
56.0916
 30
0.0
 10
-39.828600000000002
 20
56.197500000000005
 30
0.0
 10
-38.629200000000004
 20
56.726600000000005
 30
0.0
 10
-37.359200000000001
 20
56.938300000000005
 30
0.0
 10
-37.359200000000001
 20
56.938300000000005
 30
0.0
 10
-38.488
 20
55.174400000000006
 30
0.0
 10
-41.027999999999999
 20
55.491900000000001
 30
0.0
 10
-42.791900000000005
 20
54.856900000000003
 30
0.0
 10
-42.791900000000005
 20
54.856900000000003
 30
0.0
 10
-42.791900000000005
 20
54.856900000000003
 30
0.0
 10
-43.038900000000005
 20
54.7864
 30
0.0
 10
-43.038900000000005
 20
54.7864
 30
0.0
 10
-43.038900000000005
 20
54.7864
 30
0.0
 10
-42.862500000000004
 20
54.363
 30
0.0
 10
-42.686100000000003
 20
53.975000000000001
 30
0.0
 10
-42.509700000000002
 20
53.551600000000001
 30
0.0
 10
-42.509700000000002
 20
53.551600000000001
 30
0.0
 10
-44.591100000000004
 20
53.234100000000005
 30
0.0
 10
-46.707799999999999
 20
53.163600000000002
 30
0.0
 10
-48.471700000000006
 20
54.5747
 30
0.0
 10
-48.471700000000006
 20
54.5747
 30
0.0
 10
-50.200300000000006
 20
56.903000000000006
 30
0.0
 10
-49.3889
 20
59.690000000000005
 30
0.0
 10
-50.0944
 20
62.265300000000003
 30
0.0
 10
-50.0944
 20
62.265300000000003
 30
0.0
 10
-51.046900000000001
 20
62.371100000000006
 30
0.0
 10
-51.964200000000005
 20
62.371100000000006
 30
0.0
 10
-52.916700000000006
 20
62.371100000000006
 30
0.0
 10
-52.916700000000006
 20
62.371100000000006
 30
0.0
 10
-52.916700000000006
 20
62.371100000000006
 30
0.0
 10
-52.916700000000006
 20
63.041400000000003
 30
0.0
 10
-52.916700000000006
 20
63.041400000000003
 30
0.0
 10
-52.916700000000006
 20
63.041400000000003
 30
0.0
 10
-48.965500000000006
 20
63.041400000000003
 30
0.0
 10
-45.049700000000001
 20
63.147200000000005
 30
0.0
 10
-41.098600000000005
 20
62.970800000000004
 30
0.0
 10
-41.098600000000005
 20
62.970800000000004
 30
0.0
 10
-41.169200000000004
 20
62.829700000000003
 30
0.0
 10
-41.345500000000001
 20
62.582800000000006
 30
0.0
 10
-41.4161
 20
62.441600000000001
 30
0.0
 10
-41.4161
 20
62.441600000000001
 30
0.0
 10
-43.074200000000005
 20
61.947800000000001
 30
0.0
 10
-44.838000000000001
 20
62.053600000000003
 30
0.0
 10
-46.531400000000005
 20
62.159400000000005
 30
0.0
 10
-46.531400000000005
 20
62.159400000000005
 30
0.0
 10
-46.566700000000004
 20
61.7361
 30
0.0
 10
-46.566700000000004
 20
61.312800000000003
 30
0.0
 10
-46.531400000000005
 20
60.889400000000002
 30
0.0
 10
-46.531400000000005
 20
60.889400000000002
 30
0.0
 10
-44.802800000000005
 20
60.924700000000001
 30
0.0
 10
-43.109400000000001
 20
61.700800000000001
 30
0.0
 10
-41.345500000000001
 20
61.453900000000004
 30
0.0
 10
-41.345500000000001
 20
61.453900000000004
 30
0.0
 10
-41.4161
 20
60.148600000000002
 30
0.0
 10
-42.686100000000003
 20
59.266600000000004
 30
0.0
 10
-42.545000000000002
 20
57.961400000000005
 30
0.0
 10
-42.545000000000002
 20
57.961400000000005
 30
0.0
 10
-40.110800000000005
 20
57.2911
 30
0.0
 10
-40.569400000000002
 20
60.0075
 30
0.0
 10
-39.934400000000004
 20
61.418600000000005
 30
0.0
 10
-39.934400000000004
 20
61.418600000000005
 30
0.0
 10
-38.876100000000001
 20
63.429400000000001
 30
0.0
 10
-39.299399999999999
 20
65.793000000000006
 30
0.0
 10
-39.6875
 20
67.945000000000007
 30
0.0
 10
-39.6875
 20
67.945000000000007
 30
0.0
 10
-39.793300000000002
 20
68.615300000000005
 30
0.0
 10
-39.863900000000001
 20
69.285499999999999
 30
0.0
 10
-40.040300000000002
 20
69.920500000000004
 30
0.0
 10
-40.040300000000002
 20
69.920500000000004
 30
0.0
 10
-41.063300000000005
 20
70.02640000000001
 30
0.0
 10
-42.4392
 20
70.449700000000007
 30
0.0
 10
-43.1447
 20
69.426600000000008
 30
0.0
 10
-43.1447
 20
69.426600000000008
 30
0.0
 10
-43.8855
 20
69.603000000000009
 30
0.0
 10
-44.591100000000004
 20
69.744100000000003
 30
0.0
 10
-45.331900000000005
 20
69.7089
 30
0.0
 10
-45.331900000000005
 20
69.7089
 30
0.0
 10
-45.261400000000002
 20
70.343900000000005
 30
0.0
 10
-44.344200000000001
 20
70.555500000000009
 30
0.0
 10
-44.203000000000003
 20
71.225800000000007
 30
0.0
 10
-44.203000000000003
 20
71.225800000000007
 30
0.0
 10
-44.696899999999999
 20
71.578600000000009
 30
0.0
 10
-45.261400000000002
 20
72.001900000000006
 30
0.0
 10
-45.8964
 20
71.790300000000002
 30
0.0
 10
-45.8964
 20
71.790300000000002
 30
0.0
 10
-46.919400000000003
 20
71.4375
 30
0.0
 10
-48.083600000000004
 20
72.425300000000007
 30
0.0
 10
-48.965500000000006
 20
71.543300000000002
 30
0.0
 10
-48.965500000000006
 20
71.543300000000002
 30
0.0
 10
-49.812200000000004
 20
70.837800000000001
 30
0.0
 10
-50.482500000000002
 20
69.850000000000009
 30
0.0
 10
-51.540800000000004
 20
69.4619
 30
0.0
 10
-51.540800000000004
 20
69.4619
 30
0.0
 10
-51.258600000000001
 20
70.449700000000007
 30
0.0
 10
-50.517800000000001
 20
71.155299999999997
 30
0.0
 10
-49.882800000000003
 20
71.931399999999996
 30
0.0
  0
SPLINE
  5
2A
100
AcDbEntity
  8
LAYER_1
 62
    17
100
AcDbSpline
210
0.0
220
0.0
230
1.0
 70
     0
 71
     3
 72
    52
 73
    48
 74
     0
 42
0.0000000001
 43
0.0000000001
 40
0.0
 40
0.0
 40
0.0
 40
0.0
 40
0.0833333333333333
 40
0.0833333333333333
 40
0.0833333333333333
 40
0.0833333333333333
 40
0.1666666666666667
 40
0.1666666666666667
 40
0.1666666666666667
 40
0.1666666666666667
 40
0.25
 40
0.25
 40
0.25
 40
0.25
 40
0.3333333333333333
 40
0.3333333333333333
 40
0.3333333333333333
 40
0.3333333333333333
 40
0.4166666666666666
 40
0.4166666666666666
 40
0.4166666666666666
 40
0.4166666666666666
 40
0.4999999999999999
 40
0.4999999999999999
 40
0.4999999999999999
 40
0.4999999999999999
 40
0.5833333333333333
 40
0.5833333333333333
 40
0.5833333333333333
 40
0.5833333333333333
 40
0.6666666666666666
 40
0.6666666666666666
 40
0.6666666666666666
 40
0.6666666666666666
 40
0.75
 40
0.75
 40
0.75
 40
0.75
 40
0.8333333333333334
 40
0.8333333333333334
 40
0.8333333333333334
 40
0.8333333333333334
 40
0.9166666666666667
 40
0.9166666666666667
 40
0.9166666666666667
 40
0.9166666666666667
 40
1.0
 40
1.0
 40
1.0
 40
1.0
 10
-49.530000000000001
 20
62.088900000000002
 30
0.0
 10
-50.0944
 20
60.7836
 30
0.0
 10
-48.471700000000006
 20
60.325000000000003
 30
0.0
 10
-48.295300000000005
 20
59.196100000000001
 30
0.0
 10
-48.295300000000005
 20
59.196100000000001
 30
0.0
 10
-48.6128
 20
59.196100000000001
 30
0.0
 10
-49.318300000000001
 20
59.196100000000001
 30
0.0
 10
-49.635800000000003
 20
59.196100000000001
 30
0.0
 10
-49.635800000000003
 20
59.196100000000001
 30
0.0
 10
-48.930300000000003
 20
57.467500000000001
 30
0.0
 10
-48.542200000000001
 20
55.068600000000004
 30
0.0
 10
-46.531400000000005
 20
54.363
 30
0.0
 10
-46.531400000000005
 20
54.363
 30
0.0
 10
-46.531400000000005
 20
54.363
 30
0.0
 10
-46.355000000000004
 20
54.609999999999999
 30
0.0
 10
-46.355000000000004
 20
54.609999999999999
 30
0.0
 10
-46.355000000000004
 20
54.609999999999999
 30
0.0
 10
-46.355000000000004
 20
54.609999999999999
 30
0.0
 10
-46.213900000000002
 20
54.257200000000005
 30
0.0
 10
-46.213900000000002
 20
54.257200000000005
 30
0.0
 10
-46.213900000000002
 20
54.257200000000005
 30
0.0
 10
-44.414700000000003
 20
53.692800000000005
 30
0.0
 10
-43.3917
 20
55.5625
 30
0.0
 10
-42.1569
 20
56.444400000000002
 30
0.0
 10
-42.1569
 20
56.444400000000002
 30
0.0
 10
-42.121700000000004
 20
56.620800000000003
 30
0.0
 10
-42.086400000000005
 20
56.973600000000005
 30
0.0
 10
-42.051100000000005
 20
57.114700000000006
 30
0.0
 10
-42.051100000000005
 20
57.114700000000006
 30
0.0
 10
-42.862500000000004
 20
57.2911
 30
0.0
 10
-43.673900000000003
 20
57.467500000000001
 30
0.0
 10
-44.485300000000002
 20
57.502800000000001
 30
0.0
 10
-44.485300000000002
 20
57.502800000000001
 30
0.0
 10
-45.331900000000005
 20
58.631600000000006
 30
0.0
 10
-46.8842
 20
59.478300000000004
 30
0.0
 10
-46.778300000000002
 20
61.030500000000004
 30
0.0
 10
-46.778300000000002
 20
61.030500000000004
 30
0.0
 10
-47.272200000000005
 20
61.101100000000002
 30
0.0
 10
-47.766100000000002
 20
61.101100000000002
 30
0.0
 10
-48.260000000000005
 20
61.206900000000005
 30
0.0
 10
-48.260000000000005
 20
61.206900000000005
 30
0.0
 10
-47.625
 20
61.206900000000005
 30
0.0
 10
-46.990000000000002
 20
61.453900000000004
 30
0.0
 10
-46.743000000000002
 20
62.088900000000002
 30
0.0
 10
-46.743000000000002
 20
62.088900000000002
 30
0.0
 10
-47.660299999999999
 20
62.088900000000002
 30
0.0
 10
-48.6128
 20
62.194700000000005
 30
0.0
 10
-49.530000000000001
 20
62.088900000000002
 30
0.0
  0
SPLINE
  5
2B
100
AcDbEntity
  8
LAYER_1
 62
    17
100
AcDbSpline
210
0.0
220
0.0
230
1.0
 70
     1
 71
     3
 72
    16
 73
    12
 74
     0
 42
0.0000000001
 43
0.0000000001
 40
0.0
 40
0.0
 40
0.0
 40
0.0
 40
0.3333333333333333
 40
0.3333333333333333
 40
0.3333333333333333
 40
0.3333333333333333
 40
0.6666666666666666
 40
0.6666666666666666
 40
0.6666666666666666
 40
0.6666666666666666
 40
1.0
 40
1.0
 40
1.0
 40
1.0
 10
-46.072800000000001
 20
60.183900000000001
 30
0.0
 10
-45.825800000000001
 20
58.878600000000006
 30
0.0
 10
-44.238300000000002
 20
57.714400000000005
 30
0.0
 10
-42.897800000000004
 20
58.314100000000003
 30
0.0
 10
-42.897800000000004
 20
58.314100000000003
 30
0.0
 10
-43.462200000000003
 20
59.548900000000003
 30
0.0
 10
-41.980499999999999
 20
59.936900000000001
 30
0.0
 10
-41.768900000000002
 20
60.924700000000001
 30
0.0
 10
-41.768900000000002
 20
60.924700000000001
 30
0.0
 10
-43.250500000000002
 20
61.030500000000004
 30
0.0
 10
-44.696899999999999
 20
60.571899999999999
 30
0.0
 10
-46.072800000000001
 20
60.183900000000001
 30
0.0
  0
SPLINE
  5
2C
100
AcDbEntity
  8
LAYER_1
 62
    17
100
AcDbSpline
210
0.0
220
0.0
230
1.0
 70
     1
 71
     3
 72
    52
 73
    48
 74
     0
 42
0.0000000001
 43
0.0000000001
 40
0.0
 40
0.0
 40
0.0
 40
0.0
 40
0.0833333333333333
 40
0.0833333333333333
 40
0.0833333333333333
 40
0.0833333333333333
 40
0.1666666666666667
 40
0.1666666666666667
 40
0.1666666666666667
 40
0.1666666666666667
 40
0.25
 40
0.25
 40
0.25
 40
0.25
 40
0.3333333333333333
 40
0.3333333333333333
 40
0.3333333333333333
 40
0.3333333333333333
 40
0.4166666666666666
 40
0.4166666666666666
 40
0.4166666666666666
 40
0.4166666666666666
 40
0.4999999999999999
 40
0.4999999999999999
 40
0.4999999999999999
 40
0.4999999999999999
 40
0.5833333333333333
 40
0.5833333333333333
 40
0.5833333333333333
 40
0.5833333333333333
 40
0.6666666666666666
 40
0.6666666666666666
 40
0.6666666666666666
 40
0.6666666666666666
 40
0.75
 40
0.75
 40
0.75
 40
0.75
 40
0.8333333333333334
 40
0.8333333333333334
 40
0.8333333333333334
 40
0.8333333333333334
 40
0.9166666666666667
 40
0.9166666666666667
 40
0.9166666666666667
 40
0.9166666666666667
 40
1.0
 40
1.0
 40
1.0
 40
1.0
 10
41.663000000000004
 20
74.224400000000003
 30
0.0
 10
43.003599999999999
 20
75.071100000000001
 30
0.0
 10
45.014400000000002
 20
74.400800000000004
 30
0.0
 10
46.6372
 20
74.577200000000005
 30
0.0
 10
46.6372
 20
74.577200000000005
 30
0.0
 10
46.8489
 20
74.224400000000003
 30
0.0
 10
47.095800000000004
 20
73.906900000000007
 30
0.0
 10
47.4133
 20
73.659999999999997
 30
0.0
 10
47.4133
 20
73.659999999999997
 30
0.0
 10
48.083600000000004
 20
73.060299999999998
 30
0.0
 10
48.753900000000002
 20
72.46050000000001
 30
0.0
 10
49.530000000000001
 20
71.9666
 30
0.0
 10
49.530000000000001
 20
71.9666
 30
0.0
 10
49.706400000000002
 20
71.790300000000002
 30
0.0
 10
49.882800000000003
 20
71.613900000000001
 30
0.0
 10
50.0944
 20
71.4375
 30
0.0
 10
50.0944
 20
71.4375
 30
0.0
 10
50.482500000000002
 20
70.767200000000003
 30
0.0
 10
50.658900000000003
 20
69.955799999999996
 30
0.0
 10
50.941100000000006
 20
69.215000000000003
 30
0.0
 10
50.941100000000006
 20
69.215000000000003
 30
0.0
 10
50.835300000000004
 20
69.144400000000005
 30
0.0
 10
50.694200000000002
 20
69.038600000000002
 30
0.0
 10
50.623600000000003
 20
68.968000000000004
 30
0.0
 10
50.623600000000003
 20
68.968000000000004
 30
0.0
 10
50.200300000000006
 20
69.814700000000002
 30
0.0
 10
49.706400000000002
 20
70.97890000000001
 30
0.0
 10
48.683300000000003
 20
71.1905
 30
0.0
 10
48.683300000000003
 20
71.1905
 30
0.0
 10
47.730800000000002
 20
70.943600000000004
 30
0.0
 10
46.4255
 20
69.955799999999996
 30
0.0
 10
45.755300000000005
 20
71.225800000000007
 30
0.0
 10
45.755300000000005
 20
71.225800000000007
 30
0.0
 10
46.672499999999999
 20
71.1905
 30
0.0
 10
47.589700000000001
 20
71.225800000000007
 30
0.0
 10
48.471700000000006
 20
71.472800000000007
 30
0.0
 10
48.471700000000006
 20
71.472800000000007
 30
0.0
 10
48.189399999999999
 20
72.566400000000002
 30
0.0
 10
47.131100000000004
 20
73.095500000000001
 30
0.0
 10
46.249200000000002
 20
73.624700000000004
 30
0.0
 10
46.249200000000002
 20
73.624700000000004
 30
0.0
 10
44.8733
 20
74.224400000000003
 30
0.0
 10
43.3917
 20
73.695300000000003
 30
0.0
 10
41.980499999999999
 20
73.659999999999997
 30
0.0
 10
41.980499999999999
 20
73.659999999999997
 30
0.0
 10
41.910000000000004
 20
73.801100000000005
 30
0.0
 10
41.733600000000003
 20
74.083300000000008
 30
0.0
 10
41.663000000000004
 20
74.224400000000003
 30
0.0
  0
SPLINE
  5
2D
100
AcDbEntity
  8
LAYER_1
 62
    17
100
AcDbSpline
210
0.0
220
0.0
230
1.0
 70
     1
 71
     3
 72
    44
 73
    40
 74
     0
 42
0.0000000001
 43
0.0000000001
 40
0.0
 40
0.0
 40
0.0
 40
0.0
 40
0.1
 40
0.1
 40
0.1
 40
0.1
 40
0.2
 40
0.2
 40
0.2
 40
0.2
 40
0.3
 40
0.3
 40
0.3
 40
0.3
 40
0.4
 40
0.4
 40
0.4
 40
0.4
 40
0.5
 40
0.5
 40
0.5
 40
0.5
 40
0.6
 40
0.6
 40
0.6
 40
0.6
 40
0.7
 40
0.7
 40
0.7
 40
0.7
 40
0.7999999999999999
 40
0.7999999999999999
 40
0.7999999999999999
 40
0.7999999999999999
 40
0.8999999999999999
 40
0.8999999999999999
 40
0.8999999999999999
 40
0.8999999999999999
 40
1.0
 40
1.0
 40
1.0
 40
1.0
 10
24.8003
 20
72.636899999999997
 30
0.0
 10
29.915500000000002
 20
72.354700000000008
 30
0.0
 10
34.960300000000004
 20
73.342500000000001
 30
0.0
 10
39.969700000000003
 20
74.224400000000003
 30
0.0
 10
39.969700000000003
 20
74.224400000000003
 30
0.0
 10
39.652200000000001
 20
74.048000000000002
 30
0.0
 10
39.334700000000005
 20
73.871600000000001
 30
0.0
 10
39.017200000000003
 20
73.695300000000003
 30
0.0
 10
39.017200000000003
 20
73.695300000000003
 30
0.0
 10
37.359200000000001
 20
73.23660000000001
 30
0.0
 10
35.701100000000004
 20
72.883899999999997
 30
0.0
 10
34.007800000000003
 20
72.601600000000005
 30
0.0
 10
34.007800000000003
 20
72.601600000000005
 30
0.0
 10
29.598000000000003
 20
72.248900000000006
 30
0.0
 10
25.117800000000003
 20
72.319400000000002
 30
0.0
 10
20.743300000000001
 20
71.472800000000007
 30
0.0
 10
20.743300000000001
 20
71.472800000000007
 30
0.0
 10
20.32
 20
71.4375
 30
0.0
 10
19.931900000000002
 20
71.402200000000008
 30
0.0
 10
19.508600000000001
 20
71.402200000000008
 30
0.0
 10
19.508600000000001
 20
71.402200000000008
 30
0.0
 10
18.979400000000002
 20
71.4375
 30
0.0
 10
18.450300000000002
 20
71.50800000000001
 30
0.0
 10
17.8858
 20
71.578600000000009
 30
0.0
 10
17.8858
 20
71.578600000000009
 30
0.0
 10
18.944200000000002
 20
71.860799999999998
 30
0.0
 10
20.037800000000001
 20
71.896100000000004
 30
0.0
 10
21.0608
 20
72.178300000000007
 30
0.0
 10
21.0608
 20
72.178300000000007
 30
0.0
 10
21.519400000000001
 20
72.001900000000006
 30
0.0
 10
21.942800000000002
 20
72.072500000000005
 30
0.0
 10
22.260300000000001
 20
72.425300000000007
 30
0.0
 10
22.260300000000001
 20
72.425300000000007
 30
0.0
 10
22.436700000000002
 20
72.46050000000001
 30
0.0
 10
22.754200000000001
 20
72.46050000000001
 30
0.0
 10
22.930500000000002
 20
72.46050000000001
 30
0.0
 10
22.930500000000002
 20
72.46050000000001
 30
0.0
 10
23.5303
 20
72.2136
 30
0.0
 10
24.3064
 20
72.107799999999997
 30
0.0
 10
24.8003
 20
72.636899999999997
 30
0.0
  0
SPLINE
  5
2E
100
AcDbEntity
  8
LAYER_1
 62
     9
100
AcDbSpline
210
0.0
220
0.0
230
1.0
 70
     1
 71
     3
 72
    20
 73
    16
 74
     0
 42
0.0000000001
 43
0.0000000001
 40
0.0
 40
0.0
 40
0.0
 40
0.0
 40
0.25
 40
0.25
 40
0.25
 40
0.25
 40
0.5
 40
0.5
 40
0.5
 40
0.5
 40
0.75
 40
0.75
 40
0.75
 40
0.75
 40
1.0
 40
1.0
 40
1.0
 40
1.0
 10
-35.4542
 20
73.871600000000001
 30
0.0
 10
-32.4908
 20
73.801100000000005
 30
0.0
 10
-29.598000000000003
 20
73.801100000000005
 30
0.0
 10
-26.8111
 20
72.813299999999998
 30
0.0
 10
-26.8111
 20
72.813299999999998
 30
0.0
 10
-24.165300000000002
 20
73.095500000000001
 30
0.0
 10
-21.5547
 20
72.672200000000004
 30
0.0
 10
-18.979400000000002
 20
72.778000000000006
 30
0.0
 10
-18.979400000000002
 20
72.778000000000006
 30
0.0
 10
-19.438000000000002
 20
72.601600000000005
 30
0.0
 10
-19.896700000000003
 20
72.46050000000001
 30
0.0
 10
-20.3553
 20
72.284100000000009
 30
0.0
 10
-20.3553
 20
72.284100000000009
 30
0.0
 10
-25.400000000000002
 20
72.566400000000002
 30
0.0
 10
-30.444700000000001
 20
72.989699999999999
 30
0.0
 10
-35.4542
 20
73.871600000000001
 30
0.0
  0
SPLINE
  5
2F
100
AcDbEntity
  8
LAYER_1
 62
     9
100
AcDbSpline
210
0.0
220
0.0
230
1.0
 70
     1
 71
     3
 72
   144
 73
   140
 74
     0
 42
0.0000000001
 43
0.0000000001
 40
0.0
 40
0.0
 40
0.0
 40
0.0
 40
0.0285714285714286
 40
0.0285714285714286
 40
0.0285714285714286
 40
0.0285714285714286
 40
0.0571428571428571
 40
0.0571428571428571
 40
0.0571428571428571
 40
0.0571428571428571
 40
0.0857142857142857
 40
0.0857142857142857
 40
0.0857142857142857
 40
0.0857142857142857
 40
0.1142857142857143
 40
0.1142857142857143
 40
0.1142857142857143
 40
0.1142857142857143
 40
0.1428571428571429
 40
0.1428571428571429
 40
0.1428571428571429
 40
0.1428571428571429
 40
0.1714285714285714
 40
0.1714285714285714
 40
0.1714285714285714
 40
0.1714285714285714
 40
0.2
 40
0.2
 40
0.2
 40
0.2
 40
0.2285714285714286
 40
0.2285714285714286
 40
0.2285714285714286
 40
0.2285714285714286
 40
0.2571428571428572
 40
0.2571428571428572
 40
0.2571428571428572
 40
0.2571428571428572
 40
0.2857142857142858
 40
0.2857142857142858
 40
0.2857142857142858
 40
0.2857142857142858
 40
0.3142857142857143
 40
0.3142857142857143
 40
0.3142857142857143
 40
0.3142857142857143
 40
0.3428571428571429
 40
0.3428571428571429
 40
0.3428571428571429
 40
0.3428571428571429
 40
0.3714285714285715
 40
0.3714285714285715
 40
0.3714285714285715
 40
0.3714285714285715
 40
0.4000000000000001
 40
0.4000000000000001
 40
0.4000000000000001
 40
0.4000000000000001
 40
0.4285714285714287
 40
0.4285714285714287
 40
0.4285714285714287
 40
0.4285714285714287
 40
0.4571428571428572
 40
0.4571428571428572
 40
0.4571428571428572
 40
0.4571428571428572
 40
0.4857142857142858
 40
0.4857142857142858
 40
0.4857142857142858
 40
0.4857142857142858
 40
0.5142857142857144
 40
0.5142857142857144
 40
0.5142857142857144
 40
0.5142857142857144
 40
0.5428571428571429
 40
0.5428571428571429
 40
0.5428571428571429
 40
0.5428571428571429
 40
0.5714285714285715
 40
0.5714285714285715
 40
0.5714285714285715
 40
0.5714285714285715
 40
0.6000000000000001
 40
0.6000000000000001
 40
0.6000000000000001
 40
0.6000000000000001
 40
0.6285714285714287
 40
0.6285714285714287
 40
0.6285714285714287
 40
0.6285714285714287
 40
0.6571428571428573
 40
0.6571428571428573
 40
0.6571428571428573
 40
0.6571428571428573
 40
0.6857142857142858
 40
0.6857142857142858
 40
0.6857142857142858
 40
0.6857142857142858
 40
0.7142857142857144
 40
0.7142857142857144
 40
0.7142857142857144
 40
0.7142857142857144
 40
0.742857142857143
 40
0.742857142857143
 40
0.742857142857143
 40
0.742857142857143
 40
0.7714285714285716
 40
0.7714285714285716
 40
0.7714285714285716
 40
0.7714285714285716
 40
0.8000000000000002
 40
0.8000000000000002
 40
0.8000000000000002
 40
0.8000000000000002
 40
0.8285714285714287
 40
0.8285714285714287
 40
0.8285714285714287
 40
0.8285714285714287
 40
0.8571428571428573
 40
0.8571428571428573
 40
0.8571428571428573
 40
0.8571428571428573
 40
0.8857142857142859
 40
0.8857142857142859
 40
0.8857142857142859
 40
0.8857142857142859
 40
0.9142857142857145
 40
0.9142857142857145
 40
0.9142857142857145
 40
0.9142857142857145
 40
0.9428571428571431
 40
0.9428571428571431
 40
0.9428571428571431
 40
0.9428571428571431
 40
0.9714285714285716
 40
0.9714285714285716
 40
0.9714285714285716
 40
0.9714285714285716
 40
1.0
 40
1.0
 40
1.0
 40
1.0
 10
39.017200000000003
 20
73.695300000000003
 30
0.0
 10
39.722799999999999
 20
73.801100000000005
 30
0.0
 10
40.4636
 20
73.9422
 30
0.0
 10
41.2044
 20
73.9422
 30
0.0
 10
41.2044
 20
73.9422
 30
0.0
 10
41.169200000000004
 20
73.624700000000004
 30
0.0
 10
41.169200000000004
 20
73.342500000000001
 30
0.0
 10
41.133900000000004
 20
73.025000000000006
 30
0.0
 10
41.133900000000004
 20
73.025000000000006
 30
0.0
 10
40.005000000000003
 20
71.366900000000001
 30
0.0
 10
37.9589
 20
72.425300000000007
 30
0.0
 10
36.547800000000002
 20
71.578600000000009
 30
0.0
 10
36.547800000000002
 20
71.578600000000009
 30
0.0
 10
37.465000000000003
 20
71.472800000000007
 30
0.0
 10
38.346900000000005
 20
71.543300000000002
 30
0.0
 10
39.264200000000002
 20
71.50800000000001
 30
0.0
 10
39.264200000000002
 20
71.50800000000001
 30
0.0
 10
38.981900000000003
 20
70.908299999999997
 30
0.0
 10
38.629200000000004
 20
70.308599999999998
 30
0.0
 10
38.276400000000002
 20
69.744100000000003
 30
0.0
 10
38.276400000000002
 20
69.744100000000003
 30
0.0
 10
37.359200000000001
 20
68.509399999999999
 30
0.0
 10
37.147500000000001
 20
66.9572
 30
0.0
 10
37.006399999999999
 20
65.440300000000008
 30
0.0
 10
37.006399999999999
 20
65.440300000000008
 30
0.0
 10
36.9358
 20
63.605800000000002
 30
0.0
 10
34.572200000000002
 20
63.782200000000003
 30
0.0
 10
33.302199999999999
 20
63.253
 30
0.0
 10
33.302199999999999
 20
63.253
 30
0.0
 10
34.289999999999999
 20
62.794400000000003
 30
0.0
 10
35.313000000000002
 20
63.182500000000005
 30
0.0
 10
36.300800000000002
 20
63.253
 30
0.0
 10
36.300800000000002
 20
63.253
 30
0.0
 10
36.547800000000002
 20
62.335800000000006
 30
0.0
 10
36.653600000000004
 20
61.383300000000006
 30
0.0
 10
37.006399999999999
 20
60.501400000000004
 30
0.0
 10
37.006399999999999
 20
60.501400000000004
 30
0.0
 10
37.253300000000003
 20
59.936900000000001
 30
0.0
 10
37.500300000000003
 20
59.372500000000002
 30
0.0
 10
37.747199999999999
 20
58.808
 30
0.0
 10
37.747199999999999
 20
58.808
 30
0.0
 10
37.9589
 20
58.137800000000006
 30
0.0
 10
38.241100000000003
 20
57.467500000000001
 30
0.0
 10
38.734999999999999
 20
56.973600000000005
 30
0.0
 10
38.734999999999999
 20
56.973600000000005
 30
0.0
 10
39.6875
 20
55.985800000000005
 30
0.0
 10
40.6753
 20
54.998000000000005
 30
0.0
 10
41.768900000000002
 20
54.221900000000005
 30
0.0
 10
41.768900000000002
 20
54.221900000000005
 30
0.0
 10
41.4161
 20
53.939700000000002
 30
0.0
 10
40.992800000000003
 20
53.7986
 30
0.0
 10
40.569400000000002
 20
53.622199999999999
 30
0.0
 10
40.569400000000002
 20
53.622199999999999
 30
0.0
 10
30.091900000000003
 20
57.185300000000005
 30
0.0
 10
18.8736
 20
57.679100000000005
 30
0.0
 10
7.9022000000000006
 20
57.961400000000005
 30
0.0
 10
7.9022000000000006
 20
57.961400000000005
 30
0.0
 10
0.0706
 20
58.666900000000005
 30
0.0
 10
-7.7258000000000004
 20
57.255800000000001
 30
0.0
 10
-15.522200000000002
 20
57.396900000000002
 30
0.0
 10
-15.522200000000002
 20
57.396900000000002
 30
0.0
 10
-22.648300000000003
 20
56.620800000000003
 30
0.0
 10
-29.915500000000002
 20
57.008900000000004
 30
0.0
 10
-36.900500000000001
 20
55.280300000000004
 30
0.0
 10
-36.900500000000001
 20
55.280300000000004
 30
0.0
 10
-38.629200000000004
 20
54.7864
 30
0.0
 10
-40.4283
 20
54.5747
 30
0.0
 10
-42.1922
 20
54.327800000000003
 30
0.0
 10
-42.1922
 20
54.327800000000003
 30
0.0
 10
-42.333300000000001
 20
54.468900000000005
 30
0.0
 10
-42.650800000000004
 20
54.715800000000002
 30
0.0
 10
-42.791900000000005
 20
54.856900000000003
 30
0.0
 10
-42.791900000000005
 20
54.856900000000003
 30
0.0
 10
-41.027999999999999
 20
55.491900000000001
 30
0.0
 10
-38.488
 20
55.174400000000006
 30
0.0
 10
-37.359200000000001
 20
56.938300000000005
 30
0.0
 10
-37.359200000000001
 20
56.938300000000005
 30
0.0
 10
-38.629200000000004
 20
56.726600000000005
 30
0.0
 10
-39.828600000000002
 20
56.197500000000005
 30
0.0
 10
-41.133900000000004
 20
56.0916
 30
0.0
 10
-41.133900000000004
 20
56.0916
 30
0.0
 10
-40.498899999999999
 20
58.0319
 30
0.0
 10
-39.405300000000004
 20
59.7605
 30
0.0
 10
-39.052500000000002
 20
61.7714
 30
0.0
 10
-39.052500000000002
 20
61.7714
 30
0.0
 10
-37.853000000000002
 20
62.159400000000005
 30
0.0
 10
-36.477200000000003
 20
62.653300000000002
 30
0.0
 10
-35.2425
 20
62.265300000000003
 30
0.0
 10
-35.2425
 20
62.265300000000003
 30
0.0
 10
-36.300800000000002
 20
62.618000000000002
 30
0.0
 10
-37.429700000000004
 20
62.935500000000005
 30
0.0
 10
-38.523299999999999
 20
63.2883
 30
0.0
 10
-38.523299999999999
 20
63.2883
 30
0.0
 10
-38.593900000000005
 20
64.911100000000005
 30
0.0
 10
-38.6997
 20
66.569100000000006
 30
0.0
 10
-38.981900000000003
 20
68.191900000000004
 30
0.0
 10
-38.981900000000003
 20
68.191900000000004
 30
0.0
 10
-39.052500000000002
 20
69.744100000000003
 30
0.0
 10
-37.641400000000004
 20
70.343900000000005
 30
0.0
 10
-36.582999999999998
 20
71.120000000000005
 30
0.0
 10
-36.582999999999998
 20
71.120000000000005
 30
0.0
 10
-37.641400000000004
 20
72.354700000000008
 30
0.0
 10
-39.511099999999999
 20
71.896100000000004
 30
0.0
 10
-40.957500000000003
 20
71.860799999999998
 30
0.0
 10
-40.957500000000003
 20
71.860799999999998
 30
0.0
 10
-41.804200000000002
 20
72.531100000000009
 30
0.0
 10
-43.18
 20
72.636899999999997
 30
0.0
 10
-43.638600000000004
 20
73.730500000000006
 30
0.0
 10
-43.638600000000004
 20
73.730500000000006
 30
0.0
 10
-40.005000000000003
 20
73.589399999999998
 30
0.0
 10
-36.371400000000001
 20
73.23660000000001
 30
0.0
 10
-32.773000000000003
 20
72.636899999999997
 30
0.0
 10
-32.773000000000003
 20
72.636899999999997
 30
0.0
 10
-25.400000000000002
 20
71.4375
 30
0.0
 10
-17.8858
 20
71.366900000000001
 30
0.0
 10
-10.4069
 20
70.873000000000005
 30
0.0
 10
-10.4069
 20
70.873000000000005
 30
0.0
 10
-8.4667000000000012
 20
70.02640000000001
 30
0.0
 10
-6.1031000000000004
 20
70.73190000000001
 30
0.0
 10
-4.0217000000000001
 20
70.6614
 30
0.0
 10
-4.0217000000000001
 20
70.6614
 30
0.0
 10
-3.0691999999999999
 20
70.590800000000002
 30
0.0
 10
-2.1167000000000002
 20
70.555500000000009
 30
0.0
 10
-1.1642000000000001
 20
70.520300000000006
 30
0.0
 10
-1.1642000000000001
 20
70.520300000000006
 30
0.0
 10
5.7149999999999999
 20
70.449700000000007
 30
0.0
 10
12.7706
 20
69.77940000000001
 30
0.0
 10
19.508600000000001
 20
71.402200000000008
 30
0.0
 10
19.508600000000001
 20
71.402200000000008
 30
0.0
 10
19.931900000000002
 20
71.402200000000008
 30
0.0
 10
20.32
 20
71.4375
 30
0.0
 10
20.743300000000001
 20
71.472800000000007
 30
0.0
 10
20.743300000000001
 20
71.472800000000007
 30
0.0
 10
25.153000000000002
 20
72.072500000000005
 30
0.0
 10
29.668600000000001
 20
71.543300000000002
 30
0.0
 10
34.007800000000003
 20
72.601600000000005
 30
0.0
 10
34.007800000000003
 20
72.601600000000005
 30
0.0
 10
35.701100000000004
 20
72.883899999999997
 30
0.0
 10
37.359200000000001
 20
73.23660000000001
 30
0.0
 10
39.017200000000003
 20
73.695300000000003
 30
0.0
  0
SPLINE
  5
30
100
AcDbEntity
  8
LAYER_1
 62
     9
100
AcDbSpline
210
0.0
220
0.0
230
1.0
 70
     1
 71
     3
 72
    12
 73
     8
 74
     0
 42
0.0000000001
 43
0.0000000001
 40
0.0
 40
0.0
 40
0.0
 40
0.0
 40
0.5
 40
0.5
 40
0.5
 40
0.5
 40
1.0
 40
1.0
 40
1.0
 40
1.0
 10
47.4133
 20
73.659999999999997
 30
0.0
 10
48.260000000000005
 20
73.977500000000006
 30
0.0
 10
49.424199999999999
 20
72.813299999999998
 30
0.0
 10
49.530000000000001
 20
71.9666
 30
0.0
 10
49.530000000000001
 20
71.9666
 30
0.0
 10
48.753900000000002
 20
72.46050000000001
 30
0.0
 10
48.083600000000004
 20
73.060299999999998
 30
0.0
 10
47.4133
 20
73.659999999999997
 30
0.0
  0
SPLINE
  5
31
100
AcDbEntity
  8
LAYER_1
 62
     9
100
AcDbSpline
210
0.0
220
0.0
230
1.0
 70
     1
 71
     3
 72
    36
 73
    32
 74
     0
 42
0.0000000001
 43
0.0000000001
 40
0.0
 40
0.0
 40
0.0
 40
0.0
 40
0.125
 40
0.125
 40
0.125
 40
0.125
 40
0.25
 40
0.25
 40
0.25
 40
0.25
 40
0.375
 40
0.375
 40
0.375
 40
0.375
 40
0.5
 40
0.5
 40
0.5
 40
0.5
 40
0.625
 40
0.625
 40
0.625
 40
0.625
 40
0.75
 40
0.75
 40
0.75
 40
0.75
 40
0.875
 40
0.875
 40
0.875
 40
0.875
 40
1.0
 40
1.0
 40
1.0
 40
1.0
 10
44.732199999999999
 20
73.48360000000001
 30
0.0
 10
45.261400000000002
 20
73.554100000000005
 30
0.0
 10
45.755300000000005
 20
73.589399999999998
 30
0.0
 10
46.249200000000002
 20
73.624700000000004
 30
0.0
 10
46.249200000000002
 20
73.624700000000004
 30
0.0
 10
47.131100000000004
 20
73.095500000000001
 30
0.0
 10
48.189399999999999
 20
72.566400000000002
 30
0.0
 10
48.471700000000006
 20
71.472800000000007
 30
0.0
 10
48.471700000000006
 20
71.472800000000007
 30
0.0
 10
47.589700000000001
 20
71.225800000000007
 30
0.0
 10
46.672499999999999
 20
71.1905
 30
0.0
 10
45.755300000000005
 20
71.225800000000007
 30
0.0
 10
45.755300000000005
 20
71.225800000000007
 30
0.0
 10
46.4255
 20
69.955799999999996
 30
0.0
 10
47.730800000000002
 20
70.943600000000004
 30
0.0
 10
48.683300000000003
 20
71.1905
 30
0.0
 10
48.683300000000003
 20
71.1905
 30
0.0
 10
49.706400000000002
 20
70.97890000000001
 30
0.0
 10
50.200300000000006
 20
69.814700000000002
 30
0.0
 10
50.623600000000003
 20
68.968000000000004
 30
0.0
 10
50.623600000000003
 20
68.968000000000004
 30
0.0
 10
48.4011
 20
67.521600000000007
 30
0.0
 10
45.755300000000005
 20
69.497200000000007
 30
0.0
 10
44.520500000000006
 20
71.366900000000001
 30
0.0
 10
44.520500000000006
 20
71.366900000000001
 30
0.0
 10
45.049700000000001
 20
71.790300000000002
 30
0.0
 10
45.578900000000004
 20
72.143000000000001
 30
0.0
 10
46.108000000000004
 20
72.566400000000002
 30
0.0
 10
46.108000000000004
 20
72.566400000000002
 30
0.0
 10
45.6494
 20
72.848600000000005
 30
0.0
 10
45.190800000000003
 20
73.130800000000008
 30
0.0
 10
44.732199999999999
 20
73.48360000000001
 30
0.0
  0
SPLINE
  5
32
100
AcDbEntity
  8
LAYER_1
 62
     8
100
AcDbSpline
210
0.0
220
0.0
230
1.0
 70
     1
 71
     3
 72
    12
 73
     8
 74
     0
 42
0.0000000001
 43
0.0000000001
 40
0.0
 40
0.0
 40
0.0
 40
0.0
 40
0.5
 40
0.5
 40
0.5
 40
0.5
 40
1.0
 40
1.0
 40
1.0
 40
1.0
 10
22.930500000000002
 20
72.46050000000001
 30
0.0
 10
23.5303
 20
72.601600000000005
 30
0.0
 10
24.235800000000001
 20
73.025000000000006
 30
0.0
 10
24.8003
 20
72.636899999999997
 30
0.0
 10
24.8003
 20
72.636899999999997
 30
0.0
 10
24.3064
 20
72.107799999999997
 30
0.0
 10
23.5303
 20
72.2136
 30
0.0
 10
22.930500000000002
 20
72.46050000000001
 30
0.0
  0
SPLINE
  5
33
100
AcDbEntity
  8
LAYER_1
 62
    17
100
AcDbSpline
210
0.0
220
0.0
230
1.0
 70
     1
 71
     3
 72
    40
 73
    36
 74
     0
 42
0.0000000001
 43
0.0000000001
 40
0.0
 40
0.0
 40
0.0
 40
0.0
 40
0.1111111111111111
 40
0.1111111111111111
 40
0.1111111111111111
 40
0.1111111111111111
 40
0.2222222222222222
 40
0.2222222222222222
 40
0.2222222222222222
 40
0.2222222222222222
 40
0.3333333333333333
 40
0.3333333333333333
 40
0.3333333333333333
 40
0.3333333333333333
 40
0.4444444444444444
 40
0.4444444444444444
 40
0.4444444444444444
 40
0.4444444444444444
 40
0.5555555555555556
 40
0.5555555555555556
 40
0.5555555555555556
 40
0.5555555555555556
 40
0.6666666666666667
 40
0.6666666666666667
 40
0.6666666666666667
 40
0.6666666666666667
 40
0.7777777777777779
 40
0.7777777777777779
 40
0.7777777777777779
 40
0.7777777777777779
 40
0.8888888888888891
 40
0.8888888888888891
 40
0.8888888888888891
 40
0.8888888888888891
 40
1.0
 40
1.0
 40
1.0
 40
1.0
 10
36.547800000000002
 20
71.578600000000009
 30
0.0
 10
37.9589
 20
72.425300000000007
 30
0.0
 10
40.005000000000003
 20
71.366900000000001
 30
0.0
 10
41.133900000000004
 20
73.025000000000006
 30
0.0
 10
41.133900000000004
 20
73.025000000000006
 30
0.0
 10
41.2044
 20
72.954400000000007
 30
0.0
 10
41.310300000000005
 20
72.813299999999998
 30
0.0
 10
41.380800000000001
 20
72.742800000000003
 30
0.0
 10
41.380800000000001
 20
72.742800000000003
 30
0.0
 10
40.992800000000003
 20
71.9666
 30
0.0
 10
40.710500000000003
 20
71.084699999999998
 30
0.0
 10
41.169200000000004
 20
70.273300000000006
 30
0.0
 10
41.169200000000004
 20
70.273300000000006
 30
0.0
 10
42.827200000000005
 20
70.096900000000005
 30
0.0
 10
45.578900000000004
 20
69.850000000000009
 30
0.0
 10
46.249200000000002
 20
68.368300000000005
 30
0.0
 10
46.249200000000002
 20
68.368300000000005
 30
0.0
 10
45.331900000000005
 20
68.156599999999997
 30
0.0
 10
44.450000000000003
 20
68.368300000000005
 30
0.0
 10
43.709200000000003
 20
68.9328
 30
0.0
 10
43.709200000000003
 20
68.9328
 30
0.0
 10
43.709200000000003
 20
68.9328
 30
0.0
 10
43.497500000000002
 20
69.038600000000002
 30
0.0
 10
43.497500000000002
 20
69.038600000000002
 30
0.0
 10
43.497500000000002
 20
69.038600000000002
 30
0.0
 10
41.910000000000004
 20
69.920500000000004
 30
0.0
 10
40.005000000000003
 20
69.567800000000005
 30
0.0
 10
38.276400000000002
 20
69.744100000000003
 30
0.0
 10
38.276400000000002
 20
69.744100000000003
 30
0.0
 10
38.629200000000004
 20
70.308599999999998
 30
0.0
 10
38.981900000000003
 20
70.908299999999997
 30
0.0
 10
39.264200000000002
 20
71.50800000000001
 30
0.0
 10
39.264200000000002
 20
71.50800000000001
 30
0.0
 10
38.346900000000005
 20
71.543300000000002
 30
0.0
 10
37.465000000000003
 20
71.472800000000007
 30
0.0
 10
36.547800000000002
 20
71.578600000000009
 30
0.0
  0
SPLINE
  5
34
100
AcDbEntity
  8
LAYER_1
 62
     8
100
AcDbSpline
210
0.0
220
0.0
230
1.0
 70
     1
 71
     3
 72
    12
 73
     8
 74
     0
 42
0.0000000001
 43
0.0000000001
 40
0.0
 40
0.0
 40
0.0
 40
0.0
 40
0.5
 40
0.5
 40
0.5
 40
0.5
 40
1.0
 40
1.0
 40
1.0
 40
1.0
 10
21.0608
 20
72.178300000000007
 30
0.0
 10
21.378299999999999
 20
72.566400000000002
 30
0.0
 10
21.766400000000001
 20
72.672200000000004
 30
0.0
 10
22.260300000000001
 20
72.425300000000007
 30
0.0
 10
22.260300000000001
 20
72.425300000000007
 30
0.0
 10
21.942800000000002
 20
72.072500000000005
 30
0.0
 10
21.519400000000001
 20
72.001900000000006
 30
0.0
 10
21.0608
 20
72.178300000000007
 30
0.0
  0
SPLINE
  5
35
100
AcDbEntity
  8
LAYER_1
 62
     8
100
AcDbSpline
210
0.0
220
0.0
230
1.0
 70
     1
 71
     3
 72
    12
 73
     8
 74
     0
 42
0.0000000001
 43
0.0000000001
 40
0.0
 40
0.0
 40
0.0
 40
0.0
 40
0.5
 40
0.5
 40
0.5
 40
0.5
 40
1.0
 40
1.0
 40
1.0
 40
1.0
 10
20.743300000000001
 20
71.472800000000007
 30
0.0
 10
25.117800000000003
 20
72.319400000000002
 30
0.0
 10
29.598000000000003
 20
72.248900000000006
 30
0.0
 10
34.007800000000003
 20
72.601600000000005
 30
0.0
 10
34.007800000000003
 20
72.601600000000005
 30
0.0
 10
29.668600000000001
 20
71.543300000000002
 30
0.0
 10
25.153000000000002
 20
72.072500000000005
 30
0.0
 10
20.743300000000001
 20
71.472800000000007
 30
0.0
  0
SPLINE
  5
36
100
AcDbEntity
  8
LAYER_1
 62
     9
100
AcDbSpline
210
0.0
220
0.0
230
1.0
 70
     1
 71
     3
 72
    44
 73
    40
 74
     0
 42
0.0000000001
 43
0.0000000001
 40
0.0
 40
0.0
 40
0.0
 40
0.0
 40
0.1
 40
0.1
 40
0.1
 40
0.1
 40
0.2
 40
0.2
 40
0.2
 40
0.2
 40
0.3
 40
0.3
 40
0.3
 40
0.3
 40
0.4
 40
0.4
 40
0.4
 40
0.4
 40
0.5
 40
0.5
 40
0.5
 40
0.5
 40
0.6
 40
0.6
 40
0.6
 40
0.6
 40
0.7
 40
0.7
 40
0.7
 40
0.7
 40
0.7999999999999999
 40
0.7999999999999999
 40
0.7999999999999999
 40
0.7999999999999999
 40
0.8999999999999999
 40
0.8999999999999999
 40
0.8999999999999999
 40
0.8999999999999999
 40
1.0
 40
1.0
 40
1.0
 40
1.0
 10
-51.752500000000005
 20
70.238
 30
0.0
 10
-50.835300000000004
 20
70.520300000000006
 30
0.0
 10
-50.8705
 20
71.790300000000002
 30
0.0
 10
-49.882800000000003
 20
71.931399999999996
 30
0.0
 10
-49.882800000000003
 20
71.931399999999996
 30
0.0
 10
-50.517800000000001
 20
71.155299999999997
 30
0.0
 10
-51.258600000000001
 20
70.449700000000007
 30
0.0
 10
-51.540800000000004
 20
69.4619
 30
0.0
 10
-51.540800000000004
 20
69.4619
 30
0.0
 10
-50.482500000000002
 20
69.850000000000009
 30
0.0
 10
-49.812200000000004
 20
70.837800000000001
 30
0.0
 10
-48.965500000000006
 20
71.543300000000002
 30
0.0
 10
-48.965500000000006
 20
71.543300000000002
 30
0.0
 10
-48.4011
 20
71.261099999999999
 30
0.0
 10
-48.083600000000004
 20
70.767200000000003
 30
0.0
 10
-47.977800000000002
 20
70.167500000000004
 30
0.0
 10
-47.977800000000002
 20
70.167500000000004
 30
0.0
 10
-47.519200000000005
 20
70.061599999999999
 30
0.0
 10
-47.025300000000001
 20
69.991100000000003
 30
0.0
 10
-46.531400000000005
 20
69.885300000000001
 30
0.0
 10
-46.531400000000005
 20
69.885300000000001
 30
0.0
 10
-46.566700000000004
 20
69.673600000000008
 30
0.0
 10
-46.601900000000001
 20
69.285499999999999
 30
0.0
 10
-46.601900000000001
 20
69.073900000000009
 30
0.0
 10
-46.601900000000001
 20
69.073900000000009
 30
0.0
 10
-48.718600000000002
 20
68.862200000000001
 30
0.0
 10
-50.835300000000004
 20
69.073900000000009
 30
0.0
 10
-52.916700000000006
 20
68.615300000000005
 30
0.0
 10
-52.916700000000006
 20
68.615300000000005
 30
0.0
 10
-52.916700000000006
 20
68.615300000000005
 30
0.0
 10
-52.916700000000006
 20
69.285499999999999
 30
0.0
 10
-52.916700000000006
 20
69.285499999999999
 30
0.0
 10
-52.916700000000006
 20
69.285499999999999
 30
0.0
 10
-52.669700000000006
 20
69.320800000000006
 30
0.0
 10
-52.211100000000002
 20
69.356099999999998
 30
0.0
 10
-51.964200000000005
 20
69.391400000000004
 30
0.0
 10
-51.964200000000005
 20
69.391400000000004
 30
0.0
 10
-51.928900000000006
 20
69.603000000000009
 30
0.0
 10
-51.823
 20
70.02640000000001
 30
0.0
 10
-51.752500000000005
 20
70.238
 30
0.0
  0
SPLINE
  5
37
100
AcDbEntity
  8
LAYER_1
 62
     8
100
AcDbSpline
210
0.0
220
0.0
230
1.0
 70
     1
 71
     3
 72
   100
 73
    96
 74
     0
 42
0.0000000001
 43
0.0000000001
 40
0.0
 40
0.0
 40
0.0
 40
0.0
 40
0.0416666666666667
 40
0.0416666666666667
 40
0.0416666666666667
 40
0.0416666666666667
 40
0.0833333333333333
 40
0.0833333333333333
 40
0.0833333333333333
 40
0.0833333333333333
 40
0.125
 40
0.125
 40
0.125
 40
0.125
 40
0.1666666666666667
 40
0.1666666666666667
 40
0.1666666666666667
 40
0.1666666666666667
 40
0.2083333333333333
 40
0.2083333333333333
 40
0.2083333333333333
 40
0.2083333333333333
 40
0.25
 40
0.25
 40
0.25
 40
0.25
 40
0.2916666666666666
 40
0.2916666666666666
 40
0.2916666666666666
 40
0.2916666666666666
 40
0.3333333333333333
 40
0.3333333333333333
 40
0.3333333333333333
 40
0.3333333333333333
 40
0.375
 40
0.375
 40
0.375
 40
0.375
 40
0.4166666666666667
 40
0.4166666666666667
 40
0.4166666666666667
 40
0.4166666666666667
 40
0.4583333333333334
 40
0.4583333333333334
 40
0.4583333333333334
 40
0.4583333333333334
 40
0.5
 40
0.5
 40
0.5
 40
0.5
 40
0.5416666666666666
 40
0.5416666666666666
 40
0.5416666666666666
 40
0.5416666666666666
 40
0.5833333333333333
 40
0.5833333333333333
 40
0.5833333333333333
 40
0.5833333333333333
 40
0.6249999999999999
 40
0.6249999999999999
 40
0.6249999999999999
 40
0.6249999999999999
 40
0.6666666666666665
 40
0.6666666666666665
 40
0.6666666666666665
 40
0.6666666666666665
 40
0.7083333333333332
 40
0.7083333333333332
 40
0.7083333333333332
 40
0.7083333333333332
 40
0.7499999999999998
 40
0.7499999999999998
 40
0.7499999999999998
 40
0.7499999999999998
 40
0.7916666666666664
 40
0.7916666666666664
 40
0.7916666666666664
 40
0.7916666666666664
 40
0.833333333333333
 40
0.833333333333333
 40
0.833333333333333
 40
0.833333333333333
 40
0.8749999999999997
 40
0.8749999999999997
 40
0.8749999999999997
 40
0.8749999999999997
 40
0.9166666666666663
 40
0.9166666666666663
 40
0.9166666666666663
 40
0.9166666666666663
 40
0.9583333333333329
 40
0.9583333333333329
 40
0.9583333333333329
 40
0.9583333333333329
 40
1.0
 40
1.0
 40
1.0
 40
1.0
 10
-48.965500000000006
 20
71.543300000000002
 30
0.0
 10
-48.083600000000004
 20
72.425300000000007
 30
0.0
 10
-46.919400000000003
 20
71.4375
 30
0.0
 10
-45.8964
 20
71.790300000000002
 30
0.0
 10
-45.8964
 20
71.790300000000002
 30
0.0
 10
-45.261400000000002
 20
72.001900000000006
 30
0.0
 10
-44.696899999999999
 20
71.578600000000009
 30
0.0
 10
-44.203000000000003
 20
71.225800000000007
 30
0.0
 10
-44.203000000000003
 20
71.225800000000007
 30
0.0
 10
-44.344200000000001
 20
70.555500000000009
 30
0.0
 10
-45.261400000000002
 20
70.343900000000005
 30
0.0
 10
-45.331900000000005
 20
69.7089
 30
0.0
 10
-45.331900000000005
 20
69.7089
 30
0.0
 10
-45.331900000000005
 20
69.497200000000007
 30
0.0
 10
-45.296700000000001
 20
69.144400000000005
 30
0.0
 10
-45.296700000000001
 20
68.968000000000004
 30
0.0
 10
-45.296700000000001
 20
68.968000000000004
 30
0.0
 10
-44.555800000000005
 20
68.968000000000004
 30
0.0
 10
-43.638600000000004
 20
68.721100000000007
 30
0.0
 10
-43.1447
 20
69.426600000000008
 30
0.0
 10
-43.1447
 20
69.426600000000008
 30
0.0
 10
-42.4392
 20
70.449700000000007
 30
0.0
 10
-41.063300000000005
 20
70.02640000000001
 30
0.0
 10
-40.040300000000002
 20
69.920500000000004
 30
0.0
 10
-40.040300000000002
 20
69.920500000000004
 30
0.0
 10
-39.863900000000001
 20
69.285499999999999
 30
0.0
 10
-39.793300000000002
 20
68.615300000000005
 30
0.0
 10
-39.6875
 20
67.945000000000007
 30
0.0
 10
-39.6875
 20
67.945000000000007
 30
0.0
 10
-40.816400000000002
 20
68.297800000000009
 30
0.0
 10
-41.733600000000003
 20
69.073900000000009
 30
0.0
 10
-42.686100000000003
 20
69.744100000000003
 30
0.0
 10
-42.686100000000003
 20
69.744100000000003
 30
0.0
 10
-42.298000000000002
 20
69.038600000000002
 30
0.0
 10
-41.839400000000005
 20
68.368300000000005
 30
0.0
 10
-41.345500000000001
 20
67.768600000000006
 30
0.0
 10
-41.345500000000001
 20
67.768600000000006
 30
0.0
 10
-41.521900000000002
 20
67.380499999999998
 30
0.0
 10
-41.4161
 20
67.098300000000009
 30
0.0
 10
-40.992800000000003
 20
66.9572
 30
0.0
 10
-40.992800000000003
 20
66.9572
 30
0.0
 10
-41.169200000000004
 20
66.816100000000006
 30
0.0
 10
-41.345500000000001
 20
66.639700000000005
 30
0.0
 10
-41.486699999999999
 20
66.463300000000004
 30
0.0
 10
-41.486699999999999
 20
66.463300000000004
 30
0.0
 10
-41.239699999999999
 20
65.334400000000002
 30
0.0
 10
-40.640000000000001
 20
64.135000000000005
 30
0.0
 10
-41.098600000000005
 20
62.970800000000004
 30
0.0
 10
-41.098600000000005
 20
62.970800000000004
 30
0.0
 10
-45.049700000000001
 20
63.147200000000005
 30
0.0
 10
-48.965500000000006
 20
63.041400000000003
 30
0.0
 10
-52.916700000000006
 20
63.041400000000003
 30
0.0
 10
-52.916700000000006
 20
63.041400000000003
 30
0.0
 10
-52.916700000000006
 20
63.041400000000003
 30
0.0
 10
-52.916700000000006
 20
65.616600000000005
 30
0.0
 10
-52.916700000000006
 20
65.616600000000005
 30
0.0
 10
-52.916700000000006
 20
65.616600000000005
 30
0.0
 10
-50.764700000000005
 20
65.052199999999999
 30
0.0
 10
-48.436399999999999
 20
67.239400000000003
 30
0.0
 10
-46.531400000000005
 20
65.616600000000005
 30
0.0
 10
-46.531400000000005
 20
65.616600000000005
 30
0.0
 10
-45.1203
 20
65.934100000000001
 30
0.0
 10
-43.709200000000003
 20
66.110500000000002
 30
0.0
 10
-42.333300000000001
 20
65.54610000000001
 30
0.0
 10
-42.333300000000001
 20
65.54610000000001
 30
0.0
 10
-41.839400000000005
 20
66.181100000000001
 30
0.0
 10
-42.1569
 20
67.239400000000003
 30
0.0
 10
-42.227499999999999
 20
68.015500000000003
 30
0.0
 10
-42.227499999999999
 20
68.015500000000003
 30
0.0
 10
-45.755300000000005
 20
68.897500000000008
 30
0.0
 10
-49.3536
 20
67.521600000000007
 30
0.0
 10
-52.916700000000006
 20
67.909700000000001
 30
0.0
 10
-52.916700000000006
 20
67.909700000000001
 30
0.0
 10
-52.916700000000006
 20
67.909700000000001
 30
0.0
 10
-52.916700000000006
 20
68.615300000000005
 30
0.0
 10
-52.916700000000006
 20
68.615300000000005
 30
0.0
 10
-52.916700000000006
 20
68.615300000000005
 30
0.0
 10
-50.835300000000004
 20
69.073900000000009
 30
0.0
 10
-48.718600000000002
 20
68.862200000000001
 30
0.0
 10
-46.601900000000001
 20
69.073900000000009
 30
0.0
 10
-46.601900000000001
 20
69.073900000000009
 30
0.0
 10
-46.601900000000001
 20
69.285499999999999
 30
0.0
 10
-46.566700000000004
 20
69.673600000000008
 30
0.0
 10
-46.531400000000005
 20
69.885300000000001
 30
0.0
 10
-46.531400000000005
 20
69.885300000000001
 30
0.0
 10
-47.025300000000001
 20
69.991100000000003
 30
0.0
 10
-47.519200000000005
 20
70.061599999999999
 30
0.0
 10
-47.977800000000002
 20
70.167500000000004
 30
0.0
 10
-47.977800000000002
 20
70.167500000000004
 30
0.0
 10
-48.083600000000004
 20
70.767200000000003
 30
0.0
 10
-48.4011
 20
71.261099999999999
 30
0.0
 10
-48.965500000000006
 20
71.543300000000002
 30
0.0
 10
-48.965500000000006
 20
71.543300000000002
 30
0.0
 10
-48.965500000000006
 20
71.543300000000002
 30
0.0
 10
-48.965500000000006
 20
71.543300000000002
 30
0.0
 10
-48.965500000000006
 20
71.543300000000002
 30
0.0
  0
SPLINE
  5
38
100
AcDbEntity
  8
LAYER_1
 62
     8
100
AcDbSpline
210
0.0
220
0.0
230
1.0
 70
     1
 71
     3
 72
     8
 73
     4
 74
     0
 42
0.0000000001
 43
0.0000000001
 40
0.0
 40
0.0
 40
0.0
 40
0.0
 40
1.0
 40
1.0
 40
1.0
 40
1.0
 10
-41.063300000000005
 20
69.673600000000008
 30
0.0
 10
-40.922200000000004
 20
68.086100000000002
 30
0.0
 10
-39.511099999999999
 20
70.202799999999996
 30
0.0
 10
-41.063300000000005
 20
69.673600000000008
 30
0.0
  0
SPLINE
  5
39
100
AcDbEntity
  8
LAYER_1
 62
     8
100
AcDbSpline
210
0.0
220
0.0
230
1.0
 70
     0
 71
     3
 72
    96
 73
    92
 74
     0
 42
0.0000000001
 43
0.0000000001
 40
0.0
 40
0.0
 40
0.0
 40
0.0
 40
0.0434782608695652
 40
0.0434782608695652
 40
0.0434782608695652
 40
0.0434782608695652
 40
0.0869565217391304
 40
0.0869565217391304
 40
0.0869565217391304
 40
0.0869565217391304
 40
0.1304347826086957
 40
0.1304347826086957
 40
0.1304347826086957
 40
0.1304347826086957
 40
0.1739130434782609
 40
0.1739130434782609
 40
0.1739130434782609
 40
0.1739130434782609
 40
0.2173913043478261
 40
0.2173913043478261
 40
0.2173913043478261
 40
0.2173913043478261
 40
0.2608695652173913
 40
0.2608695652173913
 40
0.2608695652173913
 40
0.2608695652173913
 40
0.3043478260869565
 40
0.3043478260869565
 40
0.3043478260869565
 40
0.3043478260869565
 40
0.3478260869565217
 40
0.3478260869565217
 40
0.3478260869565217
 40
0.3478260869565217
 40
0.3913043478260869
 40
0.3913043478260869
 40
0.3913043478260869
 40
0.3913043478260869
 40
0.4347826086956521
 40
0.4347826086956521
 40
0.4347826086956521
 40
0.4347826086956521
 40
0.4782608695652173
 40
0.4782608695652173
 40
0.4782608695652173
 40
0.4782608695652173
 40
0.5217391304347825
 40
0.5217391304347825
 40
0.5217391304347825
 40
0.5217391304347825
 40
0.5652173913043477
 40
0.5652173913043477
 40
0.5652173913043477
 40
0.5652173913043477
 40
0.6086956521739129
 40
0.6086956521739129
 40
0.6086956521739129
 40
0.6086956521739129
 40
0.6521739130434781
 40
0.6521739130434781
 40
0.6521739130434781
 40
0.6521739130434781
 40
0.6956521739130432
 40
0.6956521739130432
 40
0.6956521739130432
 40
0.6956521739130432
 40
0.7391304347826084
 40
0.7391304347826084
 40
0.7391304347826084
 40
0.7391304347826084
 40
0.7826086956521736
 40
0.7826086956521736
 40
0.7826086956521736
 40
0.7826086956521736
 40
0.8260869565217388
 40
0.8260869565217388
 40
0.8260869565217388
 40
0.8260869565217388
 40
0.869565217391304
 40
0.869565217391304
 40
0.869565217391304
 40
0.869565217391304
 40
0.9130434782608692
 40
0.9130434782608692
 40
0.9130434782608692
 40
0.9130434782608692
 40
0.9565217391304344
 40
0.9565217391304344
 40
0.9565217391304344
 40
0.9565217391304344
 40
1.0
 40
1.0
 40
1.0
 40
1.0
 10
-48.965500000000006
 20
71.543300000000002
 30
0.0
 10
-48.083600000000004
 20
72.425300000000007
 30
0.0
 10
-46.919400000000003
 20
71.4375
 30
0.0
 10
-45.8964
 20
71.790300000000002
 30
0.0
 10
-45.8964
 20
71.790300000000002
 30
0.0
 10
-45.261400000000002
 20
72.001900000000006
 30
0.0
 10
-44.696899999999999
 20
71.578600000000009
 30
0.0
 10
-44.203000000000003
 20
71.225800000000007
 30
0.0
 10
-44.203000000000003
 20
71.225800000000007
 30
0.0
 10
-44.344200000000001
 20
70.555500000000009
 30
0.0
 10
-45.261400000000002
 20
70.343900000000005
 30
0.0
 10
-45.331900000000005
 20
69.7089
 30
0.0
 10
-45.331900000000005
 20
69.7089
 30
0.0
 10
-45.331900000000005
 20
69.497200000000007
 30
0.0
 10
-45.296700000000001
 20
69.144400000000005
 30
0.0
 10
-45.296700000000001
 20
68.968000000000004
 30
0.0
 10
-45.296700000000001
 20
68.968000000000004
 30
0.0
 10
-44.555800000000005
 20
68.968000000000004
 30
0.0
 10
-43.638600000000004
 20
68.721100000000007
 30
0.0
 10
-43.1447
 20
69.426600000000008
 30
0.0
 10
-43.1447
 20
69.426600000000008
 30
0.0
 10
-42.4392
 20
70.449700000000007
 30
0.0
 10
-41.063300000000005
 20
70.02640000000001
 30
0.0
 10
-40.040300000000002
 20
69.920500000000004
 30
0.0
 10
-40.040300000000002
 20
69.920500000000004
 30
0.0
 10
-39.863900000000001
 20
69.285499999999999
 30
0.0
 10
-39.793300000000002
 20
68.615300000000005
 30
0.0
 10
-39.6875
 20
67.945000000000007
 30
0.0
 10
-39.6875
 20
67.945000000000007
 30
0.0
 10
-40.816400000000002
 20
68.297800000000009
 30
0.0
 10
-41.733600000000003
 20
69.073900000000009
 30
0.0
 10
-42.686100000000003
 20
69.744100000000003
 30
0.0
 10
-42.686100000000003
 20
69.744100000000003
 30
0.0
 10
-42.298000000000002
 20
69.038600000000002
 30
0.0
 10
-41.839400000000005
 20
68.368300000000005
 30
0.0
 10
-41.345500000000001
 20
67.768600000000006
 30
0.0
 10
-41.345500000000001
 20
67.768600000000006
 30
0.0
 10
-41.521900000000002
 20
67.380499999999998
 30
0.0
 10
-41.4161
 20
67.098300000000009
 30
0.0
 10
-40.992800000000003
 20
66.9572
 30
0.0
 10
-40.992800000000003
 20
66.9572
 30
0.0
 10
-41.169200000000004
 20
66.816100000000006
 30
0.0
 10
-41.345500000000001
 20
66.639700000000005
 30
0.0
 10
-41.486699999999999
 20
66.463300000000004
 30
0.0
 10
-41.486699999999999
 20
66.463300000000004
 30
0.0
 10
-41.239699999999999
 20
65.334400000000002
 30
0.0
 10
-40.640000000000001
 20
64.135000000000005
 30
0.0
 10
-41.098600000000005
 20
62.970800000000004
 30
0.0
 10
-41.098600000000005
 20
62.970800000000004
 30
0.0
 10
-45.049700000000001
 20
63.147200000000005
 30
0.0
 10
-48.965500000000006
 20
63.041400000000003
 30
0.0
 10
-52.916700000000006
 20
63.041400000000003
 30
0.0
 10
-52.916700000000006
 20
63.041400000000003
 30
0.0
 10
-52.916700000000006
 20
63.041400000000003
 30
0.0
 10
-52.916700000000006
 20
65.616600000000005
 30
0.0
 10
-52.916700000000006
 20
65.616600000000005
 30
0.0
 10
-52.916700000000006
 20
65.616600000000005
 30
0.0
 10
-50.764700000000005
 20
65.052199999999999
 30
0.0
 10
-48.436399999999999
 20
67.239400000000003
 30
0.0
 10
-46.531400000000005
 20
65.616600000000005
 30
0.0
 10
-46.531400000000005
 20
65.616600000000005
 30
0.0
 10
-45.1203
 20
65.934100000000001
 30
0.0
 10
-43.709200000000003
 20
66.110500000000002
 30
0.0
 10
-42.333300000000001
 20
65.54610000000001
 30
0.0
 10
-42.333300000000001
 20
65.54610000000001
 30
0.0
 10
-41.839400000000005
 20
66.181100000000001
 30
0.0
 10
-42.1569
 20
67.239400000000003
 30
0.0
 10
-42.227499999999999
 20
68.015500000000003
 30
0.0
 10
-42.227499999999999
 20
68.015500000000003
 30
0.0
 10
-45.755300000000005
 20
68.897500000000008
 30
0.0
 10
-49.3536
 20
67.521600000000007
 30
0.0
 10
-52.916700000000006
 20
67.909700000000001
 30
0.0
 10
-52.916700000000006
 20
67.909700000000001
 30
0.0
 10
-52.916700000000006
 20
67.909700000000001
 30
0.0
 10
-52.916700000000006
 20
68.615300000000005
 30
0.0
 10
-52.916700000000006
 20
68.615300000000005
 30
0.0
 10
-52.916700000000006
 20
68.615300000000005
 30
0.0
 10
-50.835300000000004
 20
69.073900000000009
 30
0.0
 10
-48.718600000000002
 20
68.862200000000001
 30
0.0
 10
-46.601900000000001
 20
69.073900000000009
 30
0.0
 10
-46.601900000000001
 20
69.073900000000009
 30
0.0
 10
-46.601900000000001
 20
69.285499999999999
 30
0.0
 10
-46.566700000000004
 20
69.673600000000008
 30
0.0
 10
-46.531400000000005
 20
69.885300000000001
 30
0.0
 10
-46.531400000000005
 20
69.885300000000001
 30
0.0
 10
-47.025300000000001
 20
69.991100000000003
 30
0.0
 10
-47.519200000000005
 20
70.061599999999999
 30
0.0
 10
-47.977800000000002
 20
70.167500000000004
 30
0.0
 10
-47.977800000000002
 20
70.167500000000004
 30
0.0
 10
-48.083600000000004
 20
70.767200000000003
 30
0.0
 10
-48.4011
 20
71.261099999999999
 30
0.0
 10
-48.965500000000006
 20
71.543300000000002
 30
0.0
  0
SPLINE
  5
3A
100
AcDbEntity
  8
LAYER_1
 62
     8
100
AcDbSpline
210
0.0
220
0.0
230
1.0
 70
     1
 71
     3
 72
     8
 73
     4
 74
     0
 42
0.0000000001
 43
0.0000000001
 40
0.0
 40
0.0
 40
0.0
 40
0.0
 40
1.0
 40
1.0
 40
1.0
 40
1.0
 10
-41.063300000000005
 20
69.673600000000008
 30
0.0
 10
-40.922200000000004
 20
68.086100000000002
 30
0.0
 10
-39.511099999999999
 20
70.202799999999996
 30
0.0
 10
-41.063300000000005
 20
69.673600000000008
 30
0.0
  0
SPLINE
  5
3B
100
AcDbEntity
  8
LAYER_1
 62
     8
100
AcDbSpline
210
0.0
220
0.0
230
1.0
 70
     1
 71
     3
 72
    16
 73
    12
 74
     0
 42
0.0000000001
 43
0.0000000001
 40
0.0
 40
0.0
 40
0.0
 40
0.0
 40
0.3333333333333333
 40
0.3333333333333333
 40
0.3333333333333333
 40
0.3333333333333333
 40
0.6666666666666666
 40
0.6666666666666666
 40
0.6666666666666666
 40
0.6666666666666666
 40
1.0
 40
1.0
 40
1.0
 40
1.0
 10
-40.957500000000003
 20
71.860799999999998
 30
0.0
 10
-39.511099999999999
 20
71.896100000000004
 30
0.0
 10
-37.641400000000004
 20
72.354700000000008
 30
0.0
 10
-36.582999999999998
 20
71.120000000000005
 30
0.0
 10
-36.582999999999998
 20
71.120000000000005
 30
0.0
 10
-37.641400000000004
 20
70.343900000000005
 30
0.0
 10
-39.052500000000002
 20
69.744100000000003
 30
0.0
 10
-38.981900000000003
 20
68.191900000000004
 30
0.0
 10
-38.981900000000003
 20
68.191900000000004
 30
0.0
 10
-39.087800000000001
 20
69.638300000000001
 30
0.0
 10
-39.793300000000002
 20
70.943600000000004
 30
0.0
 10
-40.957500000000003
 20
71.860799999999998
 30
0.0
  0
SPLINE
  5
3C
100
AcDbEntity
  8
LAYER_1
 62
     8
100
AcDbSpline
210
0.0
220
0.0
230
1.0
 70
     1
 71
     3
 72
    20
 73
    16
 74
     0
 42
0.0000000001
 43
0.0000000001
 40
0.0
 40
0.0
 40
0.0
 40
0.0
 40
0.25
 40
0.25
 40
0.25
 40
0.25
 40
0.5
 40
0.5
 40
0.5
 40
0.5
 40
0.75
 40
0.75
 40
0.75
 40
0.75
 40
1.0
 40
1.0
 40
1.0
 40
1.0
 10
15.24
 20
71.261099999999999
 30
0.0
 10
16.1219
 20
71.4375
 30
0.0
 10
17.003900000000002
 20
71.402200000000008
 30
0.0
 10
17.8858
 20
71.578600000000009
 30
0.0
 10
17.8858
 20
71.578600000000009
 30
0.0
 10
18.450300000000002
 20
71.50800000000001
 30
0.0
 10
18.979400000000002
 20
71.4375
 30
0.0
 10
19.508600000000001
 20
71.402200000000008
 30
0.0
 10
19.508600000000001
 20
71.402200000000008
 30
0.0
 10
12.7706
 20
69.77940000000001
 30
0.0
 10
5.7149999999999999
 20
70.449700000000007
 30
0.0
 10
-1.1642000000000001
 20
70.520300000000006
 30
0.0
 10
-1.1642000000000001
 20
70.520300000000006
 30
0.0
 10
4.3039000000000005
 20
70.943600000000004
 30
0.0
 10
9.8778000000000006
 20
69.920500000000004
 30
0.0
 10
15.24
 20
71.261099999999999
 30
0.0
  0
SPLINE
  5
3D
100
AcDbEntity
  8
LAYER_1
 62
     9
100
AcDbSpline
210
0.0
220
0.0
230
1.0
 70
     1
 71
     3
 72
    28
 73
    24
 74
     0
 42
0.0000000001
 43
0.0000000001
 40
0.0
 40
0.0
 40
0.0
 40
0.0
 40
0.1666666666666667
 40
0.1666666666666667
 40
0.1666666666666667
 40
0.1666666666666667
 40
0.3333333333333333
 40
0.3333333333333333
 40
0.3333333333333333
 40
0.3333333333333333
 40
0.5
 40
0.5
 40
0.5
 40
0.5
 40
0.6666666666666666
 40
0.6666666666666666
 40
0.6666666666666666
 40
0.6666666666666666
 40
0.8333333333333333
 40
0.8333333333333333
 40
0.8333333333333333
 40
0.8333333333333333
 40
1.0
 40
1.0
 40
1.0
 40
1.0
 10
50.0944
 20
71.4375
 30
0.0
 10
50.905799999999999
 20
70.767200000000003
 30
0.0
 10
51.152799999999999
 20
69.7089
 30
0.0
 10
51.928900000000006
 20
68.968000000000004
 30
0.0
 10
51.928900000000006
 20
68.968000000000004
 30
0.0
 10
52.246400000000001
 20
68.968000000000004
 30
0.0
 10
52.599200000000003
 20
69.00330000000001
 30
0.0
 10
52.916700000000006
 20
69.073900000000009
 30
0.0
 10
52.916700000000006
 20
69.073900000000009
 30
0.0
 10
52.916700000000006
 20
69.073900000000009
 30
0.0
 10
52.916700000000006
 20
68.227199999999996
 30
0.0
 10
52.916700000000006
 20
68.227199999999996
 30
0.0
 10
52.916700000000006
 20
68.227199999999996
 30
0.0
 10
52.493300000000005
 20
68.262500000000003
 30
0.0
 10
52.07
 20
68.332999999999998
 30
0.0
 10
51.646700000000003
 20
68.403599999999997
 30
0.0
 10
51.646700000000003
 20
68.403599999999997
 30
0.0
 10
51.399700000000003
 20
68.650500000000008
 30
0.0
 10
51.152799999999999
 20
68.9328
 30
0.0
 10
50.941100000000006
 20
69.215000000000003
 30
0.0
 10
50.941100000000006
 20
69.215000000000003
 30
0.0
 10
50.658900000000003
 20
69.955799999999996
 30
0.0
 10
50.482500000000002
 20
70.767200000000003
 30
0.0
 10
50.0944
 20
71.4375
 30
0.0
  0
SPLINE
  5
3E
100
AcDbEntity
  8
LAYER_1
 62
     8
100
AcDbSpline
210
0.0
220
0.0
230
1.0
 70
     1
 71
     3
 72
    12
 73
     8
 74
     0
 42
0.0000000001
 43
0.0000000001
 40
0.0
 40
0.0
 40
0.0
 40
0.0
 40
0.5
 40
0.5
 40
0.5
 40
0.5
 40
1.0
 40
1.0
 40
1.0
 40
1.0
 10
-10.4069
 20
70.873000000000005
 30
0.0
 10
-8.2903000000000002
 20
70.908299999999997
 30
0.0
 10
-6.1031000000000004
 20
71.225800000000007
 30
0.0
 10
-4.0217000000000001
 20
70.6614
 30
0.0
 10
-4.0217000000000001
 20
70.6614
 30
0.0
 10
-6.1031000000000004
 20
70.73190000000001
 30
0.0
 10
-8.4667000000000012
 20
70.02640000000001
 30
0.0
 10
-10.4069
 20
70.873000000000005
 30
0.0
  0
SPLINE
  5
3F
100
AcDbEntity
  8
LAYER_1
 62
     9
100
AcDbSpline
210
0.0
220
0.0
230
1.0
 70
     1
 71
     3
 72
    16
 73
    12
 74
     0
 42
0.0000000001
 43
0.0000000001
 40
0.0
 40
0.0
 40
0.0
 40
0.0
 40
0.3333333333333333
 40
0.3333333333333333
 40
0.3333333333333333
 40
0.3333333333333333
 40
0.6666666666666666
 40
0.6666666666666666
 40
0.6666666666666666
 40
0.6666666666666666
 40
1.0
 40
1.0
 40
1.0
 40
1.0
 10
-45.331900000000005
 20
69.7089
 30
0.0
 10
-44.591100000000004
 20
69.744100000000003
 30
0.0
 10
-43.8855
 20
69.603000000000009
 30
0.0
 10
-43.1447
 20
69.426600000000008
 30
0.0
 10
-43.1447
 20
69.426600000000008
 30
0.0
 10
-43.638600000000004
 20
68.721100000000007
 30
0.0
 10
-44.555800000000005
 20
68.968000000000004
 30
0.0
 10
-45.296700000000001
 20
68.968000000000004
 30
0.0
 10
-45.296700000000001
 20
68.968000000000004
 30
0.0
 10
-45.296700000000001
 20
69.144400000000005
 30
0.0
 10
-45.331900000000005
 20
69.497200000000007
 30
0.0
 10
-45.331900000000005
 20
69.7089
 30
0.0
  0
SPLINE
  5
40
100
AcDbEntity
  8
LAYER_1
 62
     9
100
AcDbSpline
210
0.0
220
0.0
230
1.0
 70
     1
 71
     3
 72
    56
 73
    52
 74
     0
 42
0.0000000001
 43
0.0000000001
 40
0.0
 40
0.0
 40
0.0
 40
0.0
 40
0.0769230769230769
 40
0.0769230769230769
 40
0.0769230769230769
 40
0.0769230769230769
 40
0.1538461538461539
 40
0.1538461538461539
 40
0.1538461538461539
 40
0.1538461538461539
 40
0.2307692307692308
 40
0.2307692307692308
 40
0.2307692307692308
 40
0.2307692307692308
 40
0.3076923076923077
 40
0.3076923076923077
 40
0.3076923076923077
 40
0.3076923076923077
 40
0.3846153846153846
 40
0.3846153846153846
 40
0.3846153846153846
 40
0.3846153846153846
 40
0.4615384615384616
 40
0.4615384615384616
 40
0.4615384615384616
 40
0.4615384615384616
 40
0.5384615384615386
 40
0.5384615384615386
 40
0.5384615384615386
 40
0.5384615384615386
 40
0.6153846153846154
 40
0.6153846153846154
 40
0.6153846153846154
 40
0.6153846153846154
 40
0.6923076923076923
 40
0.6923076923076923
 40
0.6923076923076923
 40
0.6923076923076923
 40
0.7692307692307692
 40
0.7692307692307692
 40
0.7692307692307692
 40
0.7692307692307692
 40
0.846153846153846
 40
0.846153846153846
 40
0.846153846153846
 40
0.846153846153846
 40
0.9230769230769229
 40
0.9230769230769229
 40
0.9230769230769229
 40
0.9230769230769229
 40
1.0
 40
1.0
 40
1.0
 40
1.0
 10
-42.686100000000003
 20
69.744100000000003
 30
0.0
 10
-41.733600000000003
 20
69.073900000000009
 30
0.0
 10
-40.816400000000002
 20
68.297800000000009
 30
0.0
 10
-39.6875
 20
67.945000000000007
 30
0.0
 10
-39.6875
 20
67.945000000000007
 30
0.0
 10
-39.299399999999999
 20
65.793000000000006
 30
0.0
 10
-38.876100000000001
 20
63.429400000000001
 30
0.0
 10
-39.934400000000004
 20
61.418600000000005
 30
0.0
 10
-39.934400000000004
 20
61.418600000000005
 30
0.0
 10
-40.569400000000002
 20
60.0075
 30
0.0
 10
-40.110800000000005
 20
57.2911
 30
0.0
 10
-42.545000000000002
 20
57.961400000000005
 30
0.0
 10
-42.545000000000002
 20
57.961400000000005
 30
0.0
 10
-42.686100000000003
 20
59.266600000000004
 30
0.0
 10
-41.4161
 20
60.148600000000002
 30
0.0
 10
-41.345500000000001
 20
61.453900000000004
 30
0.0
 10
-41.345500000000001
 20
61.453900000000004
 30
0.0
 10
-43.109400000000001
 20
61.700800000000001
 30
0.0
 10
-44.802800000000005
 20
60.924700000000001
 30
0.0
 10
-46.531400000000005
 20
60.889400000000002
 30
0.0
 10
-46.531400000000005
 20
60.889400000000002
 30
0.0
 10
-46.566700000000004
 20
61.312800000000003
 30
0.0
 10
-46.566700000000004
 20
61.7361
 30
0.0
 10
-46.531400000000005
 20
62.159400000000005
 30
0.0
 10
-46.531400000000005
 20
62.159400000000005
 30
0.0
 10
-44.838000000000001
 20
62.053600000000003
 30
0.0
 10
-43.074200000000005
 20
61.947800000000001
 30
0.0
 10
-41.4161
 20
62.441600000000001
 30
0.0
 10
-41.4161
 20
62.441600000000001
 30
0.0
 10
-41.345500000000001
 20
62.582800000000006
 30
0.0
 10
-41.169200000000004
 20
62.829700000000003
 30
0.0
 10
-41.098600000000005
 20
62.970800000000004
 30
0.0
 10
-41.098600000000005
 20
62.970800000000004
 30
0.0
 10
-40.640000000000001
 20
64.135000000000005
 30
0.0
 10
-41.239699999999999
 20
65.334400000000002
 30
0.0
 10
-41.486699999999999
 20
66.463300000000004
 30
0.0
 10
-41.486699999999999
 20
66.463300000000004
 30
0.0
 10
-41.345500000000001
 20
66.639700000000005
 30
0.0
 10
-41.169200000000004
 20
66.816100000000006
 30
0.0
 10
-40.992800000000003
 20
66.9572
 30
0.0
 10
-40.992800000000003
 20
66.9572
 30
0.0
 10
-40.957500000000003
 20
67.098300000000009
 30
0.0
 10
-40.851700000000001
 20
67.345300000000009
 30
0.0
 10
-40.781100000000002
 20
67.451099999999997
 30
0.0
 10
-40.781100000000002
 20
67.451099999999997
 30
0.0
 10
-40.922200000000004
 20
67.521600000000007
 30
0.0
 10
-41.2044
 20
67.698000000000008
 30
0.0
 10
-41.345500000000001
 20
67.768600000000006
 30
0.0
 10
-41.345500000000001
 20
67.768600000000006
 30
0.0
 10
-41.839400000000005
 20
68.368300000000005
 30
0.0
 10
-42.298000000000002
 20
69.038600000000002
 30
0.0
 10
-42.686100000000003
 20
69.744100000000003
 30
0.0
  0
SPLINE
  5
41
100
AcDbEntity
  8
LAYER_1
 62
     9
100
AcDbSpline
210
0.0
220
0.0
230
1.0
 70
     1
 71
     3
 72
     8
 73
     4
 74
     0
 42
0.0000000001
 43
0.0000000001
 40
0.0
 40
0.0
 40
0.0
 40
0.0
 40
1.0
 40
1.0
 40
1.0
 40
1.0
 10
-41.063300000000005
 20
69.673600000000008
 30
0.0
 10
-39.511099999999999
 20
70.202799999999996
 30
0.0
 10
-40.922200000000004
 20
68.086100000000002
 30
0.0
 10
-41.063300000000005
 20
69.673600000000008
 30
0.0
  0
SPLINE
  5
42
100
AcDbEntity
  8
LAYER_1
 62
     9
100
AcDbSpline
210
0.0
220
0.0
230
1.0
 70
     1
 71
     3
 72
    44
 73
    40
 74
     0
 42
0.0000000001
 43
0.0000000001
 40
0.0
 40
0.0
 40
0.0
 40
0.0
 40
0.1
 40
0.1
 40
0.1
 40
0.1
 40
0.2
 40
0.2
 40
0.2
 40
0.2
 40
0.3
 40
0.3
 40
0.3
 40
0.3
 40
0.4
 40
0.4
 40
0.4
 40
0.4
 40
0.5
 40
0.5
 40
0.5
 40
0.5
 40
0.6
 40
0.6
 40
0.6
 40
0.6
 40
0.7
 40
0.7
 40
0.7
 40
0.7
 40
0.7999999999999999
 40
0.7999999999999999
 40
0.7999999999999999
 40
0.7999999999999999
 40
0.8999999999999999
 40
0.8999999999999999
 40
0.8999999999999999
 40
0.8999999999999999
 40
1.0
 40
1.0
 40
1.0
 40
1.0
 10
38.593900000000005
 20
69.25030000000001
 30
0.0
 10
39.722799999999999
 20
69.426600000000008
 30
0.0
 10
40.886900000000004
 20
69.356099999999998
 30
0.0
 10
42.015799999999999
 20
69.285499999999999
 30
0.0
 10
42.015799999999999
 20
69.285499999999999
 30
0.0
 10
41.169200000000004
 20
68.262500000000003
 30
0.0
 10
40.287199999999999
 20
67.027799999999999
 30
0.0
 10
38.876100000000001
 20
66.921900000000008
 30
0.0
 10
38.876100000000001
 20
66.921900000000008
 30
0.0
 10
40.992800000000003
 20
65.016900000000007
 30
0.0
 10
39.017200000000003
 20
61.912500000000001
 30
0.0
 10
40.4283
 20
59.690000000000005
 30
0.0
 10
40.4283
 20
59.690000000000005
 30
0.0
 10
40.4283
 20
59.231400000000001
 30
0.0
 10
40.4283
 20
58.772800000000004
 30
0.0
 10
40.4283
 20
58.349400000000003
 30
0.0
 10
40.4283
 20
58.349400000000003
 30
0.0
 10
40.534199999999998
 20
58.243600000000001
 30
0.0
 10
40.781100000000002
 20
58.0672
 30
0.0
 10
40.886900000000004
 20
57.961400000000005
 30
0.0
 10
40.886900000000004
 20
57.961400000000005
 30
0.0
 10
41.345500000000001
 20
57.714400000000005
 30
0.0
 10
41.733600000000003
 20
57.361600000000003
 30
0.0
 10
41.804200000000002
 20
56.832500000000003
 30
0.0
 10
41.804200000000002
 20
56.832500000000003
 30
0.0
 10
40.886900000000004
 20
57.008900000000004
 30
0.0
 10
39.969700000000003
 20
57.185300000000005
 30
0.0
 10
39.052500000000002
 20
57.3264
 30
0.0
 10
39.052500000000002
 20
57.3264
 30
0.0
 10
38.523299999999999
 20
58.208300000000001
 30
0.0
 10
38.734999999999999
 20
59.160800000000002
 30
0.0
 10
38.9467
 20
60.0428
 30
0.0
 10
38.9467
 20
60.0428
 30
0.0
 10
38.629200000000004
 20
61.5244
 30
0.0
 10
36.053899999999999
 20
62.618000000000002
 30
0.0
 10
37.147500000000001
 20
64.2761
 30
0.0
 10
37.147500000000001
 20
64.2761
 30
0.0
 10
38.311700000000002
 20
65.687200000000004
 30
0.0
 10
37.606100000000005
 20
67.7333
 30
0.0
 10
38.593900000000005
 20
69.25030000000001
 30
0.0
  0
SPLINE
  5
43
100
AcDbEntity
  8
LAYER_1
 62
     9
100
AcDbSpline
210
0.0
220
0.0
230
1.0
 70
     1
 71
     3
 72
    12
 73
     8
 74
     0
 42
0.0000000001
 43
0.0000000001
 40
0.0
 40
0.0
 40
0.0
 40
0.0
 40
0.5
 40
0.5
 40
0.5
 40
0.5
 40
1.0
 40
1.0
 40
1.0
 40
1.0
 10
43.709200000000003
 20
68.9328
 30
0.0
 10
42.862500000000004
 20
67.768600000000006
 30
0.0
 10
41.874700000000004
 20
69.356099999999998
 30
0.0
 10
43.497500000000002
 20
69.038600000000002
 30
0.0
 10
43.497500000000002
 20
69.038600000000002
 30
0.0
 10
43.497500000000002
 20
69.038600000000002
 30
0.0
 10
43.709200000000003
 20
68.9328
 30
0.0
 10
43.709200000000003
 20
68.9328
 30
0.0
  0
SPLINE
  5
44
100
AcDbEntity
  8
LAYER_1
 62
     9
100
AcDbSpline
210
0.0
220
0.0
230
1.0
 70
     1
 71
     3
 72
    24
 73
    20
 74
     0
 42
0.0000000001
 43
0.0000000001
 40
0.0
 40
0.0
 40
0.0
 40
0.0
 40
0.2
 40
0.2
 40
0.2
 40
0.2
 40
0.4
 40
0.4
 40
0.4
 40
0.4
 40
0.6000000000000001
 40
0.6000000000000001
 40
0.6000000000000001
 40
0.6000000000000001
 40
0.8
 40
0.8
 40
0.8
 40
0.8
 40
1.0
 40
1.0
 40
1.0
 40
1.0
 10
-52.916700000000006
 20
67.909700000000001
 30
0.0
 10
-49.3536
 20
67.521600000000007
 30
0.0
 10
-45.755300000000005
 20
68.897500000000008
 30
0.0
 10
-42.227499999999999
 20
68.015500000000003
 30
0.0
 10
-42.227499999999999
 20
68.015500000000003
 30
0.0
 10
-42.1569
 20
67.239400000000003
 30
0.0
 10
-41.839400000000005
 20
66.181100000000001
 30
0.0
 10
-42.333300000000001
 20
65.54610000000001
 30
0.0
 10
-42.333300000000001
 20
65.54610000000001
 30
0.0
 10
-43.709200000000003
 20
66.110500000000002
 30
0.0
 10
-45.1203
 20
65.934100000000001
 30
0.0
 10
-46.531400000000005
 20
65.616600000000005
 30
0.0
 10
-46.531400000000005
 20
65.616600000000005
 30
0.0
 10
-48.436399999999999
 20
67.239400000000003
 30
0.0
 10
-50.764700000000005
 20
65.052199999999999
 30
0.0
 10
-52.916700000000006
 20
65.616600000000005
 30
0.0
 10
-52.916700000000006
 20
65.616600000000005
 30
0.0
 10
-52.916700000000006
 20
65.616600000000005
 30
0.0
 10
-52.916700000000006
 20
67.909700000000001
 30
0.0
 10
-52.916700000000006
 20
67.909700000000001
 30
0.0
  0
SPLINE
  5
45
100
AcDbEntity
  8
LAYER_1
 62
     9
100
AcDbSpline
210
0.0
220
0.0
230
1.0
 70
     1
 71
     3
 72
    24
 73
    20
 74
     0
 42
0.0000000001
 43
0.0000000001
 40
0.0
 40
0.0
 40
0.0
 40
0.0
 40
0.2
 40
0.2
 40
0.2
 40
0.2
 40
0.4
 40
0.4
 40
0.4
 40
0.4
 40
0.6000000000000001
 40
0.6000000000000001
 40
0.6000000000000001
 40
0.6000000000000001
 40
0.8
 40
0.8
 40
0.8
 40
0.8
 40
1.0
 40
1.0
 40
1.0
 40
1.0
 10
40.816400000000002
 20
65.334400000000002
 30
0.0
 10
40.075500000000005
 20
66.392800000000008
 30
0.0
 10
40.957500000000003
 20
68.191900000000004
 30
0.0
 10
42.333300000000001
 20
67.909700000000001
 30
0.0
 10
42.333300000000001
 20
67.909700000000001
 30
0.0
 10
45.8611
 20
67.803899999999999
 30
0.0
 10
49.3889
 20
68.015500000000003
 30
0.0
 10
52.916700000000006
 20
67.945000000000007
 30
0.0
 10
52.916700000000006
 20
67.945000000000007
 30
0.0
 10
52.916700000000006
 20
67.945000000000007
 30
0.0
 10
52.916700000000006
 20
62.900300000000001
 30
0.0
 10
52.916700000000006
 20
62.900300000000001
 30
0.0
 10
52.916700000000006
 20
62.900300000000001
 30
0.0
 10
50.658900000000003
 20
62.018300000000004
 30
0.0
 10
48.118900000000004
 20
63.182500000000005
 30
0.0
 10
45.719999999999999
 20
62.900300000000001
 30
0.0
 10
45.719999999999999
 20
62.900300000000001
 30
0.0
 10
44.203000000000003
 20
64.0291
 30
0.0
 10
41.804200000000002
 20
63.5
 30
0.0
 10
40.816400000000002
 20
65.334400000000002
 30
0.0
  0
SPLINE
  5
46
100
AcDbEntity
  8
LAYER_1
 62
    17
100
AcDbSpline
210
0.0
220
0.0
230
1.0
 70
     1
 71
     3
 72
    16
 73
    12
 74
     0
 42
0.0000000001
 43
0.0000000001
 40
0.0
 40
0.0
 40
0.0
 40
0.0
 40
0.3333333333333333
 40
0.3333333333333333
 40
0.3333333333333333
 40
0.3333333333333333
 40
0.6666666666666666
 40
0.6666666666666666
 40
0.6666666666666666
 40
0.6666666666666666
 40
1.0
 40
1.0
 40
1.0
 40
1.0
 10
-40.992800000000003
 20
66.9572
 30
0.0
 10
-41.4161
 20
67.098300000000009
 30
0.0
 10
-41.521900000000002
 20
67.380499999999998
 30
0.0
 10
-41.345500000000001
 20
67.768600000000006
 30
0.0
 10
-41.345500000000001
 20
67.768600000000006
 30
0.0
 10
-41.2044
 20
67.698000000000008
 30
0.0
 10
-40.922200000000004
 20
67.521600000000007
 30
0.0
 10
-40.781100000000002
 20
67.451099999999997
 30
0.0
 10
-40.781100000000002
 20
67.451099999999997
 30
0.0
 10
-40.851700000000001
 20
67.345300000000009
 30
0.0
 10
-40.957500000000003
 20
67.098300000000009
 30
0.0
 10
-40.992800000000003
 20
66.9572
 30
0.0
  0
SPLINE
  5
47
100
AcDbEntity
  8
LAYER_1
 62
    17
100
AcDbSpline
210
0.0
220
0.0
230
1.0
 70
     1
 71
     3
 72
   112
 73
   108
 74
     0
 42
0.0000000001
 43
0.0000000001
 40
0.0
 40
0.0
 40
0.0
 40
0.0
 40
0.037037037037037
 40
0.037037037037037
 40
0.037037037037037
 40
0.037037037037037
 40
0.0740740740740741
 40
0.0740740740740741
 40
0.0740740740740741
 40
0.0740740740740741
 40
0.1111111111111111
 40
0.1111111111111111
 40
0.1111111111111111
 40
0.1111111111111111
 40
0.1481481481481481
 40
0.1481481481481481
 40
0.1481481481481481
 40
0.1481481481481481
 40
0.1851851851851852
 40
0.1851851851851852
 40
0.1851851851851852
 40
0.1851851851851852
 40
0.2222222222222222
 40
0.2222222222222222
 40
0.2222222222222222
 40
0.2222222222222222
 40
0.2592592592592592
 40
0.2592592592592592
 40
0.2592592592592592
 40
0.2592592592592592
 40
0.2962962962962963
 40
0.2962962962962963
 40
0.2962962962962963
 40
0.2962962962962963
 40
0.3333333333333333
 40
0.3333333333333333
 40
0.3333333333333333
 40
0.3333333333333333
 40
0.3703703703703704
 40
0.3703703703703704
 40
0.3703703703703704
 40
0.3703703703703704
 40
0.4074074074074074
 40
0.4074074074074074
 40
0.4074074074074074
 40
0.4074074074074074
 40
0.4444444444444444
 40
0.4444444444444444
 40
0.4444444444444444
 40
0.4444444444444444
 40
0.4814814814814815
 40
0.4814814814814815
 40
0.4814814814814815
 40
0.4814814814814815
 40
0.5185185185185185
 40
0.5185185185185185
 40
0.5185185185185185
 40
0.5185185185185185
 40
0.5555555555555556
 40
0.5555555555555556
 40
0.5555555555555556
 40
0.5555555555555556
 40
0.5925925925925926
 40
0.5925925925925926
 40
0.5925925925925926
 40
0.5925925925925926
 40
0.6296296296296295
 40
0.6296296296296295
 40
0.6296296296296295
 40
0.6296296296296295
 40
0.6666666666666665
 40
0.6666666666666665
 40
0.6666666666666665
 40
0.6666666666666665
 40
0.7037037037037035
 40
0.7037037037037035
 40
0.7037037037037035
 40
0.7037037037037035
 40
0.7407407407407405
 40
0.7407407407407405
 40
0.7407407407407405
 40
0.7407407407407405
 40
0.7777777777777775
 40
0.7777777777777775
 40
0.7777777777777775
 40
0.7777777777777775
 40
0.8148148148148144
 40
0.8148148148148144
 40
0.8148148148148144
 40
0.8148148148148144
 40
0.8518518518518514
 40
0.8518518518518514
 40
0.8518518518518514
 40
0.8518518518518514
 40
0.8888888888888884
 40
0.8888888888888884
 40
0.8888888888888884
 40
0.8888888888888884
 40
0.9259259259259254
 40
0.9259259259259254
 40
0.9259259259259254
 40
0.9259259259259254
 40
0.9629629629629624
 40
0.9629629629629624
 40
0.9629629629629624
 40
0.9629629629629624
 40
1.0
 40
1.0
 40
1.0
 40
1.0
 10
40.357800000000005
 20
62.829700000000003
 30
0.0
 10
42.121700000000004
 20
62.935500000000005
 30
0.0
 10
43.9208
 20
63.147200000000005
 30
0.0
 10
45.719999999999999
 20
62.900300000000001
 30
0.0
 10
45.719999999999999
 20
62.900300000000001
 30
0.0
 10
48.118900000000004
 20
63.182500000000005
 30
0.0
 10
50.658900000000003
 20
62.018300000000004
 30
0.0
 10
52.916700000000006
 20
62.900300000000001
 30
0.0
 10
52.916700000000006
 20
62.900300000000001
 30
0.0
 10
52.916700000000006
 20
62.900300000000001
 30
0.0
 10
52.916700000000006
 20
61.947800000000001
 30
0.0
 10
52.916700000000006
 20
61.947800000000001
 30
0.0
 10
52.916700000000006
 20
61.947800000000001
 30
0.0
 10
52.493300000000005
 20
61.912500000000001
 30
0.0
 10
52.1053
 20
61.877200000000002
 30
0.0
 10
51.681900000000006
 20
61.806600000000003
 30
0.0
 10
51.681900000000006
 20
61.806600000000003
 30
0.0
 10
51.011700000000005
 20
60.501400000000004
 30
0.0
 10
50.658900000000003
 20
59.055
 30
0.0
 10
50.729400000000005
 20
57.573300000000003
 30
0.0
 10
50.729400000000005
 20
57.573300000000003
 30
0.0
 10
50.447200000000002
 20
59.055
 30
0.0
 10
50.553000000000004
 20
60.607200000000006
 30
0.0
 10
50.905799999999999
 20
62.053600000000003
 30
0.0
 10
50.905799999999999
 20
62.053600000000003
 30
0.0
 10
49.917999999999999
 20
62.124100000000006
 30
0.0
 10
48.824400000000004
 20
62.335800000000006
 30
0.0
 10
47.8367
 20
61.983000000000004
 30
0.0
 10
47.8367
 20
61.983000000000004
 30
0.0
 10
48.330500000000001
 20
58.843299999999999
 30
0.0
 10
48.224700000000006
 20
54.504100000000001
 30
0.0
 10
44.555800000000005
 20
53.375300000000003
 30
0.0
 10
44.555800000000005
 20
53.375300000000003
 30
0.0
 10
40.640000000000001
 20
51.646700000000003
 30
0.0
 10
36.759399999999999
 20
54.398300000000006
 30
0.0
 10
32.808300000000003
 20
54.715800000000002
 30
0.0
 10
32.808300000000003
 20
54.715800000000002
 30
0.0
 10
22.507200000000001
 20
57.0794
 30
0.0
 10
11.853300000000001
 20
57.220500000000001
 30
0.0
 10
1.3053000000000001
 20
57.185300000000005
 30
0.0
 10
1.3053000000000001
 20
57.185300000000005
 30
0.0
 10
-3.4572000000000003
 20
57.714400000000005
 30
0.0
 10
-8.2550000000000008
 20
56.373900000000006
 30
0.0
 10
-13.052800000000001
 20
56.691400000000002
 30
0.0
 10
-13.052800000000001
 20
56.691400000000002
 30
0.0
 10
-16.5806
 20
56.867800000000003
 30
0.0
 10
-20.037800000000001
 20
56.3033
 30
0.0
 10
-23.495000000000001
 20
55.809400000000004
 30
0.0
 10
-23.495000000000001
 20
55.809400000000004
 30
0.0
 10
-28.186900000000001
 20
56.197500000000005
 30
0.0
 10
-32.773000000000003
 20
54.962800000000001
 30
0.0
 10
-37.429700000000004
 20
54.504100000000001
 30
0.0
 10
-37.429700000000004
 20
54.504100000000001
 30
0.0
 10
-38.981900000000003
 20
54.504100000000001
 30
0.0
 10
-40.886900000000004
 20
52.916700000000006
 30
0.0
 10
-42.1922
 20
54.327800000000003
 30
0.0
 10
-42.1922
 20
54.327800000000003
 30
0.0
 10
-40.4283
 20
54.5747
 30
0.0
 10
-38.629200000000004
 20
54.7864
 30
0.0
 10
-36.900500000000001
 20
55.280300000000004
 30
0.0
 10
-36.900500000000001
 20
55.280300000000004
 30
0.0
 10
-29.915500000000002
 20
57.008900000000004
 30
0.0
 10
-22.648300000000003
 20
56.620800000000003
 30
0.0
 10
-15.522200000000002
 20
57.396900000000002
 30
0.0
 10
-15.522200000000002
 20
57.396900000000002
 30
0.0
 10
-7.7258000000000004
 20
57.255800000000001
 30
0.0
 10
0.0706
 20
58.666900000000005
 30
0.0
 10
7.9022000000000006
 20
57.961400000000005
 30
0.0
 10
7.9022000000000006
 20
57.961400000000005
 30
0.0
 10
18.8736
 20
57.679100000000005
 30
0.0
 10
30.091900000000003
 20
57.185300000000005
 30
0.0
 10
40.569400000000002
 20
53.622199999999999
 30
0.0
 10
40.569400000000002
 20
53.622199999999999
 30
0.0
 10
42.121700000000004
 20
53.410500000000006
 30
0.0
 10
43.638600000000004
 20
54.292500000000004
 30
0.0
 10
45.190800000000003
 20
54.363
 30
0.0
 10
45.190800000000003
 20
54.363
 30
0.0
 10
45.755300000000005
 20
54.468900000000005
 30
0.0
 10
45.8611
 20
54.645300000000006
 30
0.0
 10
45.543600000000005
 20
54.927500000000002
 30
0.0
 10
45.543600000000005
 20
54.927500000000002
 30
0.0
 10
45.190800000000003
 20
55.103900000000003
 30
0.0
 10
44.802800000000005
 20
55.209700000000005
 30
0.0
 10
44.450000000000003
 20
55.386100000000006
 30
0.0
 10
44.450000000000003
 20
55.386100000000006
 30
0.0
 10
44.450000000000003
 20
55.527200000000001
 30
0.0
 10
44.450000000000003
 20
55.809400000000004
 30
0.0
 10
44.485300000000002
 20
55.950500000000005
 30
0.0
 10
44.485300000000002
 20
55.950500000000005
 30
0.0
 10
45.226100000000002
 20
55.597799999999999
 30
0.0
 10
46.178600000000003
 20
55.209700000000005
 30
0.0
 10
46.813600000000001
 20
56.056400000000004
 30
0.0
 10
46.813600000000001
 20
56.056400000000004
 30
0.0
 10
48.013000000000005
 20
57.785000000000004
 30
0.0
 10
47.589700000000001
 20
60.0428
 30
0.0
 10
47.378
 20
62.018300000000004
 30
0.0
 10
47.378
 20
62.018300000000004
 30
0.0
 10
45.614200000000004
 20
62.159400000000005
 30
0.0
 10
43.850300000000004
 20
62.124100000000006
 30
0.0
 10
42.086400000000005
 20
61.983000000000004
 30
0.0
 10
42.086400000000005
 20
61.983000000000004
 30
0.0
 10
41.4514
 20
61.983000000000004
 30
0.0
 10
40.851700000000001
 20
61.983000000000004
 30
0.0
 10
40.216700000000003
 20
62.018300000000004
 30
0.0
 10
40.216700000000003
 20
62.018300000000004
 30
0.0
 10
40.251899999999999
 20
62.230000000000004
 30
0.0
 10
40.322500000000005
 20
62.618000000000002
 30
0.0
 10
40.357800000000005
 20
62.829700000000003
 30
0.0
  0
SPLINE
  5
48
100
AcDbEntity
  8
LAYER_1
 62
     9
100
AcDbSpline
210
0.0
220
0.0
230
1.0
 70
     1
 71
     3
 72
    12
 73
     8
 74
     0
 42
0.0000000001
 43
0.0000000001
 40
0.0
 40
0.0
 40
0.0
 40
0.0
 40
0.5
 40
0.5
 40
0.5
 40
0.5
 40
1.0
 40
1.0
 40
1.0
 40
1.0
 10
49.671100000000003
 20
-55.809400000000004
 30
0.0
 10
50.411900000000003
 20
-56.409100000000002
 30
0.0
 10
52.387500000000003
 20
-55.844700000000003
 30
0.0
 10
51.188000000000002
 20
-54.856900000000003
 30
0.0
 10
51.188000000000002
 20
-54.856900000000003
 30
0.0
 10
50.623600000000003
 20
-55.103900000000003
 30
0.0
 10
50.1297
 20
-55.456600000000002
 30
0.0
 10
49.671100000000003
 20
-55.809400000000004
 30
0.0
  0
SPLINE
  5
49
100
AcDbEntity
  8
LAYER_1
 62
     9
100
AcDbSpline
210
0.0
220
0.0
230
1.0
 70
     0
 71
     3
 72
    24
 73
    20
 74
     0
 42
0.0000000001
 43
0.0000000001
 40
0.0
 40
0.0
 40
0.0
 40
0.0
 40
0.2
 40
0.2
 40
0.2
 40
0.2
 40
0.4
 40
0.4
 40
0.4
 40
0.4
 40
0.6000000000000001
 40
0.6000000000000001
 40
0.6000000000000001
 40
0.6000000000000001
 40
0.8
 40
0.8
 40
0.8
 40
0.8
 40
1.0
 40
1.0
 40
1.0
 40
1.0
 10
-45.437800000000003
 20
-53.163600000000002
 30
0.0
 10
-46.284400000000005
 20
-53.904400000000003
 30
0.0
 10
-47.483900000000006
 20
-54.645300000000006
 30
0.0
 10
-47.554400000000001
 20
-55.880000000000003
 30
0.0
 10
-47.554400000000001
 20
-55.880000000000003
 30
0.0
 10
-45.543600000000005
 20
-52.987200000000001
 30
0.0
 10
-41.592500000000001
 20
-52.987200000000001
 30
0.0
 10
-38.488
 20
-53.904400000000003
 30
0.0
 10
-38.488
 20
-53.904400000000003
 30
0.0
 10
-33.584400000000002
 20
-55.068600000000004
 30
0.0
 10
-28.575000000000003
 20
-56.197500000000005
 30
0.0
 10
-23.495000000000001
 20
-55.844700000000003
 30
0.0
 10
-23.495000000000001
 20
-55.844700000000003
 30
0.0
 10
-27.128600000000002
 20
-54.645300000000006
 30
0.0
 10
-31.2561
 20
-55.103900000000003
 30
0.0
 10
-34.960300000000004
 20
-53.8339
 30
0.0
 10
-34.960300000000004
 20
-53.8339
 30
0.0
 10
-38.417500000000004
 20
-53.410500000000006
 30
0.0
 10
-42.015799999999999
 20
-51.576100000000004
 30
0.0
 10
-45.437800000000003
 20
-53.163600000000002
 30
0.0
  0
SPLINE
  5
4A
100
AcDbEntity
  8
LAYER_1
 62
     9
100
AcDbSpline
210
0.0
220
0.0
230
1.0
 70
     0
 71
     3
 72
    32
 73
    28
 74
     0
 42
0.0000000001
 43
0.0000000001
 40
0.0
 40
0.0
 40
0.0
 40
0.0
 40
0.1428571428571429
 40
0.1428571428571429
 40
0.1428571428571429
 40
0.1428571428571429
 40
0.2857142857142857
 40
0.2857142857142857
 40
0.2857142857142857
 40
0.2857142857142857
 40
0.4285714285714286
 40
0.4285714285714286
 40
0.4285714285714286
 40
0.4285714285714286
 40
0.5714285714285714
 40
0.5714285714285714
 40
0.5714285714285714
 40
0.5714285714285714
 40
0.7142857142857142
 40
0.7142857142857142
 40
0.7142857142857142
 40
0.7142857142857142
 40
0.857142857142857
 40
0.857142857142857
 40
0.857142857142857
 40
0.857142857142857
 40
1.0
 40
1.0
 40
1.0
 40
1.0
 10
48.048300000000005
 20
18.803000000000001
 30
0.0
 10
48.013000000000005
 20
17.8858
 30
0.0
 10
48.083600000000004
 20
16.968600000000002
 30
0.0
 10
48.013000000000005
 20
16.0867
 30
0.0
 10
48.013000000000005
 20
16.0867
 30
0.0
 10
47.095800000000004
 20
15.1342
 30
0.0
 10
46.108000000000004
 20
14.287500000000001
 30
0.0
 10
45.155500000000004
 20
13.3703
 30
0.0
 10
45.155500000000004
 20
13.3703
 30
0.0
 10
45.014400000000002
 20
13.476100000000001
 30
0.0
 10
44.732199999999999
 20
13.6525
 30
0.0
 10
44.591100000000004
 20
13.7583
 30
0.0
 10
44.591100000000004
 20
13.7583
 30
0.0
 10
44.626400000000004
 20
13.5114
 30
0.0
 10
44.696899999999999
 20
13.0175
 30
0.0
 10
44.732199999999999
 20
12.7706
 30
0.0
 10
44.732199999999999
 20
12.7706
 30
0.0
 10
44.273600000000002
 20
12.488300000000001
 30
0.0
 10
43.321100000000001
 20
11.606400000000001
 30
0.0
 10
44.061900000000001
 20
11.1478
 30
0.0
 10
44.061900000000001
 20
11.1478
 30
0.0
 10
45.014400000000002
 20
11.2889
 30
0.0
 10
44.414700000000003
 20
12.805800000000001
 30
0.0
 10
45.226100000000002
 20
13.1586
 30
0.0
 10
45.226100000000002
 20
13.1586
 30
0.0
 10
47.236900000000006
 20
14.1464
 30
0.0
 10
49.1419
 20
16.686400000000003
 30
0.0
 10
48.048300000000005
 20
18.803000000000001
 30
0.0
  0
SPLINE
  5
4B
100
AcDbEntity
  8
LAYER_1
 62
     9
100
AcDbSpline
210
0.0
220
0.0
230
1.0
 70
     0
 71
     3
 72
    20
 73
    16
 74
     0
 42
0.0000000001
 43
0.0000000001
 40
0.0
 40
0.0
 40
0.0
 40
0.0
 40
0.25
 40
0.25
 40
0.25
 40
0.25
 40
0.5
 40
0.5
 40
0.5
 40
0.5
 40
0.75
 40
0.75
 40
0.75
 40
0.75
 40
1.0
 40
1.0
 40
1.0
 40
1.0
 10
45.261400000000002
 20
43.956099999999999
 30
0.0
 10
45.8964
 20
43.18
 30
0.0
 10
46.566700000000004
 20
42.474400000000003
 30
0.0
 10
47.272200000000005
 20
41.768900000000002
 30
0.0
 10
47.272200000000005
 20
41.768900000000002
 30
0.0
 10
47.766100000000002
 20
41.839400000000005
 30
0.0
 10
48.224700000000006
 20
41.980499999999999
 30
0.0
 10
48.683300000000003
 20
42.1569
 30
0.0
 10
48.683300000000003
 20
42.1569
 30
0.0
 10
48.895000000000003
 20
43.18
 30
0.0
 10
47.766100000000002
 20
42.4392
 30
0.0
 10
47.307500000000005
 20
42.474400000000003
 30
0.0
 10
47.307500000000005
 20
42.474400000000003
 30
0.0
 10
46.531400000000005
 20
42.791900000000005
 30
0.0
 10
45.966900000000003
 20
43.497500000000002
 30
0.0
 10
45.261400000000002
 20
43.956099999999999
 30
0.0
  0
SPLINE
  5
4C
100
AcDbEntity
  8
LAYER_1
 62
     9
100
AcDbSpline
210
0.0
220
0.0
230
1.0
 70
     0
 71
     3
 72
   556
 73
   552
 74
     0
 42
0.0000000001
 43
0.0000000001
 40
0.0
 40
0.0
 40
0.0
 40
0.0
 40
0.0072463768115942
 40
0.0072463768115942
 40
0.0072463768115942
 40
0.0072463768115942
 40
0.0144927536231884
 40
0.0144927536231884
 40
0.0144927536231884
 40
0.0144927536231884
 40
0.0217391304347826
 40
0.0217391304347826
 40
0.0217391304347826
 40
0.0217391304347826
 40
0.0289855072463768
 40
0.0289855072463768
 40
0.0289855072463768
 40
0.0289855072463768
 40
0.036231884057971
 40
0.036231884057971
 40
0.036231884057971
 40
0.036231884057971
 40
0.0434782608695652
 40
0.0434782608695652
 40
0.0434782608695652
 40
0.0434782608695652
 40
0.0507246376811594
 40
0.0507246376811594
 40
0.0507246376811594
 40
0.0507246376811594
 40
0.0579710144927536
 40
0.0579710144927536
 40
0.0579710144927536
 40
0.0579710144927536
 40
0.0652173913043478
 40
0.0652173913043478
 40
0.0652173913043478
 40
0.0652173913043478
 40
0.072463768115942
 40
0.072463768115942
 40
0.072463768115942
 40
0.072463768115942
 40
0.0797101449275362
 40
0.0797101449275362
 40
0.0797101449275362
 40
0.0797101449275362
 40
0.0869565217391304
 40
0.0869565217391304
 40
0.0869565217391304
 40
0.0869565217391304
 40
0.0942028985507247
 40
0.0942028985507247
 40
0.0942028985507247
 40
0.0942028985507247
 40
0.1014492753623189
 40
0.1014492753623189
 40
0.1014492753623189
 40
0.1014492753623189
 40
0.1086956521739131
 40
0.1086956521739131
 40
0.1086956521739131
 40
0.1086956521739131
 40
0.1159420289855073
 40
0.1159420289855073
 40
0.1159420289855073
 40
0.1159420289855073
 40
0.1231884057971015
 40
0.1231884057971015
 40
0.1231884057971015
 40
0.1231884057971015
 40
0.1304347826086957
 40
0.1304347826086957
 40
0.1304347826086957
 40
0.1304347826086957
 40
0.1376811594202899
 40
0.1376811594202899
 40
0.1376811594202899
 40
0.1376811594202899
 40
0.1449275362318841
 40
0.1449275362318841
 40
0.1449275362318841
 40
0.1449275362318841
 40
0.1521739130434783
 40
0.1521739130434783
 40
0.1521739130434783
 40
0.1521739130434783
 40
0.1594202898550725
 40
0.1594202898550725
 40
0.1594202898550725
 40
0.1594202898550725
 40
0.1666666666666667
 40
0.1666666666666667
 40
0.1666666666666667
 40
0.1666666666666667
 40
0.1739130434782609
 40
0.1739130434782609
 40
0.1739130434782609
 40
0.1739130434782609
 40
0.1811594202898551
 40
0.1811594202898551
 40
0.1811594202898551
 40
0.1811594202898551
 40
0.1884057971014493
 40
0.1884057971014493
 40
0.1884057971014493
 40
0.1884057971014493
 40
0.1956521739130435
 40
0.1956521739130435
 40
0.1956521739130435
 40
0.1956521739130435
 40
0.2028985507246378
 40
0.2028985507246378
 40
0.2028985507246378
 40
0.2028985507246378
 40
0.210144927536232
 40
0.210144927536232
 40
0.210144927536232
 40
0.210144927536232
 40
0.2173913043478262
 40
0.2173913043478262
 40
0.2173913043478262
 40
0.2173913043478262
 40
0.2246376811594204
 40
0.2246376811594204
 40
0.2246376811594204
 40
0.2246376811594204
 40
0.2318840579710146
 40
0.2318840579710146
 40
0.2318840579710146
 40
0.2318840579710146
 40
0.2391304347826088
 40
0.2391304347826088
 40
0.2391304347826088
 40
0.2391304347826088
 40
0.246376811594203
 40
0.246376811594203
 40
0.246376811594203
 40
0.246376811594203
 40
0.2536231884057972
 40
0.2536231884057972
 40
0.2536231884057972
 40
0.2536231884057972
 40
0.2608695652173914
 40
0.2608695652173914
 40
0.2608695652173914
 40
0.2608695652173914
 40
0.2681159420289855
 40
0.2681159420289855
 40
0.2681159420289855
 40
0.2681159420289855
 40
0.2753623188405797
 40
0.2753623188405797
 40
0.2753623188405797
 40
0.2753623188405797
 40
0.2826086956521739
 40
0.2826086956521739
 40
0.2826086956521739
 40
0.2826086956521739
 40
0.2898550724637681
 40
0.2898550724637681
 40
0.2898550724637681
 40
0.2898550724637681
 40
0.2971014492753623
 40
0.2971014492753623
 40
0.2971014492753623
 40
0.2971014492753623
 40
0.3043478260869564
 40
0.3043478260869564
 40
0.3043478260869564
 40
0.3043478260869564
 40
0.3115942028985506
 40
0.3115942028985506
 40
0.3115942028985506
 40
0.3115942028985506
 40
0.3188405797101448
 40
0.3188405797101448
 40
0.3188405797101448
 40
0.3188405797101448
 40
0.326086956521739
 40
0.326086956521739
 40
0.326086956521739
 40
0.326086956521739
 40
0.3333333333333332
 40
0.3333333333333332
 40
0.3333333333333332
 40
0.3333333333333332
 40
0.3405797101449273
 40
0.3405797101449273
 40
0.3405797101449273
 40
0.3405797101449273
 40
0.3478260869565215
 40
0.3478260869565215
 40
0.3478260869565215
 40
0.3478260869565215
 40
0.3550724637681157
 40
0.3550724637681157
 40
0.3550724637681157
 40
0.3550724637681157
 40
0.3623188405797099
 40
0.3623188405797099
 40
0.3623188405797099
 40
0.3623188405797099
 40
0.3695652173913041
 40
0.3695652173913041
 40
0.3695652173913041
 40
0.3695652173913041
 40
0.3768115942028982
 40
0.3768115942028982
 40
0.3768115942028982
 40
0.3768115942028982
 40
0.3840579710144924
 40
0.3840579710144924
 40
0.3840579710144924
 40
0.3840579710144924
 40
0.3913043478260866
 40
0.3913043478260866
 40
0.3913043478260866
 40
0.3913043478260866
 40
0.3985507246376808
 40
0.3985507246376808
 40
0.3985507246376808
 40
0.3985507246376808
 40
0.4057971014492749
 40
0.4057971014492749
 40
0.4057971014492749
 40
0.4057971014492749
 40
0.4130434782608691
 40
0.4130434782608691
 40
0.4130434782608691
 40
0.4130434782608691
 40
0.4202898550724633
 40
0.4202898550724633
 40
0.4202898550724633
 40
0.4202898550724633
 40
0.4275362318840575
 40
0.4275362318840575
 40
0.4275362318840575
 40
0.4275362318840575
 40
0.4347826086956517
 40
0.4347826086956517
 40
0.4347826086956517
 40
0.4347826086956517
 40
0.4420289855072458
 40
0.4420289855072458
 40
0.4420289855072458
 40
0.4420289855072458
 40
0.44927536231884
 40
0.44927536231884
 40
0.44927536231884
 40
0.44927536231884
 40
0.4565217391304342
 40
0.4565217391304342
 40
0.4565217391304342
 40
0.4565217391304342
 40
0.4637681159420284
 40
0.4637681159420284
 40
0.4637681159420284
 40
0.4637681159420284
 40
0.4710144927536226
 40
0.4710144927536226
 40
0.4710144927536226
 40
0.4710144927536226
 40
0.4782608695652167
 40
0.4782608695652167
 40
0.4782608695652167
 40
0.4782608695652167
 40
0.4855072463768109
 40
0.4855072463768109
 40
0.4855072463768109
 40
0.4855072463768109
 40
0.4927536231884051
 40
0.4927536231884051
 40
0.4927536231884051
 40
0.4927536231884051
 40
0.4999999999999993
 40
0.4999999999999993
 40
0.4999999999999993
 40
0.4999999999999993
 40
0.5072463768115935
 40
0.5072463768115935
 40
0.5072463768115935
 40
0.5072463768115935
 40
0.5144927536231877
 40
0.5144927536231877
 40
0.5144927536231877
 40
0.5144927536231877
 40
0.5217391304347819
 40
0.5217391304347819
 40
0.5217391304347819
 40
0.5217391304347819
 40
0.5289855072463762
 40
0.5289855072463762
 40
0.5289855072463762
 40
0.5289855072463762
 40
0.5362318840579704
 40
0.5362318840579704
 40
0.5362318840579704
 40
0.5362318840579704
 40
0.5434782608695646
 40
0.5434782608695646
 40
0.5434782608695646
 40
0.5434782608695646
 40
0.5507246376811589
 40
0.5507246376811589
 40
0.5507246376811589
 40
0.5507246376811589
 40
0.5579710144927531
 40
0.5579710144927531
 40
0.5579710144927531
 40
0.5579710144927531
 40
0.5652173913043473
 40
0.5652173913043473
 40
0.5652173913043473
 40
0.5652173913043473
 40
0.5724637681159416
 40
0.5724637681159416
 40
0.5724637681159416
 40
0.5724637681159416
 40
0.5797101449275358
 40
0.5797101449275358
 40
0.5797101449275358
 40
0.5797101449275358
 40
0.58695652173913
 40
0.58695652173913
 40
0.58695652173913
 40
0.58695652173913
 40
0.5942028985507243
 40
0.5942028985507243
 40
0.5942028985507243
 40
0.5942028985507243
 40
0.6014492753623185
 40
0.6014492753623185
 40
0.6014492753623185
 40
0.6014492753623185
 40
0.6086956521739128
 40
0.6086956521739128
 40
0.6086956521739128
 40
0.6086956521739128
 40
0.615942028985507
 40
0.615942028985507
 40
0.615942028985507
 40
0.615942028985507
 40
0.6231884057971012
 40
0.6231884057971012
 40
0.6231884057971012
 40
0.6231884057971012
 40
0.6304347826086955
 40
0.6304347826086955
 40
0.6304347826086955
 40
0.6304347826086955
 40
0.6376811594202897
 40
0.6376811594202897
 40
0.6376811594202897
 40
0.6376811594202897
 40
0.6449275362318839
 40
0.6449275362318839
 40
0.6449275362318839
 40
0.6449275362318839
 40
0.6521739130434782
 40
0.6521739130434782
 40
0.6521739130434782
 40
0.6521739130434782
 40
0.6594202898550724
 40
0.6594202898550724
 40
0.6594202898550724
 40
0.6594202898550724
 40
0.6666666666666666
 40
0.6666666666666666
 40
0.6666666666666666
 40
0.6666666666666666
 40
0.6739130434782609
 40
0.6739130434782609
 40
0.6739130434782609
 40
0.6739130434782609
 40
0.6811594202898551
 40
0.6811594202898551
 40
0.6811594202898551
 40
0.6811594202898551
 40
0.6884057971014493
 40
0.6884057971014493
 40
0.6884057971014493
 40
0.6884057971014493
 40
0.6956521739130436
 40
0.6956521739130436
 40
0.6956521739130436
 40
0.6956521739130436
 40
0.7028985507246378
 40
0.7028985507246378
 40
0.7028985507246378
 40
0.7028985507246378
 40
0.710144927536232
 40
0.710144927536232
 40
0.710144927536232
 40
0.710144927536232
 40
0.7173913043478263
 40
0.7173913043478263
 40
0.7173913043478263
 40
0.7173913043478263
 40
0.7246376811594205
 40
0.7246376811594205
 40
0.7246376811594205
 40
0.7246376811594205
 40
0.7318840579710148
 40
0.7318840579710148
 40
0.7318840579710148
 40
0.7318840579710148
 40
0.739130434782609
 40
0.739130434782609
 40
0.739130434782609
 40
0.739130434782609
 40
0.7463768115942032
 40
0.7463768115942032
 40
0.7463768115942032
 40
0.7463768115942032
 40
0.7536231884057975
 40
0.7536231884057975
 40
0.7536231884057975
 40
0.7536231884057975
 40
0.7608695652173917
 40
0.7608695652173917
 40
0.7608695652173917
 40
0.7608695652173917
 40
0.7681159420289859
 40
0.7681159420289859
 40
0.7681159420289859
 40
0.7681159420289859
 40
0.7753623188405802
 40
0.7753623188405802
 40
0.7753623188405802
 40
0.7753623188405802
 40
0.7826086956521744
 40
0.7826086956521744
 40
0.7826086956521744
 40
0.7826086956521744
 40
0.7898550724637686
 40
0.7898550724637686
 40
0.7898550724637686
 40
0.7898550724637686
 40
0.7971014492753629
 40
0.7971014492753629
 40
0.7971014492753629
 40
0.7971014492753629
 40
0.8043478260869571
 40
0.8043478260869571
 40
0.8043478260869571
 40
0.8043478260869571
 40
0.8115942028985513
 40
0.8115942028985513
 40
0.8115942028985513
 40
0.8115942028985513
 40
0.8188405797101456
 40
0.8188405797101456
 40
0.8188405797101456
 40
0.8188405797101456
 40
0.8260869565217398
 40
0.8260869565217398
 40
0.8260869565217398
 40
0.8260869565217398
 40
0.833333333333334
 40
0.833333333333334
 40
0.833333333333334
 40
0.833333333333334
 40
0.8405797101449283
 40
0.8405797101449283
 40
0.8405797101449283
 40
0.8405797101449283
 40
0.8478260869565225
 40
0.8478260869565225
 40
0.8478260869565225
 40
0.8478260869565225
 40
0.8550724637681167
 40
0.8550724637681167
 40
0.8550724637681167
 40
0.8550724637681167
 40
0.862318840579711
 40
0.862318840579711
 40
0.862318840579711
 40
0.862318840579711
 40
0.8695652173913052
 40
0.8695652173913052
 40
0.8695652173913052
 40
0.8695652173913052
 40
0.8768115942028995
 40
0.8768115942028995
 40
0.8768115942028995
 40
0.8768115942028995
 40
0.8840579710144937
 40
0.8840579710144937
 40
0.8840579710144937
 40
0.8840579710144937
 40
0.8913043478260879
 40
0.8913043478260879
 40
0.8913043478260879
 40
0.8913043478260879
 40
0.8985507246376822
 40
0.8985507246376822
 40
0.8985507246376822
 40
0.8985507246376822
 40
0.9057971014492764
 40
0.9057971014492764
 40
0.9057971014492764
 40
0.9057971014492764
 40
0.9130434782608706
 40
0.9130434782608706
 40
0.9130434782608706
 40
0.9130434782608706
 40
0.9202898550724649
 40
0.9202898550724649
 40
0.9202898550724649
 40
0.9202898550724649
 40
0.9275362318840591
 40
0.9275362318840591
 40
0.9275362318840591
 40
0.9275362318840591
 40
0.9347826086956533
 40
0.9347826086956533
 40
0.9347826086956533
 40
0.9347826086956533
 40
0.9420289855072476
 40
0.9420289855072476
 40
0.9420289855072476
 40
0.9420289855072476
 40
0.9492753623188418
 40
0.9492753623188418
 40
0.9492753623188418
 40
0.9492753623188418
 40
0.956521739130436
 40
0.956521739130436
 40
0.956521739130436
 40
0.956521739130436
 40
0.9637681159420303
 40
0.9637681159420303
 40
0.9637681159420303
 40
0.9637681159420303
 40
0.9710144927536245
 40
0.9710144927536245
 40
0.9710144927536245
 40
0.9710144927536245
 40
0.9782608695652187
 40
0.9782608695652187
 40
0.9782608695652187
 40
0.9782608695652187
 40
0.985507246376813
 40
0.985507246376813
 40
0.985507246376813
 40
0.985507246376813
 40
0.9927536231884072
 40
0.9927536231884072
 40
0.9927536231884072
 40
0.9927536231884072
 40
1.0
 40
1.0
 40
1.0
 40
1.0
 10
-52.916700000000006
 20
62.371100000000006
 30
0.0
 10
-51.964200000000005
 20
62.371100000000006
 30
0.0
 10
-51.046900000000001
 20
62.371100000000006
 30
0.0
 10
-50.0944
 20
62.265300000000003
 30
0.0
 10
-50.0944
 20
62.265300000000003
 30
0.0
 10
-49.3889
 20
59.690000000000005
 30
0.0
 10
-50.200300000000006
 20
56.903000000000006
 30
0.0
 10
-48.471700000000006
 20
54.5747
 30
0.0
 10
-48.471700000000006
 20
54.5747
 30
0.0
 10
-48.471700000000006
 20
53.551600000000001
 30
0.0
 10
-47.8367
 20
52.669700000000006
 30
0.0
 10
-47.766100000000002
 20
51.646700000000003
 30
0.0
 10
-47.766100000000002
 20
51.646700000000003
 30
0.0
 10
-47.554400000000001
 20
51.540800000000004
 30
0.0
 10
-47.378
 20
51.435000000000002
 30
0.0
 10
-47.201700000000002
 20
51.3292
 30
0.0
 10
-47.201700000000002
 20
51.3292
 30
0.0
 10
-47.025300000000001
 20
50.235500000000002
 30
0.0
 10
-46.002200000000002
 20
49.635800000000003
 30
0.0
 10
-45.190800000000003
 20
49.036100000000005
 30
0.0
 10
-45.190800000000003
 20
49.036100000000005
 30
0.0
 10
-43.638600000000004
 20
50.023900000000005
 30
0.0
 10
-41.627800000000001
 20
49.917999999999999
 30
0.0
 10
-39.934400000000004
 20
50.3414
 30
0.0
 10
-39.934400000000004
 20
50.3414
 30
0.0
 10
-38.593900000000005
 20
52.352200000000003
 30
0.0
 10
-36.124400000000001
 20
52.211100000000002
 30
0.0
 10
-34.184200000000004
 20
53.234100000000005
 30
0.0
 10
-34.184200000000004
 20
53.234100000000005
 30
0.0
 10
-32.773000000000003
 20
54.045500000000004
 30
0.0
 10
-31.326700000000002
 20
53.022500000000001
 30
0.0
 10
-29.845000000000002
 20
53.340000000000003
 30
0.0
 10
-29.845000000000002
 20
53.340000000000003
 30
0.0
 10
-29.950800000000001
 20
53.692800000000005
 30
0.0
 10
-30.091900000000003
 20
54.010300000000001
 30
0.0
 10
-30.162500000000001
 20
54.363
 30
0.0
 10
-30.162500000000001
 20
54.363
 30
0.0
 10
-27.904700000000002
 20
54.680500000000002
 30
0.0
 10
-25.646900000000002
 20
55.033300000000004
 30
0.0
 10
-23.495000000000001
 20
55.809400000000004
 30
0.0
 10
-23.495000000000001
 20
55.809400000000004
 30
0.0
 10
-20.037800000000001
 20
56.3033
 30
0.0
 10
-16.5806
 20
56.867800000000003
 30
0.0
 10
-13.052800000000001
 20
56.691400000000002
 30
0.0
 10
-13.052800000000001
 20
56.691400000000002
 30
0.0
 10
-8.2550000000000008
 20
56.373900000000006
 30
0.0
 10
-3.4572000000000003
 20
57.714400000000005
 30
0.0
 10
1.3053000000000001
 20
57.185300000000005
 30
0.0
 10
1.3053000000000001
 20
57.185300000000005
 30
0.0
 10
5.7149999999999999
 20
56.0916
 30
0.0
 10
10.2658
 20
56.973600000000005
 30
0.0
 10
14.675600000000001
 20
56.126900000000006
 30
0.0
 10
14.675600000000001
 20
56.126900000000006
 30
0.0
 10
18.203300000000002
 20
56.585500000000003
 30
0.0
 10
21.5547
 20
55.209700000000005
 30
0.0
 10
25.0825
 20
55.245000000000005
 30
0.0
 10
25.0825
 20
55.245000000000005
 30
0.0
 10
28.469200000000001
 20
54.504100000000001
 30
0.0
 10
31.891100000000002
 20
54.363
 30
0.0
 10
35.277799999999999
 20
53.763300000000001
 30
0.0
 10
35.277799999999999
 20
53.763300000000001
 30
0.0
 10
37.112200000000001
 20
52.458000000000006
 30
0.0
 10
39.511099999999999
 20
52.740300000000005
 30
0.0
 10
41.310300000000005
 20
51.399700000000003
 30
0.0
 10
41.310300000000005
 20
51.399700000000003
 30
0.0
 10
42.298000000000002
 20
52.140500000000003
 30
0.0
 10
43.462200000000003
 20
52.211100000000002
 30
0.0
 10
44.661700000000003
 20
51.893599999999999
 30
0.0
 10
44.661700000000003
 20
51.893599999999999
 30
0.0
 10
44.767500000000005
 20
51.999400000000001
 30
0.0
 10
44.979199999999999
 20
52.246400000000001
 30
0.0
 10
45.085000000000001
 20
52.352200000000003
 30
0.0
 10
45.085000000000001
 20
52.352200000000003
 30
0.0
 10
44.9086
 20
52.705000000000005
 30
0.0
 10
44.732199999999999
 20
53.022500000000001
 30
0.0
 10
44.555800000000005
 20
53.375300000000003
 30
0.0
 10
44.555800000000005
 20
53.375300000000003
 30
0.0
 10
48.224700000000006
 20
54.504100000000001
 30
0.0
 10
48.330500000000001
 20
58.843299999999999
 30
0.0
 10
47.8367
 20
61.983000000000004
 30
0.0
 10
47.8367
 20
61.983000000000004
 30
0.0
 10
48.824400000000004
 20
62.335800000000006
 30
0.0
 10
49.917999999999999
 20
62.124100000000006
 30
0.0
 10
50.905799999999999
 20
62.053600000000003
 30
0.0
 10
50.905799999999999
 20
62.053600000000003
 30
0.0
 10
50.553000000000004
 20
60.607200000000006
 30
0.0
 10
50.447200000000002
 20
59.055
 30
0.0
 10
50.729400000000005
 20
57.573300000000003
 30
0.0
 10
50.729400000000005
 20
57.573300000000003
 30
0.0
 10
50.694200000000002
 20
57.008900000000004
 30
0.0
 10
50.623600000000003
 20
56.479700000000001
 30
0.0
 10
50.588300000000004
 20
55.915300000000002
 30
0.0
 10
50.588300000000004
 20
55.915300000000002
 30
0.0
 10
50.482500000000002
 20
56.479700000000001
 30
0.0
 10
50.306100000000001
 20
57.0441
 30
0.0
 10
50.1297
 20
57.573300000000003
 30
0.0
 10
50.1297
 20
57.573300000000003
 30
0.0
 10
49.3536
 20
54.7864
 30
0.0
 10
49.106700000000004
 20
51.611400000000003
 30
0.0
 10
49.635800000000003
 20
48.824400000000004
 30
0.0
 10
49.635800000000003
 20
48.824400000000004
 30
0.0
 10
49.953300000000006
 20
48.083600000000004
 30
0.0
 10
49.283000000000001
 20
47.307500000000005
 30
0.0
 10
49.741700000000002
 20
46.6372
 30
0.0
 10
49.741700000000002
 20
46.6372
 30
0.0
 10
49.671100000000003
 20
45.578900000000004
 30
0.0
 10
50.0944
 20
44.238300000000002
 30
0.0
 10
49.3536
 20
43.356400000000001
 30
0.0
 10
49.3536
 20
43.356400000000001
 30
0.0
 10
49.283000000000001
 20
44.1325
 30
0.0
 10
49.247800000000005
 20
44.9086
 30
0.0
 10
49.212500000000006
 20
45.684699999999999
 30
0.0
 10
49.212500000000006
 20
45.684699999999999
 30
0.0
 10
49.1419
 20
44.696899999999999
 30
0.0
 10
49.000800000000005
 20
43.673900000000003
 30
0.0
 10
48.965500000000006
 20
42.686100000000003
 30
0.0
 10
48.965500000000006
 20
42.686100000000003
 30
0.0
 10
49.036100000000005
 20
42.1922
 30
0.0
 10
49.1419
 20
41.663000000000004
 30
0.0
 10
48.965500000000006
 20
41.169200000000004
 30
0.0
 10
48.965500000000006
 20
41.169200000000004
 30
0.0
 10
48.753900000000002
 20
41.098600000000005
 30
0.0
 10
48.260000000000005
 20
40.992800000000003
 30
0.0
 10
48.013000000000005
 20
40.922200000000004
 30
0.0
 10
48.013000000000005
 20
40.922200000000004
 30
0.0
 10
48.648000000000003
 20
34.2547
 30
0.0
 10
48.506900000000002
 20
27.5167
 30
0.0
 10
48.295300000000005
 20
20.8139
 30
0.0
 10
48.295300000000005
 20
20.8139
 30
0.0
 10
48.295300000000005
 20
20.425800000000002
 30
0.0
 10
48.330500000000001
 20
20.037800000000001
 30
0.0
 10
48.4011
 20
19.685000000000002
 30
0.0
 10
48.4011
 20
19.685000000000002
 30
0.0
 10
48.683300000000003
 20
19.438000000000002
 30
0.0
 10
48.930300000000003
 20
19.226400000000002
 30
0.0
 10
49.177199999999999
 20
18.979400000000002
 30
0.0
 10
49.177199999999999
 20
18.979400000000002
 30
0.0
 10
49.106700000000004
 20
17.815300000000001
 30
0.0
 10
49.212500000000006
 20
16.474700000000002
 30
0.0
 10
48.471700000000006
 20
15.451700000000001
 30
0.0
 10
48.471700000000006
 20
15.451700000000001
 30
0.0
 10
47.766100000000002
 20
14.287500000000001
 30
0.0
 10
48.3658
 20
12.8764
 30
0.0
 10
47.871900000000004
 20
11.606400000000001
 30
0.0
 10
47.871900000000004
 20
11.606400000000001
 30
0.0
 10
46.778300000000002
 20
8.2196999999999996
 30
0.0
 10
47.448599999999999
 20
4.6214000000000004
 30
0.0
 10
47.095800000000004
 20
1.1289
 30
0.0
 10
47.095800000000004
 20
1.1289
 30
0.0
 10
46.778300000000002
 20
-6.9144000000000005
 30
0.0
 10
46.813600000000001
 20
-15.028300000000002
 30
0.0
 10
47.342800000000004
 20
-23.0717
 30
0.0
 10
47.342800000000004
 20
-23.0717
 30
0.0
 10
46.601900000000001
 20
-24.0242
 30
0.0
 10
45.8611
 20
-24.976700000000001
 30
0.0
 10
45.190800000000003
 20
-25.964400000000001
 30
0.0
 10
45.190800000000003
 20
-25.964400000000001
 30
0.0
 10
45.8964
 20
-25.505800000000001
 30
0.0
 10
46.531400000000005
 20
-24.906100000000002
 30
0.0
 10
47.307500000000005
 20
-24.5533
 30
0.0
 10
47.307500000000005
 20
-24.5533
 30
0.0
 10
48.753900000000002
 20
-28.610300000000002
 30
0.0
 10
48.048300000000005
 20
-33.090499999999999
 30
0.0
 10
48.824400000000004
 20
-37.253300000000003
 30
0.0
 10
48.824400000000004
 20
-37.253300000000003
 30
0.0
 10
48.930300000000003
 20
-40.322500000000005
 30
0.0
 10
50.411900000000003
 20
-43.109400000000001
 30
0.0
 10
50.3414
 20
-46.213900000000002
 30
0.0
 10
50.3414
 20
-46.213900000000002
 30
0.0
 10
50.694200000000002
 20
-48.789200000000001
 30
0.0
 10
50.588300000000004
 20
-51.540800000000004
 30
0.0
 10
51.646700000000003
 20
-53.975000000000001
 30
0.0
 10
51.646700000000003
 20
-53.975000000000001
 30
0.0
 10
51.823
 20
-56.126900000000006
 30
0.0
 10
51.717200000000005
 20
-58.314100000000003
 30
0.0
 10
50.800000000000004
 20
-60.289700000000003
 30
0.0
 10
50.800000000000004
 20
-60.289700000000003
 30
0.0
 10
51.223300000000002
 20
-60.7836
 30
0.0
 10
51.576100000000004
 20
-61.312800000000003
 30
0.0
 10
51.999400000000001
 20
-61.7714
 30
0.0
 10
51.999400000000001
 20
-61.7714
 30
0.0
 10
52.211100000000002
 20
-61.841900000000003
 30
0.0
 10
52.669700000000006
 20
-61.983000000000004
 30
0.0
 10
52.916700000000006
 20
-62.053600000000003
 30
0.0
 10
52.916700000000006
 20
-62.053600000000003
 30
0.0
 10
52.916700000000006
 20
-62.053600000000003
 30
0.0
 10
52.916700000000006
 20
-62.3005
 30
0.0
 10
52.916700000000006
 20
-62.3005
 30
0.0
 10
52.916700000000006
 20
-62.3005
 30
0.0
 10
51.928900000000006
 20
-62.053600000000003
 30
0.0
 10
50.905799999999999
 20
-62.088900000000002
 30
0.0
 10
49.882800000000003
 20
-62.053600000000003
 30
0.0
 10
49.882800000000003
 20
-62.053600000000003
 30
0.0
 10
48.824400000000004
 20
-60.501400000000004
 30
0.0
 10
49.671100000000003
 20
-58.596400000000003
 30
0.0
 10
49.106700000000004
 20
-56.903000000000006
 30
0.0
 10
49.106700000000004
 20
-56.903000000000006
 30
0.0
 10
48.683300000000003
 20
-55.597799999999999
 30
0.0
 10
49.071400000000004
 20
-54.151400000000002
 30
0.0
 10
48.648000000000003
 20
-52.8461
 30
0.0
 10
48.648000000000003
 20
-52.8461
 30
0.0
 10
48.013000000000005
 20
-52.281700000000001
 30
0.0
 10
47.272200000000005
 20
-51.8583
 30
0.0
 10
46.813600000000001
 20
-51.1175
 30
0.0
 10
46.813600000000001
 20
-51.1175
 30
0.0
 10
47.378
 20
-51.258600000000001
 30
0.0
 10
47.942500000000003
 20
-51.470300000000002
 30
0.0
 10
48.506900000000002
 20
-51.576100000000004
 30
0.0
 10
48.506900000000002
 20
-51.576100000000004
 30
0.0
 10
48.965500000000006
 20
-50.447200000000002
 30
0.0
 10
47.201700000000002
 20
-50.517800000000001
 30
0.0
 10
46.460799999999999
 20
-50.517800000000001
 30
0.0
 10
46.460799999999999
 20
-50.517800000000001
 30
0.0
 10
44.344200000000001
 20
-50.200300000000006
 30
0.0
 10
42.580300000000001
 20
-51.681900000000006
 30
0.0
 10
40.992800000000003
 20
-52.881399999999999
 30
0.0
 10
40.992800000000003
 20
-52.881399999999999
 30
0.0
 10
40.534199999999998
 20
-53.269400000000005
 30
0.0
 10
39.969700000000003
 20
-53.481100000000005
 30
0.0
 10
39.370000000000005
 20
-53.5869
 30
0.0
 10
39.370000000000005
 20
-53.5869
 30
0.0
 10
28.328000000000003
 20
-56.0916
 30
0.0
 10
16.898099999999999
 20
-56.3033
 30
0.0
 10
5.6444000000000001
 20
-56.691400000000002
 30
0.0
 10
5.6444000000000001
 20
-56.691400000000002
 30
0.0
 10
2.7869000000000002
 20
-56.867800000000003
 30
0.0
 10
-0.0706
 20
-56.761900000000004
 30
0.0
 10
-2.9281000000000001
 20
-56.726600000000005
 30
0.0
 10
-2.9281000000000001
 20
-56.726600000000005
 30
0.0
 10
-5.7149999999999999
 20
-55.950500000000005
 30
0.0
 10
-8.7489000000000008
 20
-55.985800000000005
 30
0.0
 10
-11.6417
 20
-56.3033
 30
0.0
 10
-11.6417
 20
-56.3033
 30
0.0
 10
-14.605
 20
-56.373900000000006
 30
0.0
 10
-17.533100000000001
 20
-55.950500000000005
 30
0.0
 10
-20.496400000000001
 20
-55.915300000000002
 30
0.0
 10
-20.496400000000001
 20
-55.915300000000002
 30
0.0
 10
-21.201900000000002
 20
-55.950500000000005
 30
0.0
 10
-22.613
 20
-55.280300000000004
 30
0.0
 10
-22.8247
 20
-56.232800000000005
 30
0.0
 10
-22.8247
 20
-56.232800000000005
 30
0.0
 10
-22.8247
 20
-56.232800000000005
 30
0.0
 10
-22.648300000000003
 20
-56.373900000000006
 30
0.0
 10
-22.648300000000003
 20
-56.373900000000006
 30
0.0
 10
-22.648300000000003
 20
-56.373900000000006
 30
0.0
 10
-17.3567
 20
-57.150000000000006
 30
0.0
 10
-11.9239
 20
-57.0794
 30
0.0
 10
-6.5969000000000007
 20
-57.3264
 30
0.0
 10
-6.5969000000000007
 20
-57.3264
 30
0.0
 10
3.7394000000000003
 20
-57.961400000000005
 30
0.0
 10
14.075800000000001
 20
-57.255800000000001
 30
0.0
 10
24.376900000000003
 20
-56.479700000000001
 30
0.0
 10
24.376900000000003
 20
-56.479700000000001
 30
0.0
 10
30.444700000000001
 20
-56.197500000000005
 30
0.0
 10
36.512500000000003
 20
-55.174400000000006
 30
0.0
 10
42.368600000000001
 20
-53.5869
 30
0.0
 10
42.368600000000001
 20
-53.5869
 30
0.0
 10
41.874700000000004
 20
-54.433600000000006
 30
0.0
 10
40.922200000000004
 20
-54.892200000000003
 30
0.0
 10
40.181400000000004
 20
-55.527200000000001
 30
0.0
 10
40.181400000000004
 20
-55.527200000000001
 30
0.0
 10
38.770299999999999
 20
-56.444400000000002
 30
0.0
 10
38.276400000000002
 20
-58.102500000000006
 30
0.0
 10
37.288600000000002
 20
-59.407800000000002
 30
0.0
 10
37.288600000000002
 20
-59.407800000000002
 30
0.0
 10
36.336100000000002
 20
-59.478300000000004
 30
0.0
 10
35.383600000000001
 20
-59.160800000000002
 30
0.0
 10
34.4664
 20
-59.513600000000004
 30
0.0
 10
34.4664
 20
-59.513600000000004
 30
0.0
 10
34.2194
 20
-59.690000000000005
 30
0.0
 10
34.007800000000003
 20
-59.866400000000006
 30
0.0
 10
33.796100000000003
 20
-60.078000000000003
 30
0.0
 10
33.796100000000003
 20
-60.078000000000003
 30
0.0
 10
34.783900000000003
 20
-60.148600000000002
 30
0.0
 10
35.771700000000003
 20
-60.078000000000003
 30
0.0
 10
36.724200000000003
 20
-60.148600000000002
 30
0.0
 10
36.724200000000003
 20
-60.148600000000002
 30
0.0
 10
36.477200000000003
 20
-63.076600000000006
 30
0.0
 10
37.7119
 20
-66.569100000000006
 30
0.0
 10
35.560000000000002
 20
-68.9328
 30
0.0
 10
35.560000000000002
 20
-68.9328
 30
0.0
 10
36.124400000000001
 20
-68.897500000000008
 30
0.0
 10
36.724200000000003
 20
-68.791600000000003
 30
0.0
 10
37.288600000000002
 20
-68.791600000000003
 30
0.0
 10
37.288600000000002
 20
-68.791600000000003
 30
0.0
 10
37.570799999999998
 20
-69.038600000000002
 30
0.0
 10
37.782499999999999
 20
-69.356099999999998
 30
0.0
 10
37.994199999999999
 20
-69.673600000000008
 30
0.0
 10
37.994199999999999
 20
-69.673600000000008
 30
0.0
 10
38.664400000000001
 20
-70.837800000000001
 30
0.0
 10
39.6875
 20
-71.719700000000003
 30
0.0
 10
40.745800000000003
 20
-72.566400000000002
 30
0.0
 10
40.745800000000003
 20
-72.566400000000002
 30
0.0
 10
40.534199999999998
 20
-72.636899999999997
 30
0.0
 10
40.146100000000004
 20
-72.813299999999998
 30
0.0
 10
39.969700000000003
 20
-72.9191
 30
0.0
 10
39.969700000000003
 20
-72.9191
 30
0.0
 10
38.9114
 20
-72.848600000000005
 30
0.0
 10
37.9236
 20
-72.70750000000001
 30
0.0
 10
36.900500000000001
 20
-72.601600000000005
 30
0.0
 10
36.900500000000001
 20
-72.601600000000005
 30
0.0
 10
36.018599999999999
 20
-72.495800000000003
 30
0.0
 10
35.171900000000001
 20
-72.390000000000001
 30
0.0
 10
34.325299999999999
 20
-72.178300000000007
 30
0.0
 10
34.325299999999999
 20
-72.178300000000007
 30
0.0
 10
31.9969
 20
-71.402200000000008
 30
0.0
 10
29.5275
 20
-72.107799999999997
 30
0.0
 10
27.163900000000002
 20
-71.75500000000001
 30
0.0
 10
27.163900000000002
 20
-71.75500000000001
 30
0.0
 10
23.918300000000002
 20
-71.366900000000001
 30
0.0
 10
20.672800000000002
 20
-71.402200000000008
 30
0.0
 10
17.427199999999999
 20
-71.472800000000007
 30
0.0
 10
17.427199999999999
 20
-71.472800000000007
 30
0.0
 10
16.016100000000002
 20
-71.402200000000008
 30
0.0
 10
14.605
 20
-71.4375
 30
0.0
 10
13.193900000000001
 20
-71.366900000000001
 30
0.0
 10
13.193900000000001
 20
-71.366900000000001
 30
0.0
 10
4.0569000000000006
 20
-70.202799999999996
 30
0.0
 10
-5.2564000000000002
 20
-70.061599999999999
 30
0.0
 10
-14.463900000000001
 20
-70.767200000000003
 30
0.0
 10
-14.463900000000001
 20
-70.767200000000003
 30
0.0
 10
-16.016100000000002
 20
-70.837800000000001
 30
0.0
 10
-17.6389
 20
-70.802500000000009
 30
0.0
 10
-19.1205
 20
-71.402200000000008
 30
0.0
 10
-19.1205
 20
-71.402200000000008
 30
0.0
 10
-23.283300000000001
 20
-71.613900000000001
 30
0.0
 10
-27.375500000000002
 20
-72.248900000000006
 30
0.0
 10
-31.503
 20
-72.566400000000002
 30
0.0
 10
-31.503
 20
-72.566400000000002
 30
0.0
 10
-35.489400000000003
 20
-73.554100000000005
 30
0.0
 10
-39.511099999999999
 20
-74.153900000000007
 30
0.0
 10
-43.638600000000004
 20
-74.048000000000002
 30
0.0
 10
-43.638600000000004
 20
-74.048000000000002
 30
0.0
 10
-42.791900000000005
 20
-73.659999999999997
 30
0.0
 10
-41.839400000000005
 20
-73.48360000000001
 30
0.0
 10
-40.886900000000004
 20
-73.23660000000001
 30
0.0
 10
-40.886900000000004
 20
-73.23660000000001
 30
0.0
 10
-39.793300000000002
 20
-72.566400000000002
 30
0.0
 10
-38.876100000000001
 20
-71.472800000000007
 30
0.0
 10
-37.429700000000004
 20
-71.649100000000004
 30
0.0
 10
-37.429700000000004
 20
-71.649100000000004
 30
0.0
 10
-38.452800000000003
 20
-70.379100000000008
 30
0.0
 10
-39.828600000000002
 20
-69.744100000000003
 30
0.0
 10
-41.4514
 20
-69.991100000000003
 30
0.0
 10
-41.4514
 20
-69.991100000000003
 30
0.0
 10
-40.957500000000003
 20
-68.6858
 30
0.0
 10
-40.4283
 20
-67.345300000000009
 30
0.0
 10
-40.569400000000002
 20
-65.898899999999998
 30
0.0
 10
-40.569400000000002
 20
-65.898899999999998
 30
0.0
 10
-40.745800000000003
 20
-66.075299999999999
 30
0.0
 10
-41.027999999999999
 20
-66.392800000000008
 30
0.0
 10
-41.169200000000004
 20
-66.533900000000003
 30
0.0
 10
-41.169200000000004
 20
-66.533900000000003
 30
0.0
 10
-44.9086
 20
-67.9803
 30
0.0
 10
-49.000800000000005
 20
-67.592200000000005
 30
0.0
 10
-52.916700000000006
 20
-67.098300000000009
 30
0.0
 10
-52.916700000000006
 20
-67.098300000000009
 30
0.0
 10
-52.916700000000006
 20
-67.098300000000009
 30
0.0
 10
-52.916700000000006
 20
-62.970800000000004
 30
0.0
 10
-52.916700000000006
 20
-62.970800000000004
 30
0.0
 10
-52.916700000000006
 20
-62.970800000000004
 30
0.0
 10
-48.718600000000002
 20
-63.041400000000003
 30
0.0
 10
-44.485300000000002
 20
-62.829700000000003
 30
0.0
 10
-40.287199999999999
 20
-63.147200000000005
 30
0.0
 10
-40.287199999999999
 20
-63.147200000000005
 30
0.0
 10
-40.251899999999999
 20
-62.406400000000005
 30
0.0
 10
-40.251899999999999
 20
-61.630300000000005
 30
0.0
 10
-40.146100000000004
 20
-60.854100000000003
 30
0.0
 10
-40.146100000000004
 20
-60.854100000000003
 30
0.0
 10
-39.511099999999999
 20
-60.924700000000001
 30
0.0
 10
-38.523299999999999
 20
-60.571899999999999
 30
0.0
 10
-38.205800000000004
 20
-61.348000000000006
 30
0.0
 10
-38.205800000000004
 20
-61.348000000000006
 30
0.0
 10
-37.535499999999999
 20
-63.993900000000004
 30
0.0
 10
-38.558599999999998
 20
-66.710300000000004
 30
0.0
 10
-38.346900000000005
 20
-69.356099999999998
 30
0.0
 10
-38.346900000000005
 20
-69.356099999999998
 30
0.0
 10
-37.641400000000004
 20
-67.204099999999997
 30
0.0
 10
-37.218000000000004
 20
-64.9816
 30
0.0
 10
-37.359200000000001
 20
-62.7239
 30
0.0
 10
-37.359200000000001
 20
-62.7239
 30
0.0
 10
-36.2303
 20
-62.5122
 30
0.0
 10
-35.066099999999999
 20
-62.653300000000002
 30
0.0
 10
-33.972500000000004
 20
-62.265300000000003
 30
0.0
 10
-33.972500000000004
 20
-62.265300000000003
 30
0.0
 10
-35.171900000000001
 20
-61.453900000000004
 30
0.0
 10
-37.288600000000002
 20
-62.7239
 30
0.0
 10
-37.817799999999998
 20
-60.960000000000001
 30
0.0
 10
-37.817799999999998
 20
-60.960000000000001
 30
0.0
 10
-38.770299999999999
 20
-58.314100000000003
 30
0.0
 10
-40.604700000000001
 20
-55.950500000000005
 30
0.0
 10
-43.003599999999999
 20
-54.433600000000006
 30
0.0
 10
-43.003599999999999
 20
-54.433600000000006
 30
0.0
 10
-44.661700000000003
 20
-55.103900000000003
 30
0.0
 10
-43.215299999999999
 20
-56.691400000000002
 30
0.0
 10
-43.603300000000004
 20
-57.890800000000006
 30
0.0
 10
-43.603300000000004
 20
-57.890800000000006
 30
0.0
 10
-44.1325
 20
-58.702200000000005
 30
0.0
 10
-44.8733
 20
-59.372500000000002
 30
0.0
 10
-45.367200000000004
 20
-60.219100000000005
 30
0.0
 10
-45.367200000000004
 20
-60.219100000000005
 30
0.0
 10
-45.331900000000005
 20
-60.501400000000004
 30
0.0
 10
-45.226100000000002
 20
-60.7836
 30
0.0
 10
-45.085000000000001
 20
-61.065800000000003
 30
0.0
 10
-45.085000000000001
 20
-61.065800000000003
 30
0.0
 10
-43.709200000000003
 20
-61.277500000000003
 30
0.0
 10
-42.051100000000005
 20
-60.854100000000003
 30
0.0
 10
-40.851700000000001
 20
-61.7714
 30
0.0
 10
-40.851700000000001
 20
-61.7714
 30
0.0
 10
-43.215299999999999
 20
-61.595000000000006
 30
0.0
 10
-45.543600000000005
 20
-62.406400000000005
 30
0.0
 10
-47.942500000000003
 20
-62.230000000000004
 30
0.0
 10
-47.942500000000003
 20
-62.230000000000004
 30
0.0
 10
-48.048300000000005
 20
-61.030500000000004
 30
0.0
 10
-47.977800000000002
 20
-59.831100000000006
 30
0.0
 10
-48.048300000000005
 20
-58.631600000000006
 30
0.0
 10
-48.048300000000005
 20
-58.631600000000006
 30
0.0
 10
-49.071400000000004
 20
-59.548900000000003
 30
0.0
 10
-48.718600000000002
 20
-60.960000000000001
 30
0.0
 10
-48.753900000000002
 20
-62.194700000000005
 30
0.0
 10
-48.753900000000002
 20
-62.194700000000005
 30
0.0
 10
-49.671100000000003
 20
-62.335800000000006
 30
0.0
 10
-50.588300000000004
 20
-62.371100000000006
 30
0.0
 10
-51.470300000000002
 20
-62.230000000000004
 30
0.0
 10
-51.470300000000002
 20
-62.230000000000004
 30
0.0
 10
-51.364400000000003
 20
-58.631600000000006
 30
0.0
 10
-51.364400000000003
 20
-54.998000000000005
 30
0.0
 10
-50.729400000000005
 20
-51.435000000000002
 30
0.0
 10
-50.729400000000005
 20
-51.435000000000002
 30
0.0
 10
-50.3414
 20
-51.152799999999999
 30
0.0
 10
-49.917999999999999
 20
-50.941100000000006
 30
0.0
 10
-49.530000000000001
 20
-50.694200000000002
 30
0.0
 10
-49.530000000000001
 20
-50.694200000000002
 30
0.0
 10
-49.953300000000006
 20
-50.411900000000003
 30
0.0
 10
-50.411900000000003
 20
-50.164999999999999
 30
0.0
 10
-50.835300000000004
 20
-49.847500000000004
 30
0.0
 10
-50.835300000000004
 20
-49.847500000000004
 30
0.0
 10
-50.306100000000001
 20
-47.307500000000005
 30
0.0
 10
-50.059200000000004
 20
-44.661700000000003
 30
0.0
 10
-49.530000000000001
 20
-42.121700000000004
 30
0.0
 10
-49.530000000000001
 20
-42.121700000000004
 30
0.0
 10
-49.212500000000006
 20
-41.663000000000004
 30
0.0
 10
-49.530000000000001
 20
-41.2044
 30
0.0
 10
-49.706400000000002
 20
-40.745800000000003
 30
0.0
 10
-49.706400000000002
 20
-40.745800000000003
 30
0.0
 10
-49.212500000000006
 20
-38.488
 30
0.0
 10
-49.3889
 20
-36.089200000000005
 30
0.0
 10
-49.1419
 20
-33.796100000000003
 30
0.0
 10
-49.1419
 20
-33.796100000000003
 30
0.0
 10
-48.824400000000004
 20
-30.726900000000001
 30
0.0
 10
-48.577500000000001
 20
-27.693000000000001
 30
0.0
 10
-48.753900000000002
 20
-24.623900000000003
 30
0.0
 10
-48.753900000000002
 20
-24.623900000000003
 30
0.0
 10
-48.753900000000002
 20
-23.636100000000003
 30
0.0
 10
-48.753900000000002
 20
-22.648300000000003
 30
0.0
 10
-48.6128
 20
-21.660500000000003
 30
0.0
 10
-48.6128
 20
-21.660500000000003
 30
0.0
 10
-46.672499999999999
 20
-21.484200000000001
 30
0.0
 10
-46.002200000000002
 20
-23.177500000000002
 30
0.0
 10
-44.838000000000001
 20
-24.271100000000001
 30
0.0
 10
-44.838000000000001
 20
-24.271100000000001
 30
0.0
 10
-45.1203
 20
-23.177500000000002
 30
0.0
 10
-45.543600000000005
 20
-22.154400000000003
 30
0.0
 10
-46.108000000000004
 20
-21.201900000000002
 30
0.0
 10
-46.108000000000004
 20
-21.201900000000002
 30
0.0
 10
-46.707799999999999
 20
-21.166700000000002
 30
0.0
 10
-47.342800000000004
 20
-21.272500000000001
 30
0.0
 10
-47.977800000000002
 20
-21.3078
 30
0.0
 10
-47.977800000000002
 20
-21.3078
 30
0.0
 10
-48.330500000000001
 20
-20.955000000000002
 30
0.0
 10
-48.648000000000003
 20
-20.5669
 30
0.0
 10
-48.965500000000006
 20
-20.143599999999999
 30
0.0
 10
-48.965500000000006
 20
-20.143599999999999
 30
0.0
 10
-48.3658
 20
-16.298300000000001
 30
0.0
 10
-48.895000000000003
 20
-12.347200000000001
 30
0.0
 10
-48.683300000000003
 20
-8.4667000000000012
 30
0.0
 10
-48.683300000000003
 20
-8.4667000000000012
 30
0.0
 10
-48.506900000000002
 20
-8.3608000000000011
 30
0.0
 10
-48.189399999999999
 20
-8.2196999999999996
 30
0.0
 10
-48.013000000000005
 20
-8.113900000000001
 30
0.0
 10
-48.013000000000005
 20
-8.113900000000001
 30
0.0
 10
-48.118900000000004
 20
-7.3731
 30
0.0
 10
-47.625
 20
-6.2088999999999999
 30
0.0
 10
-48.683300000000003
 20
-5.9972000000000003
 30
0.0
 10
-48.683300000000003
 20
-5.9972000000000003
 30
0.0
 10
-48.718600000000002
 20
-5.3975
 30
0.0
 10
-48.648000000000003
 20
-4.7625000000000002
 30
0.0
 10
-48.718600000000002
 20
-4.1627999999999998
 30
0.0
 10
-48.718600000000002
 20
-4.1627999999999998
 30
0.0
 10
-48.683300000000003
 20
-2.0461
 30
0.0
 10
-49.000800000000005
 20
0.0353
 30
0.0
 10
-48.506900000000002
 20
2.1167000000000002
 30
0.0
 10
-48.506900000000002
 20
2.1167000000000002
 30
0.0
 10
-47.342800000000004
 20
3.1044
 30
0.0
 10
-46.531400000000005
 20
4.3744000000000005
 30
0.0
 10
-45.614200000000004
 20
5.5386000000000006
 30
0.0
 10
-45.614200000000004
 20
5.5386000000000006
 30
0.0
 10
-46.743000000000002
 20
5.1153000000000004
 30
0.0
 10
-47.378
 20
3.9864000000000002
 30
0.0
 10
-48.013000000000005
 20
3.0339
 30
0.0
 10
-48.013000000000005
 20
3.0339
 30
0.0
 10
-49.177199999999999
 20
3.5983000000000001
 30
0.0
 10
-48.859700000000004
 20
5.1153000000000004
 30
0.0
 10
-49.106700000000004
 20
6.1736000000000004
 30
0.0
 10
-49.106700000000004
 20
6.1736000000000004
 30
0.0
 10
-49.318300000000001
 20
11.606400000000001
 30
0.0
 10
-49.3536
 20
17.039200000000001
 30
0.0
 10
-49.882800000000003
 20
22.471900000000002
 30
0.0
 10
-49.882800000000003
 20
22.471900000000002
 30
0.0
 10
-48.965500000000006
 20
23.3186
 30
0.0
 10
-47.730800000000002
 20
22.754200000000001
 30
0.0
 10
-46.6372
 20
22.859999999999999
 30
0.0
 10
-46.6372
 20
22.859999999999999
 30
0.0
 10
-46.143300000000004
 20
22.613
 30
0.0
 10
-45.6494
 20
22.3308
 30
0.0
 10
-45.155500000000004
 20
22.013300000000001
 30
0.0
 10
-45.155500000000004
 20
22.013300000000001
 30
0.0
 10
-45.402500000000003
 20
22.648300000000003
 30
0.0
 10
-45.578900000000004
 20
23.3186
 30
0.0
 10
-45.719999999999999
 20
24.0242
 30
0.0
 10
-45.719999999999999
 20
24.0242
 30
0.0
 10
-46.919400000000003
 20
23.741900000000001
 30
0.0
 10
-48.118900000000004
 20
23.5303
 30
0.0
 10
-49.3536
 20
23.777200000000001
 30
0.0
 10
-49.3536
 20
23.777200000000001
 30
0.0
 10
-50.270800000000001
 20
28.5397
 30
0.0
 10
-51.752500000000005
 20
33.2669
 30
0.0
 10
-51.611400000000003
 20
38.205800000000004
 30
0.0
 10
-51.611400000000003
 20
38.205800000000004
 30
0.0
 10
-52.422800000000002
 20
41.169200000000004
 30
0.0
 10
-52.316900000000004
 20
44.344200000000001
 30
0.0
 10
-51.928900000000006
 20
47.378
 30
0.0
 10
-51.928900000000006
 20
47.378
 30
0.0
 10
-52.528600000000004
 20
48.718600000000002
 30
0.0
 10
-51.576100000000004
 20
50.800000000000004
 30
0.0
 10
-52.916700000000006
 20
51.576100000000004
 30
0.0
 10
-52.916700000000006
 20
51.576100000000004
 30
0.0
 10
-52.916700000000006
 20
51.576100000000004
 30
0.0
 10
-52.916700000000006
 20
52.881399999999999
 30
0.0
 10
-52.916700000000006
 20
52.881399999999999
 30
0.0
 10
-52.916700000000006
 20
52.881399999999999
 30
0.0
 10
-52.175800000000002
 20
54.892200000000003
 30
0.0
 10
-53.939700000000002
 20
58.0319
 30
0.0
 10
-51.152799999999999
 20
58.772800000000004
 30
0.0
 10
-51.152799999999999
 20
58.772800000000004
 30
0.0
 10
-51.717200000000005
 20
58.949100000000001
 30
0.0
 10
-52.316900000000004
 20
59.090300000000006
 30
0.0
 10
-52.916700000000006
 20
59.301900000000003
 30
0.0
 10
-52.916700000000006
 20
59.301900000000003
 30
0.0
 10
-52.916700000000006
 20
59.301900000000003
 30
0.0
 10
-52.916700000000006
 20
62.371100000000006
 30
0.0
 10
-52.916700000000006
 20
62.371100000000006
 30
0.0
  0
SPLINE
  5
4D
100
AcDbEntity
  8
LAYER_1
 62
     9
100
AcDbSpline
210
0.0
220
0.0
230
1.0
 70
     1
 71
     3
 72
    40
 73
    36
 74
     0
 42
0.0000000001
 43
0.0000000001
 40
0.0
 40
0.0
 40
0.0
 40
0.0
 40
0.1111111111111111
 40
0.1111111111111111
 40
0.1111111111111111
 40
0.1111111111111111
 40
0.2222222222222222
 40
0.2222222222222222
 40
0.2222222222222222
 40
0.2222222222222222
 40
0.3333333333333333
 40
0.3333333333333333
 40
0.3333333333333333
 40
0.3333333333333333
 40
0.4444444444444444
 40
0.4444444444444444
 40
0.4444444444444444
 40
0.4444444444444444
 40
0.5555555555555556
 40
0.5555555555555556
 40
0.5555555555555556
 40
0.5555555555555556
 40
0.6666666666666667
 40
0.6666666666666667
 40
0.6666666666666667
 40
0.6666666666666667
 40
0.7777777777777779
 40
0.7777777777777779
 40
0.7777777777777779
 40
0.7777777777777779
 40
0.8888888888888891
 40
0.8888888888888891
 40
0.8888888888888891
 40
0.8888888888888891
 40
1.0
 40
1.0
 40
1.0
 40
1.0
 10
-49.530000000000001
 20
62.088900000000002
 30
0.0
 10
-48.6128
 20
62.194700000000005
 30
0.0
 10
-47.660299999999999
 20
62.088900000000002
 30
0.0
 10
-46.743000000000002
 20
62.088900000000002
 30
0.0
 10
-46.743000000000002
 20
62.088900000000002
 30
0.0
 10
-46.990000000000002
 20
61.453900000000004
 30
0.0
 10
-47.625
 20
61.206900000000005
 30
0.0
 10
-48.260000000000005
 20
61.206900000000005
 30
0.0
 10
-48.260000000000005
 20
61.206900000000005
 30
0.0
 10
-47.766100000000002
 20
61.101100000000002
 30
0.0
 10
-47.272200000000005
 20
61.101100000000002
 30
0.0
 10
-46.778300000000002
 20
61.030500000000004
 30
0.0
 10
-46.778300000000002
 20
61.030500000000004
 30
0.0
 10
-46.8842
 20
59.478300000000004
 30
0.0
 10
-45.331900000000005
 20
58.631600000000006
 30
0.0
 10
-44.485300000000002
 20
57.502800000000001
 30
0.0
 10
-44.485300000000002
 20
57.502800000000001
 30
0.0
 10
-45.261400000000002
 20
56.656100000000002
 30
0.0
 10
-45.825800000000001
 20
55.633000000000003
 30
0.0
 10
-46.355000000000004
 20
54.609999999999999
 30
0.0
 10
-46.355000000000004
 20
54.609999999999999
 30
0.0
 10
-46.355000000000004
 20
54.609999999999999
 30
0.0
 10
-46.531400000000005
 20
54.363
 30
0.0
 10
-46.531400000000005
 20
54.363
 30
0.0
 10
-46.531400000000005
 20
54.363
 30
0.0
 10
-48.542200000000001
 20
55.068600000000004
 30
0.0
 10
-48.930300000000003
 20
57.467500000000001
 30
0.0
 10
-49.635800000000003
 20
59.196100000000001
 30
0.0
 10
-49.635800000000003
 20
59.196100000000001
 30
0.0
 10
-49.318300000000001
 20
59.196100000000001
 30
0.0
 10
-48.6128
 20
59.196100000000001
 30
0.0
 10
-48.295300000000005
 20
59.196100000000001
 30
0.0
 10
-48.295300000000005
 20
59.196100000000001
 30
0.0
 10
-48.471700000000006
 20
60.325000000000003
 30
0.0
 10
-50.0944
 20
60.7836
 30
0.0
 10
-49.530000000000001
 20
62.088900000000002
 30
0.0
  0
SPLINE
  5
4E
100
AcDbEntity
  8
LAYER_1
 62
     9
100
AcDbSpline
210
0.0
220
0.0
230
1.0
 70
     1
 71
     3
 72
    36
 73
    32
 74
     0
 42
0.0000000001
 43
0.0000000001
 40
0.0
 40
0.0
 40
0.0
 40
0.0
 40
0.125
 40
0.125
 40
0.125
 40
0.125
 40
0.25
 40
0.25
 40
0.25
 40
0.25
 40
0.375
 40
0.375
 40
0.375
 40
0.375
 40
0.5
 40
0.5
 40
0.5
 40
0.5
 40
0.625
 40
0.625
 40
0.625
 40
0.625
 40
0.75
 40
0.75
 40
0.75
 40
0.75
 40
0.875
 40
0.875
 40
0.875
 40
0.875
 40
1.0
 40
1.0
 40
1.0
 40
1.0
 10
42.086400000000005
 20
61.983000000000004
 30
0.0
 10
43.850300000000004
 20
62.124100000000006
 30
0.0
 10
45.614200000000004
 20
62.159400000000005
 30
0.0
 10
47.378
 20
62.018300000000004
 30
0.0
 10
47.378
 20
62.018300000000004
 30
0.0
 10
47.589700000000001
 20
60.0428
 30
0.0
 10
48.013000000000005
 20
57.785000000000004
 30
0.0
 10
46.813600000000001
 20
56.056400000000004
 30
0.0
 10
46.813600000000001
 20
56.056400000000004
 30
0.0
 10
46.178600000000003
 20
55.209700000000005
 30
0.0
 10
45.226100000000002
 20
55.597799999999999
 30
0.0
 10
44.485300000000002
 20
55.950500000000005
 30
0.0
 10
44.485300000000002
 20
55.950500000000005
 30
0.0
 10
44.203000000000003
 20
56.373900000000006
 30
0.0
 10
43.8855
 20
56.761900000000004
 30
0.0
 10
43.638600000000004
 20
57.185300000000005
 30
0.0
 10
43.638600000000004
 20
57.185300000000005
 30
0.0
 10
44.696899999999999
 20
58.455300000000001
 30
0.0
 10
44.414700000000003
 20
60.183900000000001
 30
0.0
 10
43.8855
 20
61.595000000000006
 30
0.0
 10
43.8855
 20
61.595000000000006
 30
0.0
 10
43.250500000000002
 20
61.312800000000003
 30
0.0
 10
42.686100000000003
 20
60.960000000000001
 30
0.0
 10
42.015799999999999
 20
60.713000000000001
 30
0.0
 10
42.015799999999999
 20
60.713000000000001
 30
0.0
 10
41.521900000000002
 20
60.7483
 30
0.0
 10
41.027999999999999
 20
60.818900000000006
 30
0.0
 10
40.534199999999998
 20
60.924700000000001
 30
0.0
 10
40.534199999999998
 20
60.924700000000001
 30
0.0
 10
40.6753
 20
61.665500000000002
 30
0.0
 10
41.521900000000002
 20
61.700800000000001
 30
0.0
 10
42.086400000000005
 20
61.983000000000004
 30
0.0
  0
SPLINE
  5
4F
100
AcDbEntity
  8
LAYER_1
 62
    17
100
AcDbSpline
210
0.0
220
0.0
230
1.0
 70
     1
 71
     3
 72
    16
 73
    12
 74
     0
 42
0.0000000001
 43
0.0000000001
 40
0.0
 40
0.0
 40
0.0
 40
0.0
 40
0.3333333333333333
 40
0.3333333333333333
 40
0.3333333333333333
 40
0.3333333333333333
 40
0.6666666666666666
 40
0.6666666666666666
 40
0.6666666666666666
 40
0.6666666666666666
 40
1.0
 40
1.0
 40
1.0
 40
1.0
 10
37.076900000000002
 20
61.700800000000001
 30
0.0
 10
37.782499999999999
 20
60.924700000000001
 30
0.0
 10
38.593900000000005
 20
59.831100000000006
 30
0.0
 10
37.747199999999999
 20
58.808
 30
0.0
 10
37.747199999999999
 20
58.808
 30
0.0
 10
37.500300000000003
 20
59.372500000000002
 30
0.0
 10
37.253300000000003
 20
59.936900000000001
 30
0.0
 10
37.006399999999999
 20
60.501400000000004
 30
0.0
 10
37.006399999999999
 20
60.501400000000004
 30
0.0
 10
37.041699999999999
 20
60.818900000000006
 30
0.0
 10
37.041699999999999
 20
61.418600000000005
 30
0.0
 10
37.076900000000002
 20
61.700800000000001
 30
0.0
  0
SPLINE
  5
50
100
AcDbEntity
  8
LAYER_1
 62
    17
100
AcDbSpline
210
0.0
220
0.0
230
1.0
 70
     1
 71
     3
 72
    44
 73
    40
 74
     0
 42
0.0000000001
 43
0.0000000001
 40
0.0
 40
0.0
 40
0.0
 40
0.0
 40
0.1
 40
0.1
 40
0.1
 40
0.1
 40
0.2
 40
0.2
 40
0.2
 40
0.2
 40
0.3
 40
0.3
 40
0.3
 40
0.3
 40
0.4
 40
0.4
 40
0.4
 40
0.4
 40
0.5
 40
0.5
 40
0.5
 40
0.5
 40
0.6
 40
0.6
 40
0.6
 40
0.6
 40
0.7
 40
0.7
 40
0.7
 40
0.7
 40
0.7999999999999999
 40
0.7999999999999999
 40
0.7999999999999999
 40
0.7999999999999999
 40
0.8999999999999999
 40
0.8999999999999999
 40
0.8999999999999999
 40
0.8999999999999999
 40
1.0
 40
1.0
 40
1.0
 40
1.0
 10
42.015799999999999
 20
60.713000000000001
 30
0.0
 10
42.686100000000003
 20
60.960000000000001
 30
0.0
 10
43.250500000000002
 20
61.312800000000003
 30
0.0
 10
43.8855
 20
61.595000000000006
 30
0.0
 10
43.8855
 20
61.595000000000006
 30
0.0
 10
43.673900000000003
 20
61.277500000000003
 30
0.0
 10
43.462200000000003
 20
60.924700000000001
 30
0.0
 10
43.250500000000002
 20
60.607200000000006
 30
0.0
 10
43.250500000000002
 20
60.607200000000006
 30
0.0
 10
42.580300000000001
 20
60.325000000000003
 30
0.0
 10
41.874700000000004
 20
60.113300000000002
 30
0.0
 10
41.2044
 20
59.7605
 30
0.0
 10
41.2044
 20
59.7605
 30
0.0
 10
41.098600000000005
 20
59.478300000000004
 30
0.0
 10
41.027999999999999
 20
59.196100000000001
 30
0.0
 10
41.027999999999999
 20
58.878600000000006
 30
0.0
 10
41.027999999999999
 20
58.878600000000006
 30
0.0
 10
41.133900000000004
 20
58.596400000000003
 30
0.0
 10
41.274999999999999
 20
58.314100000000003
 30
0.0
 10
41.380800000000001
 20
58.0319
 30
0.0
 10
41.380800000000001
 20
58.0319
 30
0.0
 10
41.274999999999999
 20
58.0319
 30
0.0
 10
41.027999999999999
 20
57.996600000000001
 30
0.0
 10
40.886900000000004
 20
57.961400000000005
 30
0.0
 10
40.886900000000004
 20
57.961400000000005
 30
0.0
 10
40.781100000000002
 20
58.0672
 30
0.0
 10
40.534199999999998
 20
58.243600000000001
 30
0.0
 10
40.4283
 20
58.349400000000003
 30
0.0
 10
40.4283
 20
58.349400000000003
 30
0.0
 10
40.4283
 20
58.772800000000004
 30
0.0
 10
40.4283
 20
59.231400000000001
 30
0.0
 10
40.4283
 20
59.690000000000005
 30
0.0
 10
40.4283
 20
59.690000000000005
 30
0.0
 10
40.498899999999999
 20
59.831100000000006
 30
0.0
 10
40.604700000000001
 20
60.148600000000002
 30
0.0
 10
40.6753
 20
60.325000000000003
 30
0.0
 10
40.6753
 20
60.325000000000003
 30
0.0
 10
41.098600000000005
 20
60.466100000000004
 30
0.0
 10
41.557200000000002
 20
60.571899999999999
 30
0.0
 10
42.015799999999999
 20
60.713000000000001
 30
0.0
  0
SPLINE
  5
51
100
AcDbEntity
  8
LAYER_1
 62
     8
100
AcDbSpline
210
0.0
220
0.0
230
1.0
 70
     1
 71
     3
 72
    68
 73
    64
 74
     0
 42
0.0000000001
 43
0.0000000001
 40
0.0
 40
0.0
 40
0.0
 40
0.0
 40
0.0625
 40
0.0625
 40
0.0625
 40
0.0625
 40
0.125
 40
0.125
 40
0.125
 40
0.125
 40
0.1875
 40
0.1875
 40
0.1875
 40
0.1875
 40
0.25
 40
0.25
 40
0.25
 40
0.25
 40
0.3125
 40
0.3125
 40
0.3125
 40
0.3125
 40
0.375
 40
0.375
 40
0.375
 40
0.375
 40
0.4375
 40
0.4375
 40
0.4375
 40
0.4375
 40
0.5
 40
0.5
 40
0.5
 40
0.5
 40
0.5625
 40
0.5625
 40
0.5625
 40
0.5625
 40
0.625
 40
0.625
 40
0.625
 40
0.625
 40
0.6875
 40
0.6875
 40
0.6875
 40
0.6875
 40
0.75
 40
0.75
 40
0.75
 40
0.75
 40
0.8125
 40
0.8125
 40
0.8125
 40
0.8125
 40
0.875
 40
0.875
 40
0.875
 40
0.875
 40
0.9375
 40
0.9375
 40
0.9375
 40
0.9375
 40
1.0
 40
1.0
 40
1.0
 40
1.0
 10
43.8855
 20
61.595000000000006
 30
0.0
 10
44.414700000000003
 20
60.183900000000001
 30
0.0
 10
44.696899999999999
 20
58.455300000000001
 30
0.0
 10
43.638600000000004
 20
57.185300000000005
 30
0.0
 10
43.638600000000004
 20
57.185300000000005
 30
0.0
 10
43.8855
 20
56.761900000000004
 30
0.0
 10
44.203000000000003
 20
56.373900000000006
 30
0.0
 10
44.485300000000002
 20
55.950500000000005
 30
0.0
 10
44.485300000000002
 20
55.950500000000005
 30
0.0
 10
44.450000000000003
 20
55.809400000000004
 30
0.0
 10
44.450000000000003
 20
55.527200000000001
 30
0.0
 10
44.450000000000003
 20
55.386100000000006
 30
0.0
 10
44.450000000000003
 20
55.386100000000006
 30
0.0
 10
44.802800000000005
 20
55.209700000000005
 30
0.0
 10
45.190800000000003
 20
55.103900000000003
 30
0.0
 10
45.543600000000005
 20
54.927500000000002
 30
0.0
 10
45.543600000000005
 20
54.927500000000002
 30
0.0
 10
45.1203
 20
54.998000000000005
 30
0.0
 10
44.696899999999999
 20
54.927500000000002
 30
0.0
 10
44.273600000000002
 20
54.751100000000001
 30
0.0
 10
44.273600000000002
 20
54.751100000000001
 30
0.0
 10
44.485300000000002
 20
54.504100000000001
 30
0.0
 10
44.802800000000005
 20
54.363
 30
0.0
 10
45.190800000000003
 20
54.363
 30
0.0
 10
45.190800000000003
 20
54.363
 30
0.0
 10
43.638600000000004
 20
54.292500000000004
 30
0.0
 10
42.121700000000004
 20
53.410500000000006
 30
0.0
 10
40.569400000000002
 20
53.622199999999999
 30
0.0
 10
40.569400000000002
 20
53.622199999999999
 30
0.0
 10
40.992800000000003
 20
53.7986
 30
0.0
 10
41.4161
 20
53.939700000000002
 30
0.0
 10
41.768900000000002
 20
54.221900000000005
 30
0.0
 10
41.768900000000002
 20
54.221900000000005
 30
0.0
 10
42.086400000000005
 20
54.468900000000005
 30
0.0
 10
42.4039
 20
54.751100000000001
 30
0.0
 10
42.615500000000004
 20
55.139099999999999
 30
0.0
 10
42.615500000000004
 20
55.139099999999999
 30
0.0
 10
42.368600000000001
 20
55.703600000000002
 30
0.0
 10
42.051100000000005
 20
56.232800000000005
 30
0.0
 10
41.804200000000002
 20
56.832500000000003
 30
0.0
 10
41.804200000000002
 20
56.832500000000003
 30
0.0
 10
41.733600000000003
 20
57.361600000000003
 30
0.0
 10
41.345500000000001
 20
57.714400000000005
 30
0.0
 10
40.886900000000004
 20
57.961400000000005
 30
0.0
 10
40.886900000000004
 20
57.961400000000005
 30
0.0
 10
41.027999999999999
 20
57.996600000000001
 30
0.0
 10
41.274999999999999
 20
58.0319
 30
0.0
 10
41.380800000000001
 20
58.0319
 30
0.0
 10
41.380800000000001
 20
58.0319
 30
0.0
 10
41.274999999999999
 20
58.314100000000003
 30
0.0
 10
41.133900000000004
 20
58.596400000000003
 30
0.0
 10
41.027999999999999
 20
58.878600000000006
 30
0.0
 10
41.027999999999999
 20
58.878600000000006
 30
0.0
 10
41.733600000000003
 20
58.490500000000004
 30
0.0
 10
42.509700000000002
 20
58.102500000000006
 30
0.0
 10
43.356400000000001
 20
58.0672
 30
0.0
 10
43.356400000000001
 20
58.0672
 30
0.0
 10
43.497500000000002
 20
58.913900000000005
 30
0.0
 10
43.426900000000003
 20
59.7958
 30
0.0
 10
43.250500000000002
 20
60.607200000000006
 30
0.0
 10
43.250500000000002
 20
60.607200000000006
 30
0.0
 10
43.462200000000003
 20
60.924700000000001
 30
0.0
 10
43.673900000000003
 20
61.277500000000003
 30
0.0
 10
43.8855
 20
61.595000000000006
 30
0.0
  0
SPLINE
  5
52
100
AcDbEntity
  8
LAYER_1
 62
     9
100
AcDbSpline
210
0.0
220
0.0
230
1.0
 70
     1
 71
     3
 72
    16
 73
    12
 74
     0
 42
0.0000000001
 43
0.0000000001
 40
0.0
 40
0.0
 40
0.0
 40
0.0
 40
0.3333333333333333
 40
0.3333333333333333
 40
0.3333333333333333
 40
0.3333333333333333
 40
0.6666666666666666
 40
0.6666666666666666
 40
0.6666666666666666
 40
0.6666666666666666
 40
1.0
 40
1.0
 40
1.0
 40
1.0
 10
-46.072800000000001
 20
60.183900000000001
 30
0.0
 10
-44.696899999999999
 20
60.571899999999999
 30
0.0
 10
-43.250500000000002
 20
61.030500000000004
 30
0.0
 10
-41.768900000000002
 20
60.924700000000001
 30
0.0
 10
-41.768900000000002
 20
60.924700000000001
 30
0.0
 10
-41.980499999999999
 20
59.936900000000001
 30
0.0
 10
-43.462200000000003
 20
59.548900000000003
 30
0.0
 10
-42.897800000000004
 20
58.314100000000003
 30
0.0
 10
-42.897800000000004
 20
58.314100000000003
 30
0.0
 10
-44.238300000000002
 20
57.714400000000005
 30
0.0
 10
-45.825800000000001
 20
58.878600000000006
 30
0.0
 10
-46.072800000000001
 20
60.183900000000001
 30
0.0
  0
SPLINE
  5
53
100
AcDbEntity
  8
LAYER_1
 62
     9
100
AcDbSpline
210
0.0
220
0.0
230
1.0
 70
     1
 71
     3
 72
    20
 73
    16
 74
     0
 42
0.0000000001
 43
0.0000000001
 40
0.0
 40
0.0
 40
0.0
 40
0.0
 40
0.25
 40
0.25
 40
0.25
 40
0.25
 40
0.5
 40
0.5
 40
0.5
 40
0.5
 40
0.75
 40
0.75
 40
0.75
 40
0.75
 40
1.0
 40
1.0
 40
1.0
 40
1.0
 10
41.2044
 20
59.7605
 30
0.0
 10
41.874700000000004
 20
60.113300000000002
 30
0.0
 10
42.580300000000001
 20
60.325000000000003
 30
0.0
 10
43.250500000000002
 20
60.607200000000006
 30
0.0
 10
43.250500000000002
 20
60.607200000000006
 30
0.0
 10
43.426900000000003
 20
59.7958
 30
0.0
 10
43.497500000000002
 20
58.913900000000005
 30
0.0
 10
43.356400000000001
 20
58.0672
 30
0.0
 10
43.356400000000001
 20
58.0672
 30
0.0
 10
42.509700000000002
 20
58.102500000000006
 30
0.0
 10
41.733600000000003
 20
58.490500000000004
 30
0.0
 10
41.027999999999999
 20
58.878600000000006
 30
0.0
 10
41.027999999999999
 20
58.878600000000006
 30
0.0
 10
41.027999999999999
 20
59.196100000000001
 30
0.0
 10
41.098600000000005
 20
59.478300000000004
 30
0.0
 10
41.2044
 20
59.7605
 30
0.0
  0
SPLINE
  5
54
100
AcDbEntity
  8
LAYER_1
 62
    17
100
AcDbSpline
210
0.0
220
0.0
230
1.0
 70
     1
 71
     3
 72
    16
 73
    12
 74
     0
 42
0.0000000001
 43
0.0000000001
 40
0.0
 40
0.0
 40
0.0
 40
0.0
 40
0.3333333333333333
 40
0.3333333333333333
 40
0.3333333333333333
 40
0.3333333333333333
 40
0.6666666666666666
 40
0.6666666666666666
 40
0.6666666666666666
 40
0.6666666666666666
 40
1.0
 40
1.0
 40
1.0
 40
1.0
 10
-52.916700000000006
 20
59.301900000000003
 30
0.0
 10
-52.316900000000004
 20
59.090300000000006
 30
0.0
 10
-51.717200000000005
 20
58.949100000000001
 30
0.0
 10
-51.152799999999999
 20
58.772800000000004
 30
0.0
 10
-51.152799999999999
 20
58.772800000000004
 30
0.0
 10
-53.939700000000002
 20
58.0319
 30
0.0
 10
-52.175800000000002
 20
54.892200000000003
 30
0.0
 10
-52.916700000000006
 20
52.881399999999999
 30
0.0
 10
-52.916700000000006
 20
52.881399999999999
 30
0.0
 10
-52.916700000000006
 20
52.881399999999999
 30
0.0
 10
-52.916700000000006
 20
59.301900000000003
 30
0.0
 10
-52.916700000000006
 20
59.301900000000003
 30
0.0
  0
SPLINE
  5
55
100
AcDbEntity
  8
LAYER_1
 62
     8
100
AcDbSpline
210
0.0
220
0.0
230
1.0
 70
     1
 71
     3
 72
    24
 73
    20
 74
     0
 42
0.0000000001
 43
0.0000000001
 40
0.0
 40
0.0
 40
0.0
 40
0.0
 40
0.2
 40
0.2
 40
0.2
 40
0.2
 40
0.4
 40
0.4
 40
0.4
 40
0.4
 40
0.6000000000000001
 40
0.6000000000000001
 40
0.6000000000000001
 40
0.6000000000000001
 40
0.8
 40
0.8
 40
0.8
 40
0.8
 40
1.0
 40
1.0
 40
1.0
 40
1.0
 10
-44.485300000000002
 20
57.502800000000001
 30
0.0
 10
-43.673900000000003
 20
57.467500000000001
 30
0.0
 10
-42.862500000000004
 20
57.2911
 30
0.0
 10
-42.051100000000005
 20
57.114700000000006
 30
0.0
 10
-42.051100000000005
 20
57.114700000000006
 30
0.0
 10
-42.086400000000005
 20
56.973600000000005
 30
0.0
 10
-42.121700000000004
 20
56.620800000000003
 30
0.0
 10
-42.1569
 20
56.444400000000002
 30
0.0
 10
-42.1569
 20
56.444400000000002
 30
0.0
 10
-43.3917
 20
55.5625
 30
0.0
 10
-44.414700000000003
 20
53.692800000000005
 30
0.0
 10
-46.213900000000002
 20
54.257200000000005
 30
0.0
 10
-46.213900000000002
 20
54.257200000000005
 30
0.0
 10
-46.213900000000002
 20
54.257200000000005
 30
0.0
 10
-46.355000000000004
 20
54.609999999999999
 30
0.0
 10
-46.355000000000004
 20
54.609999999999999
 30
0.0
 10
-46.355000000000004
 20
54.609999999999999
 30
0.0
 10
-45.825800000000001
 20
55.633000000000003
 30
0.0
 10
-45.261400000000002
 20
56.656100000000002
 30
0.0
 10
-44.485300000000002
 20
57.502800000000001
 30
0.0
  0
SPLINE
  5
56
100
AcDbEntity
  8
LAYER_1
 62
     8
100
AcDbSpline
210
0.0
220
0.0
230
1.0
 70
     1
 71
     3
 72
    40
 73
    36
 74
     0
 42
0.0000000001
 43
0.0000000001
 40
0.0
 40
0.0
 40
0.0
 40
0.0
 40
0.1111111111111111
 40
0.1111111111111111
 40
0.1111111111111111
 40
0.1111111111111111
 40
0.2222222222222222
 40
0.2222222222222222
 40
0.2222222222222222
 40
0.2222222222222222
 40
0.3333333333333333
 40
0.3333333333333333
 40
0.3333333333333333
 40
0.3333333333333333
 40
0.4444444444444444
 40
0.4444444444444444
 40
0.4444444444444444
 40
0.4444444444444444
 40
0.5555555555555556
 40
0.5555555555555556
 40
0.5555555555555556
 40
0.5555555555555556
 40
0.6666666666666667
 40
0.6666666666666667
 40
0.6666666666666667
 40
0.6666666666666667
 40
0.7777777777777779
 40
0.7777777777777779
 40
0.7777777777777779
 40
0.7777777777777779
 40
0.8888888888888891
 40
0.8888888888888891
 40
0.8888888888888891
 40
0.8888888888888891
 40
1.0
 40
1.0
 40
1.0
 40
1.0
 10
1.3053000000000001
 20
57.185300000000005
 30
0.0
 10
11.853300000000001
 20
57.220500000000001
 30
0.0
 10
22.507200000000001
 20
57.0794
 30
0.0
 10
32.808300000000003
 20
54.715800000000002
 30
0.0
 10
32.808300000000003
 20
54.715800000000002
 30
0.0
 10
36.759399999999999
 20
54.398300000000006
 30
0.0
 10
40.640000000000001
 20
51.646700000000003
 30
0.0
 10
44.555800000000005
 20
53.375300000000003
 30
0.0
 10
44.555800000000005
 20
53.375300000000003
 30
0.0
 10
44.732199999999999
 20
53.022500000000001
 30
0.0
 10
44.9086
 20
52.705000000000005
 30
0.0
 10
45.085000000000001
 20
52.352200000000003
 30
0.0
 10
45.085000000000001
 20
52.352200000000003
 30
0.0
 10
44.979199999999999
 20
52.246400000000001
 30
0.0
 10
44.767500000000005
 20
51.999400000000001
 30
0.0
 10
44.661700000000003
 20
51.893599999999999
 30
0.0
 10
44.661700000000003
 20
51.893599999999999
 30
0.0
 10
43.462200000000003
 20
52.211100000000002
 30
0.0
 10
42.298000000000002
 20
52.140500000000003
 30
0.0
 10
41.310300000000005
 20
51.399700000000003
 30
0.0
 10
41.310300000000005
 20
51.399700000000003
 30
0.0
 10
39.511099999999999
 20
52.740300000000005
 30
0.0
 10
37.112200000000001
 20
52.458000000000006
 30
0.0
 10
35.277799999999999
 20
53.763300000000001
 30
0.0
 10
35.277799999999999
 20
53.763300000000001
 30
0.0
 10
31.891100000000002
 20
54.363
 30
0.0
 10
28.469200000000001
 20
54.504100000000001
 30
0.0
 10
25.0825
 20
55.245000000000005
 30
0.0
 10
25.0825
 20
55.245000000000005
 30
0.0
 10
21.5547
 20
55.209700000000005
 30
0.0
 10
18.203300000000002
 20
56.585500000000003
 30
0.0
 10
14.675600000000001
 20
56.126900000000006
 30
0.0
 10
14.675600000000001
 20
56.126900000000006
 30
0.0
 10
10.2658
 20
56.973600000000005
 30
0.0
 10
5.7149999999999999
 20
56.0916
 30
0.0
 10
1.3053000000000001
 20
57.185300000000005
 30
0.0
  0
SPLINE
  5
57
100
AcDbEntity
  8
LAYER_1
 62
    17
100
AcDbSpline
210
0.0
220
0.0
230
1.0
 70
     1
 71
     3
 72
    24
 73
    20
 74
     0
 42
0.0000000001
 43
0.0000000001
 40
0.0
 40
0.0
 40
0.0
 40
0.0
 40
0.2
 40
0.2
 40
0.2
 40
0.2
 40
0.4
 40
0.4
 40
0.4
 40
0.4
 40
0.6000000000000001
 40
0.6000000000000001
 40
0.6000000000000001
 40
0.6000000000000001
 40
0.8
 40
0.8
 40
0.8
 40
0.8
 40
1.0
 40
1.0
 40
1.0
 40
1.0
 10
38.734999999999999
 20
56.973600000000005
 30
0.0
 10
38.840800000000002
 20
57.0794
 30
0.0
 10
38.981900000000003
 20
57.255800000000001
 30
0.0
 10
39.052500000000002
 20
57.3264
 30
0.0
 10
39.052500000000002
 20
57.3264
 30
0.0
 10
39.969700000000003
 20
57.185300000000005
 30
0.0
 10
40.886900000000004
 20
57.008900000000004
 30
0.0
 10
41.804200000000002
 20
56.832500000000003
 30
0.0
 10
41.804200000000002
 20
56.832500000000003
 30
0.0
 10
42.051100000000005
 20
56.232800000000005
 30
0.0
 10
42.368600000000001
 20
55.703600000000002
 30
0.0
 10
42.615500000000004
 20
55.139099999999999
 30
0.0
 10
42.615500000000004
 20
55.139099999999999
 30
0.0
 10
42.4039
 20
54.751100000000001
 30
0.0
 10
42.086400000000005
 20
54.468900000000005
 30
0.0
 10
41.768900000000002
 20
54.221900000000005
 30
0.0
 10
41.768900000000002
 20
54.221900000000005
 30
0.0
 10
40.6753
 20
54.998000000000005
 30
0.0
 10
39.6875
 20
55.985800000000005
 30
0.0
 10
38.734999999999999
 20
56.973600000000005
 30
0.0
  0
SPLINE
  5
58
100
AcDbEntity
  8
LAYER_1
 62
     8
100
AcDbSpline
210
0.0
220
0.0
230
1.0
 70
     1
 71
     3
 72
    28
 73
    24
 74
     0
 42
0.0000000001
 43
0.0000000001
 40
0.0
 40
0.0
 40
0.0
 40
0.0
 40
0.1666666666666667
 40
0.1666666666666667
 40
0.1666666666666667
 40
0.1666666666666667
 40
0.3333333333333333
 40
0.3333333333333333
 40
0.3333333333333333
 40
0.3333333333333333
 40
0.5
 40
0.5
 40
0.5
 40
0.5
 40
0.6666666666666666
 40
0.6666666666666666
 40
0.6666666666666666
 40
0.6666666666666666
 40
0.8333333333333333
 40
0.8333333333333333
 40
0.8333333333333333
 40
0.8333333333333333
 40
1.0
 40
1.0
 40
1.0
 40
1.0
 10
49.635800000000003
 20
48.824400000000004
 30
0.0
 10
49.106700000000004
 20
51.611400000000003
 30
0.0
 10
49.3536
 20
54.7864
 30
0.0
 10
50.1297
 20
57.573300000000003
 30
0.0
 10
50.1297
 20
57.573300000000003
 30
0.0
 10
50.306100000000001
 20
57.0441
 30
0.0
 10
50.482500000000002
 20
56.479700000000001
 30
0.0
 10
50.588300000000004
 20
55.915300000000002
 30
0.0
 10
50.588300000000004
 20
55.915300000000002
 30
0.0
 10
50.658900000000003
 20
55.421400000000006
 30
0.0
 10
50.694200000000002
 20
54.962800000000001
 30
0.0
 10
50.658900000000003
 20
54.468900000000005
 30
0.0
 10
50.658900000000003
 20
54.468900000000005
 30
0.0
 10
49.3889
 20
54.751100000000001
 30
0.0
 10
49.812200000000004
 20
53.128300000000003
 30
0.0
 10
49.424199999999999
 20
52.352200000000003
 30
0.0
 10
49.424199999999999
 20
52.352200000000003
 30
0.0
 10
49.600500000000004
 20
52.246400000000001
 30
0.0
 10
49.917999999999999
 20
51.964200000000005
 30
0.0
 10
50.059200000000004
 20
51.8583
 30
0.0
 10
50.059200000000004
 20
51.8583
 30
0.0
 10
48.895000000000003
 20
51.223300000000002
 30
0.0
 10
49.741700000000002
 20
49.812200000000004
 30
0.0
 10
49.635800000000003
 20
48.824400000000004
 30
0.0
  0
SPLINE
  5
59
100
AcDbEntity
  8
LAYER_1
 62
     9
100
AcDbSpline
210
0.0
220
0.0
230
1.0
 70
     1
 71
     3
 72
    16
 73
    12
 74
     0
 42
0.0000000001
 43
0.0000000001
 40
0.0
 40
0.0
 40
0.0
 40
0.0
 40
0.3333333333333333
 40
0.3333333333333333
 40
0.3333333333333333
 40
0.3333333333333333
 40
0.6666666666666666
 40
0.6666666666666666
 40
0.6666666666666666
 40
0.6666666666666666
 40
1.0
 40
1.0
 40
1.0
 40
1.0
 10
44.273600000000002
 20
54.751100000000001
 30
0.0
 10
44.696899999999999
 20
54.927500000000002
 30
0.0
 10
45.1203
 20
54.998000000000005
 30
0.0
 10
45.543600000000005
 20
54.927500000000002
 30
0.0
 10
45.543600000000005
 20
54.927500000000002
 30
0.0
 10
45.8611
 20
54.645300000000006
 30
0.0
 10
45.755300000000005
 20
54.468900000000005
 30
0.0
 10
45.190800000000003
 20
54.363
 30
0.0
 10
45.190800000000003
 20
54.363
 30
0.0
 10
44.802800000000005
 20
54.363
 30
0.0
 10
44.485300000000002
 20
54.504100000000001
 30
0.0
 10
44.273600000000002
 20
54.751100000000001
 30
0.0
  0
SPLINE
  5
5A
100
AcDbEntity
  8
LAYER_1
 62
    17
100
AcDbSpline
210
0.0
220
0.0
230
1.0
 70
     1
 71
     3
 72
    20
 73
    16
 74
     0
 42
0.0000000001
 43
0.0000000001
 40
0.0
 40
0.0
 40
0.0
 40
0.0
 40
0.25
 40
0.25
 40
0.25
 40
0.25
 40
0.5
 40
0.5
 40
0.5
 40
0.5
 40
0.75
 40
0.75
 40
0.75
 40
0.75
 40
1.0
 40
1.0
 40
1.0
 40
1.0
 10
49.741700000000002
 20
46.6372
 30
0.0
 10
50.1297
 20
45.367200000000004
 30
0.0
 10
50.3414
 20
43.462200000000003
 30
0.0
 10
48.965500000000006
 20
42.686100000000003
 30
0.0
 10
48.965500000000006
 20
42.686100000000003
 30
0.0
 10
49.000800000000005
 20
43.673900000000003
 30
0.0
 10
49.1419
 20
44.696899999999999
 30
0.0
 10
49.212500000000006
 20
45.684699999999999
 30
0.0
 10
49.212500000000006
 20
45.684699999999999
 30
0.0
 10
49.247800000000005
 20
44.9086
 30
0.0
 10
49.283000000000001
 20
44.1325
 30
0.0
 10
49.3536
 20
43.356400000000001
 30
0.0
 10
49.3536
 20
43.356400000000001
 30
0.0
 10
50.0944
 20
44.238300000000002
 30
0.0
 10
49.671100000000003
 20
45.578900000000004
 30
0.0
 10
49.741700000000002
 20
46.6372
 30
0.0
  0
SPLINE
  5
5B
100
AcDbEntity
  8
LAYER_1
 62
    17
100
AcDbSpline
210
0.0
220
0.0
230
1.0
 70
     1
 71
     3
 72
    20
 73
    16
 74
     0
 42
0.0000000001
 43
0.0000000001
 40
0.0
 40
0.0
 40
0.0
 40
0.0
 40
0.25
 40
0.25
 40
0.25
 40
0.25
 40
0.5
 40
0.5
 40
0.5
 40
0.5
 40
0.75
 40
0.75
 40
0.75
 40
0.75
 40
1.0
 40
1.0
 40
1.0
 40
1.0
 10
45.261400000000002
 20
43.956099999999999
 30
0.0
 10
45.966900000000003
 20
43.497500000000002
 30
0.0
 10
46.531400000000005
 20
42.791900000000005
 30
0.0
 10
47.307500000000005
 20
42.474400000000003
 30
0.0
 10
47.307500000000005
 20
42.474400000000003
 30
0.0
 10
47.766100000000002
 20
42.4392
 30
0.0
 10
48.895000000000003
 20
43.18
 30
0.0
 10
48.683300000000003
 20
42.1569
 30
0.0
 10
48.683300000000003
 20
42.1569
 30
0.0
 10
48.224700000000006
 20
41.980499999999999
 30
0.0
 10
47.766100000000002
 20
41.839400000000005
 30
0.0
 10
47.272200000000005
 20
41.768900000000002
 30
0.0
 10
47.272200000000005
 20
41.768900000000002
 30
0.0
 10
46.566700000000004
 20
42.474400000000003
 30
0.0
 10
45.8964
 20
43.18
 30
0.0
 10
45.261400000000002
 20
43.956099999999999
 30
0.0
  0
SPLINE
  5
5C
100
AcDbEntity
  8
LAYER_1
 62
     8
100
AcDbSpline
210
0.0
220
0.0
230
1.0
 70
     1
 71
     3
 72
    24
 73
    20
 74
     0
 42
0.0000000001
 43
0.0000000001
 40
0.0
 40
0.0
 40
0.0
 40
0.0
 40
0.2
 40
0.2
 40
0.2
 40
0.2
 40
0.4
 40
0.4
 40
0.4
 40
0.4
 40
0.6000000000000001
 40
0.6000000000000001
 40
0.6000000000000001
 40
0.6000000000000001
 40
0.8
 40
0.8
 40
0.8
 40
0.8
 40
1.0
 40
1.0
 40
1.0
 40
1.0
 10
48.013000000000005
 20
40.922200000000004
 30
0.0
 10
48.260000000000005
 20
40.992800000000003
 30
0.0
 10
48.753900000000002
 20
41.098600000000005
 30
0.0
 10
48.965500000000006
 20
41.169200000000004
 30
0.0
 10
48.965500000000006
 20
41.169200000000004
 30
0.0
 10
49.635800000000003
 20
38.241100000000003
 30
0.0
 10
48.260000000000005
 20
35.2425
 30
0.0
 10
49.036100000000005
 20
32.279200000000003
 30
0.0
 10
49.036100000000005
 20
32.279200000000003
 30
0.0
 10
49.177199999999999
 20
30.7622
 30
0.0
 10
49.106700000000004
 20
29.210000000000001
 30
0.0
 10
48.965500000000006
 20
27.657800000000002
 30
0.0
 10
48.965500000000006
 20
27.657800000000002
 30
0.0
 10
48.224700000000006
 20
25.435300000000002
 30
0.0
 10
49.3536
 20
22.930500000000002
 30
0.0
 10
48.295300000000005
 20
20.8139
 30
0.0
 10
48.295300000000005
 20
20.8139
 30
0.0
 10
48.506900000000002
 20
27.5167
 30
0.0
 10
48.648000000000003
 20
34.2547
 30
0.0
 10
48.013000000000005
 20
40.922200000000004
 30
0.0
  0
SPLINE
  5
5D
100
AcDbEntity
  8
LAYER_1
 62
     8
100
AcDbSpline
210
0.0
220
0.0
230
1.0
 70
     1
 71
     3
 72
    24
 73
    20
 74
     0
 42
0.0000000001
 43
0.0000000001
 40
0.0
 40
0.0
 40
0.0
 40
0.0
 40
0.2
 40
0.2
 40
0.2
 40
0.2
 40
0.4
 40
0.4
 40
0.4
 40
0.4
 40
0.6000000000000001
 40
0.6000000000000001
 40
0.6000000000000001
 40
0.6000000000000001
 40
0.8
 40
0.8
 40
0.8
 40
0.8
 40
1.0
 40
1.0
 40
1.0
 40
1.0
 10
-49.3536
 20
23.777200000000001
 30
0.0
 10
-48.118900000000004
 20
23.5303
 30
0.0
 10
-46.919400000000003
 20
23.741900000000001
 30
0.0
 10
-45.719999999999999
 20
24.0242
 30
0.0
 10
-45.719999999999999
 20
24.0242
 30
0.0
 10
-45.578900000000004
 20
23.3186
 30
0.0
 10
-45.402500000000003
 20
22.648300000000003
 30
0.0
 10
-45.155500000000004
 20
22.013300000000001
 30
0.0
 10
-45.155500000000004
 20
22.013300000000001
 30
0.0
 10
-45.6494
 20
22.3308
 30
0.0
 10
-46.143300000000004
 20
22.613
 30
0.0
 10
-46.6372
 20
22.859999999999999
 30
0.0
 10
-46.6372
 20
22.859999999999999
 30
0.0
 10
-47.554400000000001
 20
23.283300000000001
 30
0.0
 10
-48.577500000000001
 20
23.248000000000001
 30
0.0
 10
-49.565300000000001
 20
23.459700000000002
 30
0.0
 10
-49.565300000000001
 20
23.459700000000002
 30
0.0
 10
-49.565300000000001
 20
23.459700000000002
 30
0.0
 10
-49.3536
 20
23.777200000000001
 30
0.0
 10
-49.3536
 20
23.777200000000001
 30
0.0
  0
SPLINE
  5
5E
100
AcDbEntity
  8
LAYER_1
 62
    17
100
AcDbSpline
210
0.0
220
0.0
230
1.0
 70
     1
 71
     3
 72
    20
 73
    16
 74
     0
 42
0.0000000001
 43
0.0000000001
 40
0.0
 40
0.0
 40
0.0
 40
0.0
 40
0.25
 40
0.25
 40
0.25
 40
0.25
 40
0.5
 40
0.5
 40
0.5
 40
0.5
 40
0.75
 40
0.75
 40
0.75
 40
0.75
 40
1.0
 40
1.0
 40
1.0
 40
1.0
 10
-50.1297
 20
18.1328
 30
0.0
 10
-50.023900000000005
 20
19.896700000000003
 30
0.0
 10
-50.623600000000003
 20
21.872199999999999
 30
0.0
 10
-49.565300000000001
 20
23.459700000000002
 30
0.0
 10
-49.565300000000001
 20
23.459700000000002
 30
0.0
 10
-48.577500000000001
 20
23.248000000000001
 30
0.0
 10
-47.554400000000001
 20
23.283300000000001
 30
0.0
 10
-46.6372
 20
22.859999999999999
 30
0.0
 10
-46.6372
 20
22.859999999999999
 30
0.0
 10
-47.730800000000002
 20
22.754200000000001
 30
0.0
 10
-48.965500000000006
 20
23.3186
 30
0.0
 10
-49.882800000000003
 20
22.471900000000002
 30
0.0
 10
-49.882800000000003
 20
22.471900000000002
 30
0.0
 10
-50.306100000000001
 20
21.0608
 30
0.0
 10
-50.0944
 20
19.5792
 30
0.0
 10
-50.1297
 20
18.1328
 30
0.0
  0
SPLINE
  5
5F
100
AcDbEntity
  8
LAYER_1
 62
     8
100
AcDbSpline
210
0.0
220
0.0
230
1.0
 70
     1
 71
     3
 72
    28
 73
    24
 74
     0
 42
0.0000000001
 43
0.0000000001
 40
0.0
 40
0.0
 40
0.0
 40
0.0
 40
0.1666666666666667
 40
0.1666666666666667
 40
0.1666666666666667
 40
0.1666666666666667
 40
0.3333333333333333
 40
0.3333333333333333
 40
0.3333333333333333
 40
0.3333333333333333
 40
0.5
 40
0.5
 40
0.5
 40
0.5
 40
0.6666666666666666
 40
0.6666666666666666
 40
0.6666666666666666
 40
0.6666666666666666
 40
0.8333333333333333
 40
0.8333333333333333
 40
0.8333333333333333
 40
0.8333333333333333
 40
1.0
 40
1.0
 40
1.0
 40
1.0
 10
-50.1297
 20
18.1328
 30
0.0
 10
-50.0944
 20
19.5792
 30
0.0
 10
-50.306100000000001
 20
21.0608
 30
0.0
 10
-49.882800000000003
 20
22.471900000000002
 30
0.0
 10
-49.882800000000003
 20
22.471900000000002
 30
0.0
 10
-49.3536
 20
17.039200000000001
 30
0.0
 10
-49.318300000000001
 20
11.606400000000001
 30
0.0
 10
-49.106700000000004
 20
6.1736000000000004
 30
0.0
 10
-49.106700000000004
 20
6.1736000000000004
 30
0.0
 10
-48.859700000000004
 20
5.1153000000000004
 30
0.0
 10
-49.177199999999999
 20
3.5983000000000001
 30
0.0
 10
-48.013000000000005
 20
3.0339
 30
0.0
 10
-48.013000000000005
 20
3.0339
 30
0.0
 10
-48.189399999999999
 20
2.9986000000000002
 30
0.0
 10
-48.506900000000002
 20
2.8928000000000003
 30
0.0
 10
-48.683300000000003
 20
2.8574999999999999
 30
0.0
 10
-48.683300000000003
 20
2.8574999999999999
 30
0.0
 10
-48.930300000000003
 20
3.1044
 30
0.0
 10
-49.106700000000004
 20
3.3867000000000003
 30
0.0
 10
-49.283000000000001
 20
3.7042000000000002
 30
0.0
 10
-49.283000000000001
 20
3.7042000000000002
 30
0.0
 10
-50.3767
 20
8.3961000000000006
 30
0.0
 10
-49.318300000000001
 20
13.3703
 30
0.0
 10
-50.1297
 20
18.1328
 30
0.0
  0
SPLINE
  5
60
100
AcDbEntity
  8
LAYER_1
 62
    17
100
AcDbSpline
210
0.0
220
0.0
230
1.0
 70
     1
 71
     3
 72
    32
 73
    28
 74
     0
 42
0.0000000001
 43
0.0000000001
 40
0.0
 40
0.0
 40
0.0
 40
0.0
 40
0.1428571428571429
 40
0.1428571428571429
 40
0.1428571428571429
 40
0.1428571428571429
 40
0.2857142857142857
 40
0.2857142857142857
 40
0.2857142857142857
 40
0.2857142857142857
 40
0.4285714285714286
 40
0.4285714285714286
 40
0.4285714285714286
 40
0.4285714285714286
 40
0.5714285714285714
 40
0.5714285714285714
 40
0.5714285714285714
 40
0.5714285714285714
 40
0.7142857142857142
 40
0.7142857142857142
 40
0.7142857142857142
 40
0.7142857142857142
 40
0.857142857142857
 40
0.857142857142857
 40
0.857142857142857
 40
0.857142857142857
 40
1.0
 40
1.0
 40
1.0
 40
1.0
 10
48.048300000000005
 20
18.803000000000001
 30
0.0
 10
49.1419
 20
16.686400000000003
 30
0.0
 10
47.236900000000006
 20
14.1464
 30
0.0
 10
45.226100000000002
 20
13.1586
 30
0.0
 10
45.226100000000002
 20
13.1586
 30
0.0
 10
44.414700000000003
 20
12.805800000000001
 30
0.0
 10
45.014400000000002
 20
11.2889
 30
0.0
 10
44.061900000000001
 20
11.1478
 30
0.0
 10
44.061900000000001
 20
11.1478
 30
0.0
 10
43.321100000000001
 20
11.606400000000001
 30
0.0
 10
44.273600000000002
 20
12.488300000000001
 30
0.0
 10
44.732199999999999
 20
12.7706
 30
0.0
 10
44.732199999999999
 20
12.7706
 30
0.0
 10
44.696899999999999
 20
13.0175
 30
0.0
 10
44.626400000000004
 20
13.5114
 30
0.0
 10
44.591100000000004
 20
13.7583
 30
0.0
 10
44.591100000000004
 20
13.7583
 30
0.0
 10
44.732199999999999
 20
13.6525
 30
0.0
 10
45.014400000000002
 20
13.476100000000001
 30
0.0
 10
45.155500000000004
 20
13.3703
 30
0.0
 10
45.155500000000004
 20
13.3703
 30
0.0
 10
46.108000000000004
 20
14.287500000000001
 30
0.0
 10
47.095800000000004
 20
15.1342
 30
0.0
 10
48.013000000000005
 20
16.0867
 30
0.0
 10
48.013000000000005
 20
16.0867
 30
0.0
 10
48.083600000000004
 20
16.968600000000002
 30
0.0
 10
48.013000000000005
 20
17.8858
 30
0.0
 10
48.048300000000005
 20
18.803000000000001
 30
0.0
  0
SPLINE
  5
61
100
AcDbEntity
  8
LAYER_1
 62
     8
100
AcDbSpline
210
0.0
220
0.0
230
1.0
 70
     1
 71
     3
 72
    28
 73
    24
 74
     0
 42
0.0000000001
 43
0.0000000001
 40
0.0
 40
0.0
 40
0.0
 40
0.0
 40
0.1666666666666667
 40
0.1666666666666667
 40
0.1666666666666667
 40
0.1666666666666667
 40
0.3333333333333333
 40
0.3333333333333333
 40
0.3333333333333333
 40
0.3333333333333333
 40
0.5
 40
0.5
 40
0.5
 40
0.5
 40
0.6666666666666666
 40
0.6666666666666666
 40
0.6666666666666666
 40
0.6666666666666666
 40
0.8333333333333333
 40
0.8333333333333333
 40
0.8333333333333333
 40
0.8333333333333333
 40
1.0
 40
1.0
 40
1.0
 40
1.0
 10
47.095800000000004
 20
1.1289
 30
0.0
 10
47.589700000000001
 20
3.1396999999999999
 30
0.0
 10
47.307500000000005
 20
5.2210999999999999
 30
0.0
 10
47.448599999999999
 20
7.2672000000000008
 30
0.0
 10
47.448599999999999
 20
7.2672000000000008
 30
0.0
 10
47.660299999999999
 20
4.5508000000000006
 30
0.0
 10
47.272200000000005
 20
1.8344
 30
0.0
 10
47.378
 20
-0.8819
 30
0.0
 10
47.378
 20
-0.8819
 30
0.0
 10
47.272200000000005
 20
-5.0094000000000003
 30
0.0
 10
48.118900000000004
 20
-9.1369000000000007
 30
0.0
 10
47.448599999999999
 20
-13.2644
 30
0.0
 10
47.448599999999999
 20
-13.2644
 30
0.0
 10
47.272200000000005
 20
-14.3933
 30
0.0
 10
47.378
 20
-15.5928
 30
0.0
 10
47.625
 20
-16.721700000000002
 30
0.0
 10
47.625
 20
-16.721700000000002
 30
0.0
 10
47.4133
 20
-18.803000000000001
 30
0.0
 10
47.942500000000003
 20
-21.0961
 30
0.0
 10
47.342800000000004
 20
-23.0717
 30
0.0
 10
47.342800000000004
 20
-23.0717
 30
0.0
 10
46.813600000000001
 20
-15.028300000000002
 30
0.0
 10
46.778300000000002
 20
-6.9144000000000005
 30
0.0
 10
47.095800000000004
 20
1.1289
 30
0.0
  0
SPLINE
  5
62
100
AcDbEntity
  8
LAYER_1
 62
    17
100
AcDbSpline
210
0.0
220
0.0
230
1.0
 70
     1
 71
     3
 72
    28
 73
    24
 74
     0
 42
0.0000000001
 43
0.0000000001
 40
0.0
 40
0.0
 40
0.0
 40
0.0
 40
0.1666666666666667
 40
0.1666666666666667
 40
0.1666666666666667
 40
0.1666666666666667
 40
0.3333333333333333
 40
0.3333333333333333
 40
0.3333333333333333
 40
0.3333333333333333
 40
0.5
 40
0.5
 40
0.5
 40
0.5
 40
0.6666666666666666
 40
0.6666666666666666
 40
0.6666666666666666
 40
0.6666666666666666
 40
0.8333333333333333
 40
0.8333333333333333
 40
0.8333333333333333
 40
0.8333333333333333
 40
1.0
 40
1.0
 40
1.0
 40
1.0
 10
-48.013000000000005
 20
3.0339
 30
0.0
 10
-47.378
 20
3.9864000000000002
 30
0.0
 10
-46.743000000000002
 20
5.1153000000000004
 30
0.0
 10
-45.614200000000004
 20
5.5386000000000006
 30
0.0
 10
-45.614200000000004
 20
5.5386000000000006
 30
0.0
 10
-46.531400000000005
 20
4.3744000000000005
 30
0.0
 10
-47.342800000000004
 20
3.1044
 30
0.0
 10
-48.506900000000002
 20
2.1167000000000002
 30
0.0
 10
-48.506900000000002
 20
2.1167000000000002
 30
0.0
 10
-49.000800000000005
 20
0.0353
 30
0.0
 10
-48.683300000000003
 20
-2.0461
 30
0.0
 10
-48.718600000000002
 20
-4.1627999999999998
 30
0.0
 10
-48.718600000000002
 20
-4.1627999999999998
 30
0.0
 10
-49.283000000000001
 20
-1.7286000000000001
 30
0.0
 10
-48.648000000000003
 20
1.0936000000000001
 30
0.0
 10
-49.283000000000001
 20
3.7042000000000002
 30
0.0
 10
-49.283000000000001
 20
3.7042000000000002
 30
0.0
 10
-49.106700000000004
 20
3.3867000000000003
 30
0.0
 10
-48.930300000000003
 20
3.1044
 30
0.0
 10
-48.683300000000003
 20
2.8574999999999999
 30
0.0
 10
-48.683300000000003
 20
2.8574999999999999
 30
0.0
 10
-48.506900000000002
 20
2.8928000000000003
 30
0.0
 10
-48.189399999999999
 20
2.9986000000000002
 30
0.0
 10
-48.013000000000005
 20
3.0339
 30
0.0
  0
SPLINE
  5
63
100
AcDbEntity
  8
LAYER_1
 62
    17
100
AcDbSpline
210
0.0
220
0.0
230
1.0
 70
     1
 71
     3
 72
    52
 73
    48
 74
     0
 42
0.0000000001
 43
0.0000000001
 40
0.0
 40
0.0
 40
0.0
 40
0.0
 40
0.0833333333333333
 40
0.0833333333333333
 40
0.0833333333333333
 40
0.0833333333333333
 40
0.1666666666666667
 40
0.1666666666666667
 40
0.1666666666666667
 40
0.1666666666666667
 40
0.25
 40
0.25
 40
0.25
 40
0.25
 40
0.3333333333333333
 40
0.3333333333333333
 40
0.3333333333333333
 40
0.3333333333333333
 40
0.4166666666666666
 40
0.4166666666666666
 40
0.4166666666666666
 40
0.4166666666666666
 40
0.4999999999999999
 40
0.4999999999999999
 40
0.4999999999999999
 40
0.4999999999999999
 40
0.5833333333333333
 40
0.5833333333333333
 40
0.5833333333333333
 40
0.5833333333333333
 40
0.6666666666666666
 40
0.6666666666666666
 40
0.6666666666666666
 40
0.6666666666666666
 40
0.75
 40
0.75
 40
0.75
 40
0.75
 40
0.8333333333333334
 40
0.8333333333333334
 40
0.8333333333333334
 40
0.8333333333333334
 40
0.9166666666666667
 40
0.9166666666666667
 40
0.9166666666666667
 40
0.9166666666666667
 40
1.0
 40
1.0
 40
1.0
 40
1.0
 10
47.625
 20
-16.721700000000002
 30
0.0
 10
47.589700000000001
 20
-18.908899999999999
 30
0.0
 10
48.189399999999999
 20
-21.0608
 30
0.0
 10
47.977800000000002
 20
-23.212800000000001
 30
0.0
 10
47.977800000000002
 20
-23.212800000000001
 30
0.0
 10
48.224700000000006
 20
-23.3186
 30
0.0
 10
48.436399999999999
 20
-23.3186
 30
0.0
 10
48.683300000000003
 20
-23.212800000000001
 30
0.0
 10
48.683300000000003
 20
-23.212800000000001
 30
0.0
 10
48.789200000000001
 20
-23.883000000000003
 30
0.0
 10
48.895000000000003
 20
-24.5533
 30
0.0
 10
49.000800000000005
 20
-25.258900000000001
 30
0.0
 10
49.000800000000005
 20
-25.258900000000001
 30
0.0
 10
48.789200000000001
 20
-24.941400000000002
 30
0.0
 10
48.577500000000001
 20
-24.659200000000002
 30
0.0
 10
48.3658
 20
-24.376900000000003
 30
0.0
 10
48.3658
 20
-24.376900000000003
 30
0.0
 10
48.506900000000002
 20
-26.634700000000002
 30
0.0
 10
48.6128
 20
-28.892500000000002
 30
0.0
 10
49.106700000000004
 20
-31.079700000000003
 30
0.0
 10
49.106700000000004
 20
-31.079700000000003
 30
0.0
 10
48.753900000000002
 20
-32.384999999999998
 30
0.0
 10
48.753900000000002
 20
-33.725500000000004
 30
0.0
 10
48.930300000000003
 20
-35.066099999999999
 30
0.0
 10
48.930300000000003
 20
-35.066099999999999
 30
0.0
 10
48.895000000000003
 20
-35.806899999999999
 30
0.0
 10
48.859700000000004
 20
-36.547800000000002
 30
0.0
 10
48.824400000000004
 20
-37.253300000000003
 30
0.0
 10
48.824400000000004
 20
-37.253300000000003
 30
0.0
 10
48.048300000000005
 20
-33.090499999999999
 30
0.0
 10
48.753900000000002
 20
-28.610300000000002
 30
0.0
 10
47.307500000000005
 20
-24.5533
 30
0.0
 10
47.307500000000005
 20
-24.5533
 30
0.0
 10
46.531400000000005
 20
-24.906100000000002
 30
0.0
 10
45.8964
 20
-25.505800000000001
 30
0.0
 10
45.190800000000003
 20
-25.964400000000001
 30
0.0
 10
45.190800000000003
 20
-25.964400000000001
 30
0.0
 10
45.8611
 20
-24.976700000000001
 30
0.0
 10
46.601900000000001
 20
-24.0242
 30
0.0
 10
47.342800000000004
 20
-23.0717
 30
0.0
 10
47.342800000000004
 20
-23.0717
 30
0.0
 10
47.942500000000003
 20
-21.0961
 30
0.0
 10
47.4133
 20
-18.803000000000001
 30
0.0
 10
47.625
 20
-16.721700000000002
 30
0.0
 10
47.625
 20
-16.721700000000002
 30
0.0
 10
47.625
 20
-16.721700000000002
 30
0.0
 10
47.625
 20
-16.721700000000002
 30
0.0
 10
47.625
 20
-16.721700000000002
 30
0.0
  0
SPLINE
  5
64
100
AcDbEntity
  8
LAYER_1
 62
    17
100
AcDbSpline
210
0.0
220
0.0
230
1.0
 70
     1
 71
     3
 72
     8
 73
     4
 74
     0
 42
0.0000000001
 43
0.0000000001
 40
0.0
 40
0.0
 40
0.0
 40
0.0
 40
1.0
 40
1.0
 40
1.0
 40
1.0
 10
48.013000000000005
 20
-23.847799999999999
 30
0.0
 10
48.224700000000006
 20
-24.0594
 30
0.0
 10
48.224700000000006
 20
-24.0594
 30
0.0
 10
48.013000000000005
 20
-23.847799999999999
 30
0.0
  0
SPLINE
  5
65
100
AcDbEntity
  8
LAYER_1
 62
    17
100
AcDbSpline
210
0.0
220
0.0
230
1.0
 70
     0
 71
     3
 72
    48
 73
    44
 74
     0
 42
0.0000000001
 43
0.0000000001
 40
0.0
 40
0.0
 40
0.0
 40
0.0
 40
0.0909090909090909
 40
0.0909090909090909
 40
0.0909090909090909
 40
0.0909090909090909
 40
0.1818181818181818
 40
0.1818181818181818
 40
0.1818181818181818
 40
0.1818181818181818
 40
0.2727272727272727
 40
0.2727272727272727
 40
0.2727272727272727
 40
0.2727272727272727
 40
0.3636363636363637
 40
0.3636363636363637
 40
0.3636363636363637
 40
0.3636363636363637
 40
0.4545454545454546
 40
0.4545454545454546
 40
0.4545454545454546
 40
0.4545454545454546
 40
0.5454545454545455
 40
0.5454545454545455
 40
0.5454545454545455
 40
0.5454545454545455
 40
0.6363636363636365
 40
0.6363636363636365
 40
0.6363636363636365
 40
0.6363636363636365
 40
0.7272727272727274
 40
0.7272727272727274
 40
0.7272727272727274
 40
0.7272727272727274
 40
0.8181818181818183
 40
0.8181818181818183
 40
0.8181818181818183
 40
0.8181818181818183
 40
0.9090909090909093
 40
0.9090909090909093
 40
0.9090909090909093
 40
0.9090909090909093
 40
1.0
 40
1.0
 40
1.0
 40
1.0
 10
47.625
 20
-16.721700000000002
 30
0.0
 10
47.589700000000001
 20
-18.908899999999999
 30
0.0
 10
48.189399999999999
 20
-21.0608
 30
0.0
 10
47.977800000000002
 20
-23.212800000000001
 30
0.0
 10
47.977800000000002
 20
-23.212800000000001
 30
0.0
 10
48.224700000000006
 20
-23.3186
 30
0.0
 10
48.436399999999999
 20
-23.3186
 30
0.0
 10
48.683300000000003
 20
-23.212800000000001
 30
0.0
 10
48.683300000000003
 20
-23.212800000000001
 30
0.0
 10
48.789200000000001
 20
-23.883000000000003
 30
0.0
 10
48.895000000000003
 20
-24.5533
 30
0.0
 10
49.000800000000005
 20
-25.258900000000001
 30
0.0
 10
49.000800000000005
 20
-25.258900000000001
 30
0.0
 10
48.789200000000001
 20
-24.941400000000002
 30
0.0
 10
48.577500000000001
 20
-24.659200000000002
 30
0.0
 10
48.3658
 20
-24.376900000000003
 30
0.0
 10
48.3658
 20
-24.376900000000003
 30
0.0
 10
48.506900000000002
 20
-26.634700000000002
 30
0.0
 10
48.6128
 20
-28.892500000000002
 30
0.0
 10
49.106700000000004
 20
-31.079700000000003
 30
0.0
 10
49.106700000000004
 20
-31.079700000000003
 30
0.0
 10
48.753900000000002
 20
-32.384999999999998
 30
0.0
 10
48.753900000000002
 20
-33.725500000000004
 30
0.0
 10
48.930300000000003
 20
-35.066099999999999
 30
0.0
 10
48.930300000000003
 20
-35.066099999999999
 30
0.0
 10
48.895000000000003
 20
-35.806899999999999
 30
0.0
 10
48.859700000000004
 20
-36.547800000000002
 30
0.0
 10
48.824400000000004
 20
-37.253300000000003
 30
0.0
 10
48.824400000000004
 20
-37.253300000000003
 30
0.0
 10
48.048300000000005
 20
-33.090499999999999
 30
0.0
 10
48.753900000000002
 20
-28.610300000000002
 30
0.0
 10
47.307500000000005
 20
-24.5533
 30
0.0
 10
47.307500000000005
 20
-24.5533
 30
0.0
 10
46.531400000000005
 20
-24.906100000000002
 30
0.0
 10
45.8964
 20
-25.505800000000001
 30
0.0
 10
45.190800000000003
 20
-25.964400000000001
 30
0.0
 10
45.190800000000003
 20
-25.964400000000001
 30
0.0
 10
45.8611
 20
-24.976700000000001
 30
0.0
 10
46.601900000000001
 20
-24.0242
 30
0.0
 10
47.342800000000004
 20
-23.0717
 30
0.0
 10
47.342800000000004
 20
-23.0717
 30
0.0
 10
47.942500000000003
 20
-21.0961
 30
0.0
 10
47.4133
 20
-18.803000000000001
 30
0.0
 10
47.625
 20
-16.721700000000002
 30
0.0
  0
SPLINE
  5
66
100
AcDbEntity
  8
LAYER_1
 62
    17
100
AcDbSpline
210
0.0
220
0.0
230
1.0
 70
     1
 71
     3
 72
     8
 73
     4
 74
     0
 42
0.0000000001
 43
0.0000000001
 40
0.0
 40
0.0
 40
0.0
 40
0.0
 40
1.0
 40
1.0
 40
1.0
 40
1.0
 10
48.013000000000005
 20
-23.847799999999999
 30
0.0
 10
48.224700000000006
 20
-24.0594
 30
0.0
 10
48.224700000000006
 20
-24.0594
 30
0.0
 10
48.013000000000005
 20
-23.847799999999999
 30
0.0
  0
SPLINE
  5
67
100
AcDbEntity
  8
LAYER_1
 62
    17
100
AcDbSpline
210
0.0
220
0.0
230
1.0
 70
     1
 71
     3
 72
    28
 73
    24
 74
     0
 42
0.0000000001
 43
0.0000000001
 40
0.0
 40
0.0
 40
0.0
 40
0.0
 40
0.1666666666666667
 40
0.1666666666666667
 40
0.1666666666666667
 40
0.1666666666666667
 40
0.3333333333333333
 40
0.3333333333333333
 40
0.3333333333333333
 40
0.3333333333333333
 40
0.5
 40
0.5
 40
0.5
 40
0.5
 40
0.6666666666666666
 40
0.6666666666666666
 40
0.6666666666666666
 40
0.6666666666666666
 40
0.8333333333333333
 40
0.8333333333333333
 40
0.8333333333333333
 40
0.8333333333333333
 40
1.0
 40
1.0
 40
1.0
 40
1.0
 10
-48.789200000000001
 20
-24.906100000000002
 30
0.0
 10
-49.212500000000006
 20
-23.353899999999999
 30
0.0
 10
-49.283000000000001
 20
-21.695800000000002
 30
0.0
 10
-48.965500000000006
 20
-20.143599999999999
 30
0.0
 10
-48.965500000000006
 20
-20.143599999999999
 30
0.0
 10
-48.648000000000003
 20
-20.5669
 30
0.0
 10
-48.330500000000001
 20
-20.955000000000002
 30
0.0
 10
-47.977800000000002
 20
-21.3078
 30
0.0
 10
-47.977800000000002
 20
-21.3078
 30
0.0
 10
-48.224700000000006
 20
-21.343
 30
0.0
 10
-48.718600000000002
 20
-21.413600000000002
 30
0.0
 10
-48.965500000000006
 20
-21.448900000000002
 30
0.0
 10
-48.965500000000006
 20
-21.448900000000002
 30
0.0
 10
-49.212500000000006
 20
-22.507200000000001
 30
0.0
 10
-49.071400000000004
 20
-23.6008
 30
0.0
 10
-48.753900000000002
 20
-24.623900000000003
 30
0.0
 10
-48.753900000000002
 20
-24.623900000000003
 30
0.0
 10
-48.577500000000001
 20
-27.693000000000001
 30
0.0
 10
-48.824400000000004
 20
-30.726900000000001
 30
0.0
 10
-49.1419
 20
-33.796100000000003
 30
0.0
 10
-49.1419
 20
-33.796100000000003
 30
0.0
 10
-49.3536
 20
-30.797500000000003
 30
0.0
 10
-48.4011
 20
-27.869400000000002
 30
0.0
 10
-48.789200000000001
 20
-24.906100000000002
 30
0.0
  0
SPLINE
  5
68
100
AcDbEntity
  8
LAYER_1
 62
     8
100
AcDbSpline
210
0.0
220
0.0
230
1.0
 70
     1
 71
     3
 72
    28
 73
    24
 74
     0
 42
0.0000000001
 43
0.0000000001
 40
0.0
 40
0.0
 40
0.0
 40
0.0
 40
0.1666666666666667
 40
0.1666666666666667
 40
0.1666666666666667
 40
0.1666666666666667
 40
0.3333333333333333
 40
0.3333333333333333
 40
0.3333333333333333
 40
0.3333333333333333
 40
0.5
 40
0.5
 40
0.5
 40
0.5
 40
0.6666666666666666
 40
0.6666666666666666
 40
0.6666666666666666
 40
0.6666666666666666
 40
0.8333333333333333
 40
0.8333333333333333
 40
0.8333333333333333
 40
0.8333333333333333
 40
1.0
 40
1.0
 40
1.0
 40
1.0
 10
-47.977800000000002
 20
-21.3078
 30
0.0
 10
-47.342800000000004
 20
-21.272500000000001
 30
0.0
 10
-46.707799999999999
 20
-21.166700000000002
 30
0.0
 10
-46.108000000000004
 20
-21.201900000000002
 30
0.0
 10
-46.108000000000004
 20
-21.201900000000002
 30
0.0
 10
-45.543600000000005
 20
-22.154400000000003
 30
0.0
 10
-45.1203
 20
-23.177500000000002
 30
0.0
 10
-44.838000000000001
 20
-24.271100000000001
 30
0.0
 10
-44.838000000000001
 20
-24.271100000000001
 30
0.0
 10
-46.002200000000002
 20
-23.177500000000002
 30
0.0
 10
-46.672499999999999
 20
-21.484200000000001
 30
0.0
 10
-48.6128
 20
-21.660500000000003
 30
0.0
 10
-48.6128
 20
-21.660500000000003
 30
0.0
 10
-48.753900000000002
 20
-22.648300000000003
 30
0.0
 10
-48.753900000000002
 20
-23.636100000000003
 30
0.0
 10
-48.753900000000002
 20
-24.623900000000003
 30
0.0
 10
-48.753900000000002
 20
-24.623900000000003
 30
0.0
 10
-49.071400000000004
 20
-23.6008
 30
0.0
 10
-49.212500000000006
 20
-22.507200000000001
 30
0.0
 10
-48.965500000000006
 20
-21.448900000000002
 30
0.0
 10
-48.965500000000006
 20
-21.448900000000002
 30
0.0
 10
-48.718600000000002
 20
-21.413600000000002
 30
0.0
 10
-48.224700000000006
 20
-21.343
 30
0.0
 10
-47.977800000000002
 20
-21.3078
 30
0.0
  0
SPLINE
  5
69
100
AcDbEntity
  8
LAYER_1
 62
     9
100
AcDbSpline
210
0.0
220
0.0
230
1.0
 70
     1
 71
     3
 72
     8
 73
     4
 74
     0
 42
0.0000000001
 43
0.0000000001
 40
0.0
 40
0.0
 40
0.0
 40
0.0
 40
1.0
 40
1.0
 40
1.0
 40
1.0
 10
48.013000000000005
 20
-23.847799999999999
 30
0.0
 10
48.224700000000006
 20
-24.0594
 30
0.0
 10
48.224700000000006
 20
-24.0594
 30
0.0
 10
48.013000000000005
 20
-23.847799999999999
 30
0.0
  0
SPLINE
  5
6A
100
AcDbEntity
  8
LAYER_1
 62
     9
100
AcDbSpline
210
0.0
220
0.0
230
1.0
 70
     1
 71
     3
 72
    16
 73
    12
 74
     0
 42
0.0000000001
 43
0.0000000001
 40
0.0
 40
0.0
 40
0.0
 40
0.0
 40
0.3333333333333333
 40
0.3333333333333333
 40
0.3333333333333333
 40
0.3333333333333333
 40
0.6666666666666666
 40
0.6666666666666666
 40
0.6666666666666666
 40
0.6666666666666666
 40
1.0
 40
1.0
 40
1.0
 40
1.0
 10
48.3658
 20
-24.376900000000003
 30
0.0
 10
48.577500000000001
 20
-24.659200000000002
 30
0.0
 10
48.789200000000001
 20
-24.941400000000002
 30
0.0
 10
49.000800000000005
 20
-25.258900000000001
 30
0.0
 10
49.000800000000005
 20
-25.258900000000001
 30
0.0
 10
49.283000000000001
 20
-27.199200000000001
 30
0.0
 10
49.459400000000002
 20
-29.174700000000001
 30
0.0
 10
49.106700000000004
 20
-31.079700000000003
 30
0.0
 10
49.106700000000004
 20
-31.079700000000003
 30
0.0
 10
48.6128
 20
-28.892500000000002
 30
0.0
 10
48.506900000000002
 20
-26.634700000000002
 30
0.0
 10
48.3658
 20
-24.376900000000003
 30
0.0
  0
SPLINE
  5
6B
100
AcDbEntity
  8
LAYER_1
 62
     8
100
AcDbSpline
210
0.0
220
0.0
230
1.0
 70
     1
 71
     3
 72
    28
 73
    24
 74
     0
 42
0.0000000001
 43
0.0000000001
 40
0.0
 40
0.0
 40
0.0
 40
0.0
 40
0.1666666666666667
 40
0.1666666666666667
 40
0.1666666666666667
 40
0.1666666666666667
 40
0.3333333333333333
 40
0.3333333333333333
 40
0.3333333333333333
 40
0.3333333333333333
 40
0.5
 40
0.5
 40
0.5
 40
0.5
 40
0.6666666666666666
 40
0.6666666666666666
 40
0.6666666666666666
 40
0.6666666666666666
 40
0.8333333333333333
 40
0.8333333333333333
 40
0.8333333333333333
 40
0.8333333333333333
 40
1.0
 40
1.0
 40
1.0
 40
1.0
 10
48.930300000000003
 20
-35.066099999999999
 30
0.0
 10
49.106700000000004
 20
-37.112200000000001
 30
0.0
 10
49.459400000000002
 20
-39.123000000000005
 30
0.0
 10
49.953300000000006
 20
-41.133900000000004
 30
0.0
 10
49.953300000000006
 20
-41.133900000000004
 30
0.0
 10
51.540800000000004
 20
-41.874700000000004
 30
0.0
 10
49.882800000000003
 20
-43.956099999999999
 30
0.0
 10
50.800000000000004
 20
-45.190800000000003
 30
0.0
 10
50.800000000000004
 20
-45.190800000000003
 30
0.0
 10
50.764700000000005
 20
-45.402500000000003
 30
0.0
 10
50.729400000000005
 20
-45.790500000000002
 30
0.0
 10
50.729400000000005
 20
-46.002200000000002
 30
0.0
 10
50.729400000000005
 20
-46.002200000000002
 30
0.0
 10
50.729400000000005
 20
-46.002200000000002
 30
0.0
 10
50.3414
 20
-46.213900000000002
 30
0.0
 10
50.3414
 20
-46.213900000000002
 30
0.0
 10
50.3414
 20
-46.213900000000002
 30
0.0
 10
50.411900000000003
 20
-43.109400000000001
 30
0.0
 10
48.930300000000003
 20
-40.322500000000005
 30
0.0
 10
48.824400000000004
 20
-37.253300000000003
 30
0.0
 10
48.824400000000004
 20
-37.253300000000003
 30
0.0
 10
48.859700000000004
 20
-36.547800000000002
 30
0.0
 10
48.895000000000003
 20
-35.806899999999999
 30
0.0
 10
48.930300000000003
 20
-35.066099999999999
 30
0.0
  0
SPLINE
  5
6C
100
AcDbEntity
  8
LAYER_1
 62
     8
100
AcDbSpline
210
0.0
220
0.0
230
1.0
 70
     1
 71
     3
 72
   108
 73
   104
 74
     0
 42
0.0000000001
 43
0.0000000001
 40
0.0
 40
0.0
 40
0.0
 40
0.0
 40
0.0384615384615385
 40
0.0384615384615385
 40
0.0384615384615385
 40
0.0384615384615385
 40
0.0769230769230769
 40
0.0769230769230769
 40
0.0769230769230769
 40
0.0769230769230769
 40
0.1153846153846154
 40
0.1153846153846154
 40
0.1153846153846154
 40
0.1153846153846154
 40
0.1538461538461539
 40
0.1538461538461539
 40
0.1538461538461539
 40
0.1538461538461539
 40
0.1923076923076923
 40
0.1923076923076923
 40
0.1923076923076923
 40
0.1923076923076923
 40
0.2307692307692308
 40
0.2307692307692308
 40
0.2307692307692308
 40
0.2307692307692308
 40
0.2692307692307693
 40
0.2692307692307693
 40
0.2692307692307693
 40
0.2692307692307693
 40
0.3076923076923077
 40
0.3076923076923077
 40
0.3076923076923077
 40
0.3076923076923077
 40
0.3461538461538462
 40
0.3461538461538462
 40
0.3461538461538462
 40
0.3461538461538462
 40
0.3846153846153846
 40
0.3846153846153846
 40
0.3846153846153846
 40
0.3846153846153846
 40
0.423076923076923
 40
0.423076923076923
 40
0.423076923076923
 40
0.423076923076923
 40
0.4615384615384615
 40
0.4615384615384615
 40
0.4615384615384615
 40
0.4615384615384615
 40
0.4999999999999999
 40
0.4999999999999999
 40
0.4999999999999999
 40
0.4999999999999999
 40
0.5384615384615383
 40
0.5384615384615383
 40
0.5384615384615383
 40
0.5384615384615383
 40
0.5769230769230768
 40
0.5769230769230768
 40
0.5769230769230768
 40
0.5769230769230768
 40
0.6153846153846152
 40
0.6153846153846152
 40
0.6153846153846152
 40
0.6153846153846152
 40
0.6538461538461536
 40
0.6538461538461536
 40
0.6538461538461536
 40
0.6538461538461536
 40
0.6923076923076921
 40
0.6923076923076921
 40
0.6923076923076921
 40
0.6923076923076921
 40
0.7307692307692305
 40
0.7307692307692305
 40
0.7307692307692305
 40
0.7307692307692305
 40
0.7692307692307689
 40
0.7692307692307689
 40
0.7692307692307689
 40
0.7692307692307689
 40
0.8076923076923074
 40
0.8076923076923074
 40
0.8076923076923074
 40
0.8076923076923074
 40
0.8461538461538458
 40
0.8461538461538458
 40
0.8461538461538458
 40
0.8461538461538458
 40
0.8846153846153843
 40
0.8846153846153843
 40
0.8846153846153843
 40
0.8846153846153843
 40
0.9230769230769227
 40
0.9230769230769227
 40
0.9230769230769227
 40
0.9230769230769227
 40
0.9615384615384611
 40
0.9615384615384611
 40
0.9615384615384611
 40
0.9615384615384611
 40
1.0
 40
1.0
 40
1.0
 40
1.0
 10
-50.1297
 20
-42.262799999999999
 30
0.0
 10
-49.988600000000005
 20
-42.227499999999999
 30
0.0
 10
-49.671100000000003
 20
-42.1569
 30
0.0
 10
-49.530000000000001
 20
-42.121700000000004
 30
0.0
 10
-49.530000000000001
 20
-42.121700000000004
 30
0.0
 10
-50.059200000000004
 20
-44.661700000000003
 30
0.0
 10
-50.306100000000001
 20
-47.307500000000005
 30
0.0
 10
-50.835300000000004
 20
-49.847500000000004
 30
0.0
 10
-50.835300000000004
 20
-49.847500000000004
 30
0.0
 10
-50.411900000000003
 20
-50.164999999999999
 30
0.0
 10
-49.953300000000006
 20
-50.411900000000003
 30
0.0
 10
-49.530000000000001
 20
-50.694200000000002
 30
0.0
 10
-49.530000000000001
 20
-50.694200000000002
 30
0.0
 10
-49.917999999999999
 20
-50.941100000000006
 30
0.0
 10
-50.3414
 20
-51.152799999999999
 30
0.0
 10
-50.729400000000005
 20
-51.435000000000002
 30
0.0
 10
-50.729400000000005
 20
-51.435000000000002
 30
0.0
 10
-51.364400000000003
 20
-54.998000000000005
 30
0.0
 10
-51.364400000000003
 20
-58.631600000000006
 30
0.0
 10
-51.470300000000002
 20
-62.230000000000004
 30
0.0
 10
-51.470300000000002
 20
-62.230000000000004
 30
0.0
 10
-50.588300000000004
 20
-62.371100000000006
 30
0.0
 10
-49.671100000000003
 20
-62.335800000000006
 30
0.0
 10
-48.753900000000002
 20
-62.194700000000005
 30
0.0
 10
-48.753900000000002
 20
-62.194700000000005
 30
0.0
 10
-48.718600000000002
 20
-60.960000000000001
 30
0.0
 10
-49.071400000000004
 20
-59.548900000000003
 30
0.0
 10
-48.048300000000005
 20
-58.631600000000006
 30
0.0
 10
-48.048300000000005
 20
-58.631600000000006
 30
0.0
 10
-47.977800000000002
 20
-59.831100000000006
 30
0.0
 10
-48.048300000000005
 20
-61.030500000000004
 30
0.0
 10
-47.942500000000003
 20
-62.230000000000004
 30
0.0
 10
-47.942500000000003
 20
-62.230000000000004
 30
0.0
 10
-45.543600000000005
 20
-62.406400000000005
 30
0.0
 10
-43.215299999999999
 20
-61.595000000000006
 30
0.0
 10
-40.851700000000001
 20
-61.7714
 30
0.0
 10
-40.851700000000001
 20
-61.7714
 30
0.0
 10
-42.051100000000005
 20
-60.854100000000003
 30
0.0
 10
-43.709200000000003
 20
-61.277500000000003
 30
0.0
 10
-45.085000000000001
 20
-61.065800000000003
 30
0.0
 10
-45.085000000000001
 20
-61.065800000000003
 30
0.0
 10
-45.226100000000002
 20
-60.7836
 30
0.0
 10
-45.331900000000005
 20
-60.501400000000004
 30
0.0
 10
-45.367200000000004
 20
-60.219100000000005
 30
0.0
 10
-45.367200000000004
 20
-60.219100000000005
 30
0.0
 10
-44.8733
 20
-59.372500000000002
 30
0.0
 10
-44.1325
 20
-58.702200000000005
 30
0.0
 10
-43.603300000000004
 20
-57.890800000000006
 30
0.0
 10
-43.603300000000004
 20
-57.890800000000006
 30
0.0
 10
-43.215299999999999
 20
-56.691400000000002
 30
0.0
 10
-44.661700000000003
 20
-55.103900000000003
 30
0.0
 10
-43.003599999999999
 20
-54.433600000000006
 30
0.0
 10
-43.003599999999999
 20
-54.433600000000006
 30
0.0
 10
-40.604700000000001
 20
-55.950500000000005
 30
0.0
 10
-38.770299999999999
 20
-58.314100000000003
 30
0.0
 10
-37.817799999999998
 20
-60.960000000000001
 30
0.0
 10
-37.817799999999998
 20
-60.960000000000001
 30
0.0
 10
-37.288600000000002
 20
-62.7239
 30
0.0
 10
-35.171900000000001
 20
-61.453900000000004
 30
0.0
 10
-33.972500000000004
 20
-62.265300000000003
 30
0.0
 10
-33.972500000000004
 20
-62.265300000000003
 30
0.0
 10
-35.066099999999999
 20
-62.653300000000002
 30
0.0
 10
-36.2303
 20
-62.5122
 30
0.0
 10
-37.359200000000001
 20
-62.7239
 30
0.0
 10
-37.359200000000001
 20
-62.7239
 30
0.0
 10
-37.218000000000004
 20
-64.9816
 30
0.0
 10
-37.641400000000004
 20
-67.204099999999997
 30
0.0
 10
-38.346900000000005
 20
-69.356099999999998
 30
0.0
 10
-38.346900000000005
 20
-69.356099999999998
 30
0.0
 10
-38.558599999999998
 20
-66.710300000000004
 30
0.0
 10
-37.535499999999999
 20
-63.993900000000004
 30
0.0
 10
-38.205800000000004
 20
-61.348000000000006
 30
0.0
 10
-38.205800000000004
 20
-61.348000000000006
 30
0.0
 10
-38.523299999999999
 20
-60.571899999999999
 30
0.0
 10
-39.511099999999999
 20
-60.924700000000001
 30
0.0
 10
-40.146100000000004
 20
-60.854100000000003
 30
0.0
 10
-40.146100000000004
 20
-60.854100000000003
 30
0.0
 10
-40.251899999999999
 20
-61.630300000000005
 30
0.0
 10
-40.251899999999999
 20
-62.406400000000005
 30
0.0
 10
-40.287199999999999
 20
-63.147200000000005
 30
0.0
 10
-40.287199999999999
 20
-63.147200000000005
 30
0.0
 10
-44.485300000000002
 20
-62.829700000000003
 30
0.0
 10
-48.718600000000002
 20
-63.041400000000003
 30
0.0
 10
-52.916700000000006
 20
-62.970800000000004
 30
0.0
 10
-52.916700000000006
 20
-62.970800000000004
 30
0.0
 10
-52.916700000000006
 20
-62.970800000000004
 30
0.0
 10
-52.916700000000006
 20
-62.3005
 30
0.0
 10
-52.916700000000006
 20
-62.3005
 30
0.0
 10
-52.916700000000006
 20
-62.3005
 30
0.0
 10
-52.352200000000003
 20
-62.371100000000006
 30
0.0
 10
-52.140500000000003
 20
-62.124100000000006
 30
0.0
 10
-52.246400000000001
 20
-61.559699999999999
 30
0.0
 10
-52.246400000000001
 20
-61.559699999999999
 30
0.0
 10
-51.3292
 20
-57.255800000000001
 30
0.0
 10
-51.435000000000002
 20
-52.8461
 30
0.0
 10
-51.1175
 20
-48.471700000000006
 30
0.0
 10
-51.1175
 20
-48.471700000000006
 30
0.0
 10
-50.694200000000002
 20
-46.4255
 30
0.0
 10
-50.023900000000005
 20
-44.379400000000004
 30
0.0
 10
-50.1297
 20
-42.262799999999999
 30
0.0
 10
-50.1297
 20
-42.262799999999999
 30
0.0
 10
-50.1297
 20
-42.262799999999999
 30
0.0
 10
-50.1297
 20
-42.262799999999999
 30
0.0
 10
-50.1297
 20
-42.262799999999999
 30
0.0
  0
SPLINE
  5
6D
100
AcDbEntity
  8
LAYER_1
 62
     8
100
AcDbSpline
210
0.0
220
0.0
230
1.0
 70
     1
 71
     3
 72
    20
 73
    16
 74
     0
 42
0.0000000001
 43
0.0000000001
 40
0.0
 40
0.0
 40
0.0
 40
0.0
 40
0.25
 40
0.25
 40
0.25
 40
0.25
 40
0.5
 40
0.5
 40
0.5
 40
0.5
 40
0.75
 40
0.75
 40
0.75
 40
0.75
 40
1.0
 40
1.0
 40
1.0
 40
1.0
 10
-41.592500000000001
 20
-57.679100000000005
 30
0.0
 10
-40.886900000000004
 20
-58.631600000000006
 30
0.0
 10
-40.110800000000005
 20
-59.548900000000003
 30
0.0
 10
-39.087800000000001
 20
-60.219100000000005
 30
0.0
 10
-39.087800000000001
 20
-60.219100000000005
 30
0.0
 10
-39.228900000000003
 20
-59.301900000000003
 30
0.0
 10
-39.6875
 20
-58.420000000000002
 30
0.0
 10
-40.322500000000005
 20
-57.749700000000004
 30
0.0
 10
-40.322500000000005
 20
-57.749700000000004
 30
0.0
 10
-40.745800000000003
 20
-57.679100000000005
 30
0.0
 10
-41.169200000000004
 20
-57.643900000000002
 30
0.0
 10
-41.592500000000001
 20
-57.679100000000005
 30
0.0
 10
-41.592500000000001
 20
-57.679100000000005
 30
0.0
 10
-41.592500000000001
 20
-57.679100000000005
 30
0.0
 10
-41.592500000000001
 20
-57.679100000000005
 30
0.0
 10
-41.592500000000001
 20
-57.679100000000005
 30
0.0
  0
SPLINE
  5
6E
100
AcDbEntity
  8
LAYER_1
 62
     8
100
AcDbSpline
210
0.0
220
0.0
230
1.0
 70
     1
 71
     3
 72
    12
 73
     8
 74
     0
 42
0.0000000001
 43
0.0000000001
 40
0.0
 40
0.0
 40
0.0
 40
0.0
 40
0.5
 40
0.5
 40
0.5
 40
0.5
 40
1.0
 40
1.0
 40
1.0
 40
1.0
 10
-44.1678
 20
-59.690000000000005
 30
0.0
 10
-43.074200000000005
 20
-60.395500000000006
 30
0.0
 10
-41.733600000000003
 20
-60.713000000000001
 30
0.0
 10
-40.393000000000001
 20
-60.642500000000005
 30
0.0
 10
-40.393000000000001
 20
-60.642500000000005
 30
0.0
 10
-40.287199999999999
 20
-58.702200000000005
 30
0.0
 10
-43.285800000000002
 20
-57.467500000000001
 30
0.0
 10
-44.1678
 20
-59.690000000000005
 30
0.0
  0
SPLINE
  5
6F
100
AcDbEntity
  8
LAYER_1
 62
     8
100
AcDbSpline
210
0.0
220
0.0
230
1.0
 70
     0
 71
     3
 72
   104
 73
   100
 74
     0
 42
0.0000000001
 43
0.0000000001
 40
0.0
 40
0.0
 40
0.0
 40
0.0
 40
0.04
 40
0.04
 40
0.04
 40
0.04
 40
0.08
 40
0.08
 40
0.08
 40
0.08
 40
0.12
 40
0.12
 40
0.12
 40
0.12
 40
0.16
 40
0.16
 40
0.16
 40
0.16
 40
0.2
 40
0.2
 40
0.2
 40
0.2
 40
0.24
 40
0.24
 40
0.24
 40
0.24
 40
0.28
 40
0.28
 40
0.28
 40
0.28
 40
0.32
 40
0.32
 40
0.32
 40
0.32
 40
0.36
 40
0.36
 40
0.36
 40
0.36
 40
0.4
 40
0.4
 40
0.4
 40
0.4
 40
0.44
 40
0.44
 40
0.44
 40
0.44
 40
0.4799999999999999
 40
0.4799999999999999
 40
0.4799999999999999
 40
0.4799999999999999
 40
0.5199999999999999
 40
0.5199999999999999
 40
0.5199999999999999
 40
0.5199999999999999
 40
0.5599999999999999
 40
0.5599999999999999
 40
0.5599999999999999
 40
0.5599999999999999
 40
0.6
 40
0.6
 40
0.6
 40
0.6
 40
0.64
 40
0.64
 40
0.64
 40
0.64
 40
0.6800000000000001
 40
0.6800000000000001
 40
0.6800000000000001
 40
0.6800000000000001
 40
0.7200000000000001
 40
0.7200000000000001
 40
0.7200000000000001
 40
0.7200000000000001
 40
0.7600000000000001
 40
0.7600000000000001
 40
0.7600000000000001
 40
0.7600000000000001
 40
0.8000000000000002
 40
0.8000000000000002
 40
0.8000000000000002
 40
0.8000000000000002
 40
0.8400000000000002
 40
0.8400000000000002
 40
0.8400000000000002
 40
0.8400000000000002
 40
0.8800000000000002
 40
0.8800000000000002
 40
0.8800000000000002
 40
0.8800000000000002
 40
0.9200000000000003
 40
0.9200000000000003
 40
0.9200000000000003
 40
0.9200000000000003
 40
0.9600000000000003
 40
0.9600000000000003
 40
0.9600000000000003
 40
0.9600000000000003
 40
1.0
 40
1.0
 40
1.0
 40
1.0
 10
-50.1297
 20
-42.262799999999999
 30
0.0
 10
-49.988600000000005
 20
-42.227499999999999
 30
0.0
 10
-49.671100000000003
 20
-42.1569
 30
0.0
 10
-49.530000000000001
 20
-42.121700000000004
 30
0.0
 10
-49.530000000000001
 20
-42.121700000000004
 30
0.0
 10
-50.059200000000004
 20
-44.661700000000003
 30
0.0
 10
-50.306100000000001
 20
-47.307500000000005
 30
0.0
 10
-50.835300000000004
 20
-49.847500000000004
 30
0.0
 10
-50.835300000000004
 20
-49.847500000000004
 30
0.0
 10
-50.411900000000003
 20
-50.164999999999999
 30
0.0
 10
-49.953300000000006
 20
-50.411900000000003
 30
0.0
 10
-49.530000000000001
 20
-50.694200000000002
 30
0.0
 10
-49.530000000000001
 20
-50.694200000000002
 30
0.0
 10
-49.917999999999999
 20
-50.941100000000006
 30
0.0
 10
-50.3414
 20
-51.152799999999999
 30
0.0
 10
-50.729400000000005
 20
-51.435000000000002
 30
0.0
 10
-50.729400000000005
 20
-51.435000000000002
 30
0.0
 10
-51.364400000000003
 20
-54.998000000000005
 30
0.0
 10
-51.364400000000003
 20
-58.631600000000006
 30
0.0
 10
-51.470300000000002
 20
-62.230000000000004
 30
0.0
 10
-51.470300000000002
 20
-62.230000000000004
 30
0.0
 10
-50.588300000000004
 20
-62.371100000000006
 30
0.0
 10
-49.671100000000003
 20
-62.335800000000006
 30
0.0
 10
-48.753900000000002
 20
-62.194700000000005
 30
0.0
 10
-48.753900000000002
 20
-62.194700000000005
 30
0.0
 10
-48.718600000000002
 20
-60.960000000000001
 30
0.0
 10
-49.071400000000004
 20
-59.548900000000003
 30
0.0
 10
-48.048300000000005
 20
-58.631600000000006
 30
0.0
 10
-48.048300000000005
 20
-58.631600000000006
 30
0.0
 10
-47.977800000000002
 20
-59.831100000000006
 30
0.0
 10
-48.048300000000005
 20
-61.030500000000004
 30
0.0
 10
-47.942500000000003
 20
-62.230000000000004
 30
0.0
 10
-47.942500000000003
 20
-62.230000000000004
 30
0.0
 10
-45.543600000000005
 20
-62.406400000000005
 30
0.0
 10
-43.215299999999999
 20
-61.595000000000006
 30
0.0
 10
-40.851700000000001
 20
-61.7714
 30
0.0
 10
-40.851700000000001
 20
-61.7714
 30
0.0
 10
-42.051100000000005
 20
-60.854100000000003
 30
0.0
 10
-43.709200000000003
 20
-61.277500000000003
 30
0.0
 10
-45.085000000000001
 20
-61.065800000000003
 30
0.0
 10
-45.085000000000001
 20
-61.065800000000003
 30
0.0
 10
-45.226100000000002
 20
-60.7836
 30
0.0
 10
-45.331900000000005
 20
-60.501400000000004
 30
0.0
 10
-45.367200000000004
 20
-60.219100000000005
 30
0.0
 10
-45.367200000000004
 20
-60.219100000000005
 30
0.0
 10
-44.8733
 20
-59.372500000000002
 30
0.0
 10
-44.1325
 20
-58.702200000000005
 30
0.0
 10
-43.603300000000004
 20
-57.890800000000006
 30
0.0
 10
-43.603300000000004
 20
-57.890800000000006
 30
0.0
 10
-43.215299999999999
 20
-56.691400000000002
 30
0.0
 10
-44.661700000000003
 20
-55.103900000000003
 30
0.0
 10
-43.003599999999999
 20
-54.433600000000006
 30
0.0
 10
-43.003599999999999
 20
-54.433600000000006
 30
0.0
 10
-40.604700000000001
 20
-55.950500000000005
 30
0.0
 10
-38.770299999999999
 20
-58.314100000000003
 30
0.0
 10
-37.817799999999998
 20
-60.960000000000001
 30
0.0
 10
-37.817799999999998
 20
-60.960000000000001
 30
0.0
 10
-37.288600000000002
 20
-62.7239
 30
0.0
 10
-35.171900000000001
 20
-61.453900000000004
 30
0.0
 10
-33.972500000000004
 20
-62.265300000000003
 30
0.0
 10
-33.972500000000004
 20
-62.265300000000003
 30
0.0
 10
-35.066099999999999
 20
-62.653300000000002
 30
0.0
 10
-36.2303
 20
-62.5122
 30
0.0
 10
-37.359200000000001
 20
-62.7239
 30
0.0
 10
-37.359200000000001
 20
-62.7239
 30
0.0
 10
-37.218000000000004
 20
-64.9816
 30
0.0
 10
-37.641400000000004
 20
-67.204099999999997
 30
0.0
 10
-38.346900000000005
 20
-69.356099999999998
 30
0.0
 10
-38.346900000000005
 20
-69.356099999999998
 30
0.0
 10
-38.558599999999998
 20
-66.710300000000004
 30
0.0
 10
-37.535499999999999
 20
-63.993900000000004
 30
0.0
 10
-38.205800000000004
 20
-61.348000000000006
 30
0.0
 10
-38.205800000000004
 20
-61.348000000000006
 30
0.0
 10
-38.523299999999999
 20
-60.571899999999999
 30
0.0
 10
-39.511099999999999
 20
-60.924700000000001
 30
0.0
 10
-40.146100000000004
 20
-60.854100000000003
 30
0.0
 10
-40.146100000000004
 20
-60.854100000000003
 30
0.0
 10
-40.251899999999999
 20
-61.630300000000005
 30
0.0
 10
-40.251899999999999
 20
-62.406400000000005
 30
0.0
 10
-40.287199999999999
 20
-63.147200000000005
 30
0.0
 10
-40.287199999999999
 20
-63.147200000000005
 30
0.0
 10
-44.485300000000002
 20
-62.829700000000003
 30
0.0
 10
-48.718600000000002
 20
-63.041400000000003
 30
0.0
 10
-52.916700000000006
 20
-62.970800000000004
 30
0.0
 10
-52.916700000000006
 20
-62.970800000000004
 30
0.0
 10
-52.916700000000006
 20
-62.970800000000004
 30
0.0
 10
-52.916700000000006
 20
-62.3005
 30
0.0
 10
-52.916700000000006
 20
-62.3005
 30
0.0
 10
-52.916700000000006
 20
-62.3005
 30
0.0
 10
-52.352200000000003
 20
-62.371100000000006
 30
0.0
 10
-52.140500000000003
 20
-62.124100000000006
 30
0.0
 10
-52.246400000000001
 20
-61.559699999999999
 30
0.0
 10
-52.246400000000001
 20
-61.559699999999999
 30
0.0
 10
-51.3292
 20
-57.255800000000001
 30
0.0
 10
-51.435000000000002
 20
-52.8461
 30
0.0
 10
-51.1175
 20
-48.471700000000006
 30
0.0
 10
-51.1175
 20
-48.471700000000006
 30
0.0
 10
-50.694200000000002
 20
-46.4255
 30
0.0
 10
-50.023900000000005
 20
-44.379400000000004
 30
0.0
 10
-50.1297
 20
-42.262799999999999
 30
0.0
  0
SPLINE
  5
70
100
AcDbEntity
  8
LAYER_1
 62
     8
100
AcDbSpline
210
0.0
220
0.0
230
1.0
 70
     0
 71
     3
 72
    16
 73
    12
 74
     0
 42
0.0000000001
 43
0.0000000001
 40
0.0
 40
0.0
 40
0.0
 40
0.0
 40
0.3333333333333333
 40
0.3333333333333333
 40
0.3333333333333333
 40
0.3333333333333333
 40
0.6666666666666666
 40
0.6666666666666666
 40
0.6666666666666666
 40
0.6666666666666666
 40
1.0
 40
1.0
 40
1.0
 40
1.0
 10
-41.592500000000001
 20
-57.679100000000005
 30
0.0
 10
-40.886900000000004
 20
-58.631600000000006
 30
0.0
 10
-40.110800000000005
 20
-59.548900000000003
 30
0.0
 10
-39.087800000000001
 20
-60.219100000000005
 30
0.0
 10
-39.087800000000001
 20
-60.219100000000005
 30
0.0
 10
-39.228900000000003
 20
-59.301900000000003
 30
0.0
 10
-39.6875
 20
-58.420000000000002
 30
0.0
 10
-40.322500000000005
 20
-57.749700000000004
 30
0.0
 10
-40.322500000000005
 20
-57.749700000000004
 30
0.0
 10
-40.745800000000003
 20
-57.679100000000005
 30
0.0
 10
-41.169200000000004
 20
-57.643900000000002
 30
0.0
 10
-41.592500000000001
 20
-57.679100000000005
 30
0.0
  0
SPLINE
  5
71
100
AcDbEntity
  8
LAYER_1
 62
     8
100
AcDbSpline
210
0.0
220
0.0
230
1.0
 70
     1
 71
     3
 72
    12
 73
     8
 74
     0
 42
0.0000000001
 43
0.0000000001
 40
0.0
 40
0.0
 40
0.0
 40
0.0
 40
0.5
 40
0.5
 40
0.5
 40
0.5
 40
1.0
 40
1.0
 40
1.0
 40
1.0
 10
-44.1678
 20
-59.690000000000005
 30
0.0
 10
-43.074200000000005
 20
-60.395500000000006
 30
0.0
 10
-41.733600000000003
 20
-60.713000000000001
 30
0.0
 10
-40.393000000000001
 20
-60.642500000000005
 30
0.0
 10
-40.393000000000001
 20
-60.642500000000005
 30
0.0
 10
-40.287199999999999
 20
-58.702200000000005
 30
0.0
 10
-43.285800000000002
 20
-57.467500000000001
 30
0.0
 10
-44.1678
 20
-59.690000000000005
 30
0.0
  0
SPLINE
  5
72
100
AcDbEntity
  8
LAYER_1
 62
     9
100
AcDbSpline
210
0.0
220
0.0
230
1.0
 70
     1
 71
     3
 72
    28
 73
    24
 74
     0
 42
0.0000000001
 43
0.0000000001
 40
0.0
 40
0.0
 40
0.0
 40
0.0
 40
0.1666666666666667
 40
0.1666666666666667
 40
0.1666666666666667
 40
0.1666666666666667
 40
0.3333333333333333
 40
0.3333333333333333
 40
0.3333333333333333
 40
0.3333333333333333
 40
0.5
 40
0.5
 40
0.5
 40
0.5
 40
0.6666666666666666
 40
0.6666666666666666
 40
0.6666666666666666
 40
0.6666666666666666
 40
0.8333333333333333
 40
0.8333333333333333
 40
0.8333333333333333
 40
0.8333333333333333
 40
1.0
 40
1.0
 40
1.0
 40
1.0
 10
50.800000000000004
 20
-45.190800000000003
 30
0.0
 10
50.800000000000004
 20
-45.190800000000003
 30
0.0
 10
51.258600000000001
 20
-45.402500000000003
 30
0.0
 10
51.258600000000001
 20
-45.402500000000003
 30
0.0
 10
51.258600000000001
 20
-45.402500000000003
 30
0.0
 10
51.505500000000005
 20
-46.390300000000003
 30
0.0
 10
51.258600000000001
 20
-47.342800000000004
 30
0.0
 10
51.152799999999999
 20
-48.295300000000005
 30
0.0
 10
51.152799999999999
 20
-48.295300000000005
 30
0.0
 10
52.07
 20
-49.459400000000002
 30
0.0
 10
52.07
 20
-51.364400000000003
 30
0.0
 10
52.387500000000003
 20
-52.881399999999999
 30
0.0
 10
52.387500000000003
 20
-52.881399999999999
 30
0.0
 10
52.211100000000002
 20
-52.669700000000006
 30
0.0
 10
52.034700000000001
 20
-52.493300000000005
 30
0.0
 10
51.8583
 20
-52.316900000000004
 30
0.0
 10
51.8583
 20
-52.316900000000004
 30
0.0
 10
51.258600000000001
 20
-50.270800000000001
 30
0.0
 10
50.905799999999999
 20
-48.118900000000004
 30
0.0
 10
50.729400000000005
 20
-46.002200000000002
 30
0.0
 10
50.729400000000005
 20
-46.002200000000002
 30
0.0
 10
50.729400000000005
 20
-45.790500000000002
 30
0.0
 10
50.764700000000005
 20
-45.402500000000003
 30
0.0
 10
50.800000000000004
 20
-45.190800000000003
 30
0.0
  0
SPLINE
  5
73
100
AcDbEntity
  8
LAYER_1
 62
    17
100
AcDbSpline
210
0.0
220
0.0
230
1.0
 70
     1
 71
     3
 72
    20
 73
    16
 74
     0
 42
0.0000000001
 43
0.0000000001
 40
0.0
 40
0.0
 40
0.0
 40
0.0
 40
0.25
 40
0.25
 40
0.25
 40
0.25
 40
0.5
 40
0.5
 40
0.5
 40
0.5
 40
0.75
 40
0.75
 40
0.75
 40
0.75
 40
1.0
 40
1.0
 40
1.0
 40
1.0
 10
50.3414
 20
-46.213900000000002
 30
0.0
 10
50.3414
 20
-46.213900000000002
 30
0.0
 10
50.729400000000005
 20
-46.002200000000002
 30
0.0
 10
50.729400000000005
 20
-46.002200000000002
 30
0.0
 10
50.729400000000005
 20
-46.002200000000002
 30
0.0
 10
50.905799999999999
 20
-48.118900000000004
 30
0.0
 10
51.258600000000001
 20
-50.270800000000001
 30
0.0
 10
51.8583
 20
-52.316900000000004
 30
0.0
 10
51.8583
 20
-52.316900000000004
 30
0.0
 10
51.8583
 20
-52.881399999999999
 30
0.0
 10
51.823
 20
-53.445800000000006
 30
0.0
 10
51.646700000000003
 20
-53.975000000000001
 30
0.0
 10
51.646700000000003
 20
-53.975000000000001
 30
0.0
 10
50.588300000000004
 20
-51.540800000000004
 30
0.0
 10
50.694200000000002
 20
-48.789200000000001
 30
0.0
 10
50.3414
 20
-46.213900000000002
 30
0.0
  0
SPLINE
  5
74
100
AcDbEntity
  8
LAYER_1
 62
     8
100
AcDbSpline
210
0.0
220
0.0
230
1.0
 70
     1
 71
     3
 72
   124
 73
   120
 74
     0
 42
0.0000000001
 43
0.0000000001
 40
0.0
 40
0.0
 40
0.0
 40
0.0
 40
0.0333333333333333
 40
0.0333333333333333
 40
0.0333333333333333
 40
0.0333333333333333
 40
0.0666666666666667
 40
0.0666666666666667
 40
0.0666666666666667
 40
0.0666666666666667
 40
0.1
 40
0.1
 40
0.1
 40
0.1
 40
0.1333333333333333
 40
0.1333333333333333
 40
0.1333333333333333
 40
0.1333333333333333
 40
0.1666666666666667
 40
0.1666666666666667
 40
0.1666666666666667
 40
0.1666666666666667
 40
0.2
 40
0.2
 40
0.2
 40
0.2
 40
0.2333333333333333
 40
0.2333333333333333
 40
0.2333333333333333
 40
0.2333333333333333
 40
0.2666666666666667
 40
0.2666666666666667
 40
0.2666666666666667
 40
0.2666666666666667
 40
0.3
 40
0.3
 40
0.3
 40
0.3
 40
0.3333333333333333
 40
0.3333333333333333
 40
0.3333333333333333
 40
0.3333333333333333
 40
0.3666666666666666
 40
0.3666666666666666
 40
0.3666666666666666
 40
0.3666666666666666
 40
0.4
 40
0.4
 40
0.4
 40
0.4
 40
0.4333333333333333
 40
0.4333333333333333
 40
0.4333333333333333
 40
0.4333333333333333
 40
0.4666666666666666
 40
0.4666666666666666
 40
0.4666666666666666
 40
0.4666666666666666
 40
0.4999999999999999
 40
0.4999999999999999
 40
0.4999999999999999
 40
0.4999999999999999
 40
0.5333333333333333
 40
0.5333333333333333
 40
0.5333333333333333
 40
0.5333333333333333
 40
0.5666666666666667
 40
0.5666666666666667
 40
0.5666666666666667
 40
0.5666666666666667
 40
0.6
 40
0.6
 40
0.6
 40
0.6
 40
0.6333333333333333
 40
0.6333333333333333
 40
0.6333333333333333
 40
0.6333333333333333
 40
0.6666666666666666
 40
0.6666666666666666
 40
0.6666666666666666
 40
0.6666666666666666
 40
0.7
 40
0.7
 40
0.7
 40
0.7
 40
0.7333333333333333
 40
0.7333333333333333
 40
0.7333333333333333
 40
0.7333333333333333
 40
0.7666666666666666
 40
0.7666666666666666
 40
0.7666666666666666
 40
0.7666666666666666
 40
0.7999999999999999
 40
0.7999999999999999
 40
0.7999999999999999
 40
0.7999999999999999
 40
0.8333333333333333
 40
0.8333333333333333
 40
0.8333333333333333
 40
0.8333333333333333
 40
0.8666666666666666
 40
0.8666666666666666
 40
0.8666666666666666
 40
0.8666666666666666
 40
0.8999999999999999
 40
0.8999999999999999
 40
0.8999999999999999
 40
0.8999999999999999
 40
0.9333333333333332
 40
0.9333333333333332
 40
0.9333333333333332
 40
0.9333333333333332
 40
0.9666666666666666
 40
0.9666666666666666
 40
0.9666666666666666
 40
0.9666666666666666
 40
1.0
 40
1.0
 40
1.0
 40
1.0
 10
40.992800000000003
 20
-52.881399999999999
 30
0.0
 10
42.580300000000001
 20
-51.681900000000006
 30
0.0
 10
44.344200000000001
 20
-50.200300000000006
 30
0.0
 10
46.460799999999999
 20
-50.517800000000001
 30
0.0
 10
46.460799999999999
 20
-50.517800000000001
 30
0.0
 10
47.201700000000002
 20
-50.517800000000001
 30
0.0
 10
48.965500000000006
 20
-50.447200000000002
 30
0.0
 10
48.506900000000002
 20
-51.576100000000004
 30
0.0
 10
48.506900000000002
 20
-51.576100000000004
 30
0.0
 10
47.942500000000003
 20
-51.470300000000002
 30
0.0
 10
47.378
 20
-51.258600000000001
 30
0.0
 10
46.813600000000001
 20
-51.1175
 30
0.0
 10
46.813600000000001
 20
-51.1175
 30
0.0
 10
47.272200000000005
 20
-51.8583
 30
0.0
 10
48.013000000000005
 20
-52.281700000000001
 30
0.0
 10
48.648000000000003
 20
-52.8461
 30
0.0
 10
48.648000000000003
 20
-52.8461
 30
0.0
 10
49.071400000000004
 20
-54.151400000000002
 30
0.0
 10
48.683300000000003
 20
-55.597799999999999
 30
0.0
 10
49.106700000000004
 20
-56.903000000000006
 30
0.0
 10
49.106700000000004
 20
-56.903000000000006
 30
0.0
 10
49.671100000000003
 20
-58.596400000000003
 30
0.0
 10
48.824400000000004
 20
-60.501400000000004
 30
0.0
 10
49.882800000000003
 20
-62.053600000000003
 30
0.0
 10
49.882800000000003
 20
-62.053600000000003
 30
0.0
 10
50.905799999999999
 20
-62.088900000000002
 30
0.0
 10
51.928900000000006
 20
-62.053600000000003
 30
0.0
 10
52.916700000000006
 20
-62.3005
 30
0.0
 10
52.916700000000006
 20
-62.3005
 30
0.0
 10
52.916700000000006
 20
-62.3005
 30
0.0
 10
52.916700000000006
 20
-63.041400000000003
 30
0.0
 10
52.916700000000006
 20
-63.041400000000003
 30
0.0
 10
52.916700000000006
 20
-63.041400000000003
 30
0.0
 10
49.283000000000001
 20
-62.935500000000005
 30
0.0
 10
45.614200000000004
 20
-63.006100000000004
 30
0.0
 10
41.980499999999999
 20
-62.865000000000002
 30
0.0
 10
41.980499999999999
 20
-62.865000000000002
 30
0.0
 10
40.498899999999999
 20
-62.582800000000006
 30
0.0
 10
39.722799999999999
 20
-64.593600000000009
 30
0.0
 10
38.170500000000004
 20
-63.958600000000004
 30
0.0
 10
38.170500000000004
 20
-63.958600000000004
 30
0.0
 10
37.9589
 20
-63.111900000000006
 30
0.0
 10
39.299399999999999
 20
-63.5
 30
0.0
 10
39.793300000000002
 20
-63.217800000000004
 30
0.0
 10
39.793300000000002
 20
-63.217800000000004
 30
0.0
 10
40.040300000000002
 20
-61.559699999999999
 30
0.0
 10
39.722799999999999
 20
-59.548900000000003
 30
0.0
 10
41.4161
 20
-58.561100000000003
 30
0.0
 10
41.4161
 20
-58.561100000000003
 30
0.0
 10
41.4161
 20
-58.702200000000005
 30
0.0
 10
41.486699999999999
 20
-59.055
 30
0.0
 10
41.521900000000002
 20
-59.196100000000001
 30
0.0
 10
41.521900000000002
 20
-59.196100000000001
 30
0.0
 10
41.274999999999999
 20
-59.619400000000006
 30
0.0
 10
41.027999999999999
 20
-60.0428
 30
0.0
 10
40.816400000000002
 20
-60.501400000000004
 30
0.0
 10
40.816400000000002
 20
-60.501400000000004
 30
0.0
 10
42.015799999999999
 20
-60.571899999999999
 30
0.0
 10
43.250500000000002
 20
-60.501400000000004
 30
0.0
 10
44.450000000000003
 20
-60.148600000000002
 30
0.0
 10
44.450000000000003
 20
-60.148600000000002
 30
0.0
 10
44.308900000000001
 20
-59.090300000000006
 30
0.0
 10
43.638600000000004
 20
-57.820300000000003
 30
0.0
 10
42.368600000000001
 20
-58.173000000000002
 30
0.0
 10
42.368600000000001
 20
-58.173000000000002
 30
0.0
 10
42.227499999999999
 20
-57.608600000000003
 30
0.0
 10
42.1569
 20
-57.008900000000004
 30
0.0
 10
41.910000000000004
 20
-56.479700000000001
 30
0.0
 10
41.910000000000004
 20
-56.479700000000001
 30
0.0
 10
41.521900000000002
 20
-56.409100000000002
 30
0.0
 10
41.133900000000004
 20
-56.373900000000006
 30
0.0
 10
40.745800000000003
 20
-56.3386
 30
0.0
 10
40.745800000000003
 20
-56.3386
 30
0.0
 10
40.534199999999998
 20
-56.0916
 30
0.0
 10
40.357800000000005
 20
-55.809400000000004
 30
0.0
 10
40.181400000000004
 20
-55.527200000000001
 30
0.0
 10
40.181400000000004
 20
-55.527200000000001
 30
0.0
 10
40.922200000000004
 20
-54.892200000000003
 30
0.0
 10
41.874700000000004
 20
-54.433600000000006
 30
0.0
 10
42.368600000000001
 20
-53.5869
 30
0.0
 10
42.368600000000001
 20
-53.5869
 30
0.0
 10
42.686100000000003
 20
-53.763300000000001
 30
0.0
 10
43.003599999999999
 20
-53.939700000000002
 30
0.0
 10
43.321100000000001
 20
-54.116100000000003
 30
0.0
 10
43.321100000000001
 20
-54.116100000000003
 30
0.0
 10
42.968299999999999
 20
-54.398300000000006
 30
0.0
 10
42.615500000000004
 20
-54.680500000000002
 30
0.0
 10
42.262799999999999
 20
-54.998000000000005
 30
0.0
 10
42.262799999999999
 20
-54.998000000000005
 30
0.0
 10
41.980499999999999
 20
-57.573300000000003
 30
0.0
 10
45.8964
 20
-58.384700000000002
 30
0.0
 10
44.696899999999999
 20
-61.101100000000002
 30
0.0
 10
44.696899999999999
 20
-61.101100000000002
 30
0.0
 10
43.285800000000002
 20
-61.312800000000003
 30
0.0
 10
41.804200000000002
 20
-61.171600000000005
 30
0.0
 10
40.498899999999999
 20
-61.7714
 30
0.0
 10
40.498899999999999
 20
-61.7714
 30
0.0
 10
42.968299999999999
 20
-61.7361
 30
0.0
 10
45.437800000000003
 20
-62.688600000000001
 30
0.0
 10
47.8367
 20
-62.124100000000006
 30
0.0
 10
47.8367
 20
-62.124100000000006
 30
0.0
 10
48.083600000000004
 20
-60.0428
 30
0.0
 10
48.789200000000001
 20
-56.620800000000003
 30
0.0
 10
45.825800000000001
 20
-56.3033
 30
0.0
 10
45.825800000000001
 20
-56.3033
 30
0.0
 10
46.213900000000002
 20
-56.056400000000004
 30
0.0
 10
46.566700000000004
 20
-55.844700000000003
 30
0.0
 10
46.954700000000003
 20
-55.597799999999999
 30
0.0
 10
46.954700000000003
 20
-55.597799999999999
 30
0.0
 10
46.743000000000002
 20
-55.3508
 30
0.0
 10
46.566700000000004
 20
-55.068600000000004
 30
0.0
 10
46.355000000000004
 20
-54.821600000000004
 30
0.0
 10
46.355000000000004
 20
-54.821600000000004
 30
0.0
 10
46.496100000000006
 20
-54.7864
 30
0.0
 10
46.778300000000002
 20
-54.751100000000001
 30
0.0
 10
46.954700000000003
 20
-54.715800000000002
 30
0.0
 10
46.954700000000003
 20
-54.715800000000002
 30
0.0
 10
45.790500000000002
 20
-52.387500000000003
 30
0.0
 10
43.109400000000001
 20
-52.8108
 30
0.0
 10
40.992800000000003
 20
-52.881399999999999
 30
0.0
  0
SPLINE
  5
75
100
AcDbEntity
  8
LAYER_1
 62
    17
100
AcDbSpline
210
0.0
220
0.0
230
1.0
 70
     1
 71
     3
 72
    24
 73
    20
 74
     0
 42
0.0000000001
 43
0.0000000001
 40
0.0
 40
0.0
 40
0.0
 40
0.0
 40
0.2
 40
0.2
 40
0.2
 40
0.2
 40
0.4
 40
0.4
 40
0.4
 40
0.4
 40
0.6000000000000001
 40
0.6000000000000001
 40
0.6000000000000001
 40
0.6000000000000001
 40
0.8
 40
0.8
 40
0.8
 40
0.8
 40
1.0
 40
1.0
 40
1.0
 40
1.0
 10
-45.437800000000003
 20
-53.163600000000002
 30
0.0
 10
-42.015799999999999
 20
-51.576100000000004
 30
0.0
 10
-38.417500000000004
 20
-53.410500000000006
 30
0.0
 10
-34.960300000000004
 20
-53.8339
 30
0.0
 10
-34.960300000000004
 20
-53.8339
 30
0.0
 10
-31.2561
 20
-55.103900000000003
 30
0.0
 10
-27.128600000000002
 20
-54.645300000000006
 30
0.0
 10
-23.495000000000001
 20
-55.844700000000003
 30
0.0
 10
-23.495000000000001
 20
-55.844700000000003
 30
0.0
 10
-28.575000000000003
 20
-56.197500000000005
 30
0.0
 10
-33.584400000000002
 20
-55.068600000000004
 30
0.0
 10
-38.488
 20
-53.904400000000003
 30
0.0
 10
-38.488
 20
-53.904400000000003
 30
0.0
 10
-41.592500000000001
 20
-52.987200000000001
 30
0.0
 10
-45.543600000000005
 20
-52.987200000000001
 30
0.0
 10
-47.554400000000001
 20
-55.880000000000003
 30
0.0
 10
-47.554400000000001
 20
-55.880000000000003
 30
0.0
 10
-47.483900000000006
 20
-54.645300000000006
 30
0.0
 10
-46.284400000000005
 20
-53.904400000000003
 30
0.0
 10
-45.437800000000003
 20
-53.163600000000002
 30
0.0
  0
SPLINE
  5
76
100
AcDbEntity
  8
LAYER_1
 62
    17
100
AcDbSpline
210
0.0
220
0.0
230
1.0
 70
     1
 71
     3
 72
    44
 73
    40
 74
     0
 42
0.0000000001
 43
0.0000000001
 40
0.0
 40
0.0
 40
0.0
 40
0.0
 40
0.1
 40
0.1
 40
0.1
 40
0.1
 40
0.2
 40
0.2
 40
0.2
 40
0.2
 40
0.3
 40
0.3
 40
0.3
 40
0.3
 40
0.4
 40
0.4
 40
0.4
 40
0.4
 40
0.5
 40
0.5
 40
0.5
 40
0.5
 40
0.6
 40
0.6
 40
0.6
 40
0.6
 40
0.7
 40
0.7
 40
0.7
 40
0.7
 40
0.7999999999999999
 40
0.7999999999999999
 40
0.7999999999999999
 40
0.7999999999999999
 40
0.8999999999999999
 40
0.8999999999999999
 40
0.8999999999999999
 40
0.8999999999999999
 40
1.0
 40
1.0
 40
1.0
 40
1.0
 10
40.992800000000003
 20
-52.881399999999999
 30
0.0
 10
43.109400000000001
 20
-52.8108
 30
0.0
 10
45.790500000000002
 20
-52.387500000000003
 30
0.0
 10
46.954700000000003
 20
-54.715800000000002
 30
0.0
 10
46.954700000000003
 20
-54.715800000000002
 30
0.0
 10
46.778300000000002
 20
-54.751100000000001
 30
0.0
 10
46.496100000000006
 20
-54.7864
 30
0.0
 10
46.355000000000004
 20
-54.821600000000004
 30
0.0
 10
46.355000000000004
 20
-54.821600000000004
 30
0.0
 10
45.402500000000003
 20
-54.327800000000003
 30
0.0
 10
44.379400000000004
 20
-53.128300000000003
 30
0.0
 10
43.321100000000001
 20
-54.116100000000003
 30
0.0
 10
43.321100000000001
 20
-54.116100000000003
 30
0.0
 10
43.003599999999999
 20
-53.939700000000002
 30
0.0
 10
42.686100000000003
 20
-53.763300000000001
 30
0.0
 10
42.368600000000001
 20
-53.5869
 30
0.0
 10
42.368600000000001
 20
-53.5869
 30
0.0
 10
36.512500000000003
 20
-55.174400000000006
 30
0.0
 10
30.444700000000001
 20
-56.197500000000005
 30
0.0
 10
24.376900000000003
 20
-56.479700000000001
 30
0.0
 10
24.376900000000003
 20
-56.479700000000001
 30
0.0
 10
14.075800000000001
 20
-57.255800000000001
 30
0.0
 10
3.7394000000000003
 20
-57.961400000000005
 30
0.0
 10
-6.5969000000000007
 20
-57.3264
 30
0.0
 10
-6.5969000000000007
 20
-57.3264
 30
0.0
 10
-5.4681000000000006
 20
-56.726600000000005
 30
0.0
 10
-4.1627999999999998
 20
-56.726600000000005
 30
0.0
 10
-2.9281000000000001
 20
-56.726600000000005
 30
0.0
 10
-2.9281000000000001
 20
-56.726600000000005
 30
0.0
 10
-0.0706
 20
-56.761900000000004
 30
0.0
 10
2.7869000000000002
 20
-56.867800000000003
 30
0.0
 10
5.6444000000000001
 20
-56.691400000000002
 30
0.0
 10
5.6444000000000001
 20
-56.691400000000002
 30
0.0
 10
16.898099999999999
 20
-56.3033
 30
0.0
 10
28.328000000000003
 20
-56.0916
 30
0.0
 10
39.370000000000005
 20
-53.5869
 30
0.0
 10
39.370000000000005
 20
-53.5869
 30
0.0
 10
39.969700000000003
 20
-53.481100000000005
 30
0.0
 10
40.534199999999998
 20
-53.269400000000005
 30
0.0
 10
40.992800000000003
 20
-52.881399999999999
 30
0.0
  0
SPLINE
  5
77
100
AcDbEntity
  8
LAYER_1
 62
     9
100
AcDbSpline
210
0.0
220
0.0
230
1.0
 70
     1
 71
     3
 72
    36
 73
    32
 74
     0
 42
0.0000000001
 43
0.0000000001
 40
0.0
 40
0.0
 40
0.0
 40
0.0
 40
0.125
 40
0.125
 40
0.125
 40
0.125
 40
0.25
 40
0.25
 40
0.25
 40
0.25
 40
0.375
 40
0.375
 40
0.375
 40
0.375
 40
0.5
 40
0.5
 40
0.5
 40
0.5
 40
0.625
 40
0.625
 40
0.625
 40
0.625
 40
0.75
 40
0.75
 40
0.75
 40
0.75
 40
0.875
 40
0.875
 40
0.875
 40
0.875
 40
1.0
 40
1.0
 40
1.0
 40
1.0
 10
43.321100000000001
 20
-54.116100000000003
 30
0.0
 10
44.379400000000004
 20
-53.128300000000003
 30
0.0
 10
45.402500000000003
 20
-54.327800000000003
 30
0.0
 10
46.355000000000004
 20
-54.821600000000004
 30
0.0
 10
46.355000000000004
 20
-54.821600000000004
 30
0.0
 10
46.566700000000004
 20
-55.068600000000004
 30
0.0
 10
46.743000000000002
 20
-55.3508
 30
0.0
 10
46.954700000000003
 20
-55.597799999999999
 30
0.0
 10
46.954700000000003
 20
-55.597799999999999
 30
0.0
 10
46.566700000000004
 20
-55.844700000000003
 30
0.0
 10
46.213900000000002
 20
-56.056400000000004
 30
0.0
 10
45.825800000000001
 20
-56.3033
 30
0.0
 10
45.825800000000001
 20
-56.3033
 30
0.0
 10
48.789200000000001
 20
-56.620800000000003
 30
0.0
 10
48.083600000000004
 20
-60.0428
 30
0.0
 10
47.8367
 20
-62.124100000000006
 30
0.0
 10
47.8367
 20
-62.124100000000006
 30
0.0
 10
45.437800000000003
 20
-62.688600000000001
 30
0.0
 10
42.968299999999999
 20
-61.7361
 30
0.0
 10
40.498899999999999
 20
-61.7714
 30
0.0
 10
40.498899999999999
 20
-61.7714
 30
0.0
 10
41.804200000000002
 20
-61.171600000000005
 30
0.0
 10
43.285800000000002
 20
-61.312800000000003
 30
0.0
 10
44.696899999999999
 20
-61.101100000000002
 30
0.0
 10
44.696899999999999
 20
-61.101100000000002
 30
0.0
 10
45.8964
 20
-58.384700000000002
 30
0.0
 10
41.980499999999999
 20
-57.573300000000003
 30
0.0
 10
42.262799999999999
 20
-54.998000000000005
 30
0.0
 10
42.262799999999999
 20
-54.998000000000005
 30
0.0
 10
42.615500000000004
 20
-54.680500000000002
 30
0.0
 10
42.968299999999999
 20
-54.398300000000006
 30
0.0
 10
43.321100000000001
 20
-54.116100000000003
 30
0.0
  0
SPLINE
  5
78
100
AcDbEntity
  8
LAYER_1
 62
    17
100
AcDbSpline
210
0.0
220
0.0
230
1.0
 70
     1
 71
     3
 72
    12
 73
     8
 74
     0
 42
0.0000000001
 43
0.0000000001
 40
0.0
 40
0.0
 40
0.0
 40
0.0
 40
0.5
 40
0.5
 40
0.5
 40
0.5
 40
1.0
 40
1.0
 40
1.0
 40
1.0
 10
49.671100000000003
 20
-55.809400000000004
 30
0.0
 10
50.1297
 20
-55.456600000000002
 30
0.0
 10
50.623600000000003
 20
-55.103900000000003
 30
0.0
 10
51.188000000000002
 20
-54.856900000000003
 30
0.0
 10
51.188000000000002
 20
-54.856900000000003
 30
0.0
 10
52.387500000000003
 20
-55.844700000000003
 30
0.0
 10
50.411900000000003
 20
-56.409100000000002
 30
0.0
 10
49.671100000000003
 20
-55.809400000000004
 30
0.0
  0
SPLINE
  5
79
100
AcDbEntity
  8
LAYER_1
 62
     8
100
AcDbSpline
210
0.0
220
0.0
230
1.0
 70
     1
 71
     3
 72
    24
 73
    20
 74
     0
 42
0.0000000001
 43
0.0000000001
 40
0.0
 40
0.0
 40
0.0
 40
0.0
 40
0.2
 40
0.2
 40
0.2
 40
0.2
 40
0.4
 40
0.4
 40
0.4
 40
0.4
 40
0.6000000000000001
 40
0.6000000000000001
 40
0.6000000000000001
 40
0.6000000000000001
 40
0.8
 40
0.8
 40
0.8
 40
0.8
 40
1.0
 40
1.0
 40
1.0
 40
1.0
 10
-11.6417
 20
-56.3033
 30
0.0
 10
-8.7489000000000008
 20
-55.985800000000005
 30
0.0
 10
-5.7149999999999999
 20
-55.950500000000005
 30
0.0
 10
-2.9281000000000001
 20
-56.726600000000005
 30
0.0
 10
-2.9281000000000001
 20
-56.726600000000005
 30
0.0
 10
-4.1627999999999998
 20
-56.726600000000005
 30
0.0
 10
-5.4681000000000006
 20
-56.726600000000005
 30
0.0
 10
-6.5969000000000007
 20
-57.3264
 30
0.0
 10
-6.5969000000000007
 20
-57.3264
 30
0.0
 10
-11.9239
 20
-57.0794
 30
0.0
 10
-17.3567
 20
-57.150000000000006
 30
0.0
 10
-22.648300000000003
 20
-56.373900000000006
 30
0.0
 10
-22.648300000000003
 20
-56.373900000000006
 30
0.0
 10
-21.907500000000002
 20
-56.3033
 30
0.0
 10
-21.201900000000002
 20
-56.126900000000006
 30
0.0
 10
-20.496400000000001
 20
-55.915300000000002
 30
0.0
 10
-20.496400000000001
 20
-55.915300000000002
 30
0.0
 10
-17.533100000000001
 20
-55.950500000000005
 30
0.0
 10
-14.605
 20
-56.373900000000006
 30
0.0
 10
-11.6417
 20
-56.3033
 30
0.0
  0
SPLINE
  5
7A
100
AcDbEntity
  8
LAYER_1
 62
    17
100
AcDbSpline
210
0.0
220
0.0
230
1.0
 70
     1
 71
     3
 72
    48
 73
    44
 74
     0
 42
0.0000000001
 43
0.0000000001
 40
0.0
 40
0.0
 40
0.0
 40
0.0
 40
0.0909090909090909
 40
0.0909090909090909
 40
0.0909090909090909
 40
0.0909090909090909
 40
0.1818181818181818
 40
0.1818181818181818
 40
0.1818181818181818
 40
0.1818181818181818
 40
0.2727272727272727
 40
0.2727272727272727
 40
0.2727272727272727
 40
0.2727272727272727
 40
0.3636363636363637
 40
0.3636363636363637
 40
0.3636363636363637
 40
0.3636363636363637
 40
0.4545454545454546
 40
0.4545454545454546
 40
0.4545454545454546
 40
0.4545454545454546
 40
0.5454545454545455
 40
0.5454545454545455
 40
0.5454545454545455
 40
0.5454545454545455
 40
0.6363636363636365
 40
0.6363636363636365
 40
0.6363636363636365
 40
0.6363636363636365
 40
0.7272727272727274
 40
0.7272727272727274
 40
0.7272727272727274
 40
0.7272727272727274
 40
0.8181818181818183
 40
0.8181818181818183
 40
0.8181818181818183
 40
0.8181818181818183
 40
0.9090909090909093
 40
0.9090909090909093
 40
0.9090909090909093
 40
0.9090909090909093
 40
1.0
 40
1.0
 40
1.0
 40
1.0
 10
37.288600000000002
 20
-59.407800000000002
 30
0.0
 10
38.276400000000002
 20
-58.102500000000006
 30
0.0
 10
38.770299999999999
 20
-56.444400000000002
 30
0.0
 10
40.181400000000004
 20
-55.527200000000001
 30
0.0
 10
40.181400000000004
 20
-55.527200000000001
 30
0.0
 10
40.357800000000005
 20
-55.809400000000004
 30
0.0
 10
40.534199999999998
 20
-56.0916
 30
0.0
 10
40.745800000000003
 20
-56.3386
 30
0.0
 10
40.745800000000003
 20
-56.3386
 30
0.0
 10
41.133900000000004
 20
-56.373900000000006
 30
0.0
 10
41.521900000000002
 20
-56.409100000000002
 30
0.0
 10
41.910000000000004
 20
-56.479700000000001
 30
0.0
 10
41.910000000000004
 20
-56.479700000000001
 30
0.0
 10
42.1569
 20
-57.008900000000004
 30
0.0
 10
42.227499999999999
 20
-57.608600000000003
 30
0.0
 10
42.368600000000001
 20
-58.173000000000002
 30
0.0
 10
42.368600000000001
 20
-58.173000000000002
 30
0.0
 10
42.086400000000005
 20
-58.525800000000004
 30
0.0
 10
41.804200000000002
 20
-58.878600000000006
 30
0.0
 10
41.521900000000002
 20
-59.196100000000001
 30
0.0
 10
41.521900000000002
 20
-59.196100000000001
 30
0.0
 10
41.486699999999999
 20
-59.055
 30
0.0
 10
41.4161
 20
-58.702200000000005
 30
0.0
 10
41.4161
 20
-58.561100000000003
 30
0.0
 10
41.4161
 20
-58.561100000000003
 30
0.0
 10
41.380800000000001
 20
-58.384700000000002
 30
0.0
 10
41.310300000000005
 20
-58.102500000000006
 30
0.0
 10
41.310300000000005
 20
-57.961400000000005
 30
0.0
 10
41.310300000000005
 20
-57.961400000000005
 30
0.0
 10
40.216700000000003
 20
-57.890800000000006
 30
0.0
 10
38.770299999999999
 20
-57.714400000000005
 30
0.0
 10
38.346900000000005
 20
-59.0197
 30
0.0
 10
38.346900000000005
 20
-59.0197
 30
0.0
 10
38.029400000000003
 20
-59.337200000000003
 30
0.0
 10
37.7119
 20
-59.654700000000005
 30
0.0
 10
37.323900000000002
 20
-59.936900000000001
 30
0.0
 10
37.323900000000002
 20
-59.936900000000001
 30
0.0
 10
36.336100000000002
 20
-59.936900000000001
 30
0.0
 10
35.418900000000001
 20
-59.690000000000005
 30
0.0
 10
34.4664
 20
-59.513600000000004
 30
0.0
 10
34.4664
 20
-59.513600000000004
 30
0.0
 10
35.383600000000001
 20
-59.160800000000002
 30
0.0
 10
36.336100000000002
 20
-59.478300000000004
 30
0.0
 10
37.288600000000002
 20
-59.407800000000002
 30
0.0
  0
SPLINE
  5
7B
100
AcDbEntity
  8
LAYER_1
 62
    17
100
AcDbSpline
210
0.0
220
0.0
230
1.0
 70
     1
 71
     3
 72
    16
 73
    12
 74
     0
 42
0.0000000001
 43
0.0000000001
 40
0.0
 40
0.0
 40
0.0
 40
0.0
 40
0.3333333333333333
 40
0.3333333333333333
 40
0.3333333333333333
 40
0.3333333333333333
 40
0.6666666666666666
 40
0.6666666666666666
 40
0.6666666666666666
 40
0.6666666666666666
 40
1.0
 40
1.0
 40
1.0
 40
1.0
 10
-22.8247
 20
-56.232800000000005
 30
0.0
 10
-22.613
 20
-55.280300000000004
 30
0.0
 10
-21.201900000000002
 20
-55.950500000000005
 30
0.0
 10
-20.496400000000001
 20
-55.915300000000002
 30
0.0
 10
-20.496400000000001
 20
-55.915300000000002
 30
0.0
 10
-21.201900000000002
 20
-56.126900000000006
 30
0.0
 10
-21.907500000000002
 20
-56.3033
 30
0.0
 10
-22.648300000000003
 20
-56.373900000000006
 30
0.0
 10
-22.648300000000003
 20
-56.373900000000006
 30
0.0
 10
-22.648300000000003
 20
-56.373900000000006
 30
0.0
 10
-22.8247
 20
-56.232800000000005
 30
0.0
 10
-22.8247
 20
-56.232800000000005
 30
0.0
  0
SPLINE
  5
7C
100
AcDbEntity
  8
LAYER_1
 62
     9
100
AcDbSpline
210
0.0
220
0.0
230
1.0
 70
     1
 71
     3
 72
    16
 73
    12
 74
     0
 42
0.0000000001
 43
0.0000000001
 40
0.0
 40
0.0
 40
0.0
 40
0.0
 40
0.3333333333333333
 40
0.3333333333333333
 40
0.3333333333333333
 40
0.3333333333333333
 40
0.6666666666666666
 40
0.6666666666666666
 40
0.6666666666666666
 40
0.6666666666666666
 40
1.0
 40
1.0
 40
1.0
 40
1.0
 10
-41.592500000000001
 20
-57.679100000000005
 30
0.0
 10
-41.169200000000004
 20
-57.643900000000002
 30
0.0
 10
-40.745800000000003
 20
-57.679100000000005
 30
0.0
 10
-40.322500000000005
 20
-57.749700000000004
 30
0.0
 10
-40.322500000000005
 20
-57.749700000000004
 30
0.0
 10
-39.6875
 20
-58.420000000000002
 30
0.0
 10
-39.228900000000003
 20
-59.301900000000003
 30
0.0
 10
-39.087800000000001
 20
-60.219100000000005
 30
0.0
 10
-39.087800000000001
 20
-60.219100000000005
 30
0.0
 10
-40.110800000000005
 20
-59.548900000000003
 30
0.0
 10
-40.886900000000004
 20
-58.631600000000006
 30
0.0
 10
-41.592500000000001
 20
-57.679100000000005
 30
0.0
  0
SPLINE
  5
7D
100
AcDbEntity
  8
LAYER_1
 62
     9
100
AcDbSpline
210
0.0
220
0.0
230
1.0
 70
     1
 71
     3
 72
    60
 73
    56
 74
     0
 42
0.0000000001
 43
0.0000000001
 40
0.0
 40
0.0
 40
0.0
 40
0.0
 40
0.0714285714285714
 40
0.0714285714285714
 40
0.0714285714285714
 40
0.0714285714285714
 40
0.1428571428571429
 40
0.1428571428571429
 40
0.1428571428571429
 40
0.1428571428571429
 40
0.2142857142857143
 40
0.2142857142857143
 40
0.2142857142857143
 40
0.2142857142857143
 40
0.2857142857142857
 40
0.2857142857142857
 40
0.2857142857142857
 40
0.2857142857142857
 40
0.3571428571428571
 40
0.3571428571428571
 40
0.3571428571428571
 40
0.3571428571428571
 40
0.4285714285714285
 40
0.4285714285714285
 40
0.4285714285714285
 40
0.4285714285714285
 40
0.4999999999999999
 40
0.4999999999999999
 40
0.4999999999999999
 40
0.4999999999999999
 40
0.5714285714285713
 40
0.5714285714285713
 40
0.5714285714285713
 40
0.5714285714285713
 40
0.6428571428571427
 40
0.6428571428571427
 40
0.6428571428571427
 40
0.6428571428571427
 40
0.7142857142857141
 40
0.7142857142857141
 40
0.7142857142857141
 40
0.7142857142857141
 40
0.7857142857142855
 40
0.7857142857142855
 40
0.7857142857142855
 40
0.7857142857142855
 40
0.8571428571428569
 40
0.8571428571428569
 40
0.8571428571428569
 40
0.8571428571428569
 40
0.9285714285714283
 40
0.9285714285714283
 40
0.9285714285714283
 40
0.9285714285714283
 40
1.0
 40
1.0
 40
1.0
 40
1.0
 10
38.346900000000005
 20
-59.0197
 30
0.0
 10
38.770299999999999
 20
-57.714400000000005
 30
0.0
 10
40.216700000000003
 20
-57.890800000000006
 30
0.0
 10
41.310300000000005
 20
-57.961400000000005
 30
0.0
 10
41.310300000000005
 20
-57.961400000000005
 30
0.0
 10
41.310300000000005
 20
-58.102500000000006
 30
0.0
 10
41.380800000000001
 20
-58.384700000000002
 30
0.0
 10
41.4161
 20
-58.561100000000003
 30
0.0
 10
41.4161
 20
-58.561100000000003
 30
0.0
 10
39.722799999999999
 20
-59.548900000000003
 30
0.0
 10
40.040300000000002
 20
-61.559699999999999
 30
0.0
 10
39.793300000000002
 20
-63.217800000000004
 30
0.0
 10
39.793300000000002
 20
-63.217800000000004
 30
0.0
 10
39.299399999999999
 20
-63.5
 30
0.0
 10
37.9589
 20
-63.111900000000006
 30
0.0
 10
38.170500000000004
 20
-63.958600000000004
 30
0.0
 10
38.170500000000004
 20
-63.958600000000004
 30
0.0
 10
39.722799999999999
 20
-64.593600000000009
 30
0.0
 10
40.498899999999999
 20
-62.582800000000006
 30
0.0
 10
41.980499999999999
 20
-62.865000000000002
 30
0.0
 10
41.980499999999999
 20
-62.865000000000002
 30
0.0
 10
45.614200000000004
 20
-63.006100000000004
 30
0.0
 10
49.283000000000001
 20
-62.935500000000005
 30
0.0
 10
52.916700000000006
 20
-63.041400000000003
 30
0.0
 10
52.916700000000006
 20
-63.041400000000003
 30
0.0
 10
52.916700000000006
 20
-63.041400000000003
 30
0.0
 10
52.916700000000006
 20
-66.427999999999997
 30
0.0
 10
52.916700000000006
 20
-66.427999999999997
 30
0.0
 10
52.916700000000006
 20
-66.427999999999997
 30
0.0
 10
52.669700000000006
 20
-66.286900000000003
 30
0.0
 10
52.387500000000003
 20
-66.181100000000001
 30
0.0
 10
52.140500000000003
 20
-66.075299999999999
 30
0.0
 10
52.140500000000003
 20
-66.075299999999999
 30
0.0
 10
48.789200000000001
 20
-68.509399999999999
 30
0.0
 10
44.379400000000004
 20
-64.311400000000006
 30
0.0
 10
41.2044
 20
-67.27470000000001
 30
0.0
 10
41.2044
 20
-67.27470000000001
 30
0.0
 10
40.957500000000003
 20
-67.027799999999999
 30
0.0
 10
40.710500000000003
 20
-66.745500000000007
 30
0.0
 10
40.4636
 20
-66.498599999999996
 30
0.0
 10
40.4636
 20
-66.498599999999996
 30
0.0
 10
40.710500000000003
 20
-67.486400000000003
 30
0.0
 10
41.063300000000005
 20
-68.544700000000006
 30
0.0
 10
41.980499999999999
 20
-69.073900000000009
 30
0.0
 10
41.980499999999999
 20
-69.073900000000009
 30
0.0
 10
41.980499999999999
 20
-69.25030000000001
 30
0.0
 10
41.945300000000003
 20
-69.603000000000009
 30
0.0
 10
41.910000000000004
 20
-69.77940000000001
 30
0.0
 10
41.910000000000004
 20
-69.77940000000001
 30
0.0
 10
40.992800000000003
 20
-69.744100000000003
 30
0.0
 10
40.075500000000005
 20
-69.603000000000009
 30
0.0
 10
39.193600000000004
 20
-69.391400000000004
 30
0.0
 10
39.193600000000004
 20
-69.391400000000004
 30
0.0
 10
36.477200000000003
 20
-66.569100000000006
 30
0.0
 10
37.7119
 20
-62.406400000000005
 30
0.0
 10
38.346900000000005
 20
-59.0197
 30
0.0
  0
SPLINE
  5
7E
100
AcDbEntity
  8
LAYER_1
 62
     9
100
AcDbSpline
210
0.0
220
0.0
230
1.0
 70
     1
 71
     3
 72
    20
 73
    16
 74
     0
 42
0.0000000001
 43
0.0000000001
 40
0.0
 40
0.0
 40
0.0
 40
0.0
 40
0.25
 40
0.25
 40
0.25
 40
0.25
 40
0.5
 40
0.5
 40
0.5
 40
0.5
 40
0.75
 40
0.75
 40
0.75
 40
0.75
 40
1.0
 40
1.0
 40
1.0
 40
1.0
 10
42.368600000000001
 20
-58.173000000000002
 30
0.0
 10
43.638600000000004
 20
-57.820300000000003
 30
0.0
 10
44.308900000000001
 20
-59.090300000000006
 30
0.0
 10
44.450000000000003
 20
-60.148600000000002
 30
0.0
 10
44.450000000000003
 20
-60.148600000000002
 30
0.0
 10
43.250500000000002
 20
-60.501400000000004
 30
0.0
 10
42.015799999999999
 20
-60.571899999999999
 30
0.0
 10
40.816400000000002
 20
-60.501400000000004
 30
0.0
 10
40.816400000000002
 20
-60.501400000000004
 30
0.0
 10
41.027999999999999
 20
-60.0428
 30
0.0
 10
41.274999999999999
 20
-59.619400000000006
 30
0.0
 10
41.521900000000002
 20
-59.196100000000001
 30
0.0
 10
41.521900000000002
 20
-59.196100000000001
 30
0.0
 10
41.804200000000002
 20
-58.878600000000006
 30
0.0
 10
42.086400000000005
 20
-58.525800000000004
 30
0.0
 10
42.368600000000001
 20
-58.173000000000002
 30
0.0
  0
SPLINE
  5
7F
100
AcDbEntity
  8
LAYER_1
 62
     9
100
AcDbSpline
210
0.0
220
0.0
230
1.0
 70
     1
 71
     3
 72
    12
 73
     8
 74
     0
 42
0.0000000001
 43
0.0000000001
 40
0.0
 40
0.0
 40
0.0
 40
0.0
 40
0.5
 40
0.5
 40
0.5
 40
0.5
 40
1.0
 40
1.0
 40
1.0
 40
1.0
 10
-44.1678
 20
-59.690000000000005
 30
0.0
 10
-43.285800000000002
 20
-57.467500000000001
 30
0.0
 10
-40.287199999999999
 20
-58.702200000000005
 30
0.0
 10
-40.393000000000001
 20
-60.642500000000005
 30
0.0
 10
-40.393000000000001
 20
-60.642500000000005
 30
0.0
 10
-41.733600000000003
 20
-60.713000000000001
 30
0.0
 10
-43.074200000000005
 20
-60.395500000000006
 30
0.0
 10
-44.1678
 20
-59.690000000000005
 30
0.0
  0
SPLINE
  5
80
100
AcDbEntity
  8
LAYER_1
 62
     8
100
AcDbSpline
210
0.0
220
0.0
230
1.0
 70
     1
 71
     3
 72
    44
 73
    40
 74
     0
 42
0.0000000001
 43
0.0000000001
 40
0.0
 40
0.0
 40
0.0
 40
0.0
 40
0.1
 40
0.1
 40
0.1
 40
0.1
 40
0.2
 40
0.2
 40
0.2
 40
0.2
 40
0.3
 40
0.3
 40
0.3
 40
0.3
 40
0.4
 40
0.4
 40
0.4
 40
0.4
 40
0.5
 40
0.5
 40
0.5
 40
0.5
 40
0.6
 40
0.6
 40
0.6
 40
0.6
 40
0.7
 40
0.7
 40
0.7
 40
0.7
 40
0.7999999999999999
 40
0.7999999999999999
 40
0.7999999999999999
 40
0.7999999999999999
 40
0.8999999999999999
 40
0.8999999999999999
 40
0.8999999999999999
 40
0.8999999999999999
 40
1.0
 40
1.0
 40
1.0
 40
1.0
 10
37.323900000000002
 20
-59.936900000000001
 30
0.0
 10
37.7119
 20
-59.654700000000005
 30
0.0
 10
38.029400000000003
 20
-59.337200000000003
 30
0.0
 10
38.346900000000005
 20
-59.0197
 30
0.0
 10
38.346900000000005
 20
-59.0197
 30
0.0
 10
37.7119
 20
-62.406400000000005
 30
0.0
 10
36.477200000000003
 20
-66.569100000000006
 30
0.0
 10
39.193600000000004
 20
-69.391400000000004
 30
0.0
 10
39.193600000000004
 20
-69.391400000000004
 30
0.0
 10
38.840800000000002
 20
-69.285499999999999
 30
0.0
 10
38.488
 20
-69.215000000000003
 30
0.0
 10
38.135300000000001
 20
-69.179699999999997
 30
0.0
 10
38.135300000000001
 20
-69.179699999999997
 30
0.0
 10
38.100000000000001
 20
-69.285499999999999
 30
0.0
 10
38.029400000000003
 20
-69.532499999999999
 30
0.0
 10
37.994199999999999
 20
-69.673600000000008
 30
0.0
 10
37.994199999999999
 20
-69.673600000000008
 30
0.0
 10
37.782499999999999
 20
-69.356099999999998
 30
0.0
 10
37.570799999999998
 20
-69.038600000000002
 30
0.0
 10
37.288600000000002
 20
-68.791600000000003
 30
0.0
 10
37.288600000000002
 20
-68.791600000000003
 30
0.0
 10
36.724200000000003
 20
-68.791600000000003
 30
0.0
 10
36.124400000000001
 20
-68.897500000000008
 30
0.0
 10
35.560000000000002
 20
-68.9328
 30
0.0
 10
35.560000000000002
 20
-68.9328
 30
0.0
 10
37.7119
 20
-66.569100000000006
 30
0.0
 10
36.477200000000003
 20
-63.076600000000006
 30
0.0
 10
36.724200000000003
 20
-60.148600000000002
 30
0.0
 10
36.724200000000003
 20
-60.148600000000002
 30
0.0
 10
35.771700000000003
 20
-60.078000000000003
 30
0.0
 10
34.783900000000003
 20
-60.148600000000002
 30
0.0
 10
33.796100000000003
 20
-60.078000000000003
 30
0.0
 10
33.796100000000003
 20
-60.078000000000003
 30
0.0
 10
34.007800000000003
 20
-59.866400000000006
 30
0.0
 10
34.2194
 20
-59.690000000000005
 30
0.0
 10
34.4664
 20
-59.513600000000004
 30
0.0
 10
34.4664
 20
-59.513600000000004
 30
0.0
 10
35.418900000000001
 20
-59.690000000000005
 30
0.0
 10
36.336100000000002
 20
-59.936900000000001
 30
0.0
 10
37.323900000000002
 20
-59.936900000000001
 30
0.0
  0
SPLINE
  5
81
100
AcDbEntity
  8
LAYER_1
 62
     9
100
AcDbSpline
210
0.0
220
0.0
230
1.0
 70
     1
 71
     3
 72
    16
 73
    12
 74
     0
 42
0.0000000001
 43
0.0000000001
 40
0.0
 40
0.0
 40
0.0
 40
0.0
 40
0.3333333333333333
 40
0.3333333333333333
 40
0.3333333333333333
 40
0.3333333333333333
 40
0.6666666666666666
 40
0.6666666666666666
 40
0.6666666666666666
 40
0.6666666666666666
 40
1.0
 40
1.0
 40
1.0
 40
1.0
 10
-52.916700000000006
 20
-61.595000000000006
 30
0.0
 10
-52.740300000000005
 20
-61.595000000000006
 30
0.0
 10
-52.422800000000002
 20
-61.559699999999999
 30
0.0
 10
-52.246400000000001
 20
-61.559699999999999
 30
0.0
 10
-52.246400000000001
 20
-61.559699999999999
 30
0.0
 10
-52.140500000000003
 20
-62.124100000000006
 30
0.0
 10
-52.352200000000003
 20
-62.371100000000006
 30
0.0
 10
-52.916700000000006
 20
-62.3005
 30
0.0
 10
-52.916700000000006
 20
-62.3005
 30
0.0
 10
-52.916700000000006
 20
-62.3005
 30
0.0
 10
-52.916700000000006
 20
-61.595000000000006
 30
0.0
 10
-52.916700000000006
 20
-61.595000000000006
 30
0.0
  0
SPLINE
  5
82
100
AcDbEntity
  8
LAYER_1
 62
     8
100
AcDbSpline
210
0.0
220
0.0
230
1.0
 70
     1
 71
     3
 72
    92
 73
    88
 74
     0
 42
0.0000000001
 43
0.0000000001
 40
0.0
 40
0.0
 40
0.0
 40
0.0
 40
0.0454545454545455
 40
0.0454545454545455
 40
0.0454545454545455
 40
0.0454545454545455
 40
0.0909090909090909
 40
0.0909090909090909
 40
0.0909090909090909
 40
0.0909090909090909
 40
0.1363636363636364
 40
0.1363636363636364
 40
0.1363636363636364
 40
0.1363636363636364
 40
0.1818181818181818
 40
0.1818181818181818
 40
0.1818181818181818
 40
0.1818181818181818
 40
0.2272727272727273
 40
0.2272727272727273
 40
0.2272727272727273
 40
0.2272727272727273
 40
0.2727272727272728
 40
0.2727272727272728
 40
0.2727272727272728
 40
0.2727272727272728
 40
0.3181818181818182
 40
0.3181818181818182
 40
0.3181818181818182
 40
0.3181818181818182
 40
0.3636363636363637
 40
0.3636363636363637
 40
0.3636363636363637
 40
0.3636363636363637
 40
0.4090909090909092
 40
0.4090909090909092
 40
0.4090909090909092
 40
0.4090909090909092
 40
0.4545454545454546
 40
0.4545454545454546
 40
0.4545454545454546
 40
0.4545454545454546
 40
0.5000000000000001
 40
0.5000000000000001
 40
0.5000000000000001
 40
0.5000000000000001
 40
0.5454545454545455
 40
0.5454545454545455
 40
0.5454545454545455
 40
0.5454545454545455
 40
0.5909090909090909
 40
0.5909090909090909
 40
0.5909090909090909
 40
0.5909090909090909
 40
0.6363636363636364
 40
0.6363636363636364
 40
0.6363636363636364
 40
0.6363636363636364
 40
0.6818181818181818
 40
0.6818181818181818
 40
0.6818181818181818
 40
0.6818181818181818
 40
0.7272727272727272
 40
0.7272727272727272
 40
0.7272727272727272
 40
0.7272727272727272
 40
0.7727272727272726
 40
0.7727272727272726
 40
0.7727272727272726
 40
0.7727272727272726
 40
0.818181818181818
 40
0.818181818181818
 40
0.818181818181818
 40
0.818181818181818
 40
0.8636363636363634
 40
0.8636363636363634
 40
0.8636363636363634
 40
0.8636363636363634
 40
0.9090909090909088
 40
0.9090909090909088
 40
0.9090909090909088
 40
0.9090909090909088
 40
0.9545454545454543
 40
0.9545454545454543
 40
0.9545454545454543
 40
0.9545454545454543
 40
1.0
 40
1.0
 40
1.0
 40
1.0
 10
-40.569400000000002
 20
-65.898899999999998
 30
0.0
 10
-40.4283
 20
-67.345300000000009
 30
0.0
 10
-40.957500000000003
 20
-68.6858
 30
0.0
 10
-41.4514
 20
-69.991100000000003
 30
0.0
 10
-41.4514
 20
-69.991100000000003
 30
0.0
 10
-41.557200000000002
 20
-70.343900000000005
 30
0.0
 10
-41.698300000000003
 20
-70.6614
 30
0.0
 10
-41.804200000000002
 20
-71.014099999999999
 30
0.0
 10
-41.804200000000002
 20
-71.014099999999999
 30
0.0
 10
-41.310300000000005
 20
-71.261099999999999
 30
0.0
 10
-40.816400000000002
 20
-71.472800000000007
 30
0.0
 10
-40.322500000000005
 20
-71.719700000000003
 30
0.0
 10
-40.322500000000005
 20
-71.719700000000003
 30
0.0
 10
-40.816400000000002
 20
-72.601600000000005
 30
0.0
 10
-42.015799999999999
 20
-72.636899999999997
 30
0.0
 10
-42.827200000000005
 20
-73.130800000000008
 30
0.0
 10
-42.827200000000005
 20
-73.130800000000008
 30
0.0
 10
-42.1922
 20
-73.201400000000007
 30
0.0
 10
-41.557200000000002
 20
-73.23660000000001
 30
0.0
 10
-40.886900000000004
 20
-73.23660000000001
 30
0.0
 10
-40.886900000000004
 20
-73.23660000000001
 30
0.0
 10
-41.839400000000005
 20
-73.48360000000001
 30
0.0
 10
-42.791900000000005
 20
-73.659999999999997
 30
0.0
 10
-43.638600000000004
 20
-74.048000000000002
 30
0.0
 10
-43.638600000000004
 20
-74.048000000000002
 30
0.0
 10
-44.1678
 20
-74.012799999999999
 30
0.0
 10
-44.661700000000003
 20
-73.977500000000006
 30
0.0
 10
-45.155500000000004
 20
-73.906900000000007
 30
0.0
 10
-45.155500000000004
 20
-73.906900000000007
 30
0.0
 10
-45.155500000000004
 20
-73.906900000000007
 30
0.0
 10
-45.437800000000003
 20
-73.871600000000001
 30
0.0
 10
-45.437800000000003
 20
-73.871600000000001
 30
0.0
 10
-45.437800000000003
 20
-73.871600000000001
 30
0.0
 10
-46.037500000000001
 20
-73.624700000000004
 30
0.0
 10
-46.6372
 20
-73.377800000000008
 30
0.0
 10
-47.236900000000006
 20
-73.095500000000001
 30
0.0
 10
-47.236900000000006
 20
-73.095500000000001
 30
0.0
 10
-47.166400000000003
 20
-72.954400000000007
 30
0.0
 10
-46.990000000000002
 20
-72.672200000000004
 30
0.0
 10
-46.8842
 20
-72.531100000000009
 30
0.0
 10
-46.8842
 20
-72.531100000000009
 30
0.0
 10
-46.108000000000004
 20
-72.778000000000006
 30
0.0
 10
-45.331900000000005
 20
-73.025000000000006
 30
0.0
 10
-44.520500000000006
 20
-73.1661
 30
0.0
 10
-44.520500000000006
 20
-73.1661
 30
0.0
 10
-43.815000000000005
 20
-72.46050000000001
 30
0.0
 10
-43.426900000000003
 20
-71.543300000000002
 30
0.0
 10
-42.791900000000005
 20
-70.802500000000009
 30
0.0
 10
-42.791900000000005
 20
-70.802500000000009
 30
0.0
 10
-44.344200000000001
 20
-71.014099999999999
 30
0.0
 10
-45.367200000000004
 20
-70.061599999999999
 30
0.0
 10
-46.319700000000005
 20
-69.038600000000002
 30
0.0
 10
-46.319700000000005
 20
-69.038600000000002
 30
0.0
 10
-47.519200000000005
 20
-68.9328
 30
0.0
 10
-48.753900000000002
 20
-68.897500000000008
 30
0.0
 10
-49.953300000000006
 20
-69.109099999999998
 30
0.0
 10
-49.953300000000006
 20
-69.109099999999998
 30
0.0
 10
-49.917999999999999
 20
-69.638300000000001
 30
0.0
 10
-49.706400000000002
 20
-70.167500000000004
 30
0.0
 10
-49.530000000000001
 20
-70.6614
 30
0.0
 10
-49.530000000000001
 20
-70.6614
 30
0.0
 10
-49.917999999999999
 20
-70.343900000000005
 30
0.0
 10
-50.3414
 20
-69.991100000000003
 30
0.0
 10
-50.729400000000005
 20
-69.638300000000001
 30
0.0
 10
-50.729400000000005
 20
-69.638300000000001
 30
0.0
 10
-50.800000000000004
 20
-69.4619
 30
0.0
 10
-50.905799999999999
 20
-69.144400000000005
 30
0.0
 10
-50.976400000000005
 20
-68.968000000000004
 30
0.0
 10
-50.976400000000005
 20
-68.968000000000004
 30
0.0
 10
-51.646700000000003
 20
-68.897500000000008
 30
0.0
 10
-52.281700000000001
 20
-68.9328
 30
0.0
 10
-52.916700000000006
 20
-68.9328
 30
0.0
 10
-52.916700000000006
 20
-68.9328
 30
0.0
 10
-52.916700000000006
 20
-68.9328
 30
0.0
 10
-52.916700000000006
 20
-67.098300000000009
 30
0.0
 10
-52.916700000000006
 20
-67.098300000000009
 30
0.0
 10
-52.916700000000006
 20
-67.098300000000009
 30
0.0
 10
-49.000800000000005
 20
-67.592200000000005
 30
0.0
 10
-44.9086
 20
-67.9803
 30
0.0
 10
-41.169200000000004
 20
-66.533900000000003
 30
0.0
 10
-41.169200000000004
 20
-66.533900000000003
 30
0.0
 10
-41.027999999999999
 20
-66.392800000000008
 30
0.0
 10
-40.745800000000003
 20
-66.075299999999999
 30
0.0
 10
-40.569400000000002
 20
-65.898899999999998
 30
0.0
 10
-40.569400000000002
 20
-65.898899999999998
 30
0.0
 10
-40.569400000000002
 20
-65.898899999999998
 30
0.0
 10
-40.569400000000002
 20
-65.898899999999998
 30
0.0
 10
-40.569400000000002
 20
-65.898899999999998
 30
0.0
  0
SPLINE
  5
83
100
AcDbEntity
  8
LAYER_1
 62
     8
100
AcDbSpline
210
0.0
220
0.0
230
1.0
 70
     1
 71
     3
 72
    12
 73
     8
 74
     0
 42
0.0000000001
 43
0.0000000001
 40
0.0
 40
0.0
 40
0.0
 40
0.0
 40
0.5
 40
0.5
 40
0.5
 40
0.5
 40
1.0
 40
1.0
 40
1.0
 40
1.0
 10
-45.472999999999999
 20
-69.00330000000001
 30
0.0
 10
-44.9086
 20
-70.308599999999998
 30
0.0
 10
-42.121700000000004
 20
-70.6614
 30
0.0
 10
-41.945300000000003
 20
-69.00330000000001
 30
0.0
 10
-41.945300000000003
 20
-69.00330000000001
 30
0.0
 10
-43.109400000000001
 20
-69.00330000000001
 30
0.0
 10
-44.308900000000001
 20
-68.9328
 30
0.0
 10
-45.472999999999999
 20
-69.00330000000001
 30
0.0
  0
SPLINE
  5
84
100
AcDbEntity
  8
LAYER_1
 62
     8
100
AcDbSpline
210
0.0
220
0.0
230
1.0
 70
     0
 71
     3
 72
    88
 73
    84
 74
     0
 42
0.0000000001
 43
0.0000000001
 40
0.0
 40
0.0
 40
0.0
 40
0.0
 40
0.0476190476190476
 40
0.0476190476190476
 40
0.0476190476190476
 40
0.0476190476190476
 40
0.0952380952380952
 40
0.0952380952380952
 40
0.0952380952380952
 40
0.0952380952380952
 40
0.1428571428571429
 40
0.1428571428571429
 40
0.1428571428571429
 40
0.1428571428571429
 40
0.1904761904761905
 40
0.1904761904761905
 40
0.1904761904761905
 40
0.1904761904761905
 40
0.2380952380952381
 40
0.2380952380952381
 40
0.2380952380952381
 40
0.2380952380952381
 40
0.2857142857142857
 40
0.2857142857142857
 40
0.2857142857142857
 40
0.2857142857142857
 40
0.3333333333333333
 40
0.3333333333333333
 40
0.3333333333333333
 40
0.3333333333333333
 40
0.3809523809523809
 40
0.3809523809523809
 40
0.3809523809523809
 40
0.3809523809523809
 40
0.4285714285714286
 40
0.4285714285714286
 40
0.4285714285714286
 40
0.4285714285714286
 40
0.4761904761904762
 40
0.4761904761904762
 40
0.4761904761904762
 40
0.4761904761904762
 40
0.5238095238095237
 40
0.5238095238095237
 40
0.5238095238095237
 40
0.5238095238095237
 40
0.5714285714285714
 40
0.5714285714285714
 40
0.5714285714285714
 40
0.5714285714285714
 40
0.6190476190476191
 40
0.6190476190476191
 40
0.6190476190476191
 40
0.6190476190476191
 40
0.6666666666666667
 40
0.6666666666666667
 40
0.6666666666666667
 40
0.6666666666666667
 40
0.7142857142857144
 40
0.7142857142857144
 40
0.7142857142857144
 40
0.7142857142857144
 40
0.7619047619047621
 40
0.7619047619047621
 40
0.7619047619047621
 40
0.7619047619047621
 40
0.8095238095238098
 40
0.8095238095238098
 40
0.8095238095238098
 40
0.8095238095238098
 40
0.8571428571428574
 40
0.8571428571428574
 40
0.8571428571428574
 40
0.8571428571428574
 40
0.9047619047619051
 40
0.9047619047619051
 40
0.9047619047619051
 40
0.9047619047619051
 40
0.9523809523809528
 40
0.9523809523809528
 40
0.9523809523809528
 40
0.9523809523809528
 40
1.0
 40
1.0
 40
1.0
 40
1.0
 10
-40.569400000000002
 20
-65.898899999999998
 30
0.0
 10
-40.4283
 20
-67.345300000000009
 30
0.0
 10
-40.957500000000003
 20
-68.6858
 30
0.0
 10
-41.4514
 20
-69.991100000000003
 30
0.0
 10
-41.4514
 20
-69.991100000000003
 30
0.0
 10
-41.557200000000002
 20
-70.343900000000005
 30
0.0
 10
-41.698300000000003
 20
-70.6614
 30
0.0
 10
-41.804200000000002
 20
-71.014099999999999
 30
0.0
 10
-41.804200000000002
 20
-71.014099999999999
 30
0.0
 10
-41.310300000000005
 20
-71.261099999999999
 30
0.0
 10
-40.816400000000002
 20
-71.472800000000007
 30
0.0
 10
-40.322500000000005
 20
-71.719700000000003
 30
0.0
 10
-40.322500000000005
 20
-71.719700000000003
 30
0.0
 10
-40.816400000000002
 20
-72.601600000000005
 30
0.0
 10
-42.015799999999999
 20
-72.636899999999997
 30
0.0
 10
-42.827200000000005
 20
-73.130800000000008
 30
0.0
 10
-42.827200000000005
 20
-73.130800000000008
 30
0.0
 10
-42.1922
 20
-73.201400000000007
 30
0.0
 10
-41.557200000000002
 20
-73.23660000000001
 30
0.0
 10
-40.886900000000004
 20
-73.23660000000001
 30
0.0
 10
-40.886900000000004
 20
-73.23660000000001
 30
0.0
 10
-41.839400000000005
 20
-73.48360000000001
 30
0.0
 10
-42.791900000000005
 20
-73.659999999999997
 30
0.0
 10
-43.638600000000004
 20
-74.048000000000002
 30
0.0
 10
-43.638600000000004
 20
-74.048000000000002
 30
0.0
 10
-44.1678
 20
-74.012799999999999
 30
0.0
 10
-44.661700000000003
 20
-73.977500000000006
 30
0.0
 10
-45.155500000000004
 20
-73.906900000000007
 30
0.0
 10
-45.155500000000004
 20
-73.906900000000007
 30
0.0
 10
-45.155500000000004
 20
-73.906900000000007
 30
0.0
 10
-45.437800000000003
 20
-73.871600000000001
 30
0.0
 10
-45.437800000000003
 20
-73.871600000000001
 30
0.0
 10
-45.437800000000003
 20
-73.871600000000001
 30
0.0
 10
-46.037500000000001
 20
-73.624700000000004
 30
0.0
 10
-46.6372
 20
-73.377800000000008
 30
0.0
 10
-47.236900000000006
 20
-73.095500000000001
 30
0.0
 10
-47.236900000000006
 20
-73.095500000000001
 30
0.0
 10
-47.166400000000003
 20
-72.954400000000007
 30
0.0
 10
-46.990000000000002
 20
-72.672200000000004
 30
0.0
 10
-46.8842
 20
-72.531100000000009
 30
0.0
 10
-46.8842
 20
-72.531100000000009
 30
0.0
 10
-46.108000000000004
 20
-72.778000000000006
 30
0.0
 10
-45.331900000000005
 20
-73.025000000000006
 30
0.0
 10
-44.520500000000006
 20
-73.1661
 30
0.0
 10
-44.520500000000006
 20
-73.1661
 30
0.0
 10
-43.815000000000005
 20
-72.46050000000001
 30
0.0
 10
-43.426900000000003
 20
-71.543300000000002
 30
0.0
 10
-42.791900000000005
 20
-70.802500000000009
 30
0.0
 10
-42.791900000000005
 20
-70.802500000000009
 30
0.0
 10
-44.344200000000001
 20
-71.014099999999999
 30
0.0
 10
-45.367200000000004
 20
-70.061599999999999
 30
0.0
 10
-46.319700000000005
 20
-69.038600000000002
 30
0.0
 10
-46.319700000000005
 20
-69.038600000000002
 30
0.0
 10
-47.519200000000005
 20
-68.9328
 30
0.0
 10
-48.753900000000002
 20
-68.897500000000008
 30
0.0
 10
-49.953300000000006
 20
-69.109099999999998
 30
0.0
 10
-49.953300000000006
 20
-69.109099999999998
 30
0.0
 10
-49.917999999999999
 20
-69.638300000000001
 30
0.0
 10
-49.706400000000002
 20
-70.167500000000004
 30
0.0
 10
-49.530000000000001
 20
-70.6614
 30
0.0
 10
-49.530000000000001
 20
-70.6614
 30
0.0
 10
-49.917999999999999
 20
-70.343900000000005
 30
0.0
 10
-50.3414
 20
-69.991100000000003
 30
0.0
 10
-50.729400000000005
 20
-69.638300000000001
 30
0.0
 10
-50.729400000000005
 20
-69.638300000000001
 30
0.0
 10
-50.800000000000004
 20
-69.4619
 30
0.0
 10
-50.905799999999999
 20
-69.144400000000005
 30
0.0
 10
-50.976400000000005
 20
-68.968000000000004
 30
0.0
 10
-50.976400000000005
 20
-68.968000000000004
 30
0.0
 10
-51.646700000000003
 20
-68.897500000000008
 30
0.0
 10
-52.281700000000001
 20
-68.9328
 30
0.0
 10
-52.916700000000006
 20
-68.9328
 30
0.0
 10
-52.916700000000006
 20
-68.9328
 30
0.0
 10
-52.916700000000006
 20
-68.9328
 30
0.0
 10
-52.916700000000006
 20
-67.098300000000009
 30
0.0
 10
-52.916700000000006
 20
-67.098300000000009
 30
0.0
 10
-52.916700000000006
 20
-67.098300000000009
 30
0.0
 10
-49.000800000000005
 20
-67.592200000000005
 30
0.0
 10
-44.9086
 20
-67.9803
 30
0.0
 10
-41.169200000000004
 20
-66.533900000000003
 30
0.0
 10
-41.169200000000004
 20
-66.533900000000003
 30
0.0
 10
-41.027999999999999
 20
-66.392800000000008
 30
0.0
 10
-40.745800000000003
 20
-66.075299999999999
 30
0.0
 10
-40.569400000000002
 20
-65.898899999999998
 30
0.0
  0
SPLINE
  5
85
100
AcDbEntity
  8
LAYER_1
 62
     8
100
AcDbSpline
210
0.0
220
0.0
230
1.0
 70
     1
 71
     3
 72
    12
 73
     8
 74
     0
 42
0.0000000001
 43
0.0000000001
 40
0.0
 40
0.0
 40
0.0
 40
0.0
 40
0.5
 40
0.5
 40
0.5
 40
0.5
 40
1.0
 40
1.0
 40
1.0
 40
1.0
 10
-45.472999999999999
 20
-69.00330000000001
 30
0.0
 10
-44.9086
 20
-70.308599999999998
 30
0.0
 10
-42.121700000000004
 20
-70.6614
 30
0.0
 10
-41.945300000000003
 20
-69.00330000000001
 30
0.0
 10
-41.945300000000003
 20
-69.00330000000001
 30
0.0
 10
-43.109400000000001
 20
-69.00330000000001
 30
0.0
 10
-44.308900000000001
 20
-68.9328
 30
0.0
 10
-45.472999999999999
 20
-69.00330000000001
 30
0.0
  0
SPLINE
  5
86
100
AcDbEntity
  8
LAYER_1
 62
     8
100
AcDbSpline
210
0.0
220
0.0
230
1.0
 70
     1
 71
     3
 72
    24
 73
    20
 74
     0
 42
0.0000000001
 43
0.0000000001
 40
0.0
 40
0.0
 40
0.0
 40
0.0
 40
0.2
 40
0.2
 40
0.2
 40
0.2
 40
0.4
 40
0.4
 40
0.4
 40
0.4
 40
0.6000000000000001
 40
0.6000000000000001
 40
0.6000000000000001
 40
0.6000000000000001
 40
0.8
 40
0.8
 40
0.8
 40
0.8
 40
1.0
 40
1.0
 40
1.0
 40
1.0
 10
52.140500000000003
 20
-66.075299999999999
 30
0.0
 10
52.387500000000003
 20
-66.181100000000001
 30
0.0
 10
52.669700000000006
 20
-66.286900000000003
 30
0.0
 10
52.916700000000006
 20
-66.427999999999997
 30
0.0
 10
52.916700000000006
 20
-66.427999999999997
 30
0.0
 10
52.916700000000006
 20
-66.427999999999997
 30
0.0
 10
52.916700000000006
 20
-67.909700000000001
 30
0.0
 10
52.916700000000006
 20
-67.909700000000001
 30
0.0
 10
52.916700000000006
 20
-67.909700000000001
 30
0.0
 10
50.553000000000004
 20
-68.156599999999997
 30
0.0
 10
48.189399999999999
 20
-68.403599999999997
 30
0.0
 10
45.8611
 20
-68.05080000000001
 30
0.0
 10
45.8611
 20
-68.05080000000001
 30
0.0
 10
44.344200000000001
 20
-67.7333
 30
0.0
 10
42.333300000000001
 20
-68.650500000000008
 30
0.0
 10
41.2044
 20
-67.27470000000001
 30
0.0
 10
41.2044
 20
-67.27470000000001
 30
0.0
 10
44.379400000000004
 20
-64.311400000000006
 30
0.0
 10
48.789200000000001
 20
-68.509399999999999
 30
0.0
 10
52.140500000000003
 20
-66.075299999999999
 30
0.0
  0
SPLINE
  5
87
100
AcDbEntity
  8
LAYER_1
 62
    17
100
AcDbSpline
210
0.0
220
0.0
230
1.0
 70
     1
 71
     3
 72
    48
 73
    44
 74
     0
 42
0.0000000001
 43
0.0000000001
 40
0.0
 40
0.0
 40
0.0
 40
0.0
 40
0.0909090909090909
 40
0.0909090909090909
 40
0.0909090909090909
 40
0.0909090909090909
 40
0.1818181818181818
 40
0.1818181818181818
 40
0.1818181818181818
 40
0.1818181818181818
 40
0.2727272727272727
 40
0.2727272727272727
 40
0.2727272727272727
 40
0.2727272727272727
 40
0.3636363636363637
 40
0.3636363636363637
 40
0.3636363636363637
 40
0.3636363636363637
 40
0.4545454545454546
 40
0.4545454545454546
 40
0.4545454545454546
 40
0.4545454545454546
 40
0.5454545454545455
 40
0.5454545454545455
 40
0.5454545454545455
 40
0.5454545454545455
 40
0.6363636363636365
 40
0.6363636363636365
 40
0.6363636363636365
 40
0.6363636363636365
 40
0.7272727272727274
 40
0.7272727272727274
 40
0.7272727272727274
 40
0.7272727272727274
 40
0.8181818181818183
 40
0.8181818181818183
 40
0.8181818181818183
 40
0.8181818181818183
 40
0.9090909090909093
 40
0.9090909090909093
 40
0.9090909090909093
 40
0.9090909090909093
 40
1.0
 40
1.0
 40
1.0
 40
1.0
 10
40.4636
 20
-66.498599999999996
 30
0.0
 10
40.710500000000003
 20
-66.745500000000007
 30
0.0
 10
40.957500000000003
 20
-67.027799999999999
 30
0.0
 10
41.2044
 20
-67.27470000000001
 30
0.0
 10
41.2044
 20
-67.27470000000001
 30
0.0
 10
42.333300000000001
 20
-68.650500000000008
 30
0.0
 10
44.344200000000001
 20
-67.7333
 30
0.0
 10
45.8611
 20
-68.05080000000001
 30
0.0
 10
45.8611
 20
-68.05080000000001
 30
0.0
 10
48.189399999999999
 20
-68.403599999999997
 30
0.0
 10
50.553000000000004
 20
-68.156599999999997
 30
0.0
 10
52.916700000000006
 20
-67.909700000000001
 30
0.0
 10
52.916700000000006
 20
-67.909700000000001
 30
0.0
 10
52.916700000000006
 20
-67.909700000000001
 30
0.0
 10
52.916700000000006
 20
-68.968000000000004
 30
0.0
 10
52.916700000000006
 20
-68.968000000000004
 30
0.0
 10
52.916700000000006
 20
-68.968000000000004
 30
0.0
 10
51.576100000000004
 20
-68.968000000000004
 30
0.0
 10
50.235500000000002
 20
-68.897500000000008
 30
0.0
 10
48.895000000000003
 20
-69.038600000000002
 30
0.0
 10
48.895000000000003
 20
-69.038600000000002
 30
0.0
 10
48.859700000000004
 20
-69.109099999999998
 30
0.0
 10
48.718600000000002
 20
-69.25030000000001
 30
0.0
 10
48.683300000000003
 20
-69.320800000000006
 30
0.0
 10
48.683300000000003
 20
-69.320800000000006
 30
0.0
 10
48.577500000000001
 20
-69.497200000000007
 30
0.0
 10
48.330500000000001
 20
-69.850000000000009
 30
0.0
 10
48.224700000000006
 20
-70.02640000000001
 30
0.0
 10
48.224700000000006
 20
-70.02640000000001
 30
0.0
 10
48.154200000000003
 20
-69.744100000000003
 30
0.0
 10
48.013000000000005
 20
-69.215000000000003
 30
0.0
 10
47.942500000000003
 20
-68.9328
 30
0.0
 10
47.942500000000003
 20
-68.9328
 30
0.0
 10
46.460799999999999
 20
-68.721100000000007
 30
0.0
 10
44.8733
 20
-68.544700000000006
 30
0.0
 10
43.709200000000003
 20
-69.7089
 30
0.0
 10
43.709200000000003
 20
-69.7089
 30
0.0
 10
43.1447
 20
-69.497200000000007
 30
0.0
 10
42.545000000000002
 20
-69.285499999999999
 30
0.0
 10
41.980499999999999
 20
-69.073900000000009
 30
0.0
 10
41.980499999999999
 20
-69.073900000000009
 30
0.0
 10
41.063300000000005
 20
-68.544700000000006
 30
0.0
 10
40.710500000000003
 20
-67.486400000000003
 30
0.0
 10
40.4636
 20
-66.498599999999996
 30
0.0
  0
SPLINE
  5
88
100
AcDbEntity
  8
LAYER_1
 62
     9
100
AcDbSpline
210
0.0
220
0.0
230
1.0
 70
     1
 71
     3
 72
    40
 73
    36
 74
     0
 42
0.0000000001
 43
0.0000000001
 40
0.0
 40
0.0
 40
0.0
 40
0.0
 40
0.1111111111111111
 40
0.1111111111111111
 40
0.1111111111111111
 40
0.1111111111111111
 40
0.2222222222222222
 40
0.2222222222222222
 40
0.2222222222222222
 40
0.2222222222222222
 40
0.3333333333333333
 40
0.3333333333333333
 40
0.3333333333333333
 40
0.3333333333333333
 40
0.4444444444444444
 40
0.4444444444444444
 40
0.4444444444444444
 40
0.4444444444444444
 40
0.5555555555555556
 40
0.5555555555555556
 40
0.5555555555555556
 40
0.5555555555555556
 40
0.6666666666666667
 40
0.6666666666666667
 40
0.6666666666666667
 40
0.6666666666666667
 40
0.7777777777777779
 40
0.7777777777777779
 40
0.7777777777777779
 40
0.7777777777777779
 40
0.8888888888888891
 40
0.8888888888888891
 40
0.8888888888888891
 40
0.8888888888888891
 40
1.0
 40
1.0
 40
1.0
 40
1.0
 10
-49.953300000000006
 20
-69.109099999999998
 30
0.0
 10
-48.753900000000002
 20
-68.897500000000008
 30
0.0
 10
-47.519200000000005
 20
-68.9328
 30
0.0
 10
-46.319700000000005
 20
-69.038600000000002
 30
0.0
 10
-46.319700000000005
 20
-69.038600000000002
 30
0.0
 10
-45.367200000000004
 20
-70.061599999999999
 30
0.0
 10
-44.344200000000001
 20
-71.014099999999999
 30
0.0
 10
-42.791900000000005
 20
-70.802500000000009
 30
0.0
 10
-42.791900000000005
 20
-70.802500000000009
 30
0.0
 10
-43.426900000000003
 20
-71.543300000000002
 30
0.0
 10
-43.815000000000005
 20
-72.46050000000001
 30
0.0
 10
-44.520500000000006
 20
-73.1661
 30
0.0
 10
-44.520500000000006
 20
-73.1661
 30
0.0
 10
-45.331900000000005
 20
-73.025000000000006
 30
0.0
 10
-46.108000000000004
 20
-72.778000000000006
 30
0.0
 10
-46.8842
 20
-72.531100000000009
 30
0.0
 10
-46.8842
 20
-72.531100000000009
 30
0.0
 10
-46.8842
 20
-72.531100000000009
 30
0.0
 10
-46.778300000000002
 20
-72.354700000000008
 30
0.0
 10
-46.778300000000002
 20
-72.354700000000008
 30
0.0
 10
-46.778300000000002
 20
-72.354700000000008
 30
0.0
 10
-46.319700000000005
 20
-71.75500000000001
 30
0.0
 10
-45.931699999999999
 20
-71.084699999999998
 30
0.0
 10
-45.755300000000005
 20
-70.379100000000008
 30
0.0
 10
-45.755300000000005
 20
-70.379100000000008
 30
0.0
 10
-46.496100000000006
 20
-70.943600000000004
 30
0.0
 10
-47.095800000000004
 20
-71.719700000000003
 30
0.0
 10
-47.977800000000002
 20
-72.037199999999999
 30
0.0
 10
-47.977800000000002
 20
-72.037199999999999
 30
0.0
 10
-48.506900000000002
 20
-71.578600000000009
 30
0.0
 10
-49.000800000000005
 20
-71.120000000000005
 30
0.0
 10
-49.530000000000001
 20
-70.6614
 30
0.0
 10
-49.530000000000001
 20
-70.6614
 30
0.0
 10
-49.706400000000002
 20
-70.167500000000004
 30
0.0
 10
-49.917999999999999
 20
-69.638300000000001
 30
0.0
 10
-49.953300000000006
 20
-69.109099999999998
 30
0.0
  0
SPLINE
  5
89
100
AcDbEntity
  8
LAYER_1
 62
     9
100
AcDbSpline
210
0.0
220
0.0
230
1.0
 70
     1
 71
     3
 72
    12
 73
     8
 74
     0
 42
0.0000000001
 43
0.0000000001
 40
0.0
 40
0.0
 40
0.0
 40
0.0
 40
0.5
 40
0.5
 40
0.5
 40
0.5
 40
1.0
 40
1.0
 40
1.0
 40
1.0
 10
-45.472999999999999
 20
-69.00330000000001
 30
0.0
 10
-44.308900000000001
 20
-68.9328
 30
0.0
 10
-43.109400000000001
 20
-69.00330000000001
 30
0.0
 10
-41.945300000000003
 20
-69.00330000000001
 30
0.0
 10
-41.945300000000003
 20
-69.00330000000001
 30
0.0
 10
-42.121700000000004
 20
-70.6614
 30
0.0
 10
-44.9086
 20
-70.308599999999998
 30
0.0
 10
-45.472999999999999
 20
-69.00330000000001
 30
0.0
  0
SPLINE
  5
8A
100
AcDbEntity
  8
LAYER_1
 62
    17
100
AcDbSpline
210
0.0
220
0.0
230
1.0
 70
     1
 71
     3
 72
    32
 73
    28
 74
     0
 42
0.0000000001
 43
0.0000000001
 40
0.0
 40
0.0
 40
0.0
 40
0.0
 40
0.1428571428571429
 40
0.1428571428571429
 40
0.1428571428571429
 40
0.1428571428571429
 40
0.2857142857142857
 40
0.2857142857142857
 40
0.2857142857142857
 40
0.2857142857142857
 40
0.4285714285714286
 40
0.4285714285714286
 40
0.4285714285714286
 40
0.4285714285714286
 40
0.5714285714285714
 40
0.5714285714285714
 40
0.5714285714285714
 40
0.5714285714285714
 40
0.7142857142857142
 40
0.7142857142857142
 40
0.7142857142857142
 40
0.7142857142857142
 40
0.857142857142857
 40
0.857142857142857
 40
0.857142857142857
 40
0.857142857142857
 40
1.0
 40
1.0
 40
1.0
 40
1.0
 10
38.135300000000001
 20
-69.179699999999997
 30
0.0
 10
38.488
 20
-69.215000000000003
 30
0.0
 10
38.840800000000002
 20
-69.285499999999999
 30
0.0
 10
39.193600000000004
 20
-69.391400000000004
 30
0.0
 10
39.193600000000004
 20
-69.391400000000004
 30
0.0
 10
40.075500000000005
 20
-69.603000000000009
 30
0.0
 10
40.992800000000003
 20
-69.744100000000003
 30
0.0
 10
41.910000000000004
 20
-69.77940000000001
 30
0.0
 10
41.910000000000004
 20
-69.77940000000001
 30
0.0
 10
42.051100000000005
 20
-70.767200000000003
 30
0.0
 10
40.922200000000004
 20
-70.555500000000009
 30
0.0
 10
40.287199999999999
 20
-70.590800000000002
 30
0.0
 10
40.287199999999999
 20
-70.590800000000002
 30
0.0
 10
40.781100000000002
 20
-71.296400000000006
 30
0.0
 10
41.239699999999999
 20
-72.037199999999999
 30
0.0
 10
41.733600000000003
 20
-72.742800000000003
 30
0.0
 10
41.733600000000003
 20
-72.742800000000003
 30
0.0
 10
41.380800000000001
 20
-72.70750000000001
 30
0.0
 10
41.063300000000005
 20
-72.636899999999997
 30
0.0
 10
40.745800000000003
 20
-72.566400000000002
 30
0.0
 10
40.745800000000003
 20
-72.566400000000002
 30
0.0
 10
39.6875
 20
-71.719700000000003
 30
0.0
 10
38.664400000000001
 20
-70.837800000000001
 30
0.0
 10
37.994199999999999
 20
-69.673600000000008
 30
0.0
 10
37.994199999999999
 20
-69.673600000000008
 30
0.0
 10
38.029400000000003
 20
-69.532499999999999
 30
0.0
 10
38.100000000000001
 20
-69.285499999999999
 30
0.0
 10
38.135300000000001
 20
-69.179699999999997
 30
0.0
  0
SPLINE
  5
8B
100
AcDbEntity
  8
LAYER_1
 62
     8
100
AcDbSpline
210
0.0
220
0.0
230
1.0
 70
     1
 71
     3
 72
    36
 73
    32
 74
     0
 42
0.0000000001
 43
0.0000000001
 40
0.0
 40
0.0
 40
0.0
 40
0.0
 40
0.125
 40
0.125
 40
0.125
 40
0.125
 40
0.25
 40
0.25
 40
0.25
 40
0.25
 40
0.375
 40
0.375
 40
0.375
 40
0.375
 40
0.5
 40
0.5
 40
0.5
 40
0.5
 40
0.625
 40
0.625
 40
0.625
 40
0.625
 40
0.75
 40
0.75
 40
0.75
 40
0.75
 40
0.875
 40
0.875
 40
0.875
 40
0.875
 40
1.0
 40
1.0
 40
1.0
 40
1.0
 10
41.980499999999999
 20
-69.073900000000009
 30
0.0
 10
42.545000000000002
 20
-69.285499999999999
 30
0.0
 10
43.1447
 20
-69.497200000000007
 30
0.0
 10
43.709200000000003
 20
-69.7089
 30
0.0
 10
43.709200000000003
 20
-69.7089
 30
0.0
 10
43.038900000000005
 20
-70.273300000000006
 30
0.0
 10
42.4039
 20
-70.837800000000001
 30
0.0
 10
41.839400000000005
 20
-71.50800000000001
 30
0.0
 10
41.839400000000005
 20
-71.50800000000001
 30
0.0
 10
42.615500000000004
 20
-72.001900000000006
 30
0.0
 10
43.532800000000002
 20
-72.037199999999999
 30
0.0
 10
44.414700000000003
 20
-72.001900000000006
 30
0.0
 10
44.414700000000003
 20
-72.001900000000006
 30
0.0
 10
44.520500000000006
 20
-72.425300000000007
 30
0.0
 10
44.696899999999999
 20
-72.848600000000005
 30
0.0
 10
44.414700000000003
 20
-73.23660000000001
 30
0.0
 10
44.414700000000003
 20
-73.23660000000001
 30
0.0
 10
43.497500000000002
 20
-73.1661
 30
0.0
 10
42.650800000000004
 20
-72.778000000000006
 30
0.0
 10
41.733600000000003
 20
-72.742800000000003
 30
0.0
 10
41.733600000000003
 20
-72.742800000000003
 30
0.0
 10
41.239699999999999
 20
-72.037199999999999
 30
0.0
 10
40.781100000000002
 20
-71.296400000000006
 30
0.0
 10
40.287199999999999
 20
-70.590800000000002
 30
0.0
 10
40.287199999999999
 20
-70.590800000000002
 30
0.0
 10
40.922200000000004
 20
-70.555500000000009
 30
0.0
 10
42.051100000000005
 20
-70.767200000000003
 30
0.0
 10
41.910000000000004
 20
-69.77940000000001
 30
0.0
 10
41.910000000000004
 20
-69.77940000000001
 30
0.0
 10
41.945300000000003
 20
-69.603000000000009
 30
0.0
 10
41.980499999999999
 20
-69.25030000000001
 30
0.0
 10
41.980499999999999
 20
-69.073900000000009
 30
0.0
  0
SPLINE
  5
8C
100
AcDbEntity
  8
LAYER_1
 62
     9
100
AcDbSpline
210
0.0
220
0.0
230
1.0
 70
     1
 71
     3
 72
    48
 73
    44
 74
     0
 42
0.0000000001
 43
0.0000000001
 40
0.0
 40
0.0
 40
0.0
 40
0.0
 40
0.0909090909090909
 40
0.0909090909090909
 40
0.0909090909090909
 40
0.0909090909090909
 40
0.1818181818181818
 40
0.1818181818181818
 40
0.1818181818181818
 40
0.1818181818181818
 40
0.2727272727272727
 40
0.2727272727272727
 40
0.2727272727272727
 40
0.2727272727272727
 40
0.3636363636363637
 40
0.3636363636363637
 40
0.3636363636363637
 40
0.3636363636363637
 40
0.4545454545454546
 40
0.4545454545454546
 40
0.4545454545454546
 40
0.4545454545454546
 40
0.5454545454545455
 40
0.5454545454545455
 40
0.5454545454545455
 40
0.5454545454545455
 40
0.6363636363636365
 40
0.6363636363636365
 40
0.6363636363636365
 40
0.6363636363636365
 40
0.7272727272727274
 40
0.7272727272727274
 40
0.7272727272727274
 40
0.7272727272727274
 40
0.8181818181818183
 40
0.8181818181818183
 40
0.8181818181818183
 40
0.8181818181818183
 40
0.9090909090909093
 40
0.9090909090909093
 40
0.9090909090909093
 40
0.9090909090909093
 40
1.0
 40
1.0
 40
1.0
 40
1.0
 10
43.709200000000003
 20
-69.7089
 30
0.0
 10
44.8733
 20
-68.544700000000006
 30
0.0
 10
46.460799999999999
 20
-68.721100000000007
 30
0.0
 10
47.942500000000003
 20
-68.9328
 30
0.0
 10
47.942500000000003
 20
-68.9328
 30
0.0
 10
48.013000000000005
 20
-69.215000000000003
 30
0.0
 10
48.154200000000003
 20
-69.744100000000003
 30
0.0
 10
48.224700000000006
 20
-70.02640000000001
 30
0.0
 10
48.224700000000006
 20
-70.02640000000001
 30
0.0
 10
48.330500000000001
 20
-69.850000000000009
 30
0.0
 10
48.577500000000001
 20
-69.497200000000007
 30
0.0
 10
48.683300000000003
 20
-69.320800000000006
 30
0.0
 10
48.683300000000003
 20
-69.320800000000006
 30
0.0
 10
48.718600000000002
 20
-69.4619
 30
0.0
 10
48.824400000000004
 20
-69.7089
 30
0.0
 10
48.859700000000004
 20
-69.850000000000009
 30
0.0
 10
48.859700000000004
 20
-69.850000000000009
 30
0.0
 10
48.436399999999999
 20
-70.343900000000005
 30
0.0
 10
47.942500000000003
 20
-70.767200000000003
 30
0.0
 10
47.730800000000002
 20
-71.402200000000008
 30
0.0
 10
47.730800000000002
 20
-71.402200000000008
 30
0.0
 10
46.813600000000001
 20
-70.308599999999998
 30
0.0
 10
45.190800000000003
 20
-70.626100000000008
 30
0.0
 10
43.8855
 20
-70.520300000000006
 30
0.0
 10
43.8855
 20
-70.520300000000006
 30
0.0
 10
43.532800000000002
 20
-71.649100000000004
 30
0.0
 10
45.296700000000001
 20
-71.296400000000006
 30
0.0
 10
45.966900000000003
 20
-71.578600000000009
 30
0.0
 10
45.966900000000003
 20
-71.578600000000009
 30
0.0
 10
45.8964
 20
-71.719700000000003
 30
0.0
 10
45.790500000000002
 20
-72.001900000000006
 30
0.0
 10
45.719999999999999
 20
-72.143000000000001
 30
0.0
 10
45.719999999999999
 20
-72.143000000000001
 30
0.0
 10
45.296700000000001
 20
-72.143000000000001
 30
0.0
 10
44.8733
 20
-72.037199999999999
 30
0.0
 10
44.414700000000003
 20
-72.001900000000006
 30
0.0
 10
44.414700000000003
 20
-72.001900000000006
 30
0.0
 10
43.532800000000002
 20
-72.037199999999999
 30
0.0
 10
42.615500000000004
 20
-72.001900000000006
 30
0.0
 10
41.839400000000005
 20
-71.50800000000001
 30
0.0
 10
41.839400000000005
 20
-71.50800000000001
 30
0.0
 10
42.4039
 20
-70.837800000000001
 30
0.0
 10
43.038900000000005
 20
-70.273300000000006
 30
0.0
 10
43.709200000000003
 20
-69.7089
 30
0.0
  0
SPLINE
  5
8D
100
AcDbEntity
  8
LAYER_1
 62
    17
100
AcDbSpline
210
0.0
220
0.0
230
1.0
 70
     1
 71
     3
 72
    40
 73
    36
 74
     0
 42
0.0000000001
 43
0.0000000001
 40
0.0
 40
0.0
 40
0.0
 40
0.0
 40
0.1111111111111111
 40
0.1111111111111111
 40
0.1111111111111111
 40
0.1111111111111111
 40
0.2222222222222222
 40
0.2222222222222222
 40
0.2222222222222222
 40
0.2222222222222222
 40
0.3333333333333333
 40
0.3333333333333333
 40
0.3333333333333333
 40
0.3333333333333333
 40
0.4444444444444444
 40
0.4444444444444444
 40
0.4444444444444444
 40
0.4444444444444444
 40
0.5555555555555556
 40
0.5555555555555556
 40
0.5555555555555556
 40
0.5555555555555556
 40
0.6666666666666667
 40
0.6666666666666667
 40
0.6666666666666667
 40
0.6666666666666667
 40
0.7777777777777779
 40
0.7777777777777779
 40
0.7777777777777779
 40
0.7777777777777779
 40
0.8888888888888891
 40
0.8888888888888891
 40
0.8888888888888891
 40
0.8888888888888891
 40
1.0
 40
1.0
 40
1.0
 40
1.0
 10
-50.729400000000005
 20
-69.638300000000001
 30
0.0
 10
-50.3414
 20
-69.991100000000003
 30
0.0
 10
-49.917999999999999
 20
-70.343900000000005
 30
0.0
 10
-49.530000000000001
 20
-70.6614
 30
0.0
 10
-49.530000000000001
 20
-70.6614
 30
0.0
 10
-49.000800000000005
 20
-71.120000000000005
 30
0.0
 10
-48.506900000000002
 20
-71.578600000000009
 30
0.0
 10
-47.977800000000002
 20
-72.037199999999999
 30
0.0
 10
-47.977800000000002
 20
-72.037199999999999
 30
0.0
 10
-47.589700000000001
 20
-72.143000000000001
 30
0.0
 10
-47.166400000000003
 20
-72.248900000000006
 30
0.0
 10
-46.778300000000002
 20
-72.354700000000008
 30
0.0
 10
-46.778300000000002
 20
-72.354700000000008
 30
0.0
 10
-46.778300000000002
 20
-72.354700000000008
 30
0.0
 10
-46.8842
 20
-72.531100000000009
 30
0.0
 10
-46.8842
 20
-72.531100000000009
 30
0.0
 10
-46.8842
 20
-72.531100000000009
 30
0.0
 10
-46.990000000000002
 20
-72.672200000000004
 30
0.0
 10
-47.166400000000003
 20
-72.954400000000007
 30
0.0
 10
-47.236900000000006
 20
-73.095500000000001
 30
0.0
 10
-47.236900000000006
 20
-73.095500000000001
 30
0.0
 10
-47.378
 20
-73.025000000000006
 30
0.0
 10
-47.695500000000003
 20
-72.9191
 30
0.0
 10
-47.8367
 20
-72.848600000000005
 30
0.0
 10
-47.8367
 20
-72.848600000000005
 30
0.0
 10
-48.436399999999999
 20
-72.284100000000009
 30
0.0
 10
-48.965500000000006
 20
-71.649100000000004
 30
0.0
 10
-49.530000000000001
 20
-71.084699999999998
 30
0.0
 10
-49.530000000000001
 20
-71.084699999999998
 30
0.0
 10
-49.600500000000004
 20
-71.225800000000007
 30
0.0
 10
-49.776900000000005
 20
-71.50800000000001
 30
0.0
 10
-49.847500000000004
 20
-71.649100000000004
 30
0.0
 10
-49.847500000000004
 20
-71.649100000000004
 30
0.0
 10
-50.0944
 20
-70.943600000000004
 30
0.0
 10
-50.3767
 20
-70.273300000000006
 30
0.0
 10
-50.729400000000005
 20
-69.638300000000001
 30
0.0
  0
SPLINE
  5
8E
100
AcDbEntity
  8
LAYER_1
 62
    17
100
AcDbSpline
210
0.0
220
0.0
230
1.0
 70
     1
 71
     3
 72
    28
 73
    24
 74
     0
 42
0.0000000001
 43
0.0000000001
 40
0.0
 40
0.0
 40
0.0
 40
0.0
 40
0.1666666666666667
 40
0.1666666666666667
 40
0.1666666666666667
 40
0.1666666666666667
 40
0.3333333333333333
 40
0.3333333333333333
 40
0.3333333333333333
 40
0.3333333333333333
 40
0.5
 40
0.5
 40
0.5
 40
0.5
 40
0.6666666666666666
 40
0.6666666666666666
 40
0.6666666666666666
 40
0.6666666666666666
 40
0.8333333333333333
 40
0.8333333333333333
 40
0.8333333333333333
 40
0.8333333333333333
 40
1.0
 40
1.0
 40
1.0
 40
1.0
 10
-41.4514
 20
-69.991100000000003
 30
0.0
 10
-39.828600000000002
 20
-69.744100000000003
 30
0.0
 10
-38.452800000000003
 20
-70.379100000000008
 30
0.0
 10
-37.429700000000004
 20
-71.649100000000004
 30
0.0
 10
-37.429700000000004
 20
-71.649100000000004
 30
0.0
 10
-38.876100000000001
 20
-71.472800000000007
 30
0.0
 10
-39.793300000000002
 20
-72.566400000000002
 30
0.0
 10
-40.886900000000004
 20
-73.23660000000001
 30
0.0
 10
-40.886900000000004
 20
-73.23660000000001
 30
0.0
 10
-41.557200000000002
 20
-73.23660000000001
 30
0.0
 10
-42.1922
 20
-73.201400000000007
 30
0.0
 10
-42.827200000000005
 20
-73.130800000000008
 30
0.0
 10
-42.827200000000005
 20
-73.130800000000008
 30
0.0
 10
-42.015799999999999
 20
-72.636899999999997
 30
0.0
 10
-40.816400000000002
 20
-72.601600000000005
 30
0.0
 10
-40.322500000000005
 20
-71.719700000000003
 30
0.0
 10
-40.322500000000005
 20
-71.719700000000003
 30
0.0
 10
-40.816400000000002
 20
-71.472800000000007
 30
0.0
 10
-41.310300000000005
 20
-71.261099999999999
 30
0.0
 10
-41.804200000000002
 20
-71.014099999999999
 30
0.0
 10
-41.804200000000002
 20
-71.014099999999999
 30
0.0
 10
-41.698300000000003
 20
-70.6614
 30
0.0
 10
-41.557200000000002
 20
-70.343900000000005
 30
0.0
 10
-41.4514
 20
-69.991100000000003
 30
0.0
  0
SPLINE
  5
8F
100
AcDbEntity
  8
LAYER_1
 62
     8
100
AcDbSpline
210
0.0
220
0.0
230
1.0
 70
     1
 71
     3
 72
    36
 73
    32
 74
     0
 42
0.0000000001
 43
0.0000000001
 40
0.0
 40
0.0
 40
0.0
 40
0.0
 40
0.125
 40
0.125
 40
0.125
 40
0.125
 40
0.25
 40
0.25
 40
0.25
 40
0.25
 40
0.375
 40
0.375
 40
0.375
 40
0.375
 40
0.5
 40
0.5
 40
0.5
 40
0.5
 40
0.625
 40
0.625
 40
0.625
 40
0.625
 40
0.75
 40
0.75
 40
0.75
 40
0.75
 40
0.875
 40
0.875
 40
0.875
 40
0.875
 40
1.0
 40
1.0
 40
1.0
 40
1.0
 10
-14.463900000000001
 20
-70.767200000000003
 30
0.0
 10
-5.2564000000000002
 20
-70.061599999999999
 30
0.0
 10
4.0569000000000006
 20
-70.202799999999996
 30
0.0
 10
13.193900000000001
 20
-71.366900000000001
 30
0.0
 10
13.193900000000001
 20
-71.366900000000001
 30
0.0
 10
9.8425000000000011
 20
-71.719700000000003
 30
0.0
 10
6.5264000000000006
 20
-70.97890000000001
 30
0.0
 10
3.1750000000000003
 20
-71.084699999999998
 30
0.0
 10
3.1750000000000003
 20
-71.084699999999998
 30
0.0
 10
-0.4233
 20
-70.308599999999998
 30
0.0
 10
-4.0922000000000001
 20
-71.225800000000007
 30
0.0
 10
-7.7258000000000004
 20
-71.014099999999999
 30
0.0
 10
-7.7258000000000004
 20
-71.014099999999999
 30
0.0
 10
-10.689200000000001
 20
-70.696600000000004
 30
0.0
 10
-13.687800000000001
 20
-71.331600000000009
 30
0.0
 10
-16.686400000000003
 20
-71.155299999999997
 30
0.0
 10
-16.686400000000003
 20
-71.155299999999997
 30
0.0
 10
-16.439399999999999
 20
-71.261099999999999
 30
0.0
 10
-15.9808
 20
-71.472800000000007
 30
0.0
 10
-15.7339
 20
-71.613900000000001
 30
0.0
 10
-15.7339
 20
-71.613900000000001
 30
0.0
 10
-16.333600000000001
 20
-71.790300000000002
 30
0.0
 10
-16.933299999999999
 20
-71.75500000000001
 30
0.0
 10
-17.533100000000001
 20
-71.75500000000001
 30
0.0
 10
-17.533100000000001
 20
-71.75500000000001
 30
0.0
 10
-18.062200000000001
 20
-71.649100000000004
 30
0.0
 10
-18.5914
 20
-71.50800000000001
 30
0.0
 10
-19.1205
 20
-71.402200000000008
 30
0.0
 10
-19.1205
 20
-71.402200000000008
 30
0.0
 10
-17.6389
 20
-70.802500000000009
 30
0.0
 10
-16.016100000000002
 20
-70.837800000000001
 30
0.0
 10
-14.463900000000001
 20
-70.767200000000003
 30
0.0
  0
SPLINE
  5
90
100
AcDbEntity
  8
LAYER_1
 62
     8
100
AcDbSpline
210
0.0
220
0.0
230
1.0
 70
     1
 71
     3
 72
    16
 73
    12
 74
     0
 42
0.0000000001
 43
0.0000000001
 40
0.0
 40
0.0
 40
0.0
 40
0.0
 40
0.3333333333333333
 40
0.3333333333333333
 40
0.3333333333333333
 40
0.3333333333333333
 40
0.6666666666666666
 40
0.6666666666666666
 40
0.6666666666666666
 40
0.6666666666666666
 40
1.0
 40
1.0
 40
1.0
 40
1.0
 10
-47.977800000000002
 20
-72.037199999999999
 30
0.0
 10
-47.095800000000004
 20
-71.719700000000003
 30
0.0
 10
-46.496100000000006
 20
-70.943600000000004
 30
0.0
 10
-45.755300000000005
 20
-70.379100000000008
 30
0.0
 10
-45.755300000000005
 20
-70.379100000000008
 30
0.0
 10
-45.931699999999999
 20
-71.084699999999998
 30
0.0
 10
-46.319700000000005
 20
-71.75500000000001
 30
0.0
 10
-46.778300000000002
 20
-72.354700000000008
 30
0.0
 10
-46.778300000000002
 20
-72.354700000000008
 30
0.0
 10
-47.166400000000003
 20
-72.248900000000006
 30
0.0
 10
-47.589700000000001
 20
-72.143000000000001
 30
0.0
 10
-47.977800000000002
 20
-72.037199999999999
 30
0.0
  0
SPLINE
  5
91
100
AcDbEntity
  8
LAYER_1
 62
     8
100
AcDbSpline
210
0.0
220
0.0
230
1.0
 70
     1
 71
     3
 72
    28
 73
    24
 74
     0
 42
0.0000000001
 43
0.0000000001
 40
0.0
 40
0.0
 40
0.0
 40
0.0
 40
0.1666666666666667
 40
0.1666666666666667
 40
0.1666666666666667
 40
0.1666666666666667
 40
0.3333333333333333
 40
0.3333333333333333
 40
0.3333333333333333
 40
0.3333333333333333
 40
0.5
 40
0.5
 40
0.5
 40
0.5
 40
0.6666666666666666
 40
0.6666666666666666
 40
0.6666666666666666
 40
0.6666666666666666
 40
0.8333333333333333
 40
0.8333333333333333
 40
0.8333333333333333
 40
0.8333333333333333
 40
1.0
 40
1.0
 40
1.0
 40
1.0
 10
43.8855
 20
-70.520300000000006
 30
0.0
 10
45.190800000000003
 20
-70.626100000000008
 30
0.0
 10
46.813600000000001
 20
-70.308599999999998
 30
0.0
 10
47.730800000000002
 20
-71.402200000000008
 30
0.0
 10
47.730800000000002
 20
-71.402200000000008
 30
0.0
 10
47.730800000000002
 20
-71.402200000000008
 30
0.0
 10
47.625
 20
-71.649100000000004
 30
0.0
 10
47.625
 20
-71.649100000000004
 30
0.0
 10
47.625
 20
-71.649100000000004
 30
0.0
 10
47.483900000000006
 20
-71.613900000000001
 30
0.0
 10
47.166400000000003
 20
-71.543300000000002
 30
0.0
 10
47.025300000000001
 20
-71.472800000000007
 30
0.0
 10
47.025300000000001
 20
-71.472800000000007
 30
0.0
 10
46.707799999999999
 20
-70.943600000000004
 30
0.0
 10
46.390300000000003
 20
-70.908299999999997
 30
0.0
 10
46.072800000000001
 20
-71.402200000000008
 30
0.0
 10
46.072800000000001
 20
-71.402200000000008
 30
0.0
 10
46.072800000000001
 20
-71.402200000000008
 30
0.0
 10
45.966900000000003
 20
-71.578600000000009
 30
0.0
 10
45.966900000000003
 20
-71.578600000000009
 30
0.0
 10
45.966900000000003
 20
-71.578600000000009
 30
0.0
 10
45.296700000000001
 20
-71.296400000000006
 30
0.0
 10
43.532800000000002
 20
-71.649100000000004
 30
0.0
 10
43.8855
 20
-70.520300000000006
 30
0.0
  0
SPLINE
  5
92
100
AcDbEntity
  8
LAYER_1
 62
     9
100
AcDbSpline
210
0.0
220
0.0
230
1.0
 70
     1
 71
     3
 72
    16
 73
    12
 74
     0
 42
0.0000000001
 43
0.0000000001
 40
0.0
 40
0.0
 40
0.0
 40
0.0
 40
0.3333333333333333
 40
0.3333333333333333
 40
0.3333333333333333
 40
0.3333333333333333
 40
0.6666666666666666
 40
0.6666666666666666
 40
0.6666666666666666
 40
0.6666666666666666
 40
1.0
 40
1.0
 40
1.0
 40
1.0
 10
-49.847500000000004
 20
-71.649100000000004
 30
0.0
 10
-49.776900000000005
 20
-71.50800000000001
 30
0.0
 10
-49.600500000000004
 20
-71.225800000000007
 30
0.0
 10
-49.530000000000001
 20
-71.084699999999998
 30
0.0
 10
-49.530000000000001
 20
-71.084699999999998
 30
0.0
 10
-48.965500000000006
 20
-71.649100000000004
 30
0.0
 10
-48.436399999999999
 20
-72.284100000000009
 30
0.0
 10
-47.8367
 20
-72.848600000000005
 30
0.0
 10
-47.8367
 20
-72.848600000000005
 30
0.0
 10
-48.648000000000003
 20
-72.70750000000001
 30
0.0
 10
-49.283000000000001
 20
-72.178300000000007
 30
0.0
 10
-49.847500000000004
 20
-71.649100000000004
 30
0.0
  0
SPLINE
  5
93
100
AcDbEntity
  8
LAYER_1
 62
    17
100
AcDbSpline
210
0.0
220
0.0
230
1.0
 70
     1
 71
     3
 72
    16
 73
    12
 74
     0
 42
0.0000000001
 43
0.0000000001
 40
0.0
 40
0.0
 40
0.0
 40
0.0
 40
0.3333333333333333
 40
0.3333333333333333
 40
0.3333333333333333
 40
0.3333333333333333
 40
0.6666666666666666
 40
0.6666666666666666
 40
0.6666666666666666
 40
0.6666666666666666
 40
1.0
 40
1.0
 40
1.0
 40
1.0
 10
-16.686400000000003
 20
-71.155299999999997
 30
0.0
 10
-13.687800000000001
 20
-71.331600000000009
 30
0.0
 10
-10.689200000000001
 20
-70.696600000000004
 30
0.0
 10
-7.7258000000000004
 20
-71.014099999999999
 30
0.0
 10
-7.7258000000000004
 20
-71.014099999999999
 30
0.0
 10
-10.371700000000001
 20
-71.296400000000006
 30
0.0
 10
-13.052800000000001
 20
-71.366900000000001
 30
0.0
 10
-15.7339
 20
-71.613900000000001
 30
0.0
 10
-15.7339
 20
-71.613900000000001
 30
0.0
 10
-15.9808
 20
-71.472800000000007
 30
0.0
 10
-16.439399999999999
 20
-71.261099999999999
 30
0.0
 10
-16.686400000000003
 20
-71.155299999999997
 30
0.0
  0
SPLINE
  5
94
100
AcDbEntity
  8
LAYER_1
 62
    17
100
AcDbSpline
210
0.0
220
0.0
230
1.0
 70
     1
 71
     3
 72
    12
 73
     8
 74
     0
 42
0.0000000001
 43
0.0000000001
 40
0.0
 40
0.0
 40
0.0
 40
0.0
 40
0.5
 40
0.5
 40
0.5
 40
0.5
 40
1.0
 40
1.0
 40
1.0
 40
1.0
 10
46.072800000000001
 20
-71.402200000000008
 30
0.0
 10
46.390300000000003
 20
-70.908299999999997
 30
0.0
 10
46.707799999999999
 20
-70.943600000000004
 30
0.0
 10
47.025300000000001
 20
-71.472800000000007
 30
0.0
 10
47.025300000000001
 20
-71.472800000000007
 30
0.0
 10
46.6372
 20
-71.896100000000004
 30
0.0
 10
46.319700000000005
 20
-71.860799999999998
 30
0.0
 10
46.072800000000001
 20
-71.402200000000008
 30
0.0
  0
SPLINE
  5
95
100
AcDbEntity
  8
LAYER_1
 62
    17
100
AcDbSpline
210
0.0
220
0.0
230
1.0
 70
     1
 71
     3
 72
    36
 73
    32
 74
     0
 42
0.0000000001
 43
0.0000000001
 40
0.0
 40
0.0
 40
0.0
 40
0.0
 40
0.125
 40
0.125
 40
0.125
 40
0.125
 40
0.25
 40
0.25
 40
0.25
 40
0.25
 40
0.375
 40
0.375
 40
0.375
 40
0.375
 40
0.5
 40
0.5
 40
0.5
 40
0.5
 40
0.625
 40
0.625
 40
0.625
 40
0.625
 40
0.75
 40
0.75
 40
0.75
 40
0.75
 40
0.875
 40
0.875
 40
0.875
 40
0.875
 40
1.0
 40
1.0
 40
1.0
 40
1.0
 10
-31.503
 20
-72.566400000000002
 30
0.0
 10
-27.375500000000002
 20
-72.248900000000006
 30
0.0
 10
-23.283300000000001
 20
-71.613900000000001
 30
0.0
 10
-19.1205
 20
-71.402200000000008
 30
0.0
 10
-19.1205
 20
-71.402200000000008
 30
0.0
 10
-18.5914
 20
-71.50800000000001
 30
0.0
 10
-18.062200000000001
 20
-71.649100000000004
 30
0.0
 10
-17.533100000000001
 20
-71.75500000000001
 30
0.0
 10
-17.533100000000001
 20
-71.75500000000001
 30
0.0
 10
-20.3553
 20
-71.790300000000002
 30
0.0
 10
-23.142200000000003
 20
-72.319400000000002
 30
0.0
 10
-25.964400000000001
 20
-72.566400000000002
 30
0.0
 10
-25.964400000000001
 20
-72.566400000000002
 30
0.0
 10
-27.234400000000001
 20
-72.672200000000004
 30
0.0
 10
-28.5044
 20
-72.848600000000005
 30
0.0
 10
-29.7392
 20
-73.201400000000007
 30
0.0
 10
-29.7392
 20
-73.201400000000007
 30
0.0
 10
-29.068900000000003
 20
-73.518900000000002
 30
0.0
 10
-28.116400000000002
 20
-73.130800000000008
 30
0.0
 10
-27.340300000000003
 20
-73.271900000000002
 30
0.0
 10
-27.340300000000003
 20
-73.271900000000002
 30
0.0
 10
-27.975300000000001
 20
-73.48360000000001
 30
0.0
 10
-28.645500000000002
 20
-73.518900000000002
 30
0.0
 10
-29.315800000000003
 20
-73.765799999999999
 30
0.0
 10
-29.315800000000003
 20
-73.765799999999999
 30
0.0
 10
-29.7392
 20
-73.554100000000005
 30
0.0
 10
-30.127200000000002
 20
-73.23660000000001
 30
0.0
 10
-30.585800000000003
 20
-73.060299999999998
 30
0.0
 10
-30.585800000000003
 20
-73.060299999999998
 30
0.0
 10
-30.868000000000002
 20
-72.883899999999997
 30
0.0
 10
-31.185500000000001
 20
-72.70750000000001
 30
0.0
 10
-31.503
 20
-72.566400000000002
 30
0.0
  0
SPLINE
  5
96
100
AcDbEntity
  8
LAYER_1
 62
     8
100
AcDbSpline
210
0.0
220
0.0
230
1.0
 70
     1
 71
     3
 72
    20
 73
    16
 74
     0
 42
0.0000000001
 43
0.0000000001
 40
0.0
 40
0.0
 40
0.0
 40
0.0
 40
0.25
 40
0.25
 40
0.25
 40
0.25
 40
0.5
 40
0.5
 40
0.5
 40
0.5
 40
0.75
 40
0.75
 40
0.75
 40
0.75
 40
1.0
 40
1.0
 40
1.0
 40
1.0
 10
17.427199999999999
 20
-71.472800000000007
 30
0.0
 10
20.672800000000002
 20
-71.402200000000008
 30
0.0
 10
23.918300000000002
 20
-71.366900000000001
 30
0.0
 10
27.163900000000002
 20
-71.75500000000001
 30
0.0
 10
27.163900000000002
 20
-71.75500000000001
 30
0.0
 10
29.5275
 20
-72.107799999999997
 30
0.0
 10
31.9969
 20
-71.402200000000008
 30
0.0
 10
34.325299999999999
 20
-72.178300000000007
 30
0.0
 10
34.325299999999999
 20
-72.178300000000007
 30
0.0
 10
32.631900000000002
 20
-72.178300000000007
 30
0.0
 10
30.903300000000002
 20
-72.284100000000009
 30
0.0
 10
29.210000000000001
 20
-72.495800000000003
 30
0.0
 10
29.210000000000001
 20
-72.495800000000003
 30
0.0
 10
25.3294
 20
-71.860799999999998
 30
0.0
 10
21.237200000000001
 20
-72.143000000000001
 30
0.0
 10
17.427199999999999
 20
-71.472800000000007
 30
0.0
  0
SPLINE
  5
97
100
AcDbEntity
  8
LAYER_1
 62
    17
100
AcDbSpline
210
0.0
220
0.0
230
1.0
 70
     1
 71
     3
 72
    20
 73
    16
 74
     0
 42
0.0000000001
 43
0.0000000001
 40
0.0
 40
0.0
 40
0.0
 40
0.0
 40
0.25
 40
0.25
 40
0.25
 40
0.25
 40
0.5
 40
0.5
 40
0.5
 40
0.5
 40
0.75
 40
0.75
 40
0.75
 40
0.75
 40
1.0
 40
1.0
 40
1.0
 40
1.0
 10
29.210000000000001
 20
-72.495800000000003
 30
0.0
 10
30.903300000000002
 20
-72.284100000000009
 30
0.0
 10
32.631900000000002
 20
-72.178300000000007
 30
0.0
 10
34.325299999999999
 20
-72.178300000000007
 30
0.0
 10
34.325299999999999
 20
-72.178300000000007
 30
0.0
 10
35.171900000000001
 20
-72.390000000000001
 30
0.0
 10
36.018599999999999
 20
-72.495800000000003
 30
0.0
 10
36.900500000000001
 20
-72.601600000000005
 30
0.0
 10
36.900500000000001
 20
-72.601600000000005
 30
0.0
 10
35.665800000000004
 20
-73.025000000000006
 30
0.0
 10
34.360500000000002
 20
-72.778000000000006
 30
0.0
 10
33.125799999999998
 20
-72.601600000000005
 30
0.0
 10
33.125799999999998
 20
-72.601600000000005
 30
0.0
 10
31.820500000000003
 20
-72.425300000000007
 30
0.0
 10
30.5153
 20
-72.531100000000009
 30
0.0
 10
29.210000000000001
 20
-72.495800000000003
 30
0.0
  0
SPLINE
  5
98
100
AcDbEntity
  8
LAYER_1
 62
     8
100
AcDbSpline
210
0.0
220
0.0
230
1.0
 70
     1
 71
     3
 72
    32
 73
    28
 74
     0
 42
0.0000000001
 43
0.0000000001
 40
0.0
 40
0.0
 40
0.0
 40
0.0
 40
0.1428571428571429
 40
0.1428571428571429
 40
0.1428571428571429
 40
0.1428571428571429
 40
0.2857142857142857
 40
0.2857142857142857
 40
0.2857142857142857
 40
0.2857142857142857
 40
0.4285714285714286
 40
0.4285714285714286
 40
0.4285714285714286
 40
0.4285714285714286
 40
0.5714285714285714
 40
0.5714285714285714
 40
0.5714285714285714
 40
0.5714285714285714
 40
0.7142857142857142
 40
0.7142857142857142
 40
0.7142857142857142
 40
0.7142857142857142
 40
0.857142857142857
 40
0.857142857142857
 40
0.857142857142857
 40
0.857142857142857
 40
1.0
 40
1.0
 40
1.0
 40
1.0
 10
-43.638600000000004
 20
-74.048000000000002
 30
0.0
 10
-39.511099999999999
 20
-74.153900000000007
 30
0.0
 10
-35.489400000000003
 20
-73.554100000000005
 30
0.0
 10
-31.503
 20
-72.566400000000002
 30
0.0
 10
-31.503
 20
-72.566400000000002
 30
0.0
 10
-31.185500000000001
 20
-72.70750000000001
 30
0.0
 10
-30.868000000000002
 20
-72.883899999999997
 30
0.0
 10
-30.585800000000003
 20
-73.060299999999998
 30
0.0
 10
-30.585800000000003
 20
-73.060299999999998
 30
0.0
 10
-31.0092
 20
-73.095500000000001
 30
0.0
 10
-31.432500000000001
 20
-73.1661
 30
0.0
 10
-31.891100000000002
 20
-73.23660000000001
 30
0.0
 10
-31.891100000000002
 20
-73.23660000000001
 30
0.0
 10
-32.420300000000005
 20
-73.307200000000009
 30
0.0
 10
-32.949400000000004
 20
-73.554100000000005
 30
0.0
 10
-33.443300000000001
 20
-73.730500000000006
 30
0.0
 10
-33.443300000000001
 20
-73.730500000000006
 30
0.0
 10
-33.655000000000001
 20
-73.801100000000005
 30
0.0
 10
-34.042999999999999
 20
-73.871600000000001
 30
0.0
 10
-34.2194
 20
-73.906900000000007
 30
0.0
 10
-34.2194
 20
-73.906900000000007
 30
0.0
 10
-36.9358
 20
-74.330300000000008
 30
0.0
 10
-39.722799999999999
 20
-74.930000000000007
 30
0.0
 10
-42.474400000000003
 20
-74.400800000000004
 30
0.0
 10
-42.474400000000003
 20
-74.400800000000004
 30
0.0
 10
-42.756700000000002
 20
-74.330300000000008
 30
0.0
 10
-43.356400000000001
 20
-74.118600000000001
 30
0.0
 10
-43.638600000000004
 20
-74.048000000000002
 30
0.0
  0
SPLINE
  5
99
100
AcDbEntity
  8
LAYER_1
 62
     9
100
AcDbSpline
210
0.0
220
0.0
230
1.0
 70
     1
 71
     3
 72
    16
 73
    12
 74
     0
 42
0.0000000001
 43
0.0000000001
 40
0.0
 40
0.0
 40
0.0
 40
0.0
 40
0.3333333333333333
 40
0.3333333333333333
 40
0.3333333333333333
 40
0.3333333333333333
 40
0.6666666666666666
 40
0.6666666666666666
 40
0.6666666666666666
 40
0.6666666666666666
 40
1.0
 40
1.0
 40
1.0
 40
1.0
 10
-29.7392
 20
-73.201400000000007
 30
0.0
 10
-28.5044
 20
-72.848600000000005
 30
0.0
 10
-27.234400000000001
 20
-72.672200000000004
 30
0.0
 10
-25.964400000000001
 20
-72.566400000000002
 30
0.0
 10
-25.964400000000001
 20
-72.566400000000002
 30
0.0
 10
-26.423000000000002
 20
-72.778000000000006
 30
0.0
 10
-26.952200000000001
 20
-72.883899999999997
 30
0.0
 10
-27.340300000000003
 20
-73.271900000000002
 30
0.0
 10
-27.340300000000003
 20
-73.271900000000002
 30
0.0
 10
-28.116400000000002
 20
-73.130800000000008
 30
0.0
 10
-29.068900000000003
 20
-73.518900000000002
 30
0.0
 10
-29.7392
 20
-73.201400000000007
 30
0.0
  0
SPLINE
  5
9A
100
AcDbEntity
  8
LAYER_1
 62
     8
100
AcDbSpline
210
0.0
220
0.0
230
1.0
 70
     1
 71
     3
 72
    24
 73
    20
 74
     0
 42
0.0000000001
 43
0.0000000001
 40
0.0
 40
0.0
 40
0.0
 40
0.0
 40
0.2
 40
0.2
 40
0.2
 40
0.2
 40
0.4
 40
0.4
 40
0.4
 40
0.4
 40
0.6000000000000001
 40
0.6000000000000001
 40
0.6000000000000001
 40
0.6000000000000001
 40
0.8
 40
0.8
 40
0.8
 40
0.8
 40
1.0
 40
1.0
 40
1.0
 40
1.0
 10
36.900500000000001
 20
-72.601600000000005
 30
0.0
 10
37.9236
 20
-72.70750000000001
 30
0.0
 10
38.9114
 20
-72.848600000000005
 30
0.0
 10
39.969700000000003
 20
-72.9191
 30
0.0
 10
39.969700000000003
 20
-72.9191
 30
0.0
 10
39.8992
 20
-73.095500000000001
 30
0.0
 10
39.793300000000002
 20
-73.448300000000003
 30
0.0
 10
39.722799999999999
 20
-73.624700000000004
 30
0.0
 10
39.722799999999999
 20
-73.624700000000004
 30
0.0
 10
37.535499999999999
 20
-74.295000000000002
 30
0.0
 10
35.4542
 20
-72.848600000000005
 30
0.0
 10
33.231700000000004
 20
-73.307200000000009
 30
0.0
 10
33.231700000000004
 20
-73.307200000000009
 30
0.0
 10
33.196400000000004
 20
-73.130800000000008
 30
0.0
 10
33.125799999999998
 20
-72.778000000000006
 30
0.0
 10
33.125799999999998
 20
-72.601600000000005
 30
0.0
 10
33.125799999999998
 20
-72.601600000000005
 30
0.0
 10
34.360500000000002
 20
-72.778000000000006
 30
0.0
 10
35.665800000000004
 20
-73.025000000000006
 30
0.0
 10
36.900500000000001
 20
-72.601600000000005
 30
0.0
  0
SPLINE
  5
9B
100
AcDbEntity
  8
LAYER_1
 62
     9
100
AcDbSpline
210
0.0
220
0.0
230
1.0
 70
     1
 71
     3
 72
    16
 73
    12
 74
     0
 42
0.0000000001
 43
0.0000000001
 40
0.0
 40
0.0
 40
0.0
 40
0.0
 40
0.3333333333333333
 40
0.3333333333333333
 40
0.3333333333333333
 40
0.3333333333333333
 40
0.6666666666666666
 40
0.6666666666666666
 40
0.6666666666666666
 40
0.6666666666666666
 40
1.0
 40
1.0
 40
1.0
 40
1.0
 10
-33.443300000000001
 20
-73.730500000000006
 30
0.0
 10
-32.949400000000004
 20
-73.554100000000005
 30
0.0
 10
-32.420300000000005
 20
-73.307200000000009
 30
0.0
 10
-31.891100000000002
 20
-73.23660000000001
 30
0.0
 10
-31.891100000000002
 20
-73.23660000000001
 30
0.0
 10
-31.679400000000001
 20
-73.412999999999997
 30
0.0
 10
-31.326700000000002
 20
-73.695300000000003
 30
0.0
 10
-31.150300000000001
 20
-73.871600000000001
 30
0.0
 10
-31.150300000000001
 20
-73.871600000000001
 30
0.0
 10
-31.891100000000002
 20
-74.118600000000001
 30
0.0
 10
-32.702500000000001
 20
-73.695300000000003
 30
0.0
 10
-33.443300000000001
 20
-73.730500000000006
 30
0.0
  0
SPLINE
  5
9C
100
AcDbEntity
  8
LAYER_1
 62
     9
100
AcDbSpline
210
0.0
220
0.0
230
1.0
 70
     1
 71
     3
 72
    20
 73
    16
 74
     0
 42
0.0000000001
 43
0.0000000001
 40
0.0
 40
0.0
 40
0.0
 40
0.0
 40
0.25
 40
0.25
 40
0.25
 40
0.25
 40
0.5
 40
0.5
 40
0.5
 40
0.5
 40
0.75
 40
0.75
 40
0.75
 40
0.75
 40
1.0
 40
1.0
 40
1.0
 40
1.0
 10
-45.437800000000003
 20
-73.871600000000001
 30
0.0
 10
-45.437800000000003
 20
-73.871600000000001
 30
0.0
 10
-45.155500000000004
 20
-73.906900000000007
 30
0.0
 10
-45.155500000000004
 20
-73.906900000000007
 30
0.0
 10
-45.155500000000004
 20
-73.906900000000007
 30
0.0
 10
-44.943899999999999
 20
-74.224400000000003
 30
0.0
 10
-44.838000000000001
 20
-74.577200000000005
 30
0.0
 10
-44.8733
 20
-74.965299999999999
 30
0.0
 10
-44.8733
 20
-74.965299999999999
 30
0.0
 10
-44.8733
 20
-74.965299999999999
 30
0.0
 10
-45.472999999999999
 20
-74.965299999999999
 30
0.0
 10
-45.472999999999999
 20
-74.965299999999999
 30
0.0
 10
-45.472999999999999
 20
-74.965299999999999
 30
0.0
 10
-45.437800000000003
 20
-74.683000000000007
 30
0.0
 10
-45.437800000000003
 20
-74.118600000000001
 30
0.0
 10
-45.437800000000003
 20
-73.871600000000001
 30
0.0
  0
SPLINE
  5
9D
100
AcDbEntity
  8
LAYER_1
 62
     9
100
AcDbSpline
210
0.0
220
0.0
230
1.0
 70
     1
 71
     3
 72
    28
 73
    24
 74
     0
 42
0.0000000001
 43
0.0000000001
 40
0.0
 40
0.0
 40
0.0
 40
0.0
 40
0.1666666666666667
 40
0.1666666666666667
 40
0.1666666666666667
 40
0.1666666666666667
 40
0.3333333333333333
 40
0.3333333333333333
 40
0.3333333333333333
 40
0.3333333333333333
 40
0.5
 40
0.5
 40
0.5
 40
0.5
 40
0.6666666666666666
 40
0.6666666666666666
 40
0.6666666666666666
 40
0.6666666666666666
 40
0.8333333333333333
 40
0.8333333333333333
 40
0.8333333333333333
 40
0.8333333333333333
 40
1.0
 40
1.0
 40
1.0
 40
1.0
 10
-42.474400000000003
 20
-74.400800000000004
 30
0.0
 10
-39.722799999999999
 20
-74.930000000000007
 30
0.0
 10
-36.9358
 20
-74.330300000000008
 30
0.0
 10
-34.2194
 20
-73.906900000000007
 30
0.0
 10
-34.2194
 20
-73.906900000000007
 30
0.0
 10
-34.184200000000004
 20
-74.048000000000002
 30
0.0
 10
-34.113599999999998
 20
-74.330300000000008
 30
0.0
 10
-34.078299999999999
 20
-74.471400000000003
 30
0.0
 10
-34.078299999999999
 20
-74.471400000000003
 30
0.0
 10
-34.536900000000003
 20
-74.400800000000004
 30
0.0
 10
-35.030799999999999
 20
-74.295000000000002
 30
0.0
 10
-35.489400000000003
 20
-74.224400000000003
 30
0.0
 10
-35.489400000000003
 20
-74.224400000000003
 30
0.0
 10
-35.560000000000002
 20
-74.43610000000001
 30
0.0
 10
-35.736400000000003
 20
-74.788899999999998
 30
0.0
 10
-35.806899999999999
 20
-74.965299999999999
 30
0.0
 10
-35.806899999999999
 20
-74.965299999999999
 30
0.0
 10
-35.806899999999999
 20
-74.965299999999999
 30
0.0
 10
-42.474400000000003
 20
-74.965299999999999
 30
0.0
 10
-42.474400000000003
 20
-74.965299999999999
 30
0.0
 10
-42.474400000000003
 20
-74.965299999999999
 30
0.0
 10
-42.474400000000003
 20
-74.824100000000001
 30
0.0
 10
-42.474400000000003
 20
-74.541899999999998
 30
0.0
 10
-42.474400000000003
 20
-74.400800000000004
 30
0.0
  0
SPLINE
  5
9E
100
AcDbEntity
  8
LAYER_1
 62
     9
100
AcDbSpline
210
0.0
220
0.0
230
1.0
 70
     1
 71
     3
 72
    12
 73
     8
 74
     0
 42
0.0000000001
 43
0.0000000001
 40
0.0
 40
0.0
 40
0.0
 40
0.0
 40
0.5
 40
0.5
 40
0.5
 40
0.5
 40
1.0
 40
1.0
 40
1.0
 40
1.0
 10
-44.414700000000003
 20
-74.965299999999999
 30
0.0
 10
-44.203000000000003
 20
-74.506600000000006
 30
0.0
 10
-43.991399999999999
 20
-74.506600000000006
 30
0.0
 10
-43.744399999999999
 20
-74.965299999999999
 30
0.0
 10
-43.744399999999999
 20
-74.965299999999999
 30
0.0
 10
-43.744399999999999
 20
-74.965299999999999
 30
0.0
 10
-44.414700000000003
 20
-74.965299999999999
 30
0.0
 10
-44.414700000000003
 20
-74.965299999999999
 30
0.0
  0
ENDSEC
  0
SECTION
  2
OBJECTS
  0
DICTIONARY
  5
19
100
AcDbDictionary
  3
ACAD_GROUP
350
1A
  3
ACAD_MLINESTYLE
350
1B
  0
DICTIONARY
  5
1A
102
{ACAD_REACTORS
330
19
102
}
100
AcDbDictionary
  0
DICTIONARY
  5
1B
102
{ACAD_REACTORS
330
19
102
}
100
AcDbDictionary
  3
STANDARD
350
1C
  0
MLINESTYLE
  5
1C
102
{ACAD_REACTORS
330
1B
102
}
100
AcDbMlineStyle
  2
STANDARD
 70
     0
  3

 62
     0
 51
90.0
 52
90.0
 71
     2
 49
0.5
 62
   256
  6
BYLAYER
 49
-0.5
 62
   256
  6
BYLAYER
  0
DICTIONARY
  5
22
102
{ACAD_REACTORS
330
19
102
}
100
AcDbDictionary
  0
ENDSEC
  0
EOF
