  0
SECTION
  2
HEADER
  9
$ACADVER
  1
AC1009
  9
$LIMMIN
 10
-87.893
 20
7.703084
  9
$LIMMAX
 10
411.318
 20
382.1113
  0
ENDSEC
  0
SECTION
  2
TABLES
  0
TABLE
  2
LTYPE
 70
     4
  0
LTYPE
  2
CONTINUOUS
 70
     0
  3
Solid line
 72
    65
 73
     0
 40
0.000000
  0
LTYPE
  2
HIDDEN
 70
     0
  3
 _ _ _ _ _ _ _ _ _ _ _
 72
    65
 73
     2
 40
0.375000
 49
0.250000
 49
-0.125000
  0
LTYPE
  2
DASHED
 70
     0
  3
 ___ ___ ___ ___ ___ ___ ___ 
 72
    65
 73
     2
 40
0.750000
 49
0.500000
 49
-0.250000
  0
LTYPE
  2
CENTER
 70
     0
  3
___ _ ___ _ ___ _ ___
 72
    65
 73
     4
 40
2.000000
 49
1.250000
 49
-0.250000
 49
0.250000
 49
-0.250000
  0
LTYPE
  2
BORDER
 70
     0
  3
___ ___ . ___ ___ . ___ ___
 72
    65
 73
     6
 40
1.750000
 49
0.500000
 49
-0.250000
 49
0.500000
 49
-0.250000
 49
0.000000
 49
-0.250000
  0
LTYPE
  2
DOT
 70
     0
  3
.................
 72
    65
 73
     2
 40
0.250000
 49
0.000000
 49
-0.250000
  0
LTYPE
  2
DASHDOT
 70
     0
  3
__ . __ . __ . __
 72
    65
 73
     4
 40
1.000000
 49
0.500000
 49
-0.250000
 49
0.000000
 49
-0.250000
  0
LTYPE
  2
DIVIDE
 70
     0
  3
___ .. ___ .. ___ .. ___
 72
    65
 73
     6
 40
1.250000
 49
0.500000
 49
-0.250000
 49
0.000000
 49
-0.250000
 49
0.000000
 49
-0.250000
  0
ENDTAB
  0
TABLE
  2
LAYER
 70
     8
  0
LAYER
  2
BLACK
 70
     0
 62
     0
  6
CONTINUOUS
  0
LAYER
  2
WHITE
 70
     0
 62
     7
  6
CONTINUOUS
  0
LAYER
  2
RED
 70
     0
 62
     1
  6
CONTINUOUS
  0
LAYER
  2
YELLOW
 70
     0
 62
     2
  6
CONTINUOUS
  0
LAYER
  2
GREEN
 70
     0
 62
     3
  6
CONTINUOUS
  0
LAYER
  2
CYAN
 70
     0
 62
     4
  6
CONTINUOUS
  0
LAYER
  2
BLUE
 70
     0
 62
     5
  6
CONTINUOUS
  0
LAYER
  2
MAGENTA
 70
     0
 62
     6
  6
CONTINUOUS
  0
ENDTAB
  0
ENDSEC
  0
SECTION
  2
BLOCKS
  0
ENDSEC
  0
SECTION
  2
ENTITIES
 0
LINE
 8
WHITE
 10
189.29
 20
269.48
 30
0.0000
 11
189.29
 21
244.76
 31
0.0000
 6
CONTINUOUS
 0
LINE
 8
WHITE
 10
189.29
 20
244.76
 30
0.0000
 11
185.94
 21
244.28
 31
0.0000
 6
CONTINUOUS
 0
ARC
 8
WHITE
 10
182.225
 20
270.259
 30
 0
 40
26.24328
 50
261.8618
 51
278.1381
 6
CONTINUOUS
 0
LINE
 8
WHITE
 10
178.51
 20
244.28
 30
0.0000
 11
175.16
 21
244.76
 31
0.0000
 6
CONTINUOUS
 0
LINE
 8
WHITE
 10
175.16
 20
244.76
 30
0.0000
 11
175.16
 21
294.21
 31
0.0000
 6
CONTINUOUS
 0
LINE
 8
WHITE
 10
175.16
 20
294.21
 30
0.0000
 11
176.68
 21
294.64
 31
0.0000
 6
CONTINUOUS
 0
ARC
 8
WHITE
 10
182.225
 20
275.229
 30
 0
 40
20.18747
 50
74.0573
 51
105.9427
 6
CONTINUOUS
 0
LINE
 8
WHITE
 10
187.77
 20
294.64
 30
0.0000
 11
189.29
 21
294.21
 31
0.0000
 6
CONTINUOUS
 0
LINE
 8
WHITE
 10
189.29
 20
294.21
 30
0.0000
 11
189.29
 21
269.48
 31
0.0000
 6
CONTINUOUS
 0
LINE
 8
WHITE
 10
195.32
 20
285.62
 30
0.0000
 11
195.32
 21
294.19
 31
0.0000
 6
CONTINUOUS
 0
ARC
 8
WHITE
 10
197.34
 20
294.19
 30
 0
 40
2.019999
 50
89.71651
 51
180
 6
CONTINUOUS
 0
LINE
 8
WHITE
 10
197.35
 20
296.21
 30
0.0000
 11
210.29
 21
296.09
 31
0.0000
 6
CONTINUOUS
 0
ARC
 8
WHITE
 10
211.092
 20
296.055
 30
 0
 40
.802763
 50
177.5011
 51
182.4991
 6
CONTINUOUS
 0
LINE
 8
WHITE
 10
210.29
 20
296.02
 30
0.0000
 11
210.29
 21
278.84
 31
0.0000
 6
CONTINUOUS
 0
ARC
 8
WHITE
 10
211.1
 20
278.84
 30
 0
 40
.81
 50
180
 51
269.2931
 6
CONTINUOUS
 0
LINE
 8
WHITE
 10
211.09
 20
278.03
 30
0.0000
 11
214.75
 21
278.03
 31
0.0000
 6
CONTINUOUS
 0
LINE
 8
WHITE
 10
214.75
 20
278.03
 30
0.0000
 11
214.75
 21
277.85
 31
0.0000
 6
CONTINUOUS
 0
LINE
 8
WHITE
 10
214.75
 20
277.85
 30
0.0000
 11
211.03
 21
277.05
 31
0.0000
 6
CONTINUOUS
 0
LINE
 8
WHITE
 10
211.03
 20
277.05
 30
0.0000
 11
195.32
 21
277.05
 31
0.0000
 6
CONTINUOUS
 0
LINE
 8
WHITE
 10
195.32
 20
277.05
 30
0.0000
 11
195.32
 21
285.62
 31
0.0000
 6
CONTINUOUS
 0
LINE
 8
WHITE
 10
218.6
 20
277.05
 30
0.0000
 11
216.71
 21
277.05
 31
0.0000
 6
CONTINUOUS
 0
LINE
 8
WHITE
 10
216.71
 20
277.05
 30
0.0000
 11
215.92
 21
277.85
 31
0.0000
 6
CONTINUOUS
 0
LINE
 8
WHITE
 10
215.92
 20
277.85
 30
0.0000
 11
215.92
 21
278.03
 31
0.0000
 6
CONTINUOUS
 0
LINE
 8
WHITE
 10
215.92
 20
278.03
 30
0.0000
 11
216.58
 21
278.03
 31
0.0000
 6
CONTINUOUS
 0
ARC
 8
WHITE
 10
216.58
 20
278.43
 30
 0
 40
.4
 50
270
 51
0
 6
CONTINUOUS
 0
LINE
 8
WHITE
 10
216.98
 20
278.43
 30
0.0000
 11
216.98
 21
295.61
 31
0.0000
 6
CONTINUOUS
 0
ARC
 8
WHITE
 10
215.725
 20
294.026
 30
 0
 40
2.02091
 50
9.225589
 51
51.61029
 6
CONTINUOUS
 0
LINE
 8
WHITE
 10
217.72
 20
294.35
 30
0.0000
 11
220.49
 21
277.05
 31
0.0000
 6
CONTINUOUS
 0
LINE
 8
WHITE
 10
220.49
 20
277.05
 30
0.0000
 11
218.6
 21
277.05
 31
0.0000
 6
CONTINUOUS
 0
LINE
 8
WHITE
 10
224.24
 20
288.63
 30
0.0000
 11
226.09
 21
277.05
 31
0.0000
 6
CONTINUOUS
 0
LINE
 8
WHITE
 10
226.09
 20
277.05
 30
0.0000
 11
230.77
 21
276.46
 31
0.0000
 6
CONTINUOUS
 0
LINE
 8
WHITE
 10
230.77
 20
276.46
 30
0.0000
 11
226.78
 21
299.65
 31
0.0000
 6
CONTINUOUS
 0
LINE
 8
WHITE
 10
226.78
 20
299.65
 30
0.0000
 11
222.39
 21
300.2
 31
0.0000
 6
CONTINUOUS
 0
LINE
 8
WHITE
 10
222.39
 20
300.2
 30
0.0000
 11
224.24
 21
288.63
 31
0.0000
 6
CONTINUOUS
 0
ARC
 8
WHITE
 10
225.67
 20
271.65
 30
 0
 40
.25
 50
180
 51
270
 6
CONTINUOUS
 0
LINE
 8
WHITE
 10
225.42
 20
271.65
 30
0.0000
 11
225.42
 21
271.94
 31
0.0000
 6
CONTINUOUS
 0
ARC
 8
WHITE
 10
225.92
 20
271.951
 30
 0
 40
.50012
 50
93.44019
 51
181.2603
 6
CONTINUOUS
 0
LINE
 8
WHITE
 10
225.89
 20
272.45
 30
0.0000
 11
230.8
 21
272.81
 31
0.0000
 6
CONTINUOUS
 0
LINE
 8
WHITE
 10
230.8
 20
272.81
 30
0.0000
 11
230.98
 21
272.96
 31
0.0000
 6
CONTINUOUS
 0
ARC
 8
WHITE
 10
232.28
 20
271.42
 30
 0
 40
2.015341
 50
49.83051
 51
130.1696
 6
CONTINUOUS
 0
LINE
 8
WHITE
 10
233.58
 20
272.96
 30
0.0000
 11
233.76
 21
272.81
 31
0.0000
 6
CONTINUOUS
 0
LINE
 8
WHITE
 10
233.76
 20
272.81
 30
0.0000
 11
238.68
 21
272.45
 31
0.0000
 6
CONTINUOUS
 0
ARC
 8
WHITE
 10
238.639
 20
271.95
 30
 0
 40
.501678
 50
358.8554
 51
85.31223
 6
CONTINUOUS
 0
LINE
 8
WHITE
 10
239.14
 20
271.94
 30
0.0000
 11
239.14
 21
271.65
 31
0.0000
 6
CONTINUOUS
 0
ARC
 8
WHITE
 10
238.89
 20
271.65
 30
 0
 40
.25
 50
270
 51
0
 6
CONTINUOUS
 0
LINE
 8
WHITE
 10
238.74
 20
271.4
 30
0.0000
 11
238.74
 21
265.35
 31
0.0000
 6
CONTINUOUS
 0
LINE
 8
WHITE
 10
238.74
 20
265.35
 30
0.0000
 11
238.89
 21
265.35
 31
0.0000
 6
CONTINUOUS
 0
ARC
 8
WHITE
 10
238.89
 20
265.1
 30
 0
 40
.25
 50
357.7072
 51
90
 6
CONTINUOUS
 0
LINE
 8
WHITE
 10
239.14
 20
265.09
 30
0.0000
 11
239.14
 21
264.59
 31
0.0000
 6
CONTINUOUS
 0
ARC
 8
WHITE
 10
238.89
 20
264.59
 30
 0
 40
.25
 50
270
 51
0
 6
CONTINUOUS
 0
LINE
 8
WHITE
 10
238.89
 20
264.34
 30
0.0000
 11
238.34
 21
264.34
 31
0.0000
 6
CONTINUOUS
 0
LINE
 8
WHITE
 10
238.34
 20
264.34
 30
0.0000
 11
238.34
 21
241.55
 31
0.0000
 6
CONTINUOUS
 0
ARC
 8
WHITE
 10
237.84
 20
241.544
 30
 0
 40
.500036
 50
279.1989
 51
.687516
 6
CONTINUOUS
 0
LINE
 8
WHITE
 10
237.92
 20
241.05
 30
0.0000
 11
235.6
 21
240.67
 31
0.0000
 6
CONTINUOUS
 0
ARC
 8
WHITE
 10
232.28
 20
260.58
 30
 0
 40
20.18491
 50
260.533
 51
279.467
 6
CONTINUOUS
 0
LINE
 8
WHITE
 10
228.96
 20
240.67
 30
0.0000
 11
226.65
 21
241.05
 31
0.0000
 6
CONTINUOUS
 0
ARC
 8
WHITE
 10
226.736
 20
241.549
 30
 0
 40
.506356
 50
179.886
 51
260.2214
 6
CONTINUOUS
 0
LINE
 8
WHITE
 10
226.23
 20
241.55
 30
0.0000
 11
226.23
 21
264.34
 31
0.0000
 6
CONTINUOUS
 0
LINE
 8
WHITE
 10
226.23
 20
264.34
 30
0.0000
 11
225.67
 21
264.34
 31
0.0000
 6
CONTINUOUS
 0
ARC
 8
WHITE
 10
225.67
 20
264.59
 30
 0
 40
.25
 50
180
 51
270
 6
CONTINUOUS
 0
LINE
 8
WHITE
 10
225.42
 20
264.59
 30
0.0000
 11
225.42
 21
265.09
 31
0.0000
 6
CONTINUOUS
 0
ARC
 8
WHITE
 10
225.67
 20
265.1
 30
 0
 40
.250199
 50
90
 51
182.2906
 6
CONTINUOUS
 0
LINE
 8
WHITE
 10
225.67
 20
265.35
 30
0.0000
 11
225.82
 21
265.35
 31
0.0000
 6
CONTINUOUS
 0
LINE
 8
WHITE
 10
225.82
 20
265.35
 30
0.0000
 11
225.82
 21
271.4
 31
0.0000
 6
CONTINUOUS
 0
LINE
 8
WHITE
 10
273.94
 20
257.34
 30
0.0000
 11
274.56
 21
257.34
 31
0.0000
 6
CONTINUOUS
 0
LINE
 8
WHITE
 10
274.56
 20
257.34
 30
0.0000
 11
276.36
 21
257.54
 31
0.0000
 6
CONTINUOUS
 0
LINE
 8
WHITE
 10
276.36
 20
257.54
 30
0.0000
 11
277.01
 21
257.67
 31
0.0000
 6
CONTINUOUS
 0
LINE
 8
WHITE
 10
277.01
 20
257.67
 30
0.0000
 11
277.8
 21
257.87
 31
0.0000
 6
CONTINUOUS
 0
LINE
 8
WHITE
 10
277.8
 20
257.87
 30
0.0000
 11
278.42
 21
258.08
 31
0.0000
 6
CONTINUOUS
 0
LINE
 8
WHITE
 10
278.42
 20
258.08
 30
0.0000
 11
279.01
 21
258.33
 31
0.0000
 6
CONTINUOUS
 0
LINE
 8
WHITE
 10
279.01
 20
258.33
 30
0.0000
 11
279.57
 21
258.62
 31
0.0000
 6
CONTINUOUS
 0
LINE
 8
WHITE
 10
279.57
 20
258.62
 30
0.0000
 11
280.08
 21
258.97
 31
0.0000
 6
CONTINUOUS
 0
LINE
 8
WHITE
 10
280.08
 20
258.97
 30
0.0000
 11
280.42
 21
259.26
 31
0.0000
 6
CONTINUOUS
 0
LINE
 8
WHITE
 10
280.42
 20
259.26
 30
0.0000
 11
280.63
 21
259.53
 31
0.0000
 6
CONTINUOUS
 0
LINE
 8
WHITE
 10
280.63
 20
259.53
 30
0.0000
 11
280.8
 21
259.83
 31
0.0000
 6
CONTINUOUS
 0
LINE
 8
WHITE
 10
280.8
 20
259.83
 30
0.0000
 11
280.88
 21
260.09
 31
0.0000
 6
CONTINUOUS
 0
LINE
 8
WHITE
 10
280.88
 20
260.09
 30
0.0000
 11
280.91
 21
260.22
 31
0.0000
 6
CONTINUOUS
 0
LINE
 8
WHITE
 10
280.91
 20
260.22
 30
0.0000
 11
280.91
 21
260.67
 31
0.0000
 6
CONTINUOUS
 0
LINE
 8
WHITE
 10
280.91
 20
260.67
 30
0.0000
 11
280.83
 21
260.93
 31
0.0000
 6
CONTINUOUS
 0
LINE
 8
WHITE
 10
280.83
 20
260.93
 30
0.0000
 11
280.67
 21
261.25
 31
0.0000
 6
CONTINUOUS
 0
LINE
 8
WHITE
 10
280.67
 20
261.25
 30
0.0000
 11
280.48
 21
261.53
 31
0.0000
 6
CONTINUOUS
 0
LINE
 8
WHITE
 10
280.48
 20
261.53
 30
0.0000
 11
280.31
 21
261.69
 31
0.0000
 6
CONTINUOUS
 0
LINE
 8
WHITE
 10
280.31
 20
261.69
 30
0.0000
 11
279.83
 21
262.06
 31
0.0000
 6
CONTINUOUS
 0
LINE
 8
WHITE
 10
279.83
 20
262.06
 30
0.0000
 11
279.3
 21
262.38
 31
0.0000
 6
CONTINUOUS
 0
LINE
 8
WHITE
 10
279.3
 20
262.38
 30
0.0000
 11
278.72
 21
262.65
 31
0.0000
 6
CONTINUOUS
 0
LINE
 8
WHITE
 10
278.72
 20
262.65
 30
0.0000
 11
278.27
 21
262.83
 31
0.0000
 6
CONTINUOUS
 0
LINE
 8
WHITE
 10
278.27
 20
262.83
 30
0.0000
 11
277.49
 21
263.07
 31
0.0000
 6
CONTINUOUS
 0
LINE
 8
WHITE
 10
277.49
 20
263.07
 30
0.0000
 11
276.68
 21
263.25
 31
0.0000
 6
CONTINUOUS
 0
LINE
 8
WHITE
 10
276.68
 20
263.25
 30
0.0000
 11
275.62
 21
263.41
 31
0.0000
 6
CONTINUOUS
 0
LINE
 8
WHITE
 10
275.62
 20
263.41
 30
0.0000
 11
274.18
 21
263.52
 31
0.0000
 6
CONTINUOUS
 0
LINE
 8
WHITE
 10
274.18
 20
263.52
 30
0.0000
 11
272.94
 21
263.5
 31
0.0000
 6
CONTINUOUS
 0
LINE
 8
WHITE
 10
272.94
 20
263.5
 30
0.0000
 11
271.14
 21
263.31
 31
0.0000
 6
CONTINUOUS
 0
LINE
 8
WHITE
 10
271.14
 20
263.31
 30
0.0000
 11
270.49
 21
263.18
 31
0.0000
 6
CONTINUOUS
 0
LINE
 8
WHITE
 10
270.49
 20
263.18
 30
0.0000
 11
269.7
 21
262.98
 31
0.0000
 6
CONTINUOUS
 0
LINE
 8
WHITE
 10
269.7
 20
262.98
 30
0.0000
 11
269.08
 21
262.77
 31
0.0000
 6
CONTINUOUS
 0
LINE
 8
WHITE
 10
269.08
 20
262.77
 30
0.0000
 11
268.49
 21
262.52
 31
0.0000
 6
CONTINUOUS
 0
LINE
 8
WHITE
 10
268.49
 20
262.52
 30
0.0000
 11
267.93
 21
262.23
 31
0.0000
 6
CONTINUOUS
 0
LINE
 8
WHITE
 10
267.93
 20
262.23
 30
0.0000
 11
267.42
 21
261.88
 31
0.0000
 6
CONTINUOUS
 0
LINE
 8
WHITE
 10
267.42
 20
261.88
 30
0.0000
 11
267.08
 21
261.59
 31
0.0000
 6
CONTINUOUS
 0
LINE
 8
WHITE
 10
267.08
 20
261.59
 30
0.0000
 11
266.87
 21
261.33
 31
0.0000
 6
CONTINUOUS
 0
LINE
 8
WHITE
 10
266.87
 20
261.33
 30
0.0000
 11
266.7
 21
261.02
 31
0.0000
 6
CONTINUOUS
 0
LINE
 8
WHITE
 10
266.7
 20
261.02
 30
0.0000
 11
266.62
 21
260.76
 31
0.0000
 6
CONTINUOUS
 0
LINE
 8
WHITE
 10
266.62
 20
260.76
 30
0.0000
 11
266.59
 21
260.63
 31
0.0000
 6
CONTINUOUS
 0
LINE
 8
WHITE
 10
266.59
 20
260.63
 30
0.0000
 11
266.59
 21
260.18
 31
0.0000
 6
CONTINUOUS
 0
LINE
 8
WHITE
 10
266.59
 20
260.18
 30
0.0000
 11
266.67
 21
259.92
 31
0.0000
 6
CONTINUOUS
 0
LINE
 8
WHITE
 10
266.67
 20
259.92
 30
0.0000
 11
266.83
 21
259.6
 31
0.0000
 6
CONTINUOUS
 0
LINE
 8
WHITE
 10
266.83
 20
259.6
 30
0.0000
 11
267.02
 21
259.32
 31
0.0000
 6
CONTINUOUS
 0
LINE
 8
WHITE
 10
267.02
 20
259.32
 30
0.0000
 11
267.19
 21
259.16
 31
0.0000
 6
CONTINUOUS
 0
LINE
 8
WHITE
 10
267.19
 20
259.16
 30
0.0000
 11
267.67
 21
258.79
 31
0.0000
 6
CONTINUOUS
 0
LINE
 8
WHITE
 10
267.67
 20
258.79
 30
0.0000
 11
268.2
 21
258.47
 31
0.0000
 6
CONTINUOUS
 0
LINE
 8
WHITE
 10
268.2
 20
258.47
 30
0.0000
 11
268.78
 21
258.2
 31
0.0000
 6
CONTINUOUS
 0
LINE
 8
WHITE
 10
268.78
 20
258.2
 30
0.0000
 11
269.23
 21
258.02
 31
0.0000
 6
CONTINUOUS
 0
LINE
 8
WHITE
 10
269.23
 20
258.02
 30
0.0000
 11
270.01
 21
257.78
 31
0.0000
 6
CONTINUOUS
 0
LINE
 8
WHITE
 10
270.01
 20
257.78
 30
0.0000
 11
270.82
 21
257.6
 31
0.0000
 6
CONTINUOUS
 0
LINE
 8
WHITE
 10
270.82
 20
257.6
 30
0.0000
 11
271.88
 21
257.44
 31
0.0000
 6
CONTINUOUS
 0
LINE
 8
WHITE
 10
271.88
 20
257.44
 30
0.0000
 11
273.32
 21
257.33
 31
0.0000
 6
CONTINUOUS
 0
LINE
 8
WHITE
 10
273.32
 20
257.33
 30
0.0000
 11
273.94
 21
257.33
 31
0.0000
 6
CONTINUOUS
 0
LINE
 8
WHITE
 10
300.27
 20
245.83
 30
0.0000
 11
300.27
 21
248.25
 31
0.0000
 6
CONTINUOUS
 0
ARC
 8
WHITE
 10
299.66
 20
248.25
 30
 0
 40
.61
 50
0
 51
90
 6
CONTINUOUS
 0
LINE
 8
WHITE
 10
299.66
 20
248.86
 30
0.0000
 11
295.67
 21
248.86
 31
0.0000
 6
CONTINUOUS
 0
ARC
 8
WHITE
 10
295.679
 20
248.25
 30
 0
 40
.610066
 50
90.84528
 51
121.5298
 6
CONTINUOUS
 0
LINE
 8
WHITE
 10
295.36
 20
248.77
 30
0.0000
 11
292.56
 21
247.14
 31
0.0000
 6
CONTINUOUS
 0
ARC
 8
WHITE
 10
293.32
 20
245.83
 30
 0
 40
1.514496
 50
120.1203
 51
239.8794
 6
CONTINUOUS
 0
LINE
 8
WHITE
 10
292.56
 20
244.52
 30
0.0000
 11
295.36
 21
242.89
 31
0.0000
 6
CONTINUOUS
 0
ARC
 8
WHITE
 10
295.678
 20
243.405
 30
 0
 40
.605267
 50
238.3057
 51
269.2457
 6
CONTINUOUS
 0
LINE
 8
WHITE
 10
295.67
 20
242.8
 30
0.0000
 11
299.66
 21
242.8
 31
0.0000
 6
CONTINUOUS
 0
ARC
 8
WHITE
 10
299.66
 20
243.41
 30
 0
 40
.61
 50
270
 51
0
 6
CONTINUOUS
 0
LINE
 8
WHITE
 10
300.27
 20
243.41
 30
0.0000
 11
300.27
 21
245.83
 31
0.0000
 6
CONTINUOUS
 0
LINE
 8
WHITE
 10
206.04
 20
213.47
 30
0.0000
 11
206.04
 21
212.46
 31
0.0000
 6
CONTINUOUS
 0
LINE
 8
WHITE
 10
206.04
 20
212.46
 30
0.0000
 11
202.01
 21
212.46
 31
0.0000
 6
CONTINUOUS
 0
LINE
 8
WHITE
 10
202.01
 20
212.46
 30
0.0000
 11
202.01
 21
214.48
 31
0.0000
 6
CONTINUOUS
 0
LINE
 8
WHITE
 10
202.01
 20
214.48
 30
0.0000
 11
206.04
 21
214.48
 31
0.0000
 6
CONTINUOUS
 0
LINE
 8
WHITE
 10
206.04
 20
214.48
 30
0.0000
 11
206.04
 21
213.47
 31
0.0000
 6
CONTINUOUS
 0
LINE
 8
WHITE
 10
202.01
 20
143.08
 30
0.0000
 11
202.01
 21
144.09
 31
0.0000
 6
CONTINUOUS
 0
LINE
 8
WHITE
 10
202.01
 20
144.09
 30
0.0000
 11
206.04
 21
144.09
 31
0.0000
 6
CONTINUOUS
 0
LINE
 8
WHITE
 10
206.04
 20
144.09
 30
0.0000
 11
206.04
 21
142.07
 31
0.0000
 6
CONTINUOUS
 0
LINE
 8
WHITE
 10
206.04
 20
142.07
 30
0.0000
 11
202.01
 21
142.07
 31
0.0000
 6
CONTINUOUS
 0
LINE
 8
WHITE
 10
202.01
 20
142.07
 30
0.0000
 11
202.01
 21
143.08
 31
0.0000
 6
CONTINUOUS
 0
LINE
 8
WHITE
 10
225.82
 20
85.15
 30
0.0000
 11
225.82
 21
91.2
 31
0.0000
 6
CONTINUOUS
 0
LINE
 8
WHITE
 10
225.82
 20
91.2
 30
0.0000
 11
225.67
 21
91.2
 31
0.0000
 6
CONTINUOUS
 0
ARC
 8
WHITE
 10
225.67
 20
91.45
 30
 0
 40
.25
 50
177.7089
 51
270
 6
CONTINUOUS
 0
LINE
 8
WHITE
 10
225.42
 20
91.46
 30
0.0000
 11
225.42
 21
91.96
 31
0.0000
 6
CONTINUOUS
 0
ARC
 8
WHITE
 10
225.67
 20
91.96
 30
 0
 40
.25
 50
90
 51
180
 6
CONTINUOUS
 0
LINE
 8
WHITE
 10
225.67
 20
92.21
 30
0.0000
 11
226.23
 21
92.21
 31
0.0000
 6
CONTINUOUS
 0
LINE
 8
WHITE
 10
226.23
 20
92.21
 30
0.0000
 11
226.23
 21
115
 31
0.0000
 6
CONTINUOUS
 0
ARC
 8
WHITE
 10
226.73
 20
114.996
 30
 0
 40
.500015
 50
99.1991
 51
179.5416
 6
CONTINUOUS
 0
LINE
 8
WHITE
 10
226.65
 20
115.49
 30
0.0000
 11
228.96
 21
115.88
 31
0.0000
 6
CONTINUOUS
 0
ARC
 8
WHITE
 10
232.28
 20
95.97
 30
 0
 40
20.18491
 50
80.53304
 51
99.46699
 6
CONTINUOUS
 0
LINE
 8
WHITE
 10
235.6
 20
115.88
 30
0.0000
 11
237.92
 21
115.49
 31
0.0000
 6
CONTINUOUS
 0
ARC
 8
WHITE
 10
237.834
 20
114.991
 30
 0
 40
.506356
 50
1.019298
 51
80.22144
 6
CONTINUOUS
 0
LINE
 8
WHITE
 10
238.34
 20
115
 30
0.0000
 11
238.34
 21
92.21
 31
0.0000
 6
CONTINUOUS
 0
LINE
 8
WHITE
 10
238.34
 20
92.21
 30
0.0000
 11
238.89
 21
92.21
 31
0.0000
 6
CONTINUOUS
 0
ARC
 8
WHITE
 10
238.89
 20
91.96
 30
 0
 40
.25
 50
0
 51
90
 6
CONTINUOUS
 0
LINE
 8
WHITE
 10
239.14
 20
91.96
 30
0.0000
 11
239.14
 21
91.46
 31
0.0000
 6
CONTINUOUS
 0
ARC
 8
WHITE
 10
238.89
 20
91.45
 30
 0
 40
.250199
 50
270
 51
2.29061
 6
CONTINUOUS
 0
LINE
 8
WHITE
 10
238.89
 20
91.2
 30
0.0000
 11
238.74
 21
91.2
 31
0.0000
 6
CONTINUOUS
 0
LINE
 8
WHITE
 10
238.74
 20
91.2
 30
0.0000
 11
238.74
 21
85.15
 31
0.0000
 6
CONTINUOUS
 0
ARC
 8
WHITE
 10
238.89
 20
84.9
 30
 0
 40
.25
 50
0
 51
90
 6
CONTINUOUS
 0
LINE
 8
WHITE
 10
239.14
 20
84.9
 30
0.0000
 11
239.14
 21
84.61
 31
0.0000
 6
CONTINUOUS
 0
ARC
 8
WHITE
 10
238.64
 20
84.598
 30
 0
 40
.500144
 50
274.5914
 51
1.374834
 6
CONTINUOUS
 0
LINE
 8
WHITE
 10
238.68
 20
84.1
 30
0.0000
 11
233.76
 21
83.74
 31
0.0000
 6
CONTINUOUS
 0
LINE
 8
WHITE
 10
233.76
 20
83.74
 30
0.0000
 11
233.58
 21
83.59
 31
0.0000
 6
CONTINUOUS
 0
ARC
 8
WHITE
 10
232.28
 20
85.13
 30
 0
 40
2.015341
 50
229.8304
 51
310.1696
 6
CONTINUOUS
 0
LINE
 8
WHITE
 10
230.98
 20
83.59
 30
0.0000
 11
230.8
 21
83.74
 31
0.0000
 6
CONTINUOUS
 0
LINE
 8
WHITE
 10
230.8
 20
83.74
 30
0.0000
 11
225.89
 21
84.1
 31
0.0000
 6
CONTINUOUS
 0
ARC
 8
WHITE
 10
225.922
 20
84.601
 30
 0
 40
.50202
 50
178.9726
 51
266.3454
 6
CONTINUOUS
 0
LINE
 8
WHITE
 10
225.42
 20
84.61
 30
0.0000
 11
225.42
 21
84.9
 31
0.0000
 6
CONTINUOUS
 0
ARC
 8
WHITE
 10
225.67
 20
84.9
 30
 0
 40
.25
 50
90
 51
180
 6
CONTINUOUS
 0
LINE
 8
WHITE
 10
273.56
 20
93.04
 30
0.0000
 11
274.18
 21
93.04
 31
0.0000
 6
CONTINUOUS
 0
LINE
 8
WHITE
 10
274.18
 20
93.04
 30
0.0000
 11
275.62
 21
93.14
 31
0.0000
 6
CONTINUOUS
 0
LINE
 8
WHITE
 10
275.62
 20
93.14
 30
0.0000
 11
276.68
 21
93.3
 31
0.0000
 6
CONTINUOUS
 0
LINE
 8
WHITE
 10
276.68
 20
93.3
 30
0.0000
 11
277.49
 21
93.48
 31
0.0000
 6
CONTINUOUS
 0
LINE
 8
WHITE
 10
277.49
 20
93.48
 30
0.0000
 11
278.27
 21
93.72
 31
0.0000
 6
CONTINUOUS
 0
LINE
 8
WHITE
 10
278.27
 20
93.72
 30
0.0000
 11
278.72
 21
93.9
 31
0.0000
 6
CONTINUOUS
 0
LINE
 8
WHITE
 10
278.72
 20
93.9
 30
0.0000
 11
279.3
 21
94.17
 31
0.0000
 6
CONTINUOUS
 0
LINE
 8
WHITE
 10
279.3
 20
94.17
 30
0.0000
 11
279.83
 21
94.49
 31
0.0000
 6
CONTINUOUS
 0
LINE
 8
WHITE
 10
279.83
 20
94.49
 30
0.0000
 11
280.31
 21
94.86
 31
0.0000
 6
CONTINUOUS
 0
LINE
 8
WHITE
 10
280.31
 20
94.86
 30
0.0000
 11
280.48
 21
95.02
 31
0.0000
 6
CONTINUOUS
 0
LINE
 8
WHITE
 10
280.48
 20
95.02
 30
0.0000
 11
280.67
 21
95.3
 31
0.0000
 6
CONTINUOUS
 0
LINE
 8
WHITE
 10
280.67
 20
95.3
 30
0.0000
 11
280.83
 21
95.62
 31
0.0000
 6
CONTINUOUS
 0
LINE
 8
WHITE
 10
280.83
 20
95.62
 30
0.0000
 11
280.9
 21
95.88
 31
0.0000
 6
CONTINUOUS
 0
LINE
 8
WHITE
 10
280.9
 20
95.88
 30
0.0000
 11
280.9
 21
96.32
 31
0.0000
 6
CONTINUOUS
 0
LINE
 8
WHITE
 10
280.9
 20
96.32
 30
0.0000
 11
280.88
 21
96.46
 31
0.0000
 6
CONTINUOUS
 0
LINE
 8
WHITE
 10
280.88
 20
96.46
 30
0.0000
 11
280.8
 21
96.71
 31
0.0000
 6
CONTINUOUS
 0
LINE
 8
WHITE
 10
280.8
 20
96.71
 30
0.0000
 11
280.63
 21
97.02
 31
0.0000
 6
CONTINUOUS
 0
LINE
 8
WHITE
 10
280.63
 20
97.02
 30
0.0000
 11
280.42
 21
97.29
 31
0.0000
 6
CONTINUOUS
 0
LINE
 8
WHITE
 10
280.42
 20
97.29
 30
0.0000
 11
280.08
 21
97.58
 31
0.0000
 6
CONTINUOUS
 0
LINE
 8
WHITE
 10
280.08
 20
97.58
 30
0.0000
 11
279.57
 21
97.93
 31
0.0000
 6
CONTINUOUS
 0
LINE
 8
WHITE
 10
279.57
 20
97.93
 30
0.0000
 11
279.01
 21
98.22
 31
0.0000
 6
CONTINUOUS
 0
LINE
 8
WHITE
 10
279.01
 20
98.22
 30
0.0000
 11
278.42
 21
98.47
 31
0.0000
 6
CONTINUOUS
 0
LINE
 8
WHITE
 10
278.42
 20
98.47
 30
0.0000
 11
277.8
 21
98.68
 31
0.0000
 6
CONTINUOUS
 0
LINE
 8
WHITE
 10
277.8
 20
98.68
 30
0.0000
 11
277.01
 21
98.88
 31
0.0000
 6
CONTINUOUS
 0
LINE
 8
WHITE
 10
277.01
 20
98.88
 30
0.0000
 11
276.36
 21
99.01
 31
0.0000
 6
CONTINUOUS
 0
LINE
 8
WHITE
 10
276.36
 20
99.01
 30
0.0000
 11
274.56
 21
99.2
 31
0.0000
 6
CONTINUOUS
 0
LINE
 8
WHITE
 10
274.56
 20
99.2
 30
0.0000
 11
273.32
 21
99.22
 31
0.0000
 6
CONTINUOUS
 0
LINE
 8
WHITE
 10
273.32
 20
99.22
 30
0.0000
 11
271.88
 21
99.11
 31
0.0000
 6
CONTINUOUS
 0
LINE
 8
WHITE
 10
271.88
 20
99.11
 30
0.0000
 11
270.82
 21
98.95
 31
0.0000
 6
CONTINUOUS
 0
LINE
 8
WHITE
 10
270.82
 20
98.95
 30
0.0000
 11
270.01
 21
98.77
 31
0.0000
 6
CONTINUOUS
 0
LINE
 8
WHITE
 10
270.01
 20
98.77
 30
0.0000
 11
269.23
 21
98.53
 31
0.0000
 6
CONTINUOUS
 0
LINE
 8
WHITE
 10
269.23
 20
98.53
 30
0.0000
 11
268.78
 21
98.35
 31
0.0000
 6
CONTINUOUS
 0
LINE
 8
WHITE
 10
268.78
 20
98.35
 30
0.0000
 11
268.2
 21
98.08
 31
0.0000
 6
CONTINUOUS
 0
LINE
 8
WHITE
 10
268.2
 20
98.08
 30
0.0000
 11
267.67
 21
97.76
 31
0.0000
 6
CONTINUOUS
 0
LINE
 8
WHITE
 10
267.67
 20
97.76
 30
0.0000
 11
267.19
 21
97.39
 31
0.0000
 6
CONTINUOUS
 0
LINE
 8
WHITE
 10
267.19
 20
97.39
 30
0.0000
 11
267.02
 21
97.23
 31
0.0000
 6
CONTINUOUS
 0
LINE
 8
WHITE
 10
267.02
 20
97.23
 30
0.0000
 11
266.83
 21
96.95
 31
0.0000
 6
CONTINUOUS
 0
LINE
 8
WHITE
 10
266.83
 20
96.95
 30
0.0000
 11
266.67
 21
96.63
 31
0.0000
 6
CONTINUOUS
 0
LINE
 8
WHITE
 10
266.67
 20
96.63
 30
0.0000
 11
266.6
 21
96.37
 31
0.0000
 6
CONTINUOUS
 0
LINE
 8
WHITE
 10
266.6
 20
96.37
 30
0.0000
 11
266.6
 21
95.92
 31
0.0000
 6
CONTINUOUS
 0
LINE
 8
WHITE
 10
266.6
 20
95.92
 30
0.0000
 11
266.62
 21
95.79
 31
0.0000
 6
CONTINUOUS
 0
LINE
 8
WHITE
 10
266.62
 20
95.79
 30
0.0000
 11
266.7
 21
95.53
 31
0.0000
 6
CONTINUOUS
 0
LINE
 8
WHITE
 10
266.7
 20
95.53
 30
0.0000
 11
266.87
 21
95.22
 31
0.0000
 6
CONTINUOUS
 0
LINE
 8
WHITE
 10
266.87
 20
95.22
 30
0.0000
 11
267.08
 21
94.96
 31
0.0000
 6
CONTINUOUS
 0
LINE
 8
WHITE
 10
267.08
 20
94.96
 30
0.0000
 11
267.42
 21
94.67
 31
0.0000
 6
CONTINUOUS
 0
LINE
 8
WHITE
 10
267.42
 20
94.67
 30
0.0000
 11
267.93
 21
94.32
 31
0.0000
 6
CONTINUOUS
 0
LINE
 8
WHITE
 10
267.93
 20
94.32
 30
0.0000
 11
268.49
 21
94.03
 31
0.0000
 6
CONTINUOUS
 0
LINE
 8
WHITE
 10
268.49
 20
94.03
 30
0.0000
 11
269.08
 21
93.78
 31
0.0000
 6
CONTINUOUS
 0
LINE
 8
WHITE
 10
269.08
 20
93.78
 30
0.0000
 11
269.7
 21
93.57
 31
0.0000
 6
CONTINUOUS
 0
LINE
 8
WHITE
 10
269.7
 20
93.57
 30
0.0000
 11
270.49
 21
93.37
 31
0.0000
 6
CONTINUOUS
 0
LINE
 8
WHITE
 10
270.49
 20
93.37
 30
0.0000
 11
271.14
 21
93.24
 31
0.0000
 6
CONTINUOUS
 0
LINE
 8
WHITE
 10
271.14
 20
93.24
 30
0.0000
 11
272.94
 21
93.05
 31
0.0000
 6
CONTINUOUS
 0
LINE
 8
WHITE
 10
272.94
 20
93.05
 30
0.0000
 11
273.56
 21
93.05
 31
0.0000
 6
CONTINUOUS
 0
LINE
 8
WHITE
 10
300.27
 20
110.72
 30
0.0000
 11
300.27
 21
108.3
 31
0.0000
 6
CONTINUOUS
 0
ARC
 8
WHITE
 10
299.66
 20
108.3
 30
 0
 40
.61
 50
270
 51
0
 6
CONTINUOUS
 0
LINE
 8
WHITE
 10
299.66
 20
107.69
 30
0.0000
 11
295.67
 21
107.69
 31
0.0000
 6
CONTINUOUS
 0
ARC
 8
WHITE
 10
295.662
 20
108.3
 30
 0
 40
.610052
 50
240.3227
 51
270.7514
 6
CONTINUOUS
 0
LINE
 8
WHITE
 10
295.36
 20
107.77
 30
0.0000
 11
292.56
 21
109.41
 31
0.0000
 6
CONTINUOUS
 0
ARC
 8
WHITE
 10
293.32
 20
110.72
 30
 0
 40
1.514496
 50
120.1206
 51
239.8797
 6
CONTINUOUS
 0
LINE
 8
WHITE
 10
292.56
 20
112.03
 30
0.0000
 11
295.36
 21
113.66
 31
0.0000
 6
CONTINUOUS
 0
ARC
 8
WHITE
 10
295.678
 20
113.145
 30
 0
 40
.605267
 50
90.75429
 51
121.6943
 6
CONTINUOUS
 0
LINE
 8
WHITE
 10
295.67
 20
113.75
 30
0.0000
 11
299.66
 21
113.75
 31
0.0000
 6
CONTINUOUS
 0
ARC
 8
WHITE
 10
299.66
 20
113.14
 30
 0
 40
.61
 50
0
 51
90
 6
CONTINUOUS
 0
LINE
 8
WHITE
 10
300.27
 20
113.14
 30
0.0000
 11
300.27
 21
110.72
 31
0.0000
 6
CONTINUOUS
 0
LINE
 8
WHITE
 10
195.32
 20
70.93
 30
0.0000
 11
195.32
 21
62.36
 31
0.0000
 6
CONTINUOUS
 0
ARC
 8
WHITE
 10
197.34
 20
62.36
 30
 0
 40
2.019999
 50
180
 51
270.2835
 6
CONTINUOUS
 0
LINE
 8
WHITE
 10
197.35
 20
60.34
 30
0.0000
 11
210.29
 21
60.45
 31
0.0000
 6
CONTINUOUS
 0
ARC
 8
WHITE
 10
211.092
 20
60.49
 30
 0
 40
.802996
 50
177.1449
 51
182.8553
 6
CONTINUOUS
 0
LINE
 8
WHITE
 10
210.29
 20
60.53
 30
0.0000
 11
210.29
 21
77.71
 31
0.0000
 6
CONTINUOUS
 0
ARC
 8
WHITE
 10
211.1
 20
77.71
 30
 0
 40
.81
 50
90.70693
 51
180
 6
CONTINUOUS
 0
LINE
 8
WHITE
 10
211.09
 20
78.52
 30
0.0000
 11
214.75
 21
78.52
 31
0.0000
 6
CONTINUOUS
 0
LINE
 8
WHITE
 10
214.75
 20
78.52
 30
0.0000
 11
214.75
 21
78.7
 31
0.0000
 6
CONTINUOUS
 0
LINE
 8
WHITE
 10
214.75
 20
78.7
 30
0.0000
 11
211.03
 21
79.5
 31
0.0000
 6
CONTINUOUS
 0
LINE
 8
WHITE
 10
211.03
 20
79.5
 30
0.0000
 11
195.32
 21
79.5
 31
0.0000
 6
CONTINUOUS
 0
LINE
 8
WHITE
 10
195.32
 20
79.5
 30
0.0000
 11
195.32
 21
70.93
 31
0.0000
 6
CONTINUOUS
 0
LINE
 8
WHITE
 10
218.6
 20
79.5
 30
0.0000
 11
220.49
 21
79.5
 31
0.0000
 6
CONTINUOUS
 0
LINE
 8
WHITE
 10
220.49
 20
79.5
 30
0.0000
 11
217.72
 21
62.2
 31
0.0000
 6
CONTINUOUS
 0
ARC
 8
WHITE
 10
215.73
 20
62.52
 30
 0
 40
2.015564
 50
308.3489
 51
350.8648
 6
CONTINUOUS
 0
LINE
 8
WHITE
 10
216.98
 20
60.94
 30
0.0000
 11
216.98
 21
78.12
 31
0.0000
 6
CONTINUOUS
 0
ARC
 8
WHITE
 10
216.58
 20
78.12
 30
 0
 40
.4
 50
0
 51
90
 6
CONTINUOUS
 0
LINE
 8
WHITE
 10
216.58
 20
78.52
 30
0.0000
 11
215.92
 21
78.52
 31
0.0000
 6
CONTINUOUS
 0
LINE
 8
WHITE
 10
215.92
 20
78.52
 30
0.0000
 11
215.92
 21
78.7
 31
0.0000
 6
CONTINUOUS
 0
LINE
 8
WHITE
 10
215.92
 20
78.7
 30
0.0000
 11
216.71
 21
79.5
 31
0.0000
 6
CONTINUOUS
 0
LINE
 8
WHITE
 10
216.71
 20
79.5
 30
0.0000
 11
218.6
 21
79.5
 31
0.0000
 6
CONTINUOUS
 0
LINE
 8
WHITE
 10
224.24
 20
67.92
 30
0.0000
 11
222.39
 21
56.35
 31
0.0000
 6
CONTINUOUS
 0
LINE
 8
WHITE
 10
222.39
 20
56.35
 30
0.0000
 11
226.78
 21
56.9
 31
0.0000
 6
CONTINUOUS
 0
LINE
 8
WHITE
 10
226.78
 20
56.9
 30
0.0000
 11
230.77
 21
80.09
 31
0.0000
 6
CONTINUOUS
 0
LINE
 8
WHITE
 10
230.77
 20
80.09
 30
0.0000
 11
226.09
 21
79.5
 31
0.0000
 6
CONTINUOUS
 0
LINE
 8
WHITE
 10
226.09
 20
79.5
 30
0.0000
 11
224.24
 21
67.92
 31
0.0000
 6
CONTINUOUS
 0
LINE
 8
WHITE
 10
189.29
 20
87.07
 30
0.0000
 11
189.29
 21
62.34
 31
0.0000
 6
CONTINUOUS
 0
LINE
 8
WHITE
 10
189.29
 20
62.34
 30
0.0000
 11
187.77
 21
61.91
 31
0.0000
 6
CONTINUOUS
 0
ARC
 8
WHITE
 10
182.225
 20
81.321
 30
 0
 40
20.18747
 50
254.0573
 51
285.9427
 6
CONTINUOUS
 0
LINE
 8
WHITE
 10
176.68
 20
61.91
 30
0.0000
 11
175.16
 21
62.34
 31
0.0000
 6
CONTINUOUS
 0
LINE
 8
WHITE
 10
175.16
 20
62.34
 30
0.0000
 11
175.16
 21
111.79
 31
0.0000
 6
CONTINUOUS
 0
LINE
 8
WHITE
 10
175.16
 20
111.79
 30
0.0000
 11
178.51
 21
112.27
 31
0.0000
 6
CONTINUOUS
 0
ARC
 8
WHITE
 10
182.225
 20
86.291
 30
 0
 40
26.24328
 50
81.86185
 51
98.13813
 6
CONTINUOUS
 0
LINE
 8
WHITE
 10
185.94
 20
112.27
 30
0.0000
 11
189.29
 21
111.79
 31
0.0000
 6
CONTINUOUS
 0
LINE
 8
WHITE
 10
189.29
 20
111.79
 30
0.0000
 11
189.29
 21
87.07
 31
0.0000
 6
CONTINUOUS
 0
LINE
 8
WHITE
 10
271.35
 20
227.63
 30
0.0000
 11
272.42
 21
227.92
 31
0.0000
 6
CONTINUOUS
 0
ARC
 8
WHITE
 10
272.529
 20
227.533
 30
 0
 40
.402057
 50
13.93308
 51
105.7301
 6
CONTINUOUS
 0
LINE
 8
WHITE
 10
272.92
 20
227.63
 30
0.0000
 11
272.97
 21
227.44
 31
0.0000
 6
CONTINUOUS
 0
ARC
 8
WHITE
 10
272.583
 20
227.328
 30
 0
 40
.40288
 50
285.4167
 51
16.14074
 6
CONTINUOUS
 0
LINE
 8
WHITE
 10
272.69
 20
226.94
 30
0.0000
 11
270.54
 21
226.37
 31
0.0000
 6
CONTINUOUS
 0
ARC
 8
WHITE
 10
270.437
 20
226.759
 30
 0
 40
.402405
 50
195.7303
 51
284.8305
 6
CONTINUOUS
 0
LINE
 8
WHITE
 10
270.05
 20
226.65
 30
0.0000
 11
269.99
 21
226.85
 31
0.0000
 6
CONTINUOUS
 0
ARC
 8
WHITE
 10
270.38
 20
226.95
 30
 0
 40
.402616
 50
104.3828
 51
194.3814
 6
CONTINUOUS
 0
LINE
 8
WHITE
 10
270.28
 20
227.34
 30
0.0000
 11
271.35
 21
227.63
 31
0.0000
 6
CONTINUOUS
 0
LINE
 8
WHITE
 10
266.66
 20
224.92
 30
0.0000
 11
267.44
 21
225.7
 31
0.0000
 6
CONTINUOUS
 0
ARC
 8
WHITE
 10
267.725
 20
225.405
 30
 0
 40
.410182
 50
45.98722
 51
134.0122
 6
CONTINUOUS
 0
LINE
 8
WHITE
 10
268.01
 20
225.7
 30
0.0000
 11
268.15
 21
225.56
 31
0.0000
 6
CONTINUOUS
 0
ARC
 8
WHITE
 10
267.855
 20
225.275
 30
 0
 40
.410182
 50
315.9902
 51
44.01224
 6
CONTINUOUS
 0
LINE
 8
WHITE
 10
268.15
 20
224.99
 30
0.0000
 11
266.58
 21
223.42
 31
0.0000
 6
CONTINUOUS
 0
ARC
 8
WHITE
 10
266.295
 20
223.715
 30
 0
 40
.410182
 50
225.9903
 51
314.0122
 6
CONTINUOUS
 0
LINE
 8
WHITE
 10
266.01
 20
223.42
 30
0.0000
 11
265.87
 21
223.56
 31
0.0000
 6
CONTINUOUS
 0
ARC
 8
WHITE
 10
266.165
 20
223.845
 30
 0
 40
.410182
 50
135.9887
 51
224.0122
 6
CONTINUOUS
 0
LINE
 8
WHITE
 10
265.87
 20
224.13
 30
0.0000
 11
266.66
 21
224.92
 31
0.0000
 6
CONTINUOUS
 0
LINE
 8
WHITE
 10
263.94
 20
220.22
 30
0.0000
 11
263.66
 21
219.15
 31
0.0000
 6
CONTINUOUS
 0
ARC
 8
WHITE
 10
264.047
 20
219.038
 30
 0
 40
.40288
 50
163.8593
 51
254.5833
 6
CONTINUOUS
 0
LINE
 8
WHITE
 10
263.94
 20
218.65
 30
0.0000
 11
264.14
 21
218.6
 31
0.0000
 6
CONTINUOUS
 0
ARC
 8
WHITE
 10
264.24
 20
218.99
 30
 0
 40
.402616
 50
255.6186
 51
345.6172
 6
CONTINUOUS
 0
LINE
 8
WHITE
 10
264.63
 20
218.89
 30
0.0000
 11
265.21
 21
221.03
 31
0.0000
 6
CONTINUOUS
 0
ARC
 8
WHITE
 10
264.823
 20
221.139
 30
 0
 40
.402057
 50
344.2699
 51
76.06534
 6
CONTINUOUS
 0
LINE
 8
WHITE
 10
264.92
 20
221.53
 30
0.0000
 11
264.72
 21
221.58
 31
0.0000
 6
CONTINUOUS
 0
ARC
 8
WHITE
 10
264.62
 20
221.19
 30
 0
 40
.402616
 50
75.61861
 51
165.6193
 6
CONTINUOUS
 0
LINE
 8
WHITE
 10
264.23
 20
221.29
 30
0.0000
 11
263.94
 21
220.22
 31
0.0000
 6
CONTINUOUS
 0
LINE
 8
WHITE
 10
263.94
 20
214.8
 30
0.0000
 11
264.23
 21
213.72
 31
0.0000
 6
CONTINUOUS
 0
ARC
 8
WHITE
 10
264.617
 20
213.829
 30
 0
 40
.402057
 50
195.7301
 51
284.8304
 6
CONTINUOUS
 0
LINE
 8
WHITE
 10
264.72
 20
213.44
 30
0.0000
 11
264.92
 21
213.49
 31
0.0000
 6
CONTINUOUS
 0
ARC
 8
WHITE
 10
264.823
 20
213.881
 30
 0
 40
.402852
 50
283.9328
 51
15.73062
 6
CONTINUOUS
 0
LINE
 8
WHITE
 10
265.21
 20
213.99
 30
0.0000
 11
264.63
 21
216.13
 31
0.0000
 6
CONTINUOUS
 0
ARC
 8
WHITE
 10
264.24
 20
216.03
 30
 0
 40
.402616
 50
14.3814
 51
104.3781
 6
CONTINUOUS
 0
LINE
 8
WHITE
 10
264.14
 20
216.42
 30
0.0000
 11
263.94
 21
216.36
 31
0.0000
 6
CONTINUOUS
 0
ARC
 8
WHITE
 10
264.049
 20
215.973
 30
 0
 40
.402057
 50
105.7301
 51
194.8319
 6
CONTINUOUS
 0
LINE
 8
WHITE
 10
263.66
 20
215.87
 30
0.0000
 11
263.94
 21
214.8
 31
0.0000
 6
CONTINUOUS
 0
LINE
 8
WHITE
 10
266.66
 20
210.1
 30
0.0000
 11
265.87
 21
210.89
 31
0.0000
 6
CONTINUOUS
 0
ARC
 8
WHITE
 10
266.165
 20
211.175
 30
 0
 40
.410182
 50
135.9887
 51
224.0122
 6
CONTINUOUS
 0
LINE
 8
WHITE
 10
265.87
 20
211.46
 30
0.0000
 11
266.01
 21
211.6
 31
0.0000
 6
CONTINUOUS
 0
ARC
 8
WHITE
 10
266.295
 20
211.305
 30
 0
 40
.410182
 50
45.99028
 51
134.0122
 6
CONTINUOUS
 0
LINE
 8
WHITE
 10
266.58
 20
211.6
 30
0.0000
 11
268.15
 21
210.03
 31
0.0000
 6
CONTINUOUS
 0
ARC
 8
WHITE
 10
267.855
 20
209.745
 30
 0
 40
.410182
 50
315.9902
 51
44.01224
 6
CONTINUOUS
 0
LINE
 8
WHITE
 10
268.15
 20
209.46
 30
0.0000
 11
268.01
 21
209.32
 31
0.0000
 6
CONTINUOUS
 0
ARC
 8
WHITE
 10
267.725
 20
209.615
 30
 0
 40
.410182
 50
225.9872
 51
314.0122
 6
CONTINUOUS
 0
LINE
 8
WHITE
 10
267.44
 20
209.32
 30
0.0000
 11
266.66
 21
210.1
 31
0.0000
 6
CONTINUOUS
 0
LINE
 8
WHITE
 10
271.35
 20
207.39
 30
0.0000
 11
272.42
 21
207.1
 31
0.0000
 6
CONTINUOUS
 0
ARC
 8
WHITE
 10
272.529
 20
207.487
 30
 0
 40
.402057
 50
254.2699
 51
346.0669
 6
CONTINUOUS
 0
LINE
 8
WHITE
 10
272.92
 20
207.39
 30
0.0000
 11
272.97
 21
207.58
 31
0.0000
 6
CONTINUOUS
 0
ARC
 8
WHITE
 10
272.583
 20
207.692
 30
 0
 40
.40288
 50
343.8593
 51
74.58333
 6
CONTINUOUS
 0
LINE
 8
WHITE
 10
272.69
 20
208.08
 30
0.0000
 11
270.54
 21
208.65
 31
0.0000
 6
CONTINUOUS
 0
ARC
 8
WHITE
 10
270.437
 20
208.261
 30
 0
 40
.402405
 50
75.16947
 51
164.2697
 6
CONTINUOUS
 0
LINE
 8
WHITE
 10
270.05
 20
208.37
 30
0.0000
 11
269.99
 21
208.17
 31
0.0000
 6
CONTINUOUS
 0
ARC
 8
WHITE
 10
270.38
 20
208.07
 30
 0
 40
.402616
 50
165.6186
 51
255.6177
 6
CONTINUOUS
 0
LINE
 8
WHITE
 10
270.28
 20
207.68
 30
0.0000
 11
271.35
 21
207.39
 31
0.0000
 6
CONTINUOUS
 0
LINE
 8
WHITE
 10
276.78
 20
207.39
 30
0.0000
 11
275.7
 21
207.1
 31
0.0000
 6
CONTINUOUS
 0
ARC
 8
WHITE
 10
275.6
 20
207.49
 30
 0
 40
.402616
 50
194.3817
 51
284.3814
 6
CONTINUOUS
 0
LINE
 8
WHITE
 10
275.21
 20
207.39
 30
0.0000
 11
275.16
 21
207.58
 31
0.0000
 6
CONTINUOUS
 0
ARC
 8
WHITE
 10
275.547
 20
207.692
 30
 0
 40
.40288
 50
105.4167
 51
196.1407
 6
CONTINUOUS
 0
LINE
 8
WHITE
 10
275.44
 20
208.08
 30
0.0000
 11
277.59
 21
208.65
 31
0.0000
 6
CONTINUOUS
 0
ARC
 8
WHITE
 10
277.693
 20
208.261
 30
 0
 40
.402405
 50
15.73153
 51
104.8305
 6
CONTINUOUS
 0
LINE
 8
WHITE
 10
278.08
 20
208.37
 30
0.0000
 11
278.13
 21
208.17
 31
0.0000
 6
CONTINUOUS
 0
ARC
 8
WHITE
 10
277.741
 20
208.067
 30
 0
 40
.402405
 50
285.731
 51
14.83053
 6
CONTINUOUS
 0
LINE
 8
WHITE
 10
277.85
 20
207.68
 30
0.0000
 11
276.78
 21
207.39
 31
0.0000
 6
CONTINUOUS
 0
LINE
 8
WHITE
 10
281.47
 20
210.1
 30
0.0000
 11
280.69
 21
209.32
 31
0.0000
 6
CONTINUOUS
 0
ARC
 8
WHITE
 10
280.405
 20
209.615
 30
 0
 40
.410182
 50
225.9872
 51
314.0122
 6
CONTINUOUS
 0
LINE
 8
WHITE
 10
280.12
 20
209.32
 30
0.0000
 11
279.97
 21
209.46
 31
0.0000
 6
CONTINUOUS
 0
ARC
 8
WHITE
 10
280.265
 20
209.745
 30
 0
 40
.410182
 50
135.9902
 51
224.0122
 6
CONTINUOUS
 0
LINE
 8
WHITE
 10
279.97
 20
210.03
 30
0.0000
 11
281.54
 21
211.6
 31
0.0000
 6
CONTINUOUS
 0
ARC
 8
WHITE
 10
281.83
 20
211.31
 30
 0
 40
.410121
 50
45.00151
 51
135
 6
CONTINUOUS
 0
LINE
 8
WHITE
 10
282.12
 20
211.6
 30
0.0000
 11
282.26
 21
211.46
 31
0.0000
 6
CONTINUOUS
 0
ARC
 8
WHITE
 10
281.965
 20
211.175
 30
 0
 40
.410182
 50
315.9887
 51
44.01224
 6
CONTINUOUS
 0
LINE
 8
WHITE
 10
282.26
 20
210.89
 30
0.0000
 11
281.47
 21
210.1
 31
0.0000
 6
CONTINUOUS
 0
LINE
 8
WHITE
 10
284.18
 20
214.8
 30
0.0000
 11
283.9
 21
213.72
 31
0.0000
 6
CONTINUOUS
 0
ARC
 8
WHITE
 10
283.512
 20
213.827
 30
 0
 40
.402483
 50
253.8591
 51
344.5826
 6
CONTINUOUS
 0
LINE
 8
WHITE
 10
283.4
 20
213.44
 30
0.0000
 11
283.21
 21
213.49
 31
0.0000
 6
CONTINUOUS
 0
ARC
 8
WHITE
 10
283.307
 20
213.881
 30
 0
 40
.402852
 50
164.2694
 51
256.0672
 6
CONTINUOUS
 0
LINE
 8
WHITE
 10
282.92
 20
213.99
 30
0.0000
 11
283.5
 21
216.13
 31
0.0000
 6
CONTINUOUS
 0
ARC
 8
WHITE
 10
283.89
 20
216.03
 30
 0
 40
.402616
 50
75.62195
 51
165.6186
 6
CONTINUOUS
 0
LINE
 8
WHITE
 10
283.99
 20
216.42
 30
0.0000
 11
284.19
 21
216.36
 31
0.0000
 6
CONTINUOUS
 0
ARC
 8
WHITE
 10
284.081
 20
215.973
 30
 0
 40
.402057
 50
345.1681
 51
74.26993
 6
CONTINUOUS
 0
LINE
 8
WHITE
 10
284.47
 20
215.87
 30
0.0000
 11
284.18
 21
214.8
 31
0.0000
 6
CONTINUOUS
 0
LINE
 8
WHITE
 10
284.18
 20
220.22
 30
0.0000
 11
284.47
 21
219.15
 31
0.0000
 6
CONTINUOUS
 0
ARC
 8
WHITE
 10
284.083
 20
219.038
 30
 0
 40
.40288
 50
285.4167
 51
16.14074
 6
CONTINUOUS
 0
LINE
 8
WHITE
 10
284.19
 20
218.65
 30
0.0000
 11
283.99
 21
218.6
 31
0.0000
 6
CONTINUOUS
 0
ARC
 8
WHITE
 10
283.89
 20
218.99
 30
 0
 40
.402616
 50
194.3828
 51
284.3814
 6
CONTINUOUS
 0
LINE
 8
WHITE
 10
283.5
 20
218.89
 30
0.0000
 11
282.92
 21
221.03
 31
0.0000
 6
CONTINUOUS
 0
ARC
 8
WHITE
 10
283.307
 20
221.139
 30
 0
 40
.402057
 50
103.9347
 51
195.7301
 6
CONTINUOUS
 0
LINE
 8
WHITE
 10
283.21
 20
221.53
 30
0.0000
 11
283.4
 21
221.58
 31
0.0000
 6
CONTINUOUS
 0
ARC
 8
WHITE
 10
283.509
 20
221.193
 30
 0
 40
.402057
 50
13.93097
 51
105.7301
 6
CONTINUOUS
 0
LINE
 8
WHITE
 10
283.9
 20
221.29
 30
0.0000
 11
284.18
 21
220.22
 31
0.0000
 6
CONTINUOUS
 0
LINE
 8
WHITE
 10
281.47
 20
224.92
 30
0.0000
 11
282.26
 21
224.13
 31
0.0000
 6
CONTINUOUS
 0
ARC
 8
WHITE
 10
281.965
 20
223.845
 30
 0
 40
.410182
 50
315.9887
 51
44.01224
 6
CONTINUOUS
 0
LINE
 8
WHITE
 10
282.26
 20
223.56
 30
0.0000
 11
282.12
 21
223.42
 31
0.0000
 6
CONTINUOUS
 0
ARC
 8
WHITE
 10
281.83
 20
223.71
 30
 0
 40
.410121
 50
225.0015
 51
315
 6
CONTINUOUS
 0
LINE
 8
WHITE
 10
281.54
 20
223.42
 30
0.0000
 11
279.97
 21
224.99
 31
0.0000
 6
CONTINUOUS
 0
ARC
 8
WHITE
 10
280.265
 20
225.275
 30
 0
 40
.410182
 50
135.9902
 51
224.0122
 6
CONTINUOUS
 0
LINE
 8
WHITE
 10
279.97
 20
225.56
 30
0.0000
 11
280.12
 21
225.7
 31
0.0000
 6
CONTINUOUS
 0
ARC
 8
WHITE
 10
280.405
 20
225.405
 30
 0
 40
.410182
 50
45.98722
 51
134.0122
 6
CONTINUOUS
 0
LINE
 8
WHITE
 10
280.69
 20
225.7
 30
0.0000
 11
281.47
 21
224.92
 31
0.0000
 6
CONTINUOUS
 0
LINE
 8
WHITE
 10
276.78
 20
227.63
 30
0.0000
 11
277.85
 21
227.34
 31
0.0000
 6
CONTINUOUS
 0
ARC
 8
WHITE
 10
277.741
 20
226.953
 30
 0
 40
.402057
 50
345.1702
 51
74.26993
 6
CONTINUOUS
 0
LINE
 8
WHITE
 10
278.13
 20
226.85
 30
0.0000
 11
278.08
 21
226.65
 31
0.0000
 6
CONTINUOUS
 0
ARC
 8
WHITE
 10
277.693
 20
226.759
 30
 0
 40
.402057
 50
255.1696
 51
344.2699
 6
CONTINUOUS
 0
LINE
 8
WHITE
 10
277.59
 20
226.37
 30
0.0000
 11
275.44
 21
226.94
 31
0.0000
 6
CONTINUOUS
 0
ARC
 8
WHITE
 10
275.547
 20
227.328
 30
 0
 40
.402483
 50
163.8591
 51
254.5826
 6
CONTINUOUS
 0
LINE
 8
WHITE
 10
275.16
 20
227.44
 30
0.0000
 11
275.21
 21
227.63
 31
0.0000
 6
CONTINUOUS
 0
ARC
 8
WHITE
 10
275.6
 20
227.53
 30
 0
 40
.402616
 50
75.61774
 51
165.6186
 6
CONTINUOUS
 0
LINE
 8
WHITE
 10
275.7
 20
227.92
 30
0.0000
 11
276.78
 21
227.63
 31
0.0000
 6
CONTINUOUS
 0
LINE
 8
WHITE
 10
77.51
 20
223.71
 30
0.0000
 11
78.17
 21
224.46
 31
0.0000
 6
CONTINUOUS
 0
ARC
 8
WHITE
 10
78.43999
 20
224.22
 30
 0
 40
.361247
 50
48.36626
 51
138.3665
 6
CONTINUOUS
 0
LINE
 8
WHITE
 10
78.68
 20
224.49
 30
0.0000
 11
78.82
 21
224.38
 31
0.0000
 6
CONTINUOUS
 0
ARC
 8
WHITE
 10
78.585
 20
224.106
 30
 0
 40
.360972
 50
317.1291
 51
49.38149
 6
CONTINUOUS
 0
LINE
 8
WHITE
 10
78.85
 20
223.86
 30
0.0000
 11
77.54
 21
222.36
 31
0.0000
 6
CONTINUOUS
 0
ARC
 8
WHITE
 10
77.265
 20
222.594
 30
 0
 40
.361083
 50
229.3801
 51
319.6052
 6
CONTINUOUS
 0
LINE
 8
WHITE
 10
77.03
 20
222.32
 30
0.0000
 11
76.89
 21
222.44
 31
0.0000
 6
CONTINUOUS
 0
ARC
 8
WHITE
 10
77.13
 20
222.71
 30
 0
 40
.361247
 50
138.3673
 51
228.3665
 6
CONTINUOUS
 0
LINE
 8
WHITE
 10
76.86
 20
222.95
 30
0.0000
 11
77.51
 21
223.71
 31
0.0000
 6
CONTINUOUS
 0
LINE
 8
WHITE
 10
75.37
 20
219.32
 30
0.0000
 11
75.56
 21
220.3
 31
0.0000
 6
CONTINUOUS
 0
ARC
 8
WHITE
 10
75.92
 20
220.228
 30
 0
 40
.367129
 50
80.5882
 51
168.6901
 6
CONTINUOUS
 0
LINE
 8
WHITE
 10
75.98
 20
220.59
 30
0.0000
 11
76.16
 21
220.56
 31
0.0000
 6
CONTINUOUS
 0
ARC
 8
WHITE
 10
76.09
 20
220.2
 30
 0
 40
.366742
 50
348.9975
 51
78.99646
 6
CONTINUOUS
 0
LINE
 8
WHITE
 10
76.45
 20
220.13
 30
0.0000
 11
76.06
 21
218.17
 31
0.0000
 6
CONTINUOUS
 0
ARC
 8
WHITE
 10
75.7
 20
218.242
 30
 0
 40
.367129
 50
260.5894
 51
348.6901
 6
CONTINUOUS
 0
LINE
 8
WHITE
 10
75.64
 20
217.88
 30
0.0000
 11
75.46
 21
217.92
 31
0.0000
 6
CONTINUOUS
 0
ARC
 8
WHITE
 10
75.532
 20
218.28
 30
 0
 40
.367129
 50
170.5894
 51
258.6901
 6
CONTINUOUS
 0
LINE
 8
WHITE
 10
75.17
 20
218.34
 30
0.0000
 11
75.37
 21
219.32
 31
0.0000
 6
CONTINUOUS
 0
LINE
 8
WHITE
 10
75.7
 20
214.45
 30
0.0000
 11
75.37
 21
215.4
 31
0.0000
 6
CONTINUOUS
 0
ARC
 8
WHITE
 10
75.71101
 20
215.517
 30
 0
 40
.360513
 50
107.9334
 51
198.9375
 6
CONTINUOUS
 0
LINE
 8
WHITE
 10
75.6
 20
215.86
 30
0.0000
 11
75.77
 21
215.92
 31
0.0000
 6
CONTINUOUS
 0
ARC
 8
WHITE
 10
75.88699
 20
215.579
 30
 0
 40
.360513
 50
17.93304
 51
108.9375
 6
CONTINUOUS
 0
LINE
 8
WHITE
 10
76.23
 20
215.69
 30
0.0000
 11
76.88
 21
213.8
 31
0.0000
 6
CONTINUOUS
 0
ARC
 8
WHITE
 10
76.54
 20
213.68
 30
 0
 40
.360555
 50
289.4398
 51
19.44003
 6
CONTINUOUS
 0
LINE
 8
WHITE
 10
76.66
 20
213.34
 30
0.0000
 11
76.48
 21
213.28
 31
0.0000
 6
CONTINUOUS
 0
ARC
 8
WHITE
 10
76.36301
 20
213.621
 30
 0
 40
.360513
 50
197.933
 51
288.9375
 6
CONTINUOUS
 0
LINE
 8
WHITE
 10
76.02
 20
213.51
 30
0.0000
 11
75.7
 21
214.45
 31
0.0000
 6
CONTINUOUS
 0
LINE
 8
WHITE
 10
78.42
 20
210.4
 30
0.0000
 11
77.67
 21
211.06
 31
0.0000
 6
CONTINUOUS
 0
ARC
 8
WHITE
 10
77.904
 20
211.335
 30
 0
 40
.361083
 50
139.3798
 51
229.6053
 6
CONTINUOUS
 0
LINE
 8
WHITE
 10
77.63
 20
211.57
 30
0.0000
 11
77.75
 21
211.71
 31
0.0000
 6
CONTINUOUS
 0
ARC
 8
WHITE
 10
78.024
 20
211.475
 30
 0
 40
.360972
 50
47.12996
 51
139.3815
 6
CONTINUOUS
 0
LINE
 8
WHITE
 10
78.27
 20
211.74
 30
0.0000
 11
79.77
 21
210.43
 31
0.0000
 6
CONTINUOUS
 0
ARC
 8
WHITE
 10
79.536
 20
210.155
 30
 0
 40
.361083
 50
319.3816
 51
49.60524
 6
CONTINUOUS
 0
LINE
 8
WHITE
 10
79.81
 20
209.92
 30
0.0000
 11
79.69
 21
209.78
 31
0.0000
 6
CONTINUOUS
 0
ARC
 8
WHITE
 10
79.416
 20
210.015
 30
 0
 40
.360972
 50
227.1291
 51
319.3815
 6
CONTINUOUS
 0
LINE
 8
WHITE
 10
79.17
 20
209.75
 30
0.0000
 11
78.42
 21
210.4
 31
0.0000
 6
CONTINUOUS
 0
LINE
 8
WHITE
 10
82.81
 20
208.26
 30
0.0000
 11
83.79
 21
208.06
 31
0.0000
 6
CONTINUOUS
 0
ARC
 8
WHITE
 10
83.85
 20
208.422
 30
 0
 40
.366938
 50
260.589
 51
348.6915
 6
CONTINUOUS
 0
LINE
 8
WHITE
 10
84.21
 20
208.35
 30
0.0000
 11
84.25
 21
208.53
 31
0.0000
 6
CONTINUOUS
 0
ARC
 8
WHITE
 10
83.888
 20
208.59
 30
 0
 40
.366938
 50
350.589
 51
78.6903
 6
CONTINUOUS
 0
LINE
 8
WHITE
 10
83.96
 20
208.95
 30
0.0000
 11
82
 21
209.34
 31
0.0000
 6
CONTINUOUS
 0
ARC
 8
WHITE
 10
81.93
 20
208.98
 30
 0
 40
.366742
 50
78.99646
 51
168.9954
 6
CONTINUOUS
 0
LINE
 8
WHITE
 10
81.57
 20
209.05
 30
0.0000
 11
81.54
 21
208.87
 31
0.0000
 6
CONTINUOUS
 0
ARC
 8
WHITE
 10
81.901
 20
208.808
 30
 0
 40
.366285
 50
170.2548
 51
257.2509
 6
CONTINUOUS
 0
LINE
 8
WHITE
 10
81.82
 20
208.45
 30
0.0000
 11
82.81
 21
208.26
 31
0.0000
 6
CONTINUOUS
 0
LINE
 8
WHITE
 10
87.68
 20
208.59
 30
0.0000
 11
88.62
 21
208.91
 31
0.0000
 6
CONTINUOUS
 0
ARC
 8
WHITE
 10
88.509
 20
209.253
 30
 0
 40
.360513
 50
287.9324
 51
18.93612
 6
CONTINUOUS
 0
LINE
 8
WHITE
 10
88.85
 20
209.37
 30
0.0000
 11
88.79
 21
209.55
 31
0.0000
 6
CONTINUOUS
 0
ARC
 8
WHITE
 10
88.45
 20
209.43
 30
 0
 40
.360555
 50
19.44003
 51
109.4406
 6
CONTINUOUS
 0
LINE
 8
WHITE
 10
88.33
 20
209.77
 30
0.0000
 11
86.44
 21
209.12
 31
0.0000
 6
CONTINUOUS
 0
ARC
 8
WHITE
 10
86.551
 20
208.777
 30
 0
 40
.360513
 50
107.9324
 51
198.9357
 6
CONTINUOUS
 0
LINE
 8
WHITE
 10
86.21
 20
208.66
 30
0.0000
 11
86.27
 21
208.49
 31
0.0000
 6
CONTINUOUS
 0
ARC
 8
WHITE
 10
86.613
 20
208.601
 30
 0
 40
.360513
 50
197.9324
 51
288.938
 6
CONTINUOUS
 0
LINE
 8
WHITE
 10
86.73
 20
208.26
 30
0.0000
 11
87.68
 21
208.59
 31
0.0000
 6
CONTINUOUS
 0
LINE
 8
WHITE
 10
91.73
 20
211.31
 30
0.0000
 11
91.07
 21
210.56
 31
0.0000
 6
CONTINUOUS
 0
ARC
 8
WHITE
 10
90.795
 20
210.794
 30
 0
 40
.361083
 50
229.3801
 51
319.6052
 6
CONTINUOUS
 0
LINE
 8
WHITE
 10
90.56
 20
210.52
 30
0.0000
 11
90.42
 21
210.64
 31
0.0000
 6
CONTINUOUS
 0
ARC
 8
WHITE
 10
90.655
 20
210.914
 30
 0
 40
.360972
 50
137.1291
 51
229.3815
 6
CONTINUOUS
 0
LINE
 8
WHITE
 10
90.39
 20
211.16
 30
0.0000
 11
91.7
 21
212.66
 31
0.0000
 6
CONTINUOUS
 0
ARC
 8
WHITE
 10
91.975
 20
212.426
 30
 0
 40
.361083
 50
49.38005
 51
139.6052
 6
CONTINUOUS
 0
LINE
 8
WHITE
 10
92.21
 20
212.7
 30
0.0000
 11
92.35
 21
212.58
 31
0.0000
 6
CONTINUOUS
 0
ARC
 8
WHITE
 10
92.115
 20
212.306
 30
 0
 40
.360972
 50
317.1291
 51
49.38149
 6
CONTINUOUS
 0
LINE
 8
WHITE
 10
92.38
 20
212.06
 30
0.0000
 11
91.73
 21
211.31
 31
0.0000
 6
CONTINUOUS
 0
LINE
 8
WHITE
 10
93.87
 20
215.7
 30
0.0000
 11
93.68
 21
214.71
 31
0.0000
 6
CONTINUOUS
 0
ARC
 8
WHITE
 10
93.322
 20
214.79
 30
 0
 40
.366829
 50
258.6908
 51
347.4034
 6
CONTINUOUS
 0
LINE
 8
WHITE
 10
93.25
 20
214.43
 30
0.0000
 11
93.08
 21
214.46
 31
0.0000
 6
CONTINUOUS
 0
ARC
 8
WHITE
 10
93.15
 20
214.82
 30
 0
 40
.366742
 50
168.9977
 51
258.9965
 6
CONTINUOUS
 0
LINE
 8
WHITE
 10
92.79
 20
214.89
 30
0.0000
 11
93.17
 21
216.85
 31
0.0000
 6
CONTINUOUS
 0
ARC
 8
WHITE
 10
93.53
 20
216.78
 30
 0
 40
.366742
 50
78.99652
 51
168.9965
 6
CONTINUOUS
 0
LINE
 8
WHITE
 10
93.6
 20
217.14
 30
0.0000
 11
93.78
 21
217.1
 31
0.0000
 6
CONTINUOUS
 0
ARC
 8
WHITE
 10
93.708
 20
216.74
 30
 0
 40
.367129
 50
350.587
 51
78.69007
 6
CONTINUOUS
 0
LINE
 8
WHITE
 10
94.07
 20
216.68
 30
0.0000
 11
93.87
 21
215.7
 31
0.0000
 6
CONTINUOUS
 0
LINE
 8
WHITE
 10
93.54
 20
220.57
 30
0.0000
 11
93.86
 21
219.62
 31
0.0000
 6
CONTINUOUS
 0
ARC
 8
WHITE
 10
93.52
 20
219.5
 30
 0
 40
.360555
 50
289.4395
 51
19.44003
 6
CONTINUOUS
 0
LINE
 8
WHITE
 10
93.64
 20
219.16
 30
0.0000
 11
93.47
 21
219.1
 31
0.0000
 6
CONTINUOUS
 0
ARC
 8
WHITE
 10
93.344
 20
219.438
 30
 0
 40
.360721
 50
197.43
 51
290.4445
 6
CONTINUOUS
 0
LINE
 8
WHITE
 10
93
 20
219.33
 30
0.0000
 11
92.36
 21
221.22
 31
0.0000
 6
CONTINUOUS
 0
ARC
 8
WHITE
 10
92.7
 20
221.34
 30
 0
 40
.360555
 50
109.4395
 51
199.44
 6
CONTINUOUS
 0
LINE
 8
WHITE
 10
92.58
 20
221.68
 30
0.0000
 11
92.75
 21
221.74
 31
0.0000
 6
CONTINUOUS
 0
ARC
 8
WHITE
 10
92.876
 20
221.402
 30
 0
 40
.360721
 50
17.42772
 51
110.4445
 6
CONTINUOUS
 0
LINE
 8
WHITE
 10
93.22
 20
221.51
 30
0.0000
 11
93.54
 21
220.57
 31
0.0000
 6
CONTINUOUS
 0
LINE
 8
WHITE
 10
90.82
 20
224.62
 30
0.0000
 11
91.57
 21
223.96
 31
0.0000
 6
CONTINUOUS
 0
ARC
 8
WHITE
 10
91.33
 20
223.69
 30
 0
 40
.361247
 50
318.3654
 51
48.36646
 6
CONTINUOUS
 0
LINE
 8
WHITE
 10
91.6
 20
223.45
 30
0.0000
 11
91.49
 21
223.31
 31
0.0000
 6
CONTINUOUS
 0
ARC
 8
WHITE
 10
91.216
 20
223.545
 30
 0
 40
.360972
 50
227.13
 51
319.3815
 6
CONTINUOUS
 0
LINE
 8
WHITE
 10
90.97
 20
223.28
 30
0.0000
 11
89.47
 21
224.59
 31
0.0000
 6
CONTINUOUS
 0
ARC
 8
WHITE
 10
89.704
 20
224.865
 30
 0
 40
.361083
 50
139.3798
 51
229.6053
 6
CONTINUOUS
 0
LINE
 8
WHITE
 10
89.43
 20
225.1
 30
0.0000
 11
89.55
 21
225.24
 31
0.0000
 6
CONTINUOUS
 0
ARC
 8
WHITE
 10
89.82
 20
225
 30
 0
 40
.361247
 50
48.36716
 51
138.3665
 6
CONTINUOUS
 0
LINE
 8
WHITE
 10
90.06
 20
225.27
 30
0.0000
 11
90.82
 21
224.62
 31
0.0000
 6
CONTINUOUS
 0
LINE
 8
WHITE
 10
86.26
 20
225.87
 30
0.0000
 11
87.24
 21
225.68
 31
0.0000
 6
CONTINUOUS
 0
ARC
 8
WHITE
 10
87.31
 20
226.04
 30
 0
 40
.366742
 50
258.9965
 51
348.9977
 6
CONTINUOUS
 0
LINE
 8
WHITE
 10
87.67
 20
225.97
 30
0.0000
 11
87.7
 21
226.14
 31
0.0000
 6
CONTINUOUS
 0
ARC
 8
WHITE
 10
87.34
 20
226.21
 30
 0
 40
.366742
 50
348.9965
 51
78.99535
 6
CONTINUOUS
 0
LINE
 8
WHITE
 10
87.41
 20
226.57
 30
0.0000
 11
85.45
 21
226.96
 31
0.0000
 6
CONTINUOUS
 0
ARC
 8
WHITE
 10
85.39
 20
226.598
 30
 0
 40
.366938
 50
80.58902
 51
168.6915
 6
CONTINUOUS
 0
LINE
 8
WHITE
 10
85.03
 20
226.67
 30
0.0000
 11
84.99
 21
226.49
 31
0.0000
 6
CONTINUOUS
 0
ARC
 8
WHITE
 10
85.35
 20
226.42
 30
 0
 40
.366742
 50
168.9965
 51
258.9965
 6
CONTINUOUS
 0
LINE
 8
WHITE
 10
85.28
 20
226.06
 30
0.0000
 11
86.26
 21
225.87
 31
0.0000
 6
CONTINUOUS
 0
LINE
 8
WHITE
 10
81.56
 20
226.43
 30
0.0000
 11
80.62
 21
226.11
 31
0.0000
 6
CONTINUOUS
 0
ARC
 8
WHITE
 10
80.728
 20
225.766
 30
 0
 40
.360555
 50
107.4299
 51
200.4453
 6
CONTINUOUS
 0
LINE
 8
WHITE
 10
80.39
 20
225.64
 30
0.0000
 11
80.45
 21
225.47
 31
0.0000
 6
CONTINUOUS
 0
ARC
 8
WHITE
 10
80.78999
 20
225.59
 30
 0
 40
.360555
 50
199.44
 51
289.4418
 6
CONTINUOUS
 0
LINE
 8
WHITE
 10
80.91
 20
225.25
 30
0.0000
 11
82.8
 21
225.89
 31
0.0000
 6
CONTINUOUS
 0
ARC
 8
WHITE
 10
82.692
 20
226.234
 30
 0
 40
.360555
 50
287.4299
 51
20.4457
 6
CONTINUOUS
 0
LINE
 8
WHITE
 10
83.03
 20
226.36
 30
0.0000
 11
82.97
 21
226.53
 31
0.0000
 6
CONTINUOUS
 0
ARC
 8
WHITE
 10
82.63
 20
226.41
 30
 0
 40
.360555
 50
19.44003
 51
109.4406
 6
CONTINUOUS
 0
LINE
 8
WHITE
 10
82.51
 20
226.75
 30
0.0000
 11
81.56
 21
226.43
 31
0.0000
 6
CONTINUOUS
 0
LINE
 8
WHITE
 10
39.72
 20
226.93
 30
0.0000
 11
40.72
 21
226.98
 31
0.0000
 6
CONTINUOUS
 0
ARC
 8
WHITE
 10
40.74
 20
226.62
 30
 0
 40
.360555
 50
1.592707
 51
93.17983
 6
CONTINUOUS
 0
LINE
 8
WHITE
 10
41.1
 20
226.63
 30
0.0000
 11
41.1
 21
226.45
 31
0.0000
 6
CONTINUOUS
 0
ARC
 8
WHITE
 10
40.74
 20
226.43
 30
 0
 40
.360555
 50
274.7643
 51
3.179829
 6
CONTINUOUS
 0
LINE
 8
WHITE
 10
40.77
 20
226.07
 30
0.0000
 11
38.77
 21
225.97
 31
0.0000
 6
CONTINUOUS
 0
ARC
 8
WHITE
 10
38.75
 20
226.33
 30
 0
 40
.360555
 50
183.1805
 51
273.1798
 6
CONTINUOUS
 0
LINE
 8
WHITE
 10
38.39
 20
226.31
 30
0.0000
 11
38.39
 21
226.49
 31
0.0000
 6
CONTINUOUS
 0
ARC
 8
WHITE
 10
38.75
 20
226.51
 30
 0
 40
.360555
 50
94.76364
 51
183.1798
 6
CONTINUOUS
 0
LINE
 8
WHITE
 10
38.72
 20
226.87
 30
0.0000
 11
39.72
 21
226.93
 31
0.0000
 6
CONTINUOUS
 0
LINE
 8
WHITE
 10
35.08
 20
225.42
 30
0.0000
 11
35.92
 21
225.96
 31
0.0000
 6
CONTINUOUS
 0
ARC
 8
WHITE
 10
36.12
 20
225.66
 30
 0
 40
.360555
 50
33.68973
 51
123.6901
 6
CONTINUOUS
 0
LINE
 8
WHITE
 10
36.42
 20
225.86
 30
0.0000
 11
36.52
 21
225.7
 31
0.0000
 6
CONTINUOUS
 0
ARC
 8
WHITE
 10
36.217
 20
225.505
 30
 0
 40
.360324
 50
302.3258
 51
32.76389
 6
CONTINUOUS
 0
LINE
 8
WHITE
 10
36.41
 20
225.2
 30
0.0000
 11
34.74
 21
224.11
 31
0.0000
 6
CONTINUOUS
 0
ARC
 8
WHITE
 10
34.537
 20
224.408
 30
 0
 40
.360573
 50
211.4826
 51
304.263
 6
CONTINUOUS
 0
LINE
 8
WHITE
 10
34.23
 20
224.22
 30
0.0000
 11
34.13
 21
224.37
 31
0.0000
 6
CONTINUOUS
 0
ARC
 8
WHITE
 10
34.433
 20
224.565
 30
 0
 40
.360324
 50
122.3258
 51
212.7639
 6
CONTINUOUS
 0
LINE
 8
WHITE
 10
34.24
 20
224.87
 30
0.0000
 11
35.08
 21
225.42
 31
0.0000
 6
CONTINUOUS
 0
LINE
 8
WHITE
 10
31.81
 20
221.79
 30
0.0000
 11
31.36
 21
220.9
 31
0.0000
 6
CONTINUOUS
 0
ARC
 8
WHITE
 10
31.676
 20
220.732
 30
 0
 40
.357882
 50
152.0029
 51
244.1504
 6
CONTINUOUS
 0
LINE
 8
WHITE
 10
31.52
 20
220.41
 30
0.0000
 11
31.68
 21
220.33
 31
0.0000
 6
CONTINUOUS
 0
ARC
 8
WHITE
 10
31.848
 20
220.646
 30
 0
 40
.357882
 50
242.0029
 51
334.1524
 6
CONTINUOUS
 0
LINE
 8
WHITE
 10
32.17
 20
220.49
 30
0.0000
 11
33.07
 21
222.27
 31
0.0000
 6
CONTINUOUS
 0
ARC
 8
WHITE
 10
32.756
 20
222.442
 30
 0
 40
.358022
 50
331.2874
 51
62.71862
 6
CONTINUOUS
 0
LINE
 8
WHITE
 10
32.92
 20
222.76
 30
0.0000
 11
32.75
 21
222.84
 31
0.0000
 6
CONTINUOUS
 0
ARC
 8
WHITE
 10
32.59
 20
222.52
 30
 0
 40
.35777
 50
63.43494
 51
153.4344
 6
CONTINUOUS
 0
LINE
 8
WHITE
 10
32.27
 20
222.68
 30
0.0000
 11
31.81
 21
221.79
 31
0.0000
 6
CONTINUOUS
 0
LINE
 8
WHITE
 10
30.8
 20
217.02
 30
0.0000
 11
30.74
 21
218.01
 31
0.0000
 6
CONTINUOUS
 0
ARC
 8
WHITE
 10
31.099
 20
218.04
 30
 0
 40
.360251
 50
91.43192
 51
184.7769
 6
CONTINUOUS
 0
LINE
 8
WHITE
 10
31.09
 20
218.4
 30
0.0000
 11
31.27
 21
218.4
 31
0.0000
 6
CONTINUOUS
 0
ARC
 8
WHITE
 10
31.29
 20
218.04
 30
 0
 40
.360555
 50
3.180519
 51
93.17983
 6
CONTINUOUS
 0
LINE
 8
WHITE
 10
31.65
 20
218.06
 30
0.0000
 11
31.76
 21
216.07
 31
0.0000
 6
CONTINUOUS
 0
ARC
 8
WHITE
 10
31.401
 20
216.04
 30
 0
 40
.360251
 50
271.4319
 51
4.776849
 6
CONTINUOUS
 0
LINE
 8
WHITE
 10
31.41
 20
215.68
 30
0.0000
 11
31.23
 21
215.68
 31
0.0000
 6
CONTINUOUS
 0
ARC
 8
WHITE
 10
31.21
 20
216.04
 30
 0
 40
.360555
 50
183.1781
 51
273.1798
 6
CONTINUOUS
 0
LINE
 8
WHITE
 10
30.85
 20
216.02
 30
0.0000
 11
30.8
 21
217.02
 31
0.0000
 6
CONTINUOUS
 0
LINE
 8
WHITE
 10
32.3
 20
212.37
 30
0.0000
 11
31.76
 21
213.21
 31
0.0000
 6
CONTINUOUS
 0
ARC
 8
WHITE
 10
32.063
 20
213.405
 30
 0
 40
.360324
 50
122.3256
 51
212.7639
 6
CONTINUOUS
 0
LINE
 8
WHITE
 10
31.87
 20
213.71
 30
0.0000
 11
32.02
 21
213.81
 31
0.0000
 6
CONTINUOUS
 0
ARC
 8
WHITE
 10
32.22
 20
213.51
 30
 0
 40
.360555
 50
33.69175
 51
123.6901
 6
CONTINUOUS
 0
LINE
 8
WHITE
 10
32.52
 20
213.71
 30
0.0000
 11
33.61
 21
212.03
 31
0.0000
 6
CONTINUOUS
 0
ARC
 8
WHITE
 10
33.307
 20
211.835
 30
 0
 40
.360324
 50
302.3258
 51
32.76389
 6
CONTINUOUS
 0
LINE
 8
WHITE
 10
33.5
 20
211.53
 30
0.0000
 11
33.35
 21
211.43
 31
0.0000
 6
CONTINUOUS
 0
ARC
 8
WHITE
 10
33.155
 20
211.733
 30
 0
 40
.360324
 50
212.3241
 51
302.7639
 6
CONTINUOUS
 0
LINE
 8
WHITE
 10
32.85
 20
211.54
 30
0.0000
 11
32.3
 21
212.37
 31
0.0000
 6
CONTINUOUS
 0
LINE
 8
WHITE
 10
35.93
 20
209.11
 30
0.0000
 11
35.04
 21
209.56
 31
0.0000
 6
CONTINUOUS
 0
ARC
 8
WHITE
 10
35.196
 20
209.882
 30
 0
 40
.357798
 50
152.0028
 51
244.1511
 6
CONTINUOUS
 0
LINE
 8
WHITE
 10
34.88
 20
210.05
 30
0.0000
 11
34.96
 21
210.21
 31
0.0000
 6
CONTINUOUS
 0
ARC
 8
WHITE
 10
35.282
 20
210.054
 30
 0
 40
.357798
 50
62.00198
 51
154.1511
 6
CONTINUOUS
 0
LINE
 8
WHITE
 10
35.45
 20
210.37
 30
0.0000
 11
37.23
 21
209.46
 31
0.0000
 6
CONTINUOUS
 0
ARC
 8
WHITE
 10
37.074
 20
209.138
 30
 0
 40
.357798
 50
332.0028
 51
64.15111
 6
CONTINUOUS
 0
LINE
 8
WHITE
 10
37.39
 20
208.97
 30
0.0000
 11
37.31
 21
208.81
 31
0.0000
 6
CONTINUOUS
 0
ARC
 8
WHITE
 10
36.988
 20
208.966
 30
 0
 40
.357798
 50
242.0031
 51
334.1511
 6
CONTINUOUS
 0
LINE
 8
WHITE
 10
36.82
 20
208.65
 30
0.0000
 11
35.93
 21
209.11
 31
0.0000
 6
CONTINUOUS
 0
LINE
 8
WHITE
 10
40.71
 20
208.09
 30
0.0000
 11
39.71
 21
208.04
 31
0.0000
 6
CONTINUOUS
 0
ARC
 8
WHITE
 10
39.69
 20
208.4
 30
 0
 40
.360555
 50
183.1781
 51
273.1798
 6
CONTINUOUS
 0
LINE
 8
WHITE
 10
39.33
 20
208.38
 30
0.0000
 11
39.33
 21
208.57
 31
0.0000
 6
CONTINUOUS
 0
ARC
 8
WHITE
 10
39.69
 20
208.59
 30
 0
 40
.360555
 50
94.76424
 51
183.1798
 6
CONTINUOUS
 0
LINE
 8
WHITE
 10
39.66
 20
208.95
 30
0.0000
 11
41.66
 21
209.05
 31
0.0000
 6
CONTINUOUS
 0
ARC
 8
WHITE
 10
41.68
 20
208.69
 30
 0
 40
.360555
 50
3.180502
 51
93.17983
 6
CONTINUOUS
 0
LINE
 8
WHITE
 10
42.04
 20
208.71
 30
0.0000
 11
42.04
 21
208.53
 31
0.0000
 6
CONTINUOUS
 0
ARC
 8
WHITE
 10
41.681
 20
208.5
 30
 0
 40
.360251
 50
273.0213
 51
4.776849
 6
CONTINUOUS
 0
LINE
 8
WHITE
 10
41.7
 20
208.14
 30
0.0000
 11
40.71
 21
208.09
 31
0.0000
 6
CONTINUOUS
 0
LINE
 8
WHITE
 10
45.35
 20
209.6
 30
0.0000
 11
44.51
 21
209.06
 31
0.0000
 6
CONTINUOUS
 0
ARC
 8
WHITE
 10
44.31
 20
209.36
 30
 0
 40
.360555
 50
213.6897
 51
303.6901
 6
CONTINUOUS
 0
LINE
 8
WHITE
 10
44.01
 20
209.16
 30
0.0000
 11
43.91
 21
209.31
 31
0.0000
 6
CONTINUOUS
 0
ARC
 8
WHITE
 10
44.208
 20
209.513
 30
 0
 40
.360573
 50
121.4818
 51
214.263
 6
CONTINUOUS
 0
LINE
 8
WHITE
 10
44.02
 20
209.82
 30
0.0000
 11
45.69
 21
210.91
 31
0.0000
 6
CONTINUOUS
 0
ARC
 8
WHITE
 10
45.885
 20
210.607
 30
 0
 40
.360324
 50
32.32415
 51
122.7639
 6
CONTINUOUS
 0
LINE
 8
WHITE
 10
46.19
 20
210.8
 30
0.0000
 11
46.29
 21
210.65
 31
0.0000
 6
CONTINUOUS
 0
ARC
 8
WHITE
 10
45.995
 20
210.443
 30
 0
 40
.36038
 50
302.7639
 51
35.05714
 6
CONTINUOUS
 0
LINE
 8
WHITE
 10
46.19
 20
210.14
 30
0.0000
 11
45.35
 21
209.6
 31
0.0000
 6
CONTINUOUS
 0
LINE
 8
WHITE
 10
48.61
 20
213.23
 30
0.0000
 11
48.16
 21
212.34
 31
0.0000
 6
CONTINUOUS
 0
ARC
 8
WHITE
 10
47.838
 20
212.496
 30
 0
 40
.357798
 50
242.0031
 51
334.1511
 6
CONTINUOUS
 0
LINE
 8
WHITE
 10
47.67
 20
212.18
 30
0.0000
 11
47.51
 21
212.26
 31
0.0000
 6
CONTINUOUS
 0
ARC
 8
WHITE
 10
47.666
 20
212.582
 30
 0
 40
.357798
 50
152.0028
 51
244.1511
 6
CONTINUOUS
 0
LINE
 8
WHITE
 10
47.35
 20
212.75
 30
0.0000
 11
48.26
 21
214.53
 31
0.0000
 6
CONTINUOUS
 0
ARC
 8
WHITE
 10
48.582
 20
214.374
 30
 0
 40
.357798
 50
62.00313
 51
154.1511
 6
CONTINUOUS
 0
LINE
 8
WHITE
 10
48.75
 20
214.69
 30
0.0000
 11
48.91
 21
214.61
 31
0.0000
 6
CONTINUOUS
 0
ARC
 8
WHITE
 10
48.754
 20
214.288
 30
 0
 40
.357798
 50
332.0028
 51
64.15111
 6
CONTINUOUS
 0
LINE
 8
WHITE
 10
49.07
 20
214.12
 30
0.0000
 11
48.61
 21
213.23
 31
0.0000
 6
CONTINUOUS
 0
LINE
 8
WHITE
 10
49.63
 20
218
 30
0.0000
 11
49.68
 21
217
 31
0.0000
 6
CONTINUOUS
 0
ARC
 8
WHITE
 10
49.32
 20
216.98
 30
 0
 40
.360555
 50
273.1799
 51
3.179829
 6
CONTINUOUS
 0
LINE
 8
WHITE
 10
49.34
 20
216.62
 30
0.0000
 11
49.16
 21
216.62
 31
0.0000
 6
CONTINUOUS
 0
ARC
 8
WHITE
 10
49.14
 20
216.98
 30
 0
 40
.360555
 50
183.1781
 51
273.1798
 6
CONTINUOUS
 0
LINE
 8
WHITE
 10
48.78
 20
216.96
 30
0.0000
 11
48.67
 21
218.95
 31
0.0000
 6
CONTINUOUS
 0
ARC
 8
WHITE
 10
49.03
 20
218.97
 30
 0
 40
.360555
 50
91.59087
 51
183.1798
 6
CONTINUOUS
 0
LINE
 8
WHITE
 10
49.02
 20
219.33
 30
0.0000
 11
49.2
 21
219.33
 31
0.0000
 6
CONTINUOUS
 0
ARC
 8
WHITE
 10
49.22
 20
218.97
 30
 0
 40
.360555
 50
4.76344
 51
93.17983
 6
CONTINUOUS
 0
LINE
 8
WHITE
 10
49.58
 20
219
 30
0.0000
 11
49.63
 21
218
 31
0.0000
 6
CONTINUOUS
 0
LINE
 8
WHITE
 10
48.12
 20
222.64
 30
0.0000
 11
48.67
 21
221.81
 31
0.0000
 6
CONTINUOUS
 0
ARC
 8
WHITE
 10
48.372
 20
221.607
 30
 0
 40
.360573
 50
301.4836
 51
34.263
 6
CONTINUOUS
 0
LINE
 8
WHITE
 10
48.56
 20
221.3
 30
0.0000
 11
48.41
 21
221.2
 31
0.0000
 6
CONTINUOUS
 0
ARC
 8
WHITE
 10
48.207
 20
221.498
 30
 0
 40
.360573
 50
211.4829
 51
304.263
 6
CONTINUOUS
 0
LINE
 8
WHITE
 10
47.9
 20
221.31
 30
0.0000
 11
46.82
 21
222.99
 31
0.0000
 6
CONTINUOUS
 0
ARC
 8
WHITE
 10
47.12
 20
223.19
 30
 0
 40
.360555
 50
123.6899
 51
213.6901
 6
CONTINUOUS
 0
LINE
 8
WHITE
 10
46.92
 20
223.49
 30
0.0000
 11
47.08
 21
223.59
 31
0.0000
 6
CONTINUOUS
 0
ARC
 8
WHITE
 10
47.275
 20
223.287
 30
 0
 40
.360324
 50
32.32415
 51
122.7639
 6
CONTINUOUS
 0
LINE
 8
WHITE
 10
47.58
 20
223.48
 30
0.0000
 11
48.12
 21
222.64
 31
0.0000
 6
CONTINUOUS
 0
LINE
 8
WHITE
 10
44.5
 20
225.91
 30
0.0000
 11
45.39
 21
225.46
 31
0.0000
 6
CONTINUOUS
 0
ARC
 8
WHITE
 10
45.226
 20
225.142
 30
 0
 40
.357798
 50
331.2859
 51
62.71878
 6
CONTINUOUS
 0
LINE
 8
WHITE
 10
45.54
 20
224.97
 30
0.0000
 11
45.46
 21
224.81
 31
0.0000
 6
CONTINUOUS
 0
ARC
 8
WHITE
 10
45.138
 20
224.966
 30
 0
 40
.357798
 50
242.0037
 51
334.1511
 6
CONTINUOUS
 0
LINE
 8
WHITE
 10
44.97
 20
224.65
 30
0.0000
 11
43.19
 21
225.56
 31
0.0000
 6
CONTINUOUS
 0
ARC
 8
WHITE
 10
43.35
 20
225.88
 30
 0
 40
.35777
 50
153.4366
 51
243.435
 6
CONTINUOUS
 0
LINE
 8
WHITE
 10
43.03
 20
226.04
 30
0.0000
 11
43.12
 21
226.21
 31
0.0000
 6
CONTINUOUS
 0
ARC
 8
WHITE
 10
43.438
 20
226.046
 30
 0
 40
.357798
 50
61.28688
 51
152.7188
 6
CONTINUOUS
 0
LINE
 8
WHITE
 10
43.61
 20
226.36
 30
0.0000
 11
44.5
 21
225.91
 31
0.0000
 6
CONTINUOUS
 0
LINE
 8
WHITE
 10
33.07
 20
143.68
 30
0.0000
 11
33.61
 21
144.52
 31
0.0000
 6
CONTINUOUS
 0
ARC
 8
WHITE
 10
33.307
 20
144.715
 30
 0
 40
.360324
 50
327.2361
 51
57.67418
 6
CONTINUOUS
 0
LINE
 8
WHITE
 10
33.5
 20
145.02
 30
0.0000
 11
33.35
 21
145.12
 31
0.0000
 6
CONTINUOUS
 0
ARC
 8
WHITE
 10
33.155
 20
144.817
 30
 0
 40
.360324
 50
57.23611
 51
147.6759
 6
CONTINUOUS
 0
LINE
 8
WHITE
 10
32.85
 20
145.01
 30
0.0000
 11
31.76
 21
143.34
 31
0.0000
 6
CONTINUOUS
 0
ARC
 8
WHITE
 10
32.058
 20
143.137
 30
 0
 40
.360573
 50
145.737
 51
238.5172
 6
CONTINUOUS
 0
LINE
 8
WHITE
 10
31.87
 20
142.83
 30
0.0000
 11
32.02
 21
142.74
 31
0.0000
 6
CONTINUOUS
 0
ARC
 8
WHITE
 10
32.22
 20
143.04
 30
 0
 40
.360555
 50
236.3099
 51
326.3083
 6
CONTINUOUS
 0
LINE
 8
WHITE
 10
32.52
 20
142.84
 30
0.0000
 11
33.07
 21
143.68
 31
0.0000
 6
CONTINUOUS
 0
LINE
 8
WHITE
 10
36.34
 20
146.63
 30
0.0000
 11
35.45
 21
146.18
 31
0.0000
 6
CONTINUOUS
 0
ARC
 8
WHITE
 10
35.282
 20
146.496
 30
 0
 40
.357882
 50
205.8474
 51
297.9971
 6
CONTINUOUS
 0
LINE
 8
WHITE
 10
34.96
 20
146.34
 30
0.0000
 11
34.88
 21
146.5
 31
0.0000
 6
CONTINUOUS
 0
ARC
 8
WHITE
 10
35.196
 20
146.668
 30
 0
 40
.357882
 50
115.8487
 51
207.9971
 6
CONTINUOUS
 0
LINE
 8
WHITE
 10
35.04
 20
146.99
 30
0.0000
 11
36.82
 21
147.9
 31
0.0000
 6
CONTINUOUS
 0
ARC
 8
WHITE
 10
36.988
 20
147.584
 30
 0
 40
.357882
 50
25.84957
 51
117.9971
 6
CONTINUOUS
 0
LINE
 8
WHITE
 10
37.31
 20
147.74
 30
0.0000
 11
37.39
 21
147.58
 31
0.0000
 6
CONTINUOUS
 0
ARC
 8
WHITE
 10
37.074
 20
147.412
 30
 0
 40
.357882
 50
295.8488
 51
27.99715
 6
CONTINUOUS
 0
LINE
 8
WHITE
 10
37.23
 20
147.09
 30
0.0000
 11
36.34
 21
146.63
 31
0.0000
 6
CONTINUOUS
 0
LINE
 8
WHITE
 10
40.66
 20
147.55
 30
0.0000
 11
39.66
 21
147.6
 31
0.0000
 6
CONTINUOUS
 0
ARC
 8
WHITE
 10
39.68
 20
147.96
 30
 0
 40
.360555
 50
176.8219
 51
266.8202
 6
CONTINUOUS
 0
LINE
 8
WHITE
 10
39.32
 20
147.98
 30
0.0000
 11
39.32
 21
148.17
 31
0.0000
 6
CONTINUOUS
 0
ARC
 8
WHITE
 10
39.68
 20
148.15
 30
 0
 40
.360555
 50
85.23656
 51
176.8202
 6
CONTINUOUS
 0
LINE
 8
WHITE
 10
39.71
 20
148.51
 30
0.0000
 11
41.7
 21
148.41
 31
0.0000
 6
CONTINUOUS
 0
ARC
 8
WHITE
 10
41.691
 20
148.05
 30
 0
 40
.360112
 50
355.2233
 51
88.5679
 6
CONTINUOUS
 0
LINE
 8
WHITE
 10
42.05
 20
148.02
 30
0.0000
 11
42.05
 21
147.84
 31
0.0000
 6
CONTINUOUS
 0
ARC
 8
WHITE
 10
41.69
 20
147.86
 30
 0
 40
.360555
 50
265.2366
 51
356.8202
 6
CONTINUOUS
 0
LINE
 8
WHITE
 10
41.66
 20
147.5
 30
0.0000
 11
40.66
 21
147.55
 31
0.0000
 6
CONTINUOUS
 0
LINE
 8
WHITE
 10
44.85
 20
146.19
 30
0.0000
 11
45.69
 21
145.64
 31
0.0000
 6
CONTINUOUS
 0
ARC
 8
WHITE
 10
45.885
 20
145.943
 30
 0
 40
.360324
 50
237.2361
 51
327.6758
 6
CONTINUOUS
 0
LINE
 8
WHITE
 10
46.19
 20
145.75
 30
0.0000
 11
46.29
 21
145.9
 31
0.0000
 6
CONTINUOUS
 0
ARC
 8
WHITE
 10
45.995
 20
146.107
 30
 0
 40
.36038
 50
324.9429
 51
57.23744
 6
CONTINUOUS
 0
LINE
 8
WHITE
 10
46.19
 20
146.41
 30
0.0000
 11
44.51
 21
147.49
 31
0.0000
 6
CONTINUOUS
 0
ARC
 8
WHITE
 10
44.31
 20
147.19
 30
 0
 40
.360555
 50
56.30993
 51
146.3103
 6
CONTINUOUS
 0
LINE
 8
WHITE
 10
44.01
 20
147.39
 30
0.0000
 11
43.91
 21
147.23
 31
0.0000
 6
CONTINUOUS
 0
ARC
 8
WHITE
 10
44.213
 20
147.035
 30
 0
 40
.360324
 50
147.2361
 51
237.6742
 6
CONTINUOUS
 0
LINE
 8
WHITE
 10
44.02
 20
146.73
 30
0.0000
 11
44.85
 21
146.19
 31
0.0000
 6
CONTINUOUS
 0
LINE
 8
WHITE
 10
47.81
 20
142.91
 30
0.0000
 11
47.35
 21
143.8
 31
0.0000
 6
CONTINUOUS
 0
ARC
 8
WHITE
 10
47.666
 20
143.968
 30
 0
 40
.357882
 50
115.8498
 51
207.9971
 6
CONTINUOUS
 0
LINE
 8
WHITE
 10
47.51
 20
144.29
 30
0.0000
 11
47.67
 21
144.37
 31
0.0000
 6
CONTINUOUS
 0
ARC
 8
WHITE
 10
47.838
 20
144.054
 30
 0
 40
.357882
 50
25.84957
 51
117.9971
 6
CONTINUOUS
 0
LINE
 8
WHITE
 10
48.16
 20
144.21
 30
0.0000
 11
49.07
 21
142.43
 31
0.0000
 6
CONTINUOUS
 0
ARC
 8
WHITE
 10
48.754
 20
142.262
 30
 0
 40
.357882
 50
295.8498
 51
27.99715
 6
CONTINUOUS
 0
LINE
 8
WHITE
 10
48.91
 20
141.94
 30
0.0000
 11
48.75
 21
141.86
 31
0.0000
 6
CONTINUOUS
 0
ARC
 8
WHITE
 10
48.582
 20
142.176
 30
 0
 40
.357882
 50
205.8474
 51
297.9971
 6
CONTINUOUS
 0
LINE
 8
WHITE
 10
48.26
 20
142.02
 30
0.0000
 11
47.81
 21
142.91
 31
0.0000
 6
CONTINUOUS
 0
LINE
 8
WHITE
 10
48.72
 20
138.6
 30
0.0000
 11
48.78
 21
139.59
 31
0.0000
 6
CONTINUOUS
 0
ARC
 8
WHITE
 10
49.14
 20
139.58
 30
 0
 40
.360138
 50
86.82011
 51
178.4089
 6
CONTINUOUS
 0
LINE
 8
WHITE
 10
49.16
 20
139.94
 30
0.0000
 11
49.34
 21
139.94
 31
0.0000
 6
CONTINUOUS
 0
ARC
 8
WHITE
 10
49.32
 20
139.58
 30
 0
 40
.360555
 50
355.2366
 51
86.82017
 6
CONTINUOUS
 0
LINE
 8
WHITE
 10
49.68
 20
139.55
 30
0.0000
 11
49.58
 21
137.55
 31
0.0000
 6
CONTINUOUS
 0
ARC
 8
WHITE
 10
49.22
 20
137.57
 30
 0
 40
.360555
 50
266.8201
 51
356.8202
 6
CONTINUOUS
 0
LINE
 8
WHITE
 10
49.2
 20
137.21
 30
0.0000
 11
49.02
 21
137.21
 31
0.0000
 6
CONTINUOUS
 0
ARC
 8
WHITE
 10
49.029
 20
137.57
 30
 0
 40
.360112
 50
175.2234
 51
268.5679
 6
CONTINUOUS
 0
LINE
 8
WHITE
 10
48.67
 20
137.6
 30
0.0000
 11
48.72
 21
138.6
 31
0.0000
 6
CONTINUOUS
 0
LINE
 8
WHITE
 10
47.36
 20
134.4
 30
0.0000
 11
47.9
 21
135.24
 31
0.0000
 6
CONTINUOUS
 0
ARC
 8
WHITE
 10
48.207
 20
135.052
 30
 0
 40
.35999
 50
55.73748
 51
148.5176
 6
CONTINUOUS
 0
LINE
 8
WHITE
 10
48.41
 20
135.35
 30
0.0000
 11
48.56
 21
135.25
 31
0.0000
 6
CONTINUOUS
 0
ARC
 8
WHITE
 10
48.372
 20
134.943
 30
 0
 40
.35999
 50
325.7383
 51
58.51762
 6
CONTINUOUS
 0
LINE
 8
WHITE
 10
48.67
 20
134.74
 30
0.0000
 11
47.58
 21
133.07
 31
0.0000
 6
CONTINUOUS
 0
ARC
 8
WHITE
 10
47.275
 20
133.263
 30
 0
 40
.360934
 50
237.2356
 51
327.6749
 6
CONTINUOUS
 0
LINE
 8
WHITE
 10
47.08
 20
132.96
 30
0.0000
 11
46.92
 21
133.06
 31
0.0000
 6
CONTINUOUS
 0
ARC
 8
WHITE
 10
47.12
 20
133.36
 30
 0
 40
.360555
 50
146.3103
 51
236.3099
 6
CONTINUOUS
 0
LINE
 8
WHITE
 10
46.82
 20
133.56
 30
0.0000
 11
47.36
 21
134.4
 31
0.0000
 6
CONTINUOUS
 0
LINE
 8
WHITE
 10
44.08
 20
131.45
 30
0.0000
 11
44.97
 21
131.9
 31
0.0000
 6
CONTINUOUS
 0
ARC
 8
WHITE
 10
45.138
 20
131.584
 30
 0
 40
.357882
 50
25.84983
 51
117.9971
 6
CONTINUOUS
 0
LINE
 8
WHITE
 10
45.46
 20
131.74
 30
0.0000
 11
45.54
 21
131.58
 31
0.0000
 6
CONTINUOUS
 0
ARC
 8
WHITE
 10
45.226
 20
131.408
 30
 0
 40
.358022
 50
297.2803
 51
28.71264
 6
CONTINUOUS
 0
LINE
 8
WHITE
 10
45.39
 20
131.09
 30
0.0000
 11
43.61
 21
130.19
 31
0.0000
 6
CONTINUOUS
 0
ARC
 8
WHITE
 10
43.438
 20
130.504
 30
 0
 40
.358022
 50
207.2814
 51
298.7126
 6
CONTINUOUS
 0
LINE
 8
WHITE
 10
43.12
 20
130.34
 30
0.0000
 11
43.03
 21
130.51
 31
0.0000
 6
CONTINUOUS
 0
ARC
 8
WHITE
 10
43.35
 20
130.67
 30
 0
 40
.35777
 50
116.5645
 51
206.565
 6
CONTINUOUS
 0
LINE
 8
WHITE
 10
43.19
 20
130.99
 30
0.0000
 11
44.08
 21
131.45
 31
0.0000
 6
CONTINUOUS
 0
LINE
 8
WHITE
 10
39.77
 20
130.53
 30
0.0000
 11
38.77
 21
130.58
 31
0.0000
 6
CONTINUOUS
 0
ARC
 8
WHITE
 10
38.75
 20
130.22
 30
 0
 40
.360555
 50
86.82017
 51
176.8195
 6
CONTINUOUS
 0
LINE
 8
WHITE
 10
38.39
 20
130.24
 30
0.0000
 11
38.39
 21
130.06
 31
0.0000
 6
CONTINUOUS
 0
ARC
 8
WHITE
 10
38.75
 20
130.04
 30
 0
 40
.360555
 50
176.8202
 51
265.2366
 6
CONTINUOUS
 0
LINE
 8
WHITE
 10
38.72
 20
129.68
 30
0.0000
 11
40.72
 21
129.57
 31
0.0000
 6
CONTINUOUS
 0
ARC
 8
WHITE
 10
40.74
 20
129.93
 30
 0
 40
.360555
 50
266.8202
 51
356.8195
 6
CONTINUOUS
 0
LINE
 8
WHITE
 10
41.1
 20
129.91
 30
0.0000
 11
41.1
 21
130.1
 31
0.0000
 6
CONTINUOUS
 0
ARC
 8
WHITE
 10
40.74
 20
130.12
 30
 0
 40
.360555
 50
356.8202
 51
85.23576
 6
CONTINUOUS
 0
LINE
 8
WHITE
 10
40.77
 20
130.48
 30
0.0000
 11
39.77
 21
130.53
 31
0.0000
 6
CONTINUOUS
 0
LINE
 8
WHITE
 10
35.57
 20
131.89
 30
0.0000
 11
36.41
 21
131.35
 31
0.0000
 6
CONTINUOUS
 0
ARC
 8
WHITE
 10
36.217
 20
131.045
 30
 0
 40
.360934
 50
327.2353
 51
57.67491
 6
CONTINUOUS
 0
LINE
 8
WHITE
 10
36.52
 20
130.85
 30
0.0000
 11
36.42
 21
130.69
 31
0.0000
 6
CONTINUOUS
 0
ARC
 8
WHITE
 10
36.12
 20
130.89
 30
 0
 40
.360555
 50
236.3101
 51
326.3099
 6
CONTINUOUS
 0
LINE
 8
WHITE
 10
35.92
 20
130.59
 30
0.0000
 11
34.24
 21
131.67
 31
0.0000
 6
CONTINUOUS
 0
ARC
 8
WHITE
 10
34.428
 20
131.977
 30
 0
 40
.35999
 50
145.7386
 51
238.5176
 6
CONTINUOUS
 0
LINE
 8
WHITE
 10
34.13
 20
132.18
 30
0.0000
 11
34.23
 21
132.33
 31
0.0000
 6
CONTINUOUS
 0
ARC
 8
WHITE
 10
34.537
 20
132.142
 30
 0
 40
.35999
 50
55.73698
 51
148.5176
 6
CONTINUOUS
 0
LINE
 8
WHITE
 10
34.74
 20
132.44
 30
0.0000
 11
35.57
 21
131.89
 31
0.0000
 6
CONTINUOUS
 0
LINE
 8
WHITE
 10
32.62
 20
135.17
 30
0.0000
 11
33.07
 21
134.28
 31
0.0000
 6
CONTINUOUS
 0
ARC
 8
WHITE
 10
32.756
 20
134.108
 30
 0
 40
.358022
 50
297.2803
 51
28.71264
 6
CONTINUOUS
 0
LINE
 8
WHITE
 10
32.92
 20
133.79
 30
0.0000
 11
32.75
 21
133.71
 31
0.0000
 6
CONTINUOUS
 0
ARC
 8
WHITE
 10
32.59
 20
134.03
 30
 0
 40
.35777
 50
206.5678
 51
296.5651
 6
CONTINUOUS
 0
LINE
 8
WHITE
 10
32.27
 20
133.87
 30
0.0000
 11
31.36
 21
135.65
 31
0.0000
 6
CONTINUOUS
 0
ARC
 8
WHITE
 10
31.676
 20
135.818
 30
 0
 40
.357882
 50
115.8485
 51
207.9971
 6
CONTINUOUS
 0
LINE
 8
WHITE
 10
31.52
 20
136.14
 30
0.0000
 11
31.68
 21
136.22
 31
0.0000
 6
CONTINUOUS
 0
ARC
 8
WHITE
 10
31.848
 20
135.904
 30
 0
 40
.357882
 50
25.84764
 51
117.9971
 6
CONTINUOUS
 0
LINE
 8
WHITE
 10
32.17
 20
136.06
 30
0.0000
 11
32.62
 21
135.17
 31
0.0000
 6
CONTINUOUS
 0
LINE
 8
WHITE
 10
31.7
 20
139.49
 30
0.0000
 11
31.65
 21
138.49
 31
0.0000
 6
CONTINUOUS
 0
ARC
 8
WHITE
 10
31.29
 20
138.5
 30
 0
 40
.360138
 50
266.8204
 51
358.4089
 6
CONTINUOUS
 0
LINE
 8
WHITE
 10
31.27
 20
138.14
 30
0.0000
 11
31.09
 21
138.14
 31
0.0000
 6
CONTINUOUS
 0
ARC
 8
WHITE
 10
31.099
 20
138.5
 30
 0
 40
.360112
 50
175.2234
 51
268.5679
 6
CONTINUOUS
 0
LINE
 8
WHITE
 10
30.74
 20
138.53
 30
0.0000
 11
30.85
 21
140.53
 31
0.0000
 6
CONTINUOUS
 0
ARC
 8
WHITE
 10
31.21
 20
140.51
 30
 0
 40
.360555
 50
86.8204
 51
176.8202
 6
CONTINUOUS
 0
LINE
 8
WHITE
 10
31.23
 20
140.87
 30
0.0000
 11
31.41
 21
140.87
 31
0.0000
 6
CONTINUOUS
 0
ARC
 8
WHITE
 10
31.401
 20
140.51
 30
 0
 40
.360112
 50
355.2234
 51
88.5679
 6
CONTINUOUS
 0
LINE
 8
WHITE
 10
31.76
 20
140.48
 30
0.0000
 11
31.7
 21
139.49
 31
0.0000
 6
CONTINUOUS
 0
LINE
 8
WHITE
 10
76.56
 20
141.8
 30
0.0000
 11
76.23
 21
140.86
 31
0.0000
 6
CONTINUOUS
 0
ARC
 8
WHITE
 10
75.887
 20
140.971
 30
 0
 40
.360513
 50
251.0612
 51
342.0676
 6
CONTINUOUS
 0
LINE
 8
WHITE
 10
75.77
 20
140.63
 30
0.0000
 11
75.6
 21
140.69
 31
0.0000
 6
CONTINUOUS
 0
ARC
 8
WHITE
 10
75.711
 20
141.033
 30
 0
 40
.360513
 50
161.0639
 51
252.0676
 6
CONTINUOUS
 0
LINE
 8
WHITE
 10
75.37
 20
141.15
 30
0.0000
 11
76.02
 21
143.04
 31
0.0000
 6
CONTINUOUS
 0
ARC
 8
WHITE
 10
76.363
 20
142.929
 30
 0
 40
.360513
 50
71.06199
 51
162.0676
 6
CONTINUOUS
 0
LINE
 8
WHITE
 10
76.48
 20
143.27
 30
0.0000
 11
76.66
 21
143.21
 31
0.0000
 6
CONTINUOUS
 0
ARC
 8
WHITE
 10
76.54
 20
142.87
 30
 0
 40
.360555
 50
340.5582
 51
70.55997
 6
CONTINUOUS
 0
LINE
 8
WHITE
 10
76.88
 20
142.75
 30
0.0000
 11
76.56
 21
141.8
 31
0.0000
 6
CONTINUOUS
 0
LINE
 8
WHITE
 10
79.02
 20
145.46
 30
0.0000
 11
79.77
 21
146.12
 31
0.0000
 6
CONTINUOUS
 0
ARC
 8
WHITE
 10
79.536
 20
146.395
 30
 0
 40
.361083
 50
310.3948
 51
40.62021
 6
CONTINUOUS
 0
LINE
 8
WHITE
 10
79.81
 20
146.63
 30
0.0000
 11
79.69
 21
146.77
 31
0.0000
 6
CONTINUOUS
 0
ARC
 8
WHITE
 10
79.416
 20
146.535
 30
 0
 40
.360972
 50
40.61851
 51
132.8709
 6
CONTINUOUS
 0
LINE
 8
WHITE
 10
79.17
 20
146.8
 30
0.0000
 11
77.67
 21
145.49
 31
0.0000
 6
CONTINUOUS
 0
ARC
 8
WHITE
 10
77.904
 20
145.215
 30
 0
 40
.361083
 50
130.3948
 51
220.6202
 6
CONTINUOUS
 0
LINE
 8
WHITE
 10
77.63
 20
144.98
 30
0.0000
 11
77.75
 21
144.84
 31
0.0000
 6
CONTINUOUS
 0
ARC
 8
WHITE
 10
78.024
 20
145.075
 30
 0
 40
.360972
 50
220.6185
 51
312.8701
 6
CONTINUOUS
 0
LINE
 8
WHITE
 10
78.27
 20
144.81
 30
0.0000
 11
79.02
 21
145.46
 31
0.0000
 6
CONTINUOUS
 0
LINE
 8
WHITE
 10
82.98
 20
147.4
 30
0.0000
 11
82
 21
147.21
 31
0.0000
 6
CONTINUOUS
 0
ARC
 8
WHITE
 10
81.93
 20
147.57
 30
 0
 40
.366742
 50
191.0046
 51
281.0035
 6
CONTINUOUS
 0
LINE
 8
WHITE
 10
81.57
 20
147.5
 30
0.0000
 11
81.54
 21
147.68
 31
0.0000
 6
CONTINUOUS
 0
ARC
 8
WHITE
 10
81.901
 20
147.742
 30
 0
 40
.366285
 50
102.7485
 51
189.7452
 6
CONTINUOUS
 0
LINE
 8
WHITE
 10
81.82
 20
148.1
 30
0.0000
 11
83.79
 21
148.49
 31
0.0000
 6
CONTINUOUS
 0
ARC
 8
WHITE
 10
83.85
 20
148.128
 30
 0
 40
.366938
 50
11.30853
 51
99.41098
 6
CONTINUOUS
 0
LINE
 8
WHITE
 10
84.21
 20
148.2
 30
0.0000
 11
84.25
 21
148.02
 31
0.0000
 6
CONTINUOUS
 0
ARC
 8
WHITE
 10
83.888
 20
147.96
 30
 0
 40
.366938
 50
281.3097
 51
9.410982
 6
CONTINUOUS
 0
LINE
 8
WHITE
 10
83.96
 20
147.6
 30
0.0000
 11
82.98
 21
147.4
 31
0.0000
 6
CONTINUOUS
 0
LINE
 8
WHITE
 10
87.38
 20
147.1
 30
0.0000
 11
86.44
 21
147.43
 31
0.0000
 6
CONTINUOUS
 0
ARC
 8
WHITE
 10
86.551
 20
147.773
 30
 0
 40
.360513
 50
161.062
 51
252.0676
 6
CONTINUOUS
 0
LINE
 8
WHITE
 10
86.21
 20
147.89
 30
0.0000
 11
86.27
 21
148.06
 31
0.0000
 6
CONTINUOUS
 0
ARC
 8
WHITE
 10
86.613
 20
147.949
 30
 0
 40
.360513
 50
71.0612
 51
162.0676
 6
CONTINUOUS
 0
LINE
 8
WHITE
 10
86.73
 20
148.29
 30
0.0000
 11
88.62
 21
147.64
 31
0.0000
 6
CONTINUOUS
 0
ARC
 8
WHITE
 10
88.509
 20
147.297
 30
 0
 40
.360513
 50
341.0616
 51
72.06763
 6
CONTINUOUS
 0
LINE
 8
WHITE
 10
88.85
 20
147.18
 30
0.0000
 11
88.79
 21
147
 31
0.0000
 6
CONTINUOUS
 0
ARC
 8
WHITE
 10
88.45
 20
147.12
 30
 0
 40
.360555
 50
250.5593
 51
340.56
 6
CONTINUOUS
 0
LINE
 8
WHITE
 10
88.33
 20
146.78
 30
0.0000
 11
87.38
 21
147.1
 31
0.0000
 6
CONTINUOUS
 0
LINE
 8
WHITE
 10
91.04
 20
144.64
 30
0.0000
 11
90.39
 21
145.39
 31
0.0000
 6
CONTINUOUS
 0
ARC
 8
WHITE
 10
90.655
 20
145.636
 30
 0
 40
.361581
 50
130.6184
 51
222.8706
 6
CONTINUOUS
 0
LINE
 8
WHITE
 10
90.42
 20
145.91
 30
0.0000
 11
90.56
 21
146.03
 31
0.0000
 6
CONTINUOUS
 0
ARC
 8
WHITE
 10
90.795
 20
145.756
 30
 0
 40
.360972
 50
40.39567
 51
130.6185
 6
CONTINUOUS
 0
LINE
 8
WHITE
 10
91.07
 20
145.99
 30
0.0000
 11
92.38
 21
144.49
 31
0.0000
 6
CONTINUOUS
 0
ARC
 8
WHITE
 10
92.115
 20
144.244
 30
 0
 40
.361581
 50
310.6184
 51
42.87061
 6
CONTINUOUS
 0
LINE
 8
WHITE
 10
92.35
 20
143.97
 30
0.0000
 11
92.21
 21
143.85
 31
0.0000
 6
CONTINUOUS
 0
ARC
 8
WHITE
 10
91.975
 20
144.124
 30
 0
 40
.360972
 50
220.3957
 51
310.6185
 6
CONTINUOUS
 0
LINE
 8
WHITE
 10
91.7
 20
143.89
 30
0.0000
 11
91.04
 21
144.64
 31
0.0000
 6
CONTINUOUS
 0
LINE
 8
WHITE
 10
92.98
 20
140.68
 30
0.0000
 11
93.17
 21
139.7
 31
0.0000
 6
CONTINUOUS
 0
ARC
 8
WHITE
 10
93.53
 20
139.77
 30
 0
 40
.366742
 50
191.0035
 51
281.0035
 6
CONTINUOUS
 0
LINE
 8
WHITE
 10
93.6
 20
139.41
 30
0.0000
 11
93.78
 21
139.45
 31
0.0000
 6
CONTINUOUS
 0
ARC
 8
WHITE
 10
93.708
 20
139.81
 30
 0
 40
.367129
 50
281.3099
 51
9.410618
 6
CONTINUOUS
 0
LINE
 8
WHITE
 10
94.07
 20
139.87
 30
0.0000
 11
93.68
 21
141.83
 31
0.0000
 6
CONTINUOUS
 0
ARC
 8
WHITE
 10
93.32
 20
141.76
 30
 0
 40
.366742
 50
11.00354
 51
101.0035
 6
CONTINUOUS
 0
LINE
 8
WHITE
 10
93.25
 20
142.12
 30
0.0000
 11
93.08
 21
142.09
 31
0.0000
 6
CONTINUOUS
 0
ARC
 8
WHITE
 10
93.15
 20
141.73
 30
 0
 40
.366742
 50
101.0035
 51
191.0023
 6
CONTINUOUS
 0
LINE
 8
WHITE
 10
92.79
 20
141.66
 30
0.0000
 11
92.98
 21
140.68
 31
0.0000
 6
CONTINUOUS
 0
LINE
 8
WHITE
 10
92.68
 20
136.28
 30
0.0000
 11
92.36
 21
135.33
 31
0.0000
 6
CONTINUOUS
 0
ARC
 8
WHITE
 10
92.7
 20
135.21
 30
 0
 40
.360555
 50
160.56
 51
250.5613
 6
CONTINUOUS
 0
LINE
 8
WHITE
 10
92.58
 20
134.87
 30
0.0000
 11
92.75
 21
134.81
 31
0.0000
 6
CONTINUOUS
 0
ARC
 8
WHITE
 10
92.876
 20
135.148
 30
 0
 40
.360721
 50
249.5555
 51
342.5699
 6
CONTINUOUS
 0
LINE
 8
WHITE
 10
93.22
 20
135.04
 30
0.0000
 11
93.86
 21
136.93
 31
0.0000
 6
CONTINUOUS
 0
ARC
 8
WHITE
 10
93.52
 20
137.05
 30
 0
 40
.360555
 50
340.56
 51
70.56131
 6
CONTINUOUS
 0
LINE
 8
WHITE
 10
93.64
 20
137.39
 30
0.0000
 11
93.47
 21
137.45
 31
0.0000
 6
CONTINUOUS
 0
ARC
 8
WHITE
 10
93.344
 20
137.112
 30
 0
 40
.360721
 50
69.5555
 51
162.57
 6
CONTINUOUS
 0
LINE
 8
WHITE
 10
93
 20
137.22
 30
0.0000
 11
92.68
 21
136.28
 31
0.0000
 6
CONTINUOUS
 0
LINE
 8
WHITE
 10
90.22
 20
132.62
 30
0.0000
 11
89.47
 21
131.96
 31
0.0000
 6
CONTINUOUS
 0
ARC
 8
WHITE
 10
89.704
 20
131.685
 30
 0
 40
.361083
 50
130.3948
 51
220.6202
 6
CONTINUOUS
 0
LINE
 8
WHITE
 10
89.43
 20
131.45
 30
0.0000
 11
89.55
 21
131.31
 31
0.0000
 6
CONTINUOUS
 0
ARC
 8
WHITE
 10
89.82
 20
131.55
 30
 0
 40
.361247
 50
221.6335
 51
311.6328
 6
CONTINUOUS
 0
LINE
 8
WHITE
 10
90.06
 20
131.28
 30
0.0000
 11
91.57
 21
132.59
 31
0.0000
 6
CONTINUOUS
 0
ARC
 8
WHITE
 10
91.33
 20
132.86
 30
 0
 40
.361247
 50
311.6335
 51
41.63454
 6
CONTINUOUS
 0
LINE
 8
WHITE
 10
91.6
 20
133.1
 30
0.0000
 11
91.49
 21
133.24
 31
0.0000
 6
CONTINUOUS
 0
ARC
 8
WHITE
 10
91.216
 20
133.005
 30
 0
 40
.360972
 50
40.61851
 51
132.87
 6
CONTINUOUS
 0
LINE
 8
WHITE
 10
90.97
 20
133.27
 30
0.0000
 11
90.22
 21
132.62
 31
0.0000
 6
CONTINUOUS
 0
LINE
 8
WHITE
 10
86.26
 20
130.68
 30
0.0000
 11
87.24
 21
130.87
 31
0.0000
 6
CONTINUOUS
 0
ARC
 8
WHITE
 10
87.31
 20
130.51
 30
 0
 40
.366742
 50
11.00465
 51
101.0035
 6
CONTINUOUS
 0
LINE
 8
WHITE
 10
87.67
 20
130.58
 30
0.0000
 11
87.7
 21
130.41
 31
0.0000
 6
CONTINUOUS
 0
ARC
 8
WHITE
 10
87.34
 20
130.34
 30
 0
 40
.366742
 50
281.0046
 51
11.00354
 6
CONTINUOUS
 0
LINE
 8
WHITE
 10
87.41
 20
129.98
 30
0.0000
 11
85.45
 21
129.59
 31
0.0000
 6
CONTINUOUS
 0
ARC
 8
WHITE
 10
85.39
 20
129.952
 30
 0
 40
.366938
 50
191.3085
 51
279.411
 6
CONTINUOUS
 0
LINE
 8
WHITE
 10
85.03
 20
129.88
 30
0.0000
 11
84.99
 21
130.06
 31
0.0000
 6
CONTINUOUS
 0
ARC
 8
WHITE
 10
85.35
 20
130.13
 30
 0
 40
.366742
 50
101.0035
 51
191.0035
 6
CONTINUOUS
 0
LINE
 8
WHITE
 10
85.28
 20
130.49
 30
0.0000
 11
86.26
 21
130.68
 31
0.0000
 6
CONTINUOUS
 0
LINE
 8
WHITE
 10
81.86
 20
130.98
 30
0.0000
 11
82.8
 21
130.65
 31
0.0000
 6
CONTINUOUS
 0
ARC
 8
WHITE
 10
82.689
 20
130.307
 30
 0
 40
.360513
 50
341.0639
 51
72.06763
 6
CONTINUOUS
 0
LINE
 8
WHITE
 10
83.03
 20
130.19
 30
0.0000
 11
82.97
 21
130.02
 31
0.0000
 6
CONTINUOUS
 0
ARC
 8
WHITE
 10
82.63
 20
130.14
 30
 0
 40
.360555
 50
250.5593
 51
340.56
 6
CONTINUOUS
 0
LINE
 8
WHITE
 10
82.51
 20
129.8
 30
0.0000
 11
80.62
 21
130.44
 31
0.0000
 6
CONTINUOUS
 0
ARC
 8
WHITE
 10
80.731
 20
130.783
 30
 0
 40
.360513
 50
161.0643
 51
252.0676
 6
CONTINUOUS
 0
LINE
 8
WHITE
 10
80.39
 20
130.9
 30
0.0000
 11
80.45
 21
131.08
 31
0.0000
 6
CONTINUOUS
 0
ARC
 8
WHITE
 10
80.78999
 20
130.96
 30
 0
 40
.360555
 50
70.55822
 51
160.56
 6
CONTINUOUS
 0
LINE
 8
WHITE
 10
80.91
 20
131.3
 30
0.0000
 11
81.86
 21
130.98
 31
0.0000
 6
CONTINUOUS
 0
LINE
 8
WHITE
 10
78.2
 20
133.44
 30
0.0000
 11
78.85
 21
132.69
 31
0.0000
 6
CONTINUOUS
 0
ARC
 8
WHITE
 10
78.585
 20
132.444
 30
 0
 40
.361581
 50
310.6184
 51
42.87061
 6
CONTINUOUS
 0
LINE
 8
WHITE
 10
78.82
 20
132.17
 30
0.0000
 11
78.68
 21
132.05
 31
0.0000
 6
CONTINUOUS
 0
ARC
 8
WHITE
 10
78.445
 20
132.324
 30
 0
 40
.360972
 50
220.3957
 51
310.6185
 6
CONTINUOUS
 0
LINE
 8
WHITE
 10
78.17
 20
132.09
 30
0.0000
 11
76.86
 21
133.6
 31
0.0000
 6
CONTINUOUS
 0
ARC
 8
WHITE
 10
77.13
 20
133.84
 30
 0
 40
.361247
 50
131.6344
 51
221.6335
 6
CONTINUOUS
 0
LINE
 8
WHITE
 10
76.89
 20
134.11
 30
0.0000
 11
77.03
 21
134.23
 31
0.0000
 6
CONTINUOUS
 0
ARC
 8
WHITE
 10
77.265
 20
133.956
 30
 0
 40
.360972
 50
40.39567
 51
130.6185
 6
CONTINUOUS
 0
LINE
 8
WHITE
 10
77.54
 20
134.19
 30
0.0000
 11
78.2
 21
133.44
 31
0.0000
 6
CONTINUOUS
 0
LINE
 8
WHITE
 10
76.26
 20
137.4
 30
0.0000
 11
76.45
 21
136.42
 31
0.0000
 6
CONTINUOUS
 0
ARC
 8
WHITE
 10
76.09
 20
136.35
 30
 0
 40
.366742
 50
281.0051
 51
11.00354
 6
CONTINUOUS
 0
LINE
 8
WHITE
 10
76.16
 20
135.99
 30
0.0000
 11
75.98
 21
135.96
 31
0.0000
 6
CONTINUOUS
 0
ARC
 8
WHITE
 10
75.92001
 20
136.322
 30
 0
 40
.366938
 50
191.3106
 51
279.411
 6
CONTINUOUS
 0
LINE
 8
WHITE
 10
75.56
 20
136.25
 30
0.0000
 11
75.17
 21
138.21
 31
0.0000
 6
CONTINUOUS
 0
ARC
 8
WHITE
 10
75.532
 20
138.27
 30
 0
 40
.366938
 50
101.3097
 51
189.411
 6
CONTINUOUS
 0
LINE
 8
WHITE
 10
75.46
 20
138.63
 30
0.0000
 11
75.64
 21
138.67
 31
0.0000
 6
CONTINUOUS
 0
ARC
 8
WHITE
 10
75.7
 20
138.308
 30
 0
 40
.366938
 50
11.31087
 51
99.41098
 6
CONTINUOUS
 0
LINE
 8
WHITE
 10
76.06
 20
138.38
 30
0.0000
 11
76.26
 21
137.4
 31
0.0000
 6
CONTINUOUS
 0
LINE
 8
WHITE
 10
266.66
 20
146.45
 30
0.0000
 11
267.44
 21
147.23
 31
0.0000
 6
CONTINUOUS
 0
ARC
 8
WHITE
 10
267.725
 20
146.935
 30
 0
 40
.410182
 50
45.98722
 51
134.0122
 6
CONTINUOUS
 0
LINE
 8
WHITE
 10
268.01
 20
147.23
 30
0.0000
 11
268.15
 21
147.09
 31
0.0000
 6
CONTINUOUS
 0
ARC
 8
WHITE
 10
267.855
 20
146.805
 30
 0
 40
.410182
 50
315.9902
 51
44.01224
 6
CONTINUOUS
 0
LINE
 8
WHITE
 10
268.15
 20
146.52
 30
0.0000
 11
266.58
 21
144.95
 31
0.0000
 6
CONTINUOUS
 0
ARC
 8
WHITE
 10
266.295
 20
145.245
 30
 0
 40
.410182
 50
225.9903
 51
314.0122
 6
CONTINUOUS
 0
LINE
 8
WHITE
 10
266.01
 20
144.95
 30
0.0000
 11
265.87
 21
145.09
 31
0.0000
 6
CONTINUOUS
 0
ARC
 8
WHITE
 10
266.165
 20
145.375
 30
 0
 40
.410182
 50
135.9887
 51
224.0122
 6
CONTINUOUS
 0
LINE
 8
WHITE
 10
265.87
 20
145.66
 30
0.0000
 11
266.66
 21
146.45
 31
0.0000
 6
CONTINUOUS
 0
LINE
 8
WHITE
 10
271.35
 20
149.16
 30
0.0000
 11
272.42
 21
149.45
 31
0.0000
 6
CONTINUOUS
 0
ARC
 8
WHITE
 10
272.529
 20
149.063
 30
 0
 40
.402057
 50
13.93308
 51
105.7301
 6
CONTINUOUS
 0
LINE
 8
WHITE
 10
272.92
 20
149.16
 30
0.0000
 11
272.97
 21
148.97
 31
0.0000
 6
CONTINUOUS
 0
ARC
 8
WHITE
 10
272.583
 20
148.858
 30
 0
 40
.40288
 50
285.4167
 51
16.14074
 6
CONTINUOUS
 0
LINE
 8
WHITE
 10
272.69
 20
148.47
 30
0.0000
 11
270.54
 21
147.9
 31
0.0000
 6
CONTINUOUS
 0
ARC
 8
WHITE
 10
270.437
 20
148.289
 30
 0
 40
.402405
 50
195.7303
 51
284.8305
 6
CONTINUOUS
 0
LINE
 8
WHITE
 10
270.05
 20
148.18
 30
0.0000
 11
269.99
 21
148.38
 31
0.0000
 6
CONTINUOUS
 0
ARC
 8
WHITE
 10
270.38
 20
148.48
 30
 0
 40
.402616
 50
104.3828
 51
194.3814
 6
CONTINUOUS
 0
LINE
 8
WHITE
 10
270.28
 20
148.87
 30
0.0000
 11
271.35
 21
149.16
 31
0.0000
 6
CONTINUOUS
 0
LINE
 8
WHITE
 10
276.78
 20
149.16
 30
0.0000
 11
277.85
 21
148.87
 31
0.0000
 6
CONTINUOUS
 0
ARC
 8
WHITE
 10
277.741
 20
148.483
 30
 0
 40
.402057
 50
345.1702
 51
74.26993
 6
CONTINUOUS
 0
LINE
 8
WHITE
 10
278.13
 20
148.38
 30
0.0000
 11
278.08
 21
148.18
 31
0.0000
 6
CONTINUOUS
 0
ARC
 8
WHITE
 10
277.693
 20
148.289
 30
 0
 40
.402057
 50
255.1696
 51
344.2699
 6
CONTINUOUS
 0
LINE
 8
WHITE
 10
277.59
 20
147.9
 30
0.0000
 11
275.44
 21
148.47
 31
0.0000
 6
CONTINUOUS
 0
ARC
 8
WHITE
 10
275.547
 20
148.858
 30
 0
 40
.402483
 50
163.8591
 51
254.5826
 6
CONTINUOUS
 0
LINE
 8
WHITE
 10
275.16
 20
148.97
 30
0.0000
 11
275.21
 21
149.16
 31
0.0000
 6
CONTINUOUS
 0
ARC
 8
WHITE
 10
275.6
 20
149.06
 30
 0
 40
.402616
 50
75.61774
 51
165.6186
 6
CONTINUOUS
 0
LINE
 8
WHITE
 10
275.7
 20
149.45
 30
0.0000
 11
276.78
 21
149.16
 31
0.0000
 6
CONTINUOUS
 0
LINE
 8
WHITE
 10
281.47
 20
146.45
 30
0.0000
 11
282.26
 21
145.66
 31
0.0000
 6
CONTINUOUS
 0
ARC
 8
WHITE
 10
281.965
 20
145.375
 30
 0
 40
.410182
 50
315.9887
 51
44.01224
 6
CONTINUOUS
 0
LINE
 8
WHITE
 10
282.26
 20
145.09
 30
0.0000
 11
282.12
 21
144.95
 31
0.0000
 6
CONTINUOUS
 0
ARC
 8
WHITE
 10
281.83
 20
145.24
 30
 0
 40
.410121
 50
225.0015
 51
315
 6
CONTINUOUS
 0
LINE
 8
WHITE
 10
281.54
 20
144.95
 30
0.0000
 11
279.97
 21
146.52
 31
0.0000
 6
CONTINUOUS
 0
ARC
 8
WHITE
 10
280.265
 20
146.805
 30
 0
 40
.410182
 50
135.9902
 51
224.0122
 6
CONTINUOUS
 0
LINE
 8
WHITE
 10
279.97
 20
147.09
 30
0.0000
 11
280.12
 21
147.23
 31
0.0000
 6
CONTINUOUS
 0
ARC
 8
WHITE
 10
280.405
 20
146.935
 30
 0
 40
.410182
 50
45.98722
 51
134.0122
 6
CONTINUOUS
 0
LINE
 8
WHITE
 10
280.69
 20
147.23
 30
0.0000
 11
281.47
 21
146.45
 31
0.0000
 6
CONTINUOUS
 0
LINE
 8
WHITE
 10
284.18
 20
141.75
 30
0.0000
 11
284.47
 21
140.68
 31
0.0000
 6
CONTINUOUS
 0
ARC
 8
WHITE
 10
284.081
 20
140.577
 30
 0
 40
.402405
 50
285.7315
 51
14.83053
 6
CONTINUOUS
 0
LINE
 8
WHITE
 10
284.19
 20
140.19
 30
0.0000
 11
283.99
 21
140.13
 31
0.0000
 6
CONTINUOUS
 0
ARC
 8
WHITE
 10
283.89
 20
140.52
 30
 0
 40
.402616
 50
194.3828
 51
284.3814
 6
CONTINUOUS
 0
LINE
 8
WHITE
 10
283.5
 20
140.42
 30
0.0000
 11
282.92
 21
142.56
 31
0.0000
 6
CONTINUOUS
 0
ARC
 8
WHITE
 10
283.307
 20
142.669
 30
 0
 40
.402057
 50
103.9347
 51
195.7301
 6
CONTINUOUS
 0
LINE
 8
WHITE
 10
283.21
 20
143.06
 30
0.0000
 11
283.4
 21
143.11
 31
0.0000
 6
CONTINUOUS
 0
ARC
 8
WHITE
 10
283.509
 20
142.723
 30
 0
 40
.402057
 50
13.93308
 51
105.7301
 6
CONTINUOUS
 0
LINE
 8
WHITE
 10
283.9
 20
142.82
 30
0.0000
 11
284.18
 21
141.75
 31
0.0000
 6
CONTINUOUS
 0
LINE
 8
WHITE
 10
284.18
 20
136.33
 30
0.0000
 11
283.9
 21
135.26
 31
0.0000
 6
CONTINUOUS
 0
ARC
 8
WHITE
 10
283.509
 20
135.357
 30
 0
 40
.402852
 50
254.2685
 51
346.0672
 6
CONTINUOUS
 0
LINE
 8
WHITE
 10
283.4
 20
134.97
 30
0.0000
 11
283.21
 21
135.02
 31
0.0000
 6
CONTINUOUS
 0
ARC
 8
WHITE
 10
283.307
 20
135.411
 30
 0
 40
.402852
 50
164.2694
 51
256.0672
 6
CONTINUOUS
 0
LINE
 8
WHITE
 10
282.92
 20
135.52
 30
0.0000
 11
283.5
 21
137.66
 31
0.0000
 6
CONTINUOUS
 0
ARC
 8
WHITE
 10
283.89
 20
137.56
 30
 0
 40
.402616
 50
75.62195
 51
165.6186
 6
CONTINUOUS
 0
LINE
 8
WHITE
 10
283.99
 20
137.95
 30
0.0000
 11
284.19
 21
137.9
 31
0.0000
 6
CONTINUOUS
 0
ARC
 8
WHITE
 10
284.083
 20
137.512
 30
 0
 40
.402483
 50
343.8591
 51
74.58257
 6
CONTINUOUS
 0
LINE
 8
WHITE
 10
284.47
 20
137.4
 30
0.0000
 11
284.18
 21
136.33
 31
0.0000
 6
CONTINUOUS
 0
LINE
 8
WHITE
 10
281.47
 20
131.63
 30
0.0000
 11
280.69
 21
130.85
 31
0.0000
 6
CONTINUOUS
 0
ARC
 8
WHITE
 10
280.405
 20
131.145
 30
 0
 40
.410182
 50
225.9872
 51
314.0122
 6
CONTINUOUS
 0
LINE
 8
WHITE
 10
280.12
 20
130.85
 30
0.0000
 11
279.97
 21
130.99
 31
0.0000
 6
CONTINUOUS
 0
ARC
 8
WHITE
 10
280.265
 20
131.275
 30
 0
 40
.410182
 50
135.9902
 51
224.0122
 6
CONTINUOUS
 0
LINE
 8
WHITE
 10
279.97
 20
131.56
 30
0.0000
 11
281.54
 21
133.13
 31
0.0000
 6
CONTINUOUS
 0
ARC
 8
WHITE
 10
281.83
 20
132.84
 30
 0
 40
.410121
 50
45.00151
 51
135
 6
CONTINUOUS
 0
LINE
 8
WHITE
 10
282.12
 20
133.13
 30
0.0000
 11
282.26
 21
132.99
 31
0.0000
 6
CONTINUOUS
 0
ARC
 8
WHITE
 10
281.965
 20
132.705
 30
 0
 40
.410182
 50
315.9887
 51
44.01224
 6
CONTINUOUS
 0
LINE
 8
WHITE
 10
282.26
 20
132.42
 30
0.0000
 11
281.47
 21
131.63
 31
0.0000
 6
CONTINUOUS
 0
LINE
 8
WHITE
 10
276.78
 20
128.92
 30
0.0000
 11
275.7
 21
128.63
 31
0.0000
 6
CONTINUOUS
 0
ARC
 8
WHITE
 10
275.6
 20
129.02
 30
 0
 40
.402616
 50
194.3817
 51
284.3814
 6
CONTINUOUS
 0
LINE
 8
WHITE
 10
275.21
 20
128.92
 30
0.0000
 11
275.16
 21
129.11
 31
0.0000
 6
CONTINUOUS
 0
ARC
 8
WHITE
 10
275.547
 20
129.222
 30
 0
 40
.40288
 50
105.4167
 51
196.1407
 6
CONTINUOUS
 0
LINE
 8
WHITE
 10
275.44
 20
129.61
 30
0.0000
 11
277.59
 21
130.18
 31
0.0000
 6
CONTINUOUS
 0
ARC
 8
WHITE
 10
277.693
 20
129.791
 30
 0
 40
.402405
 50
15.73153
 51
104.8305
 6
CONTINUOUS
 0
LINE
 8
WHITE
 10
278.08
 20
129.9
 30
0.0000
 11
278.13
 21
129.7
 31
0.0000
 6
CONTINUOUS
 0
ARC
 8
WHITE
 10
277.741
 20
129.597
 30
 0
 40
.402405
 50
285.7315
 51
14.83053
 6
CONTINUOUS
 0
LINE
 8
WHITE
 10
277.85
 20
129.21
 30
0.0000
 11
276.78
 21
128.92
 31
0.0000
 6
CONTINUOUS
 0
LINE
 8
WHITE
 10
271.35
 20
128.92
 30
0.0000
 11
272.42
 21
128.63
 31
0.0000
 6
CONTINUOUS
 0
ARC
 8
WHITE
 10
272.529
 20
129.017
 30
 0
 40
.402057
 50
254.2699
 51
346.0669
 6
CONTINUOUS
 0
LINE
 8
WHITE
 10
272.92
 20
128.92
 30
0.0000
 11
272.97
 21
129.11
 31
0.0000
 6
CONTINUOUS
 0
ARC
 8
WHITE
 10
272.583
 20
129.222
 30
 0
 40
.40288
 50
343.8593
 51
74.58333
 6
CONTINUOUS
 0
LINE
 8
WHITE
 10
272.69
 20
129.61
 30
0.0000
 11
270.54
 21
130.18
 31
0.0000
 6
CONTINUOUS
 0
ARC
 8
WHITE
 10
270.437
 20
129.791
 30
 0
 40
.402405
 50
75.16947
 51
164.2697
 6
CONTINUOUS
 0
LINE
 8
WHITE
 10
270.05
 20
129.9
 30
0.0000
 11
269.99
 21
129.7
 31
0.0000
 6
CONTINUOUS
 0
ARC
 8
WHITE
 10
270.38
 20
129.6
 30
 0
 40
.402616
 50
165.6186
 51
255.6172
 6
CONTINUOUS
 0
LINE
 8
WHITE
 10
270.28
 20
129.21
 30
0.0000
 11
271.35
 21
128.92
 31
0.0000
 6
CONTINUOUS
 0
LINE
 8
WHITE
 10
266.66
 20
131.63
 30
0.0000
 11
265.87
 21
132.42
 31
0.0000
 6
CONTINUOUS
 0
ARC
 8
WHITE
 10
266.165
 20
132.705
 30
 0
 40
.410182
 50
135.9887
 51
224.0122
 6
CONTINUOUS
 0
LINE
 8
WHITE
 10
265.87
 20
132.99
 30
0.0000
 11
266.01
 21
133.13
 31
0.0000
 6
CONTINUOUS
 0
ARC
 8
WHITE
 10
266.295
 20
132.835
 30
 0
 40
.410182
 50
45.99028
 51
134.0122
 6
CONTINUOUS
 0
LINE
 8
WHITE
 10
266.58
 20
133.13
 30
0.0000
 11
268.15
 21
131.56
 31
0.0000
 6
CONTINUOUS
 0
ARC
 8
WHITE
 10
267.855
 20
131.275
 30
 0
 40
.410182
 50
315.9902
 51
44.01224
 6
CONTINUOUS
 0
LINE
 8
WHITE
 10
268.15
 20
130.99
 30
0.0000
 11
268.01
 21
130.85
 31
0.0000
 6
CONTINUOUS
 0
ARC
 8
WHITE
 10
267.725
 20
131.145
 30
 0
 40
.410182
 50
225.9872
 51
314.0122
 6
CONTINUOUS
 0
LINE
 8
WHITE
 10
267.44
 20
130.85
 30
0.0000
 11
266.66
 21
131.63
 31
0.0000
 6
CONTINUOUS
 0
LINE
 8
WHITE
 10
263.94
 20
136.33
 30
0.0000
 11
263.66
 21
137.4
 31
0.0000
 6
CONTINUOUS
 0
ARC
 8
WHITE
 10
264.047
 20
137.512
 30
 0
 40
.40288
 50
105.4167
 51
196.1407
 6
CONTINUOUS
 0
LINE
 8
WHITE
 10
263.94
 20
137.9
 30
0.0000
 11
264.14
 21
137.95
 31
0.0000
 6
CONTINUOUS
 0
ARC
 8
WHITE
 10
264.24
 20
137.56
 30
 0
 40
.402616
 50
14.3828
 51
104.3814
 6
CONTINUOUS
 0
LINE
 8
WHITE
 10
264.63
 20
137.66
 30
0.0000
 11
265.21
 21
135.52
 31
0.0000
 6
CONTINUOUS
 0
ARC
 8
WHITE
 10
264.823
 20
135.411
 30
 0
 40
.402057
 50
283.9347
 51
15.73007
 6
CONTINUOUS
 0
LINE
 8
WHITE
 10
264.92
 20
135.02
 30
0.0000
 11
264.72
 21
134.97
 31
0.0000
 6
CONTINUOUS
 0
ARC
 8
WHITE
 10
264.62
 20
135.36
 30
 0
 40
.402616
 50
194.3828
 51
284.3814
 6
CONTINUOUS
 0
LINE
 8
WHITE
 10
264.23
 20
135.26
 30
0.0000
 11
263.94
 21
136.33
 31
0.0000
 6
CONTINUOUS
 0
LINE
 8
WHITE
 10
263.94
 20
141.75
 30
0.0000
 11
264.23
 21
142.82
 31
0.0000
 6
CONTINUOUS
 0
ARC
 8
WHITE
 10
264.62
 20
142.72
 30
 0
 40
.402616
 50
75.62195
 51
165.6186
 6
CONTINUOUS
 0
LINE
 8
WHITE
 10
264.72
 20
143.11
 30
0.0000
 11
264.92
 21
143.06
 31
0.0000
 6
CONTINUOUS
 0
ARC
 8
WHITE
 10
264.823
 20
142.669
 30
 0
 40
.402852
 50
344.2694
 51
76.06724
 6
CONTINUOUS
 0
LINE
 8
WHITE
 10
265.21
 20
142.56
 30
0.0000
 11
264.63
 21
140.42
 31
0.0000
 6
CONTINUOUS
 0
ARC
 8
WHITE
 10
264.24
 20
140.52
 30
 0
 40
.402616
 50
255.6219
 51
345.6186
 6
CONTINUOUS
 0
LINE
 8
WHITE
 10
264.14
 20
140.13
 30
0.0000
 11
263.94
 21
140.19
 31
0.0000
 6
CONTINUOUS
 0
ARC
 8
WHITE
 10
264.049
 20
140.577
 30
 0
 40
.402057
 50
165.1702
 51
254.2699
 6
CONTINUOUS
 0
LINE
 8
WHITE
 10
263.66
 20
140.68
 30
0.0000
 11
263.94
 21
141.75
 31
0.0000
 6
CONTINUOUS
 0
LINE
 8
WHITE
 10
32.82
 20
200.32
 30
0.0000
 11
47.84
 21
200.32
 31
0.0000
 6
CONTINUOUS
 0
LINE
 8
WHITE
 10
78.41
 20
200.32
 30
0.0000
 11
91.63
 21
200.32
 31
0.0000
 6
CONTINUOUS
 0
LINE
 8
WHITE
 10
32.82
 20
156.22
 30
0.0000
 11
47.84
 21
156.22
 31
0.0000
 6
CONTINUOUS
 0
LINE
 8
WHITE
 10
78.41
 20
156.22
 30
0.0000
 11
91.63
 21
156.22
 31
0.0000
 6
CONTINUOUS
 0
LINE
 8
WHITE
 10
267.07
 20
200.32
 30
0.0000
 11
280.35
 21
200.32
 31
0.0000
 6
CONTINUOUS
 0
LINE
 8
WHITE
 10
267.07
 20
156.22
 30
0.0000
 11
280.35
 21
156.22
 31
0.0000
 6
CONTINUOUS
 0
ARC
 8
WHITE
 10
274.067
 20
217.516
 30
 0
 40
20.18501
 50
176.495
 51
207.422
 6
CONTINUOUS
 0
LINE
 8
WHITE
 10
253.92
 20
218.75
 30
0.0000
 11
250.18
 21
221.53
 31
0.0000
 6
CONTINUOUS
 0
ARC
 8
WHITE
 10
274.058
 20
217.495
 30
 0
 40
24.21653
 50
170.4085
 51
187.152
 6
CONTINUOUS
 0
LINE
 8
WHITE
 10
250.03
 20
214.48
 30
0.0000
 11
244.95
 21
214.48
 31
0.0000
 6
CONTINUOUS
 0
LINE
 8
WHITE
 10
244.95
 20
214.48
 30
0.0000
 11
244.95
 21
202.49
 31
0.0000
 6
CONTINUOUS
 0
ARC
 8
WHITE
 10
244.79
 20
202.48
 30
 0
 40
.160312
 50
270
 51
3.576334
 6
CONTINUOUS
 0
LINE
 8
WHITE
 10
244.79
 20
202.32
 30
0.0000
 11
244.1
 21
202.32
 31
0.0000
 6
CONTINUOUS
 0
ARC
 8
WHITE
 10
244.1
 20
202.48
 30
 0
 40
.159999
 50
176.4257
 51
270
 6
CONTINUOUS
 0
LINE
 8
WHITE
 10
243.94
 20
202.49
 30
0.0000
 11
243.94
 21
214.48
 31
0.0000
 6
CONTINUOUS
 0
ARC
 8
WHITE
 10
274.057
 20
217.543
 30
 0
 40
30.27236
 50
176.2365
 51
185.8072
 6
CONTINUOUS
 0
LINE
 8
WHITE
 10
243.85
 20
219.53
 30
0.0000
 11
238.84
 21
219.53
 31
0.0000
 6
CONTINUOUS
 0
LINE
 8
WHITE
 10
238.84
 20
219.53
 30
0.0000
 11
238.84
 21
227.67
 31
0.0000
 6
CONTINUOUS
 0
LINE
 8
WHITE
 10
238.84
 20
227.67
 30
0.0000
 11
238.34
 21
227.67
 31
0.0000
 6
CONTINUOUS
 0
LINE
 8
WHITE
 10
238.34
 20
227.67
 30
0.0000
 11
238.34
 21
219.53
 31
0.0000
 6
CONTINUOUS
 0
LINE
 8
WHITE
 10
238.34
 20
219.53
 30
0.0000
 11
232.28
 21
219.53
 31
0.0000
 6
CONTINUOUS
 0
LINE
 8
WHITE
 10
232.28
 20
219.53
 30
0.0000
 11
232.02
 21
221.27
 31
0.0000
 6
CONTINUOUS
 0
LINE
 8
WHITE
 10
232.02
 20
221.27
 30
0.0000
 11
219.16
 21
219.34
 31
0.0000
 6
CONTINUOUS
 0
LINE
 8
WHITE
 10
219.16
 20
219.34
 30
0.0000
 11
219.16
 21
209.94
 31
0.0000
 6
CONTINUOUS
 0
LINE
 8
WHITE
 10
219.16
 20
209.94
 30
0.0000
 11
188.89
 21
209.94
 31
0.0000
 6
CONTINUOUS
 0
LINE
 8
WHITE
 10
188.89
 20
209.94
 30
0.0000
 11
188.89
 21
220.01
 31
0.0000
 6
CONTINUOUS
 0
LINE
 8
WHITE
 10
188.89
 20
220.01
 30
0.0000
 11
186.87
 21
222.33
 31
0.0000
 6
CONTINUOUS
 0
LINE
 8
WHITE
 10
186.87
 20
222.33
 30
0.0000
 11
174.76
 21
222.33
 31
0.0000
 6
CONTINUOUS
 0
ARC
 8
WHITE
 10
134.45
 20
220.202
 30
 0
 40
40.36613
 50
344.4048
 51
3.021888
 6
CONTINUOUS
 0
LINE
 8
WHITE
 10
173.33
 20
209.35
 30
0.0000
 11
172.53
 21
206.49
 31
0.0000
 6
CONTINUOUS
 0
ARC
 8
WHITE
 10
171.559
 20
206.757
 30
 0
 40
1.00704
 50
269.4878
 51
344.6251
 6
CONTINUOUS
 0
LINE
 8
WHITE
 10
171.55
 20
205.75
 30
0.0000
 11
127.85
 21
205.75
 31
0.0000
 6
CONTINUOUS
 0
ARC
 8
WHITE
 10
127.853
 20
206.76
 30
 0
 40
1.010004
 50
195.5083
 51
269.8298
 6
CONTINUOUS
 0
LINE
 8
WHITE
 10
126.88
 20
206.49
 30
0.0000
 11
126.08
 21
209.35
 31
0.0000
 6
CONTINUOUS
 0
ARC
 8
WHITE
 10
164.962
 20
220.202
 30
 0
 40
40.368
 50
176.9783
 51
195.5945
 6
CONTINUOUS
 0
LINE
 8
WHITE
 10
124.65
 20
222.33
 30
0.0000
 11
104.22
 21
222.33
 31
0.0000
 6
CONTINUOUS
 0
ARC
 8
WHITE
 10
84.622
 20
217.504
 30
 0
 40
20.18345
 50
301.6395
 51
13.83383
 6
CONTINUOUS
 0
LINE
 8
WHITE
 10
95.21
 20
200.32
 30
0.0000
 11
263.48
 21
200.32
 31
0.0000
 6
CONTINUOUS
 0
ARC
 8
WHITE
 10
274.072
 20
217.499
 30
 0
 40
20.18189
 50
207.3726
 51
238.3434
 6
CONTINUOUS
 0
ARC
 8
WHITE
 10
274.067
 20
139.033
 30
 0
 40
20.18547
 50
152.5755
 51
183.5305
 6
CONTINUOUS
 0
LINE
 8
WHITE
 10
253.92
 20
137.79
 30
0.0000
 11
250.18
 21
135.02
 31
0.0000
 6
CONTINUOUS
 0
ARC
 8
WHITE
 10
274.058
 20
139.055
 30
 0
 40
24.21653
 50
172.848
 51
189.5915
 6
CONTINUOUS
 0
LINE
 8
WHITE
 10
250.03
 20
142.07
 30
0.0000
 11
244.95
 21
142.07
 31
0.0000
 6
CONTINUOUS
 0
LINE
 8
WHITE
 10
244.95
 20
142.07
 30
0.0000
 11
244.95
 21
154.06
 31
0.0000
 6
CONTINUOUS
 0
ARC
 8
WHITE
 10
244.79
 20
154.06
 30
 0
 40
.159999
 50
0
 51
90
 6
CONTINUOUS
 0
LINE
 8
WHITE
 10
244.79
 20
154.22
 30
0.0000
 11
244.1
 21
154.22
 31
0.0000
 6
CONTINUOUS
 0
ARC
 8
WHITE
 10
244.1
 20
154.06
 30
 0
 40
.159999
 50
90
 51
180
 6
CONTINUOUS
 0
LINE
 8
WHITE
 10
243.94
 20
154.06
 30
0.0000
 11
243.94
 21
142.07
 31
0.0000
 6
CONTINUOUS
 0
ARC
 8
WHITE
 10
274.057
 20
139.007
 30
 0
 40
30.27236
 50
174.1928
 51
183.7635
 6
CONTINUOUS
 0
LINE
 8
WHITE
 10
243.85
 20
137.02
 30
0.0000
 11
238.84
 21
137.02
 31
0.0000
 6
CONTINUOUS
 0
LINE
 8
WHITE
 10
238.84
 20
137.02
 30
0.0000
 11
238.84
 21
128.88
 31
0.0000
 6
CONTINUOUS
 0
LINE
 8
WHITE
 10
238.84
 20
128.88
 30
0.0000
 11
238.34
 21
128.88
 31
0.0000
 6
CONTINUOUS
 0
LINE
 8
WHITE
 10
238.34
 20
128.88
 30
0.0000
 11
238.34
 21
137.02
 31
0.0000
 6
CONTINUOUS
 0
LINE
 8
WHITE
 10
238.34
 20
137.02
 30
0.0000
 11
232.28
 21
137.02
 31
0.0000
 6
CONTINUOUS
 0
LINE
 8
WHITE
 10
232.28
 20
137.02
 30
0.0000
 11
232.02
 21
135.28
 31
0.0000
 6
CONTINUOUS
 0
LINE
 8
WHITE
 10
232.02
 20
135.28
 30
0.0000
 11
219.16
 21
137.21
 31
0.0000
 6
CONTINUOUS
 0
LINE
 8
WHITE
 10
219.16
 20
137.21
 30
0.0000
 11
219.16
 21
146.61
 31
0.0000
 6
CONTINUOUS
 0
LINE
 8
WHITE
 10
219.16
 20
146.61
 30
0.0000
 11
188.89
 21
146.61
 31
0.0000
 6
CONTINUOUS
 0
LINE
 8
WHITE
 10
188.89
 20
146.61
 30
0.0000
 11
188.89
 21
136.54
 31
0.0000
 6
CONTINUOUS
 0
LINE
 8
WHITE
 10
188.89
 20
136.54
 30
0.0000
 11
186.87
 21
134.22
 31
0.0000
 6
CONTINUOUS
 0
LINE
 8
WHITE
 10
186.87
 20
134.22
 30
0.0000
 11
174.76
 21
134.22
 31
0.0000
 6
CONTINUOUS
 0
ARC
 8
WHITE
 10
134.45
 20
136.348
 30
 0
 40
40.36613
 50
356.9781
 51
15.59521
 6
CONTINUOUS
 0
LINE
 8
WHITE
 10
173.33
 20
147.2
 30
0.0000
 11
172.53
 21
150.06
 31
0.0000
 6
CONTINUOUS
 0
ARC
 8
WHITE
 10
171.559
 20
149.793
 30
 0
 40
1.00704
 50
15.37488
 51
90.51221
 6
CONTINUOUS
 0
LINE
 8
WHITE
 10
171.55
 20
150.8
 30
0.0000
 11
127.85
 21
150.8
 31
0.0000
 6
CONTINUOUS
 0
ARC
 8
WHITE
 10
127.853
 20
149.79
 30
 0
 40
1.010004
 50
90.17018
 51
164.4917
 6
CONTINUOUS
 0
LINE
 8
WHITE
 10
126.88
 20
150.06
 30
0.0000
 11
126.08
 21
147.2
 31
0.0000
 6
CONTINUOUS
 0
ARC
 8
WHITE
 10
164.962
 20
136.348
 30
 0
 40
40.368
 50
164.4055
 51
183.0217
 6
CONTINUOUS
 0
LINE
 8
WHITE
 10
124.65
 20
134.22
 30
0.0000
 11
104.22
 21
134.22
 31
0.0000
 6
CONTINUOUS
 0
ARC
 8
WHITE
 10
84.619
 20
139.038
 30
 0
 40
20.18446
 50
346.1902
 51
58.35031
 6
CONTINUOUS
 0
LINE
 8
WHITE
 10
95.21
 20
156.22
 30
0.0000
 11
263.48
 21
156.22
 31
0.0000
 6
CONTINUOUS
 0
ARC
 8
WHITE
 10
274.065
 20
139.037
 30
 0
 40
20.18162
 50
121.6337
 51
152.583
 6
CONTINUOUS
 0
ARC
 8
WHITE
 10
266.93
 20
141.396
 30
 0
 40
34.31001
 50
353.967
 51
.040078
 6
CONTINUOUS
 0
LINE
 8
WHITE
 10
301.05
 20
137.79
 30
0.0000
 11
294.21
 21
137.79
 31
0.0000
 6
CONTINUOUS
 0
ARC
 8
WHITE
 10
274.06
 20
139.032
 30
 0
 40
20.18824
 50
356.4729
 51
58.36165
 6
CONTINUOUS
 0
LINE
 8
WHITE
 10
284.65
 20
156.22
 30
0.0000
 11
302.09
 21
156.22
 31
0.0000
 6
CONTINUOUS
 0
ARC
 8
WHITE
 10
302.09
 20
161.22
 30
 0
 40
5
 50
270
 51
0
 6
CONTINUOUS
 0
LINE
 8
WHITE
 10
307.09
 20
161.22
 30
0.0000
 11
307.09
 21
195.32
 31
0.0000
 6
CONTINUOUS
 0
ARC
 8
WHITE
 10
302.09
 20
195.32
 30
 0
 40
5
 50
0
 51
90
 6
CONTINUOUS
 0
LINE
 8
WHITE
 10
302.09
 20
200.32
 30
0.0000
 11
284.65
 21
200.32
 31
0.0000
 6
CONTINUOUS
 0
ARC
 8
WHITE
 10
274.067
 20
217.504
 30
 0
 40
20.18142
 50
301.6274
 51
3.539637
 6
CONTINUOUS
 0
LINE
 8
WHITE
 10
294.21
 20
218.75
 30
0.0000
 11
301.05
 21
218.75
 31
0.0000
 6
CONTINUOUS
 0
ARC
 8
WHITE
 10
266.927
 20
215.144
 30
 0
 40
34.31301
 50
359.9766
 51
6.032429
 6
CONTINUOUS
 0
ARC
 8
WHITE
 10
303.26
 20
215.16
 30
 0
 40
2.020024
 50
180.2836
 51
270.0009
 6
CONTINUOUS
 0
LINE
 8
WHITE
 10
303.26
 20
213.14
 30
0.0000
 11
306.08
 21
213.14
 31
0.0000
 6
CONTINUOUS
 0
ARC
 8
WHITE
 10
306.08
 20
214.15
 30
 0
 40
1.009999
 50
270
 51
359.433
 6
CONTINUOUS
 0
LINE
 8
WHITE
 10
307.09
 20
214.14
 30
0.0000
 11
307.09
 21
220.71
 31
0.0000
 6
CONTINUOUS
 0
ARC
 8
WHITE
 10
307.09
 20
221.215
 30
 0
 40
.504999
 50
270
 51
90
 6
CONTINUOUS
 0
LINE
 8
WHITE
 10
307.09
 20
221.72
 30
0.0000
 11
307.09
 21
225.09
 31
0.0000
 6
CONTINUOUS
 0
ARC
 8
WHITE
 10
307.09
 20
225.595
 30
 0
 40
.504999
 50
270
 51
90
 6
CONTINUOUS
 0
LINE
 8
WHITE
 10
307.09
 20
226.1
 30
0.0000
 11
307.09
 21
227.23
 31
0.0000
 6
CONTINUOUS
 0
ARC
 8
WHITE
 10
306.08
 20
227.23
 30
 0
 40
1.009999
 50
0
 51
90
 6
CONTINUOUS
 0
LINE
 8
WHITE
 10
306.08
 20
228.24
 30
0.0000
 11
306.08
 21
229.45
 31
0.0000
 6
CONTINUOUS
 0
ARC
 8
WHITE
 10
306.69
 20
229.443
 30
 0
 40
.61004
 50
116.267
 51
179.3425
 6
CONTINUOUS
 0
LINE
 8
WHITE
 10
306.42
 20
229.99
 30
0.0000
 11
309.55
 21
231.56
 31
0.0000
 6
CONTINUOUS
 0
ARC
 8
WHITE
 10
308.605
 20
233.452
 30
 0
 40
2.114873
 50
296.5408
 51
.217012
 6
CONTINUOUS
 0
LINE
 8
WHITE
 10
310.72
 20
233.46
 30
0.0000
 11
310.72
 21
269.43
 31
0.0000
 6
CONTINUOUS
 0
ARC
 8
WHITE
 10
309.965
 20
269.517
 30
 0
 40
.759996
 50
353.4267
 51
186.5737
 6
CONTINUOUS
 0
LINE
 8
WHITE
 10
309.21
 20
269.43
 30
0.0000
 11
309.21
 21
233.46
 31
0.0000
 6
CONTINUOUS
 0
ARC
 8
WHITE
 10
308.6
 20
233.467
 30
 0
 40
.61004
 50
296.2696
 51
359.3425
 6
CONTINUOUS
 0
LINE
 8
WHITE
 10
308.87
 20
232.92
 30
0.0000
 11
305.74
 21
231.34
 31
0.0000
 6
CONTINUOUS
 0
ARC
 8
WHITE
 10
306.685
 20
229.448
 30
 0
 40
2.114873
 50
116.5408
 51
179.9458
 6
CONTINUOUS
 0
LINE
 8
WHITE
 10
304.57
 20
229.45
 30
0.0000
 11
304.57
 21
228.24
 31
0.0000
 6
CONTINUOUS
 0
LINE
 8
WHITE
 10
304.57
 20
228.24
 30
0.0000
 11
301.23
 21
228.24
 31
0.0000
 6
CONTINUOUS
 0
LINE
 8
WHITE
 10
301.23
 20
228.24
 30
0.0000
 11
301.23
 21
228.61
 31
0.0000
 6
CONTINUOUS
 0
LINE
 8
WHITE
 10
301.23
 20
228.61
 30
0.0000
 11
301.76
 21
228.61
 31
0.0000
 6
CONTINUOUS
 0
ARC
 8
WHITE
 10
296.71
 20
228.628
 30
 0
 40
5.050032
 50
359.7958
 51
24.09845
 6
CONTINUOUS
 0
LINE
 8
WHITE
 10
301.32
 20
230.69
 30
0.0000
 11
301.25
 21
230.83
 31
0.0000
 6
CONTINUOUS
 0
ARC
 8
WHITE
 10
273.126
 20
219.616
 30
 0
 40
30.27727
 50
21.73886
 51
21.84078
 6
CONTINUOUS
 0
LINE
 8
WHITE
 10
301.23
 20
230.88
 30
0.0000
 11
301.23
 21
235.2
 31
0.0000
 6
CONTINUOUS
 0
LINE
 8
WHITE
 10
301.23
 20
235.2
 30
0.0000
 11
302.29
 21
235.2
 31
0.0000
 6
CONTINUOUS
 0
LINE
 8
WHITE
 10
302.29
 20
235.2
 30
0.0000
 11
302.6
 21
270.39
 31
0.0000
 6
CONTINUOUS
 0
ARC
 8
WHITE
 10
299.57
 20
270.42
 30
 0
 40
3.030148
 50
359.4327
 51
89.43275
 6
CONTINUOUS
 0
LINE
 8
WHITE
 10
299.6
 20
273.45
 30
0.0000
 11
233.19
 21
274.03
 31
0.0000
 6
CONTINUOUS
 0
ARC
 8
WHITE
 10
233.195
 20
274.28
 30
 0
 40
.25005
 50
191.5314
 51
268.8542
 6
CONTINUOUS
 0
LINE
 8
WHITE
 10
232.95
 20
274.23
 30
0.0000
 11
232.63
 21
276.05
 31
0.0000
 6
CONTINUOUS
 0
ARC
 8
WHITE
 10
232.38
 20
276.01
 30
 0
 40
.253179
 50
9.090276
 51
80.91232
 6
CONTINUOUS
 0
LINE
 8
WHITE
 10
232.42
 20
276.26
 30
0.0000
 11
232.34
 21
276.26
 31
0.0000
 6
CONTINUOUS
 0
LINE
 8
WHITE
 10
232.34
 20
276.26
 30
0.0000
 11
228.8
 21
296.81
 31
0.0000
 6
CONTINUOUS
 0
LINE
 8
WHITE
 10
228.8
 20
296.81
 30
0.0000
 11
232.73
 21
298.51
 31
0.0000
 6
CONTINUOUS
 0
LINE
 8
WHITE
 10
232.73
 20
298.51
 30
0.0000
 11
222.37
 21
304.83
 31
0.0000
 6
CONTINUOUS
 0
LINE
 8
WHITE
 10
222.37
 20
304.83
 30
0.0000
 11
221.76
 21
304.81
 31
0.0000
 6
CONTINUOUS
 0
LINE
 8
WHITE
 10
221.76
 20
304.81
 30
0.0000
 11
221.57
 21
304.64
 31
0.0000
 6
CONTINUOUS
 0
ARC
 8
WHITE
 10
213.823
 20
286.003
 30
 0
 40
20.18301
 50
67.42839
 51
79.84929
 6
CONTINUOUS
 0
LINE
 8
WHITE
 10
217.38
 20
305.87
 30
0.0000
 11
217.4
 21
308.83
 31
0.0000
 6
CONTINUOUS
 0
ARC
 8
WHITE
 10
217.6
 20
308.83
 30
 0
 40
.2
 50
87.13498
 51
180
 6
CONTINUOUS
 0
LINE
 8
WHITE
 10
217.61
 20
309.03
 30
0.0000
 11
219.27
 21
309.01
 31
0.0000
 6
CONTINUOUS
 0
ARC
 8
WHITE
 10
219.253
 20
306.99
 30
 0
 40
2.020071
 50
45.06028
 51
89.51782
 6
CONTINUOUS
 0
LINE
 8
WHITE
 10
220.68
 20
308.42
 30
0.0000
 11
221.28
 21
307.82
 31
0.0000
 6
CONTINUOUS
 0
ARC
 8
WHITE
 10
221.422
 20
307.958
 30
 0
 40
.19801
 50
224.1815
 51
.573998
 6
CONTINUOUS
 0
LINE
 8
WHITE
 10
221.62
 20
307.96
 30
0.0000
 11
221.64
 21
310.98
 31
0.0000
 6
CONTINUOUS
 0
ARC
 8
WHITE
 10
221.44
 20
310.987
 30
 0
 40
.200122
 50
357.9955
 51
134.3914
 6
CONTINUOUS
 0
LINE
 8
WHITE
 10
221.3
 20
311.13
 30
0.0000
 11
220.75
 21
310.57
 31
0.0000
 6
CONTINUOUS
 0
ARC
 8
WHITE
 10
219.322
 20
312.002
 30
 0
 40
2.022327
 50
269.3765
 51
314.9199
 6
CONTINUOUS
 0
LINE
 8
WHITE
 10
219.3
 20
309.98
 30
0.0000
 11
197.94
 21
310.17
 31
0.0000
 6
CONTINUOUS
 0
ARC
 8
WHITE
 10
197.314
 20
309.665
 30
 0
 40
.804301
 50
38.89344
 51
324.6699
 6
CONTINUOUS
 0
LINE
 8
WHITE
 10
197.97
 20
309.2
 30
0.0000
 11
199.06
 21
309.2
 31
0.0000
 6
CONTINUOUS
 0
ARC
 8
WHITE
 10
199.06
 20
309
 30
 0
 40
.2
 50
354.2924
 51
90
 6
CONTINUOUS
 0
LINE
 8
WHITE
 10
199.26
 20
308.98
 30
0.0000
 11
199.23
 21
306.32
 31
0.0000
 6
CONTINUOUS
 0
LINE
 8
WHITE
 10
199.23
 20
306.32
 30
0.0000
 11
185.25
 21
306.44
 31
0.0000
 6
CONTINUOUS
 0
LINE
 8
WHITE
 10
185.25
 20
306.44
 30
0.0000
 11
185.25
 21
329.23
 31
0.0000
 6
CONTINUOUS
 0
ARC
 8
WHITE
 10
165.07
 20
329.227
 30
 0
 40
20.18
 50
.008517
 51
26.94085
 6
CONTINUOUS
 0
LINE
 8
WHITE
 10
183.06
 20
338.37
 30
0.0000
 11
180.84
 21
342.75
 31
0.0000
 6
CONTINUOUS
 0
ARC
 8
WHITE
 10
179.041
 20
341.838
 30
 0
 40
2.016964
 50
26.88265
 51
172.8226
 6
CONTINUOUS
 0
LINE
 8
WHITE
 10
177.04
 20
342.09
 30
0.0000
 11
176.57
 21
338.42
 31
0.0000
 6
CONTINUOUS
 0
ARC
 8
WHITE
 10
179.067
 20
338.075
 30
 0
 40
2.52072
 50
172.1335
 51
187.8666
 6
CONTINUOUS
 0
LINE
 8
WHITE
 10
176.57
 20
337.73
 30
0.0000
 11
177.1
 21
334.07
 31
0.0000
 6
CONTINUOUS
 0
ARC
 8
WHITE
 10
179.1
 20
334.358
 30
 0
 40
2.020629
 50
188.1943
 51
241.634
 6
CONTINUOUS
 0
ARC
 8
WHITE
 10
177.178
 20
330.801
 30
 0
 40
2.022445
 50
359.9715
 51
61.59756
 6
CONTINUOUS
 0
LINE
 8
WHITE
 10
179.2
 20
330.8
 30
0.0000
 11
179.2
 21
304.05
 31
0.0000
 6
CONTINUOUS
 0
ARC
 8
WHITE
 10
184.03
 20
300.39
 30
 0
 40
6.060074
 50
142.8465
 51
179.9997
 6
CONTINUOUS
 0
LINE
 8
WHITE
 10
177.97
 20
300.39
 30
0.0000
 11
177.97
 21
299.3
 31
0.0000
 6
CONTINUOUS
 0
LINE
 8
WHITE
 10
177.97
 20
299.3
 30
0.0000
 11
174.76
 21
299.3
 31
0.0000
 6
CONTINUOUS
 0
LINE
 8
WHITE
 10
174.76
 20
299.3
 30
0.0000
 11
174.76
 21
306.36
 31
0.0000
 6
CONTINUOUS
 0
ARC
 8
WHITE
 10
171.73
 20
306.36
 30
 0
 40
3.029999
 50
0
 51
90
 6
CONTINUOUS
 0
LINE
 8
WHITE
 10
171.73
 20
309.39
 30
0.0000
 11
129.75
 21
309.39
 31
0.0000
 6
CONTINUOUS
 0
ARC
 8
WHITE
 10
129.75
 20
306.36
 30
 0
 40
3.029999
 50
90
 51
180.0006
 6
CONTINUOUS
 0
LINE
 8
WHITE
 10
126.72
 20
306.36
 30
0.0000
 11
126.72
 21
237.25
 31
0.0000
 6
CONTINUOUS
 0
LINE
 8
WHITE
 10
126.72
 20
237.25
 30
0.0000
 11
122.05
 21
237.25
 31
0.0000
 6
CONTINUOUS
 0
LINE
 8
WHITE
 10
122.05
 20
237.25
 30
0.0000
 11
122.05
 21
235.68
 31
0.0000
 6
CONTINUOUS
 0
LINE
 8
WHITE
 10
122.05
 20
235.68
 30
0.0000
 11
95.4
 21
235.68
 31
0.0000
 6
CONTINUOUS
 0
LINE
 8
WHITE
 10
95.4
 20
235.68
 30
0.0000
 11
95.4
 21
237.25
 31
0.0000
 6
CONTINUOUS
 0
LINE
 8
WHITE
 10
95.4
 20
237.25
 30
0.0000
 11
88.81
 21
237.25
 31
0.0000
 6
CONTINUOUS
 0
ARC
 8
WHITE
 10
84.62
 20
217.51
 30
 0
 40
20.17978
 50
78.0163
 51
101.9837
 6
CONTINUOUS
 0
LINE
 8
WHITE
 10
80.43
 20
237.25
 30
0.0000
 11
72.88
 21
237.25
 31
0.0000
 6
CONTINUOUS
 0
LINE
 8
WHITE
 10
72.88
 20
237.25
 30
0.0000
 11
72.88
 21
241.81
 31
0.0000
 6
CONTINUOUS
 0
LINE
 8
WHITE
 10
72.88
 20
241.81
 30
0.0000
 11
73.64
 21
241.81
 31
0.0000
 6
CONTINUOUS
 0
ARC
 8
WHITE
 10
73.65
 20
242.31
 30
 0
 40
.5001
 50
268.8542
 51
0
 6
CONTINUOUS
 0
LINE
 8
WHITE
 10
74.15
 20
242.31
 30
0.0000
 11
74.15
 21
243.31
 31
0.0000
 6
CONTINUOUS
 0
LINE
 8
WHITE
 10
74.15
 20
243.31
 30
0.0000
 11
74.47
 21
243.39
 31
0.0000
 6
CONTINUOUS
 0
ARC
 8
WHITE
 10
74.26
 20
244.372
 30
 0
 40
1.004203
 50
282.0709
 51
12.54137
 6
CONTINUOUS
 0
LINE
 8
WHITE
 10
75.24
 20
244.59
 30
0.0000
 11
75.24
 21
244.62
 31
0.0000
 6
CONTINUOUS
 0
LINE
 8
WHITE
 10
75.24
 20
244.62
 30
0.0000
 11
77.23
 21
245.08
 31
0.0000
 6
CONTINUOUS
 0
LINE
 8
WHITE
 10
77.23
 20
245.08
 30
0.0000
 11
76.34
 21
249.01
 31
0.0000
 6
CONTINUOUS
 0
LINE
 8
WHITE
 10
76.34
 20
249.01
 30
0.0000
 11
50.94
 21
243.26
 31
0.0000
 6
CONTINUOUS
 0
ARC
 8
WHITE
 10
51.158
 20
242.279
 30
 0
 40
1.00493
 50
102.5288
 51
153.3327
 6
CONTINUOUS
 0
LINE
 8
WHITE
 10
50.26
 20
242.73
 30
0.0000
 11
49.08
 21
240.39
 31
0.0000
 6
CONTINUOUS
 0
ARC
 8
WHITE
 10
49.984
 20
239.937
 30
 0
 40
1.01115
 50
153.3843
 51
282.3443
 6
CONTINUOUS
 0
LINE
 8
WHITE
 10
50.2
 20
238.95
 30
0.0000
 11
54.18
 21
239.85
 31
0.0000
 6
CONTINUOUS
 0
LINE
 8
WHITE
 10
54.18
 20
239.85
 30
0.0000
 11
54.18
 21
239.82
 31
0.0000
 6
CONTINUOUS
 0
ARC
 8
WHITE
 10
55.16
 20
240.038
 30
 0
 40
1.003954
 50
192.5412
 51
283.2338
 6
CONTINUOUS
 0
LINE
 8
WHITE
 10
55.39
 20
239.06
 30
0.0000
 11
55.79
 21
239.15
 31
0.0000
 6
CONTINUOUS
 0
LINE
 8
WHITE
 10
55.79
 20
239.15
 30
0.0000
 11
55.79
 21
237.25
 31
0.0000
 6
CONTINUOUS
 0
LINE
 8
WHITE
 10
55.79
 20
237.25
 30
0.0000
 11
44.4
 21
237.25
 31
0.0000
 6
CONTINUOUS
 0
ARC
 8
WHITE
 10
40.21
 20
217.51
 30
 0
 40
20.17978
 50
78.0163
 51
101.9837
 6
CONTINUOUS
 0
LINE
 8
WHITE
 10
36.02
 20
237.25
 30
0.0000
 11
25.65
 21
237.25
 31
0.0000
 6
CONTINUOUS
 0
LINE
 8
WHITE
 10
25.65
 20
237.25
 30
0.0000
 11
25.65
 21
235.68
 31
0.0000
 6
CONTINUOUS
 0
LINE
 8
WHITE
 10
25.65
 20
235.68
 30
0.0000
 11
12.7
 21
235.68
 31
0.0000
 6
CONTINUOUS
 0
LINE
 8
WHITE
 10
12.7
 20
235.68
 30
0.0000
 11
12.7
 21
227.67
 31
0.0000
 6
CONTINUOUS
 0
LINE
 8
WHITE
 10
12.7
 20
227.67
 30
0.0000
 11
16.27
 21
227.67
 31
0.0000
 6
CONTINUOUS
 0
LINE
 8
WHITE
 10
16.27
 20
227.67
 30
0.0000
 11
16.27
 21
202.49
 31
0.0000
 6
CONTINUOUS
 0
ARC
 8
WHITE
 10
16.43
 20
202.48
 30
 0
 40
.160312
 50
176.4237
 51
270
 6
CONTINUOUS
 0
LINE
 8
WHITE
 10
16.43
 20
202.32
 30
0.0000
 11
17.12
 21
202.32
 31
0.0000
 6
CONTINUOUS
 0
ARC
 8
WHITE
 10
17.12
 20
202.48
 30
 0
 40
.159999
 50
270
 51
3.574378
 6
CONTINUOUS
 0
LINE
 8
WHITE
 10
17.28
 20
202.49
 30
0.0000
 11
17.28
 21
222.33
 31
0.0000
 6
CONTINUOUS
 0
LINE
 8
WHITE
 10
17.28
 20
222.33
 30
0.0000
 11
20.61
 21
222.33
 31
0.0000
 6
CONTINUOUS
 0
ARC
 8
WHITE
 10
40.21
 20
217.51
 30
 0
 40
20.18396
 50
166.1841
 51
238.3888
 6
CONTINUOUS
 0
LINE
 8
WHITE
 10
29.63
 20
200.32
 30
0.0000
 11
17.7
 21
200.32
 31
0.0000
 6
CONTINUOUS
 0
ARC
 8
WHITE
 10
17.7
 20
195.32
 30
 0
 40
5
 50
90
 51
180
 6
CONTINUOUS
 0
LINE
 8
WHITE
 10
12.7
 20
195.32
 30
0.0000
 11
12.7
 21
161.22
 31
0.0000
 6
CONTINUOUS
 0
ARC
 8
WHITE
 10
17.7
 20
161.22
 30
 0
 40
5
 50
180
 51
270
 6
CONTINUOUS
 0
LINE
 8
WHITE
 10
17.7
 20
156.22
 30
0.0000
 11
29.63
 21
156.22
 31
0.0000
 6
CONTINUOUS
 0
ARC
 8
WHITE
 10
40.209
 20
139.033
 30
 0
 40
20.18188
 50
121.6133
 51
193.7973
 6
CONTINUOUS
 0
LINE
 8
WHITE
 10
20.61
 20
134.22
 30
0.0000
 11
17.28
 21
134.22
 31
0.0000
 6
CONTINUOUS
 0
LINE
 8
WHITE
 10
17.28
 20
134.22
 30
0.0000
 11
17.28
 21
154.06
 31
0.0000
 6
CONTINUOUS
 0
ARC
 8
WHITE
 10
17.12
 20
154.06
 30
 0
 40
.159999
 50
0
 51
90
 6
CONTINUOUS
 0
LINE
 8
WHITE
 10
17.12
 20
154.22
 30
0.0000
 11
16.43
 21
154.22
 31
0.0000
 6
CONTINUOUS
 0
ARC
 8
WHITE
 10
16.43
 20
154.06
 30
 0
 40
.159999
 50
90
 51
180
 6
CONTINUOUS
 0
LINE
 8
WHITE
 10
16.27
 20
154.06
 30
0.0000
 11
16.27
 21
128.88
 31
0.0000
 6
CONTINUOUS
 0
LINE
 8
WHITE
 10
16.27
 20
128.88
 30
0.0000
 11
12.7
 21
128.88
 31
0.0000
 6
CONTINUOUS
 0
LINE
 8
WHITE
 10
12.7
 20
128.88
 30
0.0000
 11
12.7
 21
120.87
 31
0.0000
 6
CONTINUOUS
 0
LINE
 8
WHITE
 10
12.7
 20
120.87
 30
0.0000
 11
25.65
 21
120.87
 31
0.0000
 6
CONTINUOUS
 0
LINE
 8
WHITE
 10
25.65
 20
120.87
 30
0.0000
 11
25.65
 21
119.3
 31
0.0000
 6
CONTINUOUS
 0
LINE
 8
WHITE
 10
25.65
 20
119.3
 30
0.0000
 11
36.02
 21
119.3
 31
0.0000
 6
CONTINUOUS
 0
ARC
 8
WHITE
 10
40.21
 20
139.04
 30
 0
 40
20.17978
 50
258.0163
 51
281.9837
 6
CONTINUOUS
 0
LINE
 8
WHITE
 10
44.4
 20
119.3
 30
0.0000
 11
55.79
 21
119.3
 31
0.0000
 6
CONTINUOUS
 0
LINE
 8
WHITE
 10
55.79
 20
119.3
 30
0.0000
 11
55.79
 21
117.4
 31
0.0000
 6
CONTINUOUS
 0
LINE
 8
WHITE
 10
55.79
 20
117.4
 30
0.0000
 11
55.39
 21
117.49
 31
0.0000
 6
CONTINUOUS
 0
ARC
 8
WHITE
 10
55.17
 20
116.51
 30
 0
 40
1.00439
 50
77.34744
 51
167.3469
 6
CONTINUOUS
 0
LINE
 8
WHITE
 10
54.19
 20
116.73
 30
0.0000
 11
54.19
 21
116.7
 31
0.0000
 6
CONTINUOUS
 0
LINE
 8
WHITE
 10
54.19
 20
116.7
 30
0.0000
 11
50.2
 21
117.6
 31
0.0000
 6
CONTINUOUS
 0
ARC
 8
WHITE
 10
49.972
 20
116.622
 30
 0
 40
1.004225
 50
76.87709
 51
207.3813
 6
CONTINUOUS
 0
LINE
 8
WHITE
 10
49.08
 20
116.16
 30
0.0000
 11
50.26
 21
113.82
 31
0.0000
 6
CONTINUOUS
 0
ARC
 8
WHITE
 10
51.162
 20
114.276
 30
 0
 40
1.010712
 50
206.8186
 51
257.3113
 6
CONTINUOUS
 0
LINE
 8
WHITE
 10
50.94
 20
113.29
 30
0.0000
 11
76.34
 21
107.54
 31
0.0000
 6
CONTINUOUS
 0
LINE
 8
WHITE
 10
76.34
 20
107.54
 30
0.0000
 11
77.23
 21
111.47
 31
0.0000
 6
CONTINUOUS
 0
LINE
 8
WHITE
 10
77.23
 20
111.47
 30
0.0000
 11
75.23
 21
111.93
 31
0.0000
 6
CONTINUOUS
 0
LINE
 8
WHITE
 10
75.23
 20
111.93
 30
0.0000
 11
75.23
 21
111.96
 31
0.0000
 6
CONTINUOUS
 0
ARC
 8
WHITE
 10
74.25
 20
112.18
 30
 0
 40
1.00439
 50
347.3474
 51
77.34742
 6
CONTINUOUS
 0
LINE
 8
WHITE
 10
74.47
 20
113.16
 30
0.0000
 11
74.15
 21
113.24
 31
0.0000
 6
CONTINUOUS
 0
LINE
 8
WHITE
 10
74.15
 20
113.24
 30
0.0000
 11
74.15
 21
114.24
 31
0.0000
 6
CONTINUOUS
 0
ARC
 8
WHITE
 10
73.65
 20
114.24
 30
 0
 40
.5
 50
0
 51
91.146
 6
CONTINUOUS
 0
LINE
 8
WHITE
 10
73.64
 20
114.74
 30
0.0000
 11
72.88
 21
114.74
 31
0.0000
 6
CONTINUOUS
 0
LINE
 8
WHITE
 10
72.88
 20
114.74
 30
0.0000
 11
72.88
 21
119.3
 31
0.0000
 6
CONTINUOUS
 0
LINE
 8
WHITE
 10
72.88
 20
119.3
 30
0.0000
 11
80.43
 21
119.3
 31
0.0000
 6
CONTINUOUS
 0
ARC
 8
WHITE
 10
84.62
 20
139.04
 30
 0
 40
20.17978
 50
258.0163
 51
281.9837
 6
CONTINUOUS
 0
LINE
 8
WHITE
 10
88.81
 20
119.3
 30
0.0000
 11
95.4
 21
119.3
 31
0.0000
 6
CONTINUOUS
 0
LINE
 8
WHITE
 10
95.4
 20
119.3
 30
0.0000
 11
95.4
 21
120.87
 31
0.0000
 6
CONTINUOUS
 0
LINE
 8
WHITE
 10
95.4
 20
120.87
 30
0.0000
 11
122.05
 21
120.87
 31
0.0000
 6
CONTINUOUS
 0
LINE
 8
WHITE
 10
122.05
 20
120.87
 30
0.0000
 11
122.05
 21
119.3
 31
0.0000
 6
CONTINUOUS
 0
LINE
 8
WHITE
 10
122.05
 20
119.3
 30
0.0000
 11
126.72
 21
119.3
 31
0.0000
 6
CONTINUOUS
 0
LINE
 8
WHITE
 10
126.72
 20
119.3
 30
0.0000
 11
126.72
 21
50.19
 31
0.0000
 6
CONTINUOUS
 0
ARC
 8
WHITE
 10
129.75
 20
50.19
 30
 0
 40
3.029999
 50
180
 51
270
 6
CONTINUOUS
 0
LINE
 8
WHITE
 10
129.75
 20
47.16
 30
0.0000
 11
171.73
 21
47.16
 31
0.0000
 6
CONTINUOUS
 0
ARC
 8
WHITE
 10
171.73
 20
50.19
 30
 0
 40
3.029999
 50
270
 51
0
 6
CONTINUOUS
 0
LINE
 8
WHITE
 10
174.76
 20
50.19
 30
0.0000
 11
174.76
 21
57.25
 31
0.0000
 6
CONTINUOUS
 0
LINE
 8
WHITE
 10
174.76
 20
57.25
 30
0.0000
 11
177.97
 21
57.25
 31
0.0000
 6
CONTINUOUS
 0
LINE
 8
WHITE
 10
177.97
 20
57.25
 30
0.0000
 11
177.97
 21
56.16
 31
0.0000
 6
CONTINUOUS
 0
ARC
 8
WHITE
 10
184.03
 20
56.16
 30
 0
 40
6.059999
 50
180
 51
217.1535
 6
CONTINUOUS
 0
LINE
 8
WHITE
 10
179.2
 20
52.5
 30
0.0000
 11
179.2
 21
25.75
 31
0.0000
 6
CONTINUOUS
 0
ARC
 8
WHITE
 10
177.18
 20
25.747
 30
 0
 40
2.020002
 50
298.3797
 51
.085092
 6
CONTINUOUS
 0
ARC
 8
WHITE
 10
179.102
 20
22.191
 30
 0
 40
2.022445
 50
118.4025
 51
171.7858
 6
CONTINUOUS
 0
LINE
 8
WHITE
 10
177.1
 20
22.48
 30
0.0000
 11
176.57
 21
18.82
 31
0.0000
 6
CONTINUOUS
 0
ARC
 8
WHITE
 10
179.072
 20
18.475
 30
 0
 40
2.525674
 50
172.149
 51
187.851
 6
CONTINUOUS
 0
LINE
 8
WHITE
 10
176.57
 20
18.13
 30
0.0000
 11
177.04
 21
14.46
 31
0.0000
 6
CONTINUOUS
 0
ARC
 8
WHITE
 10
179.041
 20
14.712
 30
 0
 40
2.016805
 50
187.1779
 51
333.1173
 6
CONTINUOUS
 0
LINE
 8
WHITE
 10
180.84
 20
13.8
 30
0.0000
 11
183.06
 21
18.18
 31
0.0000
 6
CONTINUOUS
 0
ARC
 8
WHITE
 10
165.062
 20
27.325
 30
 0
 40
20.18809
 50
333.0643
 51
359.9858
 6
CONTINUOUS
 0
LINE
 8
WHITE
 10
185.25
 20
27.32
 30
0.0000
 11
185.25
 21
50.11
 31
0.0000
 6
CONTINUOUS
 0
LINE
 8
WHITE
 10
185.25
 20
50.11
 30
0.0000
 11
199.23
 21
50.23
 31
0.0000
 6
CONTINUOUS
 0
LINE
 8
WHITE
 10
199.23
 20
50.23
 30
0.0000
 11
199.26
 21
47.57
 31
0.0000
 6
CONTINUOUS
 0
ARC
 8
WHITE
 10
199.06
 20
47.56
 30
 0
 40
.200249
 50
270
 51
2.862405
 6
CONTINUOUS
 0
LINE
 8
WHITE
 10
199.06
 20
47.36
 30
0.0000
 11
197.97
 21
47.36
 31
0.0000
 6
CONTINUOUS
 0
ARC
 8
WHITE
 10
197.31
 20
46.89
 30
 0
 40
.810246
 50
35.45547
 51
321.0093
 6
CONTINUOUS
 0
LINE
 8
WHITE
 10
197.94
 20
46.38
 30
0.0000
 11
219.3
 21
46.57
 31
0.0000
 6
CONTINUOUS
 0
ARC
 8
WHITE
 10
219.323
 20
44.55
 30
 0
 40
2.02013
 50
45.06013
 51
90.65235
 6
CONTINUOUS
 0
LINE
 8
WHITE
 10
220.75
 20
45.98
 30
0.0000
 11
221.3
 21
45.42
 31
0.0000
 6
CONTINUOUS
 0
ARC
 8
WHITE
 10
221.442
 20
45.558
 30
 0
 40
.19801
 50
224.1815
 51
3.468562
 6
CONTINUOUS
 0
LINE
 8
WHITE
 10
221.64
 20
45.57
 30
0.0000
 11
221.62
 21
48.59
 31
0.0000
 6
CONTINUOUS
 0
ARC
 8
WHITE
 10
221.42
 20
48.587
 30
 0
 40
.200022
 50
.859372
 51
134.393
 6
CONTINUOUS
 0
LINE
 8
WHITE
 10
221.28
 20
48.73
 30
0.0000
 11
220.68
 21
48.13
 31
0.0000
 6
CONTINUOUS
 0
ARC
 8
WHITE
 10
219.252
 20
49.562
 30
 0
 40
2.022327
 50
270.5102
 51
314.9199
 6
CONTINUOUS
 0
LINE
 8
WHITE
 10
219.27
 20
47.54
 30
0.0000
 11
217.61
 21
47.52
 31
0.0000
 6
CONTINUOUS
 0
ARC
 8
WHITE
 10
217.6
 20
47.72
 30
 0
 40
.200249
 50
180
 51
272.8624
 6
CONTINUOUS
 0
LINE
 8
WHITE
 10
217.4
 20
47.72
 30
0.0000
 11
217.38
 21
50.68
 31
0.0000
 6
CONTINUOUS
 0
ARC
 8
WHITE
 10
213.823
 20
70.549
 30
 0
 40
20.18488
 50
280.1497
 51
292.5695
 6
CONTINUOUS
 0
LINE
 8
WHITE
 10
221.57
 20
51.91
 30
0.0000
 11
221.76
 21
51.74
 31
0.0000
 6
CONTINUOUS
 0
LINE
 8
WHITE
 10
221.76
 20
51.74
 30
0.0000
 11
222.37
 21
51.72
 31
0.0000
 6
CONTINUOUS
 0
LINE
 8
WHITE
 10
222.37
 20
51.72
 30
0.0000
 11
232.73
 21
58.04
 31
0.0000
 6
CONTINUOUS
 0
LINE
 8
WHITE
 10
232.73
 20
58.04
 30
0.0000
 11
228.8
 21
59.74
 31
0.0000
 6
CONTINUOUS
 0
LINE
 8
WHITE
 10
228.8
 20
59.74
 30
0.0000
 11
232.34
 21
80.28
 31
0.0000
 6
CONTINUOUS
 0
LINE
 8
WHITE
 10
232.34
 20
80.28
 30
0.0000
 11
232.42
 21
80.28
 31
0.0000
 6
CONTINUOUS
 0
ARC
 8
WHITE
 10
232.38
 20
80.529
 30
 0
 40
.252192
 50
279.1262
 51
353.3834
 6
CONTINUOUS
 0
LINE
 8
WHITE
 10
232.63
 20
80.5
 30
0.0000
 11
232.95
 21
82.31
 31
0.0000
 6
CONTINUOUS
 0
ARC
 8
WHITE
 10
233.2
 20
82.267
 30
 0
 40
.253671
 50
92.26225
 51
170.2406
 6
CONTINUOUS
 0
LINE
 8
WHITE
 10
233.19
 20
82.52
 30
0.0000
 11
299.6
 21
83.1
 31
0.0000
 6
CONTINUOUS
 0
ARC
 8
WHITE
 10
299.57
 20
86.13
 30
 0
 40
3.030148
 50
270.5673
 51
.567387
 6
CONTINUOUS
 0
LINE
 8
WHITE
 10
302.6
 20
86.16
 30
0.0000
 11
302.29
 21
121.36
 31
0.0000
 6
CONTINUOUS
 0
LINE
 8
WHITE
 10
302.29
 20
121.36
 30
0.0000
 11
301.23
 21
121.36
 31
0.0000
 6
CONTINUOUS
 0
LINE
 8
WHITE
 10
301.23
 20
121.36
 30
0.0000
 11
301.23
 21
125.67
 31
0.0000
 6
CONTINUOUS
 0
ARC
 8
WHITE
 10
273.126
 20
136.934
 30
 0
 40
30.27726
 50
338.1592
 51
338.2612
 6
CONTINUOUS
 0
LINE
 8
WHITE
 10
301.25
 20
125.72
 30
0.0000
 11
301.32
 21
125.86
 31
0.0000
 6
CONTINUOUS
 0
ARC
 8
WHITE
 10
296.716
 20
127.92
 30
 0
 40
5.043849
 50
335.8945
 51
.113615
 6
CONTINUOUS
 0
LINE
 8
WHITE
 10
301.76
 20
127.93
 30
0.0000
 11
301.23
 21
127.93
 31
0.0000
 6
CONTINUOUS
 0
LINE
 8
WHITE
 10
301.23
 20
127.93
 30
0.0000
 11
301.23
 21
128.31
 31
0.0000
 6
CONTINUOUS
 0
LINE
 8
WHITE
 10
301.23
 20
128.31
 30
0.0000
 11
304.57
 21
128.31
 31
0.0000
 6
CONTINUOUS
 0
LINE
 8
WHITE
 10
304.57
 20
128.31
 30
0.0000
 11
304.57
 21
127.1
 31
0.0000
 6
CONTINUOUS
 0
ARC
 8
WHITE
 10
306.69
 20
127.095
 30
 0
 40
2.120005
 50
179.8649
 51
243.3743
 6
CONTINUOUS
 0
LINE
 8
WHITE
 10
305.74
 20
125.2
 30
0.0000
 11
308.87
 21
123.63
 31
0.0000
 6
CONTINUOUS
 0
ARC
 8
WHITE
 10
308.606
 20
123.087
 30
 0
 40
.603775
 50
.284421
 51
64.07154
 6
CONTINUOUS
 0
LINE
 8
WHITE
 10
309.21
 20
123.09
 30
0.0000
 11
309.21
 21
87.12
 31
0.0000
 6
CONTINUOUS
 0
ARC
 8
WHITE
 10
309.965
 20
87.033
 30
 0
 40
.759996
 50
173.4267
 51
6.57311
 6
CONTINUOUS
 0
LINE
 8
WHITE
 10
310.72
 20
87.12
 30
0.0000
 11
310.72
 21
123.09
 31
0.0000
 6
CONTINUOUS
 0
ARC
 8
WHITE
 10
308.6
 20
123.085
 30
 0
 40
2.120005
 50
.135131
 51
63.375
 6
CONTINUOUS
 0
LINE
 8
WHITE
 10
309.55
 20
124.98
 30
0.0000
 11
306.42
 21
126.56
 31
0.0000
 6
CONTINUOUS
 0
ARC
 8
WHITE
 10
306.684
 20
127.103
 30
 0
 40
.603775
 50
180.2844
 51
244.0715
 6
CONTINUOUS
 0
LINE
 8
WHITE
 10
306.08
 20
127.1
 30
0.0000
 11
306.08
 21
128.31
 31
0.0000
 6
CONTINUOUS
 0
ARC
 8
WHITE
 10
306.08
 20
129.32
 30
 0
 40
1.009999
 50
270
 51
.000865
 6
CONTINUOUS
 0
LINE
 8
WHITE
 10
307.09
 20
129.32
 30
0.0000
 11
307.09
 21
130.45
 31
0.0000
 6
CONTINUOUS
 0
ARC
 8
WHITE
 10
307.09
 20
130.955
 30
 0
 40
.504999
 50
270
 51
90
 6
CONTINUOUS
 0
LINE
 8
WHITE
 10
307.09
 20
131.46
 30
0.0000
 11
307.09
 21
134.83
 31
0.0000
 6
CONTINUOUS
 0
ARC
 8
WHITE
 10
307.09
 20
135.335
 30
 0
 40
.504999
 50
270
 51
90
 6
CONTINUOUS
 0
LINE
 8
WHITE
 10
307.09
 20
135.84
 30
0.0000
 11
307.09
 21
142.41
 31
0.0000
 6
CONTINUOUS
 0
ARC
 8
WHITE
 10
306.08
 20
142.4
 30
 0
 40
1.010049
 50
.567266
 51
90
 6
CONTINUOUS
 0
LINE
 8
WHITE
 10
306.08
 20
143.41
 30
0.0000
 11
303.26
 21
143.41
 31
0.0000
 6
CONTINUOUS
 0
ARC
 8
WHITE
 10
303.26
 20
141.39
 30
 0
 40
2.019999
 50
90
 51
179.7165
 6
CONTINUOUS
 0
ENDSEC
 0
EOF
