  0
SECTION
  2
HEADER
999
BEZARC 1.0.1
  9
$FASTZOOM
 70
0
  9
$FILLMODE
 70
1
  9
$SPLINETYPE
 70
5
  0
ENDSEC
  0
SECTION
  2
ENTITIES
  0
POLYLINE
  8
0
 66
1
 70
1
  0
VERTEX
  8
0
 10
7.550685
 20
5.207485
  0
VERTEX
  8
0
 10
7.533999
 20
5.219621
 42
-0.029708
  0
VERTEX
  8
0
 10
7.528689
 20
5.383313
 42
0.028476
  0
VERTEX
  8
0
 10
7.523381
 20
5.551824
 42
0.126872
  0
VERTEX
  8
0
 10
7.499126
 20
5.573828
 42
0.049682
  0
VERTEX
  8
0
 10
7.470879
 20
5.584516
 42
-0.053326
  0
VERTEX
  8
0
 10
7.441468
 20
5.595815
  0
VERTEX
  8
0
 10
7.4354
 20
5.91285
 42
-0.008846
  0
VERTEX
  8
0
 10
7.399575
 20
5.948315
 42
0.027252
  0
VERTEX
  8
0
 10
7.33765
 20
6.00673
 42
0.083244
  0
VERTEX
  8
0
 10
7.265508
 20
6.049372
 42
-0.004987
  0
VERTEX
  8
0
 10
7.079151
 20
6.061314
 42
0.015806
  0
VERTEX
  8
0
 10
6.769485
 20
6.076676
 42
0.034104
  0
VERTEX
  8
0
 10
6.333213
 20
6.112737
 42
-0.017285
  0
VERTEX
  8
0
 10
6.026207
 20
6.131286
  0
VERTEX
  8
0
 10
5.873
 20
6.551471
  0
VERTEX
  8
0
 10
5.906372
 20
6.584843
 42
0.145617
  0
VERTEX
  8
0
 10
5.875276
 20
6.62542
 42
0.075921
  0
VERTEX
  8
0
 10
5.830526
 20
6.650071
 42
-0.209844
  0
VERTEX
  8
0
 10
5.790007
 20
6.667731
 42
-0.081537
  0
VERTEX
  8
0
 10
5.769763
 20
6.703986
 42
0.017965
  0
VERTEX
  8
0
 10
5.760635
 20
6.723945
 42
0.053653
  0
VERTEX
  8
0
 10
5.748615
 20
6.742601
 42
-0.050141
  0
VERTEX
  8
0
 10
5.726652
 20
6.742549
 42
0.076389
  0
VERTEX
  8
0
 10
5.709828
 20
6.742147
 42
0.156512
  0
VERTEX
  8
0
 10
5.694007
 20
6.731983
 42
-0.130512
  0
VERTEX
  8
0
 10
5.686506
 20
6.704236
 42
-0.199208
  0
VERTEX
  8
0
 10
5.670478
 20
6.693207
 42
-0.096224
  0
VERTEX
  8
0
 10
5.648797
 20
6.693315
 42
-0.023821
  0
VERTEX
  8
0
 10
5.624338
 20
6.698979
 42
0.023809
  0
VERTEX
  8
0
 10
5.600059
 20
6.704604
 42
0.09745
  0
VERTEX
  8
0
 10
5.578722
 20
6.704679
 42
-0.240939
  0
VERTEX
  8
0
 10
5.558337
 20
6.719153
 42
-0.08225
  0
VERTEX
  8
0
 10
5.552276
 20
6.743246
 42
0.035628
  0
VERTEX
  8
0
 10
5.548913
 20
6.760831
 42
0.117527
  0
VERTEX
  8
0
 10
5.540801
 20
6.775975
 42
-0.09871
  0
VERTEX
  8
0
 10
5.516112
 20
6.776719
 42
-0.031965
  0
VERTEX
  8
0
 10
5.492257
 20
6.783887
 42
0.070574
  0
VERTEX
  8
0
 10
5.458816
 20
6.792187
 42
0.199222
  0
VERTEX
  8
0
 10
5.425517
 20
6.780524
 42
0.039007
  0
VERTEX
  8
0
 10
5.413003
 20
6.793607
 42
0.078251
  0
VERTEX
  8
0
 10
5.398212
 20
6.803278
 42
0.149839
  0
VERTEX
  8
0
 10
5.375403
 20
6.790226
 42
0.067244
  0
VERTEX
  8
0
 10
5.362961
 20
6.770583
 42
-0.02461
  0
VERTEX
  8
0
 10
5.355061
 20
6.756475
 42
-0.061878
  0
VERTEX
  8
0
 10
5.343604
 20
6.742601
 42
0.044927
  0
VERTEX
  8
0
 10
5.331348
 20
6.742547
 42
-0.052609
  0
VERTEX
  8
0
 10
5.317302
 20
6.742642
 42
-0.185612
  0
VERTEX
  8
0
 10
5.305682
 20
6.748669
 42
0.040748
  0
VERTEX
  8
0
 10
5.320282
 20
6.803278
 42
0.058253
  0
VERTEX
  8
0
 10
5.322368
 20
6.862437
 42
-0.006929
  0
VERTEX
  8
0
 10
5.3174
 20
6.880488
 42
0.061871
  0
VERTEX
  8
0
 10
5.296494
 20
6.939366
 42
0.260327
  0
VERTEX
  8
0
 10
5.251075
 20
6.971656
 42
-0.165929
  0
VERTEX
  8
0
 10
4.797524
 20
6.841201
 42
-0.011754
  0
VERTEX
  8
0
 10
4.807253
 20
6.877712
 42
0.040628
  0
VERTEX
  8
0
 10
4.825724
 20
6.959292
 42
0.094842
  0
VERTEX
  8
0
 10
4.824045
 20
6.991553
 42
0.251359
  0
VERTEX
  8
0
 10
4.808142
 20
7.009579
 42
-0.064171
  0
VERTEX
  8
0
 10
4.799139
 20
6.929919
 42
-0.022771
  0
VERTEX
  8
0
 10
4.776895
 20
6.8554
 42
0.001716
  0
VERTEX
  8
0
 10
4.770219
 20
6.835133
 42
-0.103661
  0
VERTEX
  8
0
 10
4.751143
 20
6.835095
 42
-0.039121
  0
VERTEX
  8
0
 10
4.734035
 20
6.840315
 42
0.046083
  0
VERTEX
  8
0
 10
4.715611
 20
6.845753
 42
-0.029489
  0
VERTEX
  8
0
 10
4.705781
 20
6.83204
 42
0.035997
  0
VERTEX
  8
0
 10
4.694416
 20
6.815866
 42
0.111756
  0
VERTEX
  8
0
 10
4.688307
 20
6.79721
 42
0.072235
  0
VERTEX
  8
0
 10
4.643156
 20
6.809701
 42
0.026248
  0
VERTEX
  8
0
 10
4.598103
 20
6.812721
 42
-0.020386
  0
VERTEX
  8
0
 10
4.556834
 20
6.815179
 42
-0.054718
  0
VERTEX
  8
0
 10
4.513864
 20
6.824515
 42
-0.144371
  0
VERTEX
  8
0
 10
4.417708
 20
6.8239
 42
-0.056096
  0
VERTEX
  8
0
 10
4.335867
 20
6.860763
 42
0.058135
  0
VERTEX
  8
0
 10
4.24689
 20
6.900361
  0
VERTEX
  8
0
 10
4.224137
 20
6.879124
  0
VERTEX
  8
0
 10
4.202901
 20
6.89581
 42
0.028355
  0
VERTEX
  8
0
 10
4.233997
 20
6.9891
 42
0.068959
  0
VERTEX
  8
0
 10
4.24689
 20
7.086942
  0
VERTEX
  8
0
 10
4.240824
 20
7.086942
 42
-0.068937
  0
VERTEX
  8
0
 10
4.214794
 20
7.02583
 42
-0.015375
  0
VERTEX
  8
0
 10
4.181864
 20
6.971083
 42
0.008184
  0
VERTEX
  8
0
 10
4.175597
 20
6.961037
 42
0.025068
  0
VERTEX
  8
0
 10
4.129311
 20
6.954244
 42
-0.03744
  0
VERTEX
  8
0
 10
4.081315
 20
6.947898
 42
-0.093286
  0
VERTEX
  8
0
 10
4.030279
 20
6.955519
  0
VERTEX
  8
0
 10
4.043628
 20
7.036882
 42
-0.125825
  0
VERTEX
  8
0
 10
3.903125
 20
6.842339
 42
-0.179155
  0
VERTEX
  8
0
 10
3.688675
 20
6.759289
 42
-0.143492
  0
VERTEX
  8
0
 10
3.531676
 20
6.806502
 42
-0.108049
  0
VERTEX
  8
0
 10
3.415635
 20
6.927665
 42
-0.152925
  0
VERTEX
  8
0
 10
3.368231
 20
7.170941
 42
-0.11686
  0
VERTEX
  8
0
 10
3.455072
 20
7.403976
 42
-0.220174
  0
VERTEX
  8
0
 10
3.74935
 20
7.567803
 42
-0.116029
  0
VERTEX
  8
0
 10
3.915071
 20
7.506368
 42
-0.134693
  0
VERTEX
  8
0
 10
4.028458
 20
7.381224
 42
-0.103812
  0
VERTEX
  8
0
 10
4.03323
 20
7.386915
 42
-0.225661
  0
VERTEX
  8
0
 10
4.037351
 20
7.387818
 42
-0.127432
  0
VERTEX
  8
0
 10
4.041041
 20
7.385525
 42
-0.029354
  0
VERTEX
  8
0
 10
4.04452
 20
7.381629
 42
0.028027
  0
VERTEX
  8
0
 10
4.047939
 20
7.377789
 42
0.119167
  0
VERTEX
  8
0
 10
4.051572
 20
7.375441
 42
0.220993
  0
VERTEX
  8
0
 10
4.055628
 20
7.376085
 42
0.110259
  0
VERTEX
  8
0
 10
4.060314
 20
7.381224
 42
0.108256
  0
VERTEX
  8
0
 10
4.07134
 20
7.370554
 42
0.043349
  0
VERTEX
  8
0
 10
4.083769
 20
7.364563
 42
-0.032023
  0
VERTEX
  8
0
 10
4.093685
 20
7.359985
 42
-0.26818
  0
VERTEX
  8
0
 10
4.113238
 20
7.366376
 42
-0.05814
  0
VERTEX
  8
0
 10
4.137768
 20
7.358798
 42
0.044559
  0
VERTEX
  8
0
 10
4.160388
 20
7.351422
 42
0.192668
  0
VERTEX
  8
0
 10
4.180147
 20
7.353918
 42
0.268442
  0
VERTEX
  8
0
 10
4.180035
 20
7.408346
 42
0.074118
  0
VERTEX
  8
0
 10
4.140321
 20
7.454165
 42
-0.019831
  0
VERTEX
  8
0
 10
4.114921
 20
7.479822
 42
-0.051787
  0
VERTEX
  8
0
 10
4.380217
 20
7.419009
 42
0.041558
  0
VERTEX
  8
0
 10
4.623081
 20
7.359985
 42
-0.0558
  0
VERTEX
  8
0
 10
4.660664
 20
7.336048
 42
-0.016791
  0
VERTEX
  8
0
 10
4.69585
 20
7.305911
 42
0.013319
  0
VERTEX
  8
0
 10
4.724975
 20
7.280708
 42
0.048831
  0
VERTEX
  8
0
 10
4.753533
 20
7.261386
 42
0.144839
  0
VERTEX
  8
0
 10
4.742282
 20
7.290058
 42
0.050206
  0
VERTEX
  8
0
 10
4.720305
 20
7.312107
 42
-0.031864
  0
VERTEX
  8
0
 10
4.698925
 20
7.332681
 42
-0.128198
  0
VERTEX
  8
0
 10
4.773632
 20
7.317891
 42
-0.043969
  0
VERTEX
  8
0
 10
4.841513
 20
7.278072
  0
VERTEX
  8
0
 10
4.770219
 20
7.278072
 42
0.173083
  0
VERTEX
  8
0
 10
4.774755
 20
7.248567
 42
0.058708
  0
VERTEX
  8
0
 10
4.792244
 20
7.224856
 42
-0.037175
  0
VERTEX
  8
0
 10
4.806609
 20
7.206492
 42
-0.121362
  0
VERTEX
  8
0
 10
4.81421
 20
7.18554
 42
-0.037504
  0
VERTEX
  8
0
 10
4.871661
 20
7.174353
 42
-0.129659
  0
VERTEX
  8
0
 10
4.923425
 20
7.1461
 42
-0.14321
  0
VERTEX
  8
0
 10
4.984291
 20
7.021904
 42
-0.106961
  0
VERTEX
  8
0
 10
4.978035
 20
6.885192
 42
0.119702
  0
VERTEX
  8
0
 10
4.983251
 20
6.880208
 42
0.156603
  0
VERTEX
  8
0
 10
4.988506
 20
6.879266
 42
0.085947
  0
VERTEX
  8
0
 10
4.993842
 20
6.881053
 42
0.023028
  0
VERTEX
  8
0
 10
4.999297
 20
6.884253
 42
-0.024556
  0
VERTEX
  8
0
 10
5.005239
 20
6.887719
 42
-0.084145
  0
VERTEX
  8
0
 10
5.011406
 20
6.889743
 42
0.025298
  0
VERTEX
  8
0
 10
5.017473
 20
6.984739
 42
0.078784
  0
VERTEX
  8
0
 10
5.005337
 20
7.076322
 42
0.249998
  0
VERTEX
  8
0
 10
4.83294
 20
7.316912
 42
0.072676
  0
VERTEX
  8
0
 10
4.535013
 20
7.404032
 42
-0.023796
  0
VERTEX
  8
0
 10
4.366725
 20
7.441899
  0
VERTEX
  8
0
 10
4.35004
 20
7.458585
  0
VERTEX
  8
0
 10
3.814576
 20
7.582972
 42
-0.024229
  0
VERTEX
  8
0
 10
3.763707
 20
7.583436
 42
0.022181
  0
VERTEX
  8
0
 10
3.697144
 20
7.583986
 42
0.078645
  0
VERTEX
  8
0
 10
3.634067
 20
7.572354
 42
0.160054
  0
VERTEX
  8
0
 10
3.469483
 20
7.458206
 42
0.080918
  0
VERTEX
  8
0
 10
3.373161
 20
7.278072
 42
0.043032
  0
VERTEX
  8
0
 10
2.870995
 20
7.262931
 42
0.01477
  0
VERTEX
  8
0
 10
2.37776
 20
7.189806
 42
-0.002113
  0
VERTEX
  8
0
 10
2.18695
 20
7.158236
 42
0.112892
  0
VERTEX
  8
0
 10
2.077733
 20
7.190092
 42
0.098094
  0
VERTEX
  8
0
 10
1.984588
 20
7.182845
 42
0.035073
  0
VERTEX
  8
0
 10
1.900397
 20
7.151993
 42
-0.022913
  0
VERTEX
  8
0
 10
1.834881
 20
7.126742
 42
-0.070022
  0
VERTEX
  8
0
 10
1.766771
 20
7.114246
 42
-0.228955
  0
VERTEX
  8
0
 10
1.670413
 20
7.076712
 42
-0.07637
  0
VERTEX
  8
0
 10
1.571139
 20
7.10568
 42
0.021222
  0
VERTEX
  8
0
 10
1.516515
 20
7.125853
 42
0.070362
  0
VERTEX
  8
0
 10
1.461875
 20
7.135483
 42
-0.020442
  0
VERTEX
  8
0
 10
1.21772
 20
7.099022
 42
0.00726
  0
VERTEX
  8
0
 10
1.079617
 20
7.080874
  0
VERTEX
  8
0
 10
1.07355
 20
7.032332
 42
-0.030093
  0
VERTEX
  8
0
 10
1.144465
 20
6.987394
 42
-0.040224
  0
VERTEX
  8
0
 10
1.226757
 20
6.923114
  0
VERTEX
  8
0
 10
1.111472
 20
6.687993
 42
-0.014963
  0
VERTEX
  8
0
 10
0.950335
 20
6.687347
  0
VERTEX
  8
0
 10
0.892718
 20
6.668883
  0
VERTEX
  8
0
 10
0.892718
 20
6.538453
  0
VERTEX
  8
0
 10
1.052314
 20
6.534785
 42
0.000949
  0
VERTEX
  8
0
 10
0.882422
 20
5.507835
 42
0.138484
  0
VERTEX
  8
0
 10
0.840188
 20
5.503304
 42
0.185304
  0
VERTEX
  8
0
 10
0.81897
 20
5.48117
 42
0.08765
  0
VERTEX
  8
0
 10
0.811758
 20
5.447502
 42
0.022391
  0
VERTEX
  8
0
 10
0.811542
 20
5.408369
 42
-0.018058
  0
VERTEX
  8
0
 10
0.81155
 20
5.373796
 42
-0.070584
  0
VERTEX
  8
0
 10
0.806576
 20
5.344008
  0
VERTEX
  8
0
 10
0.821747
 20
5.33339
 42
0.037133
  0
VERTEX
  8
0
 10
0.95527
 20
5.328288
 42
-0.013876
  0
VERTEX
  8
0
 10
1.044932
 20
5.327497
 42
-0.042102
  0
VERTEX
  8
0
 10
1.134226
 20
5.316703
 42
0.117585
  0
VERTEX
  8
0
 10
1.081325
 20
5.238771
 42
0.174677
  0
VERTEX
  8
0
 10
1.079617
 20
5.148326
  0
VERTEX
  8
0
 10
1.352658
 20
5.148326
  0
VERTEX
  8
0
 10
1.352658
 20
5.142258
 42
-0.052138
  0
VERTEX
  8
0
 10
1.277495
 20
5.125727
 42
-0.018544
  0
VERTEX
  8
0
 10
1.203005
 20
5.120337
 42
0.018114
  0
VERTEX
  8
0
 10
1.128158
 20
5.114953
  0
VERTEX
  8
0
 10
1.128158
 20
4.847976
 42
0.108698
  0
VERTEX
  8
0
 10
1.128158
 20
4.74331
  0
VERTEX
  8
0
 10
1.275297
 20
4.755444
 42
-0.131459
  0
VERTEX
  8
0
 10
1.289431
 20
4.728208
 42
-0.040774
  0
VERTEX
  8
0
 10
1.293672
 20
4.696557
 42
0.020881
  0
VERTEX
  8
0
 10
1.296215
 20
4.67302
 42
0.065924
  0
VERTEX
  8
0
 10
1.302601
 20
4.650778
 42
0.092043
  0
VERTEX
  8
0
 10
1.394943
 20
4.477471
 42
0.208904
  0
VERTEX
  8
0
 10
1.554406
 20
4.383801
 42
0.075754
  0
VERTEX
  8
0
 10
1.660369
 20
4.386919
 42
0.027322
  0
VERTEX
  8
0
 10
1.759469
 20
4.411297
 42
-0.028901
  0
VERTEX
  8
0
 10
1.862611
 20
4.436421
 42
-0.078224
  0
VERTEX
  8
0
 10
1.974585
 20
4.43841
  0
VERTEX
  8
0
 10
2.073183
 20
4.295819
 42
0.115591
  0
VERTEX
  8
0
 10
2.175007
 20
4.251823
 42
0.052238
  0
VERTEX
  8
0
 10
2.301222
 20
4.240285
 42
0.036512
  0
VERTEX
  8
0
 10
2.517271
 20
4.259786
 42
-0.01338
  0
VERTEX
  8
0
 10
2.547971
 20
4.263965
 42
-0.013881
  0
VERTEX
  8
0
 10
2.63565
 20
4.274004
 42
0.015458
  0
VERTEX
  8
0
 10
2.727699
 20
4.284735
 42
0.049219
  0
VERTEX
  8
0
 10
2.814944
 20
4.306439
 42
0.166141
  0
VERTEX
  8
0
 10
2.92397
 20
4.423999
 42
0.077033
  0
VERTEX
  8
0
 10
2.963599
 20
4.568864
 42
-0.004233
  0
VERTEX
  8
0
 10
2.717862
 20
4.558246
  0
VERTEX
  8
0
 10
2.717862
 20
4.558246
 42
-0.157227
  0
VERTEX
  8
0
 10
2.702365
 20
4.55858
 42
-0.142261
  0
VERTEX
  8
0
 10
2.689336
 20
4.568008
 42
-0.108108
  0
VERTEX
  8
0
 10
2.678424
 20
4.591618
 42
-0.049162
  0
VERTEX
  8
0
 10
2.672835
 20
4.704751
 42
-0.012906
  0
VERTEX
  8
0
 10
2.68144
 20
4.832445
 42
0.02573
  0
VERTEX
  8
0
 10
2.690558
 20
5.011803
  0
VERTEX
  8
0
 10
2.70891
 20
5.012071
 42
-0.04128
  0
VERTEX
  8
0
 10
2.71245
 20
4.903606
 42
-0.01331
  0
VERTEX
  8
0
 10
2.703964
 20
4.792541
 42
0.036571
  0
VERTEX
  8
0
 10
2.69511
 20
4.591618
 42
0.082452
  0
VERTEX
  8
0
 10
2.745167
 20
4.586072
 42
0.018109
  0
VERTEX
  8
0
 10
2.849833
 20
4.587068
 42
0.028625
  0
VERTEX
  8
0
 10
2.957912
 20
4.597164
 42
0.154194
  0
VERTEX
  8
0
 10
3.018208
 20
4.618922
 42
0.049453
  0
VERTEX
  8
0
 10
3.022522
 20
4.727315
 42
-0.028506
  0
VERTEX
  8
0
 10
3.02315
 20
4.797317
 42
-0.099596
  0
VERTEX
  8
0
 10
3.039443
 20
4.858594
  0
VERTEX
  8
0
 10
3.394397
 20
4.837358
 42
-0.007408
  0
VERTEX
  8
0
 10
3.400595
 20
4.74208
 42
0.023269
  0
VERTEX
  8
0
 10
3.415635
 20
4.568864
 42
0.116686
  0
VERTEX
  8
0
 10
3.566564
 20
4.538526
 42
0.050667
  0
VERTEX
  8
0
 10
3.722046
 20
4.558246
 42
0.107119
  0
VERTEX
  8
0
 10
3.748277
 20
4.568326
 42
0.12499
  0
VERTEX
  8
0
 10
3.76284
 20
4.58505
 42
0.092672
  0
VERTEX
  8
0
 10
3.772662
 20
4.631101
 42
-0.02738
  0
VERTEX
  8
0
 10
3.776654
 20
4.661396
  0
VERTEX
  8
0
 10
4.131607
 20
4.634092
  0
VERTEX
  8
0
 10
4.137675
 20
4.596169
 42
-0.001741
  0
VERTEX
  8
0
 10
4.721679
 20
4.541561
 42
-0.000007
  0
VERTEX
  8
0
 10
4.721679
 20
4.541561
 42
0.046918
  0
VERTEX
  8
0
 10
4.900764
 20
4.591676
 42
0.015808
  0
VERTEX
  8
0
 10
5.071098
 20
4.663481
 42
-0.002778
  0
VERTEX
  8
0
 10
5.141857
 20
4.694768
  0
VERTEX
  8
0
 10
5.152476
 20
4.68415
 42
0.015421
  0
VERTEX
  8
0
 10
5.146408
 20
4.521461
 42
0.045862
  0
VERTEX
  8
0
 10
5.158543
 20
4.361047
 42
0.007996
  0
VERTEX
  8
0
 10
5.305719
 20
4.350251
 42
0.08361
  0
VERTEX
  8
0
 10
5.435045
 20
3.995393
 42
0.125826
  0
VERTEX
  8
0
 10
5.698557
 20
3.722428
 42
0.145633
  0
VERTEX
  8
0
 10
5.965152
 20
3.649047
 42
0.128891
  0
VERTEX
  8
0
 10
6.234021
 20
3.717876
 42
0.250886
  0
VERTEX
  8
0
 10
6.595042
 20
4.224525
  0
VERTEX
  8
0
 10
6.595042
 20
4.247279
 42
0.050774
  0
VERTEX
  8
0
 10
6.791289
 20
4.158919
 42
0.165333
  0
VERTEX
  8
0
 10
7.004603
 20
4.159299
 42
0.115153
  0
VERTEX
  8
0
 10
7.286745
 20
4.322746
 42
0.178516
  0
VERTEX
  8
0
 10
7.441468
 20
4.606787
  0
VERTEX
  8
0
 10
7.620461
 20
4.711456
  0
VERTEX
  8
0
 10
7.632596
 20
4.940508
  0
SEQEND
  8
0
  0
POLYLINE
  8
0
 66
1
 70
1
  0
VERTEX
  8
0
 10
4.098235
 20
7.458585
 42
-0.157744
  0
VERTEX
  8
0
 10
4.071336
 20
7.452526
 42
-0.066159
  0
VERTEX
  8
0
 10
4.047495
 20
7.459128
 42
0.071038
  0
VERTEX
  8
0
 10
4.021064
 20
7.466201
 42
0.151408
  0
VERTEX
  8
0
 10
3.989019
 20
7.458585
  0
VERTEX
  8
0
 10
3.923793
 20
7.523813
 42
-0.139423
  0
SEQEND
  8
0
  0
POLYLINE
  8
0
 66
1
  0
VERTEX
  8
0
 10
7.503865
 20
5.541028
  0
VERTEX
  8
0
 10
7.507707
 20
5.208783
 42
-0.128999
  0
VERTEX
  8
0
 10
7.465217
 20
5.182516
 42
-0.051158
  0
VERTEX
  8
0
 10
7.441458
 20
5.177117
  0
VERTEX
  8
0
 10
7.439536
 20
5.516051
 42
-0.185372
  0
VERTEX
  8
0
 10
7.503865
 20
5.541028
  0
SEQEND
  8
0
  0
POLYLINE
  8
0
 66
1
 70
1
  0
VERTEX
  8
0
 10
7.543403
 20
5.153426
 42
-0.035975
  0
VERTEX
  8
0
 10
7.573968
 20
5.084132
 42
-0.021018
  0
VERTEX
  8
0
 10
7.585383
 20
5.049291
 42
-0.091116
  0
VERTEX
  8
0
 10
7.588606
 20
5.028489
  0
VERTEX
  8
0
 10
7.320117
 20
4.896518
 42
0.024819
  0
VERTEX
  8
0
 10
6.851397
 20
4.864662
 42
-0.069162
  0
VERTEX
  8
0
 10
6.937112
 20
4.905276
 42
-0.17805
  0
VERTEX
  8
0
 10
7.047076
 20
4.902586
 42
0.022464
  0
VERTEX
  8
0
 10
7.442269
 20
5.100379
 42
-0.009886
  0
SEQEND
  8
0
  0
POLYLINE
  8
0
 66
1
 70
1
  0
VERTEX
  8
0
 10
6.972083
 20
5.11485
 42
0.000109
  0
VERTEX
  8
0
 10
6.970729
 20
5.109414
 42
-0.036041
  0
VERTEX
  8
0
 10
6.948421
 20
5.034231
 42
-0.100374
  0
VERTEX
  8
0
 10
6.908154
 20
4.973187
  0
VERTEX
  8
0
 10
6.838135
 20
4.973187
 42
0.000183
  0
VERTEX
  8
0
 10
6.837235
 20
4.974542
 42
-0.04384
  0
VERTEX
  8
0
 10
6.826041
 20
4.993658
 42
-0.106749
  0
VERTEX
  8
0
 10
6.821392
 20
5.016474
  0
VERTEX
  8
0
 10
6.821392
 20
5.205358
 42
-0.141942
  0
VERTEX
  8
0
 10
6.85414
 20
5.251633
 42
-0.064868
  0
VERTEX
  8
0
 10
6.897933
 20
5.275089
 42
0.064027
  0
VERTEX
  8
0
 10
6.950774
 20
5.303735
  0
VERTEX
  8
0
 10
6.972083
 20
5.260449
  0
SEQEND
  8
0
  0
POLYLINE
  8
0
 66
1
 70
1
  0
VERTEX
  8
0
 10
7.277643
 20
6.01145
 42
0.027777
  0
VERTEX
  8
0
 10
7.32127
 20
5.978386
 42
-0.026198
  0
VERTEX
  8
0
 10
7.364054
 20
5.946093
 42
-0.084992
  0
VERTEX
  8
0
 10
7.397478
 20
5.906782
 42
-0.009508
  0
VERTEX
  8
0
 10
7.418714
 20
5.121021
 42
0.013092
  0
VERTEX
  8
0
 10
7.271171
 20
5.050361
 42
-0.026
  0
VERTEX
  8
0
 10
7.060185
 20
4.953704
 42
-0.028903
  0
VERTEX
  8
0
 10
7.059896
 20
5.081597
 42
-0.013125
  0
VERTEX
  8
0
 10
7.064418
 20
5.162688
 42
-0.02305
  0
VERTEX
  8
0
 10
7.06775
 20
5.1891
 42
-0.213659
  0
VERTEX
  8
0
 10
7.07176
 20
5.199074
 42
0.133085
  0
VERTEX
  8
0
 10
7.070313
 20
5.182436
 42
0.012491
  0
VERTEX
  8
0
 10
7.072339
 20
5.139467
 42
0.017031
  0
VERTEX
  8
0
 10
7.083333
 20
5.030093
 42
0.039367
  0
VERTEX
  8
0
 10
7.395833
 20
5.152778
 42
-0.009193
  0
VERTEX
  8
0
 10
7.387372
 20
5.68753
 42
0.000635
  0
VERTEX
  8
0
 10
7.386675
 20
5.841126
  0
VERTEX
  8
0
 10
7.375101
 20
5.865432
 42
0.005373
  0
VERTEX
  8
0
 10
7.182199
 20
5.834891
 42
0.027474
  0
VERTEX
  8
0
 10
7.041667
 20
5.805556
 42
-0.076769
  0
VERTEX
  8
0
 10
7.238204
 20
5.994764
 42
-0.18572
  0
VERTEX
  8
0
 10
7.246643
 20
5.99994
 42
-0.060308
  0
VERTEX
  8
0
 10
7.256637
 20
6.000344
 42
0.095835
  0
VERTEX
  8
0
 10
7.268733
 20
6.001372
 42
0.120052
  0
VERTEX
  8
0
 10
7.273779
 20
6.004714
 42
0.10258
  0
SEQEND
  8
0
  0
POLYLINE
  8
0
 66
1
 70
1
  0
VERTEX
  8
0
 10
7.223035
 20
6.016
 42
0.066412
  0
VERTEX
  8
0
 10
7.146784
 20
5.967758
 42
0.022024
  0
VERTEX
  8
0
 10
7.079589
 20
5.906126
 42
-0.021802
  0
VERTEX
  8
0
 10
7.009154
 20
5.841556
 42
-0.01102
  0
VERTEX
  8
0
 10
7.023583
 20
5.381497
 42
0.010012
  0
VERTEX
  8
0
 10
7.036458
 20
4.951128
 42
-0.176467
  0
VERTEX
  8
0
 10
7.016359
 20
4.948473
 42
-0.23324
  0
VERTEX
  8
0
 10
6.998535
 20
4.961746
 42
0.045241
  0
VERTEX
  8
0
 10
7.00743
 20
5.284942
 42
-0.005135
  0
VERTEX
  8
0
 10
7.004603
 20
5.404685
  0
VERTEX
  8
0
 10
6.992468
 20
5.421371
 42
0.024687
  0
VERTEX
  8
0
 10
6.989422
 20
5.613491
 42
-0.011043
  0
VERTEX
  8
0
 10
6.98517
 20
5.739505
 42
-0.040831
  0
VERTEX
  8
0
 10
6.992468
 20
5.852174
 42
-0.067655
  0
VERTEX
  8
0
 10
7.189664
 20
6.016
  0
SEQEND
  8
0
  0
POLYLINE
  8
0
 66
1
 70
1
  0
VERTEX
  8
0
 10
4.721679
 20
6.807829
 42
0.033558
  0
VERTEX
  8
0
 10
4.966277
 20
6.830204
 42
0.073411
  0
VERTEX
  8
0
 10
5.190399
 20
6.900361
 42
0.031785
  0
VERTEX
  8
0
 10
5.18964
 20
6.848975
 42
0.080406
  0
VERTEX
  8
0
 10
5.202533
 20
6.780524
 42
-0.16256
  0
VERTEX
  8
0
 10
5.191101
 20
6.777927
 42
-0.158248
  0
VERTEX
  8
0
 10
5.182137
 20
6.78262
 42
-0.066443
  0
VERTEX
  8
0
 10
5.174718
 20
6.79237
 42
-0.016654
  0
VERTEX
  8
0
 10
5.167919
 20
6.804944
 42
0.025544
  0
VERTEX
  8
0
 10
5.15865
 20
6.821596
 42
0.094374
  0
VERTEX
  8
0
 10
5.146946
 20
6.834539
 42
0.176395
  0
VERTEX
  8
0
 10
5.13087
 20
6.839095
 42
0.125357
  0
VERTEX
  8
0
 10
5.108486
 20
6.830583
  0
VERTEX
  8
0
 10
5.081182
 20
6.79721
 42
0.047291
  0
VERTEX
  8
0
 10
4.8396
 20
6.796812
 42
-0.012659
  0
VERTEX
  8
0
 10
4.721679
 20
6.791143
  0
SEQEND
  8
0
  0
POLYLINE
  8
0
 66
1
 70
1
  0
VERTEX
  8
0
 10
4.541168
 20
6.731983
 42
-0.05591
  0
VERTEX
  8
0
 10
5.164232
 20
6.734069
 42
-0.018915
  0
VERTEX
  8
0
 10
5.775919
 20
6.644003
 42
-0.049685
  0
VERTEX
  8
0
 10
5.830148
 20
6.626369
 42
-0.149062
  0
VERTEX
  8
0
 10
5.873
 20
6.589394
  0
VERTEX
  8
0
 10
5.841146
 20
6.557537
 42
0.011988
  0
VERTEX
  8
0
 10
5.898683
 20
6.410432
 42
-0.039961
  0
VERTEX
  8
0
 10
5.994351
 20
6.135838
 42
-0.285117
  0
VERTEX
  8
0
 10
5.972343
 20
6.147495
 42
-0.071116
  0
VERTEX
  8
0
 10
5.962364
 20
6.17095
 42
0.004321
  0
VERTEX
  8
0
 10
5.960981
 20
6.175275
 42
0.017812
  0
VERTEX
  8
0
 10
5.910598
 20
6.315677
 42
-0.035292
  0
VERTEX
  8
0
 10
5.841449
 20
6.524717
 42
0.080191
  0
VERTEX
  8
0
 10
5.718439
 20
6.563498
 42
0.024597
  0
VERTEX
  8
0
 10
5.584364
 20
6.576768
 42
-0.001786
  0
VERTEX
  8
0
 10
5.547171
 20
6.579325
  0
VERTEX
  8
0
 10
5.189185
 20
6.585392
 42
0.059
  0
VERTEX
  8
0
 10
5.137269
 20
6.564639
 42
0.12555
  0
VERTEX
  8
0
 10
5.097868
 20
6.530233
 42
0.071553
  0
VERTEX
  8
0
 10
5.096939
 20
6.480161
 42
0.022814
  0
VERTEX
  8
0
 10
5.105468
 20
6.430058
 42
-0.0147
  0
VERTEX
  8
0
 10
5.112488
 20
6.3914
 42
-0.048646
  0
VERTEX
  8
0
 10
5.114553
 20
6.354272
  0
VERTEX
  8
0
 10
5.120621
 20
6.349721
 42
-0.012286
  0
VERTEX
  8
0
 10
5.152109
 20
6.249504
 42
0.028834
  0
VERTEX
  8
0
 10
5.207085
 20
6.087294
 42
0.201339
  0
VERTEX
  8
0
 10
5.212941
 20
6.053169
 42
0.063988
  0
VERTEX
  8
0
 10
5.236237
 20
6.026621
 42
-0.022008
  0
VERTEX
  8
0
 10
5.251075
 20
6.01145
 42
0.099274
  0
VERTEX
  8
0
 10
5.312986
 20
6.016931
 42
0.028653
  0
VERTEX
  8
0
 10
5.376334
 20
6.039173
 42
-0.045835
  0
VERTEX
  8
0
 10
5.458887
 20
6.066058
 42
-0.051138
  0
VERTEX
  8
0
 10
5.903222
 20
6.103249
 42
-0.017817
  0
VERTEX
  8
0
 10
6.341238
 20
6.078389
 42
0.013218
  0
VERTEX
  8
0
 10
6.731562
 20
6.053924
 42
0.04384
  0
VERTEX
  8
0
 10
6.960351
 20
6.033758
 42
-0.025634
  0
VERTEX
  8
0
 10
7.141122
 20
6.022068
 42
0.094865
  0
VERTEX
  8
0
 10
6.954546
 20
5.847622
 42
-0.002347
  0
VERTEX
  8
0
 10
6.962699
 20
5.656112
 42
-0.026175
  0
VERTEX
  8
0
 10
6.965164
 20
5.453225
 42
0.044917
  0
VERTEX
  8
0
 10
6.380724
 20
5.491893
 42
-0.017269
  0
VERTEX
  8
0
 10
6.009521
 20
5.503283
 42
-0.00555
  0
VERTEX
  8
0
 10
5.850474
 20
5.479733
 42
0.018362
  0
VERTEX
  8
0
 10
5.562037
 20
5.431989
 42
0.064501
  0
VERTEX
  8
0
 10
5.459929
 20
5.32961
 42
0.024271
  0
VERTEX
  8
0
 10
5.381281
 20
5.214251
 42
-0.000072
  0
VERTEX
  8
0
 10
5.376976
 20
5.207485
 42
-0.277296
  0
VERTEX
  8
0
 10
5.213151
 20
5.438057
 42
-0.11202
  0
VERTEX
  8
0
 10
5.213989
 20
5.466208
 42
-0.1677
  0
VERTEX
  8
0
 10
5.225205
 20
5.482104
 42
-0.097364
  0
VERTEX
  8
0
 10
5.24354
 20
5.489859
 42
-0.025752
  0
VERTEX
  8
0
 10
5.265735
 20
5.493582
 42
0.081294
  0
VERTEX
  8
0
 10
5.304364
 20
5.502916
 42
0.256927
  0
VERTEX
  8
0
 10
5.326919
 20
5.535139
  0
VERTEX
  8
0
 10
5.322368
 20
5.896164
 42
0.129049
  0
VERTEX
  8
0
 10
5.217134
 20
5.928398
 42
0.079478
  0
VERTEX
  8
0
 10
5.103935
 20
5.9174
 42
-0.000572
  0
VERTEX
  8
0
 10
5.091096
 20
6.085363
 42
0.004618
  0
VERTEX
  8
0
 10
5.049328
 20
6.595461
 42
-0.151839
  0
VERTEX
  8
0
 10
5.048394
 20
6.602711
 42
-0.159819
  0
VERTEX
  8
0
 10
5.051451
 20
6.607711
 42
-0.074821
  0
VERTEX
  8
0
 10
5.056962
 20
6.611137
 42
-0.020879
  0
VERTEX
  8
0
 10
5.063392
 20
6.613665
 42
0.009632
  0
VERTEX
  8
0
 10
5.067314
 20
6.615137
 42
0.03769
  0
VERTEX
  8
0
 10
5.070564
 20
6.616697
 42
0.000043
  0
VERTEX
  8
0
 10
5.093822
 20
6.616833
 42
-0.049195
  0
VERTEX
  8
0
 10
5.845696
 20
6.572708
 42
-0.04249
  0
VERTEX
  8
0
 10
5.852275
 20
6.579225
 42
0.05288
  0
VERTEX
  8
0
 10
5.859242
 20
6.586302
 42
0.165247
  0
VERTEX
  8
0
 10
5.862382
 20
6.595461
  0
VERTEX
  8
0
 10
5.82446
 20
6.612147
 42
0.053672
  0
VERTEX
  8
0
 10
4.804006
 20
6.630057
 42
-0.010602
  0
VERTEX
  8
0
 10
4.366725
 20
6.612147
 42
0.172891
  0
VERTEX
  8
0
 10
4.339062
 20
6.622677
 42
0.055342
  0
VERTEX
  8
0
 10
4.309324
 20
6.619609
 42
-0.043612
  0
VERTEX
  8
0
 10
4.284263
 20
6.616607
 42
-0.154189
  0
VERTEX
  8
0
 10
4.26206
 20
6.622765
 42
-0.18279
  0
VERTEX
  8
0
 10
4.337777
 20
6.687426
 42
-0.057654
  0
VERTEX
  8
0
 10
4.437832
 20
6.709075
 42
0.014788
  0
VERTEX
  8
0
 10
4.491137
 20
6.717556
 42
0.047702
  0
SEQEND
  8
0
  0
POLYLINE
  8
0
 66
1
 70
1
  0
VERTEX
  8
0
 10
5.807775
 20
6.21775
 42
0.003399
  0
VERTEX
  8
0
 10
5.791177
 20
6.214529
 42
-0.037707
  0
VERTEX
  8
0
 10
5.748335
 20
6.208141
 42
-0.069904
  0
VERTEX
  8
0
 10
5.698557
 20
6.213199
 42
-0.02127
  0
VERTEX
  8
0
 10
5.681131
 20
6.350957
 42
0.007385
  0
VERTEX
  8
0
 10
5.671253
 20
6.442253
  0
VERTEX
  8
0
 10
5.748615
 20
6.448321
  0
SEQEND
  8
0
  0
POLYLINE
  8
0
 66
1
 70
1
  0
VERTEX
  8
0
 10
5.633331
 20
6.207132
  0
VERTEX
  8
0
 10
5.366358
 20
6.185894
 42
-0.079837
  0
VERTEX
  8
0
 10
5.326919
 20
6.404331
  0
VERTEX
  8
0
 10
5.404281
 20
6.425567
 42
-0.002533
  0
VERTEX
  8
0
 10
5.515721
 20
6.433906
 42
0.002538
  0
VERTEX
  8
0
 10
5.627264
 20
6.442253
 42
0.040397
  0
VERTEX
  8
0
 10
5.630598
 20
6.327867
 42
-0.045191
  0
SEQEND
  8
0
  0
POLYLINE
  8
0
 66
1
 70
1
  0
VERTEX
  8
0
 10
5.125172
 20
5.289399
 42
-0.038069
  0
VERTEX
  8
0
 10
5.120466
 20
5.420996
 42
0.010432
  0
VERTEX
  8
0
 10
5.120621
 20
5.480529
  0
VERTEX
  8
0
 10
5.141857
 20
5.480529
 42
0.055901
  0
VERTEX
  8
0
 10
5.137687
 20
5.383826
 42
0.096474
  0
VERTEX
  8
0
 10
5.163094
 20
5.289399
  0
VERTEX
  8
0
 10
5.27231
 20
5.169562
 42
0.039263
  0
VERTEX
  8
0
 10
5.249589
 20
5.170176
 42
0.010851
  0
VERTEX
  8
0
 10
5.224696
 20
5.16847
 42
-0.023249
  0
VERTEX
  8
0
 10
5.189393
 20
5.16661
 42
-0.101898
  0
VERTEX
  8
0
 10
5.160526
 20
5.17167
 42
-0.237381
  0
VERTEX
  8
0
 10
5.144551
 20
5.190572
 42
-0.131844
  0
VERTEX
  8
0
 10
5.147925
 20
5.230239
 42
0.277423
  0
VERTEX
  8
0
 10
5.150118
 20
5.248046
 42
0.072998
  0
VERTEX
  8
0
 10
5.138727
 20
5.264879
 42
-0.032441
  0
VERTEX
  8
0
 10
5.12978
 20
5.276799
 42
-0.121343
  0
SEQEND
  8
0
  0
POLYLINE
  8
0
 66
1
 70
1
  0
VERTEX
  8
0
 10
5.04326
 20
5.86886
 42
-0.130239
  0
VERTEX
  8
0
 10
5.161577
 20
5.900336
 42
-0.110334
  0
VERTEX
  8
0
 10
5.284446
 20
5.879478
 42
-0.053856
  0
VERTEX
  8
0
 10
5.207525
 20
5.869058
 42
-0.016118
  0
VERTEX
  8
0
 10
5.126566
 20
5.869156
 42
0.020378
  0
SEQEND
  8
0
  0
POLYLINE
  8
0
 66
1
 70
1
  0
VERTEX
  8
0
 10
4.230204
 20
6.572708
 42
-0.113296
  0
VERTEX
  8
0
 10
4.257627
 20
6.590982
 42
-0.06642
  0
VERTEX
  8
0
 10
4.292587
 20
6.599443
 42
-0.085564
  0
VERTEX
  8
0
 10
4.360658
 20
6.595461
 42
0.018353
  0
VERTEX
  8
0
 10
4.898552
 20
6.58936
 42
-0.001975
  0
VERTEX
  8
0
 10
4.981452
 20
6.590272
 42
-0.048019
  0
VERTEX
  8
0
 10
5.011406
 20
6.589394
 42
-0.011536
  0
VERTEX
  8
0
 10
5.070564
 20
5.91285
 42
-0.059953
  0
VERTEX
  8
0
 10
5.056378
 20
5.906217
 42
-0.018082
  0
VERTEX
  8
0
 10
5.040597
 20
5.901597
 42
0.078748
  0
VERTEX
  8
0
 10
5.010732
 20
5.890303
 42
0.237942
  0
VERTEX
  8
0
 10
4.994719
 20
5.862792
 42
-0.067276
  0
VERTEX
  8
0
 10
5.002705
 20
5.796688
 42
-0.017366
  0
VERTEX
  8
0
 10
4.999767
 20
5.720584
 42
0.057414
  0
VERTEX
  8
0
 10
5.001456
 20
5.583599
 42
0.244043
  0
VERTEX
  8
0
 10
5.066013
 20
5.486597
  0
VERTEX
  8
0
 10
5.081182
 20
5.486597
 42
-0.025861
  0
VERTEX
  8
0
 10
5.087575
 20
5.40095
 42
0.018185
  0
VERTEX
  8
0
 10
5.092716
 20
5.322739
 42
0.076043
  0
VERTEX
  8
0
 10
5.108486
 20
5.257543
 42
0.018162
  0
VERTEX
  8
0
 10
4.793274
 20
5.262588
 42
-0.04136
  0
VERTEX
  8
0
 10
4.30605
 20
5.284847
 42
-0.050456
  0
VERTEX
  8
0
 10
4.273551
 20
5.706223
 42
0.012761
  0
VERTEX
  8
0
 10
4.268126
 20
5.906782
 42
-0.112323
  0
VERTEX
  8
0
 10
4.300138
 20
5.910337
 42
-0.037346
  0
VERTEX
  8
0
 10
4.331346
 20
5.904291
 42
0.075714
  0
VERTEX
  8
0
 10
4.370388
 20
5.898576
 42
0.22337
  0
VERTEX
  8
0
 10
4.404649
 20
5.9174
 42
0.282519
  0
VERTEX
  8
0
 10
4.390154
 20
5.959769
 42
0.086067
  0
VERTEX
  8
0
 10
4.35189
 20
5.97927
 42
-0.013586
  0
VERTEX
  8
0
 10
4.339422
 20
5.984146
  0
VERTEX
  8
0
 10
4.25751
 20
5.984146
 42
0.157066
  0
VERTEX
  8
0
 10
4.272246
 20
6.022699
 42
0.049009
  0
VERTEX
  8
0
 10
4.270057
 20
6.065167
 42
-0.032507
  0
VERTEX
  8
0
 10
4.267539
 20
6.099564
 42
-0.109847
  0
VERTEX
  8
0
 10
4.274194
 20
6.131286
  0
VERTEX
  8
0
 10
4.289364
 20
6.131286
 42
0.007816
  0
VERTEX
  8
0
 10
4.289968
 20
6.101507
 42
-0.019026
  0
VERTEX
  8
0
 10
4.290229
 20
6.063661
 42
-0.076953
  0
VERTEX
  8
0
 10
4.284813
 20
6.032686
 42
-0.12715
  0
VERTEX
  8
0
 10
4.343929
 20
6.022804
 42
-0.054811
  0
VERTEX
  8
0
 10
4.389187
 20
5.99421
 42
0.033167
  0
VERTEX
  8
0
 10
4.427196
 20
5.968722
 42
0.079585
  0
VERTEX
  8
0
 10
4.475942
 20
5.950774
 42
0.046513
  0
VERTEX
  8
0
 10
4.481061
 20
5.959827
 42
0.101732
  0
VERTEX
  8
0
 10
4.482768
 20
5.967459
 42
0.101726
  0
VERTEX
  8
0
 10
4.481061
 20
5.975091
 42
0.046507
  0
VERTEX
  8
0
 10
4.475942
 20
5.984146
 42
-0.22347
  0
VERTEX
  8
0
 10
4.466651
 20
5.996091
 42
-0.181385
  0
VERTEX
  8
0
 10
4.469874
 20
6.01145
 42
-0.131675
  0
VERTEX
  8
0
 10
4.508296
 20
6.007087
 42
-0.035822
  0
VERTEX
  8
0
 10
4.546949
 20
5.989115
 42
0.022189
  0
VERTEX
  8
0
 10
4.576968
 20
5.974503
 42
0.08053
  0
VERTEX
  8
0
 10
4.606243
 20
5.96683
 42
0.147471
  0
VERTEX
  8
0
 10
4.634384
 20
5.972849
 42
0.121879
  0
VERTEX
  8
0
 10
4.661003
 20
5.999314
  0
VERTEX
  8
0
 10
4.988651
 20
6.005382
  0
VERTEX
  8
0
 10
5.011406
 20
6.043306
  0
VERTEX
  8
0
 10
4.971967
 20
6.534785
 42
0.367859
  0
VERTEX
  8
0
 10
4.936735
 20
6.57266
 42
0.064213
  0
VERTEX
  8
0
 10
4.905872
 20
6.573441
 42
0.016734
  0
VERTEX
  8
0
 10
4.8713
 20
6.569045
 42
-0.041603
  0
VERTEX
  8
0
 10
4.820118
 20
6.564131
 42
-0.018527
  0
VERTEX
  8
0
 10
4.483754
 20
6.571519
 42
0.005436
  0
VERTEX
  8
0
 10
4.3015
 20
6.578775
 42
-0.073503
  0
VERTEX
  8
0
 10
4.272028
 20
6.544377
 42
0.034022
  0
VERTEX
  8
0
 10
4.255121
 20
6.526995
 42
0.074224
  0
VERTEX
  8
0
 10
4.240824
 20
6.502929
 42
0.022889
  0
VERTEX
  8
0
 10
4.24293
 20
6.279121
 42
-0.049851
  0
VERTEX
  8
0
 10
4.234756
 20
5.984146
 42
0.127657
  0
VERTEX
  8
0
 10
4.224636
 20
5.983129
 42
0.158843
  0
VERTEX
  8
0
 10
4.218805
 20
5.978094
 42
0.08242
  0
VERTEX
  8
0
 10
4.215822
 20
5.970308
 42
0.021861
  0
VERTEX
  8
0
 10
4.214249
 20
5.961039
 42
-0.031385
  0
VERTEX
  8
0
 10
4.21216
 20
5.949621
 42
-0.115254
  0
VERTEX
  8
0
 10
4.207453
 20
5.940154
 42
0.002063
  0
VERTEX
  8
0
 10
4.212659
 20
5.93174
 42
-0.0398
  0
VERTEX
  8
0
 10
4.233495
 20
5.893977
 42
-0.124712
  0
VERTEX
  8
0
 10
4.240824
 20
5.852174
 42
-0.004712
  0
VERTEX
  8
0
 10
4.244435
 20
5.715147
 42
0.012292
  0
VERTEX
  8
0
 10
4.25404
 20
5.455253
 42
0.042852
  0
VERTEX
  8
0
 10
4.289364
 20
5.207485
 42
0.063907
  0
VERTEX
  8
0
 10
4.274997
 20
5.211849
 42
0.019524
  0
VERTEX
  8
0
 10
4.259499
 20
5.213894
 42
-0.076022
  0
VERTEX
  8
0
 10
4.231715
 20
5.219596
 42
-0.232474
  0
VERTEX
  8
0
 10
4.213519
 20
5.240857
 42
-0.06502
  0
SEQEND
  8
0
  0
POLYLINE
  8
0
 66
1
 70
1
  0
VERTEX
  8
0
 10
5.114553
 20
5.180181
  0
VERTEX
  8
0
 10
4.366725
 20
5.196867
 42
0.03453
  0
VERTEX
  8
0
 10
4.357478
 20
5.200816
 42
0.00866
  0
VERTEX
  8
0
 10
4.346378
 20
5.204538
 42
-0.023532
  0
VERTEX
  8
0
 10
4.3275
 20
5.211279
 42
-0.11209
  0
VERTEX
  8
0
 10
4.313908
 20
5.22018
 42
-0.302814
  0
VERTEX
  8
0
 10
4.312158
 20
5.232996
 42
-0.122437
  0
VERTEX
  8
0
 10
4.328803
 20
5.251476
  0
VERTEX
  8
0
 10
4.339422
 20
5.251476
 42
0.087261
  0
VERTEX
  8
0
 10
4.342217
 20
5.249871
 42
0.024166
  0
VERTEX
  8
0
 10
4.347094
 20
5.248161
 42
0.010761
  0
VERTEX
  8
0
 10
4.360654
 20
5.244484
 42
-0.014305
  0
VERTEX
  8
0
 10
4.37785
 20
5.23973
 42
-0.030872
  0
VERTEX
  8
0
 10
4.384325
 20
5.237271
 42
-0.111055
  0
VERTEX
  8
0
 10
4.387962
 20
5.23479
  0
VERTEX
  8
0
 10
4.425883
 20
5.219621
  0
VERTEX
  8
0
 10
4.425883
 20
5.224171
  0
VERTEX
  8
0
 10
5.108486
 20
5.230239
 42
-0.135211
  0
VERTEX
  8
0
 10
5.117035
 20
5.207187
 42
-0.062275
  0
VERTEX
  8
0
 10
5.115583
 20
5.18729
 42
0.01204
  0
SEQEND
  8
0
  0
POLYLINE
  8
0
 66
1
 70
1
  0
VERTEX
  8
0
 10
4.445907
 20
5.999864
  0
VERTEX
  8
0
 10
4.451975
 20
5.975594
  0
VERTEX
  8
0
 10
4.415569
 20
5.993797
  0
VERTEX
  8
0
 10
4.342758
 20
6.142454
  0
VERTEX
  8
0
 10
4.418603
 20
6.136386
  0
VERTEX
  8
0
 10
4.624901
 20
6.005932
  0
VERTEX
  8
0
 10
4.582428
 20
5.993797
  0
VERTEX
  8
0
 10
4.412536
 20
6.106047
  0
VERTEX
  8
0
 10
4.382197
 20
6.112115
  0
SEQEND
  8
0
  0
POLYLINE
  8
0
 66
1
 70
1
  0
VERTEX
  8
0
 10
4.594562
 20
6.057507
  0
VERTEX
  8
0
 10
4.564225
 20
6.515614
  0
VERTEX
  8
0
 10
4.373097
 20
6.518649
  0
VERTEX
  8
0
 10
4.397367
 20
6.545953
  0
VERTEX
  8
0
 10
4.588496
 20
6.542919
  0
VERTEX
  8
0
 10
4.624901
 20
6.054474
  0
SEQEND
  8
0
  0
POLYLINE
  8
0
 66
1
 70
1
  0
VERTEX
  8
0
 10
4.459257
 20
6.458939
  0
VERTEX
  8
0
 10
4.453189
 20
6.158589
 42
-0.109464
  0
VERTEX
  8
0
 10
4.403667
 20
6.151622
 42
-0.035701
  0
VERTEX
  8
0
 10
4.354917
 20
6.159
 42
0.024354
  0
VERTEX
  8
0
 10
4.319954
 20
6.164896
 42
0.093876
  0
VERTEX
  8
0
 10
4.289364
 20
6.16314
  0
VERTEX
  8
0
 10
4.274194
 20
6.179826
  0
VERTEX
  8
0
 10
4.274194
 20
6.496862
  0
VERTEX
  8
0
 10
4.339422
 20
6.507481
 42
0.174609
  0
VERTEX
  8
0
 10
4.36616
 20
6.497132
 42
0.03837
  0
VERTEX
  8
0
 10
4.401031
 20
6.497687
 42
-0.020651
  0
VERTEX
  8
0
 10
4.426012
 20
6.498658
 42
-0.088583
  0
VERTEX
  8
0
 10
4.446509
 20
6.495345
 42
-0.214013
  0
VERTEX
  8
0
 10
4.458824
 20
6.483516
 42
-0.145451
  0
SEQEND
  8
0
  0
POLYLINE
  8
0
 66
1
 70
1
  0
VERTEX
  8
0
 10
4.671621
 20
6.16314
  0
VERTEX
  8
0
 10
4.770219
 20
6.414949
  0
VERTEX
  8
0
 10
4.797524
 20
6.179826
 42
-0.080944
  0
VERTEX
  8
0
 10
4.737985
 20
6.164657
 42
-0.034667
  0
SEQEND
  8
0
  0
POLYLINE
  8
0
 66
1
 70
1
  0
VERTEX
  8
0
 10
4.164979
 20
6.857887
 42
0.003803
  0
VERTEX
  8
0
 10
4.169817
 20
6.857939
 42
-0.020007
  0
VERTEX
  8
0
 10
4.183191
 20
6.857782
 42
-0.070262
  0
VERTEX
  8
0
 10
4.195984
 20
6.855422
 42
-0.166668
  0
VERTEX
  8
0
 10
4.205103
 20
6.84862
 42
-0.17632
  0
VERTEX
  8
0
 10
4.207453
 20
6.835133
  0
VERTEX
  8
0
 10
4.202901
 20
6.725915
  0
VERTEX
  8
0
 10
4.158911
 20
6.725915
  0
SEQEND
  8
0
  0
POLYLINE
  8
0
 66
1
 70
1
  0
VERTEX
  8
0
 10
3.530918
 20
6.775975
 42
0.142752
  0
VERTEX
  8
0
 10
3.923793
 20
6.715297
 42
-0.005045
  0
VERTEX
  8
0
 10
3.960709
 20
6.735153
 42
0.025693
  0
VERTEX
  8
0
 10
4.04938
 20
6.786123
 42
0.070101
  0
VERTEX
  8
0
 10
4.131607
 20
6.857887
  0
VERTEX
  8
0
 10
4.125539
 20
6.715297
  0
VERTEX
  8
0
 10
3.891939
 20
6.568157
 42
0.023801
  0
VERTEX
  8
0
 10
3.918929
 20
6.263782
 42
-0.027473
  0
VERTEX
  8
0
 10
3.946547
 20
5.934087
 42
0.008931
  0
VERTEX
  8
0
 10
3.995086
 20
5.524521
 42
-0.05949
  0
VERTEX
  8
0
 10
3.879044
 20
5.925744
 42
-0.025043
  0
VERTEX
  8
0
 10
3.831263
 20
6.349721
 42
0.146376
  0
VERTEX
  8
0
 10
3.790874
 20
6.375509
 42
0.342318
  0
VERTEX
  8
0
 10
3.74935
 20
6.360339
 42
0.115426
  0
VERTEX
  8
0
 10
3.741755
 20
6.355956
 42
0.196932
  0
VERTEX
  8
0
 10
3.739566
 20
6.350737
 42
0.106304
  0
VERTEX
  8
0
 10
3.741012
 20
6.344908
 42
0.026124
  0
VERTEX
  8
0
 10
3.74432
 20
6.338698
 42
-0.021321
  0
VERTEX
  8
0
 10
3.747499
 20
6.332808
 42
-0.077307
  0
VERTEX
  8
0
 10
3.74935
 20
6.326967
 42
0.02572
  0
VERTEX
  8
0
 10
3.766675
 20
6.166352
 42
-0.044611
  0
VERTEX
  8
0
 10
3.782722
 20
5.978078
 42
0.065492
  0
VERTEX
  8
0
 10
3.743093
 20
5.976561
 42
0.19128
  0
VERTEX
  8
0
 10
3.711426
 20
5.95684
 42
-0.11151
  0
VERTEX
  8
0
 10
3.714145
 20
5.937793
 42
-0.168596
  0
VERTEX
  8
0
 10
3.708468
 20
5.925834
 42
-0.098077
  0
VERTEX
  8
0
 10
3.697046
 20
5.918557
 42
-0.025835
  0
VERTEX
  8
0
 10
3.682529
 20
5.913551
 42
0.03635
  0
VERTEX
  8
0
 10
3.664623
 20
5.907089
 42
0.129272
  0
VERTEX
  8
0
 10
3.650753
 20
5.896164
 42
0.020471
  0
VERTEX
  8
0
 10
3.664401
 20
6.320425
 42
-0.005804
  0
VERTEX
  8
0
 10
3.667437
 20
6.545403
  0
VERTEX
  8
0
 10
3.530918
 20
6.660689
  0
SEQEND
  8
0
  0
POLYLINE
  8
0
 66
1
 70
1
  0
VERTEX
  8
0
 10
3.803958
 20
5.879478
  0
VERTEX
  8
0
 10
3.79334
 20
5.879478
 42
0.065507
  0
VERTEX
  8
0
 10
3.785945
 20
5.909627
 42
0.145665
  0
VERTEX
  8
0
 10
3.766036
 20
5.934087
 42
-0.228321
  0
VERTEX
  8
0
 10
3.749539
 20
5.935983
 42
-0.068622
  0
VERTEX
  8
0
 10
3.738732
 20
5.944706
 42
-0.138217
  0
VERTEX
  8
0
 10
3.754157
 20
5.950724
 42
-0.043214
  0
VERTEX
  8
0
 10
3.771327
 20
5.950835
 42
0.034931
  0
VERTEX
  8
0
 10
3.787272
 20
5.950774
 42
-0.173514
  0
VERTEX
  8
0
 10
3.797351
 20
5.933051
 42
-0.05498
  0
VERTEX
  8
0
 10
3.798378
 20
5.912144
 42
0.035076
  0
VERTEX
  8
0
 10
3.798783
 20
5.895033
 42
0.114947
  0
SEQEND
  8
0
  0
POLYLINE
  8
0
 66
1
 70
1
  0
VERTEX
  8
0
 10
3.79789
 20
5.442607
 42
-0.158751
  0
VERTEX
  8
0
 10
3.808683
 20
5.447972
 42
-0.050566
  0
VERTEX
  8
0
 10
3.820861
 20
5.448422
 42
0.041853
  0
VERTEX
  8
0
 10
3.831263
 20
5.448674
 42
-0.051753
  0
VERTEX
  8
0
 10
3.837078
 20
5.356726
 42
0.010733
  0
VERTEX
  8
0
 10
3.837329
 20
5.316703
  0
VERTEX
  8
0
 10
3.766036
 20
5.322771
 42
0.183735
  0
VERTEX
  8
0
 10
3.785486
 20
5.336512
 42
0.065159
  0
VERTEX
  8
0
 10
3.79502
 20
5.35743
 42
-0.014631
  0
VERTEX
  8
0
 10
3.798956
 20
5.367834
 42
-0.046656
  0
VERTEX
  8
0
 10
3.803958
 20
5.377379
 42
-0.086118
  0
VERTEX
  8
0
 10
3.798578
 20
5.40082
 42
-0.02432
  0
VERTEX
  8
0
 10
3.798148
 20
5.425442
 42
0.026147
  0
SEQEND
  8
0
  0
POLYLINE
  8
0
 66
1
 70
1
  0
VERTEX
  8
0
 10
3.831263
 20
5.524521
  0
VERTEX
  8
0
 10
3.787272
 20
5.524521
 42
-0.086266
  0
VERTEX
  8
0
 10
3.787272
 20
5.656492
 42
0.061924
  0
VERTEX
  8
0
 10
3.794045
 20
5.655417
 42
0.013168
  0
VERTEX
  8
0
 10
3.802846
 20
5.655204
 42
-0.021995
  0
VERTEX
  8
0
 10
3.816465
 20
5.654699
 42
-0.082009
  0
VERTEX
  8
0
 10
3.828802
 20
5.651789
 42
-0.189413
  0
VERTEX
  8
0
 10
3.836781
 20
5.644082
 42
-0.158319
  0
VERTEX
  8
0
 10
3.837329
 20
5.629187
  0
SEQEND
  8
0
  0
POLYLINE
  8
0
 66
1
 70
1
  0
VERTEX
  8
0
 10
3.831263
 20
5.721718
  0
VERTEX
  8
0
 10
3.770586
 20
5.726269
 42
0.00185
  0
VERTEX
  8
0
 10
3.770532
 20
5.73715
 42
-0.042889
  0
VERTEX
  8
0
 10
3.773081
 20
5.789501
 42
-0.173651
  0
VERTEX
  8
0
 10
3.79334
 20
5.830936
 42
-0.33087
  0
VERTEX
  8
0
 10
3.822251
 20
5.815281
 42
-0.076491
  0
VERTEX
  8
0
 10
3.832211
 20
5.777959
 42
0.033539
  0
VERTEX
  8
0
 10
3.837329
 20
5.753575
  0
SEQEND
  8
0
  0
POLYLINE
  8
0
 66
1
 70
1
  0
VERTEX
  8
0
 10
3.696176
 20
5.374842
  0
VERTEX
  8
0
 10
3.6355
 20
5.352089
  0
VERTEX
  8
0
 10
3.641568
 20
5.767724
 42
-0.076636
  0
VERTEX
  8
0
 10
3.662046
 20
5.794269
 42
-0.047094
  0
VERTEX
  8
0
 10
3.678684
 20
5.808253
 42
-0.097055
  0
VERTEX
  8
0
 10
3.696176
 20
5.816264
  0
VERTEX
  8
0
 10
3.690108
 20
5.707046
  0
VERTEX
  8
0
 10
3.702243
 20
5.696428
 42
-0.01949
  0
VERTEX
  8
0
 10
3.696351
 20
5.619988
 42
0.017751
  0
VERTEX
  8
0
 10
3.690633
 20
5.548013
 42
0.077898
  0
VERTEX
  8
0
 10
3.696176
 20
5.488611
 42
-0.144231
  0
VERTEX
  8
0
 10
3.700802
 20
5.488148
 42
-0.045887
  0
VERTEX
  8
0
 10
3.705033
 20
5.485914
 42
0.073834
  0
VERTEX
  8
0
 10
3.71065
 20
5.483211
 42
0.189143
  0
VERTEX
  8
0
 10
3.717413
 20
5.48406
  0
VERTEX
  8
0
 10
3.717413
 20
5.467374
 42
0.194206
  0
VERTEX
  8
0
 10
3.700186
 20
5.441363
 42
0.060778
  0
VERTEX
  8
0
 10
3.698295
 20
5.409027
 42
-0.015164
  0
VERTEX
  8
0
 10
3.698292
 20
5.391657
 42
-0.048114
  0
SEQEND
  8
0
  0
POLYLINE
  8
0
 66
1
 70
1
  0
VERTEX
  8
0
 10
3.22936
 20
5.256576
 42
-0.169139
  0
VERTEX
  8
0
 10
3.135537
 20
5.228139
 42
-0.040812
  0
VERTEX
  8
0
 10
3.024493
 20
5.23863
 42
0.011757
  0
VERTEX
  8
0
 10
2.970464
 20
5.245851
 42
0.047239
  0
VERTEX
  8
0
 10
2.92416
 20
5.246925
  0
VERTEX
  8
0
 10
2.913542
 20
5.262094
 42
-0.048547
  0
VERTEX
  8
0
 10
3.030717
 20
5.262266
 42
0.050085
  0
VERTEX
  8
0
 10
3.140183
 20
5.262429
 42
0.156616
  0
VERTEX
  8
0
 10
3.23664
 20
5.306085
 42
0.123882
  0
VERTEX
  8
0
 10
3.372934
 20
5.433895
 42
0.043531
  0
VERTEX
  8
0
 10
3.455466
 20
5.59561
 42
-0.052212
  0
VERTEX
  8
0
 10
3.546437
 20
5.769066
 42
-0.144806
  0
VERTEX
  8
0
 10
3.70536
 20
5.896164
 42
-0.255022
  0
VERTEX
  8
0
 10
3.695263
 20
5.848606
 42
-0.060938
  0
VERTEX
  8
0
 10
3.653124
 20
5.809477
 42
0.037663
  0
VERTEX
  8
0
 10
3.617683
 20
5.778394
 42
0.070249
  0
VERTEX
  8
0
 10
3.537495
 20
5.670403
 42
0.02404
  0
VERTEX
  8
0
 10
3.4802
 20
5.551198
 42
-0.054465
  0
VERTEX
  8
0
 10
3.390075
 20
5.381319
 42
-0.144799
  0
SEQEND
  8
0
  0
POLYLINE
  8
0
 66
1
  0
VERTEX
  8
0
 10
3.607618
 20
5.330521
 42
-0.227827
  0
VERTEX
  8
0
 10
3.525794
 20
5.323834
 42
-0.061883
  0
VERTEX
  8
0
 10
3.447785
 20
5.365626
 42
0.0117
  0
VERTEX
  8
0
 10
3.41649
 20
5.385131
 42
-0.031831
  0
VERTEX
  8
0
 10
3.42134
 20
5.392674
 42
0.036889
  0
VERTEX
  8
0
 10
3.427108
 20
5.401815
 42
0.079933
  0
VERTEX
  8
0
 10
3.544007
 20
5.346542
 42
0.02938
  0
VERTEX
  8
0
 10
3.607618
 20
5.330521
  0
SEQEND
  8
0
  0
POLYLINE
  8
0
 66
1
 70
1
  0
VERTEX
  8
0
 10
3.350407
 20
7.036882
 42
-0.107295
  0
VERTEX
  8
0
 10
3.330514
 20
7.045196
 42
-0.025468
  0
VERTEX
  8
0
 10
3.309589
 20
7.060826
 42
0.054315
  0
VERTEX
  8
0
 10
3.273432
 20
7.085648
 42
0.178813
  0
VERTEX
  8
0
 10
3.230572
 20
7.091492
 42
0.282744
  0
VERTEX
  8
0
 10
3.18927
 20
7.101752
 42
0.076642
  0
VERTEX
  8
0
 10
3.13538
 20
7.079954
 42
0.039876
  0
VERTEX
  8
0
 10
3.068629
 20
7.034285
 42
0.107657
  0
VERTEX
  8
0
 10
3.114666
 20
7.005984
 42
0.038618
  0
VERTEX
  8
0
 10
3.165769
 20
6.993076
 42
-0.021208
  0
VERTEX
  8
0
 10
3.206478
 20
6.983753
 42
-0.058251
  0
VERTEX
  8
0
 10
3.247258
 20
6.967106
 42
0.063383
  0
VERTEX
  8
0
 10
3.296644
 20
6.934473
 42
0.020923
  0
VERTEX
  8
0
 10
3.350933
 20
6.910549
 42
-0.053318
  0
VERTEX
  8
0
 10
3.433117
 20
6.870107
 42
-0.149837
  0
VERTEX
  8
0
 10
3.492996
 20
6.79721
 42
0.245561
  0
VERTEX
  8
0
 10
3.209336
 20
5.770261
 42
0.109568
  0
VERTEX
  8
0
 10
3.356474
 20
5.497215
  0
VERTEX
  8
0
 10
3.345856
 20
5.469911
 42
-0.073791
  0
VERTEX
  8
0
 10
3.285559
 20
5.537224
 42
-0.041895
  0
VERTEX
  8
0
 10
3.24119
 20
5.617051
 42
-0.048546
  0
VERTEX
  8
0
 10
3.201049
 20
5.711095
 42
-0.016053
  0
VERTEX
  8
0
 10
3.173249
 20
5.809963
 42
0.051539
  0
VERTEX
  8
0
 10
3.115289
 20
5.984146
 42
0.125899
  0
VERTEX
  8
0
 10
2.998003
 20
6.03849
 42
0.040848
  0
VERTEX
  8
0
 10
2.867212
 20
6.051078
 42
-0.028003
  0
VERTEX
  8
0
 10
2.756103
 20
6.059922
 42
-0.086389
  0
VERTEX
  8
0
 10
2.651119
 20
6.093362
 42
0.45728
  0
VERTEX
  8
0
 10
2.59196
 20
6.053924
 42
0.110372
  0
VERTEX
  8
0
 10
2.592517
 20
6.0406
 42
0.026791
  0
VERTEX
  8
0
 10
2.597061
 20
6.025662
 42
-0.061791
  0
VERTEX
  8
0
 10
2.602612
 20
6.004161
 42
-0.285405
  0
VERTEX
  8
0
 10
2.595536
 20
5.987739
 42
0.059167
  0
VERTEX
  8
0
 10
2.642668
 20
5.674406
 42
0.097557
  0
VERTEX
  8
0
 10
2.783089
 20
5.398617
 42
-0.132671
  0
VERTEX
  8
0
 10
2.711695
 20
5.460107
 42
-0.053199
  0
VERTEX
  8
0
 10
2.67348
 20
5.536832
 42
0.051982
  0
VERTEX
  8
0
 10
2.63595
 20
5.612501
 42
0.000289
  0
VERTEX
  8
0
 10
2.630012
 20
5.632542
 42
-0.025461
  0
VERTEX
  8
0
 10
2.578918
 20
5.829148
 42
-0.078481
  0
VERTEX
  8
0
 10
2.569207
 20
6.032686
 42
-0.082858
  0
VERTEX
  8
0
 10
2.613197
 20
6.387644
 42
-0.10291
  0
VERTEX
  8
0
 10
2.874861
 20
6.904533
 42
-0.164643
  0
VERTEX
  8
0
 10
3.350407
 20
7.228014
 42
0.058504
  0
VERTEX
  8
0
 10
3.342443
 20
7.14155
 42
0.025291
  0
SEQEND
  8
0
  0
POLYLINE
  8
0
 66
1
 70
1
  0
VERTEX
  8
0
 10
3.291249
 20
7.2447
 42
-0.010433
  0
VERTEX
  8
0
 10
3.231703
 20
7.218742
 42
0.020269
  0
VERTEX
  8
0
 10
3.149435
 20
7.181589
 42
0.058655
  0
VERTEX
  8
0
 10
3.072815
 20
7.130932
 42
0.03647
  0
VERTEX
  8
0
 10
3.010514
 20
7.130616
 42
-0.032445
  0
VERTEX
  8
0
 10
2.927463
 20
7.130249
 42
-0.127758
  0
VERTEX
  8
0
 10
2.854383
 20
7.152168
 42
0.050914
  0
VERTEX
  8
0
 10
2.837673
 20
7.153399
 42
0.016025
  0
VERTEX
  8
0
 10
2.820492
 20
7.15239
 42
-0.063201
  0
VERTEX
  8
0
 10
2.788082
 20
7.152454
 42
-0.190767
  0
VERTEX
  8
0
 10
2.760336
 20
7.168854
 42
0.121737
  0
VERTEX
  8
0
 10
2.673938
 20
7.151132
 42
0.040362
  0
VERTEX
  8
0
 10
2.595525
 20
7.104529
 42
-0.000062
  0
VERTEX
  8
0
 10
2.592243
 20
7.10234
  0
VERTEX
  8
0
 10
2.592243
 20
7.10234
 42
-0.012919
  0
VERTEX
  8
0
 10
2.732035
 20
7.093313
 42
-0.043314
  0
VERTEX
  8
0
 10
2.978768
 20
7.053568
 42
0.190072
  0
VERTEX
  8
0
 10
2.537353
 20
6.093362
  0
VERTEX
  8
0
 10
2.510047
 20
6.125218
 42
0.021118
  0
VERTEX
  8
0
 10
2.487615
 20
6.13057
 42
-0.018016
  0
VERTEX
  8
0
 10
2.459676
 20
6.137201
 42
-0.057475
  0
VERTEX
  8
0
 10
2.432686
 20
6.147972
 42
-0.077342
  0
VERTEX
  8
0
 10
2.355301
 20
6.15377
 42
-0.036011
  0
VERTEX
  8
0
 10
2.271858
 20
6.178016
 42
-0.029465
  0
VERTEX
  8
0
 10
2.204057
 20
6.207098
 42
-0.105617
  0
VERTEX
  8
0
 10
2.173601
 20
6.227401
 42
0.141747
  0
VERTEX
  8
0
 10
2.146691
 20
6.133074
 42
0.033792
  0
VERTEX
  8
0
 10
2.151263
 20
6.022454
 42
-0.015888
  0
VERTEX
  8
0
 10
2.155399
 20
5.960425
 42
-0.006179
  0
VERTEX
  8
0
 10
2.162263
 20
5.90689
 42
0.03826
  0
VERTEX
  8
0
 10
2.183612
 20
5.782037
 42
0.115975
  0
VERTEX
  8
0
 10
2.241558
 20
5.671661
  0
VERTEX
  8
0
 10
2.237007
 20
5.66711
 42
-0.045727
  0
VERTEX
  8
0
 10
2.332744
 20
5.619543
 42
0.02884
  0
VERTEX
  8
0
 10
2.40947
 20
5.579297
 42
0.086979
  0
VERTEX
  8
0
 10
2.493362
 20
5.557892
 42
-0.083566
  0
VERTEX
  8
0
 10
2.535408
 20
5.549861
 42
-0.024666
  0
VERTEX
  8
0
 10
2.577577
 20
5.532005
 42
0.05
  0
VERTEX
  8
0
 10
2.640501
 20
5.507835
  0
VERTEX
  8
0
 10
2.657187
 20
5.480529
 42
-0.098548
  0
VERTEX
  8
0
 10
2.527228
 20
5.495898
 42
-0.031412
  0
VERTEX
  8
0
 10
2.402465
 20
5.545428
 42
0.042741
  0
VERTEX
  8
0
 10
2.253693
 20
5.601883
 42
-0.161847
  0
VERTEX
  8
0
 10
2.114014
 20
5.972851
 42
-0.045458
  0
VERTEX
  8
0
 10
2.129485
 20
6.380197
 42
0.000281
  0
VERTEX
  8
0
 10
2.132342
 20
6.408882
 42
-0.085806
  0
VERTEX
  8
0
 10
2.339587
 20
6.880641
 42
-0.157907
  0
VERTEX
  8
0
 10
2.739099
 20
7.206778
 42
-0.076872
  0
SEQEND
  8
0
  0
POLYLINE
  8
0
 66
1
 70
1
  0
VERTEX
  8
0
 10
1.247993
 20
6.322417
 42
0.047377
  0
VERTEX
  8
0
 10
1.236672
 20
6.275249
 42
0.014877
  0
VERTEX
  8
0
 10
1.231083
 20
6.226015
 42
-0.010833
  0
VERTEX
  8
0
 10
1.226757
 20
6.185894
  0
VERTEX
  8
0
 10
1.100856
 20
6.179826
  0
VERTEX
  8
0
 10
1.12209
 20
6.326967
  0
SEQEND
  8
0
  0
POLYLINE
  8
0
 66
1
 70
1
  0
VERTEX
  8
0
 10
1.128158
 20
6.404331
  0
VERTEX
  8
0
 10
1.149394
 20
6.502929
  0
VERTEX
  8
0
 10
1.275297
 20
6.507481
 42
-0.010748
  0
VERTEX
  8
0
 10
1.258612
 20
6.404331
  0
SEQEND
  8
0
  0
POLYLINE
  8
0
 66
1
 70
1
  0
VERTEX
  8
0
 10
1.210071
 20
6.103981
  0
VERTEX
  8
0
 10
1.188835
 20
5.988696
 42
-0.014162
  0
VERTEX
  8
0
 10
1.144326
 20
5.988866
 42
0.014282
  0
VERTEX
  8
0
 10
1.100261
 20
5.989032
 42
0.058629
  0
VERTEX
  8
0
 10
1.062932
 20
5.984146
  0
VERTEX
  8
0
 10
1.090236
 20
6.097914
  0
SEQEND
  8
0
  0
POLYLINE
  8
0
 66
1
 70
1
  0
VERTEX
  8
0
 10
1.35721
 20
6.502929
  0
VERTEX
  8
0
 10
1.363276
 20
5.890096
  0
VERTEX
  8
0
 10
1.565024
 20
5.535139
  0
VERTEX
  8
0
 10
1.210071
 20
5.551824
 42
-0.001485
  0
VERTEX
  8
0
 10
1.300586
 20
6.138706
 42
0.000594
  0
SEQEND
  8
0
  0
POLYLINE
  8
0
 66
1
 70
1
  0
VERTEX
  8
0
 10
1.44974
 20
5.91285
 42
0.044386
  0
VERTEX
  8
0
 10
1.428247
 20
5.912608
 42
-0.02273
  0
VERTEX
  8
0
 10
1.412203
 20
5.911994
 42
-0.087222
  0
VERTEX
  8
0
 10
1.398192
 20
5.91438
 42
-0.174
  0
VERTEX
  8
0
 10
1.388276
 20
5.922766
 42
-0.131832
  0
VERTEX
  8
0
 10
1.384512
 20
5.940154
  0
VERTEX
  8
0
 10
1.390581
 20
6.568157
  0
VERTEX
  8
0
 10
1.455808
 20
6.568157
 42
0.018099
  0
VERTEX
  8
0
 10
1.457792
 20
6.295095
 42
-0.039678
  0
SEQEND
  8
0
  0
POLYLINE
  8
0
 66
1
 70
1
  0
VERTEX
  8
0
 10
1.461875
 20
5.885546
 42
0.000889
  0
VERTEX
  8
0
 10
1.51003
 20
5.802532
 42
-0.009543
  0
VERTEX
  8
0
 10
1.663622
 20
5.530589
  0
VERTEX
  8
0
 10
1.602946
 20
5.530589
  0
VERTEX
  8
0
 10
1.407267
 20
5.879478
  0
SEQEND
  8
0
  0
POLYLINE
  8
0
 66
1
 70
1
  0
VERTEX
  8
0
 10
2.405383
 20
5.46536
 42
-0.002595
  0
VERTEX
  8
0
 10
2.463291
 20
5.461141
 42
0.026087
  0
VERTEX
  8
0
 10
2.63595
 20
5.453225
 42
-0.063055
  0
VERTEX
  8
0
 10
2.308379
 20
5.419936
 42
-0.021159
  0
VERTEX
  8
0
 10
1.979165
 20
5.442563
 42
0.002419
  0
VERTEX
  8
0
 10
1.865368
 20
5.453225
  0
VERTEX
  8
0
 10
1.363276
 20
5.469911
 42
-0.055066
  0
VERTEX
  8
0
 10
1.68008
 20
5.498139
 42
-0.017376
  0
VERTEX
  8
0
 10
2.00425
 20
5.480586
 42
0.030268
  0
SEQEND
  8
0
  0
POLYLINE
  8
0
 66
1
 70
1
  0
VERTEX
  8
0
 10
1.953347
 20
7.080874
 42
-0.015898
  0
VERTEX
  8
0
 10
2.432071
 20
7.164956
 42
0.00322
  0
VERTEX
  8
0
 10
2.657187
 20
7.20071
 42
-0.094645
  0
VERTEX
  8
0
 10
2.53755
 20
7.153712
 42
-0.029038
  0
VERTEX
  8
0
 10
2.413767
 20
7.136735
 42
0.000457
  0
VERTEX
  8
0
 10
2.400832
 20
7.135483
 42
-0.014442
  0
VERTEX
  8
0
 10
2.240911
 20
7.111994
 42
0.043224
  0
VERTEX
  8
0
 10
1.957899
 20
7.059636
 42
0.281716
  0
VERTEX
  8
0
 10
1.930596
 20
7.049018
 42
0.155036
  0
VERTEX
  8
0
 10
1.995635
 20
7.03166
 42
0.051515
  0
VERTEX
  8
0
 10
2.062024
 20
7.042657
 42
-0.012521
  0
VERTEX
  8
0
 10
2.095055
 20
7.049877
 42
-0.039509
  0
VERTEX
  8
0
 10
2.127792
 20
7.053568
  0
VERTEX
  8
0
 10
2.487294
 20
7.086942
 42
0.187784
  0
VERTEX
  8
0
 10
2.077733
 20
6.179826
 42
0.011019
  0
VERTEX
  8
0
 10
2.019933
 20
6.21868
 42
-0.057731
  0
VERTEX
  8
0
 10
1.89874
 20
6.311799
 42
0.040798
  0
VERTEX
  8
0
 10
1.851957
 20
6.327912
 42
0.013202
  0
VERTEX
  8
0
 10
1.803048
 20
6.339072
 42
-0.056537
  0
VERTEX
  8
0
 10
1.706472
 20
6.36694
 42
-0.161223
  0
VERTEX
  8
0
 10
1.63025
 20
6.436185
  0
VERTEX
  8
0
 10
1.609014
 20
6.448321
 42
0.129052
  0
VERTEX
  8
0
 10
1.624759
 20
6.237662
 42
0.092345
  0
VERTEX
  8
0
 10
1.726969
 20
6.047483
 42
-0.235492
  0
VERTEX
  8
0
 10
1.741083
 20
6.04188
 42
-0.050235
  0
VERTEX
  8
0
 10
1.753054
 20
6.026503
 42
0.067587
  0
VERTEX
  8
0
 10
1.769716
 20
6.006215
 42
0.231316
  0
VERTEX
  8
0
 10
1.794075
 20
5.999314
 42
-0.046719
  0
VERTEX
  8
0
 10
1.817087
 20
5.972468
 42
0.081431
  0
VERTEX
  8
0
 10
1.847558
 20
5.939885
 42
0.235445
  0
VERTEX
  8
0
 10
1.892672
 20
5.934087
 42
-0.026983
  0
VERTEX
  8
0
 10
1.972897
 20
5.859423
 42
0.028209
  0
VERTEX
  8
0
 10
2.051102
 20
5.786778
 42
0.095357
  0
VERTEX
  8
0
 10
2.13841
 20
5.738404
  0
VERTEX
  8
0
 10
2.171782
 20
5.661043
 42
-0.047191
  0
VERTEX
  8
0
 10
1.996771
 20
5.770941
 42
-0.014313
  0
VERTEX
  8
0
 10
1.829503
 20
5.906403
 42
0.006197
  0
VERTEX
  8
0
 10
1.722781
 20
5.994764
 42
-0.157237
  0
VERTEX
  8
0
 10
1.583985
 20
6.338723
 42
-0.128455
  0
VERTEX
  8
0
 10
1.640868
 20
6.725915
 42
-0.061109
  0
VERTEX
  8
0
 10
1.76696
 20
6.928424
 42
-0.109672
  0
SEQEND
  8
0
  0
POLYLINE
  8
0
 66
1
 70
1
  0
VERTEX
  8
0
 10
1.789524
 20
7.086942
 42
0.063365
  0
VERTEX
  8
0
 10
1.629113
 20
6.889553
 42
0.02854
  0
VERTEX
  8
0
 10
1.516483
 20
6.677375
 42
0.025329
  0
VERTEX
  8
0
 10
1.512386
 20
6.652998
 42
-0.015569
  0
VERTEX
  8
0
 10
1.508658
 20
6.62934
 42
-0.059612
  0
VERTEX
  8
0
 10
1.502317
 20
6.608543
 42
-0.166237
  0
VERTEX
  8
0
 10
1.491037
 20
6.59559
 42
-0.209787
  0
VERTEX
  8
0
 10
1.472493
 20
6.595461
  0
VERTEX
  8
0
 10
1.4012
 20
6.595461
 42
-0.107083
  0
VERTEX
  8
0
 10
1.52312
 20
6.901498
 42
-0.199811
  0
SEQEND
  8
0
  0
POLYLINE
  8
0
 66
1
 70
1
  0
VERTEX
  8
0
 10
1.138778
 20
7.021714
 42
-0.001378
  0
VERTEX
  8
0
 10
1.202474
 20
7.031701
 42
0.013382
  0
VERTEX
  8
0
 10
1.432362
 20
7.071157
 42
-0.09574
  0
VERTEX
  8
0
 10
1.483222
 20
7.025765
 42
-0.05647
  0
VERTEX
  8
0
 10
1.516483
 20
6.961037
 42
0.039576
  0
VERTEX
  8
0
 10
1.48978
 20
6.919366
 42
-0.022417
  0
VERTEX
  8
0
 10
1.470195
 20
6.887274
 42
-0.086097
  0
VERTEX
  8
0
 10
1.447538
 20
6.863066
 42
-0.170851
  0
VERTEX
  8
0
 10
1.418548
 20
6.854293
 42
-0.130945
  0
VERTEX
  8
0
 10
1.379962
 20
6.868506
 42
0.083019
  0
VERTEX
  8
0
 10
1.364195
 20
6.879318
 42
0.018659
  0
VERTEX
  8
0
 10
1.342838
 20
6.888815
 42
-0.022584
  0
VERTEX
  8
0
 10
1.318683
 20
6.89971
 42
-0.099021
  0
VERTEX
  8
0
 10
1.300985
 20
6.912964
 42
-0.245449
  0
VERTEX
  8
0
 10
1.296808
 20
6.930682
 42
-0.137923
  0
VERTEX
  8
0
 10
1.313219
 20
6.954969
 42
0.114532
  0
VERTEX
  8
0
 10
1.328957
 20
6.978861
 42
0.252299
  0
VERTEX
  8
0
 10
1.325354
 20
7.005028
 42
0.228806
  0
VERTEX
  8
0
 10
1.279848
 20
7.022283
 42
0.165173
  0
VERTEX
  8
0
 10
1.259654
 20
7.012494
 42
0.15552
  0
VERTEX
  8
0
 10
1.247993
 20
6.988342
  0
VERTEX
  8
0
 10
1.237375
 20
6.961037
  0
SEQEND
  8
0
  0
POLYLINE
  8
0
 66
1
 70
1
  0
VERTEX
  8
0
 10
1.285915
 20
6.889743
 42
-0.127047
  0
VERTEX
  8
0
 10
1.329683
 20
6.875735
 42
-0.170255
  0
VERTEX
  8
0
 10
1.349233
 20
6.848772
 42
-0.088695
  0
VERTEX
  8
0
 10
1.352642
 20
6.813189
 42
-0.023405
  0
VERTEX
  8
0
 10
1.347983
 20
6.773321
 42
0.023038
  0
VERTEX
  8
0
 10
1.343348
 20
6.733829
 42
0.087397
  0
VERTEX
  8
0
 10
1.34659
 20
6.698611
  0
VERTEX
  8
0
 10
1.193385
 20
6.698611
  0
SEQEND
  8
0
  0
POLYLINE
  8
0
 66
1
 70
1
  0
VERTEX
  8
0
 10
0.915332
 20
6.558556
  0
VERTEX
  8
0
 10
0.915332
 20
6.658832
  0
VERTEX
  8
0
 10
0.957933
 20
6.671396
  0
VERTEX
  8
0
 10
1.373896
 20
6.671307
  0
VERTEX
  8
0
 10
1.363276
 20
6.639451
 42
-0.077127
  0
VERTEX
  8
0
 10
1.353964
 20
6.641137
 42
-0.021869
  0
VERTEX
  8
0
 10
1.344399
 20
6.644845
 42
0.021868
  0
VERTEX
  8
0
 10
1.334835
 20
6.648553
 42
0.077128
  0
VERTEX
  8
0
 10
1.325523
 20
6.650238
 42
0.138468
  0
VERTEX
  8
0
 10
1.316717
 20
6.647879
 42
0.119723
  0
VERTEX
  8
0
 10
1.308669
 20
6.639451
 42
0.109838
  0
VERTEX
  8
0
 10
1.297963
 20
6.633425
 42
0.123151
  0
VERTEX
  8
0
 10
1.292704
 20
6.625203
 42
0.09267
  0
VERTEX
  8
0
 10
1.291262
 20
6.605173
 42
-0.04432
  0
VERTEX
  8
0
 10
1.291107
 20
6.590883
 42
-0.155786
  0
VERTEX
  8
0
 10
1.285915
 20
6.578775
 42
0.019949
  0
VERTEX
  8
0
 10
1.226693
 20
6.575783
 42
-0.02776
  0
VERTEX
  8
0
 10
1.144844
 20
6.572708
 42
0.25588
  0
VERTEX
  8
0
 10
1.147684
 20
6.598334
 42
0.064623
  0
VERTEX
  8
0
 10
1.134796
 20
6.621912
 42
-0.000131
  0
VERTEX
  8
0
 10
1.134226
 20
6.622765
 42
0.15153
  0
VERTEX
  8
0
 10
1.095735
 20
6.626368
 42
0.127486
  0
VERTEX
  8
0
 10
1.062932
 20
6.606079
 42
-0.055119
  0
VERTEX
  8
0
 10
1.05978
 20
6.574108
 42
-0.015521
  0
VERTEX
  8
0
 10
1.055811
 20
6.556042
  0
SEQEND
  8
0
  0
POLYLINE
  8
0
 66
1
 70
1
  0
VERTEX
  8
0
 10
1.046246
 20
5.906782
  0
VERTEX
  8
0
 10
1.1767
 20
5.91285
  0
VERTEX
  8
0
 10
1.155462
 20
5.793014
  0
VERTEX
  8
0
 10
1.029561
 20
5.793014
  0
SEQEND
  8
0
  0
POLYLINE
  8
0
 66
1
 70
1
  0
VERTEX
  8
0
 10
1.018943
 20
5.711101
  0
VERTEX
  8
0
 10
1.144844
 20
5.715651
  0
VERTEX
  8
0
 10
1.12209
 20
5.568511
  0
VERTEX
  8
0
 10
0.997706
 20
5.568511
  0
SEQEND
  8
0
  0
POLYLINE
  8
0
 66
1
 70
1
  0
VERTEX
  8
0
 10
0.84905
 20
5.366761
  0
VERTEX
  8
0
 10
0.84905
 20
5.448674
 42
-0.013727
  0
VERTEX
  8
0
 10
1.056245
 20
5.446092
 42
0.007574
  0
VERTEX
  8
0
 10
1.231307
 20
5.442607
  0
VERTEX
  8
0
 10
1.166081
 20
5.360693
  0
SEQEND
  8
0
  0
POLYLINE
  8
0
 66
1
 70
1
  0
VERTEX
  8
0
 10
1.576644
 20
4.419249
 42
-0.129459
  0
VERTEX
  8
0
 10
1.475831
 20
4.448187
 42
-0.097493
  0
VERTEX
  8
0
 10
1.400221
 20
4.5226
 42
-0.029628
  0
VERTEX
  8
0
 10
1.356289
 20
4.613377
 42
-0.065014
  0
VERTEX
  8
0
 10
1.33021
 20
4.711389
 42
0.233869
  0
VERTEX
  8
0
 10
1.333043
 20
4.712296
 42
0.100354
  0
VERTEX
  8
0
 10
1.335286
 20
4.715544
 42
0.061408
  0
VERTEX
  8
0
 10
1.338261
 20
4.72603
 42
0.029366
  0
VERTEX
  8
0
 10
1.340011
 20
4.741706
 42
0.062894
  0
VERTEX
  8
0
 10
1.384468
 20
4.649895
 42
0.128075
  0
VERTEX
  8
0
 10
1.456228
 20
4.581856
 42
-0.047767
  0
VERTEX
  8
0
 10
1.46132
 20
4.591454
 42
0.061723
  0
VERTEX
  8
0
 10
1.466223
 20
4.601038
 42
0.166161
  0
VERTEX
  8
0
 10
1.466028
 20
4.612171
 42
0.071555
  0
VERTEX
  8
0
 10
1.50786
 20
4.582544
 42
0.231823
  0
VERTEX
  8
0
 10
1.557042
 20
4.581856
 42
-0.001646
  0
VERTEX
  8
0
 10
1.563371
 20
4.586347
 42
0.039679
  0
VERTEX
  8
0
 10
1.601849
 20
4.617683
 42
-0.03109
  0
VERTEX
  8
0
 10
1.684435
 20
4.608493
 42
0.014382
  0
VERTEX
  8
0
 10
1.727867
 20
4.602525
 42
-0.086877
  0
VERTEX
  8
0
 10
1.675884
 20
4.49125
 42
-0.168405
  0
SEQEND
  8
0
  0
POLYLINE
  8
0
 66
1
 70
1
  0
VERTEX
  8
0
 10
1.723667
 20
4.820251
 42
0.060924
  0
VERTEX
  8
0
 10
1.72273
 20
4.823202
 42
0.488447
  0
VERTEX
  8
0
 10
1.722394
 20
4.823383
 42
0.142576
  0
VERTEX
  8
0
 10
1.72212
 20
4.822763
 42
0.028122
  0
VERTEX
  8
0
 10
1.721244
 20
4.813178
 42
-0.074778
  0
VERTEX
  8
0
 10
1.704463
 20
4.725022
 42
-0.105359
  0
VERTEX
  8
0
 10
1.675336
 20
4.678476
 42
-0.159847
  0
VERTEX
  8
0
 10
1.622853
 20
4.652133
 42
0.087548
  0
VERTEX
  8
0
 10
1.65026
 20
4.839387
 42
0.138082
  0
VERTEX
  8
0
 10
1.597647
 20
4.999394
 42
0.123297
  0
VERTEX
  8
0
 10
1.542515
 20
5.038495
 42
0.169195
  0
VERTEX
  8
0
 10
1.475831
 20
5.039357
 42
0.28573
  0
VERTEX
  8
0
 10
1.405821
 20
4.854703
 42
0.042893
  0
VERTEX
  8
0
 10
1.419608
 20
4.855354
 42
0.012868
  0
VERTEX
  8
0
 10
1.433979
 20
4.857612
 42
-0.054411
  0
VERTEX
  8
0
 10
1.462138
 20
4.860521
 42
-0.200839
  0
VERTEX
  8
0
 10
1.485632
 20
4.850568
 42
-0.124064
  0
VERTEX
  8
0
 10
1.490425
 20
4.83616
 42
-0.035741
  0
VERTEX
  8
0
 10
1.490567
 20
4.81984
 42
0.075672
  0
VERTEX
  8
0
 10
1.491901
 20
4.797188
 42
0.233045
  0
VERTEX
  8
0
 10
1.506636
 20
4.78029
 42
0.050222
  0
VERTEX
  8
0
 10
1.511206
 20
4.811133
 42
0.013727
  0
VERTEX
  8
0
 10
1.512081
 20
4.845781
 42
-0.046719
  0
VERTEX
  8
0
 10
1.516436
 20
4.909824
 42
0.117679
  0
VERTEX
  8
0
 10
1.527317
 20
4.927739
 42
0.038512
  0
VERTEX
  8
0
 10
1.532134
 20
4.948342
 42
-0.059711
  0
VERTEX
  8
0
 10
1.538791
 20
4.973637
 42
-0.165573
  0
VERTEX
  8
0
 10
1.557042
 20
4.993882
 42
-0.176658
  0
VERTEX
  8
0
 10
1.612875
 20
4.893286
 42
-0.061474
  0
VERTEX
  8
0
 10
1.61725
 20
4.776156
 42
-0.00771
  0
VERTEX
  8
0
 10
1.607197
 20
4.775281
 42
0.018131
  0
VERTEX
  8
0
 10
1.552409
 20
4.769412
 42
0.034765
  0
VERTEX
  8
0
 10
1.525742
 20
4.763689
 42
0.153412
  0
VERTEX
  8
0
 10
1.510835
 20
4.755486
 42
0.071875
  0
VERTEX
  8
0
 10
1.530088
 20
4.690718
 42
0.207014
  0
VERTEX
  8
0
 10
1.576644
 20
4.646621
  0
VERTEX
  8
0
 10
1.586446
 20
4.646621
 42
-0.281943
  0
VERTEX
  8
0
 10
1.547416
 20
4.613549
 42
-0.177084
  0
VERTEX
  8
0
 10
1.496833
 20
4.621818
 42
-0.118077
  0
VERTEX
  8
0
 10
1.401095
 20
4.805783
 42
-0.187474
  0
VERTEX
  8
0
 10
1.415622
 20
4.993882
 42
-0.172788
  0
VERTEX
  8
0
 10
1.442751
 20
5.034534
 42
-0.075262
  0
VERTEX
  8
0
 10
1.485632
 20
5.058649
 42
-0.253916
  0
VERTEX
  8
0
 10
1.642454
 20
5.003529
 42
0.172101
  0
VERTEX
  8
0
 10
1.650622
 20
5.011498
 42
0.05553
  0
VERTEX
  8
0
 10
1.654322
 20
5.022107
 42
-0.027362
  0
VERTEX
  8
0
 10
1.65632
 20
5.028653
 42
-0.111336
  0
VERTEX
  8
0
 10
1.659353
 20
5.033535
 42
-0.183721
  0
VERTEX
  8
0
 10
1.664606
 20
5.035638
 42
-0.102337
  0
VERTEX
  8
0
 10
1.67326
 20
5.033844
 42
0.089819
  0
VERTEX
  8
0
 10
1.614262
 20
5.118615
 42
0.121053
  0
VERTEX
  8
0
 10
1.517942
 20
5.18221
  0
VERTEX
  8
0
 10
1.510835
 20
5.201962
 42
-0.210621
  0
VERTEX
  8
0
 10
1.664158
 20
5.099645
 42
-0.092007
  0
VERTEX
  8
0
 10
1.737668
 20
4.929115
 42
0.057662
  0
VERTEX
  8
0
 10
1.738586
 20
4.899507
 42
0.015967
  0
VERTEX
  8
0
 10
1.744091
 20
4.867668
 42
-0.011826
  0
VERTEX
  8
0
 10
1.748869
 20
4.840922
 42
0.096629
  0
VERTEX
  8
0
 10
1.734697
 20
4.832141
 42
0.034065
  0
VERTEX
  8
0
 10
1.723674
 20
4.82026
 42
-0.0
  0
SEQEND
  8
0
  0
POLYLINE
  8
0
 66
1
 70
1
  0
VERTEX
  8
0
 10
1.816829
 20
4.766064
  0
VERTEX
  8
0
 10
1.766771
 20
4.770614
  0
VERTEX
  8
0
 10
1.766771
 20
4.923822
 42
-0.042487
  0
VERTEX
  8
0
 10
1.772371
 20
4.910794
 42
-0.011679
  0
VERTEX
  8
0
 10
1.777078
 20
4.895707
 42
0.073902
  0
VERTEX
  8
0
 10
1.792545
 20
4.857373
 42
0.249064
  0
VERTEX
  8
0
 10
1.827447
 20
4.837358
 42
0.067885
  0
VERTEX
  8
0
 10
1.862524
 20
4.883814
 42
0.134141
  0
VERTEX
  8
0
 10
1.875987
 20
4.940508
 42
-0.000395
  0
VERTEX
  8
0
 10
1.87147
 20
4.953713
 42
0.046558
  0
VERTEX
  8
0
 10
1.810053
 20
5.102374
 42
0.143644
  0
VERTEX
  8
0
 10
1.695476
 20
5.219621
 42
0.014152
  0
VERTEX
  8
0
 10
1.651442
 20
5.224287
 42
-0.013114
  0
VERTEX
  8
0
 10
1.599256
 20
5.229819
 42
-0.042445
  0
VERTEX
  8
0
 10
1.548337
 20
5.240857
 42
0.028655
  0
VERTEX
  8
0
 10
1.625112
 20
5.246469
 42
-0.028952
  0
VERTEX
  8
0
 10
1.694918
 20
5.251642
 42
-0.078261
  0
VERTEX
  8
0
 10
1.766771
 20
5.240857
 42
-0.143149
  0
VERTEX
  8
0
 10
1.875074
 20
5.070398
 42
-0.044747
  0
VERTEX
  8
0
 10
1.913906
 20
4.866361
 42
0.002109
  0
VERTEX
  8
0
 10
1.919976
 20
4.820674
  0
VERTEX
  8
0
 10
1.919976
 20
4.820674
 42
-0.217167
  0
VERTEX
  8
0
 10
1.91947
 20
4.787184
 42
-0.207218
  0
VERTEX
  8
0
 10
1.890397
 20
4.767639
 42
-0.093277
  0
SEQEND
  8
0
  0
POLYLINE
  8
0
 66
1
 70
1
  0
VERTEX
  8
0
 10
2.23094
 20
4.263965
 42
-0.131198
  0
VERTEX
  8
0
 10
2.121724
 20
4.295821
 42
-0.097519
  0
VERTEX
  8
0
 10
2.039811
 20
4.377733
 42
-0.02933
  0
VERTEX
  8
0
 10
1.99222
 20
4.477661
 42
-0.064111
  0
VERTEX
  8
0
 10
1.963967
 20
4.585551
 42
0.236886
  0
VERTEX
  8
0
 10
1.967036
 20
4.58655
 42
0.099798
  0
VERTEX
  8
0
 10
1.969466
 20
4.590126
 42
0.060588
  0
VERTEX
  8
0
 10
1.972689
 20
4.601668
 42
0.028916
  0
VERTEX
  8
0
 10
1.974585
 20
4.618922
 42
0.062275
  0
VERTEX
  8
0
 10
2.022746
 20
4.517858
 42
0.128178
  0
VERTEX
  8
0
 10
2.100487
 20
4.442961
 42
0.055942
  0
VERTEX
  8
0
 10
2.102085
 20
4.449442
 42
0.021205
  0
VERTEX
  8
0
 10
2.102597
 20
4.455627
 42
-0.066249
  0
VERTEX
  8
0
 10
2.104079
 20
4.465961
 42
-0.135295
  0
VERTEX
  8
0
 10
2.111106
 20
4.476332
 42
-0.000773
  0
VERTEX
  8
0
 10
2.115134
 20
4.472736
 42
0.073735
  0
VERTEX
  8
0
 10
2.157887
 20
4.441348
 42
0.249232
  0
VERTEX
  8
0
 10
2.209703
 20
4.442961
 42
-0.010217
  0
VERTEX
  8
0
 10
2.222406
 20
4.451682
 42
0.022879
  0
VERTEX
  8
0
 10
2.241285
 20
4.465121
 42
0.062909
  0
VERTEX
  8
0
 10
2.258244
 20
4.4824
 42
0.210566
  0
VERTEX
  8
0
 10
2.281373
 20
4.451953
 42
0.104943
  0
VERTEX
  8
0
 10
2.325068
 20
4.436418
 42
0.120334
  0
VERTEX
  8
0
 10
2.369481
 20
4.439702
 42
0.262231
  0
VERTEX
  8
0
 10
2.394764
 20
4.465715
 42
-0.085979
  0
VERTEX
  8
0
 10
2.338449
 20
4.343224
 42
-0.169213
  0
SEQEND
  8
0
  0
POLYLINE
  8
0
 66
1
 70
1
  0
VERTEX
  8
0
 10
2.390214
 20
4.705387
 42
0.060158
  0
VERTEX
  8
0
 10
2.389199
 20
4.708635
 42
0.494229
  0
VERTEX
  8
0
 10
2.388835
 20
4.708834
 42
0.141139
  0
VERTEX
  8
0
 10
2.388539
 20
4.708151
 42
0.027683
  0
VERTEX
  8
0
 10
2.38759
 20
4.697601
 42
-0.073665
  0
VERTEX
  8
0
 10
2.36941
 20
4.600559
 42
-0.104615
  0
VERTEX
  8
0
 10
2.337855
 20
4.549321
 42
-0.161337
  0
VERTEX
  8
0
 10
2.280997
 20
4.520324
 42
0.086214
  0
VERTEX
  8
0
 10
2.31069
 20
4.726451
 42
0.136313
  0
VERTEX
  8
0
 10
2.253693
 20
4.902586
 42
0.12393
  0
VERTEX
  8
0
 10
2.193966
 20
4.945628
 42
0.171931
  0
VERTEX
  8
0
 10
2.121724
 20
4.946576
 42
0.282322
  0
VERTEX
  8
0
 10
2.045879
 20
4.74331
 42
0.04358
  0
VERTEX
  8
0
 10
2.060816
 20
4.744026
 42
0.013065
  0
VERTEX
  8
0
 10
2.076385
 20
4.746512
 42
-0.055268
  0
VERTEX
  8
0
 10
2.106891
 20
4.749714
 42
-0.203092
  0
VERTEX
  8
0
 10
2.132342
 20
4.738758
 42
-0.122483
  0
VERTEX
  8
0
 10
2.137534
 20
4.722898
 42
-0.035174
  0
VERTEX
  8
0
 10
2.137688
 20
4.704932
 42
0.074475
  0
VERTEX
  8
0
 10
2.139133
 20
4.679997
 42
0.232381
  0
VERTEX
  8
0
 10
2.155094
 20
4.661396
 42
0.049469
  0
VERTEX
  8
0
 10
2.160047
 20
4.69535
 42
0.013513
  0
VERTEX
  8
0
 10
2.160996
 20
4.733491
 42
-0.04599
  0
VERTEX
  8
0
 10
2.165714
 20
4.803986
 42
0.116784
  0
VERTEX
  8
0
 10
2.177501
 20
4.823707
 42
0.037958
  0
VERTEX
  8
0
 10
2.182719
 20
4.846387
 42
-0.058884
  0
VERTEX
  8
0
 10
2.189931
 20
4.874233
 42
-0.165233
  0
VERTEX
  8
0
 10
2.209703
 20
4.896518
 42
-0.175146
  0
VERTEX
  8
0
 10
2.270189
 20
4.785784
 42
-0.060501
  0
VERTEX
  8
0
 10
2.274929
 20
4.656846
 42
-0.007831
  0
VERTEX
  8
0
 10
2.264039
 20
4.655883
 42
0.018418
  0
VERTEX
  8
0
 10
2.204685
 20
4.649422
 42
0.035277
  0
VERTEX
  8
0
 10
2.175795
 20
4.643123
 42
0.154618
  0
VERTEX
  8
0
 10
2.159646
 20
4.634092
 42
0.070915
  0
VERTEX
  8
0
 10
2.180503
 20
4.562797
 42
0.207183
  0
VERTEX
  8
0
 10
2.23094
 20
4.514256
  0
VERTEX
  8
0
 10
2.241558
 20
4.514256
 42
-0.282715
  0
VERTEX
  8
0
 10
2.199275
 20
4.47785
 42
-0.179772
  0
VERTEX
  8
0
 10
2.144478
 20
4.486951
 42
-0.116994
  0
VERTEX
  8
0
 10
2.040759
 20
4.68946
 42
-0.184545
  0
VERTEX
  8
0
 10
2.056497
 20
4.896518
 42
-0.171692
  0
VERTEX
  8
0
 10
2.085887
 20
4.941267
 42
-0.075887
  0
VERTEX
  8
0
 10
2.132342
 20
4.967812
 42
-0.257111
  0
VERTEX
  8
0
 10
2.302233
 20
4.907136
 42
0.172115
  0
VERTEX
  8
0
 10
2.311082
 20
4.91591
 42
0.054836
  0
VERTEX
  8
0
 10
2.315091
 20
4.927589
 42
-0.027
  0
VERTEX
  8
0
 10
2.317255
 20
4.934794
 42
-0.11056
  0
VERTEX
  8
0
 10
2.320541
 20
4.940169
 42
-0.185819
  0
VERTEX
  8
0
 10
2.326231
 20
4.942483
 42
-0.103865
  0
VERTEX
  8
0
 10
2.335606
 20
4.940508
 42
0.100789
  0
VERTEX
  8
0
 10
2.272444
 20
5.027421
 42
0.097549
  0
VERTEX
  8
0
 10
2.169328
 20
5.09471
  0
VERTEX
  8
0
 10
2.159646
 20
5.125572
 42
-0.211887
  0
VERTEX
  8
0
 10
2.325746
 20
5.012941
 42
-0.090987
  0
VERTEX
  8
0
 10
2.405383
 20
4.825224
 42
0.05676
  0
VERTEX
  8
0
 10
2.406377
 20
4.792627
 42
0.015731
  0
VERTEX
  8
0
 10
2.412342
 20
4.757575
 42
-0.011644
  0
VERTEX
  8
0
 10
2.417518
 20
4.72814
 42
0.097287
  0
VERTEX
  8
0
 10
2.402163
 20
4.718473
 42
0.034015
  0
VERTEX
  8
0
 10
2.39022
 20
4.705395
 42
-0.0
  0
SEQEND
  8
0
  0
POLYLINE
  8
0
 66
1
 70
1
  0
VERTEX
  8
0
 10
2.384146
 20
4.978432
 42
-0.002691
  0
VERTEX
  8
0
 10
2.370482
 20
4.999793
 42
0.037942
  0
VERTEX
  8
0
 10
2.311544
 20
5.082982
 42
0.125278
  0
VERTEX
  8
0
 10
2.23094
 20
5.142258
 42
0.047794
  0
VERTEX
  8
0
 10
2.312902
 20
5.147025
 42
-0.080203
  0
VERTEX
  8
0
 10
2.396514
 20
5.148894
 42
-0.188676
  0
VERTEX
  8
0
 10
2.472126
 20
5.098267
 42
-0.100318
  0
VERTEX
  8
0
 10
2.543282
 20
5.003882
 42
-0.034939
  0
VERTEX
  8
0
 10
2.58503
 20
4.895905
 42
0.001206
  0
VERTEX
  8
0
 10
2.59196
 20
4.875281
 42
0.087561
  0
VERTEX
  8
0
 10
2.50929
 20
4.808916
 42
0.063995
  0
VERTEX
  8
0
 10
2.449372
 20
4.722074
 42
-0.006925
  0
VERTEX
  8
0
 10
2.439473
 20
4.781126
 42
0.022049
  0
VERTEX
  8
0
 10
2.420602
 20
4.881422
 42
0.062822
  0
SEQEND
  8
0
  0
POLYLINE
  8
0
 66
1
 70
1
  0
VERTEX
  8
0
 10
2.526733
 20
4.295819
 42
0.165878
  0
VERTEX
  8
0
 10
2.609779
 20
4.381385
 42
0.052253
  0
VERTEX
  8
0
 10
2.648884
 20
4.496275
 42
-0.010233
  0
VERTEX
  8
0
 10
2.663254
 20
4.547628
 42
-0.150814
  0
VERTEX
  8
0
 10
2.677503
 20
4.476595
 42
-0.087965
  0
VERTEX
  8
0
 10
2.656656
 20
4.388006
 42
-0.122269
  0
VERTEX
  8
0
 10
2.604977
 20
4.316276
 42
-0.223993
  0
SEQEND
  8
0
  0
POLYLINE
  8
0
 66
1
 70
1
  0
VERTEX
  8
0
 10
2.792685
 20
5.026654
 42
0.012532
  0
VERTEX
  8
0
 10
2.782417
 20
5.026188
 42
-0.012548
  0
VERTEX
  8
0
 10
2.761184
 20
5.025317
 42
-0.039442
  0
VERTEX
  8
0
 10
2.738075
 20
5.026654
 42
-0.105117
  0
VERTEX
  8
0
 10
2.657987
 20
5.074918
 42
-0.025524
  0
VERTEX
  8
0
 10
2.578154
 20
5.154964
 42
0.055152
  0
VERTEX
  8
0
 10
2.424997
 20
5.295814
 42
0.151024
  0
VERTEX
  8
0
 10
2.208217
 20
5.366931
 42
0.02596
  0
VERTEX
  8
0
 10
1.594888
 20
5.40985
 42
-0.004803
  0
VERTEX
  8
0
 10
1.319287
 20
5.421371
 42
-0.040655
  0
VERTEX
  8
0
 10
1.243751
 20
5.333316
 42
0.02084
  0
VERTEX
  8
0
 10
1.187324
 20
5.270868
 42
0.068912
  0
VERTEX
  8
0
 10
1.144844
 20
5.202935
  0
VERTEX
  8
0
 10
1.149394
 20
5.169562
 42
0.011475
  0
VERTEX
  8
0
 10
1.142474
 20
5.169351
 42
-0.024275
  0
VERTEX
  8
0
 10
1.133454
 20
5.169219
 42
-0.093022
  0
VERTEX
  8
0
 10
1.125774
 20
5.170839
 42
-0.162334
  0
VERTEX
  8
0
 10
1.12021
 20
5.17594
 42
-0.111911
  0
VERTEX
  8
0
 10
1.11754
 20
5.186247
 42
-0.13994
  0
VERTEX
  8
0
 10
1.152923
 20
5.281992
 42
-0.041629
  0
VERTEX
  8
0
 10
1.224404
 20
5.364243
 42
0.039396
  0
VERTEX
  8
0
 10
1.298051
 20
5.448674
 42
-0.007297
  0
VERTEX
  8
0
 10
2.025783
 20
5.409828
 42
0.001605
  0
VERTEX
  8
0
 10
2.384146
 20
5.387999
 42
-0.056647
  0
VERTEX
  8
0
 10
2.722414
 20
5.066412
 42
0.082857
  0
VERTEX
  8
0
 10
2.866329
 20
5.087269
 42
0.025183
  0
VERTEX
  8
0
 10
2.921008
 20
5.105662
 42
0.03438
  0
VERTEX
  8
0
 10
2.934882
 20
5.11212
 42
0.110035
  0
VERTEX
  8
0
 10
2.93731
 20
5.114074
 42
0.666962
  0
VERTEX
  8
0
 10
2.936296
 20
5.114953
 42
0.040487
  0
VERTEX
  8
0
 10
2.8855
 20
5.156702
 42
0.010675
  0
VERTEX
  8
0
 10
2.824763
 20
5.197566
 42
-0.01259
  0
VERTEX
  8
0
 10
2.763241
 20
5.239145
 42
-0.056566
  0
VERTEX
  8
0
 10
2.717862
 20
5.278781
 42
0.210799
  0
VERTEX
  8
0
 10
2.734043
 20
5.31735
 42
0.069994
  0
VERTEX
  8
0
 10
2.725901
 20
5.358283
 42
-0.016623
  0
VERTEX
  8
0
 10
2.720371
 20
5.37866
 42
-0.054827
  0
VERTEX
  8
0
 10
2.717862
 20
5.398617
 42
0.005709
  0
VERTEX
  8
0
 10
2.752258
 20
5.367232
 42
-0.020568
  0
VERTEX
  8
0
 10
2.828498
 20
5.294773
 42
-0.089115
  0
VERTEX
  8
0
 10
2.881686
 20
5.219621
 42
0.000202
  0
VERTEX
  8
0
 10
2.886114
 20
5.216672
 42
-0.050814
  0
VERTEX
  8
0
 10
2.961267
 20
5.158802
 42
-0.189026
  0
VERTEX
  8
0
 10
3.001522
 20
5.077031
  0
VERTEX
  8
0
 10
3.001522
 20
5.077031
 42
0.007605
  0
VERTEX
  8
0
 10
2.899947
 20
5.060375
 42
0.014469
  0
VERTEX
  8
0
 10
2.827235
 20
5.045405
 42
0.099407
  0
VERTEX
  8
0
 10
2.788133
 20
5.031206
  0
SEQEND
  8
0
  0
POLYLINE
  8
0
 66
1
 70
1
  0
VERTEX
  8
0
 10
3.52485
 20
4.810054
 42
0.074682
  0
VERTEX
  8
0
 10
3.530026
 20
4.831646
 42
0.02889
  0
VERTEX
  8
0
 10
3.53043
 20
4.852131
 42
-0.045446
  0
VERTEX
  8
0
 10
3.53146
 20
4.876988
 42
-0.11035
  0
VERTEX
  8
0
 10
3.541536
 20
4.902586
 42
-0.253166
  0
VERTEX
  8
0
 10
3.541744
 20
4.929636
 42
-0.068612
  0
VERTEX
  8
0
 10
3.560223
 20
4.953361
 42
0.01721
  0
VERTEX
  8
0
 10
3.571098
 20
4.965613
 42
0.059361
  0
VERTEX
  8
0
 10
3.579457
 20
4.978432
 42
-0.14637
  0
VERTEX
  8
0
 10
3.644874
 20
5.009907
 42
-0.071406
  0
VERTEX
  8
0
 10
3.715978
 20
5.011803
 42
0.161826
  0
VERTEX
  8
0
 10
3.647529
 20
4.905619
 42
0.116039
  0
VERTEX
  8
0
 10
3.646201
 20
4.776682
 42
-0.276255
  0
VERTEX
  8
0
 10
3.630653
 20
4.745846
 42
-0.135798
  0
VERTEX
  8
0
 10
3.586663
 20
4.725675
 42
-0.254018
  0
VERTEX
  8
0
 10
3.542105
 20
4.739351
 42
-0.123767
  0
VERTEX
  8
0
 10
3.528322
 20
4.766126
 42
-0.077246
  0
SEQEND
  8
0
  0
POLYLINE
  8
0
 66
1
 70
1
  0
VERTEX
  8
0
 10
3.667437
 20
4.803986
 42
-0.070188
  0
VERTEX
  8
0
 10
3.681848
 20
4.912825
 42
-0.22027
  0
VERTEX
  8
0
 10
3.755417
 20
5.001185
 42
-0.010009
  0
VERTEX
  8
0
 10
3.816564
 20
4.994171
 42
0.019851
  0
VERTEX
  8
0
 10
3.913174
 20
4.984499
 42
0.192689
  0
VERTEX
  8
0
 10
3.858567
 20
4.776682
  0
VERTEX
  8
0
 10
3.907107
 20
4.688701
 42
0.202168
  0
VERTEX
  8
0
 10
3.85802
 20
4.718609
 42
0.051257
  0
VERTEX
  8
0
 10
3.792382
 20
4.722454
 42
-0.022161
  0
VERTEX
  8
0
 10
3.747858
 20
4.723418
 42
-0.081962
  0
VERTEX
  8
0
 10
3.708771
 20
4.73215
 42
-0.155615
  0
VERTEX
  8
0
 10
3.680253
 20
4.756417
 42
-0.126889
  0
SEQEND
  8
0
  0
POLYLINE
  8
0
 66
1
 70
1
  0
VERTEX
  8
0
 10
3.891939
 20
4.770614
 42
-0.315367
  0
VERTEX
  8
0
 10
3.967782
 20
4.984499
 42
-0.099727
  0
VERTEX
  8
0
 10
4.087618
 20
5.001185
 42
0.179586
  0
VERTEX
  8
0
 10
4.008738
 20
4.919082
 42
0.102746
  0
VERTEX
  8
0
 10
3.984468
 20
4.803986
 42
0.116931
  0
VERTEX
  8
0
 10
3.996224
 20
4.745964
 42
0.05926
  0
VERTEX
  8
0
 10
4.028458
 20
4.694768
 42
0.184432
  0
VERTEX
  8
0
 10
3.998737
 20
4.713653
 42
0.053995
  0
VERTEX
  8
0
 10
3.961644
 20
4.716963
 42
-0.025114
  0
VERTEX
  8
0
 10
3.936651
 20
4.718247
 42
-0.091386
  0
VERTEX
  8
0
 10
3.914912
 20
4.724378
 42
-0.15362
  0
VERTEX
  8
0
 10
3.899112
 20
4.740214
 42
-0.110318
  0
SEQEND
  8
0
  0
POLYLINE
  8
0
 66
1
 70
1
  0
VERTEX
  8
0
 10
4.103089
 20
4.722622
  0
VERTEX
  8
0
 10
4.104303
 20
4.673532
 42
-0.562954
  0
VERTEX
  8
0
 10
4.101479
 20
4.672112
 42
-0.071803
  0
VERTEX
  8
0
 10
4.093945
 20
4.675262
 42
-0.044501
  0
VERTEX
  8
0
 10
4.070362
 20
4.691924
 42
-0.042332
  0
VERTEX
  8
0
 10
4.044789
 20
4.716835
 42
-0.094679
  0
VERTEX
  8
0
 10
4.028458
 20
4.74331
 42
-0.111549
  0
VERTEX
  8
0
 10
4.019547
 20
4.854234
 42
-0.15776
  0
VERTEX
  8
0
 10
4.066381
 20
4.957194
  0
VERTEX
  8
0
 10
4.131607
 20
4.984499
 42
0.182736
  0
VERTEX
  8
0
 10
4.10262
 20
4.941661
 42
0.057864
  0
VERTEX
  8
0
 10
4.0872
 20
4.865507
 42
0.048107
  0
VERTEX
  8
0
 10
4.086854
 20
4.783379
 42
0.10394
  0
SEQEND
  8
0
  0
POLYLINE
  8
0
 66
1
 70
1
  0
VERTEX
  8
0
 10
3.97385
 20
5.121021
 42
-0.011242
  0
VERTEX
  8
0
 10
3.006072
 20
5.152876
  0
VERTEX
  8
0
 10
2.96815
 20
5.202935
 42
0.021405
  0
VERTEX
  8
0
 10
3.193206
 20
5.197354
 42
-0.033179
  0
VERTEX
  8
0
 10
3.470242
 20
5.186247
  0
VERTEX
  8
0
 10
4.087618
 20
5.169562
  0
VERTEX
  8
0
 10
4.131607
 20
5.114953
 42
-0.01725
  0
VERTEX
  8
0
 10
4.058714
 20
5.119282
 42
0.009321
  0
VERTEX
  8
0
 10
4.00368
 20
5.123057
 42
0.023053
  0
VERTEX
  8
0
 10
3.984174
 20
5.123117
 42
0.11479
  0
SEQEND
  8
0
  0
POLYLINE
  8
0
 66
1
 70
1
  0
VERTEX
  8
0
 10
4.136461
 20
5.14129
 42
-0.080352
  0
VERTEX
  8
0
 10
3.919904
 20
5.543605
 42
-0.031972
  0
VERTEX
  8
0
 10
3.813944
 20
5.944364
 42
0.000295
  0
VERTEX
  8
0
 10
3.805778
 20
5.981661
 42
0.015148
  0
VERTEX
  8
0
 10
3.796002
 20
6.137967
 42
-0.030597
  0
VERTEX
  8
0
 10
3.787272
 20
6.343653
  0
VERTEX
  8
0
 10
3.79789
 20
6.343653
 42
0.029529
  0
VERTEX
  8
0
 10
3.859894
 20
5.855966
 42
0.068843
  0
VERTEX
  8
0
 10
4.011772
 20
5.404685
 42
0.052782
  0
VERTEX
  8
0
 10
4.127625
 20
5.209192
 42
0.026642
  0
VERTEX
  8
0
 10
4.278746
 20
5.028489
  0
VERTEX
  8
0
 10
4.371276
 20
5.005736
 42
0.238031
  0
VERTEX
  8
0
 10
4.366979
 20
4.999991
 42
0.063661
  0
VERTEX
  8
0
 10
4.366643
 20
4.992136
 42
-0.009712
  0
VERTEX
  8
0
 10
4.366725
 20
4.989049
 42
0.008008
  0
VERTEX
  8
0
 10
4.348545
 20
4.990426
 42
-0.031351
  0
VERTEX
  8
0
 10
4.293839
 20
4.996467
 42
-0.114415
  0
VERTEX
  8
0
 10
4.242643
 20
5.016904
 42
-0.103276
  0
VERTEX
  8
0
 10
4.202978
 20
5.049641
 42
-0.026365
  0
VERTEX
  8
0
 10
4.167073
 20
5.098412
 42
0.01389
  0
SEQEND
  8
0
  0
POLYLINE
  8
0
 66
1
 70
1
  0
VERTEX
  8
0
 10
4.715611
 20
4.568864
 42
-0.009843
  0
VERTEX
  8
0
 10
4.164979
 20
4.612856
 42
-0.000019
  0
VERTEX
  8
0
 10
4.164979
 20
4.612856
  0
VERTEX
  8
0
 10
4.164979
 20
4.650778
  0
VERTEX
  8
0
 10
4.188339
 20
4.673217
  0
VERTEX
  8
0
 10
4.186917
 20
4.634808
  0
VERTEX
  8
0
 10
4.701485
 20
4.596863
  0
VERTEX
  8
0
 10
4.724244
 20
4.611087
 42
0.022774
  0
SEQEND
  8
0
  0
POLYLINE
  8
0
 66
1
  0
VERTEX
  8
0
 10
4.71561
 20
4.667464
  0
VERTEX
  8
0
 10
4.322736
 20
4.694768
  0
VERTEX
  8
0
 10
4.356107
 20
4.755444
  0
VERTEX
  8
0
 10
4.366725
 20
4.74331
 42
-0.002131
  0
VERTEX
  8
0
 10
4.509656
 20
4.732483
 42
0.004651
  0
VERTEX
  8
0
 10
4.745585
 20
4.715432
 42
-0.079855
  0
VERTEX
  8
0
 10
4.728322
 20
4.683484
 42
-0.023554
  0
VERTEX
  8
0
 10
4.71561
 20
4.667464
  0
SEQEND
  8
0
  0
POLYLINE
  8
0
 66
1
 70
1
  0
VERTEX
  8
0
 10
4.786375
 20
4.772333
  0
VERTEX
  8
0
 10
4.332512
 20
4.808857
  0
VERTEX
  8
0
 10
4.333354
 20
4.831289
  0
VERTEX
  8
0
 10
4.792972
 20
4.793368
  0
SEQEND
  8
0
  0
POLYLINE
  8
0
 66
1
 70
1
  0
VERTEX
  8
0
 10
4.961349
 20
4.650778
 42
-0.117336
  0
VERTEX
  8
0
 10
4.905412
 20
4.663293
 42
-0.206742
  0
VERTEX
  8
0
 10
4.868817
 20
4.705387
 42
-0.208366
  0
VERTEX
  8
0
 10
4.861612
 20
4.768529
 42
-0.24696
  0
VERTEX
  8
0
 10
4.902189
 20
4.814606
 42
-0.266209
  0
VERTEX
  8
0
 10
4.967605
 20
4.811192
 42
-0.122094
  0
VERTEX
  8
0
 10
5.011406
 20
4.759996
 42
-0.174501
  0
VERTEX
  8
0
 10
5.010836
 20
4.692303
 42
-0.269493
  0
SEQEND
  8
0
  0
POLYLINE
  8
0
 66
1
 70
1
  0
VERTEX
  8
0
 10
5.015956
 20
4.803986
 42
-0.003139
  0
VERTEX
  8
0
 10
5.001166
 20
4.821241
 42
-0.007284
  0
VERTEX
  8
0
 10
4.991638
 20
4.832784
 42
-0.017794
  0
VERTEX
  8
0
 10
4.988954
 20
4.83636
 42
-0.056428
  0
VERTEX
  8
0
 10
4.988458
 20
4.837234
 42
0.843691
  0
VERTEX
  8
0
 10
4.988651
 20
4.837358
 42
-0.06447
  0
VERTEX
  8
0
 10
5.034196
 20
4.865849
 42
-0.018965
  0
VERTEX
  8
0
 10
5.086272
 20
4.887719
 42
0.0036
  0
VERTEX
  8
0
 10
5.108486
 20
4.896518
  0
VERTEX
  8
0
 10
5.147925
 20
4.891968
 42
-0.278963
  0
VERTEX
  8
0
 10
5.125017
 20
4.846679
 42
-0.076334
  0
VERTEX
  8
0
 10
5.072587
 20
4.826669
 42
0.020373
  0
VERTEX
  8
0
 10
5.042072
 20
4.817377
 42
0.072488
  0
SEQEND
  8
0
  0
POLYLINE
  8
0
 66
1
 70
1
  0
VERTEX
  8
0
 10
4.251442
 20
5.142258
  0
VERTEX
  8
0
 10
4.219587
 20
5.169562
 42
0.006752
  0
VERTEX
  8
0
 10
4.979485
 20
5.141746
 42
-0.001335
  0
VERTEX
  8
0
 10
5.322368
 20
5.13164
 42
0.077638
  0
VERTEX
  8
0
 10
5.312828
 20
5.119531
 42
0.028622
  0
VERTEX
  8
0
 10
5.306499
 20
5.106368
 42
-0.044803
  0
VERTEX
  8
0
 10
5.298407
 20
5.090417
 42
-0.114231
  0
VERTEX
  8
0
 10
5.284446
 20
5.077031
 42
-0.001302
  0
SEQEND
  8
0
  0
POLYLINE
  8
0
 66
1
 70
1
  0
VERTEX
  8
0
 10
6.337169
 20
3.957549
 42
-0.126854
  0
VERTEX
  8
0
 10
6.220194
 20
3.814272
 42
-0.10037
  0
VERTEX
  8
0
 10
6.050886
 20
3.729018
 42
0.130332
  0
VERTEX
  8
0
 10
6.224707
 20
3.885842
 42
0.096132
  0
VERTEX
  8
0
 10
6.317753
 20
4.10979
 42
-0.056823
  0
VERTEX
  8
0
 10
6.317512
 20
4.175082
 42
-0.021376
  0
VERTEX
  8
0
 10
6.327133
 20
4.235571
 42
0.028285
  0
VERTEX
  8
0
 10
6.337383
 20
4.304021
 42
0.074045
  0
VERTEX
  8
0
 10
6.332619
 20
4.377733
 42
0.139527
  0
VERTEX
  8
0
 10
6.301985
 20
4.350498
 42
0.051122
  0
VERTEX
  8
0
 10
6.285191
 20
4.315141
 42
-0.061397
  0
VERTEX
  8
0
 10
6.265992
 20
4.276136
 42
-0.154152
  0
VERTEX
  8
0
 10
6.227953
 20
4.247279
 42
-0.110788
  0
VERTEX
  8
0
 10
6.178654
 20
4.022206
 42
-0.162311
  0
VERTEX
  8
0
 10
6.015589
 20
3.848331
 42
-0.287106
  0
VERTEX
  8
0
 10
5.58479
 20
3.951481
  0
VERTEX
  8
0
 10
5.540801
 20
3.913558
 42
-0.121426
  0
VERTEX
  8
0
 10
5.349863
 20
4.308145
 42
-0.150163
  0
VERTEX
  8
0
 10
5.387594
 20
4.749378
 42
-0.05957
  0
VERTEX
  8
0
 10
5.483917
 20
4.880401
 42
-0.097321
  0
VERTEX
  8
0
 10
5.616644
 20
4.978432
 42
-0.166139
  0
VERTEX
  8
0
 10
5.873
 20
4.991515
 42
-0.111032
  0
VERTEX
  8
0
 10
6.0975
 20
4.869214
 42
-0.292538
  0
SEQEND
  8
0
  0
POLYLINE
  8
0
 66
1
 70
1
  0
VERTEX
  8
0
 10
6.42515
 20
4.623474
 42
0.027168
  0
VERTEX
  8
0
 10
6.394053
 20
4.532458
 42
0.071062
  0
VERTEX
  8
0
 10
6.38116
 20
4.432343
 42
0.109642
  0
VERTEX
  8
0
 10
6.205011
 20
4.796212
 42
0.165164
  0
VERTEX
  8
0
 10
5.873
 20
5.022422
  0
VERTEX
  8
0
 10
5.780469
 20
5.03304
 42
-0.05507
  0
VERTEX
  8
0
 10
5.994919
 20
5.055926
 42
-0.142793
  0
VERTEX
  8
0
 10
6.212785
 20
4.989049
 42
-0.098691
  0
VERTEX
  8
0
 10
6.392365
 20
4.799647
 42
-0.036816
  0
VERTEX
  8
0
 10
6.485032
 20
4.630236
 42
0.001066
  0
VERTEX
  8
0
 10
6.490376
 20
4.618922
 42
-0.060045
  0
VERTEX
  8
0
 10
6.478825
 20
4.620509
 42
-0.018202
  0
VERTEX
  8
0
 10
6.467086
 20
4.624011
 42
0.059375
  0
VERTEX
  8
0
 10
6.44595
 20
4.629104
 42
0.182846
  0
SEQEND
  8
0
  0
POLYLINE
  8
0
 66
1
 70
1
  0
VERTEX
  8
0
 10
6.797092
 20
4.570932
  0
VERTEX
  8
0
 10
6.763417
 20
4.591618
 42
-0.006801
  0
VERTEX
  8
0
 10
6.758779
 20
5.171601
 42
0.000266
  0
VERTEX
  8
0
 10
6.758865
 20
5.295467
 42
-0.160973
  0
VERTEX
  8
0
 10
6.753797
 20
5.299884
 42
-0.059565
  0
VERTEX
  8
0
 10
6.751447
 20
5.305562
 42
0.024767
  0
VERTEX
  8
0
 10
6.750318
 20
5.30872
 42
0.094586
  0
VERTEX
  8
0
 10
6.74875
 20
5.311162
 42
0.156699
  0
VERTEX
  8
0
 10
6.746213
 20
5.312452
 42
0.104779
  0
VERTEX
  8
0
 10
6.742179
 20
5.312153
  0
VERTEX
  8
0
 10
6.731562
 20
5.301533
  0
VERTEX
  8
0
 10
6.731562
 20
4.591618
 42
0.036657
  0
VERTEX
  8
0
 10
6.676954
 20
4.585551
 42
-0.023948
  0
VERTEX
  8
0
 10
6.539588
 20
4.920515
 42
0.011698
  0
VERTEX
  8
0
 10
6.446386
 20
5.158944
 42
0.169953
  0
VERTEX
  8
0
 10
6.240089
 20
5.289541
 42
0.066832
  0
VERTEX
  8
0
 10
5.933676
 20
5.334527
 42
0.060305
  0
VERTEX
  8
0
 10
5.647742
 20
5.309545
 42
0.063239
  0
VERTEX
  8
0
 10
5.55014
 20
5.275705
 42
0.185292
  0
VERTEX
  8
0
 10
5.502879
 20
5.230239
  0
VERTEX
  8
0
 10
5.245007
 20
4.852528
 42
-0.000839
  0
VERTEX
  8
0
 10
5.234389
 20
4.394419
 42
-0.000029
  0
VERTEX
  8
0
 10
5.234389
 20
4.394419
  0
VERTEX
  8
0
 10
5.191833
 20
4.387068
  0
VERTEX
  8
0
 10
5.191833
 20
4.387068
 42
-0.00605
  0
VERTEX
  8
0
 10
5.202533
 20
4.869214
 42
0.020151
  0
VERTEX
  8
0
 10
5.325178
 20
5.053635
 42
-0.018735
  0
VERTEX
  8
0
 10
5.442503
 20
5.230796
 42
-0.056359
  0
VERTEX
  8
0
 10
5.58479
 20
5.387999
  0
VERTEX
  8
0
 10
6.725494
 20
5.350075
 42
-0.091315
  0
VERTEX
  8
0
 10
6.733373
 20
5.348355
 42
-0.024679
  0
VERTEX
  8
0
 10
6.741464
 20
5.344589
 42
0.024292
  0
VERTEX
  8
0
 10
6.749328
 20
5.340922
 42
0.093012
  0
VERTEX
  8
0
 10
6.756813
 20
5.339288
 42
0.173363
  0
VERTEX
  8
0
 10
6.763629
 20
5.341676
 42
0.121814
  0
VERTEX
  8
0
 10
6.769485
 20
5.350075
 42
0.13584
  0
VERTEX
  8
0
 10
6.70573
 20
5.377534
 42
0.037557
  0
VERTEX
  8
0
 10
6.629748
 20
5.382911
 42
-0.035925
  0
VERTEX
  8
0
 10
6.555603
 20
5.387999
 42
0.00106
  0
VERTEX
  8
0
 10
5.742547
 20
5.415303
 42
0.000015
  0
VERTEX
  8
0
 10
5.742547
 20
5.415303
 42
-0.082036
  0
VERTEX
  8
0
 10
6.331075
 20
5.473213
 42
-0.019452
  0
VERTEX
  8
0
 10
6.812279
 20
5.440813
 42
0.00672
  0
VERTEX
  8
0
 10
6.840778
 20
5.438057
 42
0.050342
  0
VERTEX
  8
0
 10
6.882368
 20
5.431698
 42
-0.056356
  0
VERTEX
  8
0
 10
6.918663
 20
5.426034
 42
-0.14984
  0
VERTEX
  8
0
 10
6.949994
 20
5.404685
 42
-0.067872
  0
VERTEX
  8
0
 10
6.96151
 20
5.390199
 42
-0.109214
  0
VERTEX
  8
0
 10
6.965359
 20
5.378523
 42
-0.140203
  0
VERTEX
  8
0
 10
6.960292
 20
5.359872
 42
0.06662
  0
VERTEX
  8
0
 10
6.955596
 20
5.347573
 42
0.159084
  0
VERTEX
  8
0
 10
6.957501
 20
5.332903
 42
-0.001021
  0
VERTEX
  8
0
 10
6.940536
 20
5.326895
 42
0.029519
  0
VERTEX
  8
0
 10
6.863424
 20
5.296368
 42
0.076473
  0
VERTEX
  8
0
 10
6.793981
 20
5.248507
 42
0.064569
  0
VERTEX
  8
0
 10
6.797086
 20
4.931863
 42
0.249167
  0
VERTEX
  8
0
 10
6.848845
 20
4.917316
 42
0.082268
  0
VERTEX
  8
0
 10
6.898159
 20
4.941155
 42
-0.020707
  0
VERTEX
  8
0
 10
6.925499
 20
4.957033
 42
-0.065842
  0
VERTEX
  8
0
 10
6.954546
 20
4.967812
  0
VERTEX
  8
0
 10
6.965164
 20
4.978432
 42
-0.091571
  0
VERTEX
  8
0
 10
6.967555
 20
4.979945
 42
-0.206475
  0
VERTEX
  8
0
 10
6.969295
 20
4.979924
 42
-0.222472
  0
VERTEX
  8
0
 10
6.971193
 20
4.976192
 42
-0.04752
  0
VERTEX
  8
0
 10
6.971283
 20
4.960357
 42
0.008049
  0
VERTEX
  8
0
 10
6.970982
 20
4.952707
 42
0.037314
  0
VERTEX
  8
0
 10
6.971232
 20
4.946576
 42
0.065087
  0
VERTEX
  8
0
 10
6.921725
 20
4.932735
 42
0.022327
  0
VERTEX
  8
0
 10
6.876026
 20
4.910676
 42
-0.019592
  0
VERTEX
  8
0
 10
6.832888
 20
4.889665
 42
-0.056793
  0
VERTEX
  8
0
 10
6.786169
 20
4.875281
 42
0.049057
  0
VERTEX
  8
0
 10
6.784539
 20
4.807868
 42
0.013245
  0
VERTEX
  8
0
 10
6.791642
 20
4.732639
 42
-0.014232
  0
VERTEX
  8
0
 10
6.799309
 20
4.649972
 42
-0.047976
  0
SEQEND
  8
0
  0
POLYLINE
  8
0
 66
1
 70
1
  0
VERTEX
  8
0
 10
7.320117
 20
4.602236
  0
VERTEX
  8
0
 10
7.292812
 20
4.585551
  0
VERTEX
  8
0
 10
6.824093
 20
4.552178
  0
VERTEX
  8
0
 10
6.818024
 20
4.564312
  0
VERTEX
  8
0
 10
6.824093
 20
4.837358
  0
VERTEX
  8
0
 10
7.336803
 20
4.875281
  0
SEQEND
  8
0
  0
POLYLINE
  8
0
 66
1
 70
1
  0
VERTEX
  8
0
 10
7.582539
 20
4.72814
  0
VERTEX
  8
0
 10
7.347421
 20
4.602236
 42
-0.042836
  0
VERTEX
  8
0
 10
7.364107
 20
4.879832
  0
VERTEX
  8
0
 10
7.593157
 20
4.989049
 42
-0.030634
  0
VERTEX
  8
0
 10
7.586232
 20
4.780031
 42
0.003048
  0
SEQEND
  8
0
  0
POLYLINE
  8
0
 66
1
 70
1
  0
VERTEX
  8
0
 10
3.902557
 20
7.158236
 42
0.000417
  0
VERTEX
  8
0
 10
3.899932
 20
7.156212
 42
-0.050946
  0
VERTEX
  8
0
 10
3.871389
 20
7.137063
 42
-0.14664
  0
VERTEX
  8
0
 10
3.837329
 20
7.130932
 42
0.102274
  0
VERTEX
  8
0
 10
3.816709
 20
7.158544
 42
0.118469
  0
VERTEX
  8
0
 10
3.792459
 20
7.170797
 42
0.09274
  0
VERTEX
  8
0
 10
3.736819
 20
7.169554
 42
-0.023893
  0
VERTEX
  8
0
 10
3.705051
 20
7.166105
 42
-0.074211
  0
VERTEX
  8
0
 10
3.673506
 20
7.168854
 42
-0.059605
  0
VERTEX
  8
0
 10
3.672036
 20
7.174277
 42
-0.016679
  0
VERTEX
  8
0
 10
3.671309
 20
7.180393
 42
0.09054
  0
VERTEX
  8
0
 10
3.668456
 20
7.193703
 42
0.134156
  0
VERTEX
  8
0
 10
3.664281
 20
7.198421
 42
0.124497
  0
VERTEX
  8
0
 10
3.656819
 20
7.20071
 42
0.042441
  0
VERTEX
  8
0
 10
3.635551
 20
7.191321
 42
0.014008
  0
VERTEX
  8
0
 10
3.615391
 20
7.179547
 42
-0.061614
  0
VERTEX
  8
0
 10
3.572452
 20
7.157965
 42
-0.157139
  0
VERTEX
  8
0
 10
3.520299
 20
7.158236
 42
0.207554
  0
VERTEX
  8
0
 10
3.479323
 20
7.163774
 42
0.065015
  0
VERTEX
  8
0
 10
3.440328
 20
7.145744
 42
-0.024771
  0
VERTEX
  8
0
 10
3.414963
 20
7.132421
 42
-0.080397
  0
VERTEX
  8
0
 10
3.388329
 20
7.124864
 42
0.161391
  0
VERTEX
  8
0
 10
3.470242
 20
6.89581
 42
0.224269
  0
VERTEX
  8
0
 10
3.629515
 20
6.835133
 42
0.226582
  0
VERTEX
  8
0
 10
3.675812
 20
6.80792
 42
0.071431
  0
VERTEX
  8
0
 10
3.730814
 20
6.813197
 42
-0.017381
  0
VERTEX
  8
0
 10
3.759533
 20
6.817956
 42
-0.057547
  0
VERTEX
  8
0
 10
3.787272
 20
6.818447
 42
-0.014556
  0
VERTEX
  8
0
 10
3.857095
 20
6.877561
 42
0.037474
  0
VERTEX
  8
0
 10
3.971466
 20
6.980555
 42
0.127542
  0
VERTEX
  8
0
 10
4.043628
 20
7.108178
 42
0.116466
  0
VERTEX
  8
0
 10
4.029644
 20
7.138755
 42
0.138097
  0
VERTEX
  8
0
 10
4.008233
 20
7.153538
 42
0.078573
  0
VERTEX
  8
0
 10
3.981812
 20
7.157788
 42
0.02232
  0
VERTEX
  8
0
 10
3.9528
 20
7.156766
 42
-0.01719
  0
VERTEX
  8
0
 10
3.92691
 20
7.155684
 42
-0.057937
  0
SEQEND
  8
0
  0
POLYLINE
  8
0
 66
1
 70
1
  0
VERTEX
  8
0
 10
4.196833
 20
7.431281
 42
-0.067838
  0
VERTEX
  8
0
 10
4.222326
 20
7.407488
 42
-0.023289
  0
VERTEX
  8
0
 10
4.242809
 20
7.379681
 42
0.02196
  0
VERTEX
  8
0
 10
4.263334
 20
7.351734
 42
0.061162
  0
VERTEX
  8
0
 10
4.289364
 20
7.326614
 42
-0.046213
  0
VERTEX
  8
0
 10
4.335439
 20
7.325666
 42
-0.072174
  0
VERTEX
  8
0
 10
4.354851
 20
7.320428
 42
-0.170604
  0
VERTEX
  8
0
 10
4.366725
 20
7.309928
 42
-0.068606
  0
VERTEX
  8
0
 10
4.384852
 20
7.307218
 42
-0.023232
  0
VERTEX
  8
0
 10
4.402012
 20
7.301269
 42
0.029866
  0
VERTEX
  8
0
 10
4.421333
 20
7.294758
 42
-0.054296
  0
VERTEX
  8
0
 10
4.531687
 20
7.281295
 42
-0.024155
  0
VERTEX
  8
0
 10
4.639767
 20
7.250768
 42
-0.013155
  0
VERTEX
  8
0
 10
4.675961
 20
7.234746
 42
0.015895
  0
VERTEX
  8
0
 10
4.715789
 20
7.217285
 42
0.058929
  0
VERTEX
  8
0
 10
4.753533
 20
7.206778
 42
0.173968
  0
VERTEX
  8
0
 10
4.681102
 20
7.288122
 42
0.122818
  0
VERTEX
  8
0
 10
4.57454
 20
7.315994
 42
-0.00932
  0
VERTEX
  8
0
 10
4.386821
 20
7.373252
 42
0.008932
  0
SEQEND
  8
0
  0
POLYLINE
  8
0
 66
1
 70
1
  0
VERTEX
  8
0
 10
4.295432
 20
6.179826
 42
0.305937
  0
VERTEX
  8
0
 10
4.355546
 20
6.239744
 42
0.077201
  0
VERTEX
  8
0
 10
4.355657
 20
6.337206
 42
-0.018038
  0
VERTEX
  8
0
 10
4.35194
 20
6.389145
 42
-0.065874
  0
VERTEX
  8
0
 10
4.356107
 20
6.436185
 42
0.167375
  0
VERTEX
  8
0
 10
4.34161
 20
6.454884
 42
0.064346
  0
VERTEX
  8
0
 10
4.320949
 20
6.463806
 42
-0.020591
  0
VERTEX
  8
0
 10
4.307443
 20
6.468769
 42
-0.057173
  0
VERTEX
  8
0
 10
4.294218
 20
6.476175
 42
-0.00096
  0
VERTEX
  8
0
 10
4.293267
 20
6.419499
 42
0.020007
  0
SEQEND
  8
0
  0
POLYLINE
  8
0
 66
1
 70
1
  0
VERTEX
  8
0
 10
6.708808
 20
5.86886
 42
0.062386
  0
VERTEX
  8
0
 10
6.819921
 20
5.849139
 42
0.022312
  0
VERTEX
  8
0
 10
6.93331
 20
5.847622
  0
VERTEX
  8
0
 10
6.93331
 20
5.862792
 42
0.064929
  0
VERTEX
  8
0
 10
6.877222
 20
5.877526
 42
0.019781
  0
VERTEX
  8
0
 10
6.817375
 20
5.883001
 42
-0.014158
  0
VERTEX
  8
0
 10
6.769105
 20
5.887038
 42
-0.049438
  0
VERTEX
  8
0
 10
6.725494
 20
5.896164
  0
VERTEX
  8
0
 10
5.557486
 20
5.961392
  0
VERTEX
  8
0
 10
5.3163
 20
5.96746
 42
0.189533
  0
VERTEX
  8
0
 10
5.316899
 20
5.958064
 42
0.070756
  0
VERTEX
  8
0
 10
5.322178
 20
5.950807
 42
-0.045003
  0
VERTEX
  8
0
 10
5.326919
 20
5.944706
  0
SEQEND
  8
0
  0
POLYLINE
  8
0
 66
1
 70
1
  0
VERTEX
  8
0
 10
5.967049
 20
4.72814
 42
0.277992
  0
VERTEX
  8
0
 10
5.694007
 20
4.869214
 42
0.15912
  0
VERTEX
  8
0
 10
5.534734
 20
4.765684
 42
0.114202
  0
VERTEX
  8
0
 10
5.448271
 20
4.596169
 42
0.118757
  0
VERTEX
  8
0
 10
5.437652
 20
4.3108
 42
0.1482
  0
VERTEX
  8
0
 10
5.568106
 20
4.060699
 42
0.104707
  0
VERTEX
  8
0
 10
5.595376
 20
4.062159
 42
0.268924
  0
VERTEX
  8
0
 10
5.60565
 20
4.072521
 42
0.124985
  0
VERTEX
  8
0
 10
5.604335
 20
4.089484
 42
0.024819
  0
VERTEX
  8
0
 10
5.596836
 20
4.110748
 42
-0.059188
  0
VERTEX
  8
0
 10
5.585373
 20
4.148745
 42
-0.249161
  0
VERTEX
  8
0
 10
5.59541
 20
4.182051
 42
0.111061
  0
VERTEX
  8
0
 10
5.736101
 20
4.037377
 42
0.157036
  0
VERTEX
  8
0
 10
5.933676
 20
3.984853
 42
0.152718
  0
VERTEX
  8
0
 10
6.038152
 20
4.031498
 42
0.084653
  0
VERTEX
  8
0
 10
6.114186
 20
4.121375
 42
0.153201
  0
VERTEX
  8
0
 10
6.149834
 20
4.337914
 42
0.093672
  0
VERTEX
  8
0
 10
6.080815
 20
4.547628
 42
0.009641
  0
VERTEX
  8
0
 10
6.049871
 20
4.586049
 42
-0.029538
  0
VERTEX
  8
0
 10
5.997684
 20
4.65442
 42
-0.103797
  0
SEQEND
  8
0
  0
POLYLINE
  8
0
 66
1
 70
1
  0
VERTEX
  8
0
 10
6.114186
 20
4.192671
 42
-0.069646
  0
VERTEX
  8
0
 10
6.06356
 20
4.092364
 42
-0.122891
  0
VERTEX
  8
0
 10
5.977667
 20
4.018226
 42
-0.161417
  0
VERTEX
  8
0
 10
5.826166
 20
4.017087
 42
-0.126216
  0
VERTEX
  8
0
 10
5.694007
 20
4.100139
 42
-0.25355
  0
VERTEX
  8
0
 10
5.572656
 20
4.541561
 42
-0.041452
  0
VERTEX
  8
0
 10
5.617783
 20
4.624232
 42
-0.124341
  0
VERTEX
  8
0
 10
5.687939
 20
4.688701
 42
-0.171738
  0
VERTEX
  8
0
 10
5.82427
 20
4.706714
 42
-0.112533
  0
VERTEX
  8
0
 10
5.950362
 20
4.650778
 42
-0.113516
  0
VERTEX
  8
0
 10
6.09769
 20
4.444478
 42
-0.151372
  0
SEQEND
  8
0
  0
POLYLINE
  8
0
 66
1
 70
1
  0
VERTEX
  8
0
 10
5.944294
 20
4.623474
 42
0.112405
  0
VERTEX
  8
0
 10
5.827304
 20
4.670118
 42
0.171046
  0
VERTEX
  8
0
 10
5.704625
 20
4.650778
 42
0.199131
  0
VERTEX
  8
0
 10
5.59541
 20
4.493018
 42
0.11976
  0
VERTEX
  8
0
 10
5.611147
 20
4.273445
 42
0.160083
  0
VERTEX
  8
0
 10
5.748615
 20
4.088004
 42
0.079193
  0
VERTEX
  8
0
 10
5.84892
 20
4.052925
 42
0.165538
  0
VERTEX
  8
0
 10
5.954912
 20
4.066767
 42
0.208573
  0
VERTEX
  8
0
 10
6.076264
 20
4.213907
 42
0.294316
  0
SEQEND
  8
0
  0
POLYLINE
  8
0
 66
1
 70
1
  0
VERTEX
  8
0
 10
5.950362
 20
4.088004
 42
0.044097
  0
VERTEX
  8
0
 10
5.926481
 20
4.123577
 42
-0.033412
  0
VERTEX
  8
0
 10
5.902482
 20
4.158458
 42
-0.111413
  0
VERTEX
  8
0
 10
5.889686
 20
4.197221
 42
0.0
  0
VERTEX
  8
0
 10
5.889757
 20
4.197138
 42
-0.006044
  0
VERTEX
  8
0
 10
5.967049
 20
4.10469
  0
SEQEND
  8
0
  0
POLYLINE
  8
0
 66
1
 70
1
  0
VERTEX
  8
0
 10
5.927608
 20
4.377733
 42
0.020718
  0
VERTEX
  8
0
 10
6.053511
 20
4.373183
 42
-0.173639
  0
VERTEX
  8
0
 10
6.021656
 20
4.165365
 42
-0.097064
  0
VERTEX
  8
0
 10
5.990879
 20
4.181882
 42
-0.029292
  0
VERTEX
  8
0
 10
5.963553
 20
4.206954
 42
0.049925
  0
VERTEX
  8
0
 10
5.92451
 20
4.240783
 42
0.13948
  0
VERTEX
  8
0
 10
5.873
 20
4.257897
 42
0.151698
  0
VERTEX
  8
0
 10
5.861196
 20
4.213907
 42
0.087691
  0
VERTEX
  8
0
 10
5.871862
 20
4.166503
 42
0.053278
  0
VERTEX
  8
0
 10
5.923058
 20
4.077385
 42
-0.116143
  0
VERTEX
  8
0
 10
5.866743
 20
4.073593
 42
-0.055312
  0
VERTEX
  8
0
 10
5.813842
 20
4.088004
 42
-0.049517
  0
VERTEX
  8
0
 10
5.808023
 20
4.187441
 42
0.008689
  0
VERTEX
  8
0
 10
5.807775
 20
4.23666
 42
0.075365
  0
VERTEX
  8
0
 10
5.788624
 20
4.254105
 42
0.203643
  0
VERTEX
  8
0
 10
5.763785
 20
4.257897
 42
0.096172
  0
VERTEX
  8
0
 10
5.744495
 20
4.228553
 42
0.032581
  0
VERTEX
  8
0
 10
5.733554
 20
4.195571
 42
-0.017749
  0
VERTEX
  8
0
 10
5.726022
 20
4.17127
 42
-0.054822
  0
VERTEX
  8
0
 10
5.715243
 20
4.148679
  0
VERTEX
  8
0
 10
5.650018
 20
4.241211
 42
-0.157135
  0
VERTEX
  8
0
 10
5.662704
 20
4.252673
 42
-0.03205
  0
VERTEX
  8
0
 10
5.682802
 20
4.261213
 42
0.024739
  0
VERTEX
  8
0
 10
5.701011
 20
4.26876
 42
0.108983
  0
VERTEX
  8
0
 10
5.714154
 20
4.27843
 42
0.240164
  0
VERTEX
  8
0
 10
5.717076
 20
4.292315
 42
0.123679
  0
VERTEX
  8
0
 10
5.704625
 20
4.312507
 42
0.115854
  0
VERTEX
  8
0
 10
5.69433
 20
4.324278
 42
0.130667
  0
VERTEX
  8
0
 10
5.682604
 20
4.328321
 42
0.093158
  0
VERTEX
  8
0
 10
5.656735
 20
4.323514
 42
-0.017144
  0
VERTEX
  8
0
 10
5.644874
 20
4.320118
 42
-0.057783
  0
VERTEX
  8
0
 10
5.633331
 20
4.318574
  0
VERTEX
  8
0
 10
5.627264
 20
4.312507
 42
-0.103452
  0
VERTEX
  8
0
 10
5.612094
 20
4.43841
 42
0.133432
  0
VERTEX
  8
0
 10
5.637609
 20
4.426908
 42
0.059501
  0
VERTEX
  8
0
 10
5.663103
 20
4.427154
 42
-0.045401
  0
VERTEX
  8
0
 10
5.694007
 20
4.427792
 42
0.273386
  0
VERTEX
  8
0
 10
5.687223
 20
4.468878
 42
0.08872
  0
VERTEX
  8
0
 10
5.654129
 20
4.492606
 42
-0.03438
  0
VERTEX
  8
0
 10
5.634307
 20
4.50478
 42
-0.153447
  0
VERTEX
  8
0
 10
5.622607
 20
4.519375
 42
-0.207275
  0
VERTEX
  8
0
 10
5.62564
 20
4.53965
 42
-0.081871
  0
VERTEX
  8
0
 10
5.650018
 20
4.568864
  0
VERTEX
  8
0
 10
5.666703
 20
4.585551
 42
-0.02592
  0
VERTEX
  8
0
 10
5.693311
 20
4.553123
 42
0.023778
  0
VERTEX
  8
0
 10
5.718967
 20
4.521685
 42
0.080616
  0
VERTEX
  8
0
 10
5.748615
 20
4.497569
 42
0.187235
  0
VERTEX
  8
0
 10
5.755111
 20
4.541179
 42
0.047975
  0
VERTEX
  8
0
 10
5.74016
 20
4.588863
 42
-0.010945
  0
VERTEX
  8
0
 10
5.731711
 20
4.611908
 42
-0.037362
  0
VERTEX
  8
0
 10
5.725862
 20
4.634092
 42
-0.10765
  0
VERTEX
  8
0
 10
5.768714
 20
4.648124
 42
-0.083183
  0
VERTEX
  8
0
 10
5.813842
 20
4.646228
 42
0.034984
  0
VERTEX
  8
0
 10
5.799432
 20
4.565452
 42
0.085165
  0
VERTEX
  8
0
 10
5.803224
 20
4.486951
 42
0.154408
  0
VERTEX
  8
0
 10
5.834468
 20
4.476197
 42
0.196507
  0
VERTEX
  8
0
 10
5.856566
 20
4.486697
 42
0.082066
  0
VERTEX
  8
0
 10
5.872525
 20
4.51126
 42
0.020203
  0
VERTEX
  8
0
 10
5.885353
 20
4.542691
 42
-0.019112
  0
VERTEX
  8
0
 10
5.897597
 20
4.572825
 42
-0.079065
  0
VERTEX
  8
0
 10
5.912439
 20
4.596169
  0
VERTEX
  8
0
 10
5.912439
 20
4.606787
 42
-0.103832
  0
VERTEX
  8
0
 10
5.97026
 20
4.558433
 42
-0.03265
  0
VERTEX
  8
0
 10
6.012233
 20
4.498096
 42
0.006133
  0
VERTEX
  8
0
 10
6.026207
 20
4.476332
 42
-0.047304
  0
VERTEX
  8
0
 10
5.981556
 20
4.459264
 42
0.041007
  0
VERTEX
  8
0
 10
5.93985
 20
4.443715
 42
0.127617
  0
VERTEX
  8
0
 10
5.906372
 20
4.415657
 42
0.20809
  0
VERTEX
  8
0
 10
5.910164
 20
4.392145
 42
0.172449
  0
SEQEND
  8
0
  0
POLYLINE
  8
0
 66
1
 70
1
  0
VERTEX
  8
0
 10
5.841146
 20
4.367115
 42
0.11371
  0
VERTEX
  8
0
 10
5.812346
 20
4.386263
 42
0.061701
  0
VERTEX
  8
0
 10
5.785541
 20
4.391411
 42
-0.056658
  0
VERTEX
  8
0
 10
5.757823
 20
4.396597
 42
-0.100922
  0
VERTEX
  8
0
 10
5.725862
 20
4.415657
 42
-0.038827
  0
VERTEX
  8
0
 10
5.730233
 20
4.423915
 42
-0.010983
  0
VERTEX
  8
0
 10
5.735817
 20
4.432396
 42
0.068987
  0
VERTEX
  8
0
 10
5.747028
 20
4.452395
 42
0.322223
  0
VERTEX
  8
0
 10
5.742547
 20
4.470265
 42
0.165688
  0
VERTEX
  8
0
 10
5.704625
 20
4.415657
 42
0.179508
  0
VERTEX
  8
0
 10
5.702919
 20
4.360479
 42
0.104891
  0
VERTEX
  8
0
 10
5.731929
 20
4.306439
 42
0.068113
  0
VERTEX
  8
0
 10
5.777815
 20
4.280272
 42
0.183892
  0
VERTEX
  8
0
 10
5.830526
 20
4.279133
 42
0.191433
  0
VERTEX
  8
0
 10
5.861434
 20
4.302077
 42
0.143879
  0
VERTEX
  8
0
 10
5.873
 20
4.339811
 42
0.194418
  0
VERTEX
  8
0
 10
5.862192
 20
4.363134
 42
0.291633
  0
SEQEND
  8
0
  0
POLYLINE
  8
0
 66
1
 70
1
  0
VERTEX
  8
0
 10
6.801947
 20
5.357208
 42
-0.064235
  0
VERTEX
  8
0
 10
6.800886
 20
5.349888
 42
-0.021332
  0
VERTEX
  8
0
 10
6.798697
 20
5.343123
 42
0.025657
  0
VERTEX
  8
0
 10
6.79692
 20
5.337586
 42
0.135543
  0
VERTEX
  8
0
 10
6.796789
 20
5.33339
 42
-0.037388
  0
VERTEX
  8
0
 10
6.848841
 20
5.350785
 42
0.032948
  0
VERTEX
  8
0
 10
6.897301
 20
5.366657
 42
0.106825
  0
VERTEX
  8
0
 10
6.93786
 20
5.394065
 42
0.075914
  0
VERTEX
  8
0
 10
6.910998
 20
5.392393
 42
0.027299
  0
VERTEX
  8
0
 10
6.875233
 20
5.383523
 42
0.023865
  0
SEQEND
  8
0
  0
ENDSEC
  0
EOF
