  0
SECTION
  2
HEADER
  9
$ACADVER
  1
AC1009
  9
$LIMMIN
 10
11.22351
 20
9.71785
  9
$LIMMAX
 10
309.4765
 20
233.4076
  0
ENDSEC
  0
SECTION
  2
TABLES
  0
TABLE
  2
LTYPE
 70
     4
  0
LTYPE
  2
CONTINUOUS
 70
     0
  3
Solid line
 72
    65
 73
     0
 40
0.000000
  0
LTYPE
  2
HIDDEN
 70
     0
  3
 _ _ _ _ _ _ _ _ _ _ _
 72
    65
 73
     2
 40
0.375000
 49
0.250000
 49
-0.125000
  0
LTYPE
  2
DASHED
 70
     0
  3
 ___ ___ ___ ___ ___ ___ ___ 
 72
    65
 73
     2
 40
0.750000
 49
0.500000
 49
-0.250000
  0
LTYPE
  2
CENTER
 70
     0
  3
___ _ ___ _ ___ _ ___
 72
    65
 73
     4
 40
2.000000
 49
1.250000
 49
-0.250000
 49
0.250000
 49
-0.250000
  0
LTYPE
  2
BORDER
 70
     0
  3
___ ___ . ___ ___ . ___ ___
 72
    65
 73
     6
 40
1.750000
 49
0.500000
 49
-0.250000
 49
0.500000
 49
-0.250000
 49
0.000000
 49
-0.250000
  0
LTYPE
  2
DOT
 70
     0
  3
.................
 72
    65
 73
     2
 40
0.250000
 49
0.000000
 49
-0.250000
  0
LTYPE
  2
DASHDOT
 70
     0
  3
__ . __ . __ . __
 72
    65
 73
     4
 40
1.000000
 49
0.500000
 49
-0.250000
 49
0.000000
 49
-0.250000
  0
LTYPE
  2
DIVIDE
 70
     0
  3
___ .. ___ .. ___ .. ___
 72
    65
 73
     6
 40
1.250000
 49
0.500000
 49
-0.250000
 49
0.000000
 49
-0.250000
 49
0.000000
 49
-0.250000
  0
ENDTAB
  0
TABLE
  2
LAYER
 70
     8
  0
LAYER
  2
BLACK
 70
     0
 62
     0
  6
CONTINUOUS
  0
LAYER
  2
WHITE
 70
     0
 62
     7
  6
CONTINUOUS
  0
LAYER
  2
RED
 70
     0
 62
     1
  6
CONTINUOUS
  0
LAYER
  2
YELLOW
 70
     0
 62
     2
  6
CONTINUOUS
  0
LAYER
  2
GREEN
 70
     0
 62
     3
  6
CONTINUOUS
  0
LAYER
  2
CYAN
 70
     0
 62
     4
  6
CONTINUOUS
  0
LAYER
  2
BLUE
 70
     0
 62
     5
  6
CONTINUOUS
  0
LAYER
  2
MAGENTA
 70
     0
 62
     6
  6
CONTINUOUS
  0
ENDTAB
  0
ENDSEC
  0
SECTION
  2
BLOCKS
  0
ENDSEC
  0
SECTION
  2
ENTITIES
 0
LINE
 8
WHITE
 10
266.38
 20
73.83
 30
0.0000
 11
266.34
 21
73.99
 31
0.0000
 6
CONTINUOUS
 0
LINE
 8
WHITE
 10
266.34
 20
73.99
 30
0.0000
 11
266.25
 21
74.47
 31
0.0000
 6
CONTINUOUS
 0
LINE
 8
WHITE
 10
266.25
 20
74.47
 30
0.0000
 11
266.25
 21
74.97
 31
0.0000
 6
CONTINUOUS
 0
LINE
 8
WHITE
 10
266.25
 20
74.97
 30
0.0000
 11
266.31
 21
75.46
 31
0.0000
 6
CONTINUOUS
 0
LINE
 8
WHITE
 10
266.31
 20
75.46
 30
0.0000
 11
266.45
 21
75.93
 31
0.0000
 6
CONTINUOUS
 0
LINE
 8
WHITE
 10
266.45
 20
75.93
 30
0.0000
 11
266.59
 21
76.25
 31
0.0000
 6
CONTINUOUS
 0
LINE
 8
WHITE
 10
266.59
 20
76.25
 30
0.0000
 11
266.73
 21
76.48
 31
0.0000
 6
CONTINUOUS
 0
LINE
 8
WHITE
 10
266.73
 20
76.48
 30
0.0000
 11
266.91
 21
76.69
 31
0.0000
 6
CONTINUOUS
 0
LINE
 8
WHITE
 10
266.91
 20
76.69
 30
0.0000
 11
267.12
 21
76.87
 31
0.0000
 6
CONTINUOUS
 0
LINE
 8
WHITE
 10
267.12
 20
76.87
 30
0.0000
 11
267.3
 21
76.97
 31
0.0000
 6
CONTINUOUS
 0
LINE
 8
WHITE
 10
267.3
 20
76.97
 30
0.0000
 11
267.51
 21
77.02
 31
0.0000
 6
CONTINUOUS
 0
LINE
 8
WHITE
 10
267.51
 20
77.02
 30
0.0000
 11
267.7
 21
77.02
 31
0.0000
 6
CONTINUOUS
 0
LINE
 8
WHITE
 10
267.7
 20
77.02
 30
0.0000
 11
267.89
 21
76.98
 31
0.0000
 6
CONTINUOUS
 0
LINE
 8
WHITE
 10
267.89
 20
76.98
 30
0.0000
 11
268.03
 21
76.89
 31
0.0000
 6
CONTINUOUS
 0
LINE
 8
WHITE
 10
268.03
 20
76.89
 30
0.0000
 11
268.15
 21
76.74
 31
0.0000
 6
CONTINUOUS
 0
LINE
 8
WHITE
 10
268.15
 20
76.74
 30
0.0000
 11
268.24
 21
76.51
 31
0.0000
 6
CONTINUOUS
 0
LINE
 8
WHITE
 10
268.24
 20
76.51
 30
0.0000
 11
268.28
 21
76.27
 31
0.0000
 6
CONTINUOUS
 0
LINE
 8
WHITE
 10
268.28
 20
76.27
 30
0.0000
 11
268.26
 21
76.01
 31
0.0000
 6
CONTINUOUS
 0
LINE
 8
WHITE
 10
268.26
 20
76.01
 30
0.0000
 11
268.19
 21
75.77
 31
0.0000
 6
CONTINUOUS
 0
LINE
 8
WHITE
 10
268.19
 20
75.77
 30
0.0000
 11
268.03
 21
75.51
 31
0.0000
 6
CONTINUOUS
 0
LINE
 8
WHITE
 10
268.03
 20
75.51
 30
0.0000
 11
267.85
 21
75.34
 31
0.0000
 6
CONTINUOUS
 0
LINE
 8
WHITE
 10
267.85
 20
75.34
 30
0.0000
 11
267.64
 21
75.22
 31
0.0000
 6
CONTINUOUS
 0
LINE
 8
WHITE
 10
267.64
 20
75.22
 30
0.0000
 11
267.52
 21
75.18
 31
0.0000
 6
CONTINUOUS
 0
LINE
 8
WHITE
 10
267.52
 20
75.18
 30
0.0000
 11
267.35
 21
75.18
 31
0.0000
 6
CONTINUOUS
 0
LINE
 8
WHITE
 10
267.35
 20
75.18
 30
0.0000
 11
267.15
 21
75.25
 31
0.0000
 6
CONTINUOUS
 0
LINE
 8
WHITE
 10
267.15
 20
75.25
 30
0.0000
 11
266.97
 21
75.36
 31
0.0000
 6
CONTINUOUS
 0
LINE
 8
WHITE
 10
266.97
 20
75.36
 30
0.0000
 11
266.84
 21
75.51
 31
0.0000
 6
CONTINUOUS
 0
LINE
 8
WHITE
 10
266.41
 20
73.81
 30
0.0000
 11
266.75
 21
73.95
 31
0.0000
 6
CONTINUOUS
 0
LINE
 8
WHITE
 10
266.75
 20
73.95
 30
0.0000
 11
266.71
 21
74.35
 31
0.0000
 6
CONTINUOUS
 0
LINE
 8
WHITE
 10
266.71
 20
74.35
 30
0.0000
 11
266.68
 21
74.74
 31
0.0000
 6
CONTINUOUS
 0
LINE
 8
WHITE
 10
266.68
 20
74.74
 30
0.0000
 11
266.71
 21
75.13
 31
0.0000
 6
CONTINUOUS
 0
LINE
 8
WHITE
 10
266.71
 20
75.13
 30
0.0000
 11
266.81
 21
75.5
 31
0.0000
 6
CONTINUOUS
 0
LINE
 8
WHITE
 10
267.03
 20
75.73
 30
0.0000
 11
267
 21
75.81
 31
0.0000
 6
CONTINUOUS
 0
LINE
 8
WHITE
 10
267
 20
75.81
 30
0.0000
 11
267
 21
75.99
 31
0.0000
 6
CONTINUOUS
 0
LINE
 8
WHITE
 10
267
 20
75.99
 30
0.0000
 11
267.07
 21
76.25
 31
0.0000
 6
CONTINUOUS
 0
LINE
 8
WHITE
 10
267.07
 20
76.25
 30
0.0000
 11
267.11
 21
76.32
 31
0.0000
 6
CONTINUOUS
 0
LINE
 8
WHITE
 10
267.11
 20
76.32
 30
0.0000
 11
267.27
 21
76.51
 31
0.0000
 6
CONTINUOUS
 0
LINE
 8
WHITE
 10
267.27
 20
76.51
 30
0.0000
 11
267.43
 21
76.63
 31
0.0000
 6
CONTINUOUS
 0
LINE
 8
WHITE
 10
267.43
 20
76.63
 30
0.0000
 11
267.63
 21
76.71
 31
0.0000
 6
CONTINUOUS
 0
LINE
 8
WHITE
 10
267.63
 20
76.71
 30
0.0000
 11
267.69
 21
76.71
 31
0.0000
 6
CONTINUOUS
 0
LINE
 8
WHITE
 10
267.69
 20
76.71
 30
0.0000
 11
267.85
 21
76.57
 31
0.0000
 6
CONTINUOUS
 0
LINE
 8
WHITE
 10
267.85
 20
76.57
 30
0.0000
 11
267.92
 21
76.39
 31
0.0000
 6
CONTINUOUS
 0
LINE
 8
WHITE
 10
267.92
 20
76.39
 30
0.0000
 11
267.92
 21
76.25
 31
0.0000
 6
CONTINUOUS
 0
LINE
 8
WHITE
 10
267.92
 20
76.25
 30
0.0000
 11
267.88
 21
75.98
 31
0.0000
 6
CONTINUOUS
 0
LINE
 8
WHITE
 10
267.88
 20
75.98
 30
0.0000
 11
267.79
 21
75.8
 31
0.0000
 6
CONTINUOUS
 0
LINE
 8
WHITE
 10
267.79
 20
75.8
 30
0.0000
 11
267.67
 21
75.64
 31
0.0000
 6
CONTINUOUS
 0
LINE
 8
WHITE
 10
267.67
 20
75.64
 30
0.0000
 11
267.56
 21
75.55
 31
0.0000
 6
CONTINUOUS
 0
LINE
 8
WHITE
 10
267.56
 20
75.55
 30
0.0000
 11
267.4
 21
75.49
 31
0.0000
 6
CONTINUOUS
 0
LINE
 8
WHITE
 10
267.4
 20
75.49
 30
0.0000
 11
267.32
 21
75.49
 31
0.0000
 6
CONTINUOUS
 0
LINE
 8
WHITE
 10
267.32
 20
75.49
 30
0.0000
 11
267.2
 21
75.53
 31
0.0000
 6
CONTINUOUS
 0
LINE
 8
WHITE
 10
267.2
 20
75.53
 30
0.0000
 11
267.07
 21
75.66
 31
0.0000
 6
CONTINUOUS
 0
LINE
 8
WHITE
 10
267.07
 20
75.66
 30
0.0000
 11
267.03
 21
75.73
 31
0.0000
 6
CONTINUOUS
 0
LINE
 8
WHITE
 10
267.51
 20
74.38
 30
0.0000
 11
267.77
 21
74.47
 31
0.0000
 6
CONTINUOUS
 0
LINE
 8
WHITE
 10
267.78
 20
74.5
 30
0.0000
 11
267.75
 21
74.71
 31
0.0000
 6
CONTINUOUS
 0
LINE
 8
WHITE
 10
267.75
 20
74.71
 30
0.0000
 11
267.78
 21
74.9
 31
0.0000
 6
CONTINUOUS
 0
LINE
 8
WHITE
 10
267.78
 20
74.9
 30
0.0000
 11
267.89
 21
75.12
 31
0.0000
 6
CONTINUOUS
 0
LINE
 8
WHITE
 10
267.89
 20
75.12
 30
0.0000
 11
268.08
 21
75.35
 31
0.0000
 6
CONTINUOUS
 0
LINE
 8
WHITE
 10
268.08
 20
75.35
 30
0.0000
 11
268.23
 21
75.46
 31
0.0000
 6
CONTINUOUS
 0
LINE
 8
WHITE
 10
268.23
 20
75.46
 30
0.0000
 11
268.4
 21
75.51
 31
0.0000
 6
CONTINUOUS
 0
LINE
 8
WHITE
 10
268.4
 20
75.51
 30
0.0000
 11
268.53
 21
75.51
 31
0.0000
 6
CONTINUOUS
 0
LINE
 8
WHITE
 10
268.53
 20
75.51
 30
0.0000
 11
268.64
 21
75.43
 31
0.0000
 6
CONTINUOUS
 0
LINE
 8
WHITE
 10
268.64
 20
75.43
 30
0.0000
 11
268.7
 21
75.34
 31
0.0000
 6
CONTINUOUS
 0
LINE
 8
WHITE
 10
268.7
 20
75.34
 30
0.0000
 11
268.72
 21
75.2
 31
0.0000
 6
CONTINUOUS
 0
LINE
 8
WHITE
 10
268.72
 20
75.2
 30
0.0000
 11
268.68
 21
74.97
 31
0.0000
 6
CONTINUOUS
 0
LINE
 8
WHITE
 10
268.68
 20
74.97
 30
0.0000
 11
268.58
 21
74.78
 31
0.0000
 6
CONTINUOUS
 0
LINE
 8
WHITE
 10
268.58
 20
74.78
 30
0.0000
 11
268.26
 21
74.42
 31
0.0000
 6
CONTINUOUS
 0
LINE
 8
WHITE
 10
268.44
 20
75.19
 30
0.0000
 11
268.44
 21
75.12
 31
0.0000
 6
CONTINUOUS
 0
LINE
 8
WHITE
 10
268.44
 20
75.12
 30
0.0000
 11
268.31
 21
74.86
 31
0.0000
 6
CONTINUOUS
 0
LINE
 8
WHITE
 10
268.31
 20
74.86
 30
0.0000
 11
268.16
 21
74.7
 31
0.0000
 6
CONTINUOUS
 0
LINE
 8
WHITE
 10
268.16
 20
74.7
 30
0.0000
 11
268.09
 21
74.65
 31
0.0000
 6
CONTINUOUS
 0
LINE
 8
WHITE
 10
268.09
 20
74.65
 30
0.0000
 11
268.09
 21
74.76
 31
0.0000
 6
CONTINUOUS
 0
LINE
 8
WHITE
 10
268.09
 20
74.76
 30
0.0000
 11
268.14
 21
74.97
 31
0.0000
 6
CONTINUOUS
 0
LINE
 8
WHITE
 10
268.14
 20
74.97
 30
0.0000
 11
268.29
 21
75.2
 31
0.0000
 6
CONTINUOUS
 0
LINE
 8
WHITE
 10
268.29
 20
75.2
 30
0.0000
 11
268.39
 21
75.26
 31
0.0000
 6
CONTINUOUS
 0
LINE
 8
WHITE
 10
267.48
 20
74.3
 30
0.0000
 11
267.49
 21
74.21
 31
0.0000
 6
CONTINUOUS
 0
LINE
 8
WHITE
 10
267.49
 20
74.21
 30
0.0000
 11
267.52
 21
74.13
 31
0.0000
 6
CONTINUOUS
 0
LINE
 8
WHITE
 10
267.52
 20
74.13
 30
0.0000
 11
267.55
 21
74.13
 31
0.0000
 6
CONTINUOUS
 0
LINE
 8
WHITE
 10
267.55
 20
74.13
 30
0.0000
 11
267.71
 21
74.16
 31
0.0000
 6
CONTINUOUS
 0
LINE
 8
WHITE
 10
267.71
 20
74.16
 30
0.0000
 11
267.92
 21
74.26
 31
0.0000
 6
CONTINUOUS
 0
LINE
 8
WHITE
 10
267.92
 20
74.26
 30
0.0000
 11
268.03
 21
74.21
 31
0.0000
 6
CONTINUOUS
 0
LINE
 8
WHITE
 10
268.03
 20
74.21
 30
0.0000
 11
268.24
 21
74.14
 31
0.0000
 6
CONTINUOUS
 0
LINE
 8
WHITE
 10
268.24
 20
74.14
 30
0.0000
 11
268.43
 21
74.14
 31
0.0000
 6
CONTINUOUS
 0
LINE
 8
WHITE
 10
268.43
 20
74.14
 30
0.0000
 11
268.65
 21
74.19
 31
0.0000
 6
CONTINUOUS
 0
LINE
 8
WHITE
 10
268.65
 20
74.19
 30
0.0000
 11
268.99
 21
74.42
 31
0.0000
 6
CONTINUOUS
 0
LINE
 8
WHITE
 10
268.99
 20
74.42
 30
0.0000
 11
269.15
 21
74.25
 31
0.0000
 6
CONTINUOUS
 0
LINE
 8
WHITE
 10
269.15
 20
74.25
 30
0.0000
 11
269.24
 21
74.19
 31
0.0000
 6
CONTINUOUS
 0
LINE
 8
WHITE
 10
269.24
 20
74.19
 30
0.0000
 11
269.41
 21
74.16
 31
0.0000
 6
CONTINUOUS
 0
LINE
 8
WHITE
 10
269.41
 20
74.16
 30
0.0000
 11
269.61
 21
74.18
 31
0.0000
 6
CONTINUOUS
 0
LINE
 8
WHITE
 10
268.36
 20
74.41
 30
0.0000
 11
268.48
 21
74.42
 31
0.0000
 6
CONTINUOUS
 0
LINE
 8
WHITE
 10
268.48
 20
74.42
 30
0.0000
 11
268.62
 21
74.51
 31
0.0000
 6
CONTINUOUS
 0
LINE
 8
WHITE
 10
268.62
 20
74.51
 30
0.0000
 11
268.76
 21
74.66
 31
0.0000
 6
CONTINUOUS
 0
LINE
 8
WHITE
 10
268.76
 20
74.66
 30
0.0000
 11
268.89
 21
74.88
 31
0.0000
 6
CONTINUOUS
 0
LINE
 8
WHITE
 10
268.89
 20
74.88
 30
0.0000
 11
269.16
 21
75.58
 31
0.0000
 6
CONTINUOUS
 0
LINE
 8
WHITE
 10
269.13
 20
75.59
 30
0.0000
 11
269.08
 21
75.59
 31
0.0000
 6
CONTINUOUS
 0
LINE
 8
WHITE
 10
269.08
 20
75.59
 30
0.0000
 11
268.88
 21
75.59
 31
0.0000
 6
CONTINUOUS
 0
LINE
 8
WHITE
 10
268.88
 20
75.59
 30
0.0000
 11
268.73
 21
75.65
 31
0.0000
 6
CONTINUOUS
 0
LINE
 8
WHITE
 10
268.73
 20
75.65
 30
0.0000
 11
268.79
 21
75.91
 31
0.0000
 6
CONTINUOUS
 0
LINE
 8
WHITE
 10
268.79
 20
75.91
 30
0.0000
 11
269.06
 21
75.86
 31
0.0000
 6
CONTINUOUS
 0
LINE
 8
WHITE
 10
269.06
 20
75.86
 30
0.0000
 11
269.2
 21
75.86
 31
0.0000
 6
CONTINUOUS
 0
LINE
 8
WHITE
 10
269.2
 20
75.86
 30
0.0000
 11
269.29
 21
75.94
 31
0.0000
 6
CONTINUOUS
 0
LINE
 8
WHITE
 10
269.29
 20
75.94
 30
0.0000
 11
269.45
 21
76.37
 31
0.0000
 6
CONTINUOUS
 0
LINE
 8
WHITE
 10
269.45
 20
76.37
 30
0.0000
 11
269.53
 21
76.52
 31
0.0000
 6
CONTINUOUS
 0
LINE
 8
WHITE
 10
269.53
 20
76.52
 30
0.0000
 11
269.88
 21
76.56
 31
0.0000
 6
CONTINUOUS
 0
LINE
 8
WHITE
 10
269.88
 20
76.56
 30
0.0000
 11
269.74
 21
76.13
 31
0.0000
 6
CONTINUOUS
 0
LINE
 8
WHITE
 10
269.74
 20
76.13
 30
0.0000
 11
270.13
 21
76.26
 31
0.0000
 6
CONTINUOUS
 0
LINE
 8
WHITE
 10
270.13
 20
76.26
 30
0.0000
 11
270.43
 21
76.32
 31
0.0000
 6
CONTINUOUS
 0
LINE
 8
WHITE
 10
270.43
 20
76.32
 30
0.0000
 11
270.67
 21
76.32
 31
0.0000
 6
CONTINUOUS
 0
LINE
 8
WHITE
 10
270.67
 20
76.32
 30
0.0000
 11
271.08
 21
76.28
 31
0.0000
 6
CONTINUOUS
 0
LINE
 8
WHITE
 10
271.08
 20
76.28
 30
0.0000
 11
271.04
 21
76.11
 31
0.0000
 6
CONTINUOUS
 0
LINE
 8
WHITE
 10
271.04
 20
76.11
 30
0.0000
 11
270.97
 21
75.97
 31
0.0000
 6
CONTINUOUS
 0
LINE
 8
WHITE
 10
270.97
 20
75.97
 30
0.0000
 11
270.72
 21
76.01
 31
0.0000
 6
CONTINUOUS
 0
LINE
 8
WHITE
 10
270.72
 20
76.01
 30
0.0000
 11
270.39
 21
76.01
 31
0.0000
 6
CONTINUOUS
 0
LINE
 8
WHITE
 10
270.39
 20
76.01
 30
0.0000
 11
269.93
 21
75.9
 31
0.0000
 6
CONTINUOUS
 0
LINE
 8
WHITE
 10
269.93
 20
75.9
 30
0.0000
 11
269.74
 21
75.82
 31
0.0000
 6
CONTINUOUS
 0
LINE
 8
WHITE
 10
269.74
 20
75.82
 30
0.0000
 11
269.58
 21
75.65
 31
0.0000
 6
CONTINUOUS
 0
LINE
 8
WHITE
 10
269.58
 20
75.65
 30
0.0000
 11
269.47
 21
75.43
 31
0.0000
 6
CONTINUOUS
 0
LINE
 8
WHITE
 10
269.47
 20
75.43
 30
0.0000
 11
269.28
 21
74.75
 31
0.0000
 6
CONTINUOUS
 0
LINE
 8
WHITE
 10
269.28
 20
74.75
 30
0.0000
 11
269.25
 21
74.64
 31
0.0000
 6
CONTINUOUS
 0
LINE
 8
WHITE
 10
269.25
 20
74.64
 30
0.0000
 11
269.3
 21
74.5
 31
0.0000
 6
CONTINUOUS
 0
LINE
 8
WHITE
 10
269.3
 20
74.5
 30
0.0000
 11
269.37
 21
74.42
 31
0.0000
 6
CONTINUOUS
 0
LINE
 8
WHITE
 10
269.37
 20
74.42
 30
0.0000
 11
269.47
 21
74.42
 31
0.0000
 6
CONTINUOUS
 0
LINE
 8
WHITE
 10
269.47
 20
74.42
 30
0.0000
 11
269.59
 21
74.45
 31
0.0000
 6
CONTINUOUS
 0
LINE
 8
WHITE
 10
269.59
 20
74.45
 30
0.0000
 11
269.56
 21
74.73
 31
0.0000
 6
CONTINUOUS
 0
LINE
 8
WHITE
 10
269.56
 20
74.73
 30
0.0000
 11
269.58
 21
74.97
 31
0.0000
 6
CONTINUOUS
 0
LINE
 8
WHITE
 10
269.58
 20
74.97
 30
0.0000
 11
269.67
 21
75.23
 31
0.0000
 6
CONTINUOUS
 0
LINE
 8
WHITE
 10
269.67
 20
75.23
 30
0.0000
 11
269.82
 21
75.43
 31
0.0000
 6
CONTINUOUS
 0
LINE
 8
WHITE
 10
269.82
 20
75.43
 30
0.0000
 11
269.99
 21
75.55
 31
0.0000
 6
CONTINUOUS
 0
LINE
 8
WHITE
 10
269.99
 20
75.55
 30
0.0000
 11
270.08
 21
75.58
 31
0.0000
 6
CONTINUOUS
 0
LINE
 8
WHITE
 10
270.08
 20
75.58
 30
0.0000
 11
270.24
 21
75.58
 31
0.0000
 6
CONTINUOUS
 0
LINE
 8
WHITE
 10
270.24
 20
75.58
 30
0.0000
 11
270.37
 21
75.52
 31
0.0000
 6
CONTINUOUS
 0
LINE
 8
WHITE
 10
270.37
 20
75.52
 30
0.0000
 11
270.46
 21
75.4
 31
0.0000
 6
CONTINUOUS
 0
LINE
 8
WHITE
 10
270.46
 20
75.4
 30
0.0000
 11
270.49
 21
75.23
 31
0.0000
 6
CONTINUOUS
 0
LINE
 8
WHITE
 10
270.49
 20
75.23
 30
0.0000
 11
270.44
 21
74.97
 31
0.0000
 6
CONTINUOUS
 0
LINE
 8
WHITE
 10
270.44
 20
74.97
 30
0.0000
 11
270.31
 21
74.74
 31
0.0000
 6
CONTINUOUS
 0
LINE
 8
WHITE
 10
270.31
 20
74.74
 30
0.0000
 11
270.05
 21
74.44
 31
0.0000
 6
CONTINUOUS
 0
LINE
 8
WHITE
 10
269.89
 20
74.77
 30
0.0000
 11
269.91
 21
74.97
 31
0.0000
 6
CONTINUOUS
 0
LINE
 8
WHITE
 10
269.91
 20
74.97
 30
0.0000
 11
269.98
 21
75.18
 31
0.0000
 6
CONTINUOUS
 0
LINE
 8
WHITE
 10
269.98
 20
75.18
 30
0.0000
 11
270.09
 21
75.3
 31
0.0000
 6
CONTINUOUS
 0
LINE
 8
WHITE
 10
270.09
 20
75.3
 30
0.0000
 11
270.12
 21
75.31
 31
0.0000
 6
CONTINUOUS
 0
LINE
 8
WHITE
 10
269.93
 20
74.7
 30
0.0000
 11
270.07
 21
74.87
 31
0.0000
 6
CONTINUOUS
 0
LINE
 8
WHITE
 10
270.07
 20
74.87
 30
0.0000
 11
270.2
 21
75.12
 31
0.0000
 6
CONTINUOUS
 0
LINE
 8
WHITE
 10
270.2
 20
75.12
 30
0.0000
 11
270.23
 21
75.23
 31
0.0000
 6
CONTINUOUS
 0
LINE
 8
WHITE
 10
270.23
 20
75.23
 30
0.0000
 11
270.23
 21
75.25
 31
0.0000
 6
CONTINUOUS
 0
LINE
 8
WHITE
 10
269.72
 20
74.22
 30
0.0000
 11
269.75
 21
74.24
 31
0.0000
 6
CONTINUOUS
 0
LINE
 8
WHITE
 10
269.75
 20
74.24
 30
0.0000
 11
270.01
 21
74.16
 31
0.0000
 6
CONTINUOUS
 0
LINE
 8
WHITE
 10
270.01
 20
74.16
 30
0.0000
 11
270.2
 21
74.15
 31
0.0000
 6
CONTINUOUS
 0
LINE
 8
WHITE
 10
270.2
 20
74.15
 30
0.0000
 11
270.32
 21
74.17
 31
0.0000
 6
CONTINUOUS
 0
LINE
 8
WHITE
 10
270.32
 20
74.17
 30
0.0000
 11
270.5
 21
74.25
 31
0.0000
 6
CONTINUOUS
 0
LINE
 8
WHITE
 10
270.5
 20
74.25
 30
0.0000
 11
270.62
 21
74.36
 31
0.0000
 6
CONTINUOUS
 0
LINE
 8
WHITE
 10
270.62
 20
74.36
 30
0.0000
 11
270.93
 21
75.04
 31
0.0000
 6
CONTINUOUS
 0
LINE
 8
WHITE
 10
270.93
 20
75.04
 30
0.0000
 11
271.06
 21
75.25
 31
0.0000
 6
CONTINUOUS
 0
LINE
 8
WHITE
 10
270.13
 20
74.38
 30
0.0000
 11
270.27
 21
74.41
 31
0.0000
 6
CONTINUOUS
 0
LINE
 8
WHITE
 10
270.27
 20
74.41
 30
0.0000
 11
270.38
 21
74.49
 31
0.0000
 6
CONTINUOUS
 0
LINE
 8
WHITE
 10
270.38
 20
74.49
 30
0.0000
 11
270.54
 21
74.72
 31
0.0000
 6
CONTINUOUS
 0
LINE
 8
WHITE
 10
270.54
 20
74.72
 30
0.0000
 11
270.62
 21
74.91
 31
0.0000
 6
CONTINUOUS
 0
LINE
 8
WHITE
 10
270.62
 20
74.91
 30
0.0000
 11
270.84
 21
75.48
 31
0.0000
 6
CONTINUOUS
 0
LINE
 8
WHITE
 10
270.84
 20
75.48
 30
0.0000
 11
270.87
 21
75.53
 31
0.0000
 6
CONTINUOUS
 0
LINE
 8
WHITE
 10
270.87
 20
75.53
 30
0.0000
 11
270.93
 21
75.53
 31
0.0000
 6
CONTINUOUS
 0
LINE
 8
WHITE
 10
270.93
 20
75.53
 30
0.0000
 11
271.07
 21
75.48
 31
0.0000
 6
CONTINUOUS
 0
LINE
 8
WHITE
 10
271.07
 20
75.48
 30
0.0000
 11
271.11
 21
75.48
 31
0.0000
 6
CONTINUOUS
 0
LINE
 8
WHITE
 10
271.16
 20
75.5
 30
0.0000
 11
271.2
 21
75.5
 31
0.0000
 6
CONTINUOUS
 0
LINE
 8
WHITE
 10
271.25
 20
75.51
 30
0.0000
 11
271.41
 21
75.53
 31
0.0000
 6
CONTINUOUS
 0
LINE
 8
WHITE
 10
271.41
 20
75.53
 30
0.0000
 11
271.5
 21
75.52
 31
0.0000
 6
CONTINUOUS
 0
LINE
 8
WHITE
 10
271.5
 20
75.52
 30
0.0000
 11
271.56
 21
75.4
 31
0.0000
 6
CONTINUOUS
 0
LINE
 8
WHITE
 10
271.56
 20
75.4
 30
0.0000
 11
271.56
 21
75.2
 31
0.0000
 6
CONTINUOUS
 0
LINE
 8
WHITE
 10
271.56
 20
75.2
 30
0.0000
 11
271.45
 21
74.89
 31
0.0000
 6
CONTINUOUS
 0
LINE
 8
WHITE
 10
271.45
 20
74.89
 30
0.0000
 11
271.37
 21
74.55
 31
0.0000
 6
CONTINUOUS
 0
LINE
 8
WHITE
 10
271.37
 20
74.55
 30
0.0000
 11
271.37
 21
74.48
 31
0.0000
 6
CONTINUOUS
 0
LINE
 8
WHITE
 10
271.37
 20
74.48
 30
0.0000
 11
271.43
 21
74.44
 31
0.0000
 6
CONTINUOUS
 0
LINE
 8
WHITE
 10
271.43
 20
74.44
 30
0.0000
 11
271.53
 21
74.45
 31
0.0000
 6
CONTINUOUS
 0
LINE
 8
WHITE
 10
271.53
 20
74.45
 30
0.0000
 11
271.67
 21
74.54
 31
0.0000
 6
CONTINUOUS
 0
LINE
 8
WHITE
 10
271.67
 20
74.54
 30
0.0000
 11
271.79
 21
74.65
 31
0.0000
 6
CONTINUOUS
 0
LINE
 8
WHITE
 10
271.79
 20
74.65
 30
0.0000
 11
271.77
 21
75.09
 31
0.0000
 6
CONTINUOUS
 0
LINE
 8
WHITE
 10
271.77
 20
75.09
 30
0.0000
 11
271.79
 21
75.35
 31
0.0000
 6
CONTINUOUS
 0
LINE
 8
WHITE
 10
271.79
 20
75.35
 30
0.0000
 11
271.87
 21
75.75
 31
0.0000
 6
CONTINUOUS
 0
LINE
 8
WHITE
 10
271.87
 20
75.75
 30
0.0000
 11
272.02
 21
76.13
 31
0.0000
 6
CONTINUOUS
 0
LINE
 8
WHITE
 10
272.02
 20
76.13
 30
0.0000
 11
272.21
 21
76.47
 31
0.0000
 6
CONTINUOUS
 0
LINE
 8
WHITE
 10
272.21
 20
76.47
 30
0.0000
 11
272.36
 21
76.67
 31
0.0000
 6
CONTINUOUS
 0
LINE
 8
WHITE
 10
272.36
 20
76.67
 30
0.0000
 11
272.45
 21
76.73
 31
0.0000
 6
CONTINUOUS
 0
LINE
 8
WHITE
 10
272.45
 20
76.73
 30
0.0000
 11
272.57
 21
76.78
 31
0.0000
 6
CONTINUOUS
 0
LINE
 8
WHITE
 10
272.57
 20
76.78
 30
0.0000
 11
272.7
 21
76.78
 31
0.0000
 6
CONTINUOUS
 0
LINE
 8
WHITE
 10
272.7
 20
76.78
 30
0.0000
 11
272.76
 21
76.77
 31
0.0000
 6
CONTINUOUS
 0
LINE
 8
WHITE
 10
272.76
 20
76.77
 30
0.0000
 11
272.85
 21
76.67
 31
0.0000
 6
CONTINUOUS
 0
LINE
 8
WHITE
 10
272.85
 20
76.67
 30
0.0000
 11
272.89
 21
76.49
 31
0.0000
 6
CONTINUOUS
 0
LINE
 8
WHITE
 10
272.89
 20
76.49
 30
0.0000
 11
272.89
 21
76.24
 31
0.0000
 6
CONTINUOUS
 0
LINE
 8
WHITE
 10
272.89
 20
76.24
 30
0.0000
 11
272.81
 21
75.94
 31
0.0000
 6
CONTINUOUS
 0
LINE
 8
WHITE
 10
272.81
 20
75.94
 30
0.0000
 11
272.65
 21
75.53
 31
0.0000
 6
CONTINUOUS
 0
LINE
 8
WHITE
 10
272.65
 20
75.53
 30
0.0000
 11
272.35
 21
75.01
 31
0.0000
 6
CONTINUOUS
 0
LINE
 8
WHITE
 10
272.35
 20
75.01
 30
0.0000
 11
272.2
 21
74.77
 31
0.0000
 6
CONTINUOUS
 0
LINE
 8
WHITE
 10
272.2
 20
74.77
 30
0.0000
 11
272.17
 21
74.67
 31
0.0000
 6
CONTINUOUS
 0
LINE
 8
WHITE
 10
272.17
 20
74.67
 30
0.0000
 11
272.2
 21
74.57
 31
0.0000
 6
CONTINUOUS
 0
LINE
 8
WHITE
 10
272.2
 20
74.57
 30
0.0000
 11
272.27
 21
74.46
 31
0.0000
 6
CONTINUOUS
 0
LINE
 8
WHITE
 10
272.27
 20
74.46
 30
0.0000
 11
272.34
 21
74.42
 31
0.0000
 6
CONTINUOUS
 0
LINE
 8
WHITE
 10
271.11
 20
75.25
 30
0.0000
 11
271.16
 21
75.25
 31
0.0000
 6
CONTINUOUS
 0
LINE
 8
WHITE
 10
271.16
 20
75.25
 30
0.0000
 11
271.2
 21
75.22
 31
0.0000
 6
CONTINUOUS
 0
LINE
 8
WHITE
 10
271.2
 20
75.22
 30
0.0000
 11
271.1
 21
74.85
 31
0.0000
 6
CONTINUOUS
 0
LINE
 8
WHITE
 10
271.1
 20
74.85
 30
0.0000
 11
271.05
 21
74.62
 31
0.0000
 6
CONTINUOUS
 0
LINE
 8
WHITE
 10
271.05
 20
74.62
 30
0.0000
 11
271.05
 21
74.38
 31
0.0000
 6
CONTINUOUS
 0
LINE
 8
WHITE
 10
271.05
 20
74.38
 30
0.0000
 11
271.1
 21
74.28
 31
0.0000
 6
CONTINUOUS
 0
LINE
 8
WHITE
 10
271.1
 20
74.28
 30
0.0000
 11
271.13
 21
74.24
 31
0.0000
 6
CONTINUOUS
 0
LINE
 8
WHITE
 10
271.13
 20
74.24
 30
0.0000
 11
271.24
 21
74.18
 31
0.0000
 6
CONTINUOUS
 0
LINE
 8
WHITE
 10
271.24
 20
74.18
 30
0.0000
 11
271.37
 21
74.15
 31
0.0000
 6
CONTINUOUS
 0
LINE
 8
WHITE
 10
271.37
 20
74.15
 30
0.0000
 11
271.53
 21
74.18
 31
0.0000
 6
CONTINUOUS
 0
LINE
 8
WHITE
 10
271.53
 20
74.18
 30
0.0000
 11
271.94
 21
74.41
 31
0.0000
 6
CONTINUOUS
 0
LINE
 8
WHITE
 10
272.5
 20
76.42
 30
0.0000
 11
272.46
 21
76.35
 31
0.0000
 6
CONTINUOUS
 0
LINE
 8
WHITE
 10
272.46
 20
76.35
 30
0.0000
 11
272.29
 21
76.04
 31
0.0000
 6
CONTINUOUS
 0
LINE
 8
WHITE
 10
272.29
 20
76.04
 30
0.0000
 11
272.17
 21
75.7
 31
0.0000
 6
CONTINUOUS
 0
LINE
 8
WHITE
 10
272.17
 20
75.7
 30
0.0000
 11
272.11
 21
75.35
 31
0.0000
 6
CONTINUOUS
 0
LINE
 8
WHITE
 10
272.11
 20
75.35
 30
0.0000
 11
272.11
 21
75.09
 31
0.0000
 6
CONTINUOUS
 0
LINE
 8
WHITE
 10
272.11
 20
75.09
 30
0.0000
 11
272.16
 21
75.16
 31
0.0000
 6
CONTINUOUS
 0
LINE
 8
WHITE
 10
272.16
 20
75.16
 30
0.0000
 11
272.38
 21
75.54
 31
0.0000
 6
CONTINUOUS
 0
LINE
 8
WHITE
 10
272.38
 20
75.54
 30
0.0000
 11
272.55
 21
75.94
 31
0.0000
 6
CONTINUOUS
 0
LINE
 8
WHITE
 10
272.55
 20
75.94
 30
0.0000
 11
272.61
 21
76.15
 31
0.0000
 6
CONTINUOUS
 0
LINE
 8
WHITE
 10
272.61
 20
76.15
 30
0.0000
 11
272.64
 21
76.43
 31
0.0000
 6
CONTINUOUS
 0
LINE
 8
WHITE
 10
271.96
 20
74.4
 30
0.0000
 11
271.99
 21
74.33
 31
0.0000
 6
CONTINUOUS
 0
LINE
 8
WHITE
 10
271.99
 20
74.33
 30
0.0000
 11
272.09
 21
74.23
 31
0.0000
 6
CONTINUOUS
 0
LINE
 8
WHITE
 10
272.09
 20
74.23
 30
0.0000
 11
272.23
 21
74.17
 31
0.0000
 6
CONTINUOUS
 0
LINE
 8
WHITE
 10
272.23
 20
74.17
 30
0.0000
 11
272.39
 21
74.17
 31
0.0000
 6
CONTINUOUS
 0
LINE
 8
WHITE
 10
272.39
 20
74.17
 30
0.0000
 11
272.53
 21
74.2
 31
0.0000
 6
CONTINUOUS
 0
LINE
 8
WHITE
 10
272.53
 20
74.2
 30
0.0000
 11
272.63
 21
74.27
 31
0.0000
 6
CONTINUOUS
 0
LINE
 8
WHITE
 10
272.63
 20
74.27
 30
0.0000
 11
272.82
 21
74.51
 31
0.0000
 6
CONTINUOUS
 0
LINE
 8
WHITE
 10
272.82
 20
74.51
 30
0.0000
 11
272.9
 21
74.72
 31
0.0000
 6
CONTINUOUS
 0
LINE
 8
WHITE
 10
272.9
 20
74.72
 30
0.0000
 11
272.97
 21
75.07
 31
0.0000
 6
CONTINUOUS
 0
LINE
 8
WHITE
 10
272.38
 20
74.44
 30
0.0000
 11
272.52
 21
74.64
 31
0.0000
 6
CONTINUOUS
 0
LINE
 8
WHITE
 10
272.52
 20
74.64
 30
0.0000
 11
272.61
 21
74.88
 31
0.0000
 6
CONTINUOUS
 0
LINE
 8
WHITE
 10
272.61
 20
74.88
 30
0.0000
 11
272.64
 21
75.14
 31
0.0000
 6
CONTINUOUS
 0
LINE
 8
WHITE
 10
272.64
 20
75.14
 30
0.0000
 11
272.64
 21
75.39
 31
0.0000
 6
CONTINUOUS
 0
LINE
 8
WHITE
 10
272.84
 20
75.44
 30
0.0000
 11
272.99
 21
75.37
 31
0.0000
 6
CONTINUOUS
 0
LINE
 8
WHITE
 10
272.99
 20
75.37
 30
0.0000
 11
273.2
 21
75.34
 31
0.0000
 6
CONTINUOUS
 0
LINE
 8
WHITE
 10
273.2
 20
75.34
 30
0.0000
 11
273.37
 21
75.36
 31
0.0000
 6
CONTINUOUS
 0
LINE
 8
WHITE
 10
273.37
 20
75.36
 30
0.0000
 11
273.61
 21
75.43
 31
0.0000
 6
CONTINUOUS
 0
LINE
 8
WHITE
 10
273.61
 20
75.43
 30
0.0000
 11
273.7
 21
75.35
 31
0.0000
 6
CONTINUOUS
 0
LINE
 8
WHITE
 10
273.7
 20
75.35
 30
0.0000
 11
273.73
 21
75.31
 31
0.0000
 6
CONTINUOUS
 0
LINE
 8
WHITE
 10
273.73
 20
75.31
 30
0.0000
 11
273.55
 21
74.99
 31
0.0000
 6
CONTINUOUS
 0
LINE
 8
WHITE
 10
273.55
 20
74.99
 30
0.0000
 11
273.48
 21
74.8
 31
0.0000
 6
CONTINUOUS
 0
LINE
 8
WHITE
 10
273.48
 20
74.8
 30
0.0000
 11
273.47
 21
74.6
 31
0.0000
 6
CONTINUOUS
 0
LINE
 8
WHITE
 10
273.47
 20
74.6
 30
0.0000
 11
273.52
 21
74.5
 31
0.0000
 6
CONTINUOUS
 0
LINE
 8
WHITE
 10
273.52
 20
74.5
 30
0.0000
 11
273.61
 21
74.44
 31
0.0000
 6
CONTINUOUS
 0
LINE
 8
WHITE
 10
273.61
 20
74.44
 30
0.0000
 11
273.69
 21
74.44
 31
0.0000
 6
CONTINUOUS
 0
LINE
 8
WHITE
 10
273.02
 20
75.12
 30
0.0000
 11
273.28
 21
75.13
 31
0.0000
 6
CONTINUOUS
 0
LINE
 8
WHITE
 10
273.33
 20
75.11
 30
0.0000
 11
273.22
 21
74.76
 31
0.0000
 6
CONTINUOUS
 0
LINE
 8
WHITE
 10
273.22
 20
74.76
 30
0.0000
 11
273.21
 21
74.58
 31
0.0000
 6
CONTINUOUS
 0
LINE
 8
WHITE
 10
273.21
 20
74.58
 30
0.0000
 11
273.25
 21
74.41
 31
0.0000
 6
CONTINUOUS
 0
LINE
 8
WHITE
 10
273.25
 20
74.41
 30
0.0000
 11
273.34
 21
74.27
 31
0.0000
 6
CONTINUOUS
 0
LINE
 8
WHITE
 10
273.34
 20
74.27
 30
0.0000
 11
273.46
 21
74.2
 31
0.0000
 6
CONTINUOUS
 0
LINE
 8
WHITE
 10
273.46
 20
74.2
 30
0.0000
 11
273.61
 21
74.18
 31
0.0000
 6
CONTINUOUS
 0
LINE
 8
WHITE
 10
273.61
 20
74.18
 30
0.0000
 11
273.8
 21
74.21
 31
0.0000
 6
CONTINUOUS
 0
LINE
 8
WHITE
 10
273.8
 20
74.21
 30
0.0000
 11
273.92
 21
74.27
 31
0.0000
 6
CONTINUOUS
 0
LINE
 8
WHITE
 10
273.92
 20
74.27
 30
0.0000
 11
274.18
 21
74.45
 31
0.0000
 6
CONTINUOUS
 0
LINE
 8
WHITE
 10
274.18
 20
74.45
 30
0.0000
 11
274.34
 21
74.27
 31
0.0000
 6
CONTINUOUS
 0
LINE
 8
WHITE
 10
274.34
 20
74.27
 30
0.0000
 11
274.49
 21
74.16
 31
0.0000
 6
CONTINUOUS
 0
LINE
 8
WHITE
 10
274.49
 20
74.16
 30
0.0000
 11
274.64
 21
74.12
 31
0.0000
 6
CONTINUOUS
 0
LINE
 8
WHITE
 10
273.75
 20
74.46
 30
0.0000
 11
274
 21
74.64
 31
0.0000
 6
CONTINUOUS
 0
LINE
 8
WHITE
 10
274
 20
74.64
 30
0.0000
 11
274.06
 21
74.77
 31
0.0000
 6
CONTINUOUS
 0
LINE
 8
WHITE
 10
274.06
 20
74.77
 30
0.0000
 11
274.06
 21
74.93
 31
0.0000
 6
CONTINUOUS
 0
LINE
 8
WHITE
 10
274.06
 20
74.93
 30
0.0000
 11
274.06
 21
75.23
 31
0.0000
 6
CONTINUOUS
 0
LINE
 8
WHITE
 10
274.06
 20
75.23
 30
0.0000
 11
274.1
 21
75.58
 31
0.0000
 6
CONTINUOUS
 0
LINE
 8
WHITE
 10
274.1
 20
75.58
 30
0.0000
 11
274.21
 21
75.94
 31
0.0000
 6
CONTINUOUS
 0
LINE
 8
WHITE
 10
274.21
 20
75.94
 30
0.0000
 11
274.35
 21
76.22
 31
0.0000
 6
CONTINUOUS
 0
LINE
 8
WHITE
 10
274.35
 20
76.22
 30
0.0000
 11
274.48
 21
76.4
 31
0.0000
 6
CONTINUOUS
 0
LINE
 8
WHITE
 10
274.48
 20
76.4
 30
0.0000
 11
274.72
 21
76.64
 31
0.0000
 6
CONTINUOUS
 0
LINE
 8
WHITE
 10
274.72
 20
76.64
 30
0.0000
 11
274.84
 21
76.69
 31
0.0000
 6
CONTINUOUS
 0
LINE
 8
WHITE
 10
274.84
 20
76.69
 30
0.0000
 11
274.97
 21
76.71
 31
0.0000
 6
CONTINUOUS
 0
LINE
 8
WHITE
 10
274.97
 20
76.71
 30
0.0000
 11
275.07
 21
76.67
 31
0.0000
 6
CONTINUOUS
 0
LINE
 8
WHITE
 10
275.07
 20
76.67
 30
0.0000
 11
275.14
 21
76.6
 31
0.0000
 6
CONTINUOUS
 0
LINE
 8
WHITE
 10
275.14
 20
76.6
 30
0.0000
 11
275.19
 21
76.43
 31
0.0000
 6
CONTINUOUS
 0
LINE
 8
WHITE
 10
275.19
 20
76.43
 30
0.0000
 11
275.19
 21
76.21
 31
0.0000
 6
CONTINUOUS
 0
LINE
 8
WHITE
 10
275.19
 20
76.21
 30
0.0000
 11
275.15
 21
75.98
 31
0.0000
 6
CONTINUOUS
 0
LINE
 8
WHITE
 10
275.15
 20
75.98
 30
0.0000
 11
275.01
 21
75.63
 31
0.0000
 6
CONTINUOUS
 0
LINE
 8
WHITE
 10
275.01
 20
75.63
 30
0.0000
 11
274.73
 21
75.14
 31
0.0000
 6
CONTINUOUS
 0
LINE
 8
WHITE
 10
274.73
 20
75.14
 30
0.0000
 11
274.45
 21
74.76
 31
0.0000
 6
CONTINUOUS
 0
LINE
 8
WHITE
 10
274.45
 20
74.76
 30
0.0000
 11
274.45
 21
74.68
 31
0.0000
 6
CONTINUOUS
 0
LINE
 8
WHITE
 10
274.45
 20
74.68
 30
0.0000
 11
274.58
 21
74.47
 31
0.0000
 6
CONTINUOUS
 0
LINE
 8
WHITE
 10
274.58
 20
74.47
 30
0.0000
 11
274.7
 21
74.38
 31
0.0000
 6
CONTINUOUS
 0
LINE
 8
WHITE
 10
274.7
 20
74.38
 30
0.0000
 11
274.8
 21
74.36
 31
0.0000
 6
CONTINUOUS
 0
LINE
 8
WHITE
 10
274.8
 20
74.36
 30
0.0000
 11
274.96
 21
74.45
 31
0.0000
 6
CONTINUOUS
 0
LINE
 8
WHITE
 10
274.96
 20
74.45
 30
0.0000
 11
275.15
 21
74.63
 31
0.0000
 6
CONTINUOUS
 0
LINE
 8
WHITE
 10
275.15
 20
74.63
 30
0.0000
 11
275.3
 21
74.86
 31
0.0000
 6
CONTINUOUS
 0
LINE
 8
WHITE
 10
275.3
 20
74.86
 30
0.0000
 11
275.6
 21
75.56
 31
0.0000
 6
CONTINUOUS
 0
LINE
 8
WHITE
 10
275.6
 20
75.56
 30
0.0000
 11
275.62
 21
75.64
 31
0.0000
 6
CONTINUOUS
 0
LINE
 8
WHITE
 10
275.62
 20
75.64
 30
0.0000
 11
275.41
 21
75.67
 31
0.0000
 6
CONTINUOUS
 0
LINE
 8
WHITE
 10
275.41
 20
75.67
 30
0.0000
 11
275.27
 21
75.7
 31
0.0000
 6
CONTINUOUS
 0
LINE
 8
WHITE
 10
274.4
 20
75.13
 30
0.0000
 11
274.58
 21
75.38
 31
0.0000
 6
CONTINUOUS
 0
LINE
 8
WHITE
 10
274.58
 20
75.38
 30
0.0000
 11
274.75
 21
75.69
 31
0.0000
 6
CONTINUOUS
 0
LINE
 8
WHITE
 10
274.75
 20
75.69
 30
0.0000
 11
274.9
 21
76.08
 31
0.0000
 6
CONTINUOUS
 0
LINE
 8
WHITE
 10
274.9
 20
76.08
 30
0.0000
 11
274.93
 21
76.32
 31
0.0000
 6
CONTINUOUS
 0
LINE
 8
WHITE
 10
274.93
 20
76.32
 30
0.0000
 11
274.93
 21
76.35
 31
0.0000
 6
CONTINUOUS
 0
LINE
 8
WHITE
 10
274.93
 20
76.35
 30
0.0000
 11
274.91
 21
76.37
 31
0.0000
 6
CONTINUOUS
 0
LINE
 8
WHITE
 10
274.38
 20
75.18
 30
0.0000
 11
274.38
 21
75.42
 31
0.0000
 6
CONTINUOUS
 0
LINE
 8
WHITE
 10
274.38
 20
75.42
 30
0.0000
 11
274.45
 21
75.74
 31
0.0000
 6
CONTINUOUS
 0
LINE
 8
WHITE
 10
274.45
 20
75.74
 30
0.0000
 11
274.56
 21
76.03
 31
0.0000
 6
CONTINUOUS
 0
LINE
 8
WHITE
 10
274.56
 20
76.03
 30
0.0000
 11
274.68
 21
76.22
 31
0.0000
 6
CONTINUOUS
 0
LINE
 8
WHITE
 10
274.68
 20
76.22
 30
0.0000
 11
274.81
 21
76.36
 31
0.0000
 6
CONTINUOUS
 0
LINE
 8
WHITE
 10
274.81
 20
76.36
 30
0.0000
 11
274.86
 21
76.38
 31
0.0000
 6
CONTINUOUS
 0
LINE
 8
WHITE
 10
274.67
 20
74.11
 30
0.0000
 11
274.88
 21
74.12
 31
0.0000
 6
CONTINUOUS
 0
LINE
 8
WHITE
 10
274.88
 20
74.12
 30
0.0000
 11
275.08
 21
74.18
 31
0.0000
 6
CONTINUOUS
 0
LINE
 8
WHITE
 10
275.08
 20
74.18
 30
0.0000
 11
275.39
 21
74.37
 31
0.0000
 6
CONTINUOUS
 0
LINE
 8
WHITE
 10
275.39
 20
74.37
 30
0.0000
 11
275.51
 21
74.26
 31
0.0000
 6
CONTINUOUS
 0
LINE
 8
WHITE
 10
275.51
 20
74.26
 30
0.0000
 11
275.67
 21
74.15
 31
0.0000
 6
CONTINUOUS
 0
LINE
 8
WHITE
 10
275.67
 20
74.15
 30
0.0000
 11
275.87
 21
74.12
 31
0.0000
 6
CONTINUOUS
 0
LINE
 8
WHITE
 10
275.87
 20
74.12
 30
0.0000
 11
276.02
 21
74.13
 31
0.0000
 6
CONTINUOUS
 0
LINE
 8
WHITE
 10
276.02
 20
74.13
 30
0.0000
 11
276.22
 21
74.19
 31
0.0000
 6
CONTINUOUS
 0
LINE
 8
WHITE
 10
276.22
 20
74.19
 30
0.0000
 11
276.25
 21
74.44
 31
0.0000
 6
CONTINUOUS
 0
LINE
 8
WHITE
 10
276.25
 20
74.44
 30
0.0000
 11
275.98
 21
74.41
 31
0.0000
 6
CONTINUOUS
 0
LINE
 8
WHITE
 10
275.98
 20
74.41
 30
0.0000
 11
275.79
 21
74.43
 31
0.0000
 6
CONTINUOUS
 0
LINE
 8
WHITE
 10
275.79
 20
74.43
 30
0.0000
 11
275.7
 21
74.54
 31
0.0000
 6
CONTINUOUS
 0
LINE
 8
WHITE
 10
275.7
 20
74.54
 30
0.0000
 11
275.67
 21
74.68
 31
0.0000
 6
CONTINUOUS
 0
LINE
 8
WHITE
 10
275.67
 20
74.68
 30
0.0000
 11
275.81
 21
75.16
 31
0.0000
 6
CONTINUOUS
 0
LINE
 8
WHITE
 10
275.81
 20
75.16
 30
0.0000
 11
276.05
 21
75.73
 31
0.0000
 6
CONTINUOUS
 0
LINE
 8
WHITE
 10
276.05
 20
75.73
 30
0.0000
 11
276.31
 21
75.83
 31
0.0000
 6
CONTINUOUS
 0
LINE
 8
WHITE
 10
276.31
 20
75.83
 30
0.0000
 11
276.65
 21
75.94
 31
0.0000
 6
CONTINUOUS
 0
LINE
 8
WHITE
 10
276.65
 20
75.94
 30
0.0000
 11
276.93
 21
75.97
 31
0.0000
 6
CONTINUOUS
 0
LINE
 8
WHITE
 10
276.93
 20
75.97
 30
0.0000
 11
277.14
 21
75.93
 31
0.0000
 6
CONTINUOUS
 0
LINE
 8
WHITE
 10
277.14
 20
75.93
 30
0.0000
 11
277.22
 21
76.03
 31
0.0000
 6
CONTINUOUS
 0
LINE
 8
WHITE
 10
277.22
 20
76.03
 30
0.0000
 11
277.3
 21
76.22
 31
0.0000
 6
CONTINUOUS
 0
LINE
 8
WHITE
 10
277.3
 20
76.22
 30
0.0000
 11
277.16
 21
76.28
 31
0.0000
 6
CONTINUOUS
 0
LINE
 8
WHITE
 10
277.16
 20
76.28
 30
0.0000
 11
276.95
 21
76.28
 31
0.0000
 6
CONTINUOUS
 0
LINE
 8
WHITE
 10
276.95
 20
76.28
 30
0.0000
 11
276.67
 21
76.22
 31
0.0000
 6
CONTINUOUS
 0
LINE
 8
WHITE
 10
276.67
 20
76.22
 30
0.0000
 11
276.19
 21
76.07
 31
0.0000
 6
CONTINUOUS
 0
LINE
 8
WHITE
 10
276.19
 20
76.07
 30
0.0000
 11
276.29
 21
76.46
 31
0.0000
 6
CONTINUOUS
 0
LINE
 8
WHITE
 10
276.29
 20
76.46
 30
0.0000
 11
275.93
 21
76.44
 31
0.0000
 6
CONTINUOUS
 0
LINE
 8
WHITE
 10
275.93
 20
76.44
 30
0.0000
 11
275.74
 21
75.96
 31
0.0000
 6
CONTINUOUS
 0
LINE
 8
WHITE
 10
275.69
 20
75.95
 30
0.0000
 11
275.6
 21
75.95
 31
0.0000
 6
CONTINUOUS
 0
LINE
 8
WHITE
 10
275.6
 20
75.95
 30
0.0000
 11
275.4
 21
76.01
 31
0.0000
 6
CONTINUOUS
 0
LINE
 8
WHITE
 10
275.22
 20
75.74
 30
0.0000
 11
275.24
 21
75.81
 31
0.0000
 6
CONTINUOUS
 0
LINE
 8
WHITE
 10
275.24
 20
75.81
 30
0.0000
 11
275.3
 21
75.98
 31
0.0000
 6
CONTINUOUS
 0
LINE
 8
WHITE
 10
275.3
 20
75.98
 30
0.0000
 11
275.33
 21
76.01
 31
0.0000
 6
CONTINUOUS
 0
LINE
 8
WHITE
 10
275.33
 20
76.01
 30
0.0000
 11
275.35
 21
76.03
 31
0.0000
 6
CONTINUOUS
 0
LINE
 8
WHITE
 10
273.93
 20
75.74
 30
0.0000
 11
273.98
 21
75.84
 31
0.0000
 6
CONTINUOUS
 0
LINE
 8
WHITE
 10
273.98
 20
75.84
 30
0.0000
 11
273.98
 21
75.97
 31
0.0000
 6
CONTINUOUS
 0
LINE
 8
WHITE
 10
273.98
 20
75.97
 30
0.0000
 11
273.96
 21
76.05
 31
0.0000
 6
CONTINUOUS
 0
LINE
 8
WHITE
 10
273.96
 20
76.05
 30
0.0000
 11
273.89
 21
76.1
 31
0.0000
 6
CONTINUOUS
 0
LINE
 8
WHITE
 10
273.89
 20
76.1
 30
0.0000
 11
273.78
 21
76.11
 31
0.0000
 6
CONTINUOUS
 0
LINE
 8
WHITE
 10
273.78
 20
76.11
 30
0.0000
 11
273.67
 21
76.07
 31
0.0000
 6
CONTINUOUS
 0
LINE
 8
WHITE
 10
273.67
 20
76.07
 30
0.0000
 11
273.58
 21
75.96
 31
0.0000
 6
CONTINUOUS
 0
LINE
 8
WHITE
 10
273.58
 20
75.96
 30
0.0000
 11
273.54
 21
75.82
 31
0.0000
 6
CONTINUOUS
 0
LINE
 8
WHITE
 10
273.54
 20
75.82
 30
0.0000
 11
273.55
 21
75.7
 31
0.0000
 6
CONTINUOUS
 0
LINE
 8
WHITE
 10
273.91
 20
75.71
 30
0.0000
 11
273.85
 21
75.67
 31
0.0000
 6
CONTINUOUS
 0
LINE
 8
WHITE
 10
273.85
 20
75.67
 30
0.0000
 11
273.74
 21
75.62
 31
0.0000
 6
CONTINUOUS
 0
LINE
 8
WHITE
 10
273.74
 20
75.62
 30
0.0000
 11
273.63
 21
75.64
 31
0.0000
 6
CONTINUOUS
 0
LINE
 8
WHITE
 10
278.22
 20
75.26
 30
0.0000
 11
278.22
 21
75.03
 31
0.0000
 6
CONTINUOUS
 0
LINE
 8
WHITE
 10
278.22
 20
75.03
 30
0.0000
 11
278.22
 21
74.95
 31
0.0000
 6
CONTINUOUS
 0
LINE
 8
WHITE
 10
278.22
 20
74.95
 30
0.0000
 11
278.12
 21
74.68
 31
0.0000
 6
CONTINUOUS
 0
LINE
 8
WHITE
 10
278.12
 20
74.68
 30
0.0000
 11
277.99
 21
74.45
 31
0.0000
 6
CONTINUOUS
 0
LINE
 8
WHITE
 10
277.99
 20
74.45
 30
0.0000
 11
277.75
 21
74.16
 31
0.0000
 6
CONTINUOUS
 0
LINE
 8
WHITE
 10
277.75
 20
74.16
 30
0.0000
 11
277.45
 21
73.9
 31
0.0000
 6
CONTINUOUS
 0
LINE
 8
WHITE
 10
277.45
 20
73.9
 30
0.0000
 11
277.04
 21
73.64
 31
0.0000
 6
CONTINUOUS
 0
LINE
 8
WHITE
 10
277.04
 20
73.64
 30
0.0000
 11
276.56
 21
73.39
 31
0.0000
 6
CONTINUOUS
 0
LINE
 8
WHITE
 10
276.56
 20
73.39
 30
0.0000
 11
275.97
 21
73.14
 31
0.0000
 6
CONTINUOUS
 0
LINE
 8
WHITE
 10
275.97
 20
73.14
 30
0.0000
 11
275.21
 21
72.88
 31
0.0000
 6
CONTINUOUS
 0
LINE
 8
WHITE
 10
275.21
 20
72.88
 30
0.0000
 11
274.59
 21
72.72
 31
0.0000
 6
CONTINUOUS
 0
LINE
 8
WHITE
 10
274.59
 20
72.72
 30
0.0000
 11
273.8
 21
72.57
 31
0.0000
 6
CONTINUOUS
 0
LINE
 8
WHITE
 10
273.8
 20
72.57
 30
0.0000
 11
272.84
 21
72.45
 31
0.0000
 6
CONTINUOUS
 0
LINE
 8
WHITE
 10
272.84
 20
72.45
 30
0.0000
 11
272.05
 21
72.39
 31
0.0000
 6
CONTINUOUS
 0
LINE
 8
WHITE
 10
272.05
 20
72.39
 30
0.0000
 11
271.07
 21
72.39
 31
0.0000
 6
CONTINUOUS
 0
LINE
 8
WHITE
 10
271.07
 20
72.39
 30
0.0000
 11
270.83
 21
72.39
 31
0.0000
 6
CONTINUOUS
 0
LINE
 8
WHITE
 10
270.83
 20
72.39
 30
0.0000
 11
269.89
 21
72.45
 31
0.0000
 6
CONTINUOUS
 0
LINE
 8
WHITE
 10
269.89
 20
72.45
 30
0.0000
 11
268.93
 21
72.57
 31
0.0000
 6
CONTINUOUS
 0
LINE
 8
WHITE
 10
268.93
 20
72.57
 30
0.0000
 11
268.3
 21
72.69
 31
0.0000
 6
CONTINUOUS
 0
LINE
 8
WHITE
 10
268.3
 20
72.69
 30
0.0000
 11
267.51
 21
72.88
 31
0.0000
 6
CONTINUOUS
 0
LINE
 8
WHITE
 10
267.51
 20
72.88
 30
0.0000
 11
266.76
 21
73.14
 31
0.0000
 6
CONTINUOUS
 0
LINE
 8
WHITE
 10
266.76
 20
73.14
 30
0.0000
 11
266.17
 21
73.39
 31
0.0000
 6
CONTINUOUS
 0
LINE
 8
WHITE
 10
266.17
 20
73.39
 30
0.0000
 11
265.69
 21
73.64
 31
0.0000
 6
CONTINUOUS
 0
LINE
 8
WHITE
 10
265.69
 20
73.64
 30
0.0000
 11
265.28
 21
73.9
 31
0.0000
 6
CONTINUOUS
 0
LINE
 8
WHITE
 10
265.28
 20
73.9
 30
0.0000
 11
264.98
 21
74.16
 31
0.0000
 6
CONTINUOUS
 0
LINE
 8
WHITE
 10
264.98
 20
74.16
 30
0.0000
 11
264.78
 21
74.4
 31
0.0000
 6
CONTINUOUS
 0
LINE
 8
WHITE
 10
264.78
 20
74.4
 30
0.0000
 11
264.61
 21
74.68
 31
0.0000
 6
CONTINUOUS
 0
LINE
 8
WHITE
 10
264.61
 20
74.68
 30
0.0000
 11
264.51
 21
74.95
 31
0.0000
 6
CONTINUOUS
 0
LINE
 8
WHITE
 10
264.51
 20
74.95
 30
0.0000
 11
264.5
 21
75.42
 31
0.0000
 6
CONTINUOUS
 0
LINE
 8
WHITE
 10
264.5
 20
75.42
 30
0.0000
 11
264.51
 21
75.5
 31
0.0000
 6
CONTINUOUS
 0
LINE
 8
WHITE
 10
264.51
 20
75.5
 30
0.0000
 11
264.61
 21
75.77
 31
0.0000
 6
CONTINUOUS
 0
LINE
 8
WHITE
 10
264.61
 20
75.77
 30
0.0000
 11
264.74
 21
76
 31
0.0000
 6
CONTINUOUS
 0
LINE
 8
WHITE
 10
264.74
 20
76
 30
0.0000
 11
264.98
 21
76.28
 31
0.0000
 6
CONTINUOUS
 0
LINE
 8
WHITE
 10
264.98
 20
76.28
 30
0.0000
 11
265.28
 21
76.54
 31
0.0000
 6
CONTINUOUS
 0
LINE
 8
WHITE
 10
265.28
 20
76.54
 30
0.0000
 11
265.69
 21
76.81
 31
0.0000
 6
CONTINUOUS
 0
LINE
 8
WHITE
 10
265.69
 20
76.81
 30
0.0000
 11
266.17
 21
77.06
 31
0.0000
 6
CONTINUOUS
 0
LINE
 8
WHITE
 10
266.17
 20
77.06
 30
0.0000
 11
266.76
 21
77.31
 31
0.0000
 6
CONTINUOUS
 0
LINE
 8
WHITE
 10
266.76
 20
77.31
 30
0.0000
 11
267.51
 21
77.57
 31
0.0000
 6
CONTINUOUS
 0
LINE
 8
WHITE
 10
267.51
 20
77.57
 30
0.0000
 11
268.3
 21
77.76
 31
0.0000
 6
CONTINUOUS
 0
LINE
 8
WHITE
 10
268.3
 20
77.76
 30
0.0000
 11
269.25
 21
77.93
 31
0.0000
 6
CONTINUOUS
 0
LINE
 8
WHITE
 10
269.25
 20
77.93
 30
0.0000
 11
270.2
 21
78.03
 31
0.0000
 6
CONTINUOUS
 0
LINE
 8
WHITE
 10
270.2
 20
78.03
 30
0.0000
 11
271.07
 21
78.07
 31
0.0000
 6
CONTINUOUS
 0
LINE
 8
WHITE
 10
271.07
 20
78.07
 30
0.0000
 11
271.9
 21
78.07
 31
0.0000
 6
CONTINUOUS
 0
LINE
 8
WHITE
 10
271.9
 20
78.07
 30
0.0000
 11
272.84
 21
78
 31
0.0000
 6
CONTINUOUS
 0
LINE
 8
WHITE
 10
272.84
 20
78
 30
0.0000
 11
273.8
 21
77.88
 31
0.0000
 6
CONTINUOUS
 0
LINE
 8
WHITE
 10
273.8
 20
77.88
 30
0.0000
 11
274.43
 21
77.76
 31
0.0000
 6
CONTINUOUS
 0
LINE
 8
WHITE
 10
274.43
 20
77.76
 30
0.0000
 11
275.21
 21
77.57
 31
0.0000
 6
CONTINUOUS
 0
LINE
 8
WHITE
 10
275.21
 20
77.57
 30
0.0000
 11
275.97
 21
77.31
 31
0.0000
 6
CONTINUOUS
 0
LINE
 8
WHITE
 10
275.97
 20
77.31
 30
0.0000
 11
276.56
 21
77.06
 31
0.0000
 6
CONTINUOUS
 0
LINE
 8
WHITE
 10
276.56
 20
77.06
 30
0.0000
 11
277.04
 21
76.81
 31
0.0000
 6
CONTINUOUS
 0
LINE
 8
WHITE
 10
277.04
 20
76.81
 30
0.0000
 11
277.45
 21
76.54
 31
0.0000
 6
CONTINUOUS
 0
LINE
 8
WHITE
 10
277.45
 20
76.54
 30
0.0000
 11
277.75
 21
76.28
 31
0.0000
 6
CONTINUOUS
 0
LINE
 8
WHITE
 10
277.75
 20
76.28
 30
0.0000
 11
277.95
 21
76.05
 31
0.0000
 6
CONTINUOUS
 0
LINE
 8
WHITE
 10
277.95
 20
76.05
 30
0.0000
 11
278.12
 21
75.77
 31
0.0000
 6
CONTINUOUS
 0
LINE
 8
WHITE
 10
278.12
 20
75.77
 30
0.0000
 11
278.22
 21
75.5
 31
0.0000
 6
CONTINUOUS
 0
LINE
 8
WHITE
 10
278.22
 20
75.5
 30
0.0000
 11
278.22
 21
75.26
 31
0.0000
 6
CONTINUOUS
 0
LINE
 8
WHITE
 10
278.46
 20
75.25
 30
0.0000
 11
278.46
 21
75.03
 31
0.0000
 6
CONTINUOUS
 0
LINE
 8
WHITE
 10
278.46
 20
75.03
 30
0.0000
 11
278.43
 21
74.89
 31
0.0000
 6
CONTINUOUS
 0
LINE
 8
WHITE
 10
278.43
 20
74.89
 30
0.0000
 11
278.35
 21
74.64
 31
0.0000
 6
CONTINUOUS
 0
LINE
 8
WHITE
 10
278.35
 20
74.64
 30
0.0000
 11
278.18
 21
74.33
 31
0.0000
 6
CONTINUOUS
 0
LINE
 8
WHITE
 10
278.18
 20
74.33
 30
0.0000
 11
277.98
 21
74.07
 31
0.0000
 6
CONTINUOUS
 0
LINE
 8
WHITE
 10
277.98
 20
74.07
 30
0.0000
 11
277.63
 21
73.78
 31
0.0000
 6
CONTINUOUS
 0
LINE
 8
WHITE
 10
277.63
 20
73.78
 30
0.0000
 11
277.13
 21
73.44
 31
0.0000
 6
CONTINUOUS
 0
LINE
 8
WHITE
 10
277.13
 20
73.44
 30
0.0000
 11
276.58
 21
73.15
 31
0.0000
 6
CONTINUOUS
 0
LINE
 8
WHITE
 10
276.58
 20
73.15
 30
0.0000
 11
275.99
 21
72.9
 31
0.0000
 6
CONTINUOUS
 0
LINE
 8
WHITE
 10
275.99
 20
72.9
 30
0.0000
 11
275.38
 21
72.69
 31
0.0000
 6
CONTINUOUS
 0
LINE
 8
WHITE
 10
275.38
 20
72.69
 30
0.0000
 11
274.59
 21
72.49
 31
0.0000
 6
CONTINUOUS
 0
LINE
 8
WHITE
 10
274.59
 20
72.49
 30
0.0000
 11
273.95
 21
72.37
 31
0.0000
 6
CONTINUOUS
 0
LINE
 8
WHITE
 10
273.95
 20
72.37
 30
0.0000
 11
272.17
 21
72.18
 31
0.0000
 6
CONTINUOUS
 0
LINE
 8
WHITE
 10
272.17
 20
72.18
 30
0.0000
 11
270.94
 21
72.16
 31
0.0000
 6
CONTINUOUS
 0
LINE
 8
WHITE
 10
270.94
 20
72.16
 30
0.0000
 11
269.51
 21
72.26
 31
0.0000
 6
CONTINUOUS
 0
LINE
 8
WHITE
 10
269.51
 20
72.26
 30
0.0000
 11
268.46
 21
72.42
 31
0.0000
 6
CONTINUOUS
 0
LINE
 8
WHITE
 10
268.46
 20
72.42
 30
0.0000
 11
267.66
 21
72.6
 31
0.0000
 6
CONTINUOUS
 0
LINE
 8
WHITE
 10
267.66
 20
72.6
 30
0.0000
 11
266.89
 21
72.84
 31
0.0000
 6
CONTINUOUS
 0
LINE
 8
WHITE
 10
266.89
 20
72.84
 30
0.0000
 11
266.44
 21
73.02
 31
0.0000
 6
CONTINUOUS
 0
LINE
 8
WHITE
 10
266.44
 20
73.02
 30
0.0000
 11
265.87
 21
73.29
 31
0.0000
 6
CONTINUOUS
 0
LINE
 8
WHITE
 10
265.87
 20
73.29
 30
0.0000
 11
265.34
 21
73.6
 31
0.0000
 6
CONTINUOUS
 0
LINE
 8
WHITE
 10
265.34
 20
73.6
 30
0.0000
 11
264.86
 21
73.97
 31
0.0000
 6
CONTINUOUS
 0
LINE
 8
WHITE
 10
264.86
 20
73.97
 30
0.0000
 11
264.7
 21
74.13
 31
0.0000
 6
CONTINUOUS
 0
LINE
 8
WHITE
 10
264.7
 20
74.13
 30
0.0000
 11
264.51
 21
74.41
 31
0.0000
 6
CONTINUOUS
 0
LINE
 8
WHITE
 10
264.51
 20
74.41
 30
0.0000
 11
264.35
 21
74.72
 31
0.0000
 6
CONTINUOUS
 0
LINE
 8
WHITE
 10
264.35
 20
74.72
 30
0.0000
 11
264.28
 21
74.98
 31
0.0000
 6
CONTINUOUS
 0
LINE
 8
WHITE
 10
264.28
 20
74.98
 30
0.0000
 11
264.28
 21
75.42
 31
0.0000
 6
CONTINUOUS
 0
LINE
 8
WHITE
 10
264.28
 20
75.42
 30
0.0000
 11
264.3
 21
75.55
 31
0.0000
 6
CONTINUOUS
 0
LINE
 8
WHITE
 10
264.3
 20
75.55
 30
0.0000
 11
264.38
 21
75.81
 31
0.0000
 6
CONTINUOUS
 0
LINE
 8
WHITE
 10
264.38
 20
75.81
 30
0.0000
 11
264.55
 21
76.12
 31
0.0000
 6
CONTINUOUS
 0
LINE
 8
WHITE
 10
264.55
 20
76.12
 30
0.0000
 11
264.75
 21
76.37
 31
0.0000
 6
CONTINUOUS
 0
LINE
 8
WHITE
 10
264.75
 20
76.37
 30
0.0000
 11
265.09
 21
76.67
 31
0.0000
 6
CONTINUOUS
 0
LINE
 8
WHITE
 10
265.09
 20
76.67
 30
0.0000
 11
265.6
 21
77.01
 31
0.0000
 6
CONTINUOUS
 0
LINE
 8
WHITE
 10
265.6
 20
77.01
 30
0.0000
 11
266.15
 21
77.3
 31
0.0000
 6
CONTINUOUS
 0
LINE
 8
WHITE
 10
266.15
 20
77.3
 30
0.0000
 11
266.73
 21
77.55
 31
0.0000
 6
CONTINUOUS
 0
LINE
 8
WHITE
 10
266.73
 20
77.55
 30
0.0000
 11
267.35
 21
77.76
 31
0.0000
 6
CONTINUOUS
 0
LINE
 8
WHITE
 10
267.35
 20
77.76
 30
0.0000
 11
268.14
 21
77.96
 31
0.0000
 6
CONTINUOUS
 0
LINE
 8
WHITE
 10
268.14
 20
77.96
 30
0.0000
 11
268.78
 21
78.08
 31
0.0000
 6
CONTINUOUS
 0
LINE
 8
WHITE
 10
268.78
 20
78.08
 30
0.0000
 11
270.56
 21
78.27
 31
0.0000
 6
CONTINUOUS
 0
LINE
 8
WHITE
 10
270.56
 20
78.27
 30
0.0000
 11
271.79
 21
78.29
 31
0.0000
 6
CONTINUOUS
 0
LINE
 8
WHITE
 10
271.79
 20
78.29
 30
0.0000
 11
273.22
 21
78.18
 31
0.0000
 6
CONTINUOUS
 0
LINE
 8
WHITE
 10
273.22
 20
78.18
 30
0.0000
 11
274.27
 21
78.02
 31
0.0000
 6
CONTINUOUS
 0
LINE
 8
WHITE
 10
274.27
 20
78.02
 30
0.0000
 11
275.07
 21
77.84
 31
0.0000
 6
CONTINUOUS
 0
LINE
 8
WHITE
 10
275.07
 20
77.84
 30
0.0000
 11
275.84
 21
77.6
 31
0.0000
 6
CONTINUOUS
 0
LINE
 8
WHITE
 10
275.84
 20
77.6
 30
0.0000
 11
276.29
 21
77.43
 31
0.0000
 6
CONTINUOUS
 0
LINE
 8
WHITE
 10
276.29
 20
77.43
 30
0.0000
 11
276.86
 21
77.16
 31
0.0000
 6
CONTINUOUS
 0
LINE
 8
WHITE
 10
276.86
 20
77.16
 30
0.0000
 11
277.39
 21
76.84
 31
0.0000
 6
CONTINUOUS
 0
LINE
 8
WHITE
 10
277.39
 20
76.84
 30
0.0000
 11
277.87
 21
76.48
 31
0.0000
 6
CONTINUOUS
 0
LINE
 8
WHITE
 10
277.87
 20
76.48
 30
0.0000
 11
278.03
 21
76.31
 31
0.0000
 6
CONTINUOUS
 0
LINE
 8
WHITE
 10
278.03
 20
76.31
 30
0.0000
 11
278.22
 21
76.04
 31
0.0000
 6
CONTINUOUS
 0
LINE
 8
WHITE
 10
278.22
 20
76.04
 30
0.0000
 11
278.38
 21
75.73
 31
0.0000
 6
CONTINUOUS
 0
LINE
 8
WHITE
 10
278.38
 20
75.73
 30
0.0000
 11
278.45
 21
75.47
 31
0.0000
 6
CONTINUOUS
 0
LINE
 8
WHITE
 10
278.45
 20
75.47
 30
0.0000
 11
278.45
 21
75.25
 31
0.0000
 6
CONTINUOUS
 0
LINE
 8
WHITE
 10
306.72
 20
82.79
 30
0.0000
 11
307.73
 21
82.79
 31
0.0000
 6
CONTINUOUS
 0
ARC
 8
WHITE
 10
271.683
 20
32.67
 30
 0
 40
26.00204
 50
25.09957
 51
186.1375
 6
CONTINUOUS
 0
ARC
 8
WHITE
 10
271.68
 20
32.7
 30
 0
 40
23.99838
 50
27.28039
 51
169.6781
 6
CONTINUOUS
 0
LINE
 8
WHITE
 10
293.01
 20
43.7
 30
0.0000
 11
298.5
 21
43.7
 31
0.0000
 6
CONTINUOUS
 0
ARC
 8
WHITE
 10
271.67
 20
32.704
 30
 0
 40
29.99647
 50
26.60946
 51
175.6485
 6
CONTINUOUS
 0
LINE
 8
WHITE
 10
253.18
 20
40.32
 30
0.0000
 11
249.89
 21
42.77
 31
0.0000
 6
CONTINUOUS
 0
LINE
 8
WHITE
 10
249.89
 20
42.77
 30
0.0000
 11
254.39
 21
42.77
 31
0.0000
 6
CONTINUOUS
 0
ARC
 8
WHITE
 10
271.674
 20
32.75
 30
 0
 40
19.99573
 50
3.612793
 51
175.4967
 6
CONTINUOUS
 0
LINE
 8
WHITE
 10
251.28
 20
54.7
 30
0.0000
 11
237.41
 21
54.7
 31
0.0000
 6
CONTINUOUS
 0
LINE
 8
WHITE
 10
236.78
 20
54.6
 30
0.0000
 11
236.78
 21
42.81
 31
0.0000
 6
CONTINUOUS
 0
LINE
 8
WHITE
 10
236.28
 20
54.6
 30
0.0000
 11
236.28
 21
42.82
 31
0.0000
 6
CONTINUOUS
 0
LINE
 8
WHITE
 10
229.99
 20
36.57
 30
0.0000
 11
228.13
 21
48.73
 31
0.0000
 6
CONTINUOUS
 0
ARC
 8
WHITE
 10
224.67
 20
48.2
 30
 0
 40
3.500357
 50
8.708826
 51
69.07999
 6
CONTINUOUS
 0
LINE
 8
WHITE
 10
225.92
 20
51.47
 30
0.0000
 11
225.92
 21
54.7
 31
0.0000
 6
CONTINUOUS
 0
LINE
 8
WHITE
 10
225.92
 20
54.7
 30
0.0000
 11
224.15
 21
54.7
 31
0.0000
 6
CONTINUOUS
 0
LINE
 8
WHITE
 10
225.92
 20
54.7
 30
0.0000
 11
236.12
 21
54.7
 31
0.0000
 6
CONTINUOUS
 0
LINE
 8
WHITE
 10
239.88
 20
57.72
 30
0.0000
 11
237.34
 21
54.6
 31
0.0000
 6
CONTINUOUS
 0
LINE
 8
WHITE
 10
237.34
 20
54.6
 30
0.0000
 11
236.04
 21
54.6
 31
0.0000
 6
CONTINUOUS
 0
LINE
 8
WHITE
 10
236.04
 20
54.6
 30
0.0000
 11
241.65
 21
61.47
 31
0.0000
 6
CONTINUOUS
 0
LINE
 8
WHITE
 10
241.65
 20
61.47
 30
0.0000
 11
242.78
 21
62.46
 31
0.0000
 6
CONTINUOUS
 0
LINE
 8
WHITE
 10
242.78
 20
62.46
 30
0.0000
 11
243.17
 21
62.14
 31
0.0000
 6
CONTINUOUS
 0
LINE
 8
WHITE
 10
243.17
 20
62.14
 30
0.0000
 11
242.43
 21
60.84
 31
0.0000
 6
CONTINUOUS
 0
LINE
 8
WHITE
 10
242.43
 20
60.84
 30
0.0000
 11
239.88
 21
57.72
 31
0.0000
 6
CONTINUOUS
 0
LINE
 8
WHITE
 10
290.17
 20
40.32
 30
0.0000
 11
297.46
 21
40.32
 31
0.0000
 6
CONTINUOUS
 0
ARC
 8
WHITE
 10
264.6
 20
30.34
 30
 0
 40
33.99855
 50
6.349496
 51
8.780756
 6
CONTINUOUS
 0
LINE
 8
WHITE
 10
298.2
 20
35.53
 30
0.0000
 11
297.18
 21
42.18
 31
0.0000
 6
CONTINUOUS
 0
ARC
 8
WHITE
 10
298.169
 20
42.339
 30
 0
 40
1.001699
 50
90.51529
 51
189.1332
 6
CONTINUOUS
 0
LINE
 8
WHITE
 10
298.16
 20
43.34
 30
0.0000
 11
298.48
 21
43.34
 31
0.0000
 6
CONTINUOUS
 0
LINE
 8
WHITE
 10
293.67
 20
53.1
 30
0.0000
 11
293.71
 21
57.76
 31
0.0000
 6
CONTINUOUS
 0
ARC
 8
WHITE
 10
290.947
 20
85.178
 30
 0
 40
3.003053
 50
359.4658
 51
76.65788
 6
CONTINUOUS
 0
LINE
 8
WHITE
 10
293.95
 20
85.15
 30
0.0000
 11
293.76
 21
63.76
 31
0.0000
 6
CONTINUOUS
 0
LINE
 8
WHITE
 10
299.5
 20
79.21
 30
0.0000
 11
237.08
 21
79.76
 31
0.0000
 6
CONTINUOUS
 0
LINE
 8
WHITE
 10
298.43
 20
50.23
 30
0.0000
 11
296
 21
50.25
 31
0.0000
 6
CONTINUOUS
 0
LINE
 8
WHITE
 10
293.95
 20
84.83
 30
0.0000
 11
236.68
 21
85.33
 31
0.0000
 6
CONTINUOUS
 0
LINE
 8
WHITE
 10
232.64
 20
87.43
 30
0.0000
 11
232.64
 21
88.59
 31
0.0000
 6
CONTINUOUS
 0
LINE
 8
WHITE
 10
291.39
 20
62.87
 30
0.0000
 11
290
 21
62.06
 31
0.0000
 6
CONTINUOUS
 0
ARC
 8
WHITE
 10
290.751
 20
60.765
 30
 0
 40
1.497005
 50
120.1104
 51
239.8894
 6
CONTINUOUS
 0
LINE
 8
WHITE
 10
290
 20
59.47
 30
0.0000
 11
292.78
 21
57.84
 31
0.0000
 6
CONTINUOUS
 0
ARC
 8
WHITE
 10
293.08
 20
58.36
 30
 0
 40
.600333
 50
240.0184
 51
270
 6
CONTINUOUS
 0
LINE
 8
WHITE
 10
293.08
 20
57.76
 30
0.0000
 11
297.04
 21
57.76
 31
0.0000
 6
CONTINUOUS
 0
ARC
 8
WHITE
 10
297.04
 20
58.36
 30
 0
 40
.6
 50
270
 51
.000364
 6
CONTINUOUS
 0
LINE
 8
WHITE
 10
297.64
 20
58.36
 30
0.0000
 11
297.64
 21
63.16
 31
0.0000
 6
CONTINUOUS
 0
ARC
 8
WHITE
 10
297.04
 20
63.16
 30
 0
 40
.6
 50
0
 51
90
 6
CONTINUOUS
 0
LINE
 8
WHITE
 10
297.04
 20
63.76
 30
0.0000
 11
293.08
 21
63.76
 31
0.0000
 6
CONTINUOUS
 0
ARC
 8
WHITE
 10
293.08
 20
63.16
 30
 0
 40
.6
 50
90
 51
119.9806
 6
CONTINUOUS
 0
LINE
 8
WHITE
 10
292.78
 20
63.68
 30
0.0000
 11
291.39
 21
62.87
 31
0.0000
 6
CONTINUOUS
 0
CIRCLE
 8
WHITE
 10
271.68
 20
32.7
 30
 0
 40
12
 6
CONTINUOUS
 0
CIRCLE
 8
WHITE
 10
271.68
 20
32.7
 30
 0
 40
13
 6
CONTINUOUS
 0
CIRCLE
 8
WHITE
 10
271.68
 20
32.7
 30
 0
 40
8
 6
CONTINUOUS
 0
CIRCLE
 8
WHITE
 10
271.68
 20
32.7
 30
 0
 40
4
 6
CONTINUOUS
 0
CIRCLE
 8
WHITE
 10
268.93
 20
37.46
 30
 0
 40
.5
 6
CONTINUOUS
 0
CIRCLE
 8
WHITE
 10
266.91
 20
35.45
 30
 0
 40
.5
 6
CONTINUOUS
 0
CIRCLE
 8
WHITE
 10
266.18
 20
32.7
 30
 0
 40
.5
 6
CONTINUOUS
 0
CIRCLE
 8
WHITE
 10
266.91
 20
29.95
 30
 0
 40
.5
 6
CONTINUOUS
 0
CIRCLE
 8
WHITE
 10
268.93
 20
27.94
 30
 0
 40
.5
 6
CONTINUOUS
 0
CIRCLE
 8
WHITE
 10
271.68
 20
27.2
 30
 0
 40
.5
 6
CONTINUOUS
 0
CIRCLE
 8
WHITE
 10
274.43
 20
27.94
 30
 0
 40
.5
 6
CONTINUOUS
 0
CIRCLE
 8
WHITE
 10
276.44
 20
29.95
 30
 0
 40
.5
 6
CONTINUOUS
 0
CIRCLE
 8
WHITE
 10
277.18
 20
32.7
 30
 0
 40
.5
 6
CONTINUOUS
 0
CIRCLE
 8
WHITE
 10
276.44
 20
35.45
 30
 0
 40
.5
 6
CONTINUOUS
 0
CIRCLE
 8
WHITE
 10
274.43
 20
37.46
 30
 0
 40
.5
 6
CONTINUOUS
 0
CIRCLE
 8
WHITE
 10
271.68
 20
38.2
 30
 0
 40
.5
 6
CONTINUOUS
 0
CIRCLE
 8
WHITE
 10
238.79
 20
80.24
 30
 0
 40
.25
 6
CONTINUOUS
 0
CIRCLE
 8
WHITE
 10
242.79
 20
80.21
 30
 0
 40
.25
 6
CONTINUOUS
 0
CIRCLE
 8
WHITE
 10
246.79
 20
80.17
 30
 0
 40
.25
 6
CONTINUOUS
 0
CIRCLE
 8
WHITE
 10
250.79
 20
80.14
 30
 0
 40
.25
 6
CONTINUOUS
 0
CIRCLE
 8
WHITE
 10
254.79
 20
80.1
 30
 0
 40
.25
 6
CONTINUOUS
 0
CIRCLE
 8
WHITE
 10
258.79
 20
80.07
 30
 0
 40
.25
 6
CONTINUOUS
 0
CIRCLE
 8
WHITE
 10
262.79
 20
80.03
 30
 0
 40
.25
 6
CONTINUOUS
 0
CIRCLE
 8
WHITE
 10
266.79
 20
80
 30
 0
 40
.25
 6
CONTINUOUS
 0
CIRCLE
 8
WHITE
 10
270.79
 20
79.96
 30
 0
 40
.25
 6
CONTINUOUS
 0
CIRCLE
 8
WHITE
 10
274.79
 20
79.93
 30
 0
 40
.25
 6
CONTINUOUS
 0
CIRCLE
 8
WHITE
 10
278.79
 20
79.89
 30
 0
 40
.25
 6
CONTINUOUS
 0
CIRCLE
 8
WHITE
 10
282.79
 20
79.86
 30
 0
 40
.25
 6
CONTINUOUS
 0
CIRCLE
 8
WHITE
 10
286.79
 20
79.82
 30
 0
 40
.25
 6
CONTINUOUS
 0
CIRCLE
 8
WHITE
 10
290.79
 20
79.79
 30
 0
 40
.25
 6
CONTINUOUS
 0
CIRCLE
 8
WHITE
 10
294.4
 20
79.75999
 30
 0
 40
.2
 6
CONTINUOUS
 0
CIRCLE
 8
WHITE
 10
296.22
 20
79.75
 30
 0
 40
.2
 6
CONTINUOUS
 0
CIRCLE
 8
WHITE
 10
298.14
 20
79.75999
 30
 0
 40
.2
 6
CONTINUOUS
 0
CIRCLE
 8
WHITE
 10
292.91
 20
87.91
 30
 0
 40
.2
 6
CONTINUOUS
 0
CIRCLE
 8
WHITE
 10
294.1
 20
86.91
 30
 0
 40
.2
 6
CONTINUOUS
 0
CIRCLE
 8
WHITE
 10
294.42
 20
85.53
 30
 0
 40
.2
 6
CONTINUOUS
 0
CIRCLE
 8
WHITE
 10
294.44
 20
83.75999
 30
 0
 40
.2
 6
CONTINUOUS
 0
CIRCLE
 8
WHITE
 10
294.42
 20
81.75999
 30
 0
 40
.2
 6
CONTINUOUS
 0
CIRCLE
 8
WHITE
 10
294.38
 20
77.25999
 30
 0
 40
.2
 6
CONTINUOUS
 0
CIRCLE
 8
WHITE
 10
294.36
 20
75.25999
 30
 0
 40
.2
 6
CONTINUOUS
 0
CIRCLE
 8
WHITE
 10
294.34
 20
73.25999
 30
 0
 40
.2
 6
CONTINUOUS
 0
CIRCLE
 8
WHITE
 10
294.33
 20
71.25999
 30
 0
 40
.2
 6
CONTINUOUS
 0
CIRCLE
 8
WHITE
 10
294.31
 20
69.25999
 30
 0
 40
.2
 6
CONTINUOUS
 0
CIRCLE
 8
WHITE
 10
294.29
 20
67.25999
 30
 0
 40
.2
 6
CONTINUOUS
 0
CIRCLE
 8
WHITE
 10
294.27
 20
65.25999
 30
 0
 40
.2
 6
CONTINUOUS
 0
CIRCLE
 8
WHITE
 10
294.2
 20
56.81
 30
 0
 40
.2
 6
CONTINUOUS
 0
CIRCLE
 8
WHITE
 10
294.19
 20
55.26
 30
 0
 40
.2
 6
CONTINUOUS
 0
CIRCLE
 8
WHITE
 10
294.18
 20
54.13
 30
 0
 40
.2
 6
CONTINUOUS
 0
LINE
 8
WHITE
 10
232.64
 20
54.7
 30
0.0000
 11
232.64
 21
55.52
 31
0.0000
 6
CONTINUOUS
 0
ARC
 8
WHITE
 10
230.272
 20
86.11
 30
 0
 40
2.000015
 50
49.90842
 51
89.77082
 6
CONTINUOUS
 0
LINE
 8
WHITE
 10
231.56
 20
87.64
 30
0.0000
 11
231.74
 21
87.49
 31
0.0000
 6
CONTINUOUS
 0
LINE
 8
WHITE
 10
231.74
 20
87.49
 30
0.0000
 11
236.61
 21
87.13
 31
0.0000
 6
CONTINUOUS
 0
ARC
 8
WHITE
 10
236.579
 20
86.629
 30
 0
 40
.501958
 50
1.257952
 51
86.45927
 6
CONTINUOUS
 0
LINE
 8
WHITE
 10
237.08
 20
86.64
 30
0.0000
 11
237.08
 21
86.35
 31
0.0000
 6
CONTINUOUS
 0
ARC
 8
WHITE
 10
236.83
 20
86.35
 30
 0
 40
.25
 50
270
 51
0
 6
CONTINUOUS
 0
LINE
 8
WHITE
 10
236.83
 20
86.1
 30
0.0000
 11
223.73
 21
86.1
 31
0.0000
 6
CONTINUOUS
 0
ARC
 8
WHITE
 10
223.73
 20
86.35
 30
 0
 40
.25
 50
180
 51
270
 6
CONTINUOUS
 0
LINE
 8
WHITE
 10
223.48
 20
86.35
 30
0.0000
 11
223.48
 21
86.64
 31
0.0000
 6
CONTINUOUS
 0
ARC
 8
WHITE
 10
223.98
 20
86.632
 30
 0
 40
.500064
 50
94.59143
 51
179.0833
 6
CONTINUOUS
 0
LINE
 8
WHITE
 10
223.94
 20
87.13
 30
0.0000
 11
228.81
 21
87.49
 31
0.0000
 6
CONTINUOUS
 0
LINE
 8
WHITE
 10
228.81
 20
87.49
 30
0.0000
 11
228.99
 21
87.64
 31
0.0000
 6
CONTINUOUS
 0
ARC
 8
WHITE
 10
230.279
 20
86.109
 30
 0
 40
2.001369
 50
89.9716
 51
130.0951
 6
CONTINUOUS
 0
LINE
 8
WHITE
 10
223.88
 20
86.1
 30
0.0000
 11
223.88
 21
80.1
 31
0.0000
 6
CONTINUOUS
 0
LINE
 8
WHITE
 10
224.65
 20
86.1
 30
0.0000
 11
223.88
 21
85.11
 31
0.0000
 6
CONTINUOUS
 0
LINE
 8
WHITE
 10
225.92
 20
86.1
 30
0.0000
 11
223.88
 21
83.48
 31
0.0000
 6
CONTINUOUS
 0
LINE
 8
WHITE
 10
227.19
 20
86.1
 30
0.0000
 11
223.88
 21
81.86
 31
0.0000
 6
CONTINUOUS
 0
LINE
 8
WHITE
 10
228.46
 20
86.1
 30
0.0000
 11
223.88
 21
80.24
 31
0.0000
 6
CONTINUOUS
 0
LINE
 8
WHITE
 10
229.73
 20
86.1
 30
0.0000
 11
225.04
 21
80.1
 31
0.0000
 6
CONTINUOUS
 0
LINE
 8
WHITE
 10
231
 20
86.1
 30
0.0000
 11
226.31
 21
80.1
 31
0.0000
 6
CONTINUOUS
 0
LINE
 8
WHITE
 10
232.27
 20
86.1
 30
0.0000
 11
227.58
 21
80.1
 31
0.0000
 6
CONTINUOUS
 0
LINE
 8
WHITE
 10
233.54
 20
86.1
 30
0.0000
 11
228.85
 21
80.1
 31
0.0000
 6
CONTINUOUS
 0
LINE
 8
WHITE
 10
234.81
 20
86.1
 30
0.0000
 11
230.12
 21
80.1
 31
0.0000
 6
CONTINUOUS
 0
LINE
 8
WHITE
 10
236.08
 20
86.1
 30
0.0000
 11
231.39
 21
80.1
 31
0.0000
 6
CONTINUOUS
 0
LINE
 8
WHITE
 10
236.68
 20
86.1
 30
0.0000
 11
236.68
 21
80.1
 31
0.0000
 6
CONTINUOUS
 0
LINE
 8
WHITE
 10
236.68
 20
85.24
 30
0.0000
 11
232.66
 21
80.1
 31
0.0000
 6
CONTINUOUS
 0
LINE
 8
WHITE
 10
236.68
 20
83.61
 30
0.0000
 11
233.93
 21
80.1
 31
0.0000
 6
CONTINUOUS
 0
LINE
 8
WHITE
 10
236.68
 20
81.99
 30
0.0000
 11
235.2
 21
80.1
 31
0.0000
 6
CONTINUOUS
 0
LINE
 8
WHITE
 10
236.68
 20
81.18
 30
0.0000
 11
235.83
 21
80.1
 31
0.0000
 6
CONTINUOUS
 0
LINE
 8
WHITE
 10
230.28
 20
79.1
 30
0.0000
 11
223.73
 21
79.1
 31
0.0000
 6
CONTINUOUS
 0
ARC
 8
WHITE
 10
223.73
 20
79.35
 30
 0
 40
.25
 50
180
 51
270
 6
CONTINUOUS
 0
LINE
 8
WHITE
 10
223.48
 20
79.35
 30
0.0000
 11
223.48
 21
79.85
 31
0.0000
 6
CONTINUOUS
 0
ARC
 8
WHITE
 10
223.73
 20
79.85
 30
 0
 40
.25
 50
90
 51
180
 6
CONTINUOUS
 0
LINE
 8
WHITE
 10
223.73
 20
80.1
 30
0.0000
 11
236.83
 21
80.1
 31
0.0000
 6
CONTINUOUS
 0
ARC
 8
WHITE
 10
236.83
 20
79.85
 30
 0
 40
.25
 50
0
 51
90
 6
CONTINUOUS
 0
LINE
 8
WHITE
 10
237.08
 20
79.85
 30
0.0000
 11
237.08
 21
79.35
 31
0.0000
 6
CONTINUOUS
 0
ARC
 8
WHITE
 10
236.83
 20
79.35
 30
 0
 40
.25
 50
270
 51
0
 6
CONTINUOUS
 0
LINE
 8
WHITE
 10
236.83
 20
79.1
 30
0.0000
 11
230.28
 21
79.1
 31
0.0000
 6
CONTINUOUS
 0
LINE
 8
WHITE
 10
224.28
 20
79.1
 30
0.0000
 11
224.28
 21
56.52
 31
0.0000
 6
CONTINUOUS
 0
ARC
 8
WHITE
 10
224.78
 20
56.522
 30
 0
 40
.500003
 50
180.2292
 51
259.6341
 6
CONTINUOUS
 0
LINE
 8
WHITE
 10
224.69
 20
56.03
 30
0.0000
 11
226.99
 21
55.65
 31
0.0000
 6
CONTINUOUS
 0
ARC
 8
WHITE
 10
230.275
 20
75.381
 30
 0
 40
20.00259
 50
260.5476
 51
279.4524
 6
CONTINUOUS
 0
LINE
 8
WHITE
 10
233.56
 20
55.65
 30
0.0000
 11
235.86
 21
56.03
 31
0.0000
 6
CONTINUOUS
 0
ARC
 8
WHITE
 10
235.784
 20
56.521
 30
 0
 40
.496847
 50
278.7988
 51
359.8846
 6
CONTINUOUS
 0
LINE
 8
WHITE
 10
236.28
 20
56.52
 30
0.0000
 11
236.28
 21
79.1
 31
0.0000
 6
CONTINUOUS
 0
LINE
 8
WHITE
 10
236.28
 20
69.45
 30
0.0000
 11
233.56
 21
69
 31
0.0000
 6
CONTINUOUS
 0
ARC
 8
WHITE
 10
230.275
 20
88.731
 30
 0
 40
20.00259
 50
260.5476
 51
279.4524
 6
CONTINUOUS
 0
LINE
 8
WHITE
 10
226.99
 20
69
 30
0.0000
 11
224.28
 21
69.45
 31
0.0000
 6
CONTINUOUS
 0
LINE
 8
WHITE
 10
236.28
 20
68.45
 30
0.0000
 11
233.56
 21
68
 31
0.0000
 6
CONTINUOUS
 0
ARC
 8
WHITE
 10
230.275
 20
87.731
 30
 0
 40
20.00259
 50
260.5476
 51
279.4524
 6
CONTINUOUS
 0
LINE
 8
WHITE
 10
226.99
 20
68
 30
0.0000
 11
224.28
 21
68.45
 31
0.0000
 6
CONTINUOUS
 0
LINE
 8
WHITE
 10
236.28
 20
62.08
 30
0.0000
 11
233.56
 21
61.63
 31
0.0000
 6
CONTINUOUS
 0
ARC
 8
WHITE
 10
230.275
 20
81.361
 30
 0
 40
20.00259
 50
260.5476
 51
279.4524
 6
CONTINUOUS
 0
LINE
 8
WHITE
 10
226.99
 20
61.63
 30
0.0000
 11
224.28
 21
62.08
 31
0.0000
 6
CONTINUOUS
 0
LINE
 8
WHITE
 10
236.28
 20
61.08
 30
0.0000
 11
233.56
 21
60.63
 31
0.0000
 6
CONTINUOUS
 0
ARC
 8
WHITE
 10
230.275
 20
80.361
 30
 0
 40
20.00259
 50
260.5476
 51
279.4524
 6
CONTINUOUS
 0
LINE
 8
WHITE
 10
226.99
 20
60.63
 30
0.0000
 11
224.28
 21
61.08
 31
0.0000
 6
CONTINUOUS
 0
LINE
 8
WHITE
 10
185.04
 20
37.75
 30
0.0000
 11
180.13
 21
43.41
 31
0.0000
 6
CONTINUOUS
 0
ARC
 8
WHITE
 10
187.682
 20
49.968
 30
 0
 40
10.002
 50
179.9885
 51
220.9704
 6
CONTINUOUS
 0
LINE
 8
WHITE
 10
177.68
 20
49.97
 30
0.0000
 11
177.68
 21
59.14
 31
0.0000
 6
CONTINUOUS
 0
LINE
 8
WHITE
 10
187.82
 20
43.7
 30
0.0000
 11
184.66
 21
47.34
 31
0.0000
 6
CONTINUOUS
 0
ARC
 8
WHITE
 10
187.678
 20
49.962
 30
 0
 40
3.9979
 50
179.8854
 51
220.9837
 6
CONTINUOUS
 0
LINE
 8
WHITE
 10
183.68
 20
49.97
 30
0.0000
 11
183.68
 21
59.14
 31
0.0000
 6
CONTINUOUS
 0
LINE
 8
WHITE
 10
176.46
 20
59.3
 30
0.0000
 11
176.46
 21
51.79
 31
0.0000
 6
CONTINUOUS
 0
ARC
 8
WHITE
 10
176.96
 20
51.79
 30
 0
 40
.5
 50
180
 51
270
 6
CONTINUOUS
 0
LINE
 8
WHITE
 10
176.96
 20
51.29
 30
0.0000
 11
177.68
 21
51.29
 31
0.0000
 6
CONTINUOUS
 0
LINE
 8
WHITE
 10
176.46
 20
54.28
 30
0.0000
 11
177.68
 21
54.28
 31
0.0000
 6
CONTINUOUS
 0
LINE
 8
WHITE
 10
172.64
 20
42.77
 30
0.0000
 11
180.74
 21
42.77
 31
0.0000
 6
CONTINUOUS
 0
LINE
 8
WHITE
 10
183.68
 20
50.7
 30
0.0000
 11
186.14
 21
50.7
 31
0.0000
 6
CONTINUOUS
 0
LINE
 8
WHITE
 10
183.68
 20
51.35
 30
0.0000
 11
224.18
 21
51.7
 31
0.0000
 6
CONTINUOUS
 0
LINE
 8
WHITE
 10
224.18
 20
51.7
 30
0.0000
 11
224.15
 21
54.7
 31
0.0000
 6
CONTINUOUS
 0
LINE
 8
WHITE
 10
224.15
 20
54.7
 30
0.0000
 11
183.68
 21
54.35
 31
0.0000
 6
CONTINUOUS
 0
LINE
 8
WHITE
 10
186.23
 20
51.37
 30
0.0000
 11
186.18
 21
51.03
 31
0.0000
 6
CONTINUOUS
 0
ARC
 8
WHITE
 10
205.978
 20
48.183
 30
 0
 40
20.00166
 50
171.8168
 51
187.3332
 6
CONTINUOUS
 0
LINE
 8
WHITE
 10
191.38
 20
51.41
 30
0.0000
 11
191.38
 21
44.7
 31
0.0000
 6
CONTINUOUS
 0
LINE
 8
WHITE
 10
191.88
 20
51.42
 30
0.0000
 11
191.88
 21
44.6
 31
0.0000
 6
CONTINUOUS
 0
LINE
 8
WHITE
 10
191.88
 20
44.6
 30
0.0000
 11
191.38
 21
44.6
 31
0.0000
 6
CONTINUOUS
 0
LINE
 8
WHITE
 10
191.38
 20
44.6
 30
0.0000
 11
191.38
 21
44.7
 31
0.0000
 6
CONTINUOUS
 0
LINE
 8
WHITE
 10
191.38
 20
44.7
 30
0.0000
 11
186.95
 21
44.7
 31
0.0000
 6
CONTINUOUS
 0
LINE
 8
WHITE
 10
211.4
 20
51.59
 30
0.0000
 11
211.4
 21
44.6
 31
0.0000
 6
CONTINUOUS
 0
LINE
 8
WHITE
 10
211.4
 20
44.6
 30
0.0000
 11
211.9
 21
44.6
 31
0.0000
 6
CONTINUOUS
 0
LINE
 8
WHITE
 10
211.9
 20
44.6
 30
0.0000
 11
211.9
 21
44.7
 31
0.0000
 6
CONTINUOUS
 0
LINE
 8
WHITE
 10
211.9
 20
44.7
 30
0.0000
 11
217.84
 21
44.7
 31
0.0000
 6
CONTINUOUS
 0
ARC
 8
WHITE
 10
217.845
 20
45.2
 30
 0
 40
.500024
 50
269.4271
 51
351.9509
 6
CONTINUOUS
 0
LINE
 8
WHITE
 10
218.34
 20
45.13
 30
0.0000
 11
218.37
 21
45.37
 31
0.0000
 6
CONTINUOUS
 0
ARC
 8
WHITE
 10
198.57
 20
48.2
 30
 0
 40
20.00122
 50
351.8658
 51
8.134156
 6
CONTINUOUS
 0
LINE
 8
WHITE
 10
218.37
 20
51.03
 30
0.0000
 11
218.28
 21
51.65
 31
0.0000
 6
CONTINUOUS
 0
LINE
 8
WHITE
 10
211.9
 20
51.59
 30
0.0000
 11
211.9
 21
44.7
 31
0.0000
 6
CONTINUOUS
 0
LINE
 8
WHITE
 10
211.4
 20
44.7
 30
0.0000
 11
191.88
 21
44.7
 31
0.0000
 6
CONTINUOUS
 0
LINE
 8
WHITE
 10
218.57
 20
50.7
 30
0.0000
 11
218.42
 21
50.7
 31
0.0000
 6
CONTINUOUS
 0
LINE
 8
WHITE
 10
228.68
 20
45.12
 30
0.0000
 11
218.41
 21
50.79
 31
0.0000
 6
CONTINUOUS
 0
LINE
 8
WHITE
 10
228.51
 20
46.24
 30
0.0000
 11
218.71
 21
51.65
 31
0.0000
 6
CONTINUOUS
 0
LINE
 8
WHITE
 10
227.12
 20
50.7
 30
0.0000
 11
220.43
 21
50.7
 31
0.0000
 6
CONTINUOUS
 0
LINE
 8
WHITE
 10
229.04
 20
42.77
 30
0.0000
 11
217.28
 21
42.77
 31
0.0000
 6
CONTINUOUS
 0
LINE
 8
WHITE
 10
229.1
 20
42.36
 30
0.0000
 11
217.28
 21
40.58
 31
0.0000
 6
CONTINUOUS
 0
LINE
 8
WHITE
 10
189.76
 20
43.7
 30
0.0000
 11
189.76
 21
44.7
 31
0.0000
 6
CONTINUOUS
 0
LINE
 8
WHITE
 10
214.28
 20
43.7
 30
0.0000
 11
214.28
 21
44.7
 31
0.0000
 6
CONTINUOUS
 0
LINE
 8
WHITE
 10
187.28
 20
35.48
 30
0.0000
 11
187.28
 21
43.7
 31
0.0000
 6
CONTINUOUS
 0
LINE
 8
WHITE
 10
187.28
 20
43.7
 30
0.0000
 11
217.28
 21
43.7
 31
0.0000
 6
CONTINUOUS
 0
LINE
 8
WHITE
 10
217.28
 20
43.7
 30
0.0000
 11
217.28
 21
34.64
 31
0.0000
 6
CONTINUOUS
 0
LINE
 8
WHITE
 10
187.28
 20
41.7
 30
0.0000
 11
217.28
 21
41.7
 31
0.0000
 6
CONTINUOUS
 0
LINE
 8
WHITE
 10
188.98
 20
39.99
 30
0.0000
 11
187.57
 21
41.41
 31
0.0000
 6
CONTINUOUS
 0
LINE
 8
WHITE
 10
187.57
 20
39.99
 30
0.0000
 11
188.98
 21
41.41
 31
0.0000
 6
CONTINUOUS
 0
LINE
 8
WHITE
 10
187.57
 20
38.41
 30
0.0000
 11
188.98
 21
36.99
 31
0.0000
 6
CONTINUOUS
 0
LINE
 8
WHITE
 10
187.57
 20
36.99
 30
0.0000
 11
188.98
 21
38.41
 31
0.0000
 6
CONTINUOUS
 0
LINE
 8
WHITE
 10
187.57
 20
35.41
 30
0.0000
 11
188.98
 21
33.99
 31
0.0000
 6
CONTINUOUS
 0
LINE
 8
WHITE
 10
187.57
 20
33.99
 30
0.0000
 11
188.98
 21
35.41
 31
0.0000
 6
CONTINUOUS
 0
LINE
 8
WHITE
 10
187.57
 20
32.41
 30
0.0000
 11
188.98
 21
30.99
 31
0.0000
 6
CONTINUOUS
 0
LINE
 8
WHITE
 10
187.57
 20
30.99
 30
0.0000
 11
188.98
 21
32.41
 31
0.0000
 6
CONTINUOUS
 0
LINE
 8
WHITE
 10
187.57
 20
29.41
 30
0.0000
 11
188.98
 21
27.99
 31
0.0000
 6
CONTINUOUS
 0
LINE
 8
WHITE
 10
187.57
 20
27.99
 30
0.0000
 11
188.98
 21
29.41
 31
0.0000
 6
CONTINUOUS
 0
LINE
 8
WHITE
 10
190.57
 20
27.99
 30
0.0000
 11
191.98
 21
29.41
 31
0.0000
 6
CONTINUOUS
 0
LINE
 8
WHITE
 10
191.98
 20
27.99
 30
0.0000
 11
190.57
 21
29.41
 31
0.0000
 6
CONTINUOUS
 0
LINE
 8
WHITE
 10
193.57
 20
27.99
 30
0.0000
 11
194.98
 21
29.41
 31
0.0000
 6
CONTINUOUS
 0
LINE
 8
WHITE
 10
194.98
 20
27.99
 30
0.0000
 11
193.57
 21
29.41
 31
0.0000
 6
CONTINUOUS
 0
LINE
 8
WHITE
 10
196.57
 20
27.99
 30
0.0000
 11
197.98
 21
29.41
 31
0.0000
 6
CONTINUOUS
 0
LINE
 8
WHITE
 10
197.98
 20
27.99
 30
0.0000
 11
196.57
 21
29.41
 31
0.0000
 6
CONTINUOUS
 0
LINE
 8
WHITE
 10
199.57
 20
27.99
 30
0.0000
 11
200.28
 21
28.7
 31
0.0000
 6
CONTINUOUS
 0
LINE
 8
WHITE
 10
200.28
 20
28.7
 30
0.0000
 11
199.57
 21
29.41
 31
0.0000
 6
CONTINUOUS
 0
LINE
 8
WHITE
 10
205.57
 20
27.99
 30
0.0000
 11
206.98
 21
29.41
 31
0.0000
 6
CONTINUOUS
 0
LINE
 8
WHITE
 10
206.98
 20
27.99
 30
0.0000
 11
205.57
 21
29.41
 31
0.0000
 6
CONTINUOUS
 0
LINE
 8
WHITE
 10
208.57
 20
27.99
 30
0.0000
 11
209.98
 21
29.41
 31
0.0000
 6
CONTINUOUS
 0
LINE
 8
WHITE
 10
209.98
 20
27.99
 30
0.0000
 11
208.57
 21
29.41
 31
0.0000
 6
CONTINUOUS
 0
LINE
 8
WHITE
 10
211.57
 20
27.99
 30
0.0000
 11
212.98
 21
29.41
 31
0.0000
 6
CONTINUOUS
 0
LINE
 8
WHITE
 10
212.98
 20
27.99
 30
0.0000
 11
211.57
 21
29.41
 31
0.0000
 6
CONTINUOUS
 0
LINE
 8
WHITE
 10
214.57
 20
27.99
 30
0.0000
 11
215.98
 21
29.41
 31
0.0000
 6
CONTINUOUS
 0
LINE
 8
WHITE
 10
215.98
 20
27.99
 30
0.0000
 11
214.57
 21
29.41
 31
0.0000
 6
CONTINUOUS
 0
LINE
 8
WHITE
 10
215.98
 20
30.99
 30
0.0000
 11
214.57
 21
32.41
 31
0.0000
 6
CONTINUOUS
 0
LINE
 8
WHITE
 10
214.57
 20
30.99
 30
0.0000
 11
215.98
 21
32.41
 31
0.0000
 6
CONTINUOUS
 0
LINE
 8
WHITE
 10
212.98
 20
30.99
 30
0.0000
 11
211.57
 21
32.41
 31
0.0000
 6
CONTINUOUS
 0
LINE
 8
WHITE
 10
211.57
 20
30.99
 30
0.0000
 11
212.98
 21
32.41
 31
0.0000
 6
CONTINUOUS
 0
LINE
 8
WHITE
 10
209.98
 20
30.99
 30
0.0000
 11
208.57
 21
32.41
 31
0.0000
 6
CONTINUOUS
 0
LINE
 8
WHITE
 10
208.57
 20
30.99
 30
0.0000
 11
209.98
 21
32.41
 31
0.0000
 6
CONTINUOUS
 0
LINE
 8
WHITE
 10
206.98
 20
30.99
 30
0.0000
 11
205.57
 21
32.41
 31
0.0000
 6
CONTINUOUS
 0
LINE
 8
WHITE
 10
205.57
 20
30.99
 30
0.0000
 11
206.98
 21
32.41
 31
0.0000
 6
CONTINUOUS
 0
LINE
 8
WHITE
 10
203.98
 20
30.99
 30
0.0000
 11
202.57
 21
32.41
 31
0.0000
 6
CONTINUOUS
 0
LINE
 8
WHITE
 10
202.57
 20
30.99
 30
0.0000
 11
203.98
 21
32.41
 31
0.0000
 6
CONTINUOUS
 0
LINE
 8
WHITE
 10
200.98
 20
30.99
 30
0.0000
 11
199.57
 21
32.41
 31
0.0000
 6
CONTINUOUS
 0
LINE
 8
WHITE
 10
199.57
 20
30.99
 30
0.0000
 11
200.98
 21
32.41
 31
0.0000
 6
CONTINUOUS
 0
LINE
 8
WHITE
 10
196.57
 20
30.99
 30
0.0000
 11
197.98
 21
32.41
 31
0.0000
 6
CONTINUOUS
 0
LINE
 8
WHITE
 10
197.98
 20
30.99
 30
0.0000
 11
196.57
 21
32.41
 31
0.0000
 6
CONTINUOUS
 0
LINE
 8
WHITE
 10
194.98
 20
30.99
 30
0.0000
 11
193.57
 21
32.41
 31
0.0000
 6
CONTINUOUS
 0
LINE
 8
WHITE
 10
193.57
 20
30.99
 30
0.0000
 11
194.98
 21
32.41
 31
0.0000
 6
CONTINUOUS
 0
LINE
 8
WHITE
 10
191.98
 20
30.99
 30
0.0000
 11
190.57
 21
32.41
 31
0.0000
 6
CONTINUOUS
 0
LINE
 8
WHITE
 10
190.57
 20
30.99
 30
0.0000
 11
191.98
 21
32.41
 31
0.0000
 6
CONTINUOUS
 0
LINE
 8
WHITE
 10
190.57
 20
33.99
 30
0.0000
 11
191.98
 21
35.41
 31
0.0000
 6
CONTINUOUS
 0
LINE
 8
WHITE
 10
191.98
 20
33.99
 30
0.0000
 11
190.57
 21
35.41
 31
0.0000
 6
CONTINUOUS
 0
LINE
 8
WHITE
 10
193.57
 20
33.99
 30
0.0000
 11
194.98
 21
35.41
 31
0.0000
 6
CONTINUOUS
 0
LINE
 8
WHITE
 10
194.98
 20
33.99
 30
0.0000
 11
193.57
 21
35.41
 31
0.0000
 6
CONTINUOUS
 0
LINE
 8
WHITE
 10
196.57
 20
33.99
 30
0.0000
 11
197.98
 21
35.41
 31
0.0000
 6
CONTINUOUS
 0
LINE
 8
WHITE
 10
197.98
 20
33.99
 30
0.0000
 11
196.57
 21
35.41
 31
0.0000
 6
CONTINUOUS
 0
LINE
 8
WHITE
 10
199.57
 20
33.99
 30
0.0000
 11
200.98
 21
35.41
 31
0.0000
 6
CONTINUOUS
 0
LINE
 8
WHITE
 10
200.98
 20
33.99
 30
0.0000
 11
199.57
 21
35.41
 31
0.0000
 6
CONTINUOUS
 0
LINE
 8
WHITE
 10
202.57
 20
33.99
 30
0.0000
 11
203.98
 21
35.41
 31
0.0000
 6
CONTINUOUS
 0
LINE
 8
WHITE
 10
203.98
 20
33.99
 30
0.0000
 11
202.57
 21
35.41
 31
0.0000
 6
CONTINUOUS
 0
LINE
 8
WHITE
 10
205.57
 20
33.99
 30
0.0000
 11
206.98
 21
35.41
 31
0.0000
 6
CONTINUOUS
 0
LINE
 8
WHITE
 10
206.98
 20
33.99
 30
0.0000
 11
205.57
 21
35.41
 31
0.0000
 6
CONTINUOUS
 0
LINE
 8
WHITE
 10
208.57
 20
33.99
 30
0.0000
 11
209.98
 21
35.41
 31
0.0000
 6
CONTINUOUS
 0
LINE
 8
WHITE
 10
209.98
 20
33.99
 30
0.0000
 11
208.57
 21
35.41
 31
0.0000
 6
CONTINUOUS
 0
LINE
 8
WHITE
 10
211.57
 20
33.99
 30
0.0000
 11
212.98
 21
35.41
 31
0.0000
 6
CONTINUOUS
 0
LINE
 8
WHITE
 10
212.98
 20
33.99
 30
0.0000
 11
211.57
 21
35.41
 31
0.0000
 6
CONTINUOUS
 0
LINE
 8
WHITE
 10
214.57
 20
33.99
 30
0.0000
 11
215.98
 21
35.41
 31
0.0000
 6
CONTINUOUS
 0
LINE
 8
WHITE
 10
215.98
 20
33.99
 30
0.0000
 11
214.57
 21
35.41
 31
0.0000
 6
CONTINUOUS
 0
LINE
 8
WHITE
 10
215.98
 20
36.99
 30
0.0000
 11
214.57
 21
38.41
 31
0.0000
 6
CONTINUOUS
 0
LINE
 8
WHITE
 10
214.57
 20
36.99
 30
0.0000
 11
215.98
 21
38.41
 31
0.0000
 6
CONTINUOUS
 0
LINE
 8
WHITE
 10
212.98
 20
36.99
 30
0.0000
 11
211.57
 21
38.41
 31
0.0000
 6
CONTINUOUS
 0
LINE
 8
WHITE
 10
211.57
 20
36.99
 30
0.0000
 11
212.98
 21
38.41
 31
0.0000
 6
CONTINUOUS
 0
LINE
 8
WHITE
 10
209.98
 20
36.99
 30
0.0000
 11
208.57
 21
38.41
 31
0.0000
 6
CONTINUOUS
 0
LINE
 8
WHITE
 10
208.57
 20
36.99
 30
0.0000
 11
209.98
 21
38.41
 31
0.0000
 6
CONTINUOUS
 0
LINE
 8
WHITE
 10
206.98
 20
36.99
 30
0.0000
 11
205.57
 21
38.41
 31
0.0000
 6
CONTINUOUS
 0
LINE
 8
WHITE
 10
205.57
 20
36.99
 30
0.0000
 11
206.98
 21
38.41
 31
0.0000
 6
CONTINUOUS
 0
LINE
 8
WHITE
 10
203.98
 20
36.99
 30
0.0000
 11
202.57
 21
38.41
 31
0.0000
 6
CONTINUOUS
 0
LINE
 8
WHITE
 10
202.57
 20
36.99
 30
0.0000
 11
203.98
 21
38.41
 31
0.0000
 6
CONTINUOUS
 0
LINE
 8
WHITE
 10
200.98
 20
36.99
 30
0.0000
 11
199.57
 21
38.41
 31
0.0000
 6
CONTINUOUS
 0
LINE
 8
WHITE
 10
199.57
 20
36.99
 30
0.0000
 11
200.98
 21
38.41
 31
0.0000
 6
CONTINUOUS
 0
LINE
 8
WHITE
 10
197.98
 20
36.99
 30
0.0000
 11
196.57
 21
38.41
 31
0.0000
 6
CONTINUOUS
 0
LINE
 8
WHITE
 10
196.57
 20
36.99
 30
0.0000
 11
197.98
 21
38.41
 31
0.0000
 6
CONTINUOUS
 0
LINE
 8
WHITE
 10
194.98
 20
36.99
 30
0.0000
 11
193.57
 21
38.41
 31
0.0000
 6
CONTINUOUS
 0
LINE
 8
WHITE
 10
193.57
 20
36.99
 30
0.0000
 11
194.98
 21
38.41
 31
0.0000
 6
CONTINUOUS
 0
LINE
 8
WHITE
 10
191.98
 20
36.99
 30
0.0000
 11
190.57
 21
38.41
 31
0.0000
 6
CONTINUOUS
 0
LINE
 8
WHITE
 10
190.57
 20
36.99
 30
0.0000
 11
191.98
 21
38.41
 31
0.0000
 6
CONTINUOUS
 0
LINE
 8
WHITE
 10
190.57
 20
39.99
 30
0.0000
 11
191.98
 21
41.41
 31
0.0000
 6
CONTINUOUS
 0
LINE
 8
WHITE
 10
191.98
 20
39.99
 30
0.0000
 11
190.57
 21
41.41
 31
0.0000
 6
CONTINUOUS
 0
LINE
 8
WHITE
 10
193.57
 20
39.99
 30
0.0000
 11
194.98
 21
41.41
 31
0.0000
 6
CONTINUOUS
 0
LINE
 8
WHITE
 10
194.98
 20
39.99
 30
0.0000
 11
193.57
 21
41.41
 31
0.0000
 6
CONTINUOUS
 0
LINE
 8
WHITE
 10
196.57
 20
39.99
 30
0.0000
 11
197.98
 21
41.41
 31
0.0000
 6
CONTINUOUS
 0
LINE
 8
WHITE
 10
197.98
 20
39.99
 30
0.0000
 11
196.57
 21
41.41
 31
0.0000
 6
CONTINUOUS
 0
LINE
 8
WHITE
 10
199.57
 20
39.99
 30
0.0000
 11
200.98
 21
41.41
 31
0.0000
 6
CONTINUOUS
 0
LINE
 8
WHITE
 10
200.98
 20
39.99
 30
0.0000
 11
199.57
 21
41.41
 31
0.0000
 6
CONTINUOUS
 0
LINE
 8
WHITE
 10
202.57
 20
39.99
 30
0.0000
 11
203.98
 21
41.41
 31
0.0000
 6
CONTINUOUS
 0
LINE
 8
WHITE
 10
203.98
 20
39.99
 30
0.0000
 11
202.57
 21
41.41
 31
0.0000
 6
CONTINUOUS
 0
LINE
 8
WHITE
 10
205.57
 20
39.99
 30
0.0000
 11
206.98
 21
41.41
 31
0.0000
 6
CONTINUOUS
 0
LINE
 8
WHITE
 10
206.98
 20
39.99
 30
0.0000
 11
205.57
 21
41.41
 31
0.0000
 6
CONTINUOUS
 0
LINE
 8
WHITE
 10
208.57
 20
39.99
 30
0.0000
 11
209.98
 21
41.41
 31
0.0000
 6
CONTINUOUS
 0
LINE
 8
WHITE
 10
209.98
 20
39.99
 30
0.0000
 11
208.57
 21
41.41
 31
0.0000
 6
CONTINUOUS
 0
LINE
 8
WHITE
 10
211.57
 20
39.99
 30
0.0000
 11
212.98
 21
41.41
 31
0.0000
 6
CONTINUOUS
 0
LINE
 8
WHITE
 10
212.98
 20
39.99
 30
0.0000
 11
211.57
 21
41.41
 31
0.0000
 6
CONTINUOUS
 0
LINE
 8
WHITE
 10
214.57
 20
39.99
 30
0.0000
 11
215.98
 21
41.41
 31
0.0000
 6
CONTINUOUS
 0
LINE
 8
WHITE
 10
215.98
 20
39.99
 30
0.0000
 11
214.57
 21
41.41
 31
0.0000
 6
CONTINUOUS
 0
LINE
 8
WHITE
 10
176.46
 20
52.54
 30
0.0000
 11
173.28
 21
52.54
 31
0.0000
 6
CONTINUOUS
 0
LINE
 8
WHITE
 10
187.4
 20
27.2
 30
0.0000
 11
217.21
 21
27.2
 31
0.0000
 6
CONTINUOUS
 0
LINE
 8
WHITE
 10
204.28
 20
28.7
 30
0.0000
 11
204.28
 21
27.7
 31
0.0000
 6
CONTINUOUS
 0
LINE
 8
WHITE
 10
204.28
 20
27.7
 30
0.0000
 11
200.28
 21
27.7
 31
0.0000
 6
CONTINUOUS
 0
LINE
 8
WHITE
 10
200.28
 20
27.7
 30
0.0000
 11
200.28
 21
29.7
 31
0.0000
 6
CONTINUOUS
 0
LINE
 8
WHITE
 10
200.28
 20
29.7
 30
0.0000
 11
204.28
 21
29.7
 31
0.0000
 6
CONTINUOUS
 0
LINE
 8
WHITE
 10
204.28
 20
29.7
 30
0.0000
 11
204.28
 21
28.7
 31
0.0000
 6
CONTINUOUS
 0
LINE
 8
WHITE
 10
233.28
 20
51.08
 30
0.0000
 11
234.4
 21
51.08
 31
0.0000
 6
CONTINUOUS
 0
ARC
 8
WHITE
 10
234.4
 20
52.2
 30
 0
 40
1.12
 50
270
 51
90
 6
CONTINUOUS
 0
LINE
 8
WHITE
 10
234.4
 20
53.32
 30
0.0000
 11
232.15
 21
53.32
 31
0.0000
 6
CONTINUOUS
 0
ARC
 8
WHITE
 10
232.15
 20
52.2
 30
 0
 40
1.12
 50
90
 51
270
 6
CONTINUOUS
 0
LINE
 8
WHITE
 10
232.15
 20
51.08
 30
0.0000
 11
233.28
 21
51.08
 31
0.0000
 6
CONTINUOUS
 0
LINE
 8
WHITE
 10
233.28
 20
51.38
 30
0.0000
 11
234.4
 21
51.38
 31
0.0000
 6
CONTINUOUS
 0
ARC
 8
WHITE
 10
234.4
 20
52.2
 30
 0
 40
.819999
 50
270
 51
90
 6
CONTINUOUS
 0
LINE
 8
WHITE
 10
234.4
 20
53.02
 30
0.0000
 11
232.15
 21
53.02
 31
0.0000
 6
CONTINUOUS
 0
ARC
 8
WHITE
 10
232.15
 20
52.2
 30
 0
 40
.819999
 50
90
 51
270
 6
CONTINUOUS
 0
LINE
 8
WHITE
 10
232.15
 20
51.38
 30
0.0000
 11
233.28
 21
51.38
 31
0.0000
 6
CONTINUOUS
 0
LINE
 8
WHITE
 10
233.28
 20
46.08
 30
0.0000
 11
234.4
 21
46.08
 31
0.0000
 6
CONTINUOUS
 0
ARC
 8
WHITE
 10
234.4
 20
47.205
 30
 0
 40
1.125
 50
270
 51
90
 6
CONTINUOUS
 0
LINE
 8
WHITE
 10
234.4
 20
48.33
 30
0.0000
 11
232.15
 21
48.33
 31
0.0000
 6
CONTINUOUS
 0
ARC
 8
WHITE
 10
232.15
 20
47.205
 30
 0
 40
1.125
 50
90
 51
270
 6
CONTINUOUS
 0
LINE
 8
WHITE
 10
232.15
 20
46.08
 30
0.0000
 11
233.28
 21
46.08
 31
0.0000
 6
CONTINUOUS
 0
LINE
 8
WHITE
 10
233.28
 20
46.38
 30
0.0000
 11
234.4
 21
46.38
 31
0.0000
 6
CONTINUOUS
 0
ARC
 8
WHITE
 10
234.4
 20
47.2
 30
 0
 40
.819999
 50
270
 51
90
 6
CONTINUOUS
 0
LINE
 8
WHITE
 10
234.4
 20
48.02
 30
0.0000
 11
232.15
 21
48.02
 31
0.0000
 6
CONTINUOUS
 0
ARC
 8
WHITE
 10
232.15
 20
47.2
 30
 0
 40
.819999
 50
90
 51
270
 6
CONTINUOUS
 0
LINE
 8
WHITE
 10
232.15
 20
46.38
 30
0.0000
 11
233.28
 21
46.38
 31
0.0000
 6
CONTINUOUS
 0
LINE
 8
WHITE
 10
233.28
 20
41.08
 30
0.0000
 11
234.4
 21
41.08
 31
0.0000
 6
CONTINUOUS
 0
ARC
 8
WHITE
 10
234.4
 20
42.2
 30
 0
 40
1.12
 50
270
 51
90
 6
CONTINUOUS
 0
LINE
 8
WHITE
 10
234.4
 20
43.32
 30
0.0000
 11
232.15
 21
43.32
 31
0.0000
 6
CONTINUOUS
 0
ARC
 8
WHITE
 10
232.15
 20
42.2
 30
 0
 40
1.12
 50
90
 51
270
 6
CONTINUOUS
 0
LINE
 8
WHITE
 10
232.15
 20
41.08
 30
0.0000
 11
233.28
 21
41.08
 31
0.0000
 6
CONTINUOUS
 0
LINE
 8
WHITE
 10
233.28
 20
41.37
 30
0.0000
 11
234.4
 21
41.37
 31
0.0000
 6
CONTINUOUS
 0
ARC
 8
WHITE
 10
234.4
 20
42.195
 30
 0
 40
.824999
 50
270
 51
90
 6
CONTINUOUS
 0
LINE
 8
WHITE
 10
234.4
 20
43.02
 30
0.0000
 11
232.15
 21
43.02
 31
0.0000
 6
CONTINUOUS
 0
ARC
 8
WHITE
 10
232.15
 20
42.195
 30
 0
 40
.824999
 50
90
 51
270
 6
CONTINUOUS
 0
LINE
 8
WHITE
 10
232.15
 20
41.37
 30
0.0000
 11
233.28
 21
41.37
 31
0.0000
 6
CONTINUOUS
 0
LINE
 8
WHITE
 10
233.28
 20
36.08
 30
0.0000
 11
234.4
 21
36.08
 31
0.0000
 6
CONTINUOUS
 0
ARC
 8
WHITE
 10
234.4
 20
37.2
 30
 0
 40
1.12
 50
270
 51
90
 6
CONTINUOUS
 0
LINE
 8
WHITE
 10
234.4
 20
38.32
 30
0.0000
 11
232.15
 21
38.32
 31
0.0000
 6
CONTINUOUS
 0
ARC
 8
WHITE
 10
232.15
 20
37.2
 30
 0
 40
1.12
 50
90
 51
270
 6
CONTINUOUS
 0
LINE
 8
WHITE
 10
232.15
 20
36.08
 30
0.0000
 11
233.28
 21
36.08
 31
0.0000
 6
CONTINUOUS
 0
LINE
 8
WHITE
 10
233.28
 20
36.38
 30
0.0000
 11
234.4
 21
36.38
 31
0.0000
 6
CONTINUOUS
 0
ARC
 8
WHITE
 10
234.4
 20
37.2
 30
 0
 40
.819999
 50
270
 51
90
 6
CONTINUOUS
 0
LINE
 8
WHITE
 10
234.4
 20
38.02
 30
0.0000
 11
232.15
 21
38.02
 31
0.0000
 6
CONTINUOUS
 0
ARC
 8
WHITE
 10
232.15
 20
37.2
 30
 0
 40
.819999
 50
90
 51
270
 6
CONTINUOUS
 0
LINE
 8
WHITE
 10
232.15
 20
36.38
 30
0.0000
 11
233.28
 21
36.38
 31
0.0000
 6
CONTINUOUS
 0
CIRCLE
 8
WHITE
 10
233.28
 20
52.2
 30
 0
 40
.379999
 6
CONTINUOUS
 0
CIRCLE
 8
WHITE
 10
233.28
 20
47.21
 30
 0
 40
.379999
 6
CONTINUOUS
 0
CIRCLE
 8
WHITE
 10
233.28
 20
42.2
 30
 0
 40
.379999
 6
CONTINUOUS
 0
CIRCLE
 8
WHITE
 10
233.28
 20
37.2
 30
 0
 40
.379999
 6
CONTINUOUS
 0
LINE
 8
WHITE
 10
188.58
 20
51.76
 30
0.0000
 11
189.71
 21
51.76
 31
0.0000
 6
CONTINUOUS
 0
ARC
 8
WHITE
 10
189.7
 20
52.89
 30
 0
 40
1.130044
 50
270.507
 51
90.50752
 6
CONTINUOUS
 0
LINE
 8
WHITE
 10
189.69
 20
54.02
 30
0.0000
 11
187.44
 21
54
 31
0.0000
 6
CONTINUOUS
 0
ARC
 8
WHITE
 10
187.45
 20
52.875
 30
 0
 40
1.125044
 50
90.50928
 51
270.5098
 6
CONTINUOUS
 0
LINE
 8
WHITE
 10
187.46
 20
51.75
 30
0.0000
 11
188.58
 21
51.75
 31
0.0000
 6
CONTINUOUS
 0
LINE
 8
WHITE
 10
188.58
 20
52.06
 30
0.0000
 11
189.7
 21
52.06
 31
0.0000
 6
CONTINUOUS
 0
ARC
 8
WHITE
 10
189.695
 20
52.89
 30
 0
 40
.830015
 50
270.3452
 51
90.34444
 6
CONTINUOUS
 0
LINE
 8
WHITE
 10
189.69
 20
53.72
 30
0.0000
 11
187.44
 21
53.7
 31
0.0000
 6
CONTINUOUS
 0
ARC
 8
WHITE
 10
187.445
 20
52.875
 30
 0
 40
.825015
 50
90.34724
 51
270.3465
 6
CONTINUOUS
 0
LINE
 8
WHITE
 10
187.45
 20
52.05
 30
0.0000
 11
188.58
 21
52.05
 31
0.0000
 6
CONTINUOUS
 0
LINE
 8
WHITE
 10
199.41
 20
51.86
 30
0.0000
 11
200.54
 21
51.86
 31
0.0000
 6
CONTINUOUS
 0
ARC
 8
WHITE
 10
200.53
 20
52.99
 30
 0
 40
1.130044
 50
270.507
 51
90.50674
 6
CONTINUOUS
 0
LINE
 8
WHITE
 10
200.52
 20
54.12
 30
0.0000
 11
198.27
 21
54.1
 31
0.0000
 6
CONTINUOUS
 0
ARC
 8
WHITE
 10
198.28
 20
52.975
 30
 0
 40
1.125044
 50
90.50928
 51
270.509
 6
CONTINUOUS
 0
LINE
 8
WHITE
 10
198.29
 20
51.85
 30
0.0000
 11
199.41
 21
51.85
 31
0.0000
 6
CONTINUOUS
 0
LINE
 8
WHITE
 10
199.41
 20
52.16
 30
0.0000
 11
200.54
 21
52.16
 31
0.0000
 6
CONTINUOUS
 0
ARC
 8
WHITE
 10
200.53
 20
52.99
 30
 0
 40
.83006
 50
270.6903
 51
90.6899
 6
CONTINUOUS
 0
LINE
 8
WHITE
 10
200.52
 20
53.82
 30
0.0000
 11
198.27
 21
53.8
 31
0.0000
 6
CONTINUOUS
 0
ARC
 8
WHITE
 10
198.28
 20
52.975
 30
 0
 40
.82506
 50
90.69446
 51
270.6941
 6
CONTINUOUS
 0
LINE
 8
WHITE
 10
198.29
 20
52.15
 30
0.0000
 11
199.41
 21
52.15
 31
0.0000
 6
CONTINUOUS
 0
LINE
 8
WHITE
 10
209.55
 20
51.95
 30
0.0000
 11
210.67
 21
51.95
 31
0.0000
 6
CONTINUOUS
 0
ARC
 8
WHITE
 10
210.66
 20
53.08
 30
 0
 40
1.130044
 50
270.507
 51
90.50752
 6
CONTINUOUS
 0
LINE
 8
WHITE
 10
210.65
 20
54.21
 30
0.0000
 11
208.4
 21
54.19
 31
0.0000
 6
CONTINUOUS
 0
ARC
 8
WHITE
 10
208.41
 20
53.065
 30
 0
 40
1.125044
 50
90.50928
 51
270.5098
 6
CONTINUOUS
 0
LINE
 8
WHITE
 10
208.42
 20
51.94
 30
0.0000
 11
209.55
 21
51.94
 31
0.0000
 6
CONTINUOUS
 0
LINE
 8
WHITE
 10
209.54
 20
52.25
 30
0.0000
 11
210.67
 21
52.25
 31
0.0000
 6
CONTINUOUS
 0
ARC
 8
WHITE
 10
210.66
 20
53.08
 30
 0
 40
.83006
 50
270.6903
 51
90.69095
 6
CONTINUOUS
 0
LINE
 8
WHITE
 10
210.65
 20
53.91
 30
0.0000
 11
208.4
 21
53.89
 31
0.0000
 6
CONTINUOUS
 0
ARC
 8
WHITE
 10
208.41
 20
53.065
 30
 0
 40
.82506
 50
90.69446
 51
270.6951
 6
CONTINUOUS
 0
LINE
 8
WHITE
 10
208.42
 20
52.24
 30
0.0000
 11
209.54
 21
52.24
 31
0.0000
 6
CONTINUOUS
 0
LINE
 8
WHITE
 10
219.17
 20
52.03
 30
0.0000
 11
218.05
 21
52.03
 31
0.0000
 6
CONTINUOUS
 0
ARC
 8
WHITE
 10
218.05
 20
53.15
 30
 0
 40
1.12
 50
91.02325
 51
270
 6
CONTINUOUS
 0
LINE
 8
WHITE
 10
218.03
 20
54.27
 30
0.0000
 11
220.28
 21
54.29
 31
0.0000
 6
CONTINUOUS
 0
ARC
 8
WHITE
 10
220.29
 20
53.165
 30
 0
 40
1.125044
 50
270.5098
 51
90.50928
 6
CONTINUOUS
 0
LINE
 8
WHITE
 10
220.3
 20
52.04
 30
0.0000
 11
219.17
 21
52.04
 31
0.0000
 6
CONTINUOUS
 0
LINE
 8
WHITE
 10
219.17
 20
52.33
 30
0.0000
 11
218.04
 21
52.33
 31
0.0000
 6
CONTINUOUS
 0
ARC
 8
WHITE
 10
218.04
 20
53.15
 30
 0
 40
.819999
 50
90.69831
 51
270
 6
CONTINUOUS
 0
LINE
 8
WHITE
 10
218.03
 20
53.97
 30
0.0000
 11
220.28
 21
53.99
 31
0.0000
 6
CONTINUOUS
 0
ARC
 8
WHITE
 10
220.285
 20
53.165
 30
 0
 40
.825015
 50
270.3465
 51
90.34724
 6
CONTINUOUS
 0
LINE
 8
WHITE
 10
220.29
 20
52.34
 30
0.0000
 11
219.17
 21
52.34
 31
0.0000
 6
CONTINUOUS
 0
CIRCLE
 8
WHITE
 10
188.57
 20
52.89
 30
 0
 40
.379999
 6
CONTINUOUS
 0
CIRCLE
 8
WHITE
 10
199.4
 20
52.99
 30
 0
 40
.379999
 6
CONTINUOUS
 0
CIRCLE
 8
WHITE
 10
209.54
 20
53.08
 30
 0
 40
.379999
 6
CONTINUOUS
 0
CIRCLE
 8
WHITE
 10
219.16
 20
53.16
 30
 0
 40
.379999
 6
CONTINUOUS
 0
LINE
 8
WHITE
 10
164.21
 20
21.54
 30
0.0000
 11
165.37
 21
29.84
 31
0.0000
 6
CONTINUOUS
 0
ARC
 8
WHITE
 10
125.751
 20
35.375
 30
 0
 40
40.00377
 50
352.0469
 51
7.95307
 6
CONTINUOUS
 0
LINE
 8
WHITE
 10
165.37
 20
40.91
 30
0.0000
 11
164.14
 21
49.7
 31
0.0000
 6
CONTINUOUS
 0
LINE
 8
WHITE
 10
162.21
 20
21.54
 30
0.0000
 11
163.37
 21
29.84
 31
0.0000
 6
CONTINUOUS
 0
ARC
 8
WHITE
 10
123.751
 20
35.375
 30
 0
 40
40.00377
 50
352.0469
 51
7.95307
 6
CONTINUOUS
 0
LINE
 8
WHITE
 10
163.37
 20
40.91
 30
0.0000
 11
162.14
 21
49.7
 31
0.0000
 6
CONTINUOUS
 0
LINE
 8
WHITE
 10
135.45
 20
21.54
 30
0.0000
 11
134.29
 21
29.84
 31
0.0000
 6
CONTINUOUS
 0
ARC
 8
WHITE
 10
173.909
 20
35.375
 30
 0
 40
40.00377
 50
172.0469
 51
187.9531
 6
CONTINUOUS
 0
LINE
 8
WHITE
 10
134.29
 20
40.91
 30
0.0000
 11
135.52
 21
49.7
 31
0.0000
 6
CONTINUOUS
 0
LINE
 8
WHITE
 10
133.45
 20
21.54
 30
0.0000
 11
132.29
 21
29.84
 31
0.0000
 6
CONTINUOUS
 0
ARC
 8
WHITE
 10
171.909
 20
35.375
 30
 0
 40
40.00377
 50
172.0469
 51
187.9531
 6
CONTINUOUS
 0
LINE
 8
WHITE
 10
132.29
 20
40.91
 30
0.0000
 11
133.52
 21
49.7
 31
0.0000
 6
CONTINUOUS
 0
ARC
 8
WHITE
 10
163.571
 20
35.405
 30
 0
 40
39.99575
 50
164.4456
 51
176.7392
 6
CONTINUOUS
 0
LINE
 8
WHITE
 10
125.04
 20
46.13
 30
0.0000
 11
125.84
 21
48.97
 31
0.0000
 6
CONTINUOUS
 0
ARC
 8
WHITE
 10
126.801
 20
48.703
 30
 0
 40
.997401
 50
90.057
 51
164.4728
 6
CONTINUOUS
 0
LINE
 8
WHITE
 10
126.8
 20
49.7
 30
0.0000
 11
170.1
 21
49.7
 31
0.0000
 6
CONTINUOUS
 0
ARC
 8
WHITE
 10
170.107
 20
48.7
 30
 0
 40
1.000024
 50
15.66217
 51
90.40106
 6
CONTINUOUS
 0
LINE
 8
WHITE
 10
171.07
 20
48.97
 30
0.0000
 11
171.86
 21
46.13
 31
0.0000
 6
CONTINUOUS
 0
ARC
 8
WHITE
 10
133.333
 20
35.359
 30
 0
 40
40.0043
 50
3.326089
 51
15.61941
 6
CONTINUOUS
 0
LINE
 8
WHITE
 10
121.29
 20
50.7
 30
0.0000
 11
177.68
 21
50.7
 31
0.0000
 6
CONTINUOUS
 0
LINE
 8
WHITE
 10
126.02
 20
54.7
 30
0.0000
 11
173.28
 21
54.7
 31
0.0000
 6
CONTINUOUS
 0
LINE
 8
WHITE
 10
173.28
 20
54.7
 30
0.0000
 11
173.28
 21
51.7
 31
0.0000
 6
CONTINUOUS
 0
LINE
 8
WHITE
 10
173.28
 20
51.7
 30
0.0000
 11
125.68
 21
51.7
 31
0.0000
 6
CONTINUOUS
 0
LINE
 8
WHITE
 10
125.68
 20
51.7
 30
0.0000
 11
125.68
 21
52.2
 31
0.0000
 6
CONTINUOUS
 0
LINE
 8
WHITE
 10
133.84
 20
52.08
 30
0.0000
 11
134.97
 21
52.08
 31
0.0000
 6
CONTINUOUS
 0
ARC
 8
WHITE
 10
134.97
 20
53.2
 30
 0
 40
1.12
 50
270
 51
90
 6
CONTINUOUS
 0
LINE
 8
WHITE
 10
134.97
 20
54.32
 30
0.0000
 11
132.72
 21
54.32
 31
0.0000
 6
CONTINUOUS
 0
ARC
 8
WHITE
 10
132.72
 20
53.2
 30
 0
 40
1.12
 50
90
 51
270
 6
CONTINUOUS
 0
LINE
 8
WHITE
 10
132.72
 20
52.08
 30
0.0000
 11
133.84
 21
52.08
 31
0.0000
 6
CONTINUOUS
 0
LINE
 8
WHITE
 10
133.84
 20
52.38
 30
0.0000
 11
134.97
 21
52.38
 31
0.0000
 6
CONTINUOUS
 0
ARC
 8
WHITE
 10
134.97
 20
53.2
 30
 0
 40
.819999
 50
270
 51
90
 6
CONTINUOUS
 0
LINE
 8
WHITE
 10
134.97
 20
54.02
 30
0.0000
 11
132.72
 21
54.02
 31
0.0000
 6
CONTINUOUS
 0
ARC
 8
WHITE
 10
132.72
 20
53.2
 30
 0
 40
.819999
 50
90
 51
270
 6
CONTINUOUS
 0
LINE
 8
WHITE
 10
132.72
 20
52.38
 30
0.0000
 11
133.84
 21
52.38
 31
0.0000
 6
CONTINUOUS
 0
LINE
 8
WHITE
 10
145.18
 20
52.08
 30
0.0000
 11
144.05
 21
52.08
 31
0.0000
 6
CONTINUOUS
 0
ARC
 8
WHITE
 10
144.05
 20
53.2
 30
 0
 40
1.12
 50
90
 51
270
 6
CONTINUOUS
 0
LINE
 8
WHITE
 10
144.05
 20
54.32
 30
0.0000
 11
146.3
 21
54.32
 31
0.0000
 6
CONTINUOUS
 0
ARC
 8
WHITE
 10
146.3
 20
53.2
 30
 0
 40
1.12
 50
270
 51
90
 6
CONTINUOUS
 0
LINE
 8
WHITE
 10
146.3
 20
52.08
 30
0.0000
 11
145.18
 21
52.08
 31
0.0000
 6
CONTINUOUS
 0
LINE
 8
WHITE
 10
145.18
 20
52.38
 30
0.0000
 11
144.05
 21
52.38
 31
0.0000
 6
CONTINUOUS
 0
ARC
 8
WHITE
 10
144.05
 20
53.2
 30
 0
 40
.819999
 50
90
 51
270
 6
CONTINUOUS
 0
LINE
 8
WHITE
 10
144.05
 20
54.02
 30
0.0000
 11
146.3
 21
54.02
 31
0.0000
 6
CONTINUOUS
 0
ARC
 8
WHITE
 10
146.3
 20
53.2
 30
 0
 40
.819999
 50
270
 51
90
 6
CONTINUOUS
 0
LINE
 8
WHITE
 10
146.3
 20
52.38
 30
0.0000
 11
145.18
 21
52.38
 31
0.0000
 6
CONTINUOUS
 0
LINE
 8
WHITE
 10
158.07
 20
52.08
 30
0.0000
 11
159.2
 21
52.08
 31
0.0000
 6
CONTINUOUS
 0
ARC
 8
WHITE
 10
159.2
 20
53.2
 30
 0
 40
1.12
 50
270
 51
90
 6
CONTINUOUS
 0
LINE
 8
WHITE
 10
159.2
 20
54.32
 30
0.0000
 11
156.95
 21
54.32
 31
0.0000
 6
CONTINUOUS
 0
ARC
 8
WHITE
 10
156.95
 20
53.2
 30
 0
 40
1.12
 50
90
 51
270
 6
CONTINUOUS
 0
LINE
 8
WHITE
 10
156.95
 20
52.08
 30
0.0000
 11
158.07
 21
52.08
 31
0.0000
 6
CONTINUOUS
 0
LINE
 8
WHITE
 10
158.07
 20
52.38
 30
0.0000
 11
159.2
 21
52.38
 31
0.0000
 6
CONTINUOUS
 0
ARC
 8
WHITE
 10
159.2
 20
53.2
 30
 0
 40
.819999
 50
270
 51
90
 6
CONTINUOUS
 0
LINE
 8
WHITE
 10
159.2
 20
54.02
 30
0.0000
 11
156.95
 21
54.02
 31
0.0000
 6
CONTINUOUS
 0
ARC
 8
WHITE
 10
156.95
 20
53.2
 30
 0
 40
.819999
 50
90
 51
270
 6
CONTINUOUS
 0
LINE
 8
WHITE
 10
156.95
 20
52.38
 30
0.0000
 11
158.07
 21
52.38
 31
0.0000
 6
CONTINUOUS
 0
LINE
 8
WHITE
 10
168.13
 20
52.08
 30
0.0000
 11
169.26
 21
52.08
 31
0.0000
 6
CONTINUOUS
 0
ARC
 8
WHITE
 10
169.26
 20
53.2
 30
 0
 40
1.12
 50
270
 51
90
 6
CONTINUOUS
 0
LINE
 8
WHITE
 10
169.26
 20
54.32
 30
0.0000
 11
167.01
 21
54.32
 31
0.0000
 6
CONTINUOUS
 0
ARC
 8
WHITE
 10
167.01
 20
53.2
 30
 0
 40
1.12
 50
90
 51
270
 6
CONTINUOUS
 0
LINE
 8
WHITE
 10
167.01
 20
52.08
 30
0.0000
 11
168.13
 21
52.08
 31
0.0000
 6
CONTINUOUS
 0
LINE
 8
WHITE
 10
168.13
 20
52.38
 30
0.0000
 11
169.26
 21
52.38
 31
0.0000
 6
CONTINUOUS
 0
ARC
 8
WHITE
 10
169.26
 20
53.2
 30
 0
 40
.819999
 50
270
 51
90
 6
CONTINUOUS
 0
LINE
 8
WHITE
 10
169.26
 20
54.02
 30
0.0000
 11
167.01
 21
54.02
 31
0.0000
 6
CONTINUOUS
 0
ARC
 8
WHITE
 10
167.01
 20
53.2
 30
 0
 40
.819999
 50
90
 51
270
 6
CONTINUOUS
 0
LINE
 8
WHITE
 10
167.01
 20
52.38
 30
0.0000
 11
168.13
 21
52.38
 31
0.0000
 6
CONTINUOUS
 0
CIRCLE
 8
WHITE
 10
133.84
 20
53.2
 30
 0
 40
.379999
 6
CONTINUOUS
 0
CIRCLE
 8
WHITE
 10
145.18
 20
53.2
 30
 0
 40
.379999
 6
CONTINUOUS
 0
CIRCLE
 8
WHITE
 10
158.07
 20
53.2
 30
 0
 40
.379999
 6
CONTINUOUS
 0
CIRCLE
 8
WHITE
 10
168.13
 20
53.2
 30
 0
 40
.379999
 6
CONTINUOUS
 0
LINE
 8
WHITE
 10
213.95
 20
69.01
 30
0.0000
 11
213.95
 21
65.2
 31
0.0000
 6
CONTINUOUS
 0
ARC
 8
WHITE
 10
216.615
 20
65.03699
 30
 0
 40
2.66998
 50
176.5
 51
3.500066
 6
CONTINUOUS
 0
LINE
 8
WHITE
 10
219.28
 20
65.2
 30
0.0000
 11
219.28
 21
72.81
 31
0.0000
 6
CONTINUOUS
 0
ARC
 8
WHITE
 10
216.615
 20
72.647
 30
 0
 40
2.66998
 50
3.500034
 51
176.4999
 6
CONTINUOUS
 0
LINE
 8
WHITE
 10
213.95
 20
72.81
 30
0.0000
 11
213.95
 21
69.01
 31
0.0000
 6
CONTINUOUS
 0
LINE
 8
WHITE
 10
214.45
 20
69.01
 30
0.0000
 11
214.45
 21
65.2
 31
0.0000
 6
CONTINUOUS
 0
ARC
 8
WHITE
 10
216.615
 20
65.05299
 30
 0
 40
2.169984
 50
176.1157
 51
3.884397
 6
CONTINUOUS
 0
LINE
 8
WHITE
 10
218.78
 20
65.2
 30
0.0000
 11
218.78
 21
72.81
 31
0.0000
 6
CONTINUOUS
 0
ARC
 8
WHITE
 10
216.615
 20
72.66299
 30
 0
 40
2.169984
 50
3.884329
 51
176.1156
 6
CONTINUOUS
 0
LINE
 8
WHITE
 10
214.45
 20
72.81
 30
0.0000
 11
214.45
 21
69.01
 31
0.0000
 6
CONTINUOUS
 0
LINE
 8
WHITE
 10
198.8
 20
63.32
 30
0.0000
 11
198.8
 21
61.63
 31
0.0000
 6
CONTINUOUS
 0
ARC
 8
WHITE
 10
197.8
 20
61.63
 30
 0
 40
1
 50
270
 51
0
 6
CONTINUOUS
 0
LINE
 8
WHITE
 10
197.8
 20
60.63
 30
0.0000
 11
195.68
 21
60.63
 31
0.0000
 6
CONTINUOUS
 0
ARC
 8
WHITE
 10
195.68
 20
61.63
 30
 0
 40
1
 50
180
 51
270
 6
CONTINUOUS
 0
LINE
 8
WHITE
 10
194.68
 20
61.63
 30
0.0000
 11
194.68
 21
65.02
 31
0.0000
 6
CONTINUOUS
 0
ARC
 8
WHITE
 10
195.68
 20
65.02
 30
 0
 40
1
 50
90
 51
180
 6
CONTINUOUS
 0
LINE
 8
WHITE
 10
195.68
 20
66.02
 30
0.0000
 11
197.8
 21
66.02
 31
0.0000
 6
CONTINUOUS
 0
ARC
 8
WHITE
 10
197.8
 20
65.02
 30
 0
 40
1
 50
0
 51
90
 6
CONTINUOUS
 0
LINE
 8
WHITE
 10
198.8
 20
65.02
 30
0.0000
 11
198.8
 21
63.32
 31
0.0000
 6
CONTINUOUS
 0
ARC
 8
WHITE
 10
195.653
 20
63.507
 30
 0
 40
4.603296
 50
179.9627
 51
225.2112
 6
CONTINUOUS
 0
LINE
 8
WHITE
 10
191.05
 20
63.51
 30
0.0000
 11
191.05
 21
108.7
 31
0.0000
 6
CONTINUOUS
 0
ARC
 8
WHITE
 10
195.65
 20
108.7
 30
 0
 40
4.599999
 50
89.50188
 51
180
 6
CONTINUOUS
 0
LINE
 8
WHITE
 10
195.69
 20
113.3
 30
0.0000
 11
214.4
 21
113.14
 31
0.0000
 6
CONTINUOUS
 0
ARC
 8
WHITE
 10
214.357
 20
108.54
 30
 0
 40
4.6002
 50
9.005669
 51
89.46442
 6
CONTINUOUS
 0
LINE
 8
WHITE
 10
218.9
 20
109.26
 30
0.0000
 11
221.87
 21
90.7
 31
0.0000
 6
CONTINUOUS
 0
LINE
 8
WHITE
 10
221.87
 20
90.7
 30
0.0000
 11
221.87
 21
63.7
 31
0.0000
 6
CONTINUOUS
 0
ARC
 8
WHITE
 10
217.27
 20
63.7
 30
 0
 40
4.599999
 50
270.623
 51
0
 6
CONTINUOUS
 0
LINE
 8
WHITE
 10
217.32
 20
59.1
 30
0.0000
 11
195.69
 21
58.91
 31
0.0000
 6
CONTINUOUS
 0
ARC
 8
WHITE
 10
195.646
 20
63.51
 30
 0
 40
4.60021
 50
225.2994
 51
270.548
 6
CONTINUOUS
 0
LINE
 8
WHITE
 10
194.84
 20
65.57
 30
0.0000
 11
197.35
 21
65.57
 31
0.0000
 6
CONTINUOUS
 0
ARC
 8
WHITE
 10
197.35
 20
65.47
 30
 0
 40
.1
 50
0
 51
90
 6
CONTINUOUS
 0
LINE
 8
WHITE
 10
197.45
 20
65.47
 30
0.0000
 11
197.45
 21
61.18
 31
0.0000
 6
CONTINUOUS
 0
ARC
 8
WHITE
 10
197.35
 20
61.18
 30
 0
 40
.1
 50
270.0087
 51
0
 6
CONTINUOUS
 0
LINE
 8
WHITE
 10
197.35
 20
61.08
 30
0.0000
 11
194.84
 21
61.08
 31
0.0000
 6
CONTINUOUS
 0
LINE
 8
WHITE
 10
206.48
 20
58.61
 30
0.0000
 11
217.28
 21
58.7
 31
0.0000
 6
CONTINUOUS
 0
ARC
 8
WHITE
 10
217.28
 20
63.7
 30
 0
 40
5
 50
270
 51
0
 6
CONTINUOUS
 0
LINE
 8
WHITE
 10
222.28
 20
63.7
 30
0.0000
 11
222.28
 21
90.7
 31
0.0000
 6
CONTINUOUS
 0
LINE
 8
WHITE
 10
222.28
 20
90.7
 30
0.0000
 11
219.3
 21
109.33
 31
0.0000
 6
CONTINUOUS
 0
ARC
 8
WHITE
 10
214.36
 20
108.537
 30
 0
 40
5.003243
 50
9.119677
 51
89.54199
 6
CONTINUOUS
 0
LINE
 8
WHITE
 10
214.4
 20
113.54
 30
0.0000
 11
195.69
 21
113.7
 31
0.0000
 6
CONTINUOUS
 0
ARC
 8
WHITE
 10
195.65
 20
108.7
 30
 0
 40
5.00016
 50
89.54164
 51
180
 6
CONTINUOUS
 0
LINE
 8
WHITE
 10
190.65
 20
108.7
 30
0.0000
 11
190.65
 21
63.51
 31
0.0000
 6
CONTINUOUS
 0
ARC
 8
WHITE
 10
195.65
 20
63.51
 30
 0
 40
5
 50
180
 51
270.4584
 6
CONTINUOUS
 0
LINE
 8
WHITE
 10
195.69
 20
58.51
 30
0.0000
 11
206.48
 21
58.61
 31
0.0000
 6
CONTINUOUS
 0
LINE
 8
WHITE
 10
191.05
 20
90.7
 30
0.0000
 11
207.25
 21
90.7
 31
0.0000
 6
CONTINUOUS
 0
LINE
 8
WHITE
 10
208.98
 20
91.65
 30
0.0000
 11
208.1
 21
91.46
 31
0.0000
 6
CONTINUOUS
 0
ARC
 8
WHITE
 10
208.14
 20
91.26
 30
 0
 40
.20396
 50
101.3099
 51
191.3103
 6
CONTINUOUS
 0
LINE
 8
WHITE
 10
207.94
 20
91.22
 30
0.0000
 11
207.96
 21
91.15
 31
0.0000
 6
CONTINUOUS
 0
ARC
 8
WHITE
 10
208.158
 20
91.2
 30
 0
 40
.204215
 50
194.1723
 51
281.8574
 6
CONTINUOUS
 0
LINE
 8
WHITE
 10
208.2
 20
91
 30
0.0000
 11
211.25
 21
91.65
 31
0.0000
 6
CONTINUOUS
 0
LINE
 8
WHITE
 10
214.07
 20
91.68
 30
0.0000
 11
214.64
 21
91.11
 31
0.0000
 6
CONTINUOUS
 0
ARC
 8
WHITE
 10
214.78
 20
91.25
 30
 0
 40
.197989
 50
225
 51
315
 6
CONTINUOUS
 0
LINE
 8
WHITE
 10
214.92
 20
91.11
 30
0.0000
 11
215.04
 21
91.22
 31
0.0000
 6
CONTINUOUS
 0
ARC
 8
WHITE
 10
214.905
 20
91.365
 30
 0
 40
.198116
 50
312.9546
 51
47.04741
 6
CONTINUOUS
 0
LINE
 8
WHITE
 10
215.04
 20
91.51
 30
0.0000
 11
214.87
 21
91.68
 31
0.0000
 6
CONTINUOUS
 0
ARC
 8
WHITE
 10
213.301
 20
92.486
 30
 0
 40
.402612
 50
193.7946
 51
259.8333
 6
CONTINUOUS
 0
ARC
 8
WHITE
 10
213.66
 20
92.489
 30
 0
 40
.40212
 50
277.1427
 51
354.431
 6
CONTINUOUS
 0
LINE
 8
WHITE
 10
212.9
 20
92.72
 30
0.0000
 11
212.9
 21
111.42
 31
0.0000
 6
CONTINUOUS
 0
LINE
 8
WHITE
 10
214.06
 20
92.68
 30
0.0000
 11
214.06
 21
111.42
 31
0.0000
 6
CONTINUOUS
 0
ARC
 8
WHITE
 10
207.255
 20
91.505
 30
 0
 40
.20506
 50
135
 51
181.3985
 6
CONTINUOUS
 0
LINE
 8
WHITE
 10
207.05
 20
91.5
 30
0.0000
 11
207.05
 21
90.9
 31
0.0000
 6
CONTINUOUS
 0
ARC
 8
WHITE
 10
207.25
 20
90.9
 30
 0
 40
.2
 50
180
 51
270
 6
CONTINUOUS
 0
LINE
 8
WHITE
 10
207.25
 20
90.7
 30
0.0000
 11
215.64
 21
90.7
 31
0.0000
 6
CONTINUOUS
 0
ARC
 8
WHITE
 10
215.64
 20
90.89999
 30
 0
 40
.2
 50
270
 51
.002185
 6
CONTINUOUS
 0
LINE
 8
WHITE
 10
215.84
 20
90.9
 30
0.0000
 11
215.84
 21
91.5
 31
0.0000
 6
CONTINUOUS
 0
ARC
 8
WHITE
 10
215.64
 20
91.497
 30
 0
 40
.200022
 50
.859372
 51
59.96858
 6
CONTINUOUS
 0
LINE
 8
WHITE
 10
218.76
 20
90.7
 30
0.0000
 11
221.88
 21
90.7
 31
0.0000
 6
CONTINUOUS
 0
LINE
 8
WHITE
 10
221.88
 20
90.7
 30
0.0000
 11
215.64
 21
90.7
 31
0.0000
 6
CONTINUOUS
 0
LINE
 8
WHITE
 10
215.64
 20
90.7
 30
0.0000
 11
218.76
 21
90.7
 31
0.0000
 6
CONTINUOUS
 0
CIRCLE
 8
WHITE
 10
194.28
 20
90.2
 30
 0
 40
.25
 6
CONTINUOUS
 0
CIRCLE
 8
WHITE
 10
198.28
 20
90.2
 30
 0
 40
.25
 6
CONTINUOUS
 0
CIRCLE
 8
WHITE
 10
202.28
 20
90.2
 30
 0
 40
.25
 6
CONTINUOUS
 0
CIRCLE
 8
WHITE
 10
206.28
 20
90.2
 30
 0
 40
.25
 6
CONTINUOUS
 0
CIRCLE
 8
WHITE
 10
210.28
 20
90.2
 30
 0
 40
.25
 6
CONTINUOUS
 0
CIRCLE
 8
WHITE
 10
214.28
 20
90.2
 30
 0
 40
.25
 6
CONTINUOUS
 0
CIRCLE
 8
WHITE
 10
218.28
 20
90.2
 30
 0
 40
.25
 6
CONTINUOUS
 0
ARC
 8
WHITE
 10
209.28
 20
110.5
 30
 0
 40
.799061
 50
90
 51
171.3629
 6
CONTINUOUS
 0
LINE
 8
WHITE
 10
209.28
 20
111.3
 30
0.0000
 11
212.9
 21
111.27
 31
0.0000
 6
CONTINUOUS
 0
LINE
 8
WHITE
 10
215.12
 20
110.16
 30
0.0000
 11
215.12
 21
110.85
 31
0.0000
 6
CONTINUOUS
 0
ARC
 8
WHITE
 10
214.72
 20
110.85
 30
 0
 40
.4
 50
0
 51
90
 6
CONTINUOUS
 0
LINE
 8
WHITE
 10
214.72
 20
111.25
 30
0.0000
 11
214.06
 21
111.25
 31
0.0000
 6
CONTINUOUS
 0
LINE
 8
WHITE
 10
210.7
 20
111.7
 30
0.0000
 11
207.25
 21
111.73
 31
0.0000
 6
CONTINUOUS
 0
ARC
 8
WHITE
 10
207.25
 20
111.93
 30
 0
 40
.2
 50
180
 51
270
 6
CONTINUOUS
 0
LINE
 8
WHITE
 10
207.05
 20
111.93
 30
0.0000
 11
207.05
 21
112.53
 31
0.0000
 6
CONTINUOUS
 0
ARC
 8
WHITE
 10
207.25
 20
112.53
 30
 0
 40
.2
 50
90
 51
180
 6
CONTINUOUS
 0
LINE
 8
WHITE
 10
207.25
 20
112.73
 30
0.0000
 11
215.64
 21
112.65
 31
0.0000
 6
CONTINUOUS
 0
ARC
 8
WHITE
 10
215.64
 20
112.45
 30
 0
 40
.2
 50
359.9978
 51
90
 6
CONTINUOUS
 0
LINE
 8
WHITE
 10
215.84
 20
112.45
 30
0.0000
 11
215.84
 21
111.85
 31
0.0000
 6
CONTINUOUS
 0
ARC
 8
WHITE
 10
215.64
 20
111.85
 30
 0
 40
.2
 50
270
 51
0
 6
CONTINUOUS
 0
LINE
 8
WHITE
 10
215.64
 20
111.65
 30
0.0000
 11
214.35
 21
111.65
 31
0.0000
 6
CONTINUOUS
 0
LINE
 8
WHITE
 10
213.3
 20
111.82
 30
0.0000
 11
213.66
 21
111.82
 31
0.0000
 6
CONTINUOUS
 0
ARC
 8
WHITE
 10
213.676
 20
111.424
 30
 0
 40
.39607
 50
46.22758
 51
92.31243
 6
CONTINUOUS
 0
LINE
 8
WHITE
 10
213.66
 20
111.82
 30
0.0000
 11
214.21
 21
112.28
 31
0.0000
 6
CONTINUOUS
 0
ARC
 8
WHITE
 10
214.335
 20
112.126
 30
 0
 40
.198345
 50
38.66015
 51
129.0658
 6
CONTINUOUS
 0
LINE
 8
WHITE
 10
214.49
 20
112.25
 30
0.0000
 11
214.59
 21
112.12
 31
0.0000
 6
CONTINUOUS
 0
ARC
 8
WHITE
 10
214.433
 20
111.996
 30
 0
 40
.200062
 50
313.1796
 51
38.30199
 6
CONTINUOUS
 0
LINE
 8
WHITE
 10
214.57
 20
111.85
 30
0.0000
 11
214.06
 21
111.42
 31
0.0000
 6
CONTINUOUS
 0
ARC
 8
WHITE
 10
213.66
 20
111.434
 30
 0
 40
.400244
 50
357.9955
 51
43.58384
 6
CONTINUOUS
 0
LINE
 8
WHITE
 10
211.16
 20
112.09
 30
0.0000
 11
209.01
 21
112.36
 31
0.0000
 6
CONTINUOUS
 0
ARC
 8
WHITE
 10
208.99
 20
112.16
 30
 0
 40
.200997
 50
84.28941
 51
174.2903
 6
CONTINUOUS
 0
LINE
 8
WHITE
 10
208.79
 20
112.18
 30
0.0000
 11
208.79
 21
112.14
 31
0.0000
 6
CONTINUOUS
 0
ARC
 8
WHITE
 10
208.989
 20
112.109
 30
 0
 40
.2014
 50
171.1457
 51
261.711
 6
CONTINUOUS
 0
LINE
 8
WHITE
 10
208.96
 20
111.91
 30
0.0000
 11
212.9
 21
111.42
 31
0.0000
 6
CONTINUOUS
 0
ARC
 8
WHITE
 10
213.3
 20
111.42
 30
 0
 40
.4
 50
89.99782
 51
180
 6
CONTINUOUS
 0
LINE
 8
WHITE
 10
213.3
 20
111.82
 30
0.0000
 11
211.16
 21
112.09
 31
0.0000
 6
CONTINUOUS
 0
LINE
 8
WHITE
 10
224.21
 20
91.28
 30
0.0000
 11
224.86
 21
87.2
 31
0.0000
 6
CONTINUOUS
 0
LINE
 8
WHITE
 10
226.8
 20
111.4
 30
0.0000
 11
226.33
 21
114.15
 31
0.0000
 6
CONTINUOUS
 0
LINE
 8
WHITE
 10
226.33
 20
114.15
 30
0.0000
 11
220.43
 21
114.9
 31
0.0000
 6
CONTINUOUS
 0
LINE
 8
WHITE
 10
226.33
 20
114.15
 30
0.0000
 11
225.38
 21
114.85
 31
0.0000
 6
CONTINUOUS
 0
LINE
 8
WHITE
 10
226.61
 20
112.5
 30
0.0000
 11
229.08
 21
113.57
 31
0.0000
 6
CONTINUOUS
 0
LINE
 8
WHITE
 10
226.72
 20
111.89
 30
0.0000
 11
229.71
 21
113.19
 31
0.0000
 6
CONTINUOUS
 0
LINE
 8
WHITE
 10
230.19
 20
112.9
 30
0.0000
 11
226.96
 21
114.86
 31
0.0000
 6
CONTINUOUS
 0
LINE
 8
WHITE
 10
226.96
 20
114.86
 30
0.0000
 11
226.28
 21
114.84
 31
0.0000
 6
CONTINUOUS
 0
LINE
 8
WHITE
 10
226.28
 20
114.84
 30
0.0000
 11
216.22
 21
114.93
 31
0.0000
 6
CONTINUOUS
 0
LINE
 8
WHITE
 10
219.45
 20
118.84
 30
0.0000
 11
215.96
 21
115.63
 31
0.0000
 6
CONTINUOUS
 0
ARC
 8
WHITE
 10
216.234
 20
115.333
 30
 0
 40
.404085
 50
132.6934
 51
268.0093
 6
CONTINUOUS
 0
LINE
 8
WHITE
 10
216.22
 20
114.93
 30
0.0000
 11
184.44
 21
115.17
 31
0.0000
 6
CONTINUOUS
 0
LINE
 8
WHITE
 10
229.46
 20
91.03
 30
0.0000
 11
230.22
 21
90.93
 31
0.0000
 6
CONTINUOUS
 0
LINE
 8
WHITE
 10
183.68
 20
119.7
 30
0.0000
 11
183.68
 21
120.44
 31
0.0000
 6
CONTINUOUS
 0
LINE
 8
WHITE
 10
183.68
 20
116.09
 30
0.0000
 11
183.68
 21
120.41
 31
0.0000
 6
CONTINUOUS
 0
LINE
 8
WHITE
 10
183.68
 20
109.67
 30
0.0000
 11
183.68
 21
115.09
 31
0.0000
 6
CONTINUOUS
 0
CIRCLE
 8
WHITE
 10
184.15
 20
115.61
 30
 0
 40
.25
 6
CONTINUOUS
 0
CIRCLE
 8
WHITE
 10
186.88
 20
115.55
 30
 0
 40
.25
 6
CONTINUOUS
 0
CIRCLE
 8
WHITE
 10
190.88
 20
115.52
 30
 0
 40
.25
 6
CONTINUOUS
 0
CIRCLE
 8
WHITE
 10
194.88
 20
115.49
 30
 0
 40
.25
 6
CONTINUOUS
 0
CIRCLE
 8
WHITE
 10
198.88
 20
115.46
 30
 0
 40
.25
 6
CONTINUOUS
 0
CIRCLE
 8
WHITE
 10
202.88
 20
115.43
 30
 0
 40
.25
 6
CONTINUOUS
 0
CIRCLE
 8
WHITE
 10
206.88
 20
115.4
 30
 0
 40
.25
 6
CONTINUOUS
 0
CIRCLE
 8
WHITE
 10
210.88
 20
115.37
 30
 0
 40
.25
 6
CONTINUOUS
 0
CIRCLE
 8
WHITE
 10
214.88
 20
115.35
 30
 0
 40
.25
 6
CONTINUOUS
 0
CIRCLE
 8
WHITE
 10
217.37
 20
115.33
 30
 0
 40
.25
 6
CONTINUOUS
 0
CIRCLE
 8
WHITE
 10
220.77
 20
115.31
 30
 0
 40
.25
 6
CONTINUOUS
 0
LINE
 8
WHITE
 10
197.7
 20
120.69
 30
0.0000
 11
198.89
 21
120.69
 31
0.0000
 6
CONTINUOUS
 0
ARC
 8
WHITE
 10
212.145
 20
100.547
 30
 0
 40
19.99642
 50
80.68983
 51
81.82047
 6
CONTINUOUS
 0
LINE
 8
WHITE
 10
214.91
 20
123.39
 30
0.0000
 11
215.54
 21
123.39
 31
0.0000
 6
CONTINUOUS
 0
LINE
 8
WHITE
 10
197.55
 20
123.54
 30
0.0000
 11
199.09
 21
123.53
 31
0.0000
 6
CONTINUOUS
 0
ARC
 8
WHITE
 10
212.489
 20
122.095
 30
 0
 40
1.534883
 50
61.98241
 51
89.96298
 6
CONTINUOUS
 0
LINE
 8
WHITE
 10
212.49
 20
123.63
 30
0.0000
 11
212.49
 21
120.56
 31
0.0000
 6
CONTINUOUS
 0
ARC
 8
WHITE
 10
212.5
 20
122.09
 30
 0
 40
1.530032
 50
269.6255
 51
58.90809
 6
CONTINUOUS
 0
LINE
 8
WHITE
 10
213.29
 20
123.4
 30
0.0000
 11
214.71
 21
123.4
 31
0.0000
 6
CONTINUOUS
 0
ARC
 8
WHITE
 10
214.71
 20
123.2
 30
 0
 40
.2
 50
357.1369
 51
90
 6
CONTINUOUS
 0
LINE
 8
WHITE
 10
214.91
 20
123.19
 30
0.0000
 11
214.89
 21
120.36
 31
0.0000
 6
CONTINUOUS
 0
ARC
 8
WHITE
 10
211.99
 20
100.57
 30
 0
 40
20.00135
 50
81.66329
 51
89.48437
 6
CONTINUOUS
 0
LINE
 8
WHITE
 10
179.52
 20
156.02
 30
0.0000
 11
180.02
 21
152.54
 31
0.0000
 6
CONTINUOUS
 0
ARC
 8
WHITE
 10
177.547
 20
152.2
 30
 0
 40
2.496263
 50
352.1719
 51
7.828223
 6
CONTINUOUS
 0
LINE
 8
WHITE
 10
180.02
 20
151.86
 30
0.0000
 11
179.56
 21
148.22
 31
0.0000
 6
CONTINUOUS
 0
ARC
 8
WHITE
 10
177.579
 20
148.474
 30
 0
 40
1.997217
 50
255.5327
 51
352.6935
 6
CONTINUOUS
 0
LINE
 8
WHITE
 10
176.46
 20
113.64
 30
0.0000
 11
176.46
 21
109.45
 31
0.0000
 6
CONTINUOUS
 0
LINE
 8
WHITE
 10
177.68
 20
109.67
 30
0.0000
 11
177.68
 21
118.31
 31
0.0000
 6
CONTINUOUS
 0
LINE
 8
WHITE
 10
176.59
 20
115.22
 30
0.0000
 11
177.32
 21
115.22
 31
0.0000
 6
CONTINUOUS
 0
ARC
 8
WHITE
 10
180.636
 20
109.79
 30
 0
 40
6.000096
 50
71.1966
 51
89.67533
 6
CONTINUOUS
 0
LINE
 8
WHITE
 10
182.57
 20
115.47
 30
0.0000
 11
183.67
 21
115.09
 31
0.0000
 6
CONTINUOUS
 0
LINE
 8
WHITE
 10
183.67
 20
115.09
 30
0.0000
 11
184.2
 21
115.09
 31
0.0000
 6
CONTINUOUS
 0
ARC
 8
WHITE
 10
184.21
 20
115.49
 30
 0
 40
.400124
 50
268.5679
 51
0
 6
CONTINUOUS
 0
LINE
 8
WHITE
 10
184.61
 20
115.49
 30
0.0000
 11
184.61
 21
115.69
 31
0.0000
 6
CONTINUOUS
 0
ARC
 8
WHITE
 10
184.21
 20
115.69
 30
 0
 40
.4
 50
0
 51
90
 6
CONTINUOUS
 0
LINE
 8
WHITE
 10
184.21
 20
116.09
 30
0.0000
 11
183.67
 21
116.09
 31
0.0000
 6
CONTINUOUS
 0
LINE
 8
WHITE
 10
183.67
 20
116.09
 30
0.0000
 11
182.57
 21
116.47
 31
0.0000
 6
CONTINUOUS
 0
ARC
 8
WHITE
 10
180.625
 20
110.795
 30
 0
 40
5.999054
 50
71.08181
 51
108.0121
 6
CONTINUOUS
 0
LINE
 8
WHITE
 10
178.77
 20
116.5
 30
0.0000
 11
177.67
 21
116.14
 31
0.0000
 6
CONTINUOUS
 0
LINE
 8
WHITE
 10
177.67
 20
116.14
 30
0.0000
 11
177.56
 21
116.14
 31
0.0000
 6
CONTINUOUS
 0
ARC
 8
WHITE
 10
177.56
 20
115.74
 30
 0
 40
.4
 50
90
 51
180
 6
CONTINUOUS
 0
LINE
 8
WHITE
 10
177.16
 20
115.74
 30
0.0000
 11
177.16
 21
115.54
 31
0.0000
 6
CONTINUOUS
 0
ARC
 8
WHITE
 10
177.56
 20
115.54
 30
 0
 40
.4
 50
180
 51
270
 6
CONTINUOUS
 0
LINE
 8
WHITE
 10
177.56
 20
115.14
 30
0.0000
 11
177.67
 21
115.14
 31
0.0000
 6
CONTINUOUS
 0
LINE
 8
WHITE
 10
177.67
 20
115.14
 30
0.0000
 11
178.77
 21
115.5
 31
0.0000
 6
CONTINUOUS
 0
ARC
 8
WHITE
 10
180.613
 20
109.794
 30
 0
 40
5.996255
 50
89.45542
 51
107.9001
 6
CONTINUOUS
 0
ARC
 8
WHITE
 10
177.68
 20
115.62
 30
 0
 40
.25
 50
90
 51
270
 6
CONTINUOUS
 0
LINE
 8
WHITE
 10
173.28
 20
113.5
 30
0.0000
 11
173.28
 21
54.7
 31
0.0000
 6
CONTINUOUS
 0
ARC
 8
WHITE
 10
180.674
 20
89.9
 30
 0
 40
20
 50
74.04987
 51
89.98281
 6
CONTINUOUS
 0
LINE
 8
WHITE
 10
186.17
 20
109.13
 30
0.0000
 11
187.68
 21
108.7
 31
0.0000
 6
CONTINUOUS
 0
LINE
 8
WHITE
 10
187.68
 20
108.7
 30
0.0000
 11
187.68
 21
59.7
 31
0.0000
 6
CONTINUOUS
 0
LINE
 8
WHITE
 10
187.68
 20
59.7
 30
0.0000
 11
184.35
 21
59.23
 31
0.0000
 6
CONTINUOUS
 0
ARC
 8
WHITE
 10
180.675
 20
84.971
 30
 0
 40
26.00201
 50
261.8749
 51
278.1251
 6
CONTINUOUS
 0
LINE
 8
WHITE
 10
177
 20
59.23
 30
0.0000
 11
173.68
 21
59.7
 31
0.0000
 6
CONTINUOUS
 0
LINE
 8
WHITE
 10
173.68
 20
59.7
 30
0.0000
 11
173.68
 21
108.7
 31
0.0000
 6
CONTINUOUS
 0
LINE
 8
WHITE
 10
173.68
 20
108.7
 30
0.0000
 11
175.18
 21
109.13
 31
0.0000
 6
CONTINUOUS
 0
ARC
 8
WHITE
 10
180.676
 20
89.90199
 30
 0
 40
19.99805
 50
89.98855
 51
105.9517
 6
CONTINUOUS
 0
LINE
 8
WHITE
 10
173.06
 20
117.74
 30
0.0000
 11
126.19
 21
117.74
 31
0.0000
 6
CONTINUOUS
 0
LINE
 8
WHITE
 10
169.28
 20
117.74
 30
0.0000
 11
169.28
 21
54.7
 31
0.0000
 6
CONTINUOUS
 0
LINE
 8
WHITE
 10
175.22
 20
104.67
 30
0.0000
 11
175.22
 21
102.64
 31
0.0000
 6
CONTINUOUS
 0
ARC
 8
WHITE
 10
175.65
 20
102.64
 30
 0
 40
.43
 50
180
 51
270
 6
CONTINUOUS
 0
LINE
 8
WHITE
 10
175.65
 20
102.21
 30
0.0000
 11
175.86
 21
102.21
 31
0.0000
 6
CONTINUOUS
 0
ARC
 8
WHITE
 10
175.85
 20
102.64
 30
 0
 40
.430116
 50
271.3322
 51
0
 6
CONTINUOUS
 0
LINE
 8
WHITE
 10
176.28
 20
102.64
 30
0.0000
 11
176.28
 21
106.7
 31
0.0000
 6
CONTINUOUS
 0
ARC
 8
WHITE
 10
175.85
 20
106.7
 30
 0
 40
.43
 50
0
 51
88.66851
 6
CONTINUOUS
 0
LINE
 8
WHITE
 10
175.86
 20
107.13
 30
0.0000
 11
175.65
 21
107.13
 31
0.0000
 6
CONTINUOUS
 0
ARC
 8
WHITE
 10
175.65
 20
106.7
 30
 0
 40
.43
 50
90
 51
180
 6
CONTINUOUS
 0
LINE
 8
WHITE
 10
175.22
 20
106.7
 30
0.0000
 11
175.22
 21
104.67
 31
0.0000
 6
CONTINUOUS
 0
LINE
 8
WHITE
 10
175.22
 20
98.8
 30
0.0000
 11
175.22
 21
100.83
 31
0.0000
 6
CONTINUOUS
 0
ARC
 8
WHITE
 10
175.65
 20
100.83
 30
 0
 40
.43
 50
90
 51
180
 6
CONTINUOUS
 0
LINE
 8
WHITE
 10
175.65
 20
101.26
 30
0.0000
 11
175.86
 21
101.26
 31
0.0000
 6
CONTINUOUS
 0
ARC
 8
WHITE
 10
175.85
 20
100.83
 30
 0
 40
.430116
 50
0
 51
88.66777
 6
CONTINUOUS
 0
LINE
 8
WHITE
 10
176.28
 20
100.83
 30
0.0000
 11
176.28
 21
96.77
 31
0.0000
 6
CONTINUOUS
 0
ARC
 8
WHITE
 10
175.85
 20
96.77
 30
 0
 40
.43
 50
271.3315
 51
0
 6
CONTINUOUS
 0
LINE
 8
WHITE
 10
175.86
 20
96.34
 30
0.0000
 11
175.65
 21
96.34
 31
0.0000
 6
CONTINUOUS
 0
ARC
 8
WHITE
 10
175.65
 20
96.77
 30
 0
 40
.43
 50
180
 51
270
 6
CONTINUOUS
 0
LINE
 8
WHITE
 10
175.22
 20
96.77
 30
0.0000
 11
175.22
 21
98.8
 31
0.0000
 6
CONTINUOUS
 0
LINE
 8
WHITE
 10
175.22
 20
92.93
 30
0.0000
 11
175.22
 21
94.97
 31
0.0000
 6
CONTINUOUS
 0
ARC
 8
WHITE
 10
175.65
 20
94.96
 30
 0
 40
.430116
 50
90
 51
178.6678
 6
CONTINUOUS
 0
LINE
 8
WHITE
 10
175.65
 20
95.39
 30
0.0000
 11
175.86
 21
95.39
 31
0.0000
 6
CONTINUOUS
 0
ARC
 8
WHITE
 10
175.85
 20
94.96
 30
 0
 40
.430116
 50
1.332527
 51
88.66777
 6
CONTINUOUS
 0
LINE
 8
WHITE
 10
176.28
 20
94.97
 30
0.0000
 11
176.28
 21
90.9
 31
0.0000
 6
CONTINUOUS
 0
ARC
 8
WHITE
 10
175.85
 20
90.9
 30
 0
 40
.43
 50
271.3315
 51
0
 6
CONTINUOUS
 0
LINE
 8
WHITE
 10
175.86
 20
90.47
 30
0.0000
 11
175.65
 21
90.47
 31
0.0000
 6
CONTINUOUS
 0
ARC
 8
WHITE
 10
175.65
 20
90.9
 30
 0
 40
.43
 50
180
 51
270
 6
CONTINUOUS
 0
LINE
 8
WHITE
 10
175.22
 20
90.9
 30
0.0000
 11
175.22
 21
92.93
 31
0.0000
 6
CONTINUOUS
 0
LINE
 8
WHITE
 10
175.22
 20
87.06
 30
0.0000
 11
175.22
 21
85.03
 31
0.0000
 6
CONTINUOUS
 0
ARC
 8
WHITE
 10
175.65
 20
85.03
 30
 0
 40
.43
 50
180
 51
270
 6
CONTINUOUS
 0
LINE
 8
WHITE
 10
175.65
 20
84.6
 30
0.0000
 11
175.86
 21
84.6
 31
0.0000
 6
CONTINUOUS
 0
ARC
 8
WHITE
 10
175.85
 20
85.03
 30
 0
 40
.430116
 50
271.3322
 51
0
 6
CONTINUOUS
 0
LINE
 8
WHITE
 10
176.28
 20
85.03
 30
0.0000
 11
176.28
 21
89.1
 31
0.0000
 6
CONTINUOUS
 0
ARC
 8
WHITE
 10
175.85
 20
89.09
 30
 0
 40
.430116
 50
1.332219
 51
88.66851
 6
CONTINUOUS
 0
LINE
 8
WHITE
 10
175.86
 20
89.52
 30
0.0000
 11
175.65
 21
89.52
 31
0.0000
 6
CONTINUOUS
 0
ARC
 8
WHITE
 10
175.65
 20
89.09
 30
 0
 40
.43
 50
90
 51
178.6675
 6
CONTINUOUS
 0
LINE
 8
WHITE
 10
175.22
 20
89.1
 30
0.0000
 11
175.22
 21
87.06
 31
0.0000
 6
CONTINUOUS
 0
LINE
 8
WHITE
 10
175.22
 20
81.19
 30
0.0000
 11
175.22
 21
83.23
 31
0.0000
 6
CONTINUOUS
 0
ARC
 8
WHITE
 10
175.65
 20
83.22
 30
 0
 40
.430116
 50
90
 51
178.6678
 6
CONTINUOUS
 0
LINE
 8
WHITE
 10
175.65
 20
83.65
 30
0.0000
 11
175.86
 21
83.65
 31
0.0000
 6
CONTINUOUS
 0
ARC
 8
WHITE
 10
175.85
 20
83.22
 30
 0
 40
.430116
 50
1.332527
 51
88.66777
 6
CONTINUOUS
 0
LINE
 8
WHITE
 10
176.28
 20
83.23
 30
0.0000
 11
176.28
 21
79.16
 31
0.0000
 6
CONTINUOUS
 0
ARC
 8
WHITE
 10
175.85
 20
79.17001
 30
 0
 40
.430116
 50
271.3315
 51
358.6678
 6
CONTINUOUS
 0
LINE
 8
WHITE
 10
175.86
 20
78.74
 30
0.0000
 11
175.65
 21
78.74
 31
0.0000
 6
CONTINUOUS
 0
ARC
 8
WHITE
 10
175.65
 20
79.17
 30
 0
 40
.43
 50
181.3315
 51
270
 6
CONTINUOUS
 0
LINE
 8
WHITE
 10
175.22
 20
79.16
 30
0.0000
 11
175.22
 21
81.19
 31
0.0000
 6
CONTINUOUS
 0
LINE
 8
WHITE
 10
175.22
 20
75.33
 30
0.0000
 11
175.22
 21
77.36
 31
0.0000
 6
CONTINUOUS
 0
ARC
 8
WHITE
 10
175.65
 20
77.36
 30
 0
 40
.43
 50
90
 51
180
 6
CONTINUOUS
 0
LINE
 8
WHITE
 10
175.65
 20
77.79
 30
0.0000
 11
175.86
 21
77.79
 31
0.0000
 6
CONTINUOUS
 0
ARC
 8
WHITE
 10
175.85
 20
77.36
 30
 0
 40
.430116
 50
0
 51
88.66777
 6
CONTINUOUS
 0
LINE
 8
WHITE
 10
176.28
 20
77.36
 30
0.0000
 11
176.28
 21
73.29
 31
0.0000
 6
CONTINUOUS
 0
ARC
 8
WHITE
 10
175.85
 20
73.3
 30
 0
 40
.430116
 50
271.3315
 51
358.6678
 6
CONTINUOUS
 0
LINE
 8
WHITE
 10
175.86
 20
72.87
 30
0.0000
 11
175.65
 21
72.87
 31
0.0000
 6
CONTINUOUS
 0
ARC
 8
WHITE
 10
175.65
 20
73.3
 30
 0
 40
.43
 50
181.3325
 51
270
 6
CONTINUOUS
 0
LINE
 8
WHITE
 10
175.22
 20
73.29
 30
0.0000
 11
175.22
 21
75.33
 31
0.0000
 6
CONTINUOUS
 0
LINE
 8
WHITE
 10
175.22
 20
69.46
 30
0.0000
 11
175.22
 21
71.49
 31
0.0000
 6
CONTINUOUS
 0
ARC
 8
WHITE
 10
175.65
 20
71.49
 30
 0
 40
.43
 50
90
 51
180
 6
CONTINUOUS
 0
LINE
 8
WHITE
 10
175.65
 20
71.92
 30
0.0000
 11
175.86
 21
71.92
 31
0.0000
 6
CONTINUOUS
 0
ARC
 8
WHITE
 10
175.85
 20
71.49
 30
 0
 40
.430116
 50
0
 51
88.66777
 6
CONTINUOUS
 0
LINE
 8
WHITE
 10
176.28
 20
71.49
 30
0.0000
 11
176.28
 21
67.42
 31
0.0000
 6
CONTINUOUS
 0
ARC
 8
WHITE
 10
175.85
 20
67.43
 30
 0
 40
.430116
 50
271.3315
 51
358.6678
 6
CONTINUOUS
 0
LINE
 8
WHITE
 10
175.86
 20
67
 30
0.0000
 11
175.65
 21
67
 31
0.0000
 6
CONTINUOUS
 0
ARC
 8
WHITE
 10
175.65
 20
67.43
 30
 0
 40
.43
 50
181.3325
 51
270
 6
CONTINUOUS
 0
LINE
 8
WHITE
 10
175.22
 20
67.42
 30
0.0000
 11
175.22
 21
69.46
 31
0.0000
 6
CONTINUOUS
 0
LINE
 8
WHITE
 10
175.22
 20
63.59
 30
0.0000
 11
175.22
 21
65.62
 31
0.0000
 6
CONTINUOUS
 0
ARC
 8
WHITE
 10
175.65
 20
65.62
 30
 0
 40
.43
 50
90
 51
180
 6
CONTINUOUS
 0
LINE
 8
WHITE
 10
175.65
 20
66.05
 30
0.0000
 11
175.86
 21
66.05
 31
0.0000
 6
CONTINUOUS
 0
ARC
 8
WHITE
 10
175.85
 20
65.62
 30
 0
 40
.430116
 50
0
 51
88.66777
 6
CONTINUOUS
 0
LINE
 8
WHITE
 10
176.28
 20
65.62
 30
0.0000
 11
176.28
 21
61.56
 31
0.0000
 6
CONTINUOUS
 0
ARC
 8
WHITE
 10
175.85
 20
61.56
 30
 0
 40
.43
 50
271.3315
 51
0
 6
CONTINUOUS
 0
LINE
 8
WHITE
 10
175.86
 20
61.13
 30
0.0000
 11
175.65
 21
61.13
 31
0.0000
 6
CONTINUOUS
 0
ARC
 8
WHITE
 10
175.65
 20
61.56
 30
 0
 40
.43
 50
180
 51
270
 6
CONTINUOUS
 0
LINE
 8
WHITE
 10
175.22
 20
61.56
 30
0.0000
 11
175.22
 21
63.59
 31
0.0000
 6
CONTINUOUS
 0
LINE
 8
WHITE
 10
180.31
 20
62.67
 30
0.0000
 11
180.31
 21
64.81
 31
0.0000
 6
CONTINUOUS
 0
ARC
 8
WHITE
 10
180.76
 20
64.81
 30
 0
 40
.449999
 50
90
 51
180
 6
CONTINUOUS
 0
LINE
 8
WHITE
 10
180.76
 20
65.26
 30
0.0000
 11
180.98
 21
65.26
 31
0.0000
 6
CONTINUOUS
 0
ARC
 8
WHITE
 10
180.98
 20
64.81001
 30
 0
 40
.449999
 50
359.999
 51
90
 6
CONTINUOUS
 0
LINE
 8
WHITE
 10
181.43
 20
64.81
 30
0.0000
 11
181.43
 21
60.53
 31
0.0000
 6
CONTINUOUS
 0
ARC
 8
WHITE
 10
180.98
 20
60.53
 30
 0
 40
.449999
 50
270
 51
0
 6
CONTINUOUS
 0
LINE
 8
WHITE
 10
180.98
 20
60.08
 30
0.0000
 11
180.76
 21
60.08
 31
0.0000
 6
CONTINUOUS
 0
ARC
 8
WHITE
 10
180.76
 20
60.53
 30
 0
 40
.449999
 50
180.0005
 51
270
 6
CONTINUOUS
 0
LINE
 8
WHITE
 10
180.31
 20
60.53
 30
0.0000
 11
180.31
 21
62.67
 31
0.0000
 6
CONTINUOUS
 0
LINE
 8
WHITE
 10
180.31
 20
68.85
 30
0.0000
 11
180.31
 21
70.99
 31
0.0000
 6
CONTINUOUS
 0
ARC
 8
WHITE
 10
180.76
 20
70.99
 30
 0
 40
.449999
 50
90
 51
180
 6
CONTINUOUS
 0
LINE
 8
WHITE
 10
180.76
 20
71.44
 30
0.0000
 11
180.98
 21
71.44
 31
0.0000
 6
CONTINUOUS
 0
ARC
 8
WHITE
 10
180.98
 20
70.99001
 30
 0
 40
.449999
 50
359.999
 51
90
 6
CONTINUOUS
 0
LINE
 8
WHITE
 10
181.43
 20
70.99
 30
0.0000
 11
181.43
 21
66.71
 31
0.0000
 6
CONTINUOUS
 0
ARC
 8
WHITE
 10
180.98
 20
66.71
 30
 0
 40
.449999
 50
270
 51
0
 6
CONTINUOUS
 0
LINE
 8
WHITE
 10
180.98
 20
66.26
 30
0.0000
 11
180.76
 21
66.26
 31
0.0000
 6
CONTINUOUS
 0
ARC
 8
WHITE
 10
180.76
 20
66.71
 30
 0
 40
.449999
 50
180
 51
270
 6
CONTINUOUS
 0
LINE
 8
WHITE
 10
180.31
 20
66.71
 30
0.0000
 11
180.31
 21
68.85
 31
0.0000
 6
CONTINUOUS
 0
LINE
 8
WHITE
 10
180.31
 20
75.03
 30
0.0000
 11
180.31
 21
77.16
 31
0.0000
 6
CONTINUOUS
 0
ARC
 8
WHITE
 10
180.76
 20
77.17001
 30
 0
 40
.450111
 50
90
 51
181.273
 6
CONTINUOUS
 0
LINE
 8
WHITE
 10
180.76
 20
77.62
 30
0.0000
 11
180.98
 21
77.62
 31
0.0000
 6
CONTINUOUS
 0
ARC
 8
WHITE
 10
180.98
 20
77.17001
 30
 0
 40
.449999
 50
358.7267
 51
90
 6
CONTINUOUS
 0
LINE
 8
WHITE
 10
181.43
 20
77.16
 30
0.0000
 11
181.43
 21
72.89
 31
0.0000
 6
CONTINUOUS
 0
ARC
 8
WHITE
 10
180.98
 20
72.89
 30
 0
 40
.449999
 50
270
 51
0
 6
CONTINUOUS
 0
LINE
 8
WHITE
 10
180.98
 20
72.44
 30
0.0000
 11
180.76
 21
72.44
 31
0.0000
 6
CONTINUOUS
 0
ARC
 8
WHITE
 10
180.76
 20
72.89
 30
 0
 40
.449999
 50
180
 51
270
 6
CONTINUOUS
 0
LINE
 8
WHITE
 10
180.31
 20
72.89
 30
0.0000
 11
180.31
 21
75.03
 31
0.0000
 6
CONTINUOUS
 0
LINE
 8
WHITE
 10
180.31
 20
81.2
 30
0.0000
 11
180.31
 21
79.06
 31
0.0000
 6
CONTINUOUS
 0
ARC
 8
WHITE
 10
180.76
 20
79.06
 30
 0
 40
.449999
 50
180
 51
270
 6
CONTINUOUS
 0
LINE
 8
WHITE
 10
180.76
 20
78.61
 30
0.0000
 11
180.98
 21
78.61
 31
0.0000
 6
CONTINUOUS
 0
ARC
 8
WHITE
 10
180.98
 20
79.06
 30
 0
 40
.449999
 50
270
 51
0
 6
CONTINUOUS
 0
LINE
 8
WHITE
 10
181.43
 20
79.06
 30
0.0000
 11
181.43
 21
83.34
 31
0.0000
 6
CONTINUOUS
 0
ARC
 8
WHITE
 10
180.98
 20
83.34
 30
 0
 40
.449999
 50
0
 51
90
 6
CONTINUOUS
 0
LINE
 8
WHITE
 10
180.98
 20
83.79
 30
0.0000
 11
180.76
 21
83.79
 31
0.0000
 6
CONTINUOUS
 0
ARC
 8
WHITE
 10
180.76
 20
83.34
 30
 0
 40
.449999
 50
90
 51
180.001
 6
CONTINUOUS
 0
LINE
 8
WHITE
 10
180.31
 20
83.34
 30
0.0000
 11
180.31
 21
81.2
 31
0.0000
 6
CONTINUOUS
 0
LINE
 8
WHITE
 10
180.31
 20
87.38
 30
0.0000
 11
180.31
 21
89.52
 31
0.0000
 6
CONTINUOUS
 0
ARC
 8
WHITE
 10
180.76
 20
89.52
 30
 0
 40
.449999
 50
90
 51
180
 6
CONTINUOUS
 0
LINE
 8
WHITE
 10
180.76
 20
89.97
 30
0.0000
 11
180.98
 21
89.97
 31
0.0000
 6
CONTINUOUS
 0
ARC
 8
WHITE
 10
180.98
 20
89.52
 30
 0
 40
.449999
 50
359.999
 51
90
 6
CONTINUOUS
 0
LINE
 8
WHITE
 10
181.43
 20
89.52
 30
0.0000
 11
181.43
 21
85.24
 31
0.0000
 6
CONTINUOUS
 0
ARC
 8
WHITE
 10
180.98
 20
85.24
 30
 0
 40
.449999
 50
270
 51
0
 6
CONTINUOUS
 0
LINE
 8
WHITE
 10
180.98
 20
84.79
 30
0.0000
 11
180.76
 21
84.79
 31
0.0000
 6
CONTINUOUS
 0
ARC
 8
WHITE
 10
180.76
 20
85.24
 30
 0
 40
.449999
 50
180
 51
270
 6
CONTINUOUS
 0
LINE
 8
WHITE
 10
180.31
 20
85.24
 30
0.0000
 11
180.31
 21
87.38
 31
0.0000
 6
CONTINUOUS
 0
LINE
 8
WHITE
 10
180.31
 20
93.56
 30
0.0000
 11
180.31
 21
95.7
 31
0.0000
 6
CONTINUOUS
 0
ARC
 8
WHITE
 10
180.76
 20
95.7
 30
 0
 40
.449999
 50
90
 51
180
 6
CONTINUOUS
 0
LINE
 8
WHITE
 10
180.76
 20
96.15
 30
0.0000
 11
180.98
 21
96.15
 31
0.0000
 6
CONTINUOUS
 0
ARC
 8
WHITE
 10
180.98
 20
95.7
 30
 0
 40
.449999
 50
359.999
 51
90
 6
CONTINUOUS
 0
LINE
 8
WHITE
 10
181.43
 20
95.7
 30
0.0000
 11
181.43
 21
91.42
 31
0.0000
 6
CONTINUOUS
 0
ARC
 8
WHITE
 10
180.98
 20
91.42
 30
 0
 40
.449999
 50
270
 51
0
 6
CONTINUOUS
 0
LINE
 8
WHITE
 10
180.98
 20
90.97
 30
0.0000
 11
180.76
 21
90.97
 31
0.0000
 6
CONTINUOUS
 0
ARC
 8
WHITE
 10
180.76
 20
91.42
 30
 0
 40
.449999
 50
180
 51
270
 6
CONTINUOUS
 0
LINE
 8
WHITE
 10
180.31
 20
91.42
 30
0.0000
 11
180.31
 21
93.56
 31
0.0000
 6
CONTINUOUS
 0
LINE
 8
WHITE
 10
180.31
 20
99.74
 30
0.0000
 11
180.31
 21
101.88
 31
0.0000
 6
CONTINUOUS
 0
ARC
 8
WHITE
 10
180.76
 20
101.88
 30
 0
 40
.449999
 50
90
 51
180
 6
CONTINUOUS
 0
LINE
 8
WHITE
 10
180.76
 20
102.33
 30
0.0000
 11
180.98
 21
102.33
 31
0.0000
 6
CONTINUOUS
 0
ARC
 8
WHITE
 10
180.98
 20
101.88
 30
 0
 40
.449999
 50
359.999
 51
90
 6
CONTINUOUS
 0
LINE
 8
WHITE
 10
181.43
 20
101.88
 30
0.0000
 11
181.43
 21
97.6
 31
0.0000
 6
CONTINUOUS
 0
ARC
 8
WHITE
 10
180.98
 20
97.6
 30
 0
 40
.449999
 50
270
 51
0
 6
CONTINUOUS
 0
LINE
 8
WHITE
 10
180.98
 20
97.15
 30
0.0000
 11
180.76
 21
97.15
 31
0.0000
 6
CONTINUOUS
 0
ARC
 8
WHITE
 10
180.76
 20
97.6
 30
 0
 40
.449999
 50
180
 51
270
 6
CONTINUOUS
 0
LINE
 8
WHITE
 10
180.31
 20
97.6
 30
0.0000
 11
180.31
 21
99.74
 31
0.0000
 6
CONTINUOUS
 0
LINE
 8
WHITE
 10
180.31
 20
105.92
 30
0.0000
 11
180.31
 21
108.06
 31
0.0000
 6
CONTINUOUS
 0
ARC
 8
WHITE
 10
180.76
 20
108.06
 30
 0
 40
.449999
 50
90
 51
180
 6
CONTINUOUS
 0
LINE
 8
WHITE
 10
180.76
 20
108.51
 30
0.0000
 11
180.98
 21
108.51
 31
0.0000
 6
CONTINUOUS
 0
ARC
 8
WHITE
 10
180.98
 20
108.06
 30
 0
 40
.449999
 50
359.999
 51
90
 6
CONTINUOUS
 0
LINE
 8
WHITE
 10
181.43
 20
108.06
 30
0.0000
 11
181.43
 21
103.78
 31
0.0000
 6
CONTINUOUS
 0
ARC
 8
WHITE
 10
180.98
 20
103.78
 30
 0
 40
.449999
 50
270
 51
0
 6
CONTINUOUS
 0
LINE
 8
WHITE
 10
180.98
 20
103.33
 30
0.0000
 11
180.76
 21
103.33
 31
0.0000
 6
CONTINUOUS
 0
ARC
 8
WHITE
 10
180.76
 20
103.78
 30
 0
 40
.449999
 50
180
 51
270
 6
CONTINUOUS
 0
LINE
 8
WHITE
 10
180.31
 20
103.78
 30
0.0000
 11
180.31
 21
105.92
 31
0.0000
 6
CONTINUOUS
 0
LINE
 8
WHITE
 10
185.46
 20
104.96
 30
0.0000
 11
185.46
 21
106.99
 31
0.0000
 6
CONTINUOUS
 0
ARC
 8
WHITE
 10
185.89
 20
106.99
 30
 0
 40
.43
 50
90
 51
180
 6
CONTINUOUS
 0
LINE
 8
WHITE
 10
185.89
 20
107.42
 30
0.0000
 11
186.1
 21
107.42
 31
0.0000
 6
CONTINUOUS
 0
ARC
 8
WHITE
 10
186.09
 20
106.99
 30
 0
 40
.430116
 50
0
 51
88.66777
 6
CONTINUOUS
 0
LINE
 8
WHITE
 10
186.52
 20
106.99
 30
0.0000
 11
186.52
 21
102.93
 31
0.0000
 6
CONTINUOUS
 0
ARC
 8
WHITE
 10
186.09
 20
102.93
 30
 0
 40
.43
 50
271.3315
 51
0
 6
CONTINUOUS
 0
LINE
 8
WHITE
 10
186.1
 20
102.5
 30
0.0000
 11
185.89
 21
102.5
 31
0.0000
 6
CONTINUOUS
 0
ARC
 8
WHITE
 10
185.89
 20
102.93
 30
 0
 40
.43
 50
180
 51
270
 6
CONTINUOUS
 0
LINE
 8
WHITE
 10
185.46
 20
102.93
 30
0.0000
 11
185.46
 21
104.96
 31
0.0000
 6
CONTINUOUS
 0
LINE
 8
WHITE
 10
185.46
 20
99.09
 30
0.0000
 11
185.46
 21
101.12
 31
0.0000
 6
CONTINUOUS
 0
ARC
 8
WHITE
 10
185.89
 20
101.12
 30
 0
 40
.43
 50
90
 51
180
 6
CONTINUOUS
 0
LINE
 8
WHITE
 10
185.89
 20
101.55
 30
0.0000
 11
186.1
 21
101.55
 31
0.0000
 6
CONTINUOUS
 0
ARC
 8
WHITE
 10
186.09
 20
101.12
 30
 0
 40
.430116
 50
0
 51
88.66777
 6
CONTINUOUS
 0
LINE
 8
WHITE
 10
186.52
 20
101.12
 30
0.0000
 11
186.52
 21
97.06
 31
0.0000
 6
CONTINUOUS
 0
ARC
 8
WHITE
 10
186.09
 20
97.06
 30
 0
 40
.43
 50
271.3315
 51
0
 6
CONTINUOUS
 0
LINE
 8
WHITE
 10
186.1
 20
96.63
 30
0.0000
 11
185.89
 21
96.63
 31
0.0000
 6
CONTINUOUS
 0
ARC
 8
WHITE
 10
185.89
 20
97.06
 30
 0
 40
.43
 50
180
 51
270
 6
CONTINUOUS
 0
LINE
 8
WHITE
 10
185.46
 20
97.06
 30
0.0000
 11
185.46
 21
99.09
 31
0.0000
 6
CONTINUOUS
 0
LINE
 8
WHITE
 10
185.46
 20
93.22
 30
0.0000
 11
185.46
 21
95.26
 31
0.0000
 6
CONTINUOUS
 0
ARC
 8
WHITE
 10
185.89
 20
95.25
 30
 0
 40
.430116
 50
90
 51
178.6678
 6
CONTINUOUS
 0
LINE
 8
WHITE
 10
185.89
 20
95.68
 30
0.0000
 11
186.1
 21
95.68
 31
0.0000
 6
CONTINUOUS
 0
ARC
 8
WHITE
 10
186.09
 20
95.25
 30
 0
 40
.430116
 50
1.332527
 51
88.66777
 6
CONTINUOUS
 0
LINE
 8
WHITE
 10
186.52
 20
95.26
 30
0.0000
 11
186.52
 21
91.19
 31
0.0000
 6
CONTINUOUS
 0
ARC
 8
WHITE
 10
186.09
 20
91.19
 30
 0
 40
.43
 50
271.3315
 51
0
 6
CONTINUOUS
 0
LINE
 8
WHITE
 10
186.1
 20
90.76
 30
0.0000
 11
185.89
 21
90.76
 31
0.0000
 6
CONTINUOUS
 0
ARC
 8
WHITE
 10
185.89
 20
91.19
 30
 0
 40
.43
 50
180
 51
270
 6
CONTINUOUS
 0
LINE
 8
WHITE
 10
185.46
 20
91.19
 30
0.0000
 11
185.46
 21
93.22
 31
0.0000
 6
CONTINUOUS
 0
LINE
 8
WHITE
 10
185.46
 20
87.35
 30
0.0000
 11
185.46
 21
85.32
 31
0.0000
 6
CONTINUOUS
 0
ARC
 8
WHITE
 10
185.89
 20
85.32
 30
 0
 40
.43
 50
180
 51
270
 6
CONTINUOUS
 0
LINE
 8
WHITE
 10
185.89
 20
84.89
 30
0.0000
 11
186.1
 21
84.89
 31
0.0000
 6
CONTINUOUS
 0
ARC
 8
WHITE
 10
186.09
 20
85.32
 30
 0
 40
.430116
 50
271.3322
 51
0
 6
CONTINUOUS
 0
LINE
 8
WHITE
 10
186.52
 20
85.32
 30
0.0000
 11
186.52
 21
89.39
 31
0.0000
 6
CONTINUOUS
 0
ARC
 8
WHITE
 10
186.09
 20
89.38
 30
 0
 40
.430116
 50
1.332219
 51
88.66851
 6
CONTINUOUS
 0
LINE
 8
WHITE
 10
186.1
 20
89.81
 30
0.0000
 11
185.89
 21
89.81
 31
0.0000
 6
CONTINUOUS
 0
ARC
 8
WHITE
 10
185.89
 20
89.38
 30
 0
 40
.43
 50
90
 51
178.6675
 6
CONTINUOUS
 0
LINE
 8
WHITE
 10
185.46
 20
89.39
 30
0.0000
 11
185.46
 21
87.35
 31
0.0000
 6
CONTINUOUS
 0
LINE
 8
WHITE
 10
185.46
 20
81.49
 30
0.0000
 11
185.46
 21
83.52
 31
0.0000
 6
CONTINUOUS
 0
ARC
 8
WHITE
 10
185.89
 20
83.50999
 30
 0
 40
.430116
 50
90
 51
178.6678
 6
CONTINUOUS
 0
LINE
 8
WHITE
 10
185.89
 20
83.94
 30
0.0000
 11
186.1
 21
83.94
 31
0.0000
 6
CONTINUOUS
 0
ARC
 8
WHITE
 10
186.09
 20
83.51
 30
 0
 40
.430116
 50
1.331511
 51
88.66777
 6
CONTINUOUS
 0
LINE
 8
WHITE
 10
186.52
 20
83.52
 30
0.0000
 11
186.52
 21
79.45
 31
0.0000
 6
CONTINUOUS
 0
ARC
 8
WHITE
 10
186.09
 20
79.46
 30
 0
 40
.430116
 50
271.3315
 51
358.6678
 6
CONTINUOUS
 0
LINE
 8
WHITE
 10
186.1
 20
79.03
 30
0.0000
 11
185.89
 21
79.03
 31
0.0000
 6
CONTINUOUS
 0
ARC
 8
WHITE
 10
185.89
 20
79.46
 30
 0
 40
.43
 50
181.3325
 51
270
 6
CONTINUOUS
 0
LINE
 8
WHITE
 10
185.46
 20
79.45
 30
0.0000
 11
185.46
 21
81.49
 31
0.0000
 6
CONTINUOUS
 0
LINE
 8
WHITE
 10
185.46
 20
75.62
 30
0.0000
 11
185.46
 21
77.65
 31
0.0000
 6
CONTINUOUS
 0
ARC
 8
WHITE
 10
185.89
 20
77.65
 30
 0
 40
.43
 50
90
 51
180
 6
CONTINUOUS
 0
LINE
 8
WHITE
 10
185.89
 20
78.08
 30
0.0000
 11
186.1
 21
78.08
 31
0.0000
 6
CONTINUOUS
 0
ARC
 8
WHITE
 10
186.09
 20
77.65
 30
 0
 40
.430116
 50
0
 51
88.66777
 6
CONTINUOUS
 0
LINE
 8
WHITE
 10
186.52
 20
77.65
 30
0.0000
 11
186.52
 21
73.58
 31
0.0000
 6
CONTINUOUS
 0
ARC
 8
WHITE
 10
186.09
 20
73.59
 30
 0
 40
.430116
 50
271.3315
 51
358.6678
 6
CONTINUOUS
 0
LINE
 8
WHITE
 10
186.1
 20
73.16
 30
0.0000
 11
185.89
 21
73.16
 31
0.0000
 6
CONTINUOUS
 0
ARC
 8
WHITE
 10
185.89
 20
73.59
 30
 0
 40
.43
 50
181.3325
 51
270
 6
CONTINUOUS
 0
LINE
 8
WHITE
 10
185.46
 20
73.58
 30
0.0000
 11
185.46
 21
75.62
 31
0.0000
 6
CONTINUOUS
 0
LINE
 8
WHITE
 10
185.46
 20
69.75
 30
0.0000
 11
185.46
 21
71.78
 31
0.0000
 6
CONTINUOUS
 0
ARC
 8
WHITE
 10
185.89
 20
71.78
 30
 0
 40
.43
 50
90
 51
180
 6
CONTINUOUS
 0
LINE
 8
WHITE
 10
185.89
 20
72.21
 30
0.0000
 11
186.1
 21
72.21
 31
0.0000
 6
CONTINUOUS
 0
ARC
 8
WHITE
 10
186.09
 20
71.78
 30
 0
 40
.430116
 50
0
 51
88.66777
 6
CONTINUOUS
 0
LINE
 8
WHITE
 10
186.52
 20
71.78
 30
0.0000
 11
186.52
 21
67.71
 31
0.0000
 6
CONTINUOUS
 0
ARC
 8
WHITE
 10
186.09
 20
67.72
 30
 0
 40
.430116
 50
271.3315
 51
358.6678
 6
CONTINUOUS
 0
LINE
 8
WHITE
 10
186.1
 20
67.29
 30
0.0000
 11
185.89
 21
67.29
 31
0.0000
 6
CONTINUOUS
 0
ARC
 8
WHITE
 10
185.89
 20
67.72
 30
 0
 40
.43
 50
181.3325
 51
270
 6
CONTINUOUS
 0
LINE
 8
WHITE
 10
185.46
 20
67.71
 30
0.0000
 11
185.46
 21
69.75
 31
0.0000
 6
CONTINUOUS
 0
LINE
 8
WHITE
 10
185.46
 20
63.88
 30
0.0000
 11
185.46
 21
65.91
 31
0.0000
 6
CONTINUOUS
 0
ARC
 8
WHITE
 10
185.89
 20
65.91
 30
 0
 40
.43
 50
90
 51
180
 6
CONTINUOUS
 0
LINE
 8
WHITE
 10
185.89
 20
66.34
 30
0.0000
 11
186.1
 21
66.34
 31
0.0000
 6
CONTINUOUS
 0
ARC
 8
WHITE
 10
186.09
 20
65.91
 30
 0
 40
.430116
 50
.001016
 51
88.66777
 6
CONTINUOUS
 0
LINE
 8
WHITE
 10
186.52
 20
65.91
 30
0.0000
 11
186.52
 21
61.85
 31
0.0000
 6
CONTINUOUS
 0
ARC
 8
WHITE
 10
186.09
 20
61.85
 30
 0
 40
.43
 50
271.3315
 51
0
 6
CONTINUOUS
 0
LINE
 8
WHITE
 10
186.1
 20
61.42
 30
0.0000
 11
185.89
 21
61.42
 31
0.0000
 6
CONTINUOUS
 0
ARC
 8
WHITE
 10
185.89
 20
61.85
 30
 0
 40
.43
 50
180
 51
270
 6
CONTINUOUS
 0
LINE
 8
WHITE
 10
185.46
 20
61.85
 30
0.0000
 11
185.46
 21
63.88
 31
0.0000
 6
CONTINUOUS
 0
LINE
 8
WHITE
 10
177.46
 20
102.71
 30
0.0000
 11
177.46
 21
100.57
 31
0.0000
 6
CONTINUOUS
 0
ARC
 8
WHITE
 10
177.91
 20
100.57
 30
 0
 40
.449999
 50
180
 51
270
 6
CONTINUOUS
 0
LINE
 8
WHITE
 10
177.91
 20
100.12
 30
0.0000
 11
178.12
 21
100.12
 31
0.0000
 6
CONTINUOUS
 0
ARC
 8
WHITE
 10
178.12
 20
100.57
 30
 0
 40
.449999
 50
270
 51
0
 6
CONTINUOUS
 0
LINE
 8
WHITE
 10
178.57
 20
100.57
 30
0.0000
 11
178.57
 21
104.85
 31
0.0000
 6
CONTINUOUS
 0
ARC
 8
WHITE
 10
178.12
 20
104.85
 30
 0
 40
.449999
 50
0
 51
90.00195
 6
CONTINUOUS
 0
LINE
 8
WHITE
 10
178.12
 20
105.3
 30
0.0000
 11
177.91
 21
105.3
 31
0.0000
 6
CONTINUOUS
 0
ARC
 8
WHITE
 10
177.91
 20
104.85
 30
 0
 40
.449999
 50
90
 51
180.001
 6
CONTINUOUS
 0
LINE
 8
WHITE
 10
177.46
 20
104.85
 30
0.0000
 11
177.46
 21
102.71
 31
0.0000
 6
CONTINUOUS
 0
LINE
 8
WHITE
 10
177.46
 20
96.53
 30
0.0000
 11
177.46
 21
98.67
 31
0.0000
 6
CONTINUOUS
 0
ARC
 8
WHITE
 10
177.91
 20
98.67
 30
 0
 40
.449999
 50
90
 51
180
 6
CONTINUOUS
 0
LINE
 8
WHITE
 10
177.91
 20
99.12
 30
0.0000
 11
178.12
 21
99.12
 31
0.0000
 6
CONTINUOUS
 0
ARC
 8
WHITE
 10
178.12
 20
98.67001
 30
 0
 40
.449999
 50
359.999
 51
90
 6
CONTINUOUS
 0
LINE
 8
WHITE
 10
178.57
 20
98.67
 30
0.0000
 11
178.57
 21
94.39
 31
0.0000
 6
CONTINUOUS
 0
ARC
 8
WHITE
 10
178.12
 20
94.39
 30
 0
 40
.449999
 50
269.998
 51
0
 6
CONTINUOUS
 0
LINE
 8
WHITE
 10
178.12
 20
93.94
 30
0.0000
 11
177.91
 21
93.94
 31
0.0000
 6
CONTINUOUS
 0
ARC
 8
WHITE
 10
177.91
 20
94.39
 30
 0
 40
.449999
 50
180
 51
270
 6
CONTINUOUS
 0
LINE
 8
WHITE
 10
177.46
 20
94.39
 30
0.0000
 11
177.46
 21
96.53
 31
0.0000
 6
CONTINUOUS
 0
LINE
 8
WHITE
 10
177.46
 20
90.35
 30
0.0000
 11
177.46
 21
92.49
 31
0.0000
 6
CONTINUOUS
 0
ARC
 8
WHITE
 10
177.91
 20
92.49
 30
 0
 40
.449999
 50
90
 51
180
 6
CONTINUOUS
 0
LINE
 8
WHITE
 10
177.91
 20
92.94
 30
0.0000
 11
178.12
 21
92.94
 31
0.0000
 6
CONTINUOUS
 0
ARC
 8
WHITE
 10
178.12
 20
92.49001
 30
 0
 40
.449999
 50
359.999
 51
90
 6
CONTINUOUS
 0
LINE
 8
WHITE
 10
178.57
 20
92.49
 30
0.0000
 11
178.57
 21
88.21
 31
0.0000
 6
CONTINUOUS
 0
ARC
 8
WHITE
 10
178.12
 20
88.21
 30
 0
 40
.449999
 50
269.998
 51
0
 6
CONTINUOUS
 0
LINE
 8
WHITE
 10
178.12
 20
87.76
 30
0.0000
 11
177.91
 21
87.76
 31
0.0000
 6
CONTINUOUS
 0
ARC
 8
WHITE
 10
177.91
 20
88.21
 30
 0
 40
.449999
 50
180
 51
270
 6
CONTINUOUS
 0
LINE
 8
WHITE
 10
177.46
 20
88.21
 30
0.0000
 11
177.46
 21
90.35
 31
0.0000
 6
CONTINUOUS
 0
LINE
 8
WHITE
 10
177.46
 20
84.18
 30
0.0000
 11
177.46
 21
86.31
 31
0.0000
 6
CONTINUOUS
 0
ARC
 8
WHITE
 10
177.91
 20
86.31
 30
 0
 40
.449999
 50
90
 51
180
 6
CONTINUOUS
 0
LINE
 8
WHITE
 10
177.91
 20
86.76
 30
0.0000
 11
178.12
 21
86.76
 31
0.0000
 6
CONTINUOUS
 0
ARC
 8
WHITE
 10
178.12
 20
86.31001
 30
 0
 40
.449999
 50
359.999
 51
90
 6
CONTINUOUS
 0
LINE
 8
WHITE
 10
178.57
 20
86.31
 30
0.0000
 11
178.57
 21
82.04
 31
0.0000
 6
CONTINUOUS
 0
ARC
 8
WHITE
 10
178.12
 20
82.04
 30
 0
 40
.449999
 50
269.998
 51
0
 6
CONTINUOUS
 0
LINE
 8
WHITE
 10
178.12
 20
81.59
 30
0.0000
 11
177.91
 21
81.59
 31
0.0000
 6
CONTINUOUS
 0
ARC
 8
WHITE
 10
177.91
 20
82.03999
 30
 0
 40
.449999
 50
179.999
 51
270
 6
CONTINUOUS
 0
LINE
 8
WHITE
 10
177.46
 20
82.04
 30
0.0000
 11
177.46
 21
84.18
 31
0.0000
 6
CONTINUOUS
 0
LINE
 8
WHITE
 10
177.46
 20
78
 30
0.0000
 11
177.46
 21
75.86
 31
0.0000
 6
CONTINUOUS
 0
ARC
 8
WHITE
 10
177.91
 20
75.86
 30
 0
 40
.449999
 50
180
 51
270
 6
CONTINUOUS
 0
LINE
 8
WHITE
 10
177.91
 20
75.41
 30
0.0000
 11
178.12
 21
75.41
 31
0.0000
 6
CONTINUOUS
 0
ARC
 8
WHITE
 10
178.12
 20
75.86
 30
 0
 40
.449999
 50
270
 51
0
 6
CONTINUOUS
 0
LINE
 8
WHITE
 10
178.57
 20
75.86
 30
0.0000
 11
178.57
 21
80.14
 31
0.0000
 6
CONTINUOUS
 0
ARC
 8
WHITE
 10
178.12
 20
80.14
 30
 0
 40
.449999
 50
0
 51
90.00195
 6
CONTINUOUS
 0
LINE
 8
WHITE
 10
178.12
 20
80.59
 30
0.0000
 11
177.91
 21
80.59
 31
0.0000
 6
CONTINUOUS
 0
ARC
 8
WHITE
 10
177.91
 20
80.14
 30
 0
 40
.449999
 50
90
 51
180
 6
CONTINUOUS
 0
LINE
 8
WHITE
 10
177.46
 20
80.14
 30
0.0000
 11
177.46
 21
78
 31
0.0000
 6
CONTINUOUS
 0
LINE
 8
WHITE
 10
177.46
 20
71.82
 30
0.0000
 11
177.46
 21
73.96
 31
0.0000
 6
CONTINUOUS
 0
ARC
 8
WHITE
 10
177.91
 20
73.96
 30
 0
 40
.449999
 50
90
 51
180
 6
CONTINUOUS
 0
LINE
 8
WHITE
 10
177.91
 20
74.41
 30
0.0000
 11
178.12
 21
74.41
 31
0.0000
 6
CONTINUOUS
 0
ARC
 8
WHITE
 10
178.12
 20
73.96001
 30
 0
 40
.449999
 50
359.999
 51
90
 6
CONTINUOUS
 0
LINE
 8
WHITE
 10
178.57
 20
73.96
 30
0.0000
 11
178.57
 21
69.68
 31
0.0000
 6
CONTINUOUS
 0
ARC
 8
WHITE
 10
178.12
 20
69.68
 30
 0
 40
.449999
 50
269.998
 51
0
 6
CONTINUOUS
 0
LINE
 8
WHITE
 10
178.12
 20
69.23
 30
0.0000
 11
177.91
 21
69.23
 31
0.0000
 6
CONTINUOUS
 0
ARC
 8
WHITE
 10
177.91
 20
69.68
 30
 0
 40
.449999
 50
180
 51
270
 6
CONTINUOUS
 0
LINE
 8
WHITE
 10
177.46
 20
69.68
 30
0.0000
 11
177.46
 21
71.82
 31
0.0000
 6
CONTINUOUS
 0
LINE
 8
WHITE
 10
177.46
 20
65.64
 30
0.0000
 11
177.46
 21
67.78
 31
0.0000
 6
CONTINUOUS
 0
ARC
 8
WHITE
 10
177.91
 20
67.78
 30
 0
 40
.449999
 50
90
 51
180
 6
CONTINUOUS
 0
LINE
 8
WHITE
 10
177.91
 20
68.23
 30
0.0000
 11
178.12
 21
68.23
 31
0.0000
 6
CONTINUOUS
 0
ARC
 8
WHITE
 10
178.12
 20
67.78001
 30
 0
 40
.449999
 50
359.999
 51
90
 6
CONTINUOUS
 0
LINE
 8
WHITE
 10
178.57
 20
67.78
 30
0.0000
 11
178.57
 21
63.5
 31
0.0000
 6
CONTINUOUS
 0
ARC
 8
WHITE
 10
178.12
 20
63.5
 30
 0
 40
.449999
 50
269.998
 51
0
 6
CONTINUOUS
 0
LINE
 8
WHITE
 10
178.12
 20
63.05
 30
0.0000
 11
177.91
 21
63.05
 31
0.0000
 6
CONTINUOUS
 0
ARC
 8
WHITE
 10
177.91
 20
63.5
 30
 0
 40
.449999
 50
180
 51
270
 6
CONTINUOUS
 0
LINE
 8
WHITE
 10
177.46
 20
63.5
 30
0.0000
 11
177.46
 21
65.64
 31
0.0000
 6
CONTINUOUS
 0
LINE
 8
WHITE
 10
182.89
 20
65.24
 30
0.0000
 11
182.89
 21
67.37
 31
0.0000
 6
CONTINUOUS
 0
ARC
 8
WHITE
 10
183.34
 20
67.38
 30
 0
 40
.450111
 50
90
 51
181.273
 6
CONTINUOUS
 0
LINE
 8
WHITE
 10
183.34
 20
67.83
 30
0.0000
 11
183.56
 21
67.83
 31
0.0000
 6
CONTINUOUS
 0
ARC
 8
WHITE
 10
183.56
 20
67.38
 30
 0
 40
.449999
 50
358.7267
 51
90
 6
CONTINUOUS
 0
LINE
 8
WHITE
 10
184.01
 20
67.37
 30
0.0000
 11
184.01
 21
63.1
 31
0.0000
 6
CONTINUOUS
 0
ARC
 8
WHITE
 10
183.56
 20
63.1
 30
 0
 40
.449999
 50
270
 51
0
 6
CONTINUOUS
 0
LINE
 8
WHITE
 10
183.56
 20
62.65
 30
0.0000
 11
183.34
 21
62.65
 31
0.0000
 6
CONTINUOUS
 0
ARC
 8
WHITE
 10
183.34
 20
63.1
 30
 0
 40
.449999
 50
180.0005
 51
270
 6
CONTINUOUS
 0
LINE
 8
WHITE
 10
182.89
 20
63.1
 30
0.0000
 11
182.89
 21
65.24
 31
0.0000
 6
CONTINUOUS
 0
LINE
 8
WHITE
 10
182.89
 20
71.41
 30
0.0000
 11
182.89
 21
73.55
 31
0.0000
 6
CONTINUOUS
 0
ARC
 8
WHITE
 10
183.34
 20
73.55
 30
 0
 40
.449999
 50
90
 51
180
 6
CONTINUOUS
 0
LINE
 8
WHITE
 10
183.34
 20
74
 30
0.0000
 11
183.56
 21
74
 31
0.0000
 6
CONTINUOUS
 0
ARC
 8
WHITE
 10
183.56
 20
73.55
 30
 0
 40
.449999
 50
0
 51
90
 6
CONTINUOUS
 0
LINE
 8
WHITE
 10
184.01
 20
73.55
 30
0.0000
 11
184.01
 21
69.27
 31
0.0000
 6
CONTINUOUS
 0
ARC
 8
WHITE
 10
183.56
 20
69.27
 30
 0
 40
.449999
 50
270
 51
0
 6
CONTINUOUS
 0
LINE
 8
WHITE
 10
183.56
 20
68.82
 30
0.0000
 11
183.34
 21
68.82
 31
0.0000
 6
CONTINUOUS
 0
ARC
 8
WHITE
 10
183.34
 20
69.27
 30
 0
 40
.449999
 50
180
 51
270
 6
CONTINUOUS
 0
LINE
 8
WHITE
 10
182.89
 20
69.27
 30
0.0000
 11
182.89
 21
71.41
 31
0.0000
 6
CONTINUOUS
 0
LINE
 8
WHITE
 10
182.89
 20
77.59
 30
0.0000
 11
182.89
 21
75.45
 31
0.0000
 6
CONTINUOUS
 0
ARC
 8
WHITE
 10
183.34
 20
75.45
 30
 0
 40
.449999
 50
180
 51
270
 6
CONTINUOUS
 0
LINE
 8
WHITE
 10
183.34
 20
75
 30
0.0000
 11
183.56
 21
75
 31
0.0000
 6
CONTINUOUS
 0
ARC
 8
WHITE
 10
183.56
 20
75.45
 30
 0
 40
.449999
 50
270
 51
0
 6
CONTINUOUS
 0
LINE
 8
WHITE
 10
184.01
 20
75.45
 30
0.0000
 11
184.01
 21
79.73
 31
0.0000
 6
CONTINUOUS
 0
ARC
 8
WHITE
 10
183.56
 20
79.73
 30
 0
 40
.449999
 50
0
 51
90
 6
CONTINUOUS
 0
LINE
 8
WHITE
 10
183.56
 20
80.18
 30
0.0000
 11
183.34
 21
80.18
 31
0.0000
 6
CONTINUOUS
 0
ARC
 8
WHITE
 10
183.34
 20
79.73
 30
 0
 40
.449999
 50
90
 51
180
 6
CONTINUOUS
 0
LINE
 8
WHITE
 10
182.89
 20
79.73
 30
0.0000
 11
182.89
 21
77.59
 31
0.0000
 6
CONTINUOUS
 0
LINE
 8
WHITE
 10
182.89
 20
83.77
 30
0.0000
 11
182.89
 21
85.91
 31
0.0000
 6
CONTINUOUS
 0
ARC
 8
WHITE
 10
183.34
 20
85.91
 30
 0
 40
.449999
 50
90
 51
180
 6
CONTINUOUS
 0
LINE
 8
WHITE
 10
183.34
 20
86.36
 30
0.0000
 11
183.56
 21
86.36
 31
0.0000
 6
CONTINUOUS
 0
ARC
 8
WHITE
 10
183.56
 20
85.91
 30
 0
 40
.449999
 50
0
 51
90
 6
CONTINUOUS
 0
LINE
 8
WHITE
 10
184.01
 20
85.91
 30
0.0000
 11
184.01
 21
81.63
 31
0.0000
 6
CONTINUOUS
 0
ARC
 8
WHITE
 10
183.56
 20
81.63
 30
 0
 40
.449999
 50
270
 51
0
 6
CONTINUOUS
 0
LINE
 8
WHITE
 10
183.56
 20
81.18
 30
0.0000
 11
183.34
 21
81.18
 31
0.0000
 6
CONTINUOUS
 0
ARC
 8
WHITE
 10
183.34
 20
81.63
 30
 0
 40
.449999
 50
180
 51
270
 6
CONTINUOUS
 0
LINE
 8
WHITE
 10
182.89
 20
81.63
 30
0.0000
 11
182.89
 21
83.77
 31
0.0000
 6
CONTINUOUS
 0
LINE
 8
WHITE
 10
182.89
 20
89.95
 30
0.0000
 11
182.89
 21
92.09
 31
0.0000
 6
CONTINUOUS
 0
ARC
 8
WHITE
 10
183.34
 20
92.09
 30
 0
 40
.449999
 50
90
 51
180
 6
CONTINUOUS
 0
LINE
 8
WHITE
 10
183.34
 20
92.54
 30
0.0000
 11
183.56
 21
92.54
 31
0.0000
 6
CONTINUOUS
 0
ARC
 8
WHITE
 10
183.56
 20
92.09
 30
 0
 40
.449999
 50
359.999
 51
90
 6
CONTINUOUS
 0
LINE
 8
WHITE
 10
184.01
 20
92.09
 30
0.0000
 11
184.01
 21
87.81
 31
0.0000
 6
CONTINUOUS
 0
ARC
 8
WHITE
 10
183.56
 20
87.81
 30
 0
 40
.449999
 50
270
 51
0
 6
CONTINUOUS
 0
LINE
 8
WHITE
 10
183.56
 20
87.36
 30
0.0000
 11
183.34
 21
87.36
 31
0.0000
 6
CONTINUOUS
 0
ARC
 8
WHITE
 10
183.34
 20
87.81
 30
 0
 40
.449999
 50
180
 51
270
 6
CONTINUOUS
 0
LINE
 8
WHITE
 10
182.89
 20
87.81
 30
0.0000
 11
182.89
 21
89.95
 31
0.0000
 6
CONTINUOUS
 0
LINE
 8
WHITE
 10
182.89
 20
96.13
 30
0.0000
 11
182.89
 21
98.27
 31
0.0000
 6
CONTINUOUS
 0
ARC
 8
WHITE
 10
183.34
 20
98.27
 30
 0
 40
.449999
 50
90
 51
180
 6
CONTINUOUS
 0
LINE
 8
WHITE
 10
183.34
 20
98.72
 30
0.0000
 11
183.56
 21
98.72
 31
0.0000
 6
CONTINUOUS
 0
ARC
 8
WHITE
 10
183.56
 20
98.27
 30
 0
 40
.449999
 50
359.999
 51
90
 6
CONTINUOUS
 0
LINE
 8
WHITE
 10
184.01
 20
98.27
 30
0.0000
 11
184.01
 21
93.99
 31
0.0000
 6
CONTINUOUS
 0
ARC
 8
WHITE
 10
183.56
 20
93.99
 30
 0
 40
.449999
 50
270
 51
0
 6
CONTINUOUS
 0
LINE
 8
WHITE
 10
183.56
 20
93.54
 30
0.0000
 11
183.34
 21
93.54
 31
0.0000
 6
CONTINUOUS
 0
ARC
 8
WHITE
 10
183.34
 20
93.99
 30
 0
 40
.449999
 50
180
 51
270
 6
CONTINUOUS
 0
LINE
 8
WHITE
 10
182.89
 20
93.99
 30
0.0000
 11
182.89
 21
96.13
 31
0.0000
 6
CONTINUOUS
 0
LINE
 8
WHITE
 10
182.89
 20
102.3
 30
0.0000
 11
182.89
 21
100.16
 31
0.0000
 6
CONTINUOUS
 0
ARC
 8
WHITE
 10
183.34
 20
100.16
 30
 0
 40
.449999
 50
180
 51
270
 6
CONTINUOUS
 0
LINE
 8
WHITE
 10
183.34
 20
99.71
 30
0.0000
 11
183.56
 21
99.71
 31
0.0000
 6
CONTINUOUS
 0
ARC
 8
WHITE
 10
183.56
 20
100.16
 30
 0
 40
.449999
 50
270
 51
1.27331
 6
CONTINUOUS
 0
LINE
 8
WHITE
 10
184.01
 20
100.17
 30
0.0000
 11
184.01
 21
104.44
 31
0.0000
 6
CONTINUOUS
 0
ARC
 8
WHITE
 10
183.56
 20
104.44
 30
 0
 40
.449999
 50
0
 51
90
 6
CONTINUOUS
 0
LINE
 8
WHITE
 10
183.56
 20
104.89
 30
0.0000
 11
183.34
 21
104.89
 31
0.0000
 6
CONTINUOUS
 0
ARC
 8
WHITE
 10
183.34
 20
104.44
 30
 0
 40
.449999
 50
90
 51
180
 6
CONTINUOUS
 0
LINE
 8
WHITE
 10
182.89
 20
104.44
 30
0.0000
 11
182.89
 21
102.3
 31
0.0000
 6
CONTINUOUS
 0
CIRCLE
 8
WHITE
 10
136.79
 20
65.83
 30
 0
 40
.5
 6
CONTINUOUS
 0
LINE
 8
WHITE
 10
141.56
 20
73.05
 30
0.0000
 11
147.59
 21
73.05
 31
0.0000
 6
CONTINUOUS
 0
ARC
 8
WHITE
 10
147.59
 20
72.55
 30
 0
 40
.5
 50
0
 51
90
 6
CONTINUOUS
 0
LINE
 8
WHITE
 10
148.09
 20
72.55
 30
0.0000
 11
148.09
 21
58.67
 31
0.0000
 6
CONTINUOUS
 0
ARC
 8
WHITE
 10
147.59
 20
58.67
 30
 0
 40
.5
 50
270
 51
0
 6
CONTINUOUS
 0
LINE
 8
WHITE
 10
147.59
 20
58.17
 30
0.0000
 11
135.53
 21
58.17
 31
0.0000
 6
CONTINUOUS
 0
ARC
 8
WHITE
 10
135.53
 20
58.67
 30
 0
 40
.5
 50
180
 51
270
 6
CONTINUOUS
 0
LINE
 8
WHITE
 10
135.03
 20
58.67
 30
0.0000
 11
135.03
 21
72.55
 31
0.0000
 6
CONTINUOUS
 0
ARC
 8
WHITE
 10
135.53
 20
72.55
 30
 0
 40
.5
 50
90
 51
180
 6
CONTINUOUS
 0
LINE
 8
WHITE
 10
135.53
 20
73.05
 30
0.0000
 11
141.56
 21
73.05
 31
0.0000
 6
CONTINUOUS
 0
LINE
 8
WHITE
 10
141.56
 20
73.55
 30
0.0000
 11
147.59
 21
73.55
 31
0.0000
 6
CONTINUOUS
 0
ARC
 8
WHITE
 10
147.59
 20
72.55
 30
 0
 40
1
 50
0
 51
90
 6
CONTINUOUS
 0
LINE
 8
WHITE
 10
148.59
 20
72.55
 30
0.0000
 11
148.59
 21
58.67
 31
0.0000
 6
CONTINUOUS
 0
ARC
 8
WHITE
 10
147.59
 20
58.67
 30
 0
 40
1
 50
270
 51
0
 6
CONTINUOUS
 0
LINE
 8
WHITE
 10
147.59
 20
57.67
 30
0.0000
 11
135.53
 21
57.67
 31
0.0000
 6
CONTINUOUS
 0
ARC
 8
WHITE
 10
135.53
 20
58.67
 30
 0
 40
1
 50
180
 51
270
 6
CONTINUOUS
 0
LINE
 8
WHITE
 10
134.53
 20
58.67
 30
0.0000
 11
134.53
 21
72.55
 31
0.0000
 6
CONTINUOUS
 0
ARC
 8
WHITE
 10
135.53
 20
72.55
 30
 0
 40
1
 50
90
 51
180
 6
CONTINUOUS
 0
LINE
 8
WHITE
 10
135.53
 20
73.55
 30
0.0000
 11
141.56
 21
73.55
 31
0.0000
 6
CONTINUOUS
 0
LINE
 8
WHITE
 10
136.23
 20
106.11
 30
0.0000
 11
136.23
 21
110.54
 31
0.0000
 6
CONTINUOUS
 0
ARC
 8
WHITE
 10
136.63
 20
110.54
 30
 0
 40
.4
 50
89.99782
 51
180
 6
CONTINUOUS
 0
LINE
 8
WHITE
 10
136.63
 20
110.94
 30
0.0000
 11
139.01
 21
110.94
 31
0.0000
 6
CONTINUOUS
 0
ARC
 8
WHITE
 10
139.01
 20
109.94
 30
 0
 40
1
 50
0
 51
90
 6
CONTINUOUS
 0
LINE
 8
WHITE
 10
140.01
 20
109.94
 30
0.0000
 11
140.01
 21
102.29
 31
0.0000
 6
CONTINUOUS
 0
ARC
 8
WHITE
 10
139.01
 20
102.29
 30
 0
 40
1
 50
270
 51
0
 6
CONTINUOUS
 0
LINE
 8
WHITE
 10
139.01
 20
101.29
 30
0.0000
 11
136.63
 21
101.29
 31
0.0000
 6
CONTINUOUS
 0
ARC
 8
WHITE
 10
136.63
 20
101.69
 30
 0
 40
.4
 50
180
 51
270
 6
CONTINUOUS
 0
LINE
 8
WHITE
 10
136.23
 20
101.69
 30
0.0000
 11
136.23
 21
106.11
 31
0.0000
 6
CONTINUOUS
 0
LINE
 8
WHITE
 10
129.14
 20
117.74
 30
0.0000
 11
129.14
 21
54.7
 31
0.0000
 6
CONTINUOUS
 0
CIRCLE
 8
WHITE
 10
129.48
 20
118.24
 30
 0
 40
.25
 6
CONTINUOUS
 0
CIRCLE
 8
WHITE
 10
133.48
 20
118.24
 30
 0
 40
.25
 6
CONTINUOUS
 0
CIRCLE
 8
WHITE
 10
137.48
 20
118.24
 30
 0
 40
.25
 6
CONTINUOUS
 0
CIRCLE
 8
WHITE
 10
141.48
 20
118.24
 30
 0
 40
.25
 6
CONTINUOUS
 0
CIRCLE
 8
WHITE
 10
145.48
 20
118.24
 30
 0
 40
.25
 6
CONTINUOUS
 0
CIRCLE
 8
WHITE
 10
149.48
 20
118.24
 30
 0
 40
.25
 6
CONTINUOUS
 0
CIRCLE
 8
WHITE
 10
153.48
 20
118.24
 30
 0
 40
.25
 6
CONTINUOUS
 0
CIRCLE
 8
WHITE
 10
157.48
 20
118.24
 30
 0
 40
.25
 6
CONTINUOUS
 0
CIRCLE
 8
WHITE
 10
161.48
 20
118.24
 30
 0
 40
.25
 6
CONTINUOUS
 0
CIRCLE
 8
WHITE
 10
165.48
 20
118.24
 30
 0
 40
.25
 6
CONTINUOUS
 0
CIRCLE
 8
WHITE
 10
169.48
 20
118.24
 30
 0
 40
.25
 6
CONTINUOUS
 0
CIRCLE
 8
WHITE
 10
169.78
 20
115.74
 30
 0
 40
.25
 6
CONTINUOUS
 0
CIRCLE
 8
WHITE
 10
169.78
 20
111.74
 30
 0
 40
.25
 6
CONTINUOUS
 0
CIRCLE
 8
WHITE
 10
169.78
 20
107.74
 30
 0
 40
.25
 6
CONTINUOUS
 0
CIRCLE
 8
WHITE
 10
169.78
 20
103.74
 30
 0
 40
.25
 6
CONTINUOUS
 0
CIRCLE
 8
WHITE
 10
169.78
 20
99.74
 30
 0
 40
.25
 6
CONTINUOUS
 0
CIRCLE
 8
WHITE
 10
128.64
 20
99.74
 30
 0
 40
.25
 6
CONTINUOUS
 0
CIRCLE
 8
WHITE
 10
128.64
 20
103.74
 30
 0
 40
.25
 6
CONTINUOUS
 0
CIRCLE
 8
WHITE
 10
128.64
 20
107.74
 30
 0
 40
.25
 6
CONTINUOUS
 0
CIRCLE
 8
WHITE
 10
128.64
 20
111.74
 30
 0
 40
.25
 6
CONTINUOUS
 0
CIRCLE
 8
WHITE
 10
128.64
 20
115.74
 30
 0
 40
.25
 6
CONTINUOUS
 0
CIRCLE
 8
WHITE
 10
128.64
 20
95.74
 30
 0
 40
.25
 6
CONTINUOUS
 0
CIRCLE
 8
WHITE
 10
128.64
 20
91.74
 30
 0
 40
.25
 6
CONTINUOUS
 0
CIRCLE
 8
WHITE
 10
128.64
 20
87.74
 30
 0
 40
.25
 6
CONTINUOUS
 0
CIRCLE
 8
WHITE
 10
128.64
 20
83.74
 30
 0
 40
.25
 6
CONTINUOUS
 0
CIRCLE
 8
WHITE
 10
128.64
 20
79.74
 30
 0
 40
.25
 6
CONTINUOUS
 0
CIRCLE
 8
WHITE
 10
128.64
 20
75.74
 30
 0
 40
.25
 6
CONTINUOUS
 0
CIRCLE
 8
WHITE
 10
128.64
 20
71.74
 30
 0
 40
.25
 6
CONTINUOUS
 0
CIRCLE
 8
WHITE
 10
128.64
 20
67.74
 30
 0
 40
.25
 6
CONTINUOUS
 0
CIRCLE
 8
WHITE
 10
128.64
 20
63.74
 30
 0
 40
.25
 6
CONTINUOUS
 0
CIRCLE
 8
WHITE
 10
128.64
 20
59.74
 30
 0
 40
.25
 6
CONTINUOUS
 0
CIRCLE
 8
WHITE
 10
128.64
 20
55.74
 30
 0
 40
.25
 6
CONTINUOUS
 0
CIRCLE
 8
WHITE
 10
169.78
 20
55.74
 30
 0
 40
.25
 6
CONTINUOUS
 0
CIRCLE
 8
WHITE
 10
169.78
 20
59.74
 30
 0
 40
.25
 6
CONTINUOUS
 0
CIRCLE
 8
WHITE
 10
169.78
 20
63.74
 30
 0
 40
.25
 6
CONTINUOUS
 0
CIRCLE
 8
WHITE
 10
169.78
 20
67.74
 30
 0
 40
.25
 6
CONTINUOUS
 0
CIRCLE
 8
WHITE
 10
169.78
 20
71.74
 30
 0
 40
.25
 6
CONTINUOUS
 0
CIRCLE
 8
WHITE
 10
169.78
 20
75.74
 30
 0
 40
.25
 6
CONTINUOUS
 0
CIRCLE
 8
WHITE
 10
169.78
 20
79.74
 30
 0
 40
.25
 6
CONTINUOUS
 0
CIRCLE
 8
WHITE
 10
169.78
 20
83.74
 30
 0
 40
.25
 6
CONTINUOUS
 0
CIRCLE
 8
WHITE
 10
169.78
 20
87.74
 30
 0
 40
.25
 6
CONTINUOUS
 0
CIRCLE
 8
WHITE
 10
169.78
 20
91.74
 30
 0
 40
.25
 6
CONTINUOUS
 0
CIRCLE
 8
WHITE
 10
169.78
 20
95.74
 30
 0
 40
.25
 6
CONTINUOUS
 0
LINE
 8
WHITE
 10
25.74
 20
50.7
 30
0.0000
 11
31.24
 21
50.7
 31
0.0000
 6
CONTINUOUS
 0
LINE
 8
WHITE
 10
48.68
 20
50.7
 30
0.0000
 11
75.24
 21
50.7
 31
0.0000
 6
CONTINUOUS
 0
ARC
 8
WHITE
 10
39.967
 20
32.698
 30
 0
 40
19.99801
 50
15.25588
 51
74.94917
 6
CONTINUOUS
 0
ARC
 8
WHITE
 10
39.958
 20
32.7
 30
 0
 40
19.99607
 50
104.8299
 51
165.3716
 6
CONTINUOUS
 0
ARC
 8
WHITE
 10
83.966
 20
32.702
 30
 0
 40
19.99817
 50
105.7431
 51
164.8756
 6
CONTINUOUS
 0
ARC
 8
WHITE
 10
83.967
 20
32.698
 30
 0
 40
19.99596
 50
14.45669
 51
73.69762
 6
CONTINUOUS
 0
LINE
 8
WHITE
 10
66.68
 20
42.77
 30
0.0000
 11
57.24
 21
42.77
 31
0.0000
 6
CONTINUOUS
 0
LINE
 8
WHITE
 10
16.97
 20
42.77
 30
0.0000
 11
22.68
 21
42.77
 31
0.0000
 6
CONTINUOUS
 0
LINE
 8
WHITE
 10
53.93
 20
54.87
 30
0.0000
 11
74.41
 21
59.51
 31
0.0000
 6
CONTINUOUS
 0
LINE
 8
WHITE
 10
55.49
 20
54.16
 30
0.0000
 11
73.38
 21
58.22
 31
0.0000
 6
CONTINUOUS
 0
LINE
 8
WHITE
 10
72.14
 20
56.78
 30
0.0000
 11
71.22
 21
56.78
 31
0.0000
 6
CONTINUOUS
 0
ARC
 8
WHITE
 10
71.22
 20
57.28
 30
 0
 40
.5
 50
180
 51
270
 6
CONTINUOUS
 0
LINE
 8
WHITE
 10
70.72
 20
57.28
 30
0.0000
 11
70.72
 21
57.62
 31
0.0000
 6
CONTINUOUS
 0
LINE
 8
WHITE
 10
72.2
 20
52.79
 30
0.0000
 11
55.53
 21
52.79
 31
0.0000
 6
CONTINUOUS
 0
LINE
 8
WHITE
 10
72.2
 20
52.26
 30
0.0000
 11
55.52
 21
52.26
 31
0.0000
 6
CONTINUOUS
 0
CIRCLE
 8
WHITE
 10
39.96
 20
32.7
 30
 0
 40
3.599999
 6
CONTINUOUS
 0
CIRCLE
 8
WHITE
 10
39.96
 20
32.7
 30
 0
 40
7.199999
 6
CONTINUOUS
 0
CIRCLE
 8
WHITE
 10
39.96
 20
32.7
 30
 0
 40
11
 6
CONTINUOUS
 0
CIRCLE
 8
WHITE
 10
39.96
 20
32.7
 30
 0
 40
12
 6
CONTINUOUS
 0
CIRCLE
 8
WHITE
 10
83.96
 20
32.7
 30
 0
 40
3.599999
 6
CONTINUOUS
 0
CIRCLE
 8
WHITE
 10
83.96
 20
32.7
 30
 0
 40
7.199999
 6
CONTINUOUS
 0
CIRCLE
 8
WHITE
 10
83.96
 20
32.7
 30
 0
 40
11
 6
CONTINUOUS
 0
CIRCLE
 8
WHITE
 10
83.96
 20
32.7
 30
 0
 40
12
 6
CONTINUOUS
 0
CIRCLE
 8
WHITE
 10
36.28
 20
36.01
 30
 0
 40
.449999
 6
CONTINUOUS
 0
CIRCLE
 8
WHITE
 10
35.12
 20
33.73
 30
 0
 40
.449999
 6
CONTINUOUS
 0
CIRCLE
 8
WHITE
 10
35.25
 20
31.17
 30
 0
 40
.449999
 6
CONTINUOUS
 0
CIRCLE
 8
WHITE
 10
36.65
 20
29.02
 30
 0
 40
.449999
 6
CONTINUOUS
 0
CIRCLE
 8
WHITE
 10
38.93
 20
27.86
 30
 0
 40
.449999
 6
CONTINUOUS
 0
CIRCLE
 8
WHITE
 10
41.49
 20
27.99
 30
 0
 40
.449999
 6
CONTINUOUS
 0
CIRCLE
 8
WHITE
 10
43.64
 20
29.39
 30
 0
 40
.449999
 6
CONTINUOUS
 0
CIRCLE
 8
WHITE
 10
44.8
 20
31.67
 30
 0
 40
.449999
 6
CONTINUOUS
 0
CIRCLE
 8
WHITE
 10
44.67
 20
34.23
 30
 0
 40
.449999
 6
CONTINUOUS
 0
CIRCLE
 8
WHITE
 10
43.27
 20
36.38
 30
 0
 40
.449999
 6
CONTINUOUS
 0
CIRCLE
 8
WHITE
 10
40.99
 20
37.54
 30
 0
 40
.449999
 6
CONTINUOUS
 0
CIRCLE
 8
WHITE
 10
38.43
 20
37.41
 30
 0
 40
.449999
 6
CONTINUOUS
 0
CIRCLE
 8
WHITE
 10
83.62
 20
37.64
 30
 0
 40
.449999
 6
CONTINUOUS
 0
CIRCLE
 8
WHITE
 10
81.2
 20
36.81
 30
 0
 40
.449999
 6
CONTINUOUS
 0
CIRCLE
 8
WHITE
 10
79.52
 20
34.88
 30
 0
 40
.449999
 6
CONTINUOUS
 0
CIRCLE
 8
WHITE
 10
79.02
 20
32.36
 30
 0
 40
.449999
 6
CONTINUOUS
 0
CIRCLE
 8
WHITE
 10
79.85
 20
29.94
 30
 0
 40
.449999
 6
CONTINUOUS
 0
CIRCLE
 8
WHITE
 10
81.79
 20
28.25
 30
 0
 40
.449999
 6
CONTINUOUS
 0
CIRCLE
 8
WHITE
 10
84.3
 20
27.76
 30
 0
 40
.449999
 6
CONTINUOUS
 0
CIRCLE
 8
WHITE
 10
86.72
 20
28.59
 30
 0
 40
.449999
 6
CONTINUOUS
 0
CIRCLE
 8
WHITE
 10
88.41
 20
30.52
 30
 0
 40
.449999
 6
CONTINUOUS
 0
CIRCLE
 8
WHITE
 10
88.9
 20
33.04
 30
 0
 40
.449999
 6
CONTINUOUS
 0
CIRCLE
 8
WHITE
 10
88.07
 20
35.46
 30
 0
 40
.449999
 6
CONTINUOUS
 0
CIRCLE
 8
WHITE
 10
86.14
 20
37.15
 30
 0
 40
.449999
 6
CONTINUOUS
 0
LINE
 8
WHITE
 10
193.65
 20
100.19
 30
0.0000
 11
193.65
 21
108.68
 31
0.0000
 6
CONTINUOUS
 0
ARC
 8
WHITE
 10
195.65
 20
108.68
 30
 0
 40
2
 50
89.42694
 51
180
 6
CONTINUOUS
 0
LINE
 8
WHITE
 10
195.67
 20
110.68
 30
0.0000
 11
208.48
 21
110.57
 31
0.0000
 6
CONTINUOUS
 0
ARC
 8
WHITE
 10
209.282
 20
110.535
 30
 0
 40
.802763
 50
177.5011
 51
182.4986
 6
CONTINUOUS
 0
LINE
 8
WHITE
 10
208.48
 20
110.5
 30
0.0000
 11
208.48
 21
93.47
 31
0.0000
 6
CONTINUOUS
 0
ARC
 8
WHITE
 10
209.28
 20
93.47
 30
 0
 40
.8
 50
180
 51
270
 6
CONTINUOUS
 0
LINE
 8
WHITE
 10
209.28
 20
92.67
 30
0.0000
 11
212.9
 21
92.67
 31
0.0000
 6
CONTINUOUS
 0
LINE
 8
WHITE
 10
212.9
 20
92.67
 30
0.0000
 11
212.9
 21
92.49
 31
0.0000
 6
CONTINUOUS
 0
LINE
 8
WHITE
 10
212.9
 20
92.49
 30
0.0000
 11
209.21
 21
91.7
 31
0.0000
 6
CONTINUOUS
 0
LINE
 8
WHITE
 10
209.21
 20
91.7
 30
0.0000
 11
193.65
 21
91.7
 31
0.0000
 6
CONTINUOUS
 0
LINE
 8
WHITE
 10
193.65
 20
91.7
 30
0.0000
 11
193.65
 21
100.19
 31
0.0000
 6
CONTINUOUS
 0
LINE
 8
WHITE
 10
216.72
 20
91.7
 30
0.0000
 11
214.85
 21
91.7
 31
0.0000
 6
CONTINUOUS
 0
LINE
 8
WHITE
 10
214.85
 20
91.7
 30
0.0000
 11
214.06
 21
92.49
 31
0.0000
 6
CONTINUOUS
 0
LINE
 8
WHITE
 10
214.06
 20
92.49
 30
0.0000
 11
214.06
 21
92.67
 31
0.0000
 6
CONTINUOUS
 0
LINE
 8
WHITE
 10
214.06
 20
92.67
 30
0.0000
 11
214.72
 21
92.67
 31
0.0000
 6
CONTINUOUS
 0
ARC
 8
WHITE
 10
214.72
 20
93.07
 30
 0
 40
.4
 50
270
 51
0
 6
CONTINUOUS
 0
LINE
 8
WHITE
 10
215.12
 20
93.07
 30
0.0000
 11
215.12
 21
110.08
 31
0.0000
 6
CONTINUOUS
 0
ARC
 8
WHITE
 10
213.878
 20
108.514
 30
 0
 40
1.998729
 50
9.386746
 51
51.58194
 6
CONTINUOUS
 0
LINE
 8
WHITE
 10
215.85
 20
108.84
 30
0.0000
 11
218.59
 21
91.7
 31
0.0000
 6
CONTINUOUS
 0
LINE
 8
WHITE
 10
218.59
 20
91.7
 30
0.0000
 11
216.72
 21
91.7
 31
0.0000
 6
CONTINUOUS
 0
LINE
 8
WHITE
 10
212.77
 20
91.7
 30
0.0000
 11
214.05
 21
91.7
 31
0.0000
 6
CONTINUOUS
 0
LINE
 8
WHITE
 10
214.05
 20
91.7
 30
0.0000
 11
213.66
 21
92.09
 31
0.0000
 6
CONTINUOUS
 0
LINE
 8
WHITE
 10
213.66
 20
92.09
 30
0.0000
 11
213.3
 21
92.09
 31
0.0000
 6
CONTINUOUS
 0
LINE
 8
WHITE
 10
213.3
 20
92.09
 30
0.0000
 11
211.49
 21
91.7
 31
0.0000
 6
CONTINUOUS
 0
LINE
 8
WHITE
 10
211.49
 20
91.7
 30
0.0000
 11
212.77
 21
91.7
 31
0.0000
 6
CONTINUOUS
 0
LINE
 8
WHITE
 10
222.31
 20
103.17
 30
0.0000
 11
224.14
 21
91.7
 31
0.0000
 6
CONTINUOUS
 0
LINE
 8
WHITE
 10
224.14
 20
91.7
 30
0.0000
 11
229.3
 21
91.05
 31
0.0000
 6
CONTINUOUS
 0
LINE
 8
WHITE
 10
229.3
 20
91.05
 30
0.0000
 11
225.33
 21
114.03
 31
0.0000
 6
CONTINUOUS
 0
LINE
 8
WHITE
 10
225.33
 20
114.03
 30
0.0000
 11
220.47
 21
114.64
 31
0.0000
 6
CONTINUOUS
 0
LINE
 8
WHITE
 10
220.47
 20
114.64
 30
0.0000
 11
222.31
 21
103.17
 31
0.0000
 6
CONTINUOUS
 0
LINE
 8
WHITE
 10
264.33
 20
40.04
 30
0.0000
 11
265.11
 21
40.82
 31
0.0000
 6
CONTINUOUS
 0
ARC
 8
WHITE
 10
265.395
 20
40.545
 30
 0
 40
.396042
 50
43.97676
 51
136.023
 6
CONTINUOUS
 0
LINE
 8
WHITE
 10
265.68
 20
40.82
 30
0.0000
 11
265.82
 21
40.68
 31
0.0000
 6
CONTINUOUS
 0
ARC
 8
WHITE
 10
265.545
 20
40.395
 30
 0
 40
.396042
 50
313.9763
 51
46.02303
 6
CONTINUOUS
 0
LINE
 8
WHITE
 10
265.82
 20
40.11
 30
0.0000
 11
264.26
 21
38.56
 31
0.0000
 6
CONTINUOUS
 0
ARC
 8
WHITE
 10
263.98
 20
38.84
 30
 0
 40
.395979
 50
225
 51
315
 6
CONTINUOUS
 0
LINE
 8
WHITE
 10
263.7
 20
38.56
 30
0.0000
 11
263.56
 21
38.7
 31
0.0000
 6
CONTINUOUS
 0
ARC
 8
WHITE
 10
263.84
 20
38.98
 30
 0
 40
.395979
 50
135
 51
225
 6
CONTINUOUS
 0
LINE
 8
WHITE
 10
263.56
 20
39.26
 30
0.0000
 11
264.33
 21
40.04
 31
0.0000
 6
CONTINUOUS
 0
LINE
 8
WHITE
 10
261.65
 20
35.39
 30
0.0000
 11
261.36
 21
34.32
 31
0.0000
 6
CONTINUOUS
 0
ARC
 8
WHITE
 10
261.75
 20
34.22
 30
 0
 40
.402616
 50
165.6186
 51
255.6177
 6
CONTINUOUS
 0
LINE
 8
WHITE
 10
261.65
 20
33.83
 30
0.0000
 11
261.84
 21
33.78
 31
0.0000
 6
CONTINUOUS
 0
ARC
 8
WHITE
 10
261.94
 20
34.17
 30
 0
 40
.402616
 50
255.6186
 51
345.6183
 6
CONTINUOUS
 0
LINE
 8
WHITE
 10
262.33
 20
34.07
 30
0.0000
 11
262.9
 21
36.19
 31
0.0000
 6
CONTINUOUS
 0
ARC
 8
WHITE
 10
262.511
 20
36.293
 30
 0
 40
.402405
 50
345.1695
 51
74.26876
 6
CONTINUOUS
 0
LINE
 8
WHITE
 10
262.62
 20
36.68
 30
0.0000
 11
262.42
 21
36.73
 31
0.0000
 6
CONTINUOUS
 0
ARC
 8
WHITE
 10
262.317
 20
36.341
 30
 0
 40
.402405
 50
75.16947
 51
164.2707
 6
CONTINUOUS
 0
LINE
 8
WHITE
 10
261.93
 20
36.45
 30
0.0000
 11
261.65
 21
35.39
 31
0.0000
 6
CONTINUOUS
 0
LINE
 8
WHITE
 10
261.65
 20
30.01
 30
0.0000
 11
261.93
 21
28.95
 31
0.0000
 6
CONTINUOUS
 0
ARC
 8
WHITE
 10
262.317
 20
29.059
 30
 0
 40
.402057
 50
195.7301
 51
284.8343
 6
CONTINUOUS
 0
LINE
 8
WHITE
 10
262.42
 20
28.67
 30
0.0000
 11
262.62
 21
28.72
 31
0.0000
 6
CONTINUOUS
 0
ARC
 8
WHITE
 10
262.511
 20
29.107
 30
 0
 40
.402057
 50
285.7301
 51
14.83034
 6
CONTINUOUS
 0
LINE
 8
WHITE
 10
262.9
 20
29.21
 30
0.0000
 11
262.33
 21
31.33
 31
0.0000
 6
CONTINUOUS
 0
ARC
 8
WHITE
 10
261.94
 20
31.23
 30
 0
 40
.402616
 50
14.3814
 51
104.378
 6
CONTINUOUS
 0
LINE
 8
WHITE
 10
261.84
 20
31.62
 30
0.0000
 11
261.65
 21
31.57
 31
0.0000
 6
CONTINUOUS
 0
ARC
 8
WHITE
 10
261.75
 20
31.18
 30
 0
 40
.402616
 50
104.3814
 51
194.3809
 6
CONTINUOUS
 0
LINE
 8
WHITE
 10
261.36
 20
31.08
 30
0.0000
 11
261.65
 21
30.01
 31
0.0000
 6
CONTINUOUS
 0
LINE
 8
WHITE
 10
264.33
 20
25.36
 30
0.0000
 11
263.56
 21
26.14
 31
0.0000
 6
CONTINUOUS
 0
ARC
 8
WHITE
 10
263.84
 20
26.42
 30
 0
 40
.395979
 50
134.9998
 51
225
 6
CONTINUOUS
 0
LINE
 8
WHITE
 10
263.56
 20
26.7
 30
0.0000
 11
263.7
 21
26.84
 31
0.0000
 6
CONTINUOUS
 0
ARC
 8
WHITE
 10
263.98
 20
26.56
 30
 0
 40
.395979
 50
45.00019
 51
135
 6
CONTINUOUS
 0
LINE
 8
WHITE
 10
264.26
 20
26.84
 30
0.0000
 11
265.82
 21
25.29
 31
0.0000
 6
CONTINUOUS
 0
ARC
 8
WHITE
 10
265.545
 20
25.005
 30
 0
 40
.396042
 50
313.9762
 51
46.02303
 6
CONTINUOUS
 0
LINE
 8
WHITE
 10
265.82
 20
24.72
 30
0.0000
 11
265.68
 21
24.58
 31
0.0000
 6
CONTINUOUS
 0
ARC
 8
WHITE
 10
265.395
 20
24.855
 30
 0
 40
.396042
 50
223.9766
 51
316.023
 6
CONTINUOUS
 0
LINE
 8
WHITE
 10
265.11
 20
24.58
 30
0.0000
 11
264.33
 21
25.36
 31
0.0000
 6
CONTINUOUS
 0
LINE
 8
WHITE
 10
268.99
 20
22.67
 30
0.0000
 11
270.05
 21
22.39
 31
0.0000
 6
CONTINUOUS
 0
ARC
 8
WHITE
 10
270.153
 20
22.779
 30
 0
 40
.402405
 50
255.1695
 51
344.271
 6
CONTINUOUS
 0
LINE
 8
WHITE
 10
270.54
 20
22.67
 30
0.0000
 11
270.59
 21
22.86
 31
0.0000
 6
CONTINUOUS
 0
ARC
 8
WHITE
 10
270.201
 20
22.963
 30
 0
 40
.402405
 50
345.1695
 51
74.26869
 6
CONTINUOUS
 0
LINE
 8
WHITE
 10
270.31
 20
23.35
 30
0.0000
 11
268.19
 21
23.92
 31
0.0000
 6
CONTINUOUS
 0
ARC
 8
WHITE
 10
268.087
 20
23.531
 30
 0
 40
.402405
 50
75.16947
 51
164.2698
 6
CONTINUOUS
 0
LINE
 8
WHITE
 10
267.7
 20
23.64
 30
0.0000
 11
267.64
 21
23.45
 31
0.0000
 6
CONTINUOUS
 0
ARC
 8
WHITE
 10
268.03
 20
23.35
 30
 0
 40
.402616
 50
165.6186
 51
255.6136
 6
CONTINUOUS
 0
LINE
 8
WHITE
 10
267.93
 20
22.96
 30
0.0000
 11
268.99
 21
22.67
 31
0.0000
 6
CONTINUOUS
 0
LINE
 8
WHITE
 10
274.36
 20
22.67
 30
0.0000
 11
273.3
 21
22.39
 31
0.0000
 6
CONTINUOUS
 0
ARC
 8
WHITE
 10
273.197
 20
22.779
 30
 0
 40
.402405
 50
195.7302
 51
284.8305
 6
CONTINUOUS
 0
LINE
 8
WHITE
 10
272.81
 20
22.67
 30
0.0000
 11
272.76
 21
22.86
 31
0.0000
 6
CONTINUOUS
 0
ARC
 8
WHITE
 10
273.149
 20
22.963
 30
 0
 40
.402405
 50
105.7313
 51
194.8305
 6
CONTINUOUS
 0
LINE
 8
WHITE
 10
273.04
 20
23.35
 30
0.0000
 11
275.17
 21
23.92
 31
0.0000
 6
CONTINUOUS
 0
ARC
 8
WHITE
 10
275.273
 20
23.531
 30
 0
 40
.402405
 50
15.73022
 51
104.8305
 6
CONTINUOUS
 0
LINE
 8
WHITE
 10
275.66
 20
23.64
 30
0.0000
 11
275.71
 21
23.45
 31
0.0000
 6
CONTINUOUS
 0
ARC
 8
WHITE
 10
275.321
 20
23.347
 30
 0
 40
.402405
 50
285.7312
 51
14.83053
 6
CONTINUOUS
 0
LINE
 8
WHITE
 10
275.43
 20
22.96
 30
0.0000
 11
274.36
 21
22.67
 31
0.0000
 6
CONTINUOUS
 0
LINE
 8
WHITE
 10
279.02
 20
25.36
 30
0.0000
 11
278.24
 21
24.58
 31
0.0000
 6
CONTINUOUS
 0
ARC
 8
WHITE
 10
277.955
 20
24.855
 30
 0
 40
.396042
 50
223.9796
 51
316.023
 6
CONTINUOUS
 0
LINE
 8
WHITE
 10
277.67
 20
24.58
 30
0.0000
 11
277.53
 21
24.72
 31
0.0000
 6
CONTINUOUS
 0
ARC
 8
WHITE
 10
277.805
 20
25.005
 30
 0
 40
.396042
 50
133.9762
 51
226.023
 6
CONTINUOUS
 0
LINE
 8
WHITE
 10
277.53
 20
25.29
 30
0.0000
 11
279.09
 21
26.84
 31
0.0000
 6
CONTINUOUS
 0
ARC
 8
WHITE
 10
279.37
 20
26.56
 30
 0
 40
.395979
 50
45.00019
 51
135
 6
CONTINUOUS
 0
LINE
 8
WHITE
 10
279.65
 20
26.84
 30
0.0000
 11
279.79
 21
26.7
 31
0.0000
 6
CONTINUOUS
 0
ARC
 8
WHITE
 10
279.51
 20
26.42
 30
 0
 40
.395979
 50
314.9998
 51
45
 6
CONTINUOUS
 0
LINE
 8
WHITE
 10
279.79
 20
26.14
 30
0.0000
 11
279.02
 21
25.36
 31
0.0000
 6
CONTINUOUS
 0
LINE
 8
WHITE
 10
281.7
 20
30.01
 30
0.0000
 11
281.42
 21
28.95
 31
0.0000
 6
CONTINUOUS
 0
ARC
 8
WHITE
 10
281.033
 20
29.059
 30
 0
 40
.402057
 50
255.1657
 51
344.2699
 6
CONTINUOUS
 0
LINE
 8
WHITE
 10
280.93
 20
28.67
 30
0.0000
 11
280.74
 21
28.72
 31
0.0000
 6
CONTINUOUS
 0
ARC
 8
WHITE
 10
280.84
 20
29.11
 30
 0
 40
.402616
 50
165.618
 51
255.6186
 6
CONTINUOUS
 0
LINE
 8
WHITE
 10
280.45
 20
29.21
 30
0.0000
 11
281.02
 21
31.33
 31
0.0000
 6
CONTINUOUS
 0
ARC
 8
WHITE
 10
281.41
 20
31.23
 30
 0
 40
.402616
 50
75.61781
 51
165.6186
 6
CONTINUOUS
 0
LINE
 8
WHITE
 10
281.51
 20
31.62
 30
0.0000
 11
281.71
 21
31.57
 31
0.0000
 6
CONTINUOUS
 0
ARC
 8
WHITE
 10
281.601
 20
31.183
 30
 0
 40
.402057
 50
345.1696
 51
74.26993
 6
CONTINUOUS
 0
LINE
 8
WHITE
 10
281.99
 20
31.08
 30
0.0000
 11
281.7
 21
30.01
 31
0.0000
 6
CONTINUOUS
 0
LINE
 8
WHITE
 10
281.7
 20
35.39
 30
0.0000
 11
281.99
 21
34.32
 31
0.0000
 6
CONTINUOUS
 0
ARC
 8
WHITE
 10
281.601
 20
34.217
 30
 0
 40
.402405
 50
285.7314
 51
14.83053
 6
CONTINUOUS
 0
LINE
 8
WHITE
 10
281.71
 20
33.83
 30
0.0000
 11
281.51
 21
33.78
 31
0.0000
 6
CONTINUOUS
 0
ARC
 8
WHITE
 10
281.41
 20
34.17
 30
 0
 40
.402616
 50
194.3807
 51
284.3814
 6
CONTINUOUS
 0
LINE
 8
WHITE
 10
281.02
 20
34.07
 30
0.0000
 11
280.45
 21
36.19
 31
0.0000
 6
CONTINUOUS
 0
ARC
 8
WHITE
 10
280.84
 20
36.29
 30
 0
 40
.402616
 50
104.3863
 51
194.3814
 6
CONTINUOUS
 0
LINE
 8
WHITE
 10
280.74
 20
36.68
 30
0.0000
 11
280.93
 21
36.73
 31
0.0000
 6
CONTINUOUS
 0
ARC
 8
WHITE
 10
281.033
 20
36.341
 30
 0
 40
.402405
 50
15.72931
 51
104.8305
 6
CONTINUOUS
 0
LINE
 8
WHITE
 10
281.42
 20
36.45
 30
0.0000
 11
281.7
 21
35.39
 31
0.0000
 6
CONTINUOUS
 0
LINE
 8
WHITE
 10
279.02
 20
40.04
 30
0.0000
 11
279.79
 21
39.26
 31
0.0000
 6
CONTINUOUS
 0
ARC
 8
WHITE
 10
279.51
 20
38.98
 30
 0
 40
.395979
 50
315
 51
45
 6
CONTINUOUS
 0
LINE
 8
WHITE
 10
279.79
 20
38.7
 30
0.0000
 11
279.65
 21
38.56
 31
0.0000
 6
CONTINUOUS
 0
ARC
 8
WHITE
 10
279.37
 20
38.84
 30
 0
 40
.395979
 50
225
 51
315
 6
CONTINUOUS
 0
LINE
 8
WHITE
 10
279.09
 20
38.56
 30
0.0000
 11
277.53
 21
40.11
 31
0.0000
 6
CONTINUOUS
 0
ARC
 8
WHITE
 10
277.805
 20
40.395
 30
 0
 40
.396042
 50
133.9763
 51
226.023
 6
CONTINUOUS
 0
LINE
 8
WHITE
 10
277.53
 20
40.68
 30
0.0000
 11
277.67
 21
40.82
 31
0.0000
 6
CONTINUOUS
 0
ARC
 8
WHITE
 10
277.955
 20
40.545
 30
 0
 40
.396042
 50
43.97983
 51
136.023
 6
CONTINUOUS
 0
LINE
 8
WHITE
 10
278.24
 20
40.82
 30
0.0000
 11
279.02
 21
40.04
 31
0.0000
 6
CONTINUOUS
 0
LINE
 8
WHITE
 10
274.36
 20
42.73
 30
0.0000
 11
275.43
 21
42.44
 31
0.0000
 6
CONTINUOUS
 0
ARC
 8
WHITE
 10
275.321
 20
42.053
 30
 0
 40
.402057
 50
345.1702
 51
74.26993
 6
CONTINUOUS
 0
LINE
 8
WHITE
 10
275.71
 20
41.95
 30
0.0000
 11
275.66
 21
41.76
 31
0.0000
 6
CONTINUOUS
 0
ARC
 8
WHITE
 10
275.273
 20
41.869
 30
 0
 40
.402057
 50
255.1699
 51
344.2699
 6
CONTINUOUS
 0
LINE
 8
WHITE
 10
275.17
 20
41.48
 30
0.0000
 11
273.04
 21
42.05
 31
0.0000
 6
CONTINUOUS
 0
ARC
 8
WHITE
 10
273.149
 20
42.437
 30
 0
 40
.402057
 50
165.1697
 51
254.2699
 6
CONTINUOUS
 0
LINE
 8
WHITE
 10
272.76
 20
42.54
 30
0.0000
 11
272.81
 21
42.73
 31
0.0000
 6
CONTINUOUS
 0
ARC
 8
WHITE
 10
273.197
 20
42.621
 30
 0
 40
.402057
 50
75.16991
 51
164.2699
 6
CONTINUOUS
 0
LINE
 8
WHITE
 10
273.3
 20
43.01
 30
0.0000
 11
274.36
 21
42.73
 31
0.0000
 6
CONTINUOUS
 0
LINE
 8
WHITE
 10
268.99
 20
42.73
 30
0.0000
 11
270.05
 21
43.01
 31
0.0000
 6
CONTINUOUS
 0
ARC
 8
WHITE
 10
270.153
 20
42.621
 30
 0
 40
.402405
 50
15.72931
 51
104.8305
 6
CONTINUOUS
 0
LINE
 8
WHITE
 10
270.54
 20
42.73
 30
0.0000
 11
270.59
 21
42.54
 31
0.0000
 6
CONTINUOUS
 0
ARC
 8
WHITE
 10
270.201
 20
42.437
 30
 0
 40
.402405
 50
285.7312
 51
14.83053
 6
CONTINUOUS
 0
LINE
 8
WHITE
 10
270.31
 20
42.05
 30
0.0000
 11
268.19
 21
41.48
 31
0.0000
 6
CONTINUOUS
 0
ARC
 8
WHITE
 10
268.087
 20
41.869
 30
 0
 40
.402405
 50
195.7305
 51
284.8305
 6
CONTINUOUS
 0
LINE
 8
WHITE
 10
267.7
 20
41.76
 30
0.0000
 11
267.64
 21
41.95
 31
0.0000
 6
CONTINUOUS
 0
ARC
 8
WHITE
 10
268.03
 20
42.05
 30
 0
 40
.402616
 50
104.3865
 51
194.3814
 6
CONTINUOUS
 0
LINE
 8
WHITE
 10
267.93
 20
42.44
 30
0.0000
 11
268.99
 21
42.73
 31
0.0000
 6
CONTINUOUS
 0
LINE
 8
WHITE
 10
76.92
 20
38.84
 30
0.0000
 11
76.27
 21
38.1
 31
0.0000
 6
CONTINUOUS
 0
ARC
 8
WHITE
 10
76.53999
 20
37.86
 30
 0
 40
.361247
 50
138.3665
 51
228.3673
 6
CONTINUOUS
 0
LINE
 8
WHITE
 10
76.3
 20
37.59
 30
0.0000
 11
76.44
 21
37.47
 31
0.0000
 6
CONTINUOUS
 0
ARC
 8
WHITE
 10
76.68
 20
37.74
 30
 0
 40
.361247
 50
228.3665
 51
318.3659
 6
CONTINUOUS
 0
LINE
 8
WHITE
 10
76.95
 20
37.5
 30
0.0000
 11
78.25
 21
39
 31
0.0000
 6
CONTINUOUS
 0
ARC
 8
WHITE
 10
77.971
 20
39.229
 30
 0
 40
.360945
 50
320.6212
 51
48.5905
 6
CONTINUOUS
 0
LINE
 8
WHITE
 10
78.21
 20
39.5
 30
0.0000
 11
78.08
 21
39.62
 31
0.0000
 6
CONTINUOUS
 0
ARC
 8
WHITE
 10
77.84
 20
39.35
 30
 0
 40
.361247
 50
48.36646
 51
138.3667
 6
CONTINUOUS
 0
LINE
 8
WHITE
 10
77.57
 20
39.59
 30
0.0000
 11
76.92
 21
38.84
 31
0.0000
 6
CONTINUOUS
 0
LINE
 8
WHITE
 10
74.79
 20
34.5
 30
0.0000
 11
74.98
 21
35.47
 31
0.0000
 6
CONTINUOUS
 0
ARC
 8
WHITE
 10
75.33
 20
35.402
 30
 0
 40
.356544
 50
77.05319
 51
169.0052
 6
CONTINUOUS
 0
LINE
 8
WHITE
 10
75.41
 20
35.75
 30
0.0000
 11
75.58
 21
35.72
 31
0.0000
 6
CONTINUOUS
 0
ARC
 8
WHITE
 10
75.52
 20
35.368
 30
 0
 40
.357077
 50
349.0051
 51
80.32664
 6
CONTINUOUS
 0
LINE
 8
WHITE
 10
75.87
 20
35.3
 30
0.0000
 11
75.49
 21
33.35
 31
0.0000
 6
CONTINUOUS
 0
ARC
 8
WHITE
 10
75.14
 20
33.418
 30
 0
 40
.356544
 50
257.0532
 51
349.0052
 6
CONTINUOUS
 0
LINE
 8
WHITE
 10
75.06
 20
33.07
 30
0.0000
 11
74.89
 21
33.1
 31
0.0000
 6
CONTINUOUS
 0
ARC
 8
WHITE
 10
74.948
 20
33.452
 30
 0
 40
.356746
 50
167.3668
 51
260.6433
 6
CONTINUOUS
 0
LINE
 8
WHITE
 10
74.6
 20
33.53
 30
0.0000
 11
74.79
 21
34.5
 31
0.0000
 6
CONTINUOUS
 0
LINE
 8
WHITE
 10
75.12
 20
29.67
 30
0.0000
 11
74.8
 21
30.61
 31
0.0000
 6
CONTINUOUS
 0
ARC
 8
WHITE
 10
75.14101
 20
30.727
 30
 0
 40
.360513
 50
107.9336
 51
198.9375
 6
CONTINUOUS
 0
LINE
 8
WHITE
 10
75.03
 20
31.07
 30
0.0000
 11
75.2
 21
31.12
 31
0.0000
 6
CONTINUOUS
 0
ARC
 8
WHITE
 10
75.311
 20
30.777
 30
 0
 40
.360513
 50
19.94202
 51
107.9324
 6
CONTINUOUS
 0
LINE
 8
WHITE
 10
75.65
 20
30.9
 30
0.0000
 11
76.29
 21
29.03
 31
0.0000
 6
CONTINUOUS
 0
ARC
 8
WHITE
 10
75.95
 20
28.91
 30
 0
 40
.360555
 50
289.4393
 51
19.44003
 6
CONTINUOUS
 0
LINE
 8
WHITE
 10
76.07
 20
28.57
 30
0.0000
 11
75.9
 21
28.51
 31
0.0000
 6
CONTINUOUS
 0
ARC
 8
WHITE
 10
75.783
 20
28.851
 30
 0
 40
.360513
 50
197.9323
 51
288.9375
 6
CONTINUOUS
 0
LINE
 8
WHITE
 10
75.44
 20
28.74
 30
0.0000
 11
75.12
 21
29.67
 31
0.0000
 6
CONTINUOUS
 0
LINE
 8
WHITE
 10
77.82
 20
25.66
 30
0.0000
 11
77.07
 21
26.31
 31
0.0000
 6
CONTINUOUS
 0
ARC
 8
WHITE
 10
77.31
 20
26.58
 30
 0
 40
.361247
 50
138.3661
 51
228.3665
 6
CONTINUOUS
 0
LINE
 8
WHITE
 10
77.04
 20
26.82
 30
0.0000
 11
77.16
 21
26.95
 31
0.0000
 6
CONTINUOUS
 0
ARC
 8
WHITE
 10
77.43501
 20
26.716
 30
 0
 40
.361083
 50
49.38216
 51
139.6052
 6
CONTINUOUS
 0
LINE
 8
WHITE
 10
77.67
 20
26.99
 30
0.0000
 11
79.16
 21
25.69
 31
0.0000
 6
CONTINUOUS
 0
ARC
 8
WHITE
 10
78.92001
 20
25.42
 30
 0
 40
.361247
 50
318.3661
 51
48.36646
 6
CONTINUOUS
 0
LINE
 8
WHITE
 10
79.19
 20
25.18
 30
0.0000
 11
79.07
 21
25.04
 31
0.0000
 6
CONTINUOUS
 0
ARC
 8
WHITE
 10
78.804
 20
25.285
 30
 0
 40
.361636
 50
229.6053
 51
317.3533
 6
CONTINUOUS
 0
LINE
 8
WHITE
 10
78.57
 20
25.01
 30
0.0000
 11
77.82
 21
25.66
 31
0.0000
 6
CONTINUOUS
 0
LINE
 8
WHITE
 10
82.16
 20
23.53
 30
0.0000
 11
83.14
 21
23.34
 31
0.0000
 6
CONTINUOUS
 0
ARC
 8
WHITE
 10
83.21
 20
23.69
 30
 0
 40
.356931
 50
258.6901
 51
348.6901
 6
CONTINUOUS
 0
LINE
 8
WHITE
 10
83.56
 20
23.62
 30
0.0000
 11
83.59
 21
23.8
 31
0.0000
 6
CONTINUOUS
 0
ARC
 8
WHITE
 10
83.24
 20
23.87
 30
 0
 40
.356931
 50
348.6901
 51
78.69012
 6
CONTINUOUS
 0
LINE
 8
WHITE
 10
83.31
 20
24.22
 30
0.0000
 11
81.37
 21
24.6
 31
0.0000
 6
CONTINUOUS
 0
ARC
 8
WHITE
 10
81.29
 20
24.252
 30
 0
 40
.357077
 50
77.05349
 51
169.0054
 6
CONTINUOUS
 0
LINE
 8
WHITE
 10
80.94
 20
24.32
 30
0.0000
 11
80.91
 21
24.14
 31
0.0000
 6
CONTINUOUS
 0
ARC
 8
WHITE
 10
81.26
 20
24.07
 30
 0
 40
.356931
 50
168.6901
 51
258.6901
 6
CONTINUOUS
 0
LINE
 8
WHITE
 10
81.19
 20
23.72
 30
0.0000
 11
82.16
 21
23.53
 31
0.0000
 6
CONTINUOUS
 0
LINE
 8
WHITE
 10
86.99
 20
23.86
 30
0.0000
 11
87.93
 21
24.18
 31
0.0000
 6
CONTINUOUS
 0
ARC
 8
WHITE
 10
87.81
 20
24.52
 30
 0
 40
.360555
 50
289.44
 51
19.43966
 6
CONTINUOUS
 0
LINE
 8
WHITE
 10
88.15
 20
24.64
 30
0.0000
 11
88.09
 21
24.81
 31
0.0000
 6
CONTINUOUS
 0
ARC
 8
WHITE
 10
87.751
 20
24.687
 30
 0
 40
.360624
 50
19.94239
 51
107.9324
 6
CONTINUOUS
 0
LINE
 8
WHITE
 10
87.64
 20
25.03
 30
0.0000
 11
85.76
 21
24.39
 31
0.0000
 6
CONTINUOUS
 0
ARC
 8
WHITE
 10
85.88
 20
24.05
 30
 0
 40
.360555
 50
109.44
 51
199.4397
 6
CONTINUOUS
 0
LINE
 8
WHITE
 10
85.54
 20
23.93
 30
0.0000
 11
85.6
 21
23.76
 31
0.0000
 6
CONTINUOUS
 0
ARC
 8
WHITE
 10
85.939
 20
23.883
 30
 0
 40
.360624
 50
199.9424
 51
287.9336
 6
CONTINUOUS
 0
LINE
 8
WHITE
 10
86.05
 20
23.54
 30
0.0000
 11
86.99
 21
23.86
 31
0.0000
 6
CONTINUOUS
 0
LINE
 8
WHITE
 10
91
 20
26.56
 30
0.0000
 11
90.35
 21
25.81
 31
0.0000
 6
CONTINUOUS
 0
ARC
 8
WHITE
 10
90.084
 20
26.055
 30
 0
 40
.361636
 50
229.6051
 51
317.3533
 6
CONTINUOUS
 0
LINE
 8
WHITE
 10
89.85
 20
25.78
 30
0.0000
 11
89.71
 21
25.9
 31
0.0000
 6
CONTINUOUS
 0
ARC
 8
WHITE
 10
89.955
 20
26.166
 30
 0
 40
.361636
 50
139.6055
 51
227.3533
 6
CONTINUOUS
 0
LINE
 8
WHITE
 10
89.68
 20
26.4
 30
0.0000
 11
90.98
 21
27.9
 31
0.0000
 6
CONTINUOUS
 0
ARC
 8
WHITE
 10
91.246
 20
27.655
 30
 0
 40
.361636
 50
49.60526
 51
137.3533
 6
CONTINUOUS
 0
LINE
 8
WHITE
 10
91.48
 20
27.93
 30
0.0000
 11
91.62
 21
27.81
 31
0.0000
 6
CONTINUOUS
 0
ARC
 8
WHITE
 10
91.38
 20
27.54
 30
 0
 40
.361247
 50
318.3661
 51
48.36646
 6
CONTINUOUS
 0
LINE
 8
WHITE
 10
91.65
 20
27.3
 30
0.0000
 11
91
 21
26.56
 31
0.0000
 6
CONTINUOUS
 0
LINE
 8
WHITE
 10
93.13
 20
30.9
 30
0.0000
 11
92.94
 21
29.93
 31
0.0000
 6
CONTINUOUS
 0
ARC
 8
WHITE
 10
92.59
 20
30
 30
 0
 40
.356931
 50
258.6889
 51
348.6901
 6
CONTINUOUS
 0
LINE
 8
WHITE
 10
92.52
 20
29.65
 30
0.0000
 11
92.34
 21
29.68
 31
0.0000
 6
CONTINUOUS
 0
ARC
 8
WHITE
 10
92.41
 20
30.03
 30
 0
 40
.356931
 50
168.6901
 51
258.6901
 6
CONTINUOUS
 0
LINE
 8
WHITE
 10
92.06
 20
30.1
 30
0.0000
 11
92.44
 21
32.05
 31
0.0000
 6
CONTINUOUS
 0
ARC
 8
WHITE
 10
92.79
 20
31.98
 30
 0
 40
.356931
 50
78.69019
 51
168.6901
 6
CONTINUOUS
 0
LINE
 8
WHITE
 10
92.86
 20
32.33
 30
0.0000
 11
93.04
 21
32.3
 31
0.0000
 6
CONTINUOUS
 0
ARC
 8
WHITE
 10
92.972
 20
31.95
 30
 0
 40
.356544
 50
347.0538
 51
79.00523
 6
CONTINUOUS
 0
LINE
 8
WHITE
 10
93.32
 20
31.87
 30
0.0000
 11
93.13
 21
30.9
 31
0.0000
 6
CONTINUOUS
 0
LINE
 8
WHITE
 10
92.8
 20
35.73
 30
0.0000
 11
93.12
 21
34.79
 31
0.0000
 6
CONTINUOUS
 0
ARC
 8
WHITE
 10
92.78001
 20
34.67
 30
 0
 40
.360555
 50
289.4393
 51
19.44003
 6
CONTINUOUS
 0
LINE
 8
WHITE
 10
92.9
 20
34.33
 30
0.0000
 11
92.73
 21
34.28
 31
0.0000
 6
CONTINUOUS
 0
ARC
 8
WHITE
 10
92.61
 20
34.62
 30
 0
 40
.360555
 50
199.4397
 51
289.44
 6
CONTINUOUS
 0
LINE
 8
WHITE
 10
92.27
 20
34.5
 30
0.0000
 11
91.63
 21
36.37
 31
0.0000
 6
CONTINUOUS
 0
ARC
 8
WHITE
 10
91.96999
 20
36.49
 30
 0
 40
.360555
 50
109.4391
 51
199.44
 6
CONTINUOUS
 0
LINE
 8
WHITE
 10
91.85
 20
36.83
 30
0.0000
 11
92.02
 21
36.89
 31
0.0000
 6
CONTINUOUS
 0
ARC
 8
WHITE
 10
92.13699
 20
36.549
 30
 0
 40
.360513
 50
17.93189
 51
108.9375
 6
CONTINUOUS
 0
LINE
 8
WHITE
 10
92.48
 20
36.66
 30
0.0000
 11
92.8
 21
35.73
 31
0.0000
 6
CONTINUOUS
 0
LINE
 8
WHITE
 10
90.1
 20
39.74
 30
0.0000
 11
90.85
 21
39.09
 31
0.0000
 6
CONTINUOUS
 0
ARC
 8
WHITE
 10
90.61
 20
38.82
 30
 0
 40
.361247
 50
318.3664
 51
48.36646
 6
CONTINUOUS
 0
LINE
 8
WHITE
 10
90.88
 20
38.58
 30
0.0000
 11
90.77
 21
38.45
 31
0.0000
 6
CONTINUOUS
 0
ARC
 8
WHITE
 10
90.495
 20
38.684
 30
 0
 40
.361083
 50
229.3826
 51
319.6052
 6
CONTINUOUS
 0
LINE
 8
WHITE
 10
90.26
 20
38.41
 30
0.0000
 11
88.77
 21
39.71
 31
0.0000
 6
CONTINUOUS
 0
ARC
 8
WHITE
 10
89.004
 20
39.985
 30
 0
 40
.361083
 50
139.3808
 51
229.6053
 6
CONTINUOUS
 0
LINE
 8
WHITE
 10
88.73
 20
40.22
 30
0.0000
 11
88.85
 21
40.36
 31
0.0000
 6
CONTINUOUS
 0
ARC
 8
WHITE
 10
89.12
 20
40.12
 30
 0
 40
.361247
 50
48.36586
 51
138.3665
 6
CONTINUOUS
 0
LINE
 8
WHITE
 10
89.36
 20
40.39
 30
0.0000
 11
90.1
 21
39.74
 31
0.0000
 6
CONTINUOUS
 0
LINE
 8
WHITE
 10
85.76
 20
41.87
 30
0.0000
 11
84.79
 21
42.06
 31
0.0000
 6
CONTINUOUS
 0
ARC
 8
WHITE
 10
84.72
 20
41.71
 30
 0
 40
.356931
 50
78.69007
 51
168.6907
 6
CONTINUOUS
 0
LINE
 8
WHITE
 10
84.37
 20
41.78
 30
0.0000
 11
84.33
 21
41.6
 31
0.0000
 6
CONTINUOUS
 0
ARC
 8
WHITE
 10
84.68
 20
41.53
 30
 0
 40
.356931
 50
168.6901
 51
258.6901
 6
CONTINUOUS
 0
LINE
 8
WHITE
 10
84.61
 20
41.18
 30
0.0000
 11
86.56
 21
40.8
 31
0.0000
 6
CONTINUOUS
 0
ARC
 8
WHITE
 10
86.63
 20
41.15
 30
 0
 40
.356931
 50
258.6901
 51
348.6909
 6
CONTINUOUS
 0
LINE
 8
WHITE
 10
86.98
 20
41.08
 30
0.0000
 11
87.01
 21
41.26
 31
0.0000
 6
CONTINUOUS
 0
ARC
 8
WHITE
 10
86.66
 20
41.33
 30
 0
 40
.356931
 50
348.6901
 51
78.69019
 6
CONTINUOUS
 0
LINE
 8
WHITE
 10
86.73
 20
41.68
 30
0.0000
 11
85.76
 21
41.87
 31
0.0000
 6
CONTINUOUS
 0
LINE
 8
WHITE
 10
80.93
 20
41.54
 30
0.0000
 11
80
 21
41.22
 31
0.0000
 6
CONTINUOUS
 0
ARC
 8
WHITE
 10
80.111
 20
40.877
 30
 0
 40
.360513
 50
107.9324
 51
198.938
 6
CONTINUOUS
 0
LINE
 8
WHITE
 10
79.77
 20
40.76
 30
0.0000
 11
79.83
 21
40.59
 31
0.0000
 6
CONTINUOUS
 0
ARC
 8
WHITE
 10
80.17
 20
40.71
 30
 0
 40
.360555
 50
199.44
 51
289.4404
 6
CONTINUOUS
 0
LINE
 8
WHITE
 10
80.29
 20
40.37
 30
0.0000
 11
82.16
 21
41.01
 31
0.0000
 6
CONTINUOUS
 0
ARC
 8
WHITE
 10
82.049
 20
41.353
 30
 0
 40
.360513
 50
287.9324
 51
18.93841
 6
CONTINUOUS
 0
LINE
 8
WHITE
 10
82.39
 20
41.47
 30
0.0000
 11
82.33
 21
41.64
 31
0.0000
 6
CONTINUOUS
 0
ARC
 8
WHITE
 10
81.99001
 20
41.52
 30
 0
 40
.360555
 50
19.44003
 51
109.4404
 6
CONTINUOUS
 0
LINE
 8
WHITE
 10
81.87
 20
41.86
 30
0.0000
 11
80.93
 21
41.54
 31
0.0000
 6
CONTINUOUS
 0
LINE
 8
WHITE
 10
34.87
 20
40.54
 30
0.0000
 11
35.7
 21
41.08
 31
0.0000
 6
CONTINUOUS
 0
ARC
 8
WHITE
 10
35.895
 20
40.777
 30
 0
 40
.360324
 50
32.32517
 51
122.7639
 6
CONTINUOUS
 0
LINE
 8
WHITE
 10
36.2
 20
40.97
 30
0.0000
 11
36.3
 21
40.82
 31
0.0000
 6
CONTINUOUS
 0
ARC
 8
WHITE
 10
35.997
 20
40.625
 30
 0
 40
.360324
 50
302.3252
 51
32.76389
 6
CONTINUOUS
 0
LINE
 8
WHITE
 10
36.19
 20
40.32
 30
0.0000
 11
34.53
 21
39.24
 31
0.0000
 6
CONTINUOUS
 0
ARC
 8
WHITE
 10
34.342
 20
39.547
 30
 0
 40
.35999
 50
213.1176
 51
301.4824
 6
CONTINUOUS
 0
LINE
 8
WHITE
 10
34.04
 20
39.35
 30
0.0000
 11
33.94
 21
39.5
 31
0.0000
 6
CONTINUOUS
 0
ARC
 8
WHITE
 10
34.24
 20
39.7
 30
 0
 40
.360555
 50
123.6897
 51
213.6901
 6
CONTINUOUS
 0
LINE
 8
WHITE
 10
34.04
 20
40
 30
0.0000
 11
34.87
 21
40.54
 31
0.0000
 6
CONTINUOUS
 0
LINE
 8
WHITE
 10
31.64
 20
36.94
 30
0.0000
 11
32.09
 21
37.83
 31
0.0000
 6
CONTINUOUS
 0
ARC
 8
WHITE
 10
32.406
 20
37.662
 30
 0
 40
.357882
 50
62.7189
 51
152.0029
 6
CONTINUOUS
 0
LINE
 8
WHITE
 10
32.57
 20
37.98
 30
0.0000
 11
32.73
 21
37.9
 31
0.0000
 6
CONTINUOUS
 0
ARC
 8
WHITE
 10
32.57
 20
37.58
 30
 0
 40
.35777
 50
333.4344
 51
63.43494
 6
CONTINUOUS
 0
LINE
 8
WHITE
 10
32.89
 20
37.42
 30
0.0000
 11
31.99
 21
35.65
 31
0.0000
 6
CONTINUOUS
 0
ARC
 8
WHITE
 10
31.674
 20
35.818
 30
 0
 40
.357882
 50
242.7189
 51
332.0029
 6
CONTINUOUS
 0
LINE
 8
WHITE
 10
31.51
 20
35.5
 30
0.0000
 11
31.34
 21
35.58
 31
0.0000
 6
CONTINUOUS
 0
ARC
 8
WHITE
 10
31.508
 20
35.896
 30
 0
 40
.357882
 50
152.719
 51
242.0029
 6
CONTINUOUS
 0
LINE
 8
WHITE
 10
31.19
 20
36.06
 30
0.0000
 11
31.64
 21
36.94
 31
0.0000
 6
CONTINUOUS
 0
LINE
 8
WHITE
 10
30.63
 20
32.21
 30
0.0000
 11
30.58
 21
33.2
 31
0.0000
 6
CONTINUOUS
 0
ARC
 8
WHITE
 10
30.94
 20
33.22
 30
 0
 40
.360555
 50
93.17989
 51
183.1798
 6
CONTINUOUS
 0
LINE
 8
WHITE
 10
30.92
 20
33.58
 30
0.0000
 11
31.1
 21
33.58
 31
0.0000
 6
CONTINUOUS
 0
ARC
 8
WHITE
 10
31.12
 20
33.22
 30
 0
 40
.360555
 50
4.763465
 51
93.17983
 6
CONTINUOUS
 0
LINE
 8
WHITE
 10
31.48
 20
33.25
 30
0.0000
 11
31.58
 21
31.27
 31
0.0000
 6
CONTINUOUS
 0
ARC
 8
WHITE
 10
31.22
 20
31.25
 30
 0
 40
.360555
 50
273.1799
 51
3.179829
 6
CONTINUOUS
 0
LINE
 8
WHITE
 10
31.24
 20
30.89
 30
0.0000
 11
31.06
 21
30.89
 31
0.0000
 6
CONTINUOUS
 0
ARC
 8
WHITE
 10
31.04
 20
31.25
 30
 0
 40
.360555
 50
184.7638
 51
273.1798
 6
CONTINUOUS
 0
LINE
 8
WHITE
 10
30.68
 20
31.22
 30
0.0000
 11
30.63
 21
32.21
 31
0.0000
 6
CONTINUOUS
 0
LINE
 8
WHITE
 10
32.12
 20
27.61
 30
0.0000
 11
31.59
 21
28.44
 31
0.0000
 6
CONTINUOUS
 0
ARC
 8
WHITE
 10
31.89
 20
28.64
 30
 0
 40
.360555
 50
123.69
 51
213.6901
 6
CONTINUOUS
 0
LINE
 8
WHITE
 10
31.69
 20
28.94
 30
0.0000
 11
31.84
 21
29.04
 31
0.0000
 6
CONTINUOUS
 0
ARC
 8
WHITE
 10
32.035
 20
28.737
 30
 0
 40
.360324
 50
32.32492
 51
122.7639
 6
CONTINUOUS
 0
LINE
 8
WHITE
 10
32.34
 20
28.93
 30
0.0000
 11
33.42
 21
27.27
 31
0.0000
 6
CONTINUOUS
 0
ARC
 8
WHITE
 10
33.117
 20
27.075
 30
 0
 40
.360324
 50
302.3257
 51
32.76389
 6
CONTINUOUS
 0
LINE
 8
WHITE
 10
33.31
 20
26.77
 30
0.0000
 11
33.16
 21
26.68
 31
0.0000
 6
CONTINUOUS
 0
ARC
 8
WHITE
 10
32.96
 20
26.98
 30
 0
 40
.360555
 50
213.69
 51
303.6901
 6
CONTINUOUS
 0
LINE
 8
WHITE
 10
32.66
 20
26.78
 30
0.0000
 11
32.12
 21
27.61
 31
0.0000
 6
CONTINUOUS
 0
LINE
 8
WHITE
 10
35.72
 20
24.38
 30
0.0000
 11
34.84
 21
24.82
 31
0.0000
 6
CONTINUOUS
 0
ARC
 8
WHITE
 10
34.996
 20
25.142
 30
 0
 40
.357798
 50
152.0028
 51
244.1511
 6
CONTINUOUS
 0
LINE
 8
WHITE
 10
34.68
 20
25.31
 30
0.0000
 11
34.76
 21
25.47
 31
0.0000
 6
CONTINUOUS
 0
ARC
 8
WHITE
 10
35.082
 20
25.314
 30
 0
 40
.357798
 50
62.00241
 51
154.1511
 6
CONTINUOUS
 0
LINE
 8
WHITE
 10
35.25
 20
25.63
 30
0.0000
 11
37.01
 21
24.73
 31
0.0000
 6
CONTINUOUS
 0
ARC
 8
WHITE
 10
36.854
 20
24.408
 30
 0
 40
.357798
 50
332.0028
 51
64.15111
 6
CONTINUOUS
 0
LINE
 8
WHITE
 10
37.17
 20
24.24
 30
0.0000
 11
37.09
 21
24.08
 31
0.0000
 6
CONTINUOUS
 0
ARC
 8
WHITE
 10
36.772
 20
24.244
 30
 0
 40
.357798
 50
241.2872
 51
332.7188
 6
CONTINUOUS
 0
LINE
 8
WHITE
 10
36.6
 20
23.93
 30
0.0000
 11
35.72
 21
24.38
 31
0.0000
 6
CONTINUOUS
 0
LINE
 8
WHITE
 10
40.45
 20
23.37
 30
0.0000
 11
39.46
 21
23.32
 31
0.0000
 6
CONTINUOUS
 0
ARC
 8
WHITE
 10
39.44
 20
23.68
 30
 0
 40
.360555
 50
183.1799
 51
273.1798
 6
CONTINUOUS
 0
LINE
 8
WHITE
 10
39.08
 20
23.66
 30
0.0000
 11
39.08
 21
23.84
 31
0.0000
 6
CONTINUOUS
 0
ARC
 8
WHITE
 10
39.44
 20
23.86
 30
 0
 40
.360555
 50
94.76407
 51
183.1798
 6
CONTINUOUS
 0
LINE
 8
WHITE
 10
39.41
 20
24.22
 30
0.0000
 11
41.39
 21
24.32
 31
0.0000
 6
CONTINUOUS
 0
ARC
 8
WHITE
 10
41.41
 20
23.96
 30
 0
 40
.360555
 50
3.179897
 51
93.17983
 6
CONTINUOUS
 0
LINE
 8
WHITE
 10
41.77
 20
23.98
 30
0.0000
 11
41.77
 21
23.8
 31
0.0000
 6
CONTINUOUS
 0
ARC
 8
WHITE
 10
41.41
 20
23.78
 30
 0
 40
.360555
 50
274.7635
 51
3.179829
 6
CONTINUOUS
 0
LINE
 8
WHITE
 10
41.44
 20
23.42
 30
0.0000
 11
40.45
 21
23.37
 31
0.0000
 6
CONTINUOUS
 0
LINE
 8
WHITE
 10
45.05
 20
24.86
 30
0.0000
 11
44.22
 21
24.32
 31
0.0000
 6
CONTINUOUS
 0
ARC
 8
WHITE
 10
44.025
 20
24.623
 30
 0
 40
.360324
 50
212.3249
 51
302.7639
 6
CONTINUOUS
 0
LINE
 8
WHITE
 10
43.72
 20
24.43
 30
0.0000
 11
43.62
 21
24.58
 31
0.0000
 6
CONTINUOUS
 0
ARC
 8
WHITE
 10
43.923
 20
24.775
 30
 0
 40
.360324
 50
122.3252
 51
212.7639
 6
CONTINUOUS
 0
LINE
 8
WHITE
 10
43.73
 20
25.08
 30
0.0000
 11
45.39
 21
26.16
 31
0.0000
 6
CONTINUOUS
 0
ARC
 8
WHITE
 10
45.585
 20
25.857
 30
 0
 40
.360324
 50
32.32492
 51
122.7639
 6
CONTINUOUS
 0
LINE
 8
WHITE
 10
45.89
 20
26.05
 30
0.0000
 11
45.99
 21
25.9
 31
0.0000
 6
CONTINUOUS
 0
ARC
 8
WHITE
 10
45.687
 20
25.705
 30
 0
 40
.360324
 50
302.3252
 51
32.76389
 6
CONTINUOUS
 0
LINE
 8
WHITE
 10
45.88
 20
25.4
 30
0.0000
 11
45.05
 21
24.86
 31
0.0000
 6
CONTINUOUS
 0
LINE
 8
WHITE
 10
48.29
 20
28.46
 30
0.0000
 11
47.84
 21
27.57
 31
0.0000
 6
CONTINUOUS
 0
ARC
 8
WHITE
 10
47.522
 20
27.734
 30
 0
 40
.357798
 50
241.2872
 51
332.7188
 6
CONTINUOUS
 0
LINE
 8
WHITE
 10
47.35
 20
27.42
 30
0.0000
 11
47.19
 21
27.5
 31
0.0000
 6
CONTINUOUS
 0
ARC
 8
WHITE
 10
47.358
 20
27.816
 30
 0
 40
.357882
 50
152.7186
 51
242.0029
 6
CONTINUOUS
 0
LINE
 8
WHITE
 10
47.04
 20
27.98
 30
0.0000
 11
47.93
 21
29.75
 31
0.0000
 6
CONTINUOUS
 0
ARC
 8
WHITE
 10
48.248
 20
29.586
 30
 0
 40
.357798
 50
61.28771
 51
152.7188
 6
CONTINUOUS
 0
LINE
 8
WHITE
 10
48.42
 20
29.9
 30
0.0000
 11
48.58
 21
29.82
 31
0.0000
 6
CONTINUOUS
 0
ARC
 8
WHITE
 10
48.42
 20
29.5
 30
 0
 40
.35777
 50
333.4349
 51
63.43494
 6
CONTINUOUS
 0
LINE
 8
WHITE
 10
48.74
 20
29.34
 30
0.0000
 11
48.29
 21
28.46
 31
0.0000
 6
CONTINUOUS
 0
LINE
 8
WHITE
 10
49.29
 20
33.19
 30
0.0000
 11
49.34
 21
32.2
 31
0.0000
 6
CONTINUOUS
 0
ARC
 8
WHITE
 10
48.98
 20
32.18
 30
 0
 40
.360555
 50
273.1799
 51
3.179829
 6
CONTINUOUS
 0
LINE
 8
WHITE
 10
49
 20
31.82
 30
0.0000
 11
48.82
 21
31.82
 31
0.0000
 6
CONTINUOUS
 0
ARC
 8
WHITE
 10
48.809
 20
32.18
 30
 0
 40
.360168
 50
184.7767
 51
271.7502
 6
CONTINUOUS
 0
LINE
 8
WHITE
 10
48.45
 20
32.15
 30
0.0000
 11
48.34
 21
34.13
 31
0.0000
 6
CONTINUOUS
 0
ARC
 8
WHITE
 10
48.7
 20
34.15
 30
 0
 40
.360555
 50
93.17993
 51
183.1798
 6
CONTINUOUS
 0
LINE
 8
WHITE
 10
48.68
 20
34.51
 30
0.0000
 11
48.86
 21
34.51
 31
0.0000
 6
CONTINUOUS
 0
ARC
 8
WHITE
 10
48.88
 20
34.15
 30
 0
 40
.360555
 50
4.764043
 51
93.17983
 6
CONTINUOUS
 0
LINE
 8
WHITE
 10
49.24
 20
34.18
 30
0.0000
 11
49.29
 21
33.19
 31
0.0000
 6
CONTINUOUS
 0
LINE
 8
WHITE
 10
47.8
 20
37.79
 30
0.0000
 11
48.34
 21
36.96
 31
0.0000
 6
CONTINUOUS
 0
ARC
 8
WHITE
 10
48.037
 20
36.765
 30
 0
 40
.360324
 50
302.3252
 51
32.76389
 6
CONTINUOUS
 0
LINE
 8
WHITE
 10
48.23
 20
36.46
 30
0.0000
 11
48.08
 21
36.36
 31
0.0000
 6
CONTINUOUS
 0
ARC
 8
WHITE
 10
47.885
 20
36.663
 30
 0
 40
.360324
 50
212.3252
 51
302.7639
 6
CONTINUOUS
 0
LINE
 8
WHITE
 10
47.58
 20
36.47
 30
0.0000
 11
46.51
 21
38.13
 31
0.0000
 6
CONTINUOUS
 0
ARC
 8
WHITE
 10
46.81
 20
38.33
 30
 0
 40
.360555
 50
123.6897
 51
213.6901
 6
CONTINUOUS
 0
LINE
 8
WHITE
 10
46.61
 20
38.63
 30
0.0000
 11
46.76
 21
38.72
 31
0.0000
 6
CONTINUOUS
 0
ARC
 8
WHITE
 10
46.96
 20
38.42
 30
 0
 40
.360555
 50
33.68973
 51
123.6901
 6
CONTINUOUS
 0
LINE
 8
WHITE
 10
47.26
 20
38.62
 30
0.0000
 11
47.8
 21
37.79
 31
0.0000
 6
CONTINUOUS
 0
LINE
 8
WHITE
 10
44.21
 20
41.02
 30
0.0000
 11
45.09
 21
40.58
 31
0.0000
 6
CONTINUOUS
 0
ARC
 8
WHITE
 10
44.926
 20
40.262
 30
 0
 40
.357798
 50
331.2875
 51
62.71878
 6
CONTINUOUS
 0
LINE
 8
WHITE
 10
45.24
 20
40.09
 30
0.0000
 11
45.16
 21
39.93
 31
0.0000
 6
CONTINUOUS
 0
ARC
 8
WHITE
 10
44.84
 20
40.09
 30
 0
 40
.35777
 50
243.435
 51
333.4349
 6
CONTINUOUS
 0
LINE
 8
WHITE
 10
44.68
 20
39.77
 30
0.0000
 11
42.91
 21
40.67
 31
0.0000
 6
CONTINUOUS
 0
ARC
 8
WHITE
 10
43.074
 20
40.988
 30
 0
 40
.357798
 50
151.2875
 51
242.7188
 6
CONTINUOUS
 0
LINE
 8
WHITE
 10
42.76
 20
41.16
 30
0.0000
 11
42.84
 21
41.32
 31
0.0000
 6
CONTINUOUS
 0
ARC
 8
WHITE
 10
43.156
 20
41.152
 30
 0
 40
.357882
 50
62.71918
 51
152.0029
 6
CONTINUOUS
 0
LINE
 8
WHITE
 10
43.32
 20
41.47
 30
0.0000
 11
44.21
 21
41.02
 31
0.0000
 6
CONTINUOUS
 0
LINE
 8
WHITE
 10
39.47
 20
42.03
 30
0.0000
 11
40.46
 21
42.08
 31
0.0000
 6
CONTINUOUS
 0
ARC
 8
WHITE
 10
40.48
 20
41.72
 30
 0
 40
.360555
 50
3.179897
 51
93.17983
 6
CONTINUOUS
 0
LINE
 8
WHITE
 10
40.84
 20
41.74
 30
0.0000
 11
40.84
 21
41.56
 31
0.0000
 6
CONTINUOUS
 0
ARC
 8
WHITE
 10
40.48
 20
41.54
 30
 0
 40
.360555
 50
274.7634
 51
3.179829
 6
CONTINUOUS
 0
LINE
 8
WHITE
 10
40.51
 20
41.18
 30
0.0000
 11
38.53
 21
41.08
 31
0.0000
 6
CONTINUOUS
 0
ARC
 8
WHITE
 10
38.51
 20
41.44
 30
 0
 40
.360555
 50
183.1805
 51
273.1798
 6
CONTINUOUS
 0
LINE
 8
WHITE
 10
38.15
 20
41.42
 30
0.0000
 11
38.15
 21
41.6
 31
0.0000
 6
CONTINUOUS
 0
ARC
 8
WHITE
 10
38.51
 20
41.62
 30
 0
 40
.360555
 50
93.17989
 51
183.1798
 6
CONTINUOUS
 0
LINE
 8
WHITE
 10
38.49
 20
41.98
 30
0.0000
 11
39.47
 21
42.03
 31
0.0000
 6
CONTINUOUS
 0
LINE
 8
WHITE
 10
202.72
 20
120.65
 30
0.0000
 11
206.37
 21
120.62
 31
0.0000
 6
CONTINUOUS
 0
ARC
 8
WHITE
 10
206.377
 20
120.82
 30
 0
 40
.200122
 50
115.7974
 51
267.9955
 6
CONTINUOUS
 0
LINE
 8
WHITE
 10
206.29
 20
121
 30
0.0000
 11
211.97
 21
123.41
 31
0.0000
 6
CONTINUOUS
 0
LINE
 8
WHITE
 10
211.97
 20
123.41
 30
0.0000
 11
199.29
 21
123.52
 31
0.0000
 6
CONTINUOUS
 0
ARC
 8
WHITE
 10
199.29
 20
123.32
 30
 0
 40
.2
 50
90
 51
177.1369
 6
CONTINUOUS
 0
LINE
 8
WHITE
 10
199.09
 20
123.33
 30
0.0000
 11
199.07
 21
120.68
 31
0.0000
 6
CONTINUOUS
 0
LINE
 8
WHITE
 10
199.07
 20
120.68
 30
0.0000
 11
202.72
 21
120.65
 31
0.0000
 6
CONTINUOUS
 0
ARC
 8
WHITE
 10
300.6
 20
30.37
 30
 0
 40
2
 50
180
 51
270
 6
CONTINUOUS
 0
LINE
 8
WHITE
 10
300.6
 20
28.37
 30
0.0000
 11
303.4
 21
28.37
 31
0.0000
 6
CONTINUOUS
 0
ARC
 8
WHITE
 10
303.4
 20
29.37
 30
 0
 40
1
 50
270
 51
0
 6
CONTINUOUS
 0
LINE
 8
WHITE
 10
304.4
 20
29.37
 30
0.0000
 11
304.4
 21
35.87
 31
0.0000
 6
CONTINUOUS
 0
ARC
 8
WHITE
 10
304.4
 20
36.37
 30
 0
 40
.5
 50
270
 51
90
 6
CONTINUOUS
 0
LINE
 8
WHITE
 10
304.4
 20
36.87
 30
0.0000
 11
304.4
 21
40.21
 31
0.0000
 6
CONTINUOUS
 0
ARC
 8
WHITE
 10
304.4
 20
40.71
 30
 0
 40
.5
 50
270
 51
90
 6
CONTINUOUS
 0
LINE
 8
WHITE
 10
304.4
 20
41.21
 30
0.0000
 11
304.4
 21
42.34
 31
0.0000
 6
CONTINUOUS
 0
ARC
 8
WHITE
 10
303.4
 20
42.34
 30
 0
 40
1
 50
0
 51
90
 6
CONTINUOUS
 0
LINE
 8
WHITE
 10
303.4
 20
43.34
 30
0.0000
 11
303.4
 21
44.53
 31
0.0000
 6
CONTINUOUS
 0
ARC
 8
WHITE
 10
304
 20
44.534
 30
 0
 40
.600013
 50
116.7349
 51
180.382
 6
CONTINUOUS
 0
LINE
 8
WHITE
 10
303.73
 20
45.07
 30
0.0000
 11
306.84
 21
46.63
 31
0.0000
 6
CONTINUOUS
 0
ARC
 8
WHITE
 10
305.898
 20
48.509
 30
 0
 40
2.101905
 50
296.626
 51
359.7546
 6
CONTINUOUS
 0
LINE
 8
WHITE
 10
308
 20
48.5
 30
0.0000
 11
308
 21
84.15
 31
0.0000
 6
CONTINUOUS
 0
ARC
 8
WHITE
 10
307.25
 20
84.15
 30
 0
 40
.75
 50
0
 51
180
 6
CONTINUOUS
 0
LINE
 8
WHITE
 10
306.5
 20
84.15
 30
0.0000
 11
306.5
 21
48.5
 31
0.0000
 6
CONTINUOUS
 0
ARC
 8
WHITE
 10
305.9
 20
48.506
 30
 0
 40
.60003
 50
296.7375
 51
359.4271
 6
CONTINUOUS
 0
LINE
 8
WHITE
 10
306.17
 20
47.97
 30
0.0000
 11
303.06
 21
46.41
 31
0.0000
 6
CONTINUOUS
 0
ARC
 8
WHITE
 10
304.002
 20
44.531
 30
 0
 40
2.101905
 50
116.626
 51
180.0272
 6
CONTINUOUS
 0
LINE
 8
WHITE
 10
301.9
 20
44.53
 30
0.0000
 11
301.9
 21
43.34
 31
0.0000
 6
CONTINUOUS
 0
LINE
 8
WHITE
 10
301.9
 20
43.34
 30
0.0000
 11
298.59
 21
43.34
 31
0.0000
 6
CONTINUOUS
 0
LINE
 8
WHITE
 10
298.59
 20
43.34
 30
0.0000
 11
298.59
 21
43.7
 31
0.0000
 6
CONTINUOUS
 0
LINE
 8
WHITE
 10
298.59
 20
43.7
 30
0.0000
 11
299.12
 21
43.7
 31
0.0000
 6
CONTINUOUS
 0
ARC
 8
WHITE
 10
294.12
 20
43.709
 30
 0
 40
5.000008
 50
359.8969
 51
24.21729
 6
CONTINUOUS
 0
LINE
 8
WHITE
 10
298.68
 20
45.76
 30
0.0000
 11
298.62
 21
45.9
 31
0.0000
 6
CONTINUOUS
 0
ARC
 8
WHITE
 10
272.88
 20
30.49
 30
 0
 40
30.00026
 50
30.90807
 51
31.01944
 6
CONTINUOUS
 0
LINE
 8
WHITE
 10
298.59
 20
45.95
 30
0.0000
 11
298.59
 21
50.23
 31
0.0000
 6
CONTINUOUS
 0
LINE
 8
WHITE
 10
298.59
 20
50.23
 30
0.0000
 11
299.64
 21
50.23
 31
0.0000
 6
CONTINUOUS
 0
LINE
 8
WHITE
 10
299.64
 20
50.23
 30
0.0000
 11
299.95
 21
85.1
 31
0.0000
 6
CONTINUOUS
 0
ARC
 8
WHITE
 10
296.95
 20
85.13
 30
 0
 40
3.000149
 50
359.4271
 51
89.61825
 6
CONTINUOUS
 0
LINE
 8
WHITE
 10
296.97
 20
88.13
 30
0.0000
 11
231.18
 21
88.7
 31
0.0000
 6
CONTINUOUS
 0
ARC
 8
WHITE
 10
231.177
 20
88.95
 30
 0
 40
.250018
 50
189.1975
 51
270.6875
 6
CONTINUOUS
 0
LINE
 8
WHITE
 10
230.93
 20
88.91
 30
0.0000
 11
230.62
 21
90.71
 31
0.0000
 6
CONTINUOUS
 0
ARC
 8
WHITE
 10
230.372
 20
90.66
 30
 0
 40
.25299
 50
11.39876
 51
81.3553
 6
CONTINUOUS
 0
LINE
 8
WHITE
 10
230.41
 20
90.91
 30
0.0000
 11
230.33
 21
90.91
 31
0.0000
 6
CONTINUOUS
 0
LINE
 8
WHITE
 10
230.33
 20
90.91
 30
0.0000
 11
226.82
 21
111.27
 31
0.0000
 6
CONTINUOUS
 0
LINE
 8
WHITE
 10
226.82
 20
111.27
 30
0.0000
 11
230.72
 21
112.96
 31
0.0000
 6
CONTINUOUS
 0
LINE
 8
WHITE
 10
230.72
 20
112.96
 30
0.0000
 11
220.45
 21
119.22
 31
0.0000
 6
CONTINUOUS
 0
LINE
 8
WHITE
 10
220.45
 20
119.22
 30
0.0000
 11
219.85
 21
119.2
 31
0.0000
 6
CONTINUOUS
 0
LINE
 8
WHITE
 10
219.85
 20
119.2
 30
0.0000
 11
219.67
 21
119.04
 31
0.0000
 6
CONTINUOUS
 0
ARC
 8
WHITE
 10
211.995
 20
100.572
 30
 0
 40
19.99932
 50
67.43303
 51
79.87735
 6
CONTINUOUS
 0
LINE
 8
WHITE
 10
215.51
 20
120.26
 30
0.0000
 11
215.53
 21
123.18
 31
0.0000
 6
CONTINUOUS
 0
ARC
 8
WHITE
 10
215.73
 20
123.18
 30
 0
 40
.2
 50
87.13476
 51
180
 6
CONTINUOUS
 0
LINE
 8
WHITE
 10
215.74
 20
123.38
 30
0.0000
 11
217.38
 21
123.37
 31
0.0000
 6
CONTINUOUS
 0
ARC
 8
WHITE
 10
217.361
 20
121.37
 30
 0
 40
2.00009
 50
44.81782
 51
89.4557
 6
CONTINUOUS
 0
LINE
 8
WHITE
 10
218.78
 20
122.78
 30
0.0000
 11
219.37
 21
122.18
 31
0.0000
 6
CONTINUOUS
 0
ARC
 8
WHITE
 10
219.522
 20
122.306
 30
 0
 40
.197433
 50
219.657
 51
4.044196
 6
CONTINUOUS
 0
LINE
 8
WHITE
 10
219.72
 20
122.32
 30
0.0000
 11
219.74
 21
125.32
 31
0.0000
 6
CONTINUOUS
 0
ARC
 8
WHITE
 10
219.54
 20
125.328
 30
 0
 40
.200159
 50
357.7094
 51
138.6548
 6
CONTINUOUS
 0
LINE
 8
WHITE
 10
219.39
 20
125.46
 30
0.0000
 11
218.85
 21
124.91
 31
0.0000
 6
CONTINUOUS
 0
ARC
 8
WHITE
 10
217.444
 20
126.324
 30
 0
 40
1.994049
 50
269.0232
 51
314.8375
 6
CONTINUOUS
 0
LINE
 8
WHITE
 10
217.41
 20
124.33
 30
0.0000
 11
196.25
 21
124.51
 31
0.0000
 6
CONTINUOUS
 0
ARC
 8
WHITE
 10
195.62
 20
124.01
 30
 0
 40
.8043
 50
38.4373
 51
325.1249
 6
CONTINUOUS
 0
LINE
 8
WHITE
 10
196.28
 20
123.55
 30
0.0000
 11
197.35
 21
123.55
 31
0.0000
 6
CONTINUOUS
 0
ARC
 8
WHITE
 10
197.35
 20
123.35
 30
 0
 40
.2
 50
357.1348
 51
90
 6
CONTINUOUS
 0
LINE
 8
WHITE
 10
197.55
 20
123.34
 30
0.0000
 11
197.53
 21
120.7
 31
0.0000
 6
CONTINUOUS
 0
LINE
 8
WHITE
 10
197.53
 20
120.7
 30
0.0000
 11
183.68
 21
120.82
 31
0.0000
 6
CONTINUOUS
 0
LINE
 8
WHITE
 10
183.68
 20
120.82
 30
0.0000
 11
183.68
 21
143.4
 31
0.0000
 6
CONTINUOUS
 0
ARC
 8
WHITE
 10
163.68
 20
143.39
 30
 0
 40
20
 50
.028647
 51
26.93659
 6
CONTINUOUS
 0
LINE
 8
WHITE
 10
181.51
 20
152.45
 30
0.0000
 11
179.3
 21
156.79
 31
0.0000
 6
CONTINUOUS
 0
ARC
 8
WHITE
 10
177.522
 20
155.877
 30
 0
 40
1.998712
 50
27.18042
 51
172.4414
 6
CONTINUOUS
 0
LINE
 8
WHITE
 10
175.54
 20
156.14
 30
0.0000
 11
175.07
 21
152.5
 31
0.0000
 6
CONTINUOUS
 0
ARC
 8
WHITE
 10
177.548
 20
152.165
 30
 0
 40
2.500541
 50
172.3009
 51
187.6989
 6
CONTINUOUS
 0
LINE
 8
WHITE
 10
175.07
 20
151.83
 30
0.0000
 11
175.6
 21
148.19
 31
0.0000
 6
CONTINUOUS
 0
ARC
 8
WHITE
 10
177.58
 20
148.481
 30
 0
 40
2.001269
 50
188.3609
 51
241.6547
 6
CONTINUOUS
 0
ARC
 8
WHITE
 10
175.68
 20
144.96
 30
 0
 40
2.000025
 50
0
 51
61.64104
 6
CONTINUOUS
 0
LINE
 8
WHITE
 10
177.68
 20
144.96
 30
0.0000
 11
177.68
 21
118.45
 31
0.0000
 6
CONTINUOUS
 0
ARC
 8
WHITE
 10
182.456
 20
114.825
 30
 0
 40
5.995898
 50
142.8014
 51
179.9522
 6
CONTINUOUS
 0
LINE
 8
WHITE
 10
176.46
 20
114.83
 30
0.0000
 11
176.46
 21
113.74
 31
0.0000
 6
CONTINUOUS
 0
LINE
 8
WHITE
 10
176.46
 20
113.74
 30
0.0000
 11
173.28
 21
113.74
 31
0.0000
 6
CONTINUOUS
 0
LINE
 8
WHITE
 10
173.28
 20
113.74
 30
0.0000
 11
173.28
 21
120.74
 31
0.0000
 6
CONTINUOUS
 0
ARC
 8
WHITE
 10
170.28
 20
120.74
 30
 0
 40
3
 50
0
 51
90
 6
CONTINUOUS
 0
LINE
 8
WHITE
 10
170.28
 20
123.74
 30
0.0000
 11
128.68
 21
123.74
 31
0.0000
 6
CONTINUOUS
 0
ARC
 8
WHITE
 10
128.68
 20
120.74
 30
 0
 40
3
 50
90
 51
180
 6
CONTINUOUS
 0
LINE
 8
WHITE
 10
125.68
 20
120.74
 30
0.0000
 11
125.68
 21
52.26
 31
0.0000
 6
CONTINUOUS
 0
LINE
 8
WHITE
 10
125.68
 20
52.26
 30
0.0000
 11
121.05
 21
52.26
 31
0.0000
 6
CONTINUOUS
 0
LINE
 8
WHITE
 10
121.05
 20
52.26
 30
0.0000
 11
121.05
 21
50.7
 31
0.0000
 6
CONTINUOUS
 0
LINE
 8
WHITE
 10
121.05
 20
50.7
 30
0.0000
 11
94.65
 21
50.7
 31
0.0000
 6
CONTINUOUS
 0
LINE
 8
WHITE
 10
94.65
 20
50.7
 30
0.0000
 11
94.65
 21
52.26
 31
0.0000
 6
CONTINUOUS
 0
LINE
 8
WHITE
 10
94.65
 20
52.26
 30
0.0000
 11
88.12
 21
52.26
 31
0.0000
 6
CONTINUOUS
 0
ARC
 8
WHITE
 10
83.965
 20
32.701
 30
 0
 40
19.99546
 50
78.00671
 51
101.9933
 6
CONTINUOUS
 0
LINE
 8
WHITE
 10
79.81
 20
52.26
 30
0.0000
 11
72.33
 21
52.26
 31
0.0000
 6
CONTINUOUS
 0
LINE
 8
WHITE
 10
72.33
 20
52.26
 30
0.0000
 11
72.33
 21
56.78
 31
0.0000
 6
CONTINUOUS
 0
LINE
 8
WHITE
 10
72.33
 20
56.78
 30
0.0000
 11
73.09
 21
56.78
 31
0.0000
 6
CONTINUOUS
 0
ARC
 8
WHITE
 10
73.09
 20
57.28
 30
 0
 40
.5
 50
270
 51
0
 6
CONTINUOUS
 0
LINE
 8
WHITE
 10
73.59
 20
57.28
 30
0.0000
 11
73.59
 21
58.27
 31
0.0000
 6
CONTINUOUS
 0
LINE
 8
WHITE
 10
73.59
 20
58.27
 30
0.0000
 11
73.91
 21
58.34
 31
0.0000
 6
CONTINUOUS
 0
ARC
 8
WHITE
 10
73.68
 20
59.318
 30
 0
 40
1.00468
 50
283.234
 51
12.76379
 6
CONTINUOUS
 0
LINE
 8
WHITE
 10
74.66
 20
59.54
 30
0.0000
 11
74.66
 21
59.57
 31
0.0000
 6
CONTINUOUS
 0
LINE
 8
WHITE
 10
74.66
 20
59.57
 30
0.0000
 11
76.64
 21
60.02
 31
0.0000
 6
CONTINUOUS
 0
LINE
 8
WHITE
 10
76.64
 20
60.02
 30
0.0000
 11
75.76
 21
63.92
 31
0.0000
 6
CONTINUOUS
 0
LINE
 8
WHITE
 10
75.76
 20
63.92
 30
0.0000
 11
50.59
 21
58.21
 31
0.0000
 6
CONTINUOUS
 0
ARC
 8
WHITE
 10
50.813
 20
57.231
 30
 0
 40
1.004076
 50
102.8321
 51
152.797
 6
CONTINUOUS
 0
LINE
 8
WHITE
 10
49.92
 20
57.69
 30
0.0000
 11
48.74
 21
55.37
 31
0.0000
 6
CONTINUOUS
 0
ARC
 8
WHITE
 10
49.624
 20
54.909
 30
 0
 40
.996983
 50
152.4583
 51
283.6879
 6
CONTINUOUS
 0
LINE
 8
WHITE
 10
49.86
 20
53.94
 30
0.0000
 11
53.8
 21
54.84
 31
0.0000
 6
CONTINUOUS
 0
LINE
 8
WHITE
 10
53.8
 20
54.84
 30
0.0000
 11
53.8
 21
54.81
 31
0.0000
 6
CONTINUOUS
 0
ARC
 8
WHITE
 10
54.778
 20
55.04
 30
 0
 40
1.00468
 50
193.234
 51
282.7639
 6
CONTINUOUS
 0
LINE
 8
WHITE
 10
55
 20
54.06
 30
0.0000
 11
55.4
 21
54.14
 31
0.0000
 6
CONTINUOUS
 0
LINE
 8
WHITE
 10
55.4
 20
54.14
 30
0.0000
 11
55.4
 21
52.26
 31
0.0000
 6
CONTINUOUS
 0
LINE
 8
WHITE
 10
55.4
 20
52.26
 30
0.0000
 11
44.12
 21
52.26
 31
0.0000
 6
CONTINUOUS
 0
ARC
 8
WHITE
 10
39.965
 20
32.701
 30
 0
 40
19.99546
 50
78.00671
 51
101.9933
 6
CONTINUOUS
 0
LINE
 8
WHITE
 10
35.81
 20
52.26
 30
0.0000
 11
25.53
 21
52.26
 31
0.0000
 6
CONTINUOUS
 0
LINE
 8
WHITE
 10
25.53
 20
52.26
 30
0.0000
 11
25.53
 21
50.7
 31
0.0000
 6
CONTINUOUS
 0
LINE
 8
WHITE
 10
25.53
 20
50.7
 30
0.0000
 11
12.7
 21
50.7
 31
0.0000
 6
CONTINUOUS
 0
LINE
 8
WHITE
 10
12.7
 20
50.7
 30
0.0000
 11
12.7
 21
42.77
 31
0.0000
 6
CONTINUOUS
 0
LINE
 8
WHITE
 10
12.7
 20
42.77
 30
0.0000
 11
16.24
 21
42.77
 31
0.0000
 6
CONTINUOUS
 0
LINE
 8
WHITE
 10
16.24
 20
42.77
 30
0.0000
 11
16.24
 21
15.52
 31
0.0000
 6
CONTINUOUS
 0
ARC
 8
WHITE
 10
16.34
 20
15.52
 30
 0
 40
.1
 50
180
 51
270
 6
CONTINUOUS
 0
LINE
 8
WHITE
 10
16.34
 20
15.42
 30
0.0000
 11
17.08
 21
15.42
 31
0.0000
 6
CONTINUOUS
 0
ARC
 8
WHITE
 10
17.08
 20
15.58
 30
 0
 40
.159999
 50
270
 51
0
 6
CONTINUOUS
 0
LINE
 8
WHITE
 10
17.24
 20
15.58
 30
0.0000
 11
17.24
 21
37.48
 31
0.0000
 6
CONTINUOUS
 0
LINE
 8
WHITE
 10
17.24
 20
37.48
 30
0.0000
 11
20.54
 21
37.48
 31
0.0000
 6
CONTINUOUS
 0
ARC
 8
WHITE
 10
39.96
 20
32.7
 30
 0
 40
19.99962
 50
166.1722
 51
13.82779
 6
CONTINUOUS
 0
LINE
 8
WHITE
 10
59.38
 20
37.48
 30
0.0000
 11
61.46
 21
37.48
 31
0.0000
 6
CONTINUOUS
 0
LINE
 8
WHITE
 10
61.46
 20
37.48
 30
0.0000
 11
61.46
 21
15.52
 31
0.0000
 6
CONTINUOUS
 0
ARC
 8
WHITE
 10
61.56
 20
15.52
 30
 0
 40
.1
 50
180
 51
270.0022
 6
CONTINUOUS
 0
LINE
 8
WHITE
 10
61.56
 20
15.42
 30
0.0000
 11
62.3
 21
15.42
 31
0.0000
 6
CONTINUOUS
 0
ARC
 8
WHITE
 10
62.3
 20
15.58
 30
 0
 40
.159999
 50
270
 51
0
 6
CONTINUOUS
 0
LINE
 8
WHITE
 10
62.46
 20
15.58
 30
0.0000
 11
62.46
 21
37.48
 31
0.0000
 6
CONTINUOUS
 0
LINE
 8
WHITE
 10
62.46
 20
37.48
 30
0.0000
 11
64.54
 21
37.48
 31
0.0000
 6
CONTINUOUS
 0
ARC
 8
WHITE
 10
83.96
 20
32.7
 30
 0
 40
19.99962
 50
166.1722
 51
13.82779
 6
CONTINUOUS
 0
LINE
 8
WHITE
 10
103.38
 20
37.48
 30
0.0000
 11
123.63
 21
37.48
 31
0.0000
 6
CONTINUOUS
 0
ARC
 8
WHITE
 10
163.568
 20
35.352
 30
 0
 40
39.99465
 50
176.95
 51
195.5652
 6
CONTINUOUS
 0
LINE
 8
WHITE
 10
125.04
 20
24.62
 30
0.0000
 11
125.84
 21
21.78
 31
0.0000
 6
CONTINUOUS
 0
ARC
 8
WHITE
 10
126.801
 20
22.047
 30
 0
 40
.997401
 50
195.5272
 51
269.943
 6
CONTINUOUS
 0
LINE
 8
WHITE
 10
126.8
 20
21.05
 30
0.0000
 11
170.1
 21
21.05
 31
0.0000
 6
CONTINUOUS
 0
ARC
 8
WHITE
 10
170.107
 20
22.05
 30
 0
 40
1.000024
 50
269.5989
 51
344.3379
 6
CONTINUOUS
 0
LINE
 8
WHITE
 10
171.07
 20
21.78
 30
0.0000
 11
171.86
 21
24.62
 31
0.0000
 6
CONTINUOUS
 0
ARC
 8
WHITE
 10
133.33
 20
35.38
 30
 0
 40
40.00423
 50
344.3969
 51
3.009021
 6
CONTINUOUS
 0
LINE
 8
WHITE
 10
173.28
 20
37.48
 30
0.0000
 11
185.28
 21
37.48
 31
0.0000
 6
CONTINUOUS
 0
LINE
 8
WHITE
 10
185.28
 20
37.48
 30
0.0000
 11
187.28
 21
35.18
 31
0.0000
 6
CONTINUOUS
 0
LINE
 8
WHITE
 10
187.28
 20
35.18
 30
0.0000
 11
187.28
 21
25.2
 31
0.0000
 6
CONTINUOUS
 0
LINE
 8
WHITE
 10
187.28
 20
25.2
 30
0.0000
 11
217.28
 21
25.2
 31
0.0000
 6
CONTINUOUS
 0
LINE
 8
WHITE
 10
217.28
 20
25.2
 30
0.0000
 11
217.28
 21
34.51
 31
0.0000
 6
CONTINUOUS
 0
LINE
 8
WHITE
 10
217.28
 20
34.51
 30
0.0000
 11
230.01
 21
36.43
 31
0.0000
 6
CONTINUOUS
 0
LINE
 8
WHITE
 10
230.01
 20
36.43
 30
0.0000
 11
230.28
 21
34.7
 31
0.0000
 6
CONTINUOUS
 0
LINE
 8
WHITE
 10
230.28
 20
34.7
 30
0.0000
 11
236.28
 21
34.7
 31
0.0000
 6
CONTINUOUS
 0
LINE
 8
WHITE
 10
236.28
 20
34.7
 30
0.0000
 11
236.28
 21
42.77
 31
0.0000
 6
CONTINUOUS
 0
LINE
 8
WHITE
 10
236.28
 20
42.77
 30
0.0000
 11
236.78
 21
42.77
 31
0.0000
 6
CONTINUOUS
 0
LINE
 8
WHITE
 10
236.78
 20
42.77
 30
0.0000
 11
236.78
 21
34.7
 31
0.0000
 6
CONTINUOUS
 0
LINE
 8
WHITE
 10
236.78
 20
34.7
 30
0.0000
 11
241.74
 21
34.7
 31
0.0000
 6
CONTINUOUS
 0
ARC
 8
WHITE
 10
271.673
 20
32.738
 30
 0
 40
29.99723
 50
176.2498
 51
185.8127
 6
CONTINUOUS
 0
LINE
 8
WHITE
 10
241.83
 20
29.7
 30
0.0000
 11
241.83
 21
15.42
 31
0.0000
 6
CONTINUOUS
 0
ARC
 8
WHITE
 10
241.93
 20
15.42
 30
 0
 40
.1
 50
180
 51
264.2839
 6
CONTINUOUS
 0
LINE
 8
WHITE
 10
241.92
 20
15.32
 30
0.0000
 11
242.65
 21
15.25
 31
0.0000
 6
CONTINUOUS
 0
ARC
 8
WHITE
 10
242.67
 20
15.409
 30
 0
 40
.160252
 50
262.8306
 51
.357889
 6
CONTINUOUS
 0
LINE
 8
WHITE
 10
242.83
 20
15.41
 30
0.0000
 11
242.83
 21
29.7
 31
0.0000
 6
CONTINUOUS
 0
LINE
 8
WHITE
 10
242.83
 20
29.7
 30
0.0000
 11
247.86
 21
29.7
 31
0.0000
 6
CONTINUOUS
 0
ARC
 8
WHITE
 10
271.672
 20
32.686
 30
 0
 40
23.99849
 50
170.3956
 51
187.1475
 6
CONTINUOUS
 0
LINE
 8
WHITE
 10
248.01
 20
36.69
 30
0.0000
 11
251.71
 21
33.93
 31
0.0000
 6
CONTINUOUS
 0
ARC
 8
WHITE
 10
271.675
 20
32.784
 30
 0
 40
19.99786
 50
176.7148
 51
3.285199
 6
CONTINUOUS
 0
LINE
 8
WHITE
 10
291.64
 20
33.93
 30
0.0000
 11
298.41
 21
33.93
 31
0.0000
 6
CONTINUOUS
 0
ARC
 8
WHITE
 10
264.6
 20
30.34
 30
 0
 40
34.00006
 50
0
 51
6.061047
 6
CONTINUOUS
 0
LINE
 8
WHITE
 10
298.6
 20
30.34
 30
0.0000
 11
298.59
 21
30.59
 31
0.0000
 6
CONTINUOUS
 0
ENDSEC
 0
EOF
