  0
SECTION
  2
HEADER
999
BEZARC 1.0.1
  9
$FASTZOOM
 70
0
  9
$FILLMODE
 70
1
  9
$SPLINETYPE
 70
5
  0
ENDSEC
  0
SECTION
  2
ENTITIES
  0
POLYLINE
  8
0
 66
1
 70
1
  0
VERTEX
  8
0
 10
7.770118
 20
6.071468
 42
0.053214
  0
VERTEX
  8
0
 10
7.788099
 20
6.122608
 42
0.100037
  0
VERTEX
  8
0
 10
7.790668
 20
6.172347
 42
0.072441
  0
VERTEX
  8
0
 10
7.78446
 20
6.196076
 42
0.021742
  0
VERTEX
  8
0
 10
7.773535
 20
6.2193
 42
-0.059469
  0
VERTEX
  8
0
 10
7.758888
 20
6.254623
 42
-0.220197
  0
VERTEX
  8
0
 10
7.764512
 20
6.288171
 42
0.136583
  0
VERTEX
  8
0
 10
7.766615
 20
6.376441
 42
0.085971
  0
VERTEX
  8
0
 10
7.730888
 20
6.456304
 42
0.186139
  0
VERTEX
  8
0
 10
7.711892
 20
6.468327
 42
0.059246
  0
VERTEX
  8
0
 10
7.688951
 20
6.469671
 42
-0.078761
  0
VERTEX
  8
0
 10
7.663016
 20
6.471829
 42
-0.222049
  0
VERTEX
  8
0
 10
7.643085
 20
6.489929
 42
0.224855
  0
VERTEX
  8
0
 10
7.682315
 20
6.826194
 42
0.239747
  0
VERTEX
  8
0
 10
7.637155
 20
6.881625
 42
0.063098
  0
VERTEX
  8
0
 10
7.560626
 20
6.904119
 42
-0.03863
  0
VERTEX
  8
0
 10
7.501107
 20
6.919601
 42
0.091706
  0
VERTEX
  8
0
 10
7.474365
 20
6.932136
 42
0.027642
  0
VERTEX
  8
0
 10
7.444033
 20
6.938408
 42
-0.054188
  0
VERTEX
  8
0
 10
7.40376
 20
6.948159
 42
-0.180172
  0
VERTEX
  8
0
 10
7.374074
 20
6.973778
 42
0.02925
  0
VERTEX
  8
0
 10
7.249602
 20
7.010781
 42
-0.024815
  0
VERTEX
  8
0
 10
7.141976
 20
7.041976
 42
-0.067146
  0
VERTEX
  8
0
 10
7.037808
 20
7.095206
 42
-0.137107
  0
VERTEX
  8
0
 10
6.828576
 20
7.154986
 42
0.089598
  0
VERTEX
  8
0
 10
6.797057
 20
7.161875
 42
0.026264
  0
VERTEX
  8
0
 10
6.762682
 20
7.161508
 42
-0.070616
  0
VERTEX
  8
0
 10
6.709137
 20
7.163943
 42
-0.222856
  0
VERTEX
  8
0
 10
6.667917
 20
7.196086
 42
-0.02536
  0
VERTEX
  8
0
 10
6.499317
 20
7.237418
 42
-0.05201
  0
VERTEX
  8
0
 10
6.344729
 20
7.302569
 42
0.151238
  0
VERTEX
  8
0
 10
6.29244
 20
7.322957
 42
0.051438
  0
VERTEX
  8
0
 10
6.236384
 20
7.320186
 42
-0.040012
  0
VERTEX
  8
0
 10
6.183427
 20
7.31685
 42
-0.112823
  0
VERTEX
  8
0
 10
6.129893
 20
7.330592
 42
0.038363
  0
VERTEX
  8
0
 10
5.24726
 20
7.472798
 42
-0.001125
  0
VERTEX
  8
0
 10
5.079999
 20
7.491251
 42
-0.168917
  0
VERTEX
  8
0
 10
5.038663
 20
7.490149
 42
-0.056387
  0
VERTEX
  8
0
 10
5.002016
 20
7.507245
 42
0.027311
  0
VERTEX
  8
0
 10
4.979131
 20
7.519048
 42
0.100934
  0
VERTEX
  8
0
 10
4.956872
 20
7.524258
 42
0.156573
  0
VERTEX
  8
0
 10
4.934648
 20
7.516962
 42
0.099942
  0
VERTEX
  8
0
 10
4.911867
 20
7.491251
 42
0.056891
  0
VERTEX
  8
0
 10
4.860918
 20
7.521329
 42
0.018289
  0
VERTEX
  8
0
 10
4.804745
 20
7.543989
 42
-0.033987
  0
VERTEX
  8
0
 10
4.725902
 20
7.577768
 42
-0.095542
  0
VERTEX
  8
0
 10
4.655932
 20
7.633231
 42
0.055961
  0
VERTEX
  8
0
 10
4.527031
 20
7.646074
 42
0.130457
  0
VERTEX
  8
0
 10
4.414943
 20
7.618286
 42
-0.111039
  0
VERTEX
  8
0
 10
4.389989
 20
7.582016
 42
-0.177402
  0
VERTEX
  8
0
 10
4.362461
 20
7.571405
 42
-0.102272
  0
VERTEX
  8
0
 10
4.332834
 20
7.57811
 42
-0.026239
  0
VERTEX
  8
0
 10
4.301583
 20
7.593785
 42
0.053835
  0
VERTEX
  8
0
 10
4.254133
 20
7.615466
 42
0.192239
  0
VERTEX
  8
0
 10
4.205712
 20
7.612681
 42
0.13874
  0
VERTEX
  8
0
 10
4.110957
 20
7.651561
 42
0.05364
  0
VERTEX
  8
0
 10
4.014698
 20
7.649424
 42
-0.029503
  0
VERTEX
  8
0
 10
3.937695
 20
7.64535
 42
-0.078933
  0
VERTEX
  8
0
 10
3.856368
 20
7.659385
 42
0.208787
  0
VERTEX
  8
0
 10
3.73716
 20
7.666003
 42
0.057553
  0
VERTEX
  8
0
 10
3.626094
 20
7.61053
 42
-0.00656
  0
VERTEX
  8
0
 10
3.594831
 20
7.592132
 42
0.05283
  0
VERTEX
  8
0
 10
3.582099
 20
7.574885
 42
0.017895
  0
VERTEX
  8
0
 10
3.571964
 20
7.556023
 42
-0.044334
  0
VERTEX
  8
0
 10
3.553731
 20
7.524878
 42
0.15131
  0
VERTEX
  8
0
 10
3.534743
 20
7.49144
 42
0.037716
  0
VERTEX
  8
0
 10
3.527655
 20
7.447983
 42
-0.025577
  0
VERTEX
  8
0
 10
3.522574
 20
7.413326
 42
-0.105512
  0
VERTEX
  8
0
 10
3.511344
 20
7.38587
 42
-0.201269
  0
VERTEX
  8
0
 10
3.487701
 20
7.3718
 42
-0.117565
  0
VERTEX
  8
0
 10
3.445379
 20
7.377294
 42
0.15896
  0
VERTEX
  8
0
 10
3.267439
 20
7.292995
 42
0.095933
  0
VERTEX
  8
0
 10
3.14274
 20
7.128832
 42
-0.06535
  0
VERTEX
  8
0
 10
3.060666
 20
7.102139
 42
-0.019972
  0
VERTEX
  8
0
 10
2.972801
 20
7.089061
 42
0.027286
  0
VERTEX
  8
0
 10
2.881201
 20
7.074656
 42
0.031364
  0
VERTEX
  8
0
 10
2.063729
 20
6.949833
 42
-0.002313
  0
VERTEX
  8
0
 10
1.838781
 20
6.906524
 42
0.097441
  0
VERTEX
  8
0
 10
1.75845
 20
6.870562
 42
0.188067
  0
VERTEX
  8
0
 10
1.711747
 20
6.798172
 42
0.005817
  0
VERTEX
  8
0
 10
1.670868
 20
6.553648
 42
-0.023964
  0
VERTEX
  8
0
 10
1.577242
 20
6.065864
 42
-0.015361
  0
VERTEX
  8
0
 10
1.104768
 20
5.929666
 42
0.002574
  0
VERTEX
  8
0
 10
0.910317
 20
5.877179
 42
0.2584
  0
VERTEX
  8
0
 10
0.831483
 20
5.776872
 42
0.072372
  0
VERTEX
  8
0
 10
0.832832
 20
5.640579
 42
-0.010364
  0
VERTEX
  8
0
 10
0.837485
 20
5.588717
 42
-0.036337
  0
VERTEX
  8
0
 10
0.83746
 20
5.540915
 42
-0.131768
  0
VERTEX
  8
0
 10
0.813659
 20
5.52851
 42
-0.06032
  0
VERTEX
  8
0
 10
0.790535
 20
5.527237
 42
0.037085
  0
VERTEX
  8
0
 10
0.770997
 20
5.526743
 42
0.087873
  0
VERTEX
  8
0
 10
0.749657
 20
5.520365
 42
0.117098
  0
VERTEX
  8
0
 10
0.739663
 20
5.472211
 42
0.043205
  0
VERTEX
  8
0
 10
0.74582
 20
5.425497
 42
-0.026395
  0
VERTEX
  8
0
 10
0.751703
 20
5.387261
 42
-0.072606
  0
VERTEX
  8
0
 10
0.749657
 20
5.346629
 42
0.089658
  0
VERTEX
  8
0
 10
0.688342
 20
5.268474
 42
0.03271
  0
VERTEX
  8
0
 10
0.651964
 20
5.186635
 42
-0.000444
  0
VERTEX
  8
0
 10
0.648778
 20
5.178497
 42
-0.010862
  0
VERTEX
  8
0
 10
0.683512
 20
4.873188
 42
0.003801
  0
VERTEX
  8
0
 10
0.702954
 20
4.687178
 42
-0.052351
  0
VERTEX
  8
0
 10
0.701764
 20
4.678862
 42
-0.163606
  0
VERTEX
  8
0
 10
0.699743
 20
4.675297
 42
-0.231757
  0
VERTEX
  8
0
 10
0.697108
 20
4.674929
 42
-0.052375
  0
VERTEX
  8
0
 10
0.69408
 20
4.676202
 42
0.047444
  0
VERTEX
  8
0
 10
0.690876
 20
4.677563
 42
0.17776
  0
VERTEX
  8
0
 10
0.687716
 20
4.677457
 42
0.171073
  0
VERTEX
  8
0
 10
0.684819
 20
4.67433
 42
0.068661
  0
VERTEX
  8
0
 10
0.682404
 20
4.666628
 42
0.120663
  0
VERTEX
  8
0
 10
0.640866
 20
4.643045
 42
0.189672
  0
VERTEX
  8
0
 10
0.628317
 20
4.613362
 42
0.098931
  0
VERTEX
  8
0
 10
0.635317
 20
4.579165
 42
0.024489
  0
VERTEX
  8
0
 10
0.652428
 20
4.542039
 42
-0.043832
  0
VERTEX
  8
0
 10
0.674981
 20
4.489621
 42
-0.169619
  0
VERTEX
  8
0
 10
0.674932
 20
4.438715
 42
0.026816
  0
VERTEX
  8
0
 10
0.679556
 20
4.395434
 42
-0.069248
  0
VERTEX
  8
0
 10
0.6831
 20
4.328638
 42
-0.237588
  0
VERTEX
  8
0
 10
0.648778
 20
4.276186
 42
-0.021626
  0
VERTEX
  8
0
 10
0.64778
 20
4.258489
 42
0.064567
  0
VERTEX
  8
0
 10
0.647753
 20
4.230784
 42
0.15044
  0
VERTEX
  8
0
 10
0.661853
 20
4.203329
 42
0.040754
  0
VERTEX
  8
0
 10
0.827698
 20
4.177951
 42
-0.015503
  0
VERTEX
  8
0
 10
0.929944
 20
4.16576
 42
-0.051674
  0
VERTEX
  8
0
 10
1.024272
 20
4.141681
 42
-0.005022
  0
VERTEX
  8
0
 10
1.04952
 20
4.054021
 42
0.019042
  0
VERTEX
  8
0
 10
1.101938
 20
3.884021
 42
0.058029
  0
VERTEX
  8
0
 10
1.179328
 20
3.725086
 42
0.183998
  0
VERTEX
  8
0
 10
1.424564
 20
3.583736
 42
0.056386
  0
VERTEX
  8
0
 10
1.720315
 20
3.574016
 42
-0.00807
  0
VERTEX
  8
0
 10
1.838781
 20
3.577503
 42
0.097577
  0
VERTEX
  8
0
 10
1.909812
 20
3.628031
 42
0.033245
  0
VERTEX
  8
0
 10
1.963921
 20
3.693922
 42
-0.011986
  0
VERTEX
  8
0
 10
1.993835
 20
3.732558
 42
0.049165
  0
VERTEX
  8
0
 10
2.015937
 20
3.779305
 42
0.016345
  0
VERTEX
  8
0
 10
2.031738
 20
3.828569
 42
-0.014736
  0
VERTEX
  8
0
 10
2.046572
 20
3.875163
 42
-0.044736
  0
VERTEX
  8
0
 10
2.066693
 20
3.919372
 42
0.008331
  0
VERTEX
  8
0
 10
2.258784
 20
3.920045
 42
-0.009103
  0
VERTEX
  8
0
 10
2.460298
 20
3.920546
 42
-0.037253
  0
VERTEX
  8
0
 10
2.63274
 20
3.906294
 42
-0.169653
  0
VERTEX
  8
0
 10
2.64135
 20
3.910865
 42
-0.042823
  0
VERTEX
  8
0
 10
2.656138
 20
3.913004
 42
-0.022502
  0
VERTEX
  8
0
 10
2.686557
 20
3.91342
 42
0.009677
  0
VERTEX
  8
0
 10
2.692639
 20
3.913356
 42
0.145433
  0
VERTEX
  8
0
 10
2.69348
 20
3.913478
 42
0.118953
  0
VERTEX
  8
0
 10
2.692519
 20
3.913767
 42
0.048498
  0
VERTEX
  8
0
 10
2.954562
 20
3.924637
 42
0.015214
  0
VERTEX
  8
0
 10
3.221678
 20
3.96976
 42
-0.034726
  0
VERTEX
  8
0
 10
3.628457
 20
4.027724
 42
0.073658
  0
VERTEX
  8
0
 10
3.730503
 20
3.733726
 42
0.183485
  0
VERTEX
  8
0
 10
3.95725
 20
3.5308
 42
-0.034512
  0
VERTEX
  8
0
 10
4.083452
 20
3.530385
 42
0.034513
  0
VERTEX
  8
0
 10
4.209655
 20
3.529969
 42
0.110009
  0
VERTEX
  8
0
 10
4.32714
 20
3.564426
 42
0.185662
  0
VERTEX
  8
0
 10
4.516055
 20
3.8283
 42
0.069234
  0
VERTEX
  8
0
 10
4.555053
 20
4.162231
 42
-0.096993
  0
VERTEX
  8
0
 10
4.573501
 20
4.177409
 42
-0.122024
  0
VERTEX
  8
0
 10
4.596153
 20
4.182779
 42
0.130845
  0
VERTEX
  8
0
 10
4.752533
 20
4.177612
 42
0.045637
  0
VERTEX
  8
0
 10
4.896794
 20
4.227254
 42
-0.022633
  0
VERTEX
  8
0
 10
4.997011
 20
4.265192
 42
-0.070277
  0
VERTEX
  8
0
 10
5.100549
 20
4.28366
 42
0.150993
  0
VERTEX
  8
0
 10
5.108576
 20
4.251755
 42
0.071087
  0
VERTEX
  8
0
 10
5.132541
 20
4.221777
 42
0.050408
  0
VERTEX
  8
0
 10
5.193956
 20
4.175307
 42
-0.032257
  0
VERTEX
  8
0
 10
5.296079
 20
4.169744
 42
0.038981
  0
VERTEX
  8
0
 10
5.410653
 20
4.164542
 42
0.139096
  0
VERTEX
  8
0
 10
5.51154
 20
4.195856
 42
0.143241
  0
VERTEX
  8
0
 10
5.582335
 20
4.169008
 42
0.053799
  0
VERTEX
  8
0
 10
5.655104
 20
4.173269
 42
-0.020693
  0
VERTEX
  8
0
 10
5.705706
 20
4.178369
 42
-0.055875
  0
VERTEX
  8
0
 10
5.760003
 20
4.175307
 42
0.23268
  0
VERTEX
  8
0
 10
5.864542
 20
4.225223
 42
0.064724
  0
VERTEX
  8
0
 10
5.925197
 20
4.32607
 42
-0.002406
  0
VERTEX
  8
0
 10
5.933739
 20
4.34344
 42
-0.006368
  0
VERTEX
  8
0
 10
5.952627
 20
4.339934
 42
0.02973
  0
VERTEX
  8
0
 10
6.005711
 20
4.331862
 42
0.119428
  0
VERTEX
  8
0
 10
6.055168
 20
4.337836
 42
-0.153626
  0
VERTEX
  8
0
 10
6.098237
 20
4.347207
 42
-0.048529
  0
VERTEX
  8
0
 10
6.14201
 20
4.338637
 42
0.020958
  0
VERTEX
  8
0
 10
6.169081
 20
4.332291
 42
0.074369
  0
VERTEX
  8
0
 10
6.194372
 20
4.331121
 42
0.131035
  0
VERTEX
  8
0
 10
6.217074
 20
4.340046
 42
0.114178
  0
VERTEX
  8
0
 10
6.236376
 20
4.363989
 42
0.109867
  0
VERTEX
  8
0
 10
6.313802
 20
4.535673
 42
0.033633
  0
VERTEX
  8
0
 10
6.340919
 20
4.725642
 42
-0.036904
  0
VERTEX
  8
0
 10
6.365278
 20
4.89454
 42
0.036386
  0
VERTEX
  8
0
 10
6.380366
 20
4.91756
 42
0.010346
  0
VERTEX
  8
0
 10
6.394486
 20
4.944017
 42
-0.020463
  0
VERTEX
  8
0
 10
6.415516
 20
4.98217
 42
-0.072766
  0
VERTEX
  8
0
 10
6.440989
 20
5.013528
 42
-0.143104
  0
VERTEX
  8
0
 10
6.474672
 20
5.029986
 42
-0.135694
  0
VERTEX
  8
0
 10
6.520333
 20
5.023442
  0
VERTEX
  8
0
 10
6.520333
 20
5.077618
 42
-0.226552
  0
VERTEX
  8
0
 10
6.54519
 20
5.097556
 42
-0.078794
  0
VERTEX
  8
0
 10
6.577615
 20
5.097598
 42
0.037728
  0
VERTEX
  8
0
 10
6.606268
 20
5.096299
 42
0.120716
  0
VERTEX
  8
0
 10
6.696841
 20
5.071365
 42
0.033219
  0
VERTEX
  8
0
 10
6.799534
 20
5.074174
 42
-0.025392
  0
VERTEX
  8
0
 10
6.886869
 20
5.077484
 42
-0.095531
  0
VERTEX
  8
0
 10
6.963083
 20
5.062672
 42
-0.014126
  0
VERTEX
  8
0
 10
6.979453
 20
4.995112
 42
0.02931
  0
VERTEX
  8
0
 10
7.004466
 20
4.900193
 42
0.088249
  0
VERTEX
  8
0
 10
7.050885
 20
4.814211
 42
0.094803
  0
VERTEX
  8
0
 10
7.190422
 20
4.790503
 42
0.031434
  0
VERTEX
  8
0
 10
7.331246
 20
4.802667
 42
-0.041474
  0
VERTEX
  8
0
 10
7.488029
 20
4.814211
 42
-0.2004
  0
VERTEX
  8
0
 10
7.569257
 20
4.871184
 42
-0.057937
  0
VERTEX
  8
0
 10
7.67333
 20
4.881113
 42
0.001405
  0
VERTEX
  8
0
 10
7.689788
 20
4.881462
 42
0.177813
  0
VERTEX
  8
0
 10
7.732989
 20
4.935406
 42
0.064579
  0
VERTEX
  8
0
 10
7.749568
 20
5.010365
 42
-0.010562
  0
VERTEX
  8
0
 10
7.75257
 20
5.113929
 42
0.043265
  0
VERTEX
  8
0
 10
7.749353
 20
5.334469
 42
0.142411
  0
VERTEX
  8
0
 10
7.669239
 20
5.533443
 42
0.127453
  0
VERTEX
  8
0
 10
7.626174
 20
5.54675
 42
0.03088
  0
VERTEX
  8
0
 10
7.573168
 20
5.547052
 42
-0.055
  0
VERTEX
  8
0
 10
7.503625
 20
5.549555
 42
-0.231606
  0
VERTEX
  8
0
 10
7.454403
 20
5.582014
 42
-0.108731
  0
VERTEX
  8
0
 10
7.53053
 20
5.596026
 42
-0.048146
  0
VERTEX
  8
0
 10
7.609458
 20
5.587619
  0
VERTEX
  8
0
 10
7.630007
 20
5.608168
  0
VERTEX
  8
0
 10
7.615062
 20
5.776301
 42
-0.040917
  0
VERTEX
  8
0
 10
7.677305
 20
5.793659
 42
0.068711
  0
VERTEX
  8
0
 10
7.757096
 20
5.819042
 42
0.202029
  0
VERTEX
  8
0
 10
7.811217
 20
5.884654
 42
-0.041217
  0
VERTEX
  8
0
 10
7.810317
 20
5.910824
 42
-0.011318
  0
VERTEX
  8
0
 10
7.812243
 20
5.939957
 42
0.067856
  0
VERTEX
  8
0
 10
7.811667
 20
6.014383
 42
0.239872
  0
SEQEND
  8
0
  0
POLYLINE
  8
0
 66
1
 70
1
  0
VERTEX
  8
0
 10
7.648689
 20
5.42696
  0
VERTEX
  8
0
 10
7.615062
 20
5.413882
 42
-0.110583
  0
VERTEX
  8
0
 10
7.616578
 20
5.446128
 42
-0.04139
  0
VERTEX
  8
0
 10
7.627478
 20
5.474656
 42
0.019281
  0
VERTEX
  8
0
 10
7.635612
 20
5.494211
 42
-0.187454
  0
VERTEX
  8
0
 10
7.663069
 20
5.472878
 42
-0.052237
  0
VERTEX
  8
0
 10
7.679015
 20
5.438827
 42
0.029199
  0
VERTEX
  8
0
 10
7.689788
 20
5.413882
 42
-0.091291
  0
VERTEX
  8
0
 10
7.721034
 20
5.271203
 42
-0.030914
  0
VERTEX
  8
0
 10
7.716111
 20
5.124541
 42
0.024863
  0
VERTEX
  8
0
 10
7.710338
 20
4.982343
 42
-0.068027
  0
VERTEX
  8
0
 10
7.700715
 20
4.959051
 42
-0.022583
  0
VERTEX
  8
0
 10
7.68677
 20
4.937531
 42
0.009537
  0
VERTEX
  8
0
 10
7.676711
 20
4.922562
 42
-0.119985
  0
VERTEX
  8
0
 10
7.62417
 20
5.029747
 42
-0.054919
  0
VERTEX
  8
0
 10
7.609458
 20
5.157947
 42
0.100286
  0
VERTEX
  8
0
 10
7.636397
 20
5.155232
 42
0.15423
  0
VERTEX
  8
0
 10
7.653678
 20
5.163105
 42
0.095175
  0
VERTEX
  8
0
 10
7.664839
 20
5.1789
 42
0.024543
  0
VERTEX
  8
0
 10
7.673423
 20
5.199949
 42
-0.040136
  0
VERTEX
  8
0
 10
7.688168
 20
5.233733
 42
-0.017507
  0
VERTEX
  8
0
 10
7.686729
 20
5.289585
 42
0.051283
  0
VERTEX
  8
0
 10
7.6819
 20
5.362225
 42
0.137315
  0
SEQEND
  8
0
  0
POLYLINE
  8
0
 66
1
 70
1
  0
VERTEX
  8
0
 10
7.730888
 20
6.200369
 42
0.128851
  0
VERTEX
  8
0
 10
7.715397
 20
6.206764
 42
0.221048
  0
VERTEX
  8
0
 10
7.705295
 20
6.20305
 42
0.100861
  0
VERTEX
  8
0
 10
7.698745
 20
6.192468
 42
0.023387
  0
VERTEX
  8
0
 10
7.693913
 20
6.178262
 42
-0.059596
  0
VERTEX
  8
0
 10
7.685328
 20
6.156334
 42
-0.107034
  0
VERTEX
  8
0
 10
7.678672
 20
6.148994
 42
-0.153535
  0
VERTEX
  8
0
 10
7.669239
 20
6.146193
 42
-0.179987
  0
VERTEX
  8
0
 10
7.667007
 20
6.151381
 42
-0.047325
  0
VERTEX
  8
0
 10
7.667261
 20
6.157912
 42
0.106424
  0
VERTEX
  8
0
 10
7.666752
 20
6.169518
 42
0.114696
  0
VERTEX
  8
0
 10
7.663357
 20
6.175018
 42
0.093288
  0
VERTEX
  8
0
 10
7.656161
 20
6.179819
 42
0.2518
  0
VERTEX
  8
0
 10
7.628264
 20
6.172585
 42
0.085167
  0
VERTEX
  8
0
 10
7.612699
 20
6.148833
 42
-0.03933
  0
VERTEX
  8
0
 10
7.602773
 20
6.131595
 42
-0.142669
  0
VERTEX
  8
0
 10
7.58891
 20
6.120039
 42
0.238071
  0
VERTEX
  8
0
 10
7.581837
 20
6.125331
 42
0.063689
  0
VERTEX
  8
0
 10
7.572164
 20
6.125745
 42
-0.009738
  0
VERTEX
  8
0
 10
7.568358
 20
6.125643
 42
0.13876
  0
VERTEX
  8
0
 10
7.575617
 20
6.161755
 42
0.045282
  0
VERTEX
  8
0
 10
7.569125
 20
6.198283
 42
-0.04515
  0
VERTEX
  8
0
 10
7.562756
 20
6.233996
 42
0.2381
  0
VERTEX
  8
0
 10
7.568047
 20
6.241067
 42
0.063683
  0
VERTEX
  8
0
 10
7.56846
 20
6.250739
 42
-0.00974
  0
VERTEX
  8
0
 10
7.568358
 20
6.254544
 42
0.122841
  0
VERTEX
  8
0
 10
7.604531
 20
6.247418
 42
0.036988
  0
VERTEX
  8
0
 10
7.642449
 20
6.251994
 42
-0.026678
  0
VERTEX
  8
0
 10
7.672064
 20
6.256009
 42
-0.10151
  0
VERTEX
  8
0
 10
7.6981
 20
6.253158
 42
-0.166685
  0
VERTEX
  8
0
 10
7.71842
 20
6.236818
 42
-0.105606
  0
SEQEND
  8
0
  0
POLYLINE
  8
0
 66
1
 70
1
  0
VERTEX
  8
0
 10
7.648689
 20
6.826194
 42
-0.055895
  0
VERTEX
  8
0
 10
7.656108
 20
6.775834
 42
-0.017334
  0
VERTEX
  8
0
 10
7.656231
 20
6.723361
 42
0.014613
  0
VERTEX
  8
0
 10
7.656161
 20
6.676744
 42
-0.118642
  0
VERTEX
  8
0
 10
7.625777
 20
6.678684
 42
-0.21977
  0
VERTEX
  8
0
 10
7.612037
 20
6.692036
 42
-0.105937
  0
VERTEX
  8
0
 10
7.609513
 20
6.7138
 42
-0.023673
  0
VERTEX
  8
0
 10
7.61278
 20
6.740976
 42
0.048633
  0
VERTEX
  8
0
 10
7.616628
 20
6.78612
 42
0.175934
  0
VERTEX
  8
0
 10
7.601985
 20
6.826194
  0
VERTEX
  8
0
 10
7.575832
 20
6.852349
 42
-0.341119
  0
VERTEX
  8
0
 10
7.601508
 20
6.858225
 42
-0.073172
  0
VERTEX
  8
0
 10
7.628408
 20
6.840493
 42
0.010919
  0
VERTEX
  8
0
 10
7.638793
 20
6.832431
 42
0.040788
  0
SEQEND
  8
0
  0
POLYLINE
  8
0
 66
1
 70
1
  0
VERTEX
  8
0
 10
7.682315
 20
6.435754
 42
-0.201017
  0
VERTEX
  8
0
 10
7.70438
 20
6.420718
 42
-0.070869
  0
VERTEX
  8
0
 10
7.714227
 20
6.396839
 42
0.015752
  0
VERTEX
  8
0
 10
7.718165
 20
6.384944
 42
0.051025
  0
VERTEX
  8
0
 10
7.723415
 20
6.374106
 42
-0.102535
  0
VERTEX
  8
0
 10
7.708048
 20
6.360868
 42
-0.152151
  0
VERTEX
  8
0
 10
7.694332
 20
6.358304
 42
-0.098812
  0
VERTEX
  8
0
 10
7.681763
 20
6.36282
 42
-0.028284
  0
VERTEX
  8
0
 10
7.669838
 20
6.370826
 42
0.032294
  0
VERTEX
  8
0
 10
7.657394
 20
6.379094
 42
0.118374
  0
VERTEX
  8
0
 10
7.644512
 20
6.38303
 42
0.166454
  0
VERTEX
  8
0
 10
7.630599
 20
6.378415
 42
0.092581
  0
VERTEX
  8
0
 10
7.615062
 20
6.361029
 42
0.119691
  0
VERTEX
  8
0
 10
7.595214
 20
6.378309
 42
0.163287
  0
VERTEX
  8
0
 10
7.568358
 20
6.381578
  0
VERTEX
  8
0
 10
7.562756
 20
6.374106
 42
-0.128949
  0
VERTEX
  8
0
 10
7.546404
 20
6.417106
 42
-0.328002
  0
VERTEX
  8
0
 10
7.559388
 20
6.43661
 42
-0.104095
  0
VERTEX
  8
0
 10
7.590842
 20
6.440579
 42
-0.02151
  0
VERTEX
  8
0
 10
7.629902
 20
6.436978
 42
0.016481
  0
VERTEX
  8
0
 10
7.660356
 20
6.433943
 42
0.092926
  0
SEQEND
  8
0
  0
POLYLINE
  8
0
 66
1
 70
1
  0
VERTEX
  8
0
 10
7.54781
 20
5.910807
 42
-0.172378
  0
VERTEX
  8
0
 10
7.561177
 20
5.895578
 42
-0.042661
  0
VERTEX
  8
0
 10
7.568401
 20
5.873376
 42
0.011273
  0
VERTEX
  8
0
 10
7.571717
 20
5.861587
 42
0.039218
  0
VERTEX
  8
0
 10
7.575832
 20
5.851028
 42
-0.225626
  0
VERTEX
  8
0
 10
7.565919
 20
5.843609
 42
-0.073171
  0
VERTEX
  8
0
 10
7.553439
 20
5.843484
 42
0.014345
  0
VERTEX
  8
0
 10
7.547677
 20
5.843861
 42
0.047623
  0
VERTEX
  8
0
 10
7.542206
 20
5.843556
 42
0.073378
  0
VERTEX
  8
0
 10
7.540163
 20
5.855484
 42
0.021324
  0
VERTEX
  8
0
 10
7.535712
 20
5.867572
 42
-0.024769
  0
VERTEX
  8
0
 10
7.531176
 20
5.880044
 42
-0.093135
  0
VERTEX
  8
0
 10
7.529711
 20
5.891735
 42
-0.164684
  0
VERTEX
  8
0
 10
7.53427
 20
5.902154
 42
-0.11564
  0
SEQEND
  8
0
  0
POLYLINE
  8
0
 66
1
 70
1
  0
VERTEX
  8
0
 10
7.519729
 20
5.945769
 42
0.085181
  0
VERTEX
  8
0
 10
7.507656
 20
5.944198
 42
0.018787
  0
VERTEX
  8
0
 10
7.493212
 20
5.939477
 42
-0.070735
  0
VERTEX
  8
0
 10
7.463551
 20
5.931904
 42
-0.325334
  0
VERTEX
  8
0
 10
7.441326
 20
5.944433
 42
-0.071522
  0
VERTEX
  8
0
 10
7.453936
 20
5.99394
 42
-0.117563
  0
VERTEX
  8
0
 10
7.480557
 20
6.032236
 42
0.039965
  0
VERTEX
  8
0
 10
7.471486
 20
6.384684
 42
-0.035175
  0
VERTEX
  8
0
 10
7.461875
 20
6.663667
 42
-0.18461
  0
VERTEX
  8
0
 10
7.494194
 20
6.578368
 42
-0.025761
  0
VERTEX
  8
0
 10
7.515231
 20
6.386517
 42
-0.029347
  0
SEQEND
  8
0
  0
POLYLINE
  8
0
 66
1
 70
1
  0
VERTEX
  8
0
 10
7.454403
 20
5.755751
 42
-0.183023
  0
VERTEX
  8
0
 10
7.433564
 20
5.773124
 42
-0.107591
  0
VERTEX
  8
0
 10
7.425732
 20
5.800912
 42
-0.057488
  0
VERTEX
  8
0
 10
7.430635
 20
5.866529
 42
0.013154
  0
VERTEX
  8
0
 10
7.433853
 20
5.890258
  0
VERTEX
  8
0
 10
7.495501
 20
5.884654
  0
VERTEX
  8
0
 10
7.495501
 20
5.830476
 42
0.178129
  0
VERTEX
  8
0
 10
7.48542
 20
5.837425
 42
0.166431
  0
VERTEX
  8
0
 10
7.475395
 20
5.835838
 42
0.086528
  0
VERTEX
  8
0
 10
7.457939
 20
5.821091
 42
-0.007383
  0
VERTEX
  8
0
 10
7.454403
 20
5.817399
 42
0.118433
  0
VERTEX
  8
0
 10
7.453517
 20
5.802341
 42
0.043499
  0
VERTEX
  8
0
 10
7.457383
 20
5.788736
 42
-0.079339
  0
VERTEX
  8
0
 10
7.461273
 20
5.772385
 42
-0.200977
  0
SEQEND
  8
0
  0
POLYLINE
  8
0
 66
1
 70
1
  0
VERTEX
  8
0
 10
6.02154
 20
6.099489
 42
0.107664
  0
VERTEX
  8
0
 10
6.005896
 20
6.101619
 42
0.12339
  0
VERTEX
  8
0
 10
5.994143
 20
6.097333
 42
0.092323
  0
VERTEX
  8
0
 10
5.976839
 20
6.077652
 42
-0.101636
  0
VERTEX
  8
0
 10
5.956481
 20
6.055249
 42
-0.118298
  0
VERTEX
  8
0
 10
5.941406
 20
6.050185
 42
-0.097881
  0
VERTEX
  8
0
 10
5.920662
 20
6.052786
 42
-0.049255
  0
VERTEX
  8
0
 10
5.914867
 20
6.177891
 42
0.013604
  0
VERTEX
  8
0
 10
5.915057
 20
6.233996
 42
-0.093056
  0
VERTEX
  8
0
 10
6.112793
 20
6.267791
 42
-0.029473
  0
VERTEX
  8
0
 10
6.316667
 20
6.2526
 42
0.017491
  0
VERTEX
  8
0
 10
6.469051
 20
6.238772
 42
0.057898
  0
VERTEX
  8
0
 10
6.61374
 20
6.247072
 42
-0.023324
  0
VERTEX
  8
0
 10
6.817603
 20
6.2402
 42
0.021748
  0
VERTEX
  8
0
 10
7.014618
 20
6.233144
 42
0.059707
  0
VERTEX
  8
0
 10
7.219018
 20
6.26015
 42
0.034128
  0
VERTEX
  8
0
 10
7.286942
 20
6.260573
 42
-0.024954
  0
VERTEX
  8
0
 10
7.362784
 20
6.261627
 42
-0.102864
  0
VERTEX
  8
0
 10
7.42825
 20
6.247072
 42
-0.09734
  0
VERTEX
  8
0
 10
7.432219
 20
6.190328
 42
-0.055467
  0
VERTEX
  8
0
 10
7.420776
 20
6.146193
 42
0.15157
  0
VERTEX
  8
0
 10
7.398823
 20
6.146334
 42
0.037829
  0
VERTEX
  8
0
 10
7.37498
 20
6.137611
 42
-0.023836
  0
VERTEX
  8
0
 10
7.355651
 20
6.13015
 42
-0.088384
  0
VERTEX
  8
0
 10
7.337218
 20
6.127271
 42
-0.162903
  0
VERTEX
  8
0
 10
7.320626
 20
6.133575
 42
-0.122637
  0
VERTEX
  8
0
 10
7.306819
 20
6.153665
 42
-0.041143
  0
VERTEX
  8
0
 10
6.948434
 20
6.117589
 42
-0.003582
  0
VERTEX
  8
0
 10
6.357828
 20
6.088287
 42
0.011527
  0
VERTEX
  8
0
 10
6.04209
 20
6.071468
  0
VERTEX
  8
0
 10
6.02154
 20
6.052786
 42
-0.128944
  0
VERTEX
  8
0
 10
6.016483
 20
6.058471
 42
-0.153515
  0
VERTEX
  8
0
 10
6.015761
 20
6.064286
 42
-0.080059
  0
VERTEX
  8
0
 10
6.017928
 20
6.07019
 42
-0.02178
  0
VERTEX
  8
0
 10
6.021541
 20
6.076137
 42
0.021781
  0
VERTEX
  8
0
 10
6.025153
 20
6.082085
 42
0.080063
  0
VERTEX
  8
0
 10
6.02732
 20
6.087988
 42
0.153521
  0
VERTEX
  8
0
 10
6.026598
 20
6.093804
 42
0.128941
  0
SEQEND
  8
0
  0
POLYLINE
  8
0
 66
1
 70
1
  0
VERTEX
  8
0
 10
5.974838
 20
5.380256
 42
0.166826
  0
VERTEX
  8
0
 10
5.94964
 20
5.380381
 42
0.051571
  0
VERTEX
  8
0
 10
5.926469
 20
5.369666
 42
-0.025875
  0
VERTEX
  8
0
 10
5.911952
 20
5.36232
 42
-0.102
  0
VERTEX
  8
0
 10
5.898362
 20
5.359175
 42
-0.17495
  0
VERTEX
  8
0
 10
5.885697
 20
5.363922
 42
-0.108559
  0
VERTEX
  8
0
 10
5.873958
 20
5.380256
  0
VERTEX
  8
0
 10
5.881431
 20
5.507289
  0
VERTEX
  8
0
 10
5.961761
 20
5.486739
 42
-0.099948
  0
VERTEX
  8
0
 10
5.973903
 20
5.439102
 42
-0.035611
  0
SEQEND
  8
0
  0
POLYLINE
  8
0
 66
1
 70
1
  0
VERTEX
  8
0
 10
7.433853
 20
6.927074
 42
-0.233543
  0
VERTEX
  8
0
 10
7.446454
 20
6.909659
 42
-0.063287
  0
VERTEX
  8
0
 10
7.447295
 20
6.886328
 42
0.020569
  0
VERTEX
  8
0
 10
7.447045
 20
6.873525
 42
0.081573
  0
VERTEX
  8
0
 10
7.448925
 20
6.862678
 42
0.171188
  0
VERTEX
  8
0
 10
7.455035
 20
6.85516
 42
0.136854
  0
VERTEX
  8
0
 10
7.467479
 20
6.852349
 42
-0.253373
  0
VERTEX
  8
0
 10
7.489259
 20
6.816047
 42
-0.074114
  0
VERTEX
  8
0
 10
7.483671
 20
6.773265
 42
0.010277
  0
VERTEX
  8
0
 10
7.480557
 20
6.758942
 42
-0.172082
  0
VERTEX
  8
0
 10
7.454816
 20
6.778931
 42
-0.061987
  0
VERTEX
  8
0
 10
7.442157
 20
6.807893
 42
0.016023
  0
VERTEX
  8
0
 10
7.436223
 20
6.824007
 42
0.048267
  0
VERTEX
  8
0
 10
7.42825
 20
6.839272
 42
0.236396
  0
VERTEX
  8
0
 10
7.413408
 20
6.793425
 42
0.080036
  0
VERTEX
  8
0
 10
7.430444
 20
6.749395
 42
-0.029991
  0
VERTEX
  8
0
 10
7.442614
 20
6.723103
 42
-0.109011
  0
VERTEX
  8
0
 10
7.446931
 20
6.697293
 42
-0.182213
  0
VERTEX
  8
0
 10
7.413791
 20
6.725886
 42
-0.054935
  0
VERTEX
  8
0
 10
7.39679
 20
6.76855
 42
0.01353
  0
VERTEX
  8
0
 10
7.389252
 20
6.790866
 42
0.044324
  0
VERTEX
  8
0
 10
7.379678
 20
6.81125
 42
0.009333
  0
VERTEX
  8
0
 10
7.385506
 20
6.835034
 42
-0.044484
  0
VERTEX
  8
0
 10
7.401425
 20
6.889059
 42
-0.178672
  0
SEQEND
  8
0
  0
POLYLINE
  8
0
 66
1
 70
1
  0
VERTEX
  8
0
 10
7.394622
 20
6.489929
 42
0.09258
  0
VERTEX
  8
0
 10
7.387605
 20
6.479296
 42
0.332887
  0
VERTEX
  8
0
 10
7.388568
 20
6.473894
 42
0.143308
  0
VERTEX
  8
0
 10
7.394563
 20
6.471977
 42
0.027107
  0
VERTEX
  8
0
 10
7.402646
 20
6.471797
 42
-0.036113
  0
VERTEX
  8
0
 10
7.410089
 20
6.471574
 42
-0.099142
  0
VERTEX
  8
0
 10
7.412432
 20
6.470846
 42
-0.275689
  0
VERTEX
  8
0
 10
7.413304
 20
6.469381
  0
VERTEX
  8
0
 10
7.413304
 20
6.355424
 42
0.330639
  0
VERTEX
  8
0
 10
7.372205
 20
6.390452
 42
0.285247
  0
VERTEX
  8
0
 10
7.319897
 20
6.361029
 42
-0.047678
  0
VERTEX
  8
0
 10
7.315798
 20
6.369453
 42
-0.015556
  0
VERTEX
  8
0
 10
7.312754
 20
6.378436
 42
0.050716
  0
VERTEX
  8
0
 10
7.306461
 20
6.394493
 42
0.1354
  0
VERTEX
  8
0
 10
7.293743
 20
6.407732
 42
-0.091448
  0
VERTEX
  8
0
 10
7.224272
 20
6.400582
 42
-0.011782
  0
VERTEX
  8
0
 10
7.069492
 20
6.403934
 42
-0.00439
  0
VERTEX
  8
0
 10
6.619964
 20
6.428014
 42
0.004096
  0
VERTEX
  8
0
 10
6.191632
 20
6.451122
 42
0.054694
  0
VERTEX
  8
0
 10
5.974838
 20
6.448831
 42
0.02823
  0
VERTEX
  8
0
 10
5.970542
 20
6.436698
 42
-0.087158
  0
VERTEX
  8
0
 10
5.961787
 20
6.41682
 42
-0.248086
  0
VERTEX
  8
0
 10
5.941211
 20
6.407732
 42
0.097687
  0
VERTEX
  8
0
 10
5.940925
 20
6.426038
 42
0.162594
  0
VERTEX
  8
0
 10
5.934756
 20
6.436196
 42
0.110786
  0
VERTEX
  8
0
 10
5.924718
 20
6.440915
 42
0.031016
  0
VERTEX
  8
0
 10
5.912824
 20
6.442906
 42
-0.062057
  0
VERTEX
  8
0
 10
5.897193
 20
6.446141
 42
-0.227408
  0
VERTEX
  8
0
 10
5.887035
 20
6.456304
 42
-0.07402
  0
VERTEX
  8
0
 10
5.88079
 20
6.488072
 42
-0.021539
  0
VERTEX
  8
0
 10
5.880496
 20
6.522814
 42
0.021227
  0
VERTEX
  8
0
 10
5.880206
 20
6.557951
 42
0.070678
  0
VERTEX
  8
0
 10
5.873958
 20
6.59081
 42
0.029251
  0
VERTEX
  8
0
 10
6.104746
 20
6.592226
 42
-0.054785
  0
VERTEX
  8
0
 10
6.419454
 20
6.583336
 42
0.021766
  0
VERTEX
  8
0
 10
6.791541
 20
6.547762
 42
-0.026874
  0
VERTEX
  8
0
 10
7.22649
 20
6.503007
  0
SEQEND
  8
0
  0
POLYLINE
  8
0
 66
1
 70
1
  0
VERTEX
  8
0
 10
6.789346
 20
7.067183
 42
0.031555
  0
VERTEX
  8
0
 10
6.994015
 20
7.020273
 42
-0.007803
  0
VERTEX
  8
0
 10
7.097589
 20
6.999932
 42
0.00605
  0
VERTEX
  8
0
 10
7.152827
 20
6.987343
 42
-0.024432
  0
VERTEX
  8
0
 10
7.260852
 20
6.959948
 42
-0.073377
  0
VERTEX
  8
0
 10
7.360996
 20
6.912129
 42
0.214104
  0
VERTEX
  8
0
 10
7.333546
 20
6.828434
 42
0.06466
  0
VERTEX
  8
0
 10
7.355832
 20
6.741255
 42
-0.010911
  0
VERTEX
  8
0
 10
7.366926
 20
6.707895
 42
-0.038715
  0
VERTEX
  8
0
 10
7.374074
 20
6.676744
 42
0.010552
  0
VERTEX
  8
0
 10
7.121174
 20
6.71037
 42
0.020597
  0
VERTEX
  8
0
 10
6.939819
 20
6.724031
 42
0.034559
  0
VERTEX
  8
0
 10
6.874722
 20
6.721797
 42
0.166524
  0
VERTEX
  8
0
 10
6.841654
 20
6.710369
 42
0.09615
  0
VERTEX
  8
0
 10
6.796982
 20
6.725904
 42
0.010388
  0
VERTEX
  8
0
 10
6.68862
 20
6.749868
 42
0.003856
  0
VERTEX
  8
0
 10
6.378349
 20
6.80949
 42
-0.002683
  0
VERTEX
  8
0
 10
6.15072
 20
6.852853
 42
-0.03807
  0
VERTEX
  8
0
 10
6.04209
 20
6.878501
 42
0.106806
  0
VERTEX
  8
0
 10
6.021848
 20
6.865766
 42
0.031762
  0
VERTEX
  8
0
 10
6.00513
 20
6.847421
 42
-0.021841
  0
VERTEX
  8
0
 10
5.992847
 20
6.83355
 42
-0.086147
  0
VERTEX
  8
0
 10
5.980124
 20
6.824013
 42
-0.168463
  0
VERTEX
  8
0
 10
5.965792
 20
6.822274
 42
-0.125821
  0
VERTEX
  8
0
 10
5.948683
 20
6.831799
  0
VERTEX
  8
0
 10
5.915057
 20
6.826194
 42
-0.050672
  0
VERTEX
  8
0
 10
5.914216
 20
6.834188
 42
-0.016088
  0
VERTEX
  8
0
 10
5.91444
 20
6.842386
 42
0.088843
  0
VERTEX
  8
0
 10
5.913312
 20
6.859808
 42
0.233286
  0
VERTEX
  8
0
 10
5.900112
 20
6.872897
 42
0.145309
  0
VERTEX
  8
0
 10
5.879651
 20
6.869073
 42
0.105302
  0
VERTEX
  8
0
 10
5.860881
 20
6.852349
  0
VERTEX
  8
0
 10
5.860881
 20
6.852349
 42
0.043347
  0
VERTEX
  8
0
 10
5.864384
 20
6.98125
 42
0.066404
  0
VERTEX
  8
0
 10
5.845907
 20
7.082479
 42
0.173912
  0
VERTEX
  8
0
 10
5.793629
 20
7.154986
  0
VERTEX
  8
0
 10
5.786157
 20
7.175535
 42
-0.015317
  0
VERTEX
  8
0
 10
6.287756
 20
7.121359
 42
0.015316
  0
SEQEND
  8
0
  0
POLYLINE
  8
0
 66
1
 70
1
  0
VERTEX
  8
0
 10
4.886386
 20
5.178607
 42
0.452629
  0
VERTEX
  8
0
 10
4.886407
 20
5.178806
 42
0.080533
  0
VERTEX
  8
0
 10
4.886097
 20
5.179118
 42
0.020487
  0
VERTEX
  8
0
 10
4.884658
 20
5.180108
 42
-0.108731
  0
VERTEX
  8
0
 10
4.874111
 20
5.190037
 42
-0.115149
  0
VERTEX
  8
0
 10
4.870849
 20
5.199341
 42
-0.114504
  0
VERTEX
  8
0
 10
4.872636
 20
5.212124
 42
0.116591
  0
VERTEX
  8
0
 10
4.947362
 20
5.227535
 42
0.158443
  0
VERTEX
  8
0
 10
4.999669
 20
5.279375
  0
VERTEX
  8
0
 10
4.999669
 20
5.279375
 42
0.026762
  0
VERTEX
  8
0
 10
5.004807
 20
5.292686
 42
0.040366
  0
VERTEX
  8
0
 10
5.00755
 20
5.303808
 42
0.124501
  0
VERTEX
  8
0
 10
5.007142
 20
5.313003
 42
-0.012242
  0
VERTEX
  8
0
 10
5.52091
 20
5.416881
 42
0.002454
  0
VERTEX
  8
0
 10
5.752529
 20
5.460586
 42
-0.093832
  0
VERTEX
  8
0
 10
5.758688
 20
5.443568
 42
-0.037264
  0
VERTEX
  8
0
 10
5.76117
 20
5.421121
 42
-0.033725
  0
VERTEX
  8
0
 10
5.760003
 20
5.380256
  0
VERTEX
  8
0
 10
5.713299
 20
5.365311
  0
VERTEX
  8
0
 10
5.713299
 20
5.372783
 42
0.094719
  0
VERTEX
  8
0
 10
5.636119
 20
5.359393
 42
0.030498
  0
VERTEX
  8
0
 10
5.563161
 20
5.326545
 42
-0.036733
  0
VERTEX
  8
0
 10
5.48082
 20
5.290325
 42
-0.107767
  0
VERTEX
  8
0
 10
5.390111
 20
5.279376
 42
-0.009555
  0
VERTEX
  8
0
 10
5.314734
 20
5.274359
 42
0.036832
  0
VERTEX
  8
0
 10
5.172548
 20
5.259802
 42
0.118129
  0
VERTEX
  8
0
 10
5.046372
 20
5.204651
  0
SEQEND
  8
0
  0
POLYLINE
  8
0
 66
1
 70
1
  0
VERTEX
  8
0
 10
5.033296
 20
5.157947
 42
0.044995
  0
VERTEX
  8
0
 10
5.02446
 20
5.13589
 42
0.013669
  0
VERTEX
  8
0
 10
5.017941
 20
5.112005
 42
-0.038385
  0
VERTEX
  8
0
 10
5.006728
 20
5.075437
 42
-0.154324
  0
VERTEX
  8
0
 10
4.986592
 20
5.049596
  0
VERTEX
  8
0
 10
4.911867
 20
5.129925
 42
-0.05949
  0
VERTEX
  8
0
 10
4.951015
 20
5.143463
 42
-0.01951
  0
VERTEX
  8
0
 10
4.992252
 20
5.150743
 42
0.018648
  0
SEQEND
  8
0
  0
POLYLINE
  8
0
 66
1
 70
1
  0
VERTEX
  8
0
 10
5.093075
 20
6.859821
  0
VERTEX
  8
0
 10
5.074394
 20
6.831799
 42
-0.133966
  0
VERTEX
  8
0
 10
5.071388
 20
6.833264
 42
-0.055965
  0
VERTEX
  8
0
 10
5.068307
 20
6.836515
 42
-0.026459
  0
VERTEX
  8
0
 10
5.061622
 20
6.846642
 42
0.025519
  0
VERTEX
  8
0
 10
5.052527
 20
6.860336
 42
0.08907
  0
VERTEX
  8
0
 10
5.041002
 20
6.871438
 42
0.178078
  0
VERTEX
  8
0
 10
5.026167
 20
6.874837
 42
0.140325
  0
VERTEX
  8
0
 10
5.007142
 20
6.865425
 42
-0.01246
  0
VERTEX
  8
0
 10
4.978374
 20
6.911116
 42
0.015274
  0
VERTEX
  8
0
 10
4.941717
 20
6.968752
 42
0.049474
  0
VERTEX
  8
0
 10
4.89879
 20
7.020481
  0
VERTEX
  8
0
 10
5.121099
 20
6.986854
 42
0.090501
  0
VERTEX
  8
0
 10
5.121369
 20
6.962325
 42
0.021861
  0
VERTEX
  8
0
 10
5.12757
 20
6.934258
 42
-0.021844
  0
VERTEX
  8
0
 10
5.133724
 20
6.90642
 42
-0.091769
  0
VERTEX
  8
0
 10
5.133955
 20
6.882322
 42
-0.213168
  0
VERTEX
  8
0
 10
5.122369
 20
6.865583
 42
-0.141518
  0
SEQEND
  8
0
  0
POLYLINE
  8
0
 66
1
 70
1
  0
VERTEX
  8
0
 10
5.559718
 20
6.803275
 42
-0.183767
  0
VERTEX
  8
0
 10
5.544555
 20
6.760238
 42
-0.123838
  0
VERTEX
  8
0
 10
5.505885
 20
6.734607
 42
-0.087882
  0
VERTEX
  8
0
 10
5.398936
 20
6.719056
 42
-0.28516
  0
VERTEX
  8
0
 10
5.329099
 20
6.760096
 42
-0.067452
  0
VERTEX
  8
0
 10
5.296491
 20
6.851211
 42
0.011776
  0
VERTEX
  8
0
 10
5.284092
 20
6.89515
  0
VERTEX
  8
0
 10
5.284092
 20
7.078901
 42
0.003258
  0
VERTEX
  8
0
 10
5.305464
 20
7.08159
 42
-0.03613
  0
VERTEX
  8
0
 10
5.368311
 20
7.086557
 42
-0.13737
  0
VERTEX
  8
0
 10
5.393972
 20
7.079379
 42
-0.049141
  0
VERTEX
  8
0
 10
5.414249
 20
7.063588
 42
0.049143
  0
VERTEX
  8
0
 10
5.434526
 20
7.047797
 42
0.137367
  0
VERTEX
  8
0
 10
5.460186
 20
7.040619
 42
-0.201136
  0
VERTEX
  8
0
 10
5.466579
 20
7.038399
 42
-0.156147
  0
VERTEX
  8
0
 10
5.469338
 20
7.032544
 42
-0.066378
  0
VERTEX
  8
0
 10
5.4688
 20
7.014778
 42
0.026492
  0
VERTEX
  8
0
 10
5.467843
 20
7.002337
 42
0.12735
  0
VERTEX
  8
0
 10
5.482199
 20
6.947547
 42
0.04535
  0
VERTEX
  8
0
 10
5.513781
 20
6.902805
 42
-0.04535
  0
VERTEX
  8
0
 10
5.545363
 20
6.858064
 42
-0.12735
  0
SEQEND
  8
0
  0
POLYLINE
  8
0
 66
1
 70
1
  0
VERTEX
  8
0
 10
5.664726
 20
5.514761
  0
VERTEX
  8
0
 10
5.70136
 20
5.482564
 42
0.016789
  0
VERTEX
  8
0
 10
5.185344
 20
5.379308
 42
-0.002697
  0
VERTEX
  8
0
 10
4.993153
 20
5.337094
  0
VERTEX
  8
0
 10
4.992197
 20
5.380256
  0
SEQEND
  8
0
  0
POLYLINE
  8
0
 66
1
 70
1
  0
VERTEX
  8
0
 10
4.979121
 20
5.432562
 42
-0.029427
  0
VERTEX
  8
0
 10
4.973515
 20
5.561465
  0
VERTEX
  8
0
 10
5.255606
 20
5.587619
 42
-0.125372
  0
VERTEX
  8
0
 10
5.242288
 20
5.517403
 42
-0.151269
  0
VERTEX
  8
0
 10
5.203903
 20
5.478332
 42
-0.080723
  0
VERTEX
  8
0
 10
5.148679
 20
5.460011
 42
-0.022069
  0
VERTEX
  8
0
 10
5.084849
 20
5.452049
 42
0.01591
  0
VERTEX
  8
0
 10
5.029532
 20
5.44559
 42
0.054781
  0
SEQEND
  8
0
  0
POLYLINE
  8
0
 66
1
 70
1
  0
VERTEX
  8
0
 10
5.449892
 20
6.065864
  0
VERTEX
  8
0
 10
5.36956
 20
6.045314
  0
VERTEX
  8
0
 10
5.322857
 20
6.166742
  0
VERTEX
  8
0
 10
5.188351
 20
6.301247
 42
-0.158125
  0
VERTEX
  8
0
 10
5.256376
 20
6.297143
 42
-0.048449
  0
VERTEX
  8
0
 10
5.319971
 20
6.26423
 42
0.034157
  0
VERTEX
  8
0
 10
5.375836
 20
6.234059
 42
0.107487
  0
VERTEX
  8
0
 10
5.436814
 20
6.220918
 42
0.073723
  0
VERTEX
  8
0
 10
5.492504
 20
6.221955
 42
0.023722
  0
VERTEX
  8
0
 10
5.547282
 20
6.233749
 42
-0.053129
  0
VERTEX
  8
0
 10
5.620561
 20
6.246783
 42
-0.185345
  0
VERTEX
  8
0
 10
5.685276
 20
6.226522
  0
VERTEX
  8
0
 10
5.698354
 20
6.226522
 42
0.007003
  0
VERTEX
  8
0
 10
5.698955
 20
6.192297
 42
-0.045035
  0
VERTEX
  8
0
 10
5.696959
 20
6.12624
 42
-0.096376
  0
VERTEX
  8
0
 10
5.6722
 20
6.05839
 42
0.286276
  0
VERTEX
  8
0
 10
5.641625
 20
6.065025
 42
0.076373
  0
VERTEX
  8
0
 10
5.611777
 20
6.047436
 42
-0.025312
  0
VERTEX
  8
0
 10
5.594607
 20
6.035785
 42
-0.099992
  0
VERTEX
  8
0
 10
5.577764
 20
6.029417
 42
-0.186077
  0
VERTEX
  8
0
 10
5.561274
 20
6.033396
 42
-0.118851
  0
VERTEX
  8
0
 10
5.545167
 20
6.052786
  0
VERTEX
  8
0
 10
5.477914
 20
6.024764
 42
0.293629
  0
VERTEX
  8
0
 10
5.471609
 20
6.050918
 42
0.102649
  0
SEQEND
  8
0
  0
POLYLINE
  8
0
 66
1
 70
1
  0
VERTEX
  8
0
 10
5.349012
 20
5.709047
 42
0.056737
  0
VERTEX
  8
0
 10
5.4606
 20
5.72078
 42
-0.021214
  0
VERTEX
  8
0
 10
5.526274
 20
5.730885
 42
-0.064732
  0
VERTEX
  8
0
 10
5.591869
 20
5.729597
  0
VERTEX
  8
0
 10
5.597475
 20
5.682893
  0
VERTEX
  8
0
 10
5.322857
 20
5.667949
  0
SEQEND
  8
0
  0
POLYLINE
  8
0
 66
1
 70
1
  0
VERTEX
  8
0
 10
5.403189
 20
5.615642
  0
VERTEX
  8
0
 10
5.597475
 20
5.628718
 42
-0.087392
  0
VERTEX
  8
0
 10
5.604383
 20
5.609115
 42
-0.028417
  0
VERTEX
  8
0
 10
5.606623
 20
5.588133
 42
0.018548
  0
VERTEX
  8
0
 10
5.608247
 20
5.570815
 42
0.056294
  0
VERTEX
  8
0
 10
5.612419
 20
5.553993
  0
VERTEX
  8
0
 10
5.268681
 20
5.486739
 42
0.057343
  0
VERTEX
  8
0
 10
5.291551
 20
5.516922
 42
0.022138
  0
VERTEX
  8
0
 10
5.307567
 20
5.547334
 42
-0.096329
  0
VERTEX
  8
0
 10
5.338845
 20
5.595437
 42
-0.104398
  0
VERTEX
  8
0
 10
5.364539
 20
5.6102
 42
-0.080835
  0
SEQEND
  8
0
  0
POLYLINE
  8
0
 66
1
 70
1
  0
VERTEX
  8
0
 10
5.646046
 20
5.621246
 42
-0.063827
  0
VERTEX
  8
0
 10
5.646046
 20
5.884654
 42
-0.120188
  0
VERTEX
  8
0
 10
5.680663
 20
5.896684
 42
-0.037916
  0
VERTEX
  8
0
 10
5.718957
 20
5.897267
 42
0.023312
  0
VERTEX
  8
0
 10
5.752172
 20
5.897181
 42
0.066376
  0
VERTEX
  8
0
 10
5.786157
 20
5.903336
 42
0.030449
  0
VERTEX
  8
0
 10
5.793154
 20
5.788021
 42
-0.026264
  0
VERTEX
  8
0
 10
5.799864
 20
5.68849
 42
-0.066805
  0
VERTEX
  8
0
 10
5.786157
 20
5.582014
  0
VERTEX
  8
0
 10
5.765607
 20
5.561465
 42
-0.256817
  0
VERTEX
  8
0
 10
5.69742
 20
5.561932
 42
-0.19405
  0
SEQEND
  8
0
  0
POLYLINE
  8
0
 66
1
 70
1
  0
VERTEX
  8
0
 10
5.713299
 20
6.456304
 42
0.169372
  0
VERTEX
  8
0
 10
5.685966
 20
6.470277
 42
0.065946
  0
VERTEX
  8
0
 10
5.657812
 20
6.4693
 42
-0.023078
  0
VERTEX
  8
0
 10
5.641412
 20
6.467795
 42
-0.072909
  0
VERTEX
  8
0
 10
5.625497
 20
6.469381
 42
-0.066553
  0
VERTEX
  8
0
 10
5.598248
 20
6.510997
 42
-0.020228
  0
VERTEX
  8
0
 10
5.57741
 20
6.559065
 42
0.016224
  0
VERTEX
  8
0
 10
5.558243
 20
6.603886
  0
VERTEX
  8
0
 10
5.698354
 20
6.60949
 42
0.019442
  0
VERTEX
  8
0
 10
5.706121
 20
6.553929
 42
-0.063372
  0
SEQEND
  8
0
  0
POLYLINE
  8
0
 66
1
 70
1
  0
VERTEX
  8
0
 10
5.288529
 20
6.719854
 42
0.002811
  0
VERTEX
  8
0
 10
5.299753
 20
6.699301
 42
-0.034887
  0
VERTEX
  8
0
 10
5.331417
 20
6.635158
 42
-0.093737
  0
VERTEX
  8
0
 10
5.344832
 20
6.564039
 42
-0.10644
  0
VERTEX
  8
0
 10
5.319136
 20
6.429991
 42
-0.119221
  0
VERTEX
  8
0
 10
5.282412
 20
6.382301
 42
-0.168299
  0
VERTEX
  8
0
 10
5.225679
 20
6.363704
 42
-0.227991
  0
VERTEX
  8
0
 10
5.098014
 20
6.425899
 42
-0.172189
  0
VERTEX
  8
0
 10
5.048913
 20
6.566657
 42
-0.088883
  0
VERTEX
  8
0
 10
5.073627
 20
6.731803
 42
-0.122235
  0
VERTEX
  8
0
 10
5.113542
 20
6.791851
 42
-0.184296
  0
VERTEX
  8
0
 10
5.17985
 20
6.81544
 42
-0.194655
  0
VERTEX
  8
0
 10
5.249411
 20
6.788761
 42
-0.137924
  0
SEQEND
  8
0
  0
POLYLINE
  8
0
 66
1
 70
1
  0
VERTEX
  8
0
 10
5.276153
 20
5.701575
 42
-0.193184
  0
VERTEX
  8
0
 10
5.194369
 20
5.643186
 42
-0.06339
  0
VERTEX
  8
0
 10
5.091188
 20
5.635006
 42
0.019659
  0
VERTEX
  8
0
 10
5.025052
 20
5.633374
 42
0.057969
  0
VERTEX
  8
0
 10
4.958569
 20
5.621246
  0
VERTEX
  8
0
 10
4.945493
 20
5.662344
  0
SEQEND
  8
0
  0
POLYLINE
  8
0
 66
1
 70
1
  0
VERTEX
  8
0
 10
5.806706
 20
5.326079
 42
-0.133981
  0
VERTEX
  8
0
 10
5.79218
 20
5.291954
 42
-0.165322
  0
VERTEX
  8
0
 10
5.76758
 20
5.277759
 42
-0.080696
  0
VERTEX
  8
0
 10
5.735671
 20
5.276968
 42
-0.020579
  0
VERTEX
  8
0
 10
5.699216
 20
5.283052
 42
0.030928
  0
VERTEX
  8
0
 10
5.650686
 20
5.290431
 42
0.108869
  0
VERTEX
  8
0
 10
5.604946
 20
5.284981
 42
-0.16559
  0
VERTEX
  8
0
 10
5.646191
 20
5.325291
 42
-0.09659
  0
VERTEX
  8
0
 10
5.703724
 20
5.339857
 42
-0.101531
  0
SEQEND
  8
0
  0
POLYLINE
  8
0
 66
1
 70
1
  0
VERTEX
  8
0
 10
5.780551
 20
5.951907
  0
VERTEX
  8
0
 10
5.731981
 20
5.951907
 42
-0.005944
  0
VERTEX
  8
0
 10
5.744955
 20
6.068894
 42
0.018747
  0
VERTEX
  8
0
 10
5.764887
 20
6.281918
 42
0.05691
  0
VERTEX
  8
0
 10
5.752529
 20
6.495535
 42
-0.043342
  0
VERTEX
  8
0
 10
5.740971
 20
6.586262
 42
-0.014065
  0
VERTEX
  8
0
 10
5.73981
 20
6.678669
 42
0.046121
  0
VERTEX
  8
0
 10
5.731176
 20
6.838124
 42
0.143245
  0
VERTEX
  8
0
 10
5.664726
 20
6.979382
 42
-0.11497
  0
VERTEX
  8
0
 10
5.651416
 20
7.046634
 42
-0.069754
  0
VERTEX
  8
0
 10
5.664726
 20
7.113887
 42
-0.212732
  0
VERTEX
  8
0
 10
5.677857
 20
7.093542
 42
-0.053483
  0
VERTEX
  8
0
 10
5.679427
 20
7.065354
 42
0.04662
  0
VERTEX
  8
0
 10
5.680826
 20
7.036756
 42
0.165956
  0
VERTEX
  8
0
 10
5.692749
 20
7.013007
 42
-0.109496
  0
VERTEX
  8
0
 10
5.7814
 20
6.787944
 42
-0.035042
  0
VERTEX
  8
0
 10
5.802289
 20
6.539173
 42
0.017998
  0
VERTEX
  8
0
 10
5.814178
 20
6.347951
 42
0.020448
  0
VERTEX
  8
0
 10
5.818874
 20
6.231587
 42
-0.038255
  0
VERTEX
  8
0
 10
5.821473
 20
6.088228
 42
-0.112214
  0
SEQEND
  8
0
  0
POLYLINE
  8
0
 66
1
 70
1
  0
VERTEX
  8
0
 10
6.727617
 20
7.116903
 42
-0.04063
  0
VERTEX
  8
0
 10
6.745284
 20
7.117388
 42
-0.057104
  0
VERTEX
  8
0
 10
6.751533
 20
7.116257
 42
-0.118046
  0
VERTEX
  8
0
 10
6.755719
 20
7.113887
 42
-0.062501
  0
VERTEX
  8
0
 10
6.727617
 20
7.116903
 42
0.007118
  0
VERTEX
  8
0
 10
6.70833
 20
7.114783
 42
-0.078132
  0
VERTEX
  8
0
 10
6.625772
 20
7.113636
 42
-0.34073
  0
VERTEX
  8
0
 10
6.572642
 20
7.168064
 42
-0.089138
  0
VERTEX
  8
0
 10
6.61861
 20
7.160142
 42
-0.026426
  0
VERTEX
  8
0
 10
6.664228
 20
7.14103
 42
0.012545
  0
VERTEX
  8
0
 10
6.695864
 20
7.127097
 42
0.040442
  0
SEQEND
  8
0
  0
POLYLINE
  8
0
 66
1
 70
1
  0
VERTEX
  8
0
 10
5.907585
 20
7.336197
 42
-0.036421
  0
VERTEX
  8
0
 10
6.224957
 20
7.280114
 42
0.007248
  0
VERTEX
  8
0
 10
6.370882
 20
7.248393
 42
0.026295
  0
VERTEX
  8
0
 10
6.443324
 20
7.205156
 42
-0.011728
  0
VERTEX
  8
0
 10
6.492697
 20
7.176925
 42
-0.044832
  0
VERTEX
  8
0
 10
6.533411
 20
7.147514
 42
-0.118618
  0
VERTEX
  8
0
 10
6.513962
 20
7.139765
 42
-0.067441
  0
VERTEX
  8
0
 10
6.490174
 20
7.13959
 42
-0.037774
  0
VERTEX
  8
0
 10
6.433433
 20
7.152399
 42
0.021222
  0
VERTEX
  8
0
 10
6.382378
 20
7.164925
 42
0.07104
  0
VERTEX
  8
0
 10
6.331651
 20
7.168064
 42
0.009535
  0
VERTEX
  8
0
 10
6.12646
 20
7.182009
 42
-0.034599
  0
VERTEX
  8
0
 10
5.731981
 20
7.222239
 42
0.043703
  0
VERTEX
  8
0
 10
5.668232
 20
7.236907
 42
-0.02802
  0
VERTEX
  8
0
 10
5.606793
 20
7.249942
 42
-0.090264
  0
VERTEX
  8
0
 10
5.550771
 20
7.276415
 42
-0.136601
  0
VERTEX
  8
0
 10
5.516796
 20
7.288245
 42
-0.038817
  0
VERTEX
  8
0
 10
5.486609
 20
7.312517
 42
0.059671
  0
VERTEX
  8
0
 10
5.45091
 20
7.33977
 42
0.217525
  0
VERTEX
  8
0
 10
5.410661
 20
7.343668
 42
0.239208
  0
VERTEX
  8
0
 10
5.397344
 20
7.355448
 42
0.078037
  0
VERTEX
  8
0
 10
5.379366
 20
7.356221
 42
-0.016022
  0
VERTEX
  8
0
 10
5.370526
 20
7.355908
 42
-0.052511
  0
VERTEX
  8
0
 10
5.362089
 20
7.356746
 42
0.256912
  0
VERTEX
  8
0
 10
5.361507
 20
7.364728
 42
0.07462
  0
VERTEX
  8
0
 10
5.355376
 20
7.371019
 42
-0.013544
  0
VERTEX
  8
0
 10
5.352018
 20
7.373987
 42
-0.041792
  0
VERTEX
  8
0
 10
5.349012
 20
7.377294
 42
-0.175117
  0
VERTEX
  8
0
 10
5.312751
 20
7.382302
 42
-0.066852
  0
VERTEX
  8
0
 10
5.285546
 20
7.403476
 42
0.032104
  0
VERTEX
  8
0
 10
5.266106
 20
7.42004
 42
0.092848
  0
VERTEX
  8
0
 10
5.242529
 20
7.431472
 42
0.010397
  0
VERTEX
  8
0
 10
5.432221
 20
7.413799
 42
-0.015371
  0
VERTEX
  8
0
 10
5.672814
 20
7.389718
 42
-0.047232
  0
SEQEND
  8
0
  0
POLYLINE
  8
0
 66
1
 70
1
  0
VERTEX
  8
0
 10
5.046372
 20
7.457626
 42
-0.042517
  0
VERTEX
  8
0
 10
5.0544
 20
7.449522
 42
0.052876
  0
VERTEX
  8
0
 10
5.063116
 20
7.440942
 42
0.16525
  0
VERTEX
  8
0
 10
5.074394
 20
7.437075
  0
VERTEX
  8
0
 10
5.079999
 20
7.444549
 42
0.140184
  0
VERTEX
  8
0
 10
5.110216
 20
7.420395
 42
0.038889
  0
VERTEX
  8
0
 10
5.147128
 20
7.407457
 42
-0.009212
  0
VERTEX
  8
0
 10
5.160329
 20
7.40345
 42
-0.015917
  0
VERTEX
  8
0
 10
5.200627
 20
7.38296
 42
0.017619
  0
VERTEX
  8
0
 10
5.242248
 20
7.361905
 42
0.06658
  0
VERTEX
  8
0
 10
5.28176
 20
7.349272
 42
0.184432
  0
VERTEX
  8
0
 10
5.301068
 20
7.331248
 42
0.090893
  0
VERTEX
  8
0
 10
5.322261
 20
7.32872
 42
-0.113622
  0
VERTEX
  8
0
 10
5.344289
 20
7.325494
 42
-0.113215
  0
VERTEX
  8
0
 10
5.353927
 20
7.317725
 42
-0.081678
  0
VERTEX
  8
0
 10
5.362089
 20
7.302569
  0
VERTEX
  8
0
 10
5.36956
 20
7.310043
 42
-0.058702
  0
VERTEX
  8
0
 10
5.374628
 20
7.305567
 42
-0.01735
  0
VERTEX
  8
0
 10
5.379244
 20
7.300083
 42
0.083548
  0
VERTEX
  8
0
 10
5.389321
 20
7.28994
 42
0.26617
  0
VERTEX
  8
0
 10
5.403189
 20
7.289492
  0
VERTEX
  8
0
 10
5.410661
 20
7.296964
 42
0.419954
  0
VERTEX
  8
0
 10
5.457364
 20
7.268943
  0
VERTEX
  8
0
 10
5.462968
 20
7.276415
  0
VERTEX
  8
0
 10
5.47044
 20
7.255865
 42
-0.227462
  0
VERTEX
  8
0
 10
5.417716
 20
7.235016
 42
-0.073926
  0
VERTEX
  8
0
 10
5.362171
 20
7.250078
 42
0.035649
  0
VERTEX
  8
0
 10
5.321833
 20
7.263116
 42
0.120402
  0
VERTEX
  8
0
 10
5.28176
 20
7.26334
 42
-0.048706
  0
VERTEX
  8
0
 10
5.262197
 20
7.268377
 42
-0.015124
  0
VERTEX
  8
0
 10
5.242685
 20
7.276121
 42
0.060138
  0
VERTEX
  8
0
 10
5.202957
 20
7.289226
 42
0.171366
  0
VERTEX
  8
0
 10
5.160329
 20
7.282021
 42
0.08207
  0
VERTEX
  8
0
 10
5.149738
 20
7.296445
 42
0.125729
  0
VERTEX
  8
0
 10
5.13901
 20
7.302522
 42
0.096569
  0
VERTEX
  8
0
 10
5.128009
 20
7.302988
 42
0.029473
  0
VERTEX
  8
0
 10
5.116597
 20
7.300579
 42
-0.056706
  0
VERTEX
  8
0
 10
5.099078
 20
7.297572
 42
-0.143833
  0
VERTEX
  8
0
 10
5.079999
 20
7.302569
 42
0.098052
  0
VERTEX
  8
0
 10
5.076313
 20
7.344971
 42
0.026107
  0
VERTEX
  8
0
 10
5.06161
 20
7.389255
 42
-0.023746
  0
VERTEX
  8
0
 10
5.049019
 20
7.426616
 42
-0.110519
  0
SEQEND
  8
0
  0
POLYLINE
  8
0
 66
1
 70
1
  0
VERTEX
  8
0
 10
4.846392
 20
7.333669
 42
-0.090996
  0
VERTEX
  8
0
 10
4.896149
 20
7.391281
 42
-0.13151
  0
VERTEX
  8
0
 10
4.897695
 20
7.391753
 42
-0.063069
  0
VERTEX
  8
0
 10
4.899653
 20
7.391595
 42
-0.034148
  0
VERTEX
  8
0
 10
4.90418
 20
7.390251
 42
0.013996
  0
VERTEX
  8
0
 10
4.907049
 20
7.389318
 42
0.060674
  0
VERTEX
  8
0
 10
4.909504
 20
7.388874
 42
0.194669
  0
VERTEX
  8
0
 10
4.911216
 20
7.389376
 42
0.214328
  0
VERTEX
  8
0
 10
4.91186
 20
7.391281
 42
-0.246153
  0
VERTEX
  8
0
 10
4.920044
 20
7.406667
 42
-0.156219
  0
VERTEX
  8
0
 10
4.938049
 20
7.412232
 42
-0.231794
  0
VERTEX
  8
0
 10
4.956871
 20
7.403025
 42
-0.061371
  0
VERTEX
  8
0
 10
4.96882
 20
7.38277
 42
0.061369
  0
VERTEX
  8
0
 10
4.980768
 20
7.362515
 42
0.231795
  0
VERTEX
  8
0
 10
4.99959
 20
7.353308
 42
-0.205815
  0
VERTEX
  8
0
 10
5.018795
 20
7.347011
 42
-0.19115
  0
VERTEX
  8
0
 10
5.024599
 20
7.330096
 42
-0.061552
  0
VERTEX
  8
0
 10
5.021297
 20
7.305527
 42
-0.014067
  0
VERTEX
  8
0
 10
5.013186
 20
7.276269
 42
0.015199
  0
VERTEX
  8
0
 10
5.003915
 20
7.242535
 42
0.055575
  0
VERTEX
  8
0
 10
4.99959
 20
7.210586
 42
0.009978
  0
VERTEX
  8
0
 10
4.988013
 20
7.185067
 42
-0.064359
  0
VERTEX
  8
0
 10
4.957602
 20
7.128611
 42
-0.241431
  0
VERTEX
  8
0
 10
4.906624
 20
7.103218
 42
-0.182223
  0
VERTEX
  8
0
 10
4.868242
 20
7.11668
 42
-0.122856
  0
VERTEX
  8
0
 10
4.845083
 20
7.15101
 42
-0.090193
  0
VERTEX
  8
0
 10
4.830679
 20
7.24594
 42
0.000649
  0
VERTEX
  8
0
 10
4.830667
 20
7.252996
 42
-0.037943
  0
VERTEX
  8
0
 10
4.83255
 20
7.295087
 42
-0.099668
  0
SEQEND
  8
0
  0
POLYLINE
  8
0
 66
1
 70
1
  0
VERTEX
  8
0
 10
4.790437
 20
6.9607
 42
-0.032234
  0
VERTEX
  8
0
 10
4.831537
 20
6.489929
  0
VERTEX
  8
0
 10
4.663404
 20
6.495535
  0
VERTEX
  8
0
 10
4.609229
 20
6.966304
 42
-0.12184
  0
VERTEX
  8
0
 10
4.660083
 20
6.974416
 42
-0.036839
  0
VERTEX
  8
0
 10
4.712906
 20
6.966164
 42
0.024197
  0
VERTEX
  8
0
 10
4.753379
 20
6.959123
 42
0.087447
  0
SEQEND
  8
0
  0
POLYLINE
  8
0
 66
1
 70
1
  0
VERTEX
  8
0
 10
4.764285
 20
7.491251
  0
VERTEX
  8
0
 10
4.764285
 20
7.437075
 42
0.00541
  0
VERTEX
  8
0
 10
4.7509
 20
7.436875
 42
-0.080859
  0
VERTEX
  8
0
 10
4.698867
 20
7.441114
 42
-0.336199
  0
VERTEX
  8
0
 10
4.670878
 20
7.478175
 42
0.124063
  0
VERTEX
  8
0
 10
4.650328
 20
7.58466
 42
-0.12416
  0
VERTEX
  8
0
 10
4.691477
 20
7.563705
 42
-0.035694
  0
VERTEX
  8
0
 10
4.726873
 20
7.528395
 42
0.037076
  0
SEQEND
  8
0
  0
POLYLINE
  8
0
 66
1
 70
1
  0
VERTEX
  8
0
 10
4.514243
 20
7.560921
 42
-0.183244
  0
VERTEX
  8
0
 10
4.568582
 20
7.541115
 42
-0.078878
  0
VERTEX
  8
0
 10
4.60721
 20
7.492831
 42
-0.108061
  0
VERTEX
  8
0
 10
4.610373
 20
7.481438
 42
-0.028223
  0
VERTEX
  8
0
 10
4.610568
 20
7.468324
 42
0.015532
  0
VERTEX
  8
0
 10
4.610547
 20
7.459285
 42
0.062355
  0
VERTEX
  8
0
 10
4.611642
 20
7.451644
 42
0.377209
  0
VERTEX
  8
0
 10
4.621612
 20
7.444385
 42
-0.428208
  0
VERTEX
  8
0
 10
4.633731
 20
7.433995
 42
-0.059554
  0
VERTEX
  8
0
 10
4.633958
 20
7.423164
 42
-0.014527
  0
VERTEX
  8
0
 10
4.632487
 20
7.410493
 42
0.010623
  0
VERTEX
  8
0
 10
4.631093
 20
7.398952
 42
0.036984
  0
VERTEX
  8
0
 10
4.630779
 20
7.388081
 42
0.045424
  0
VERTEX
  8
0
 10
4.637386
 20
7.354872
 42
-0.07083
  0
VERTEX
  8
0
 10
4.643872
 20
7.314754
 42
-0.161842
  0
VERTEX
  8
0
 10
4.620303
 20
7.242739
 42
-0.238789
  0
VERTEX
  8
0
 10
4.557451
 20
7.210004
 42
-0.20103
  0
VERTEX
  8
0
 10
4.515826
 20
7.226611
 42
-0.062964
  0
VERTEX
  8
0
 10
4.487546
 20
7.264635
 42
0.013418
  0
VERTEX
  8
0
 10
4.473653
 20
7.285949
 42
-0.050938
  0
VERTEX
  8
0
 10
4.43568
 20
7.346836
 42
-0.110385
  0
VERTEX
  8
0
 10
4.421278
 20
7.415578
 42
-0.117775
  0
VERTEX
  8
0
 10
4.442719
 20
7.513291
 42
-0.292792
  0
SEQEND
  8
0
  0
POLYLINE
  8
0
 66
1
 70
1
  0
VERTEX
  8
0
 10
4.252415
 20
7.558506
 42
-0.184692
  0
VERTEX
  8
0
 10
4.27568
 20
7.554964
 42
-0.046967
  0
VERTEX
  8
0
 10
4.298258
 20
7.539583
 42
0.031178
  0
VERTEX
  8
0
 10
4.3183
 20
7.525379
 42
0.106066
  0
VERTEX
  8
0
 10
4.340218
 20
7.517406
  0
VERTEX
  8
0
 10
4.334613
 20
7.450154
 42
-0.114079
  0
VERTEX
  8
0
 10
4.145931
 20
7.491251
 42
0.121925
  0
VERTEX
  8
0
 10
4.127016
 20
7.489617
 42
0.163244
  0
VERTEX
  8
0
 10
4.112304
 20
7.478175
 42
0.10626
  0
VERTEX
  8
0
 10
4.100976
 20
7.488474
 42
0.151723
  0
VERTEX
  8
0
 10
4.090381
 20
7.490631
 42
0.093872
  0
VERTEX
  8
0
 10
4.080221
 20
7.487325
 42
0.026196
  0
VERTEX
  8
0
 10
4.070198
 20
7.481235
 42
-0.026527
  0
VERTEX
  8
0
 10
4.059813
 20
7.474936
 42
-0.09056
  0
VERTEX
  8
0
 10
4.048945
 20
7.471367
 42
-0.14239
  0
VERTEX
  8
0
 10
4.03728
 20
7.473368
 42
-0.104646
  0
VERTEX
  8
0
 10
4.024503
 20
7.483779
  0
VERTEX
  8
0
 10
3.977799
 20
7.524878
  0
VERTEX
  8
0
 10
3.990876
 20
7.537956
 42
0.033238
  0
VERTEX
  8
0
 10
3.971319
 20
7.557639
 42
-0.037501
  0
VERTEX
  8
0
 10
3.951052
 20
7.578258
 42
-0.10037
  0
VERTEX
  8
0
 10
3.9367
 20
7.605208
 42
-0.117437
  0
VERTEX
  8
0
 10
4.05483
 20
7.610245
 42
-0.033122
  0
VERTEX
  8
0
 10
4.176686
 20
7.579528
 42
0.015643
  0
SEQEND
  8
0
  0
POLYLINE
  8
0
 66
1
 70
1
  0
VERTEX
  8
0
 10
3.776621
 20
7.615332
 42
-0.073863
  0
VERTEX
  8
0
 10
3.818467
 20
7.609568
 42
-0.031502
  0
VERTEX
  8
0
 10
3.856918
 20
7.594598
 42
0.000174
  0
VERTEX
  8
0
 10
3.860419
 20
7.593074
 42
-0.099175
  0
VERTEX
  8
0
 10
3.923963
 20
7.511855
 42
-0.040717
  0
VERTEX
  8
0
 10
3.961972
 20
7.41296
 42
-0.127955
  0
VERTEX
  8
0
 10
3.945567
 20
7.285167
 42
-0.227663
  0
VERTEX
  8
0
 10
3.856493
 20
7.205496
  0
VERTEX
  8
0
 10
3.749124
 20
7.205496
 42
-0.107892
  0
VERTEX
  8
0
 10
3.621949
 20
7.27571
 42
-0.214143
  0
VERTEX
  8
0
 10
3.568428
 20
7.397974
 42
-0.410608
  0
SEQEND
  8
0
  0
POLYLINE
  8
0
 66
1
 70
1
  0
VERTEX
  8
0
 10
3.38104
 20
7.321156
  0
VERTEX
  8
0
 10
3.477933
 20
7.321156
 42
-0.080373
  0
VERTEX
  8
0
 10
3.547331
 20
7.260105
 42
-0.088755
  0
VERTEX
  8
0
 10
3.589232
 20
7.178432
  0
VERTEX
  8
0
 10
3.233078
 20
7.137842
 42
0.046285
  0
VERTEX
  8
0
 10
3.23105
 20
7.142311
 42
0.014465
  0
VERTEX
  8
0
 10
3.22841
 20
7.146656
 42
-0.035166
  0
VERTEX
  8
0
 10
3.224427
 20
7.153637
 42
-0.107934
  0
VERTEX
  8
0
 10
3.222603
 20
7.161412
 42
-0.221934
  0
VERTEX
  8
0
 10
3.262016
 20
7.248825
 42
-0.063375
  0
VERTEX
  8
0
 10
3.351046
 20
7.305134
 42
0.005091
  0
SEQEND
  8
0
  0
POLYLINE
  8
0
 66
1
 70
1
  0
VERTEX
  8
0
 10
1.750978
 20
6.792568
  0
VERTEX
  8
0
 10
1.818231
 20
6.859821
 42
0.004366
  0
VERTEX
  8
0
 10
2.132687
 20
6.918768
 42
-0.018001
  0
VERTEX
  8
0
 10
2.780322
 20
7.027953
  0
VERTEX
  8
0
 10
2.813949
 20
7.020481
  0
VERTEX
  8
0
 10
4.058129
 20
7.162458
 42
-0.094033
  0
VERTEX
  8
0
 10
4.151536
 20
7.128832
 42
-0.053314
  0
VERTEX
  8
0
 10
4.232097
 20
6.667307
 42
0.028117
  0
VERTEX
  8
0
 10
4.280436
 20
6.321799
 42
0.024196
  0
VERTEX
  8
0
 10
4.336141
 20
5.914899
 42
-0.011538
  0
VERTEX
  8
0
 10
4.381317
 20
5.621246
 42
0.14968
  0
VERTEX
  8
0
 10
4.354952
 20
5.656335
 42
0.051784
  0
VERTEX
  8
0
 10
4.31806
 20
5.677022
 42
-0.024931
  0
VERTEX
  8
0
 10
4.293927
 20
5.689413
 42
-0.087157
  0
VERTEX
  8
0
 10
4.274823
 20
5.705257
 42
-0.135683
  0
VERTEX
  8
0
 10
4.264662
 20
5.728534
 42
-0.099734
  0
VERTEX
  8
0
 10
4.26736
 20
5.763224
  0
VERTEX
  8
0
 10
4.213185
 20
6.172347
 42
0.256749
  0
VERTEX
  8
0
 10
4.011425
 20
6.301247
 42
0.014592
  0
VERTEX
  8
0
 10
3.290007
 20
6.25316
 42
-0.014407
  0
VERTEX
  8
0
 10
2.586036
 20
6.205974
 42
-0.00004
  0
VERTEX
  8
0
 10
2.543532
 20
6.200789
 42
0.018884
  0
VERTEX
  8
0
 10
1.62955
 20
6.065864
 42
0.002188
  0
SEQEND
  8
0
  0
POLYLINE
  8
0
 66
1
 70
1
  0
VERTEX
  8
0
 10
0.87669
 20
5.776301
  0
VERTEX
  8
0
 10
0.91779
 20
5.830476
 42
-0.06874
  0
VERTEX
  8
0
 10
2.77285
 20
6.032236
 42
-0.072097
  0
VERTEX
  8
0
 10
2.789661
 20
6.030446
 42
-0.022293
  0
VERTEX
  8
0
 10
2.806472
 20
6.025388
 42
0.093372
  0
VERTEX
  8
0
 10
2.840101
 20
6.018537
 42
0.11267
  0
VERTEX
  8
0
 10
2.856915
 20
6.023285
 42
0.097943
  0
VERTEX
  8
0
 10
2.873729
 20
6.037842
 42
-0.053265
  0
VERTEX
  8
0
 10
4.045053
 20
6.247072
 42
-0.22679
  0
VERTEX
  8
0
 10
4.151536
 20
6.172347
 42
-0.001176
  0
VERTEX
  8
0
 10
4.152377
 20
6.169365
 42
0.03031
  0
VERTEX
  8
0
 10
4.161599
 20
6.141499
 42
0.095843
  0
VERTEX
  8
0
 10
4.179558
 20
6.112567
 42
0.031259
  0
VERTEX
  8
0
 10
4.199854
 20
5.925558
 42
-0.051245
  0
VERTEX
  8
0
 10
4.218787
 20
5.695971
 42
0.147752
  0
VERTEX
  8
0
 10
4.201242
 20
5.697643
 42
0.05832
  0
VERTEX
  8
0
 10
4.185442
 20
5.691783
 42
-0.033765
  0
VERTEX
  8
0
 10
4.170507
 20
5.685764
 42
-0.076094
  0
VERTEX
  8
0
 10
4.151536
 20
5.682893
  0
VERTEX
  8
0
 10
3.876919
 20
5.662344
 42
-0.083058
  0
VERTEX
  8
0
 10
3.865867
 20
5.69941
 42
-0.025129
  0
VERTEX
  8
0
 10
3.862733
 20
5.739528
 42
0.052896
  0
VERTEX
  8
0
 10
3.856834
 20
5.791994
 42
0.19681
  0
VERTEX
  8
0
 10
3.830217
 20
5.830476
  0
VERTEX
  8
0
 10
3.594831
 20
5.802454
 42
0.108278
  0
VERTEX
  8
0
 10
3.571477
 20
5.78341
 42
0.125335
  0
VERTEX
  8
0
 10
3.562262
 20
5.761328
 42
0.091324
  0
VERTEX
  8
0
 10
3.56783
 20
5.710187
 42
-0.021692
  0
VERTEX
  8
0
 10
3.573682
 20
5.680222
 42
-0.06523
  0
VERTEX
  8
0
 10
3.574281
 20
5.649267
 42
-0.063786
  0
VERTEX
  8
0
 10
3.468623
 20
5.616488
 42
-0.020241
  0
VERTEX
  8
0
 10
3.356316
 20
5.601334
 42
0.028649
  0
VERTEX
  8
0
 10
3.224074
 20
5.582007
 42
0.090757
  0
VERTEX
  8
0
 10
3.10351
 20
5.533443
 42
-0.221023
  0
VERTEX
  8
0
 10
3.102209
 20
5.520968
 42
-0.074685
  0
VERTEX
  8
0
 10
3.093814
 20
5.511739
 42
0.050749
  0
VERTEX
  8
0
 10
3.086364
 20
5.50402
 42
0.163641
  0
VERTEX
  8
0
 10
3.08296
 20
5.494211
 42
-0.046096
  0
VERTEX
  8
0
 10
3.059586
 20
5.666147
 42
0.019643
  0
VERTEX
  8
0
 10
3.047006
 20
5.788881
 42
0.064572
  0
VERTEX
  8
0
 10
3.015707
 20
5.903336
 42
0.270523
  0
VERTEX
  8
0
 10
3.003181
 20
5.902963
 42
0.072973
  0
VERTEX
  8
0
 10
2.992976
 20
5.893854
 42
-0.009035
  0
VERTEX
  8
0
 10
2.989554
 20
5.890258
 42
-0.01891
  0
VERTEX
  8
0
 10
3.036003
 20
5.329417
 42
0.013172
  0
VERTEX
  8
0
 10
3.069883
 20
4.87586
  0
VERTEX
  8
0
 10
3.008235
 20
4.868386
 42
-0.002023
  0
VERTEX
  8
0
 10
2.983292
 20
5.183074
 42
0.009833
  0
VERTEX
  8
0
 10
2.9223
 20
5.864103
 42
0.177527
  0
VERTEX
  8
0
 10
2.847575
 20
5.95751
  0
VERTEX
  8
0
 10
2.746696
 20
5.970587
 42
0.0036
  0
VERTEX
  8
0
 10
0.964493
 20
5.783774
 42
0.10094
  0
VERTEX
  8
0
 10
0.951712
 20
5.773004
 42
0.014749
  0
VERTEX
  8
0
 10
0.935442
 20
5.753399
 42
-0.021179
  0
VERTEX
  8
0
 10
0.913203
 20
5.727091
 42
-0.13178
  0
VERTEX
  8
0
 10
0.89312
 20
5.712514
 42
-0.238312
  0
VERTEX
  8
0
 10
0.885235
 20
5.714136
 42
-0.149161
  0
VERTEX
  8
0
 10
0.879509
 20
5.724105
 42
-0.078115
  0
SEQEND
  8
0
  0
POLYLINE
  8
0
 66
1
 70
1
  0
VERTEX
  8
0
 10
3.781643
 20
4.808606
  0
VERTEX
  8
0
 10
3.721864
 20
4.788057
 42
-0.030159
  0
VERTEX
  8
0
 10
2.766891
 20
4.707359
 42
0.017906
  0
VERTEX
  8
0
 10
2.053615
 20
4.659156
 42
-0.000114
  0
VERTEX
  8
0
 10
1.987621
 20
4.657449
 42
0.005269
  0
VERTEX
  8
0
 10
1.320927
 20
4.635257
 42
0.027647
  0
VERTEX
  8
0
 10
0.735203
 20
4.584854
 42
0.083539
  0
VERTEX
  8
0
 10
0.731681
 20
4.610308
 42
0.073847
  0
VERTEX
  8
0
 10
0.725106
 20
4.622759
 42
-0.052445
  0
VERTEX
  8
0
 10
0.722161
 20
4.627685
 42
-0.150488
  0
VERTEX
  8
0
 10
0.721635
 20
4.633001
 42
-0.031276
  0
VERTEX
  8
0
 10
1.098468
 20
4.65305
 42
0.000521
  0
VERTEX
  8
0
 10
1.145701
 20
4.653551
 42
0.002188
  0
VERTEX
  8
0
 10
1.824808
 20
4.691457
 42
-0.005884
  0
VERTEX
  8
0
 10
2.914828
 20
4.746957
 42
0.030008
  0
VERTEX
  8
0
 10
3.30767
 20
4.791203
 42
-0.03976
  0
VERTEX
  8
0
 10
3.742414
 20
4.83476
 42
-0.048741
  0
VERTEX
  8
0
 10
3.751723
 20
4.828461
 42
0.071649
  0
VERTEX
  8
0
 10
3.762573
 20
4.821558
 42
0.193959
  0
VERTEX
  8
0
 10
3.77604
 20
4.821683
 42
0.197673
  0
VERTEX
  8
0
 10
3.77694
 20
4.813865
 42
0.084751
  0
VERTEX
  8
0
 10
3.780789
 20
4.809398
 42
-0.012341
  0
SEQEND
  8
0
  0
POLYLINE
  8
0
 66
1
 70
1
  0
VERTEX
  8
0
 10
3.77604
 20
4.498494
 42
-0.031745
  0
VERTEX
  8
0
 10
2.974608
 20
4.405089
 42
-0.068789
  0
VERTEX
  8
0
 10
2.961773
 20
4.480851
 42
-0.019592
  0
VERTEX
  8
0
 10
2.961901
 20
4.5628
 42
0.025122
  0
VERTEX
  8
0
 10
2.961532
 20
4.646078
 42
-0.022086
  0
VERTEX
  8
0
 10
3.541609
 20
4.720265
 42
0.002962
  0
VERTEX
  8
0
 10
3.748018
 20
4.741354
 42
-0.170557
  0
VERTEX
  8
0
 10
3.775629
 20
4.673793
 42
-0.039041
  0
VERTEX
  8
0
 10
3.77583
 20
4.585882
 42
0.039273
  0
SEQEND
  8
0
  0
POLYLINE
  8
0
 66
1
 70
1
  0
VERTEX
  8
0
 10
0.998119
 20
4.485419
 42
0.070389
  0
VERTEX
  8
0
 10
0.99934
 20
4.496924
 42
0.021116
  0
VERTEX
  8
0
 10
0.998456
 20
4.509026
 42
-0.077431
  0
VERTEX
  8
0
 10
0.998392
 20
4.529916
 42
-0.251468
  0
VERTEX
  8
0
 10
1.011196
 20
4.545199
 42
0.004503
  0
VERTEX
  8
0
 10
1.648572
 20
4.586278
 42
-0.016646
  0
VERTEX
  8
0
 10
2.901751
 20
4.646078
  0
VERTEX
  8
0
 10
2.9223
 20
4.405089
 42
0.033951
  0
VERTEX
  8
0
 10
2.518179
 20
4.390377
 42
-0.007686
  0
VERTEX
  8
0
 10
2.330101
 20
4.377067
  0
VERTEX
  8
0
 10
1.031746
 20
4.289263
 42
-0.144034
  0
VERTEX
  8
0
 10
1.013173
 20
4.335231
 42
-0.039161
  0
VERTEX
  8
0
 10
1.011567
 20
4.390391
 42
0.029478
  0
VERTEX
  8
0
 10
1.010707
 20
4.440328
 42
0.101554
  0
SEQEND
  8
0
  0
POLYLINE
  8
0
 66
1
 70
1
  0
VERTEX
  8
0
 10
0.742185
 20
4.720804
  0
VERTEX
  8
0
 10
0.742185
 20
4.746957
 42
0.041723
  0
VERTEX
  8
0
 10
0.771494
 20
4.748042
 42
0.013324
  0
VERTEX
  8
0
 10
0.800952
 20
4.752368
 42
-0.086716
  0
VERTEX
  8
0
 10
0.866952
 20
4.755973
 42
-0.252415
  0
VERTEX
  8
0
 10
0.91779
 20
4.713332
 42
0.059316
  0
VERTEX
  8
0
 10
0.880964
 20
4.715312
 42
0.021267
  0
VERTEX
  8
0
 10
0.845715
 20
4.711388
 42
-0.044039
  0
VERTEX
  8
0
 10
0.795491
 20
4.707335
 42
-0.11046
  0
SEQEND
  8
0
  0
POLYLINE
  8
0
 66
1
 70
1
  0
VERTEX
  8
0
 10
0.930867
 20
5.701575
  0
VERTEX
  8
0
 10
0.964493
 20
5.735201
 42
-0.01257
  0
VERTEX
  8
0
 10
2.283399
 20
5.877179
 42
-0.005033
  0
VERTEX
  8
0
 10
2.445663
 20
5.890732
 42
0.018334
  0
VERTEX
  8
0
 10
2.77285
 20
5.923885
 42
0.20839
  0
VERTEX
  8
0
 10
2.786436
 20
5.91095
 42
0.057659
  0
VERTEX
  8
0
 10
2.806655
 20
5.906248
 42
-0.025911
  0
VERTEX
  8
0
 10
2.821447
 20
5.903417
 42
-0.087964
  0
VERTEX
  8
0
 10
2.834497
 20
5.897731
  0
VERTEX
  8
0
 10
2.873729
 20
5.856632
 42
-0.015488
  0
VERTEX
  8
0
 10
2.955928
 20
4.860914
 42
0.037542
  0
VERTEX
  8
0
 10
2.264348
 20
4.835069
 42
-0.009491
  0
VERTEX
  8
0
 10
1.906033
 20
4.808606
 42
0.00809
  0
VERTEX
  8
0
 10
1.453183
 20
4.774815
 42
-0.007999
  0
VERTEX
  8
0
 10
1.005592
 20
4.741354
 42
-0.012685
  0
VERTEX
  8
0
 10
0.968018
 20
5.222112
 42
0.01209
  0
SEQEND
  8
0
  0
POLYLINE
  8
0
 66
1
 70
1
  0
VERTEX
  8
0
 10
0.858753
 20
5.195453
  0
VERTEX
  8
0
 10
0.874067
 20
5.095921
  0
VERTEX
  8
0
 10
0.797503
 20
5.080608
  0
VERTEX
  8
0
 10
0.80516
 20
4.919826
  0
VERTEX
  8
0
 10
0.904692
 20
4.912169
  0
VERTEX
  8
0
 10
0.912347
 20
4.797325
  0
VERTEX
  8
0
 10
0.743908
 20
4.797325
  0
VERTEX
  8
0
 10
0.72094
 20
5.164828
  0
SEQEND
  8
0
  0
POLYLINE
  8
0
 66
1
 70
1
  0
VERTEX
  8
0
 10
2.686915
 20
4.074426
 42
-0.103115
  0
VERTEX
  8
0
 10
2.635569
 20
4.062251
 42
-0.029747
  0
VERTEX
  8
0
 10
2.578238
 20
4.063797
 42
0.017088
  0
VERTEX
  8
0
 10
2.531507
 20
4.065798
 42
0.052595
  0
VERTEX
  8
0
 10
2.485157
 20
4.06135
 42
-0.058492
  0
VERTEX
  8
0
 10
2.40903
 20
4.053177
 42
-0.045464
  0
VERTEX
  8
0
 10
2.367989
 20
4.056884
 42
-0.09642
  0
VERTEX
  8
0
 10
2.335706
 20
4.068822
 42
-0.134538
  0
VERTEX
  8
0
 10
2.33672
 20
4.12062
 42
-0.207143
  0
VERTEX
  8
0
 10
2.360451
 20
4.145954
 42
-0.096159
  0
VERTEX
  8
0
 10
2.39895
 20
4.153667
 42
-0.023673
  0
VERTEX
  8
0
 10
2.444263
 20
4.1526
 42
0.015529
  0
VERTEX
  8
0
 10
2.480213
 20
4.151368
 42
0.061041
  0
VERTEX
  8
0
 10
2.511311
 20
4.154757
 42
0.168388
  0
VERTEX
  8
0
 10
2.533374
 20
4.106577
 42
0.178262
  0
VERTEX
  8
0
 10
2.573213
 20
4.091076
 42
0.073026
  0
VERTEX
  8
0
 10
2.624057
 20
4.097086
 42
0.018811
  0
VERTEX
  8
0
 10
2.679134
 20
4.11344
 42
-0.024095
  0
VERTEX
  8
0
 10
2.73555
 20
4.129842
 42
-0.120827
  0
VERTEX
  8
0
 10
2.780483
 20
4.131228
 42
-0.046189
  0
VERTEX
  8
0
 10
2.83428
 20
4.129442
 42
-0.013652
  0
VERTEX
  8
0
 10
2.89076
 20
4.120943
 42
0.054706
  0
VERTEX
  8
0
 10
2.997314
 20
4.110525
 42
0.212401
  0
VERTEX
  8
0
 10
3.08296
 20
4.149153
 42
-0.370059
  0
VERTEX
  8
0
 10
3.079226
 20
4.176219
 42
-0.078694
  0
VERTEX
  8
0
 10
3.098742
 20
4.19879
 42
0.008219
  0
VERTEX
  8
0
 10
3.10351
 20
4.203329
 42
-0.027099
  0
VERTEX
  8
0
 10
3.295284
 20
4.221316
 42
0.012441
  0
VERTEX
  8
0
 10
3.406147
 20
4.229483
  0
VERTEX
  8
0
 10
3.432301
 20
4.149153
 42
0.00031
  0
VERTEX
  8
0
 10
3.383558
 20
4.140085
 42
-0.016451
  0
VERTEX
  8
0
 10
3.026198
 20
4.08148
 42
-0.057366
  0
SEQEND
  8
0
  0
POLYLINE
  8
0
 66
1
 70
1
  0
VERTEX
  8
0
 10
2.544938
 20
4.296737
  0
VERTEX
  8
0
 10
2.115264
 20
4.263111
  0
VERTEX
  8
0
 10
0.990647
 20
4.203329
 42
0.000467
  0
VERTEX
  8
0
 10
0.924896
 20
4.207576
 42
-0.005547
  0
VERTEX
  8
0
 10
0.80143
 20
4.216237
 42
-0.041041
  0
VERTEX
  8
0
 10
0.734611
 20
4.225886
 42
-0.218429
  0
VERTEX
  8
0
 10
0.70885
 20
4.242132
 42
-0.159287
  0
VERTEX
  8
0
 10
0.708557
 20
4.270581
 42
-0.044761
  0
VERTEX
  8
0
 10
0.849602
 20
4.265677
 42
-0.018364
  0
VERTEX
  8
0
 10
0.985042
 20
4.24256
  0
VERTEX
  8
0
 10
2.322629
 20
4.322889
 42
0.028214
  0
VERTEX
  8
0
 10
3.781643
 20
4.444319
  0
VERTEX
  8
0
 10
3.802194
 20
4.423771
 42
-0.049455
  0
SEQEND
  8
0
  0
POLYLINE
  8
0
 66
1
 70
1
  0
VERTEX
  8
0
 10
3.822744
 20
5.062672
 42
0.161185
  0
VERTEX
  8
0
 10
3.815271
 20
5.039145
 42
0.059227
  0
VERTEX
  8
0
 10
3.819007
 20
5.015968
 42
-0.05922
  0
VERTEX
  8
0
 10
3.822743
 20
4.992792
 42
-0.16117
  0
VERTEX
  8
0
 10
3.815271
 20
4.969265
 42
-0.044268
  0
VERTEX
  8
0
 10
3.129664
 20
4.909486
 42
0.000034
  0
VERTEX
  8
0
 10
3.128349
 20
4.925741
 42
-0.044705
  0
VERTEX
  8
0
 10
3.116586
 20
5.398937
 42
-0.146198
  0
VERTEX
  8
0
 10
3.176368
 20
5.486739
  0
VERTEX
  8
0
 10
3.714392
 20
5.533443
 42
-0.260448
  0
VERTEX
  8
0
 10
3.795347
 20
5.460194
 42
-0.077466
  0
VERTEX
  8
0
 10
3.809204
 20
5.344417
 42
0.016807
  0
VERTEX
  8
0
 10
3.811907
 20
5.283105
 42
0.055302
  0
VERTEX
  8
0
 10
3.822744
 20
5.2252
  0
VERTEX
  8
0
 10
3.815271
 20
5.2252
 42
0.093705
  0
VERTEX
  8
0
 10
3.811129
 20
5.186937
 42
0.030024
  0
VERTEX
  8
0
 10
3.816994
 20
5.146456
 42
-0.014792
  0
VERTEX
  8
0
 10
3.822744
 20
5.111244
 42
0.116817
  0
VERTEX
  8
0
 10
3.812031
 20
5.106285
 42
0.232415
  0
VERTEX
  8
0
 10
3.809187
 20
5.099873
 42
0.11361
  0
VERTEX
  8
0
 10
3.811613
 20
5.092458
 42
0.025872
  0
VERTEX
  8
0
 10
3.816707
 20
5.084493
 42
-0.05518
  0
VERTEX
  8
0
 10
3.82347
 20
5.073024
 42
-0.101827
  0
VERTEX
  8
0
 10
3.824521
 20
5.067626
 42
-0.15629
  0
SEQEND
  8
0
  0
POLYLINE
  8
0
 66
1
 70
1
  0
VERTEX
  8
0
 10
3.944172
 20
4.410693
 42
0.043137
  0
VERTEX
  8
0
 10
3.915625
 20
4.44753
 42
0.079616
  0
VERTEX
  8
0
 10
3.896535
 20
4.463001
 42
0.140334
  0
VERTEX
  8
0
 10
3.885851
 20
4.465862
 42
0.135295
  0
VERTEX
  8
0
 10
3.882524
 20
4.464869
 42
-0.06273
  0
VERTEX
  8
0
 10
3.828793
 20
4.663416
 42
-0.079715
  0
VERTEX
  8
0
 10
3.831389
 20
4.799732
 42
-0.175154
  0
VERTEX
  8
0
 10
3.889996
 20
4.91509
 42
-0.047624
  0
VERTEX
  8
0
 10
4.013761
 20
4.933771
 42
-0.021353
  0
VERTEX
  8
0
 10
4.145931
 20
4.935639
 42
0.150637
  0
VERTEX
  8
0
 10
3.996558
 20
4.701189
 42
0.045365
  0
VERTEX
  8
0
 10
3.945709
 20
4.423402
 42
-0.000103
  0
SEQEND
  8
0
  0
POLYLINE
  8
0
 66
1
 70
1
  0
VERTEX
  8
0
 10
4.461646
 20
3.784867
 42
0.003352
  0
VERTEX
  8
0
 10
4.448645
 20
3.762345
 42
-0.062577
  0
VERTEX
  8
0
 10
4.37352
 20
3.653274
 42
-0.262251
  0
VERTEX
  8
0
 10
4.259887
 20
3.611129
 42
-0.183777
  0
VERTEX
  8
0
 10
4.052291
 20
3.873136
 42
-0.05563
  0
VERTEX
  8
0
 10
3.983404
 20
4.216406
 42
0.049138
  0
VERTEX
  8
0
 10
3.990275
 20
4.335467
 42
-0.020618
  0
VERTEX
  8
0
 10
3.991548
 20
4.404646
 42
-0.075777
  0
VERTEX
  8
0
 10
4.003953
 20
4.464869
 42
0.00236
  0
VERTEX
  8
0
 10
4.008029
 20
4.50284
 42
-0.06197
  0
VERTEX
  8
0
 10
4.052667
 20
4.736574
 42
-0.215044
  0
VERTEX
  8
0
 10
4.213185
 20
4.91509
 42
-0.168923
  0
VERTEX
  8
0
 10
4.293896
 20
4.898606
 42
-0.05486
  0
VERTEX
  8
0
 10
4.359453
 20
4.847618
 42
0.002809
  0
VERTEX
  8
0
 10
4.373844
 20
4.83476
 42
-0.041329
  0
VERTEX
  8
0
 10
4.459779
 20
4.676669
 42
-0.107729
  0
VERTEX
  8
0
 10
4.495272
 20
4.505968
  0
VERTEX
  8
0
 10
4.502744
 20
4.498494
 42
-0.082669
  0
VERTEX
  8
0
 10
4.523528
 20
4.142381
 42
-0.03848
  0
SEQEND
  8
0
  0
POLYLINE
  8
0
 66
1
 70
1
  0
VERTEX
  8
0
 10
4.549449
 20
5.057068
 42
-0.150323
  0
VERTEX
  8
0
 10
4.519562
 20
5.098283
 42
-0.04654
  0
VERTEX
  8
0
 10
4.507452
 20
5.150055
 42
0.034298
  0
VERTEX
  8
0
 10
4.497251
 20
5.196835
 42
0.107202
  0
VERTEX
  8
0
 10
4.474724
 20
5.238278
 42
-0.00163
  0
VERTEX
  8
0
 10
4.468037
 20
5.255697
 42
0.045889
  0
VERTEX
  8
0
 10
4.426759
 20
5.346793
 42
0.131349
  0
VERTEX
  8
0
 10
4.353294
 20
5.419487
 42
-0.06254
  0
VERTEX
  8
0
 10
4.289231
 20
5.408207
 42
-0.017366
  0
VERTEX
  8
0
 10
4.217631
 20
5.406684
 42
0.074205
  0
VERTEX
  8
0
 10
4.074569
 20
5.393268
 42
0.255315
  0
VERTEX
  8
0
 10
3.977799
 20
5.298057
 42
0.041182
  0
VERTEX
  8
0
 10
3.95063
 20
5.216036
 42
0.01341
  0
VERTEX
  8
0
 10
3.932284
 20
5.130398
 42
-0.047651
  0
VERTEX
  8
0
 10
3.889996
 20
4.969265
 42
-0.175502
  0
VERTEX
  8
0
 10
3.878667
 20
4.973876
 42
-0.045681
  0
VERTEX
  8
0
 10
3.869336
 20
4.983652
 42
0.020165
  0
VERTEX
  8
0
 10
3.863843
 20
4.989815
 42
-0.043892
  0
VERTEX
  8
0
 10
3.869447
 20
5.499817
  0
VERTEX
  8
0
 10
3.91615
 20
5.548387
  0
VERTEX
  8
0
 10
4.293514
 20
5.600696
 42
-0.100362
  0
VERTEX
  8
0
 10
4.406518
 20
5.483194
 42
-0.030285
  0
VERTEX
  8
0
 10
4.489093
 20
5.335462
 42
0.011852
  0
VERTEX
  8
0
 10
4.536372
 20
5.24575
 42
0.034147
  0
VERTEX
  8
0
 10
4.543366
 20
5.171977
 42
-0.016126
  0
VERTEX
  8
0
 10
4.549987
 20
5.115645
 42
-0.046506
  0
SEQEND
  8
0
  0
POLYLINE
  8
0
 66
1
 70
1
  0
VERTEX
  8
0
 10
4.549449
 20
5.339157
 42
-0.110886
  0
VERTEX
  8
0
 10
4.436948
 20
5.582237
 42
-0.034064
  0
VERTEX
  8
0
 10
4.396446
 20
5.858488
 42
0.042718
  0
VERTEX
  8
0
 10
4.34769
 20
6.166742
 42
-0.038258
  0
VERTEX
  8
0
 10
4.343462
 20
6.205524
 42
-0.01114
  0
VERTEX
  8
0
 10
4.342927
 20
6.247767
 42
0.029339
  0
VERTEX
  8
0
 10
4.340126
 20
6.322368
 42
0.090369
  0
VERTEX
  8
0
 10
4.319668
 20
6.394656
 42
-0.00158
  0
VERTEX
  8
0
 10
4.310617
 20
6.500906
 42
0.049713
  0
VERTEX
  8
0
 10
4.226261
 20
7.067183
 42
-0.061545
  0
VERTEX
  8
0
 10
4.213913
 20
7.084612
 42
-0.02056
  0
VERTEX
  8
0
 10
4.204629
 20
7.103757
 42
0.05689
  0
VERTEX
  8
0
 10
4.188242
 20
7.133822
 42
0.152681
  0
VERTEX
  8
0
 10
4.159008
 20
7.154986
  0
VERTEX
  8
0
 10
4.246811
 20
7.154986
  0
VERTEX
  8
0
 10
4.246811
 20
7.147514
 42
-0.025276
  0
VERTEX
  8
0
 10
4.484779
 20
7.115878
 42
0.007395
  0
VERTEX
  8
0
 10
4.616701
 20
7.095206
  0
VERTEX
  8
0
 10
4.616701
 20
7.080261
 42
0.046722
  0
VERTEX
  8
0
 10
4.596386
 20
7.080962
 42
0.009937
  0
VERTEX
  8
0
 10
4.583075
 20
7.080261
 42
0.000109
  0
VERTEX
  8
0
 10
4.583075
 20
7.080261
  0
VERTEX
  8
0
 10
4.293514
 20
7.061581
 42
0.187389
  0
VERTEX
  8
0
 10
4.274832
 20
7.037294
 42
0.094874
  0
VERTEX
  8
0
 10
4.272964
 20
7.007404
  0
VERTEX
  8
0
 10
4.30659
 20
6.979382
  0
VERTEX
  8
0
 10
4.32714
 20
7.013007
  0
VERTEX
  8
0
 10
4.629779
 20
7.046635
 42
0.025064
  0
VERTEX
  8
0
 10
4.636941
 20
7.039164
 42
-0.071686
  0
VERTEX
  8
0
 10
4.648504
 20
7.025529
 42
-0.213485
  0
VERTEX
  8
0
 10
4.650328
 20
7.007404
 42
-0.095397
  0
VERTEX
  8
0
 10
4.368239
 20
6.973778
 42
0.057937
  0
VERTEX
  8
0
 10
4.33111
 20
6.954629
 42
0.149303
  0
VERTEX
  8
0
 10
4.30659
 20
6.927074
 42
0.023048
  0
VERTEX
  8
0
 10
4.386921
 20
6.321799
  0
VERTEX
  8
0
 10
4.428019
 20
6.301247
 42
0.226279
  0
VERTEX
  8
0
 10
4.557719
 20
6.306809
 42
0.075575
  0
VERTEX
  8
0
 10
4.657302
 20
6.388669
 42
-0.034832
  0
VERTEX
  8
0
 10
4.723185
 20
6.448831
  0
VERTEX
  8
0
 10
4.737131
 20
6.439937
  0
VERTEX
  8
0
 10
4.737131
 20
6.439937
 42
0.012897
  0
VERTEX
  8
0
 10
4.562525
 20
6.280699
 42
-0.058941
  0
VERTEX
  8
0
 10
4.5432
 20
6.275898
 42
-0.021113
  0
VERTEX
  8
0
 10
4.523669
 20
6.274361
 42
0.051062
  0
VERTEX
  8
0
 10
4.486308
 20
6.269717
 42
0.112624
  0
VERTEX
  8
0
 10
4.478982
 20
6.25027
 42
0.136869
  0
VERTEX
  8
0
 10
4.481217
 20
6.233408
 42
0.376836
  0
VERTEX
  8
0
 10
4.50835
 20
6.220918
 42
-0.043798
  0
VERTEX
  8
0
 10
4.551102
 20
6.231987
 42
0.07803
  0
VERTEX
  8
0
 10
4.610595
 20
6.250273
 42
0.259338
  0
VERTEX
  8
0
 10
4.642856
 20
6.301247
 42
0.007386
  0
VERTEX
  8
0
 10
4.659361
 20
6.301559
 42
-0.029963
  0
VERTEX
  8
0
 10
4.68948
 20
6.301229
 42
-0.064384
  0
VERTEX
  8
0
 10
4.723185
 20
6.293776
 42
0.222462
  0
VERTEX
  8
0
 10
4.74338
 20
6.324948
 42
0.07819
  0
VERTEX
  8
0
 10
4.740662
 20
6.360724
 42
-0.092601
  0
VERTEX
  8
0
 10
4.738449
 20
6.398042
 42
-0.122279
  0
VERTEX
  8
0
 10
4.746116
 20
6.414444
 42
-0.107819
  0
VERTEX
  8
0
 10
4.764285
 20
6.428282
 42
-0.05486
  0
VERTEX
  8
0
 10
4.794109
 20
6.336977
 42
-0.01603
  0
VERTEX
  8
0
 10
4.812248
 20
6.236497
 42
0.007872
  0
VERTEX
  8
0
 10
4.824064
 20
6.166742
 42
0.018371
  0
VERTEX
  8
0
 10
4.877069
 20
5.801623
 42
-0.034878
  0
VERTEX
  8
0
 10
4.939889
 20
5.284981
 42
-0.169622
  0
VERTEX
  8
0
 10
4.676482
 20
5.24575
 42
-0.12703
  0
VERTEX
  8
0
 10
4.633219
 20
5.228254
 42
-0.198443
  0
VERTEX
  8
0
 10
4.603525
 20
5.237645
 42
-0.098977
  0
VERTEX
  8
0
 10
4.582952
 20
5.264774
 42
-0.024765
  0
VERTEX
  8
0
 10
4.567053
 20
5.300496
 42
0.031899
  0
SEQEND
  8
0
  0
POLYLINE
  8
0
 66
1
 70
1
  0
VERTEX
  8
0
 10
4.555053
 20
6.428282
 42
-0.102911
  0
VERTEX
  8
0
 10
4.545504
 20
6.425248
 42
-0.033761
  0
VERTEX
  8
0
 10
4.530995
 20
6.424245
 42
-0.016728
  0
VERTEX
  8
0
 10
4.494867
 20
6.425557
 42
0.018269
  0
VERTEX
  8
0
 10
4.46315
 20
6.426695
 42
0.051812
  0
VERTEX
  8
0
 10
4.452848
 20
6.425641
 42
0.288111
  0
VERTEX
  8
0
 10
4.448569
 20
6.422678
 42
-0.085657
  0
VERTEX
  8
0
 10
4.427656
 20
6.498502
 42
-0.026153
  0
VERTEX
  8
0
 10
4.423569
 20
6.57836
 42
0.024312
  0
VERTEX
  8
0
 10
4.420547
 20
6.643118
 42
-0.049696
  0
VERTEX
  8
0
 10
4.511619
 20
6.547609
 42
-0.161902
  0
SEQEND
  8
0
  0
POLYLINE
  8
0
 66
1
 70
1
  0
VERTEX
  8
0
 10
4.784833
 20
4.477946
  0
VERTEX
  8
0
 10
4.738131
 20
4.472342
 42
-0.107088
  0
VERTEX
  8
0
 10
4.723786
 20
4.559449
 42
-0.032739
  0
VERTEX
  8
0
 10
4.734258
 20
4.651059
 42
0.014919
  0
VERTEX
  8
0
 10
4.7429
 20
4.7137
 42
0.047667
  0
VERTEX
  8
0
 10
4.743735
 20
4.774979
 42
-0.059249
  0
VERTEX
  8
0
 10
4.733544
 20
4.779321
 42
-0.127541
  0
VERTEX
  8
0
 10
4.728761
 20
4.783795
 42
-0.338299
  0
VERTEX
  8
0
 10
4.730424
 20
4.79226
 42
-0.093773
  0
VERTEX
  8
0
 10
4.743735
 20
4.801133
  0
VERTEX
  8
0
 10
4.939889
 20
4.821683
 42
0.12611
  0
VERTEX
  8
0
 10
4.945904
 20
4.840048
 42
0.038022
  0
VERTEX
  8
0
 10
4.945706
 20
4.860483
 42
-0.037197
  0
VERTEX
  8
0
 10
4.945493
 20
4.881462
 42
0.148146
  0
VERTEX
  8
0
 10
4.882885
 20
4.902099
 42
0.052844
  0
VERTEX
  8
0
 10
4.819439
 20
4.895574
 42
-0.05024
  0
VERTEX
  8
0
 10
4.756812
 20
4.888936
 42
-0.196305
  0
VERTEX
  8
0
 10
4.747228
 20
4.882297
 42
-0.062033
  0
VERTEX
  8
0
 10
4.735249
 20
4.881448
 42
0.089077
  0
VERTEX
  8
0
 10
4.720859
 20
4.87992
 42
0.229725
  0
VERTEX
  8
0
 10
4.710108
 20
4.868386
 42
-0.008156
  0
VERTEX
  8
0
 10
4.691416
 20
4.902681
 42
0.022188
  0
VERTEX
  8
0
 10
4.645233
 20
4.983331
 42
0.072041
  0
VERTEX
  8
0
 10
4.583075
 20
5.057068
 42
0.073979
  0
VERTEX
  8
0
 10
4.584267
 20
5.072587
 42
0.01814
  0
VERTEX
  8
0
 10
4.582565
 20
5.090736
 42
-0.019854
  0
VERTEX
  8
0
 10
4.580774
 20
5.110374
 42
-0.077215
  0
VERTEX
  8
0
 10
4.582346
 20
5.127741
 42
-0.176715
  0
VERTEX
  8
0
 10
4.590693
 20
5.140139
 42
-0.154827
  0
VERTEX
  8
0
 10
4.609229
 20
5.144871
 42
-0.056266
  0
VERTEX
  8
0
 10
4.739765
 20
5.148607
 42
-0.165777
  0
VERTEX
  8
0
 10
4.85769
 20
5.096299
 42
-0.279561
  0
VERTEX
  8
0
 10
5.033296
 20
4.6741
 42
-0.126043
  0
VERTEX
  8
0
 10
5.027952
 20
4.605271
 42
-0.140941
  0
VERTEX
  8
0
 10
4.995008
 20
4.561524
 42
-0.075559
  0
VERTEX
  8
0
 10
4.943909
 20
4.534564
 42
-0.021302
  0
VERTEX
  8
0
 10
4.884098
 20
4.516101
 42
0.017383
  0
VERTEX
  8
0
 10
4.830755
 20
4.499941
 42
0.062158
  0
SEQEND
  8
0
  0
POLYLINE
  8
0
 66
1
 70
1
  0
VERTEX
  8
0
 10
5.227583
 20
4.83476
  0
VERTEX
  8
0
 10
5.208903
 20
4.85531
 42
0.012061
  0
VERTEX
  8
0
 10
5.127637
 20
4.944746
 42
0.028144
  0
VERTEX
  8
0
 10
5.070191
 20
4.999535
 42
0.066588
  0
VERTEX
  8
0
 10
5.050138
 20
5.01282
 42
0.550244
  0
VERTEX
  8
0
 10
5.040768
 20
5.010365
 42
-0.105643
  0
VERTEX
  8
0
 10
5.067389
 20
5.123854
 42
-0.131786
  0
VERTEX
  8
0
 10
5.141647
 20
5.212124
 42
-0.078601
  0
VERTEX
  8
0
 10
5.335935
 20
5.230806
 42
0.107808
  0
VERTEX
  8
0
 10
5.27086
 20
5.095765
 42
0.032197
  0
VERTEX
  8
0
 10
5.243543
 20
4.940075
 42
-0.014414
  0
SEQEND
  8
0
  0
POLYLINE
  8
0
 66
1
  0
VERTEX
  8
0
 10
5.356485
 20
4.948717
 42
-0.076372
  0
VERTEX
  8
0
 10
5.385674
 20
5.107975
 42
-0.156436
  0
VERTEX
  8
0
 10
5.477914
 20
5.230806
 42
-0.106712
  0
VERTEX
  8
0
 10
5.560578
 20
5.24575
 42
-0.035049
  0
VERTEX
  8
0
 10
5.646046
 20
5.238278
 42
-0.137872
  0
VERTEX
  8
0
 10
5.650119
 20
5.229385
 42
-0.164143
  0
VERTEX
  8
0
 10
5.648405
 20
5.221893
 42
-0.077209
  0
VERTEX
  8
0
 10
5.642622
 20
5.215175
 42
-0.019251
  0
VERTEX
  8
0
 10
5.634493
 20
5.208602
 42
0.050676
  0
VERTEX
  8
0
 10
5.620034
 20
5.195847
 42
0.168038
  0
VERTEX
  8
0
 10
5.612419
 20
5.178497
 42
0.089316
  0
VERTEX
  8
0
 10
5.559828
 20
4.944278
 42
0.027595
  0
VERTEX
  8
0
 10
5.562079
 20
4.69849
 42
-0.000739
  0
VERTEX
  8
0
 10
5.563849
 20
4.659156
 42
-0.01095
  0
VERTEX
  8
0
 10
5.356485
 20
4.948717
  0
SEQEND
  8
0
  0
POLYLINE
  8
0
 66
1
 70
1
  0
VERTEX
  8
0
 10
5.900112
 20
4.363989
 42
-0.075964
  0
VERTEX
  8
0
 10
5.873258
 20
4.291366
 42
-0.136447
  0
VERTEX
  8
0
 10
5.819782
 20
4.236957
 42
-0.267363
  0
VERTEX
  8
0
 10
5.723522
 20
4.289689
 42
-0.065562
  0
VERTEX
  8
0
 10
5.67271
 20
4.40344
 42
0.02647
  0
VERTEX
  8
0
 10
5.646046
 20
4.472342
 42
-0.040617
  0
VERTEX
  8
0
 10
5.595139
 20
4.830323
 42
-0.123903
  0
VERTEX
  8
0
 10
5.659122
 20
5.178497
  0
VERTEX
  8
0
 10
5.692749
 20
5.212124
 42
0.014176
  0
VERTEX
  8
0
 10
5.707842
 20
5.216179
 42
-0.050361
  0
VERTEX
  8
0
 10
5.731945
 20
5.221469
 42
-0.105129
  0
VERTEX
  8
0
 10
5.760003
 20
5.217728
 42
-0.12791
  0
VERTEX
  8
0
 10
5.916926
 20
4.811174
 42
-0.078234
  0
SEQEND
  8
0
  0
POLYLINE
  8
0
 66
1
 70
1
  0
VERTEX
  8
0
 10
5.881431
 20
5.212124
 42
0.313199
  0
VERTEX
  8
0
 10
5.88192
 20
5.212271
 42
0.100942
  0
VERTEX
  8
0
 10
5.882334
 20
5.21304
 42
0.047683
  0
VERTEX
  8
0
 10
5.882992
 20
5.216284
 42
0.013385
  0
VERTEX
  8
0
 10
5.884026
 20
5.22847
 42
-0.054255
  0
VERTEX
  8
0
 10
5.892745
 20
5.286499
 42
-0.095503
  0
VERTEX
  8
0
 10
5.905647
 20
5.312717
 42
-0.193437
  0
VERTEX
  8
0
 10
5.928135
 20
5.326079
  0
VERTEX
  8
0
 10
6.068244
 20
5.331685
 42
-0.045925
  0
VERTEX
  8
0
 10
6.072387
 20
5.330977
 42
-0.16621
  0
VERTEX
  8
0
 10
6.073029
 20
5.330596
 42
-0.397809
  0
VERTEX
  8
0
 10
6.072849
 20
5.330184
 42
-0.072993
  0
VERTEX
  8
0
 10
6.070419
 20
5.32922
 42
-0.008409
  0
VERTEX
  8
0
 10
6.065883
 20
5.328002
 42
0.021293
  0
VERTEX
  8
0
 10
6.053394
 20
5.324372
 42
0.084543
  0
VERTEX
  8
0
 10
6.04209
 20
5.318607
 42
0.116261
  0
VERTEX
  8
0
 10
5.97862
 20
5.172789
 42
0.03469
  0
VERTEX
  8
0
 10
5.959677
 20
5.00916
 42
-0.020632
  0
VERTEX
  8
0
 10
5.948683
 20
4.89454
 42
-0.011783
  0
VERTEX
  8
0
 10
5.930595
 20
5.00637
 42
0.012993
  0
VERTEX
  8
0
 10
5.90737
 20
5.147723
 42
0.036438
  0
VERTEX
  8
0
 10
5.894739
 20
5.1955
 42
0.070235
  0
VERTEX
  8
0
 10
5.88817
 20
5.20845
 42
0.295527
  0
SEQEND
  8
0
  0
POLYLINE
  8
0
 66
1
 70
1
  0
VERTEX
  8
0
 10
6.217694
 20
4.390143
 42
0.045004
  0
VERTEX
  8
0
 10
6.207888
 20
4.384798
 42
0.013369
  0
VERTEX
  8
0
 10
6.198216
 20
4.378003
 42
-0.08513
  0
VERTEX
  8
0
 10
6.174986
 20
4.364599
 42
-0.283852
  0
VERTEX
  8
0
 10
6.150443
 20
4.371462
 42
-0.114825
  0
VERTEX
  8
0
 10
6.053486
 20
4.552815
 42
-0.035808
  0
VERTEX
  8
0
 10
6.013624
 20
4.756669
 42
0.012833
  0
VERTEX
  8
0
 10
5.995387
 20
4.868386
 42
0.004677
  0
VERTEX
  8
0
 10
5.997705
 20
4.934922
 42
-0.044229
  0
VERTEX
  8
0
 10
6.016389
 20
5.148635
 42
-0.160485
  0
VERTEX
  8
0
 10
6.109343
 20
5.326079
 42
-0.256071
  0
VERTEX
  8
0
 10
6.226541
 20
5.245789
 42
-0.075321
  0
VERTEX
  8
0
 10
6.26772
 20
5.101664
 42
0.012217
  0
VERTEX
  8
0
 10
6.280259
 20
5.039246
 42
0.041569
  0
VERTEX
  8
0
 10
6.298025
 20
4.982343
 42
-0.062688
  0
VERTEX
  8
0
 10
6.304797
 20
4.676436
 42
-0.102688
  0
SEQEND
  8
0
  0
POLYLINE
  8
0
 66
1
 70
1
  0
VERTEX
  8
0
 10
6.539014
 20
5.507289
 42
0.004885
  0
VERTEX
  8
0
 10
6.419376
 20
5.477132
 42
-0.044244
  0
VERTEX
  8
0
 10
6.06264
 20
5.40641
 42
0.102359
  0
VERTEX
  8
0
 10
6.064521
 20
5.42602
 42
0.032175
  0
VERTEX
  8
0
 10
6.061183
 20
5.445487
 42
-0.024945
  0
VERTEX
  8
0
 10
6.058498
 20
5.460127
 42
-0.10261
  0
VERTEX
  8
0
 10
6.059198
 20
5.472526
 42
-0.184792
  0
VERTEX
  8
0
 10
6.066392
 20
5.481719
 42
-0.111131
  0
VERTEX
  8
0
 10
6.083189
 20
5.486739
  0
VERTEX
  8
0
 10
6.533411
 20
5.574542
 42
-0.117284
  0
VERTEX
  8
0
 10
6.540116
 20
5.550878
 42
-0.033283
  0
VERTEX
  8
0
 10
6.539704
 20
5.524449
 42
0.014631
  0
SEQEND
  8
0
  0
POLYLINE
  8
0
 66
1
 70
1
  0
VERTEX
  8
0
 10
6.000992
 20
5.796851
  0
VERTEX
  8
0
 10
5.982311
 20
5.796851
 42
-0.29679
  0
VERTEX
  8
0
 10
6.001743
 20
5.83004
 42
-0.073093
  0
VERTEX
  8
0
 10
6.044644
 20
5.84305
 42
0.017284
  0
VERTEX
  8
0
 10
6.068222
 20
5.848469
 42
0.062145
  0
VERTEX
  8
0
 10
6.088794
 20
5.856632
 42
0.004943
  0
VERTEX
  8
0
 10
7.346051
 20
5.970587
 42
-0.07198
  0
VERTEX
  8
0
 10
7.352807
 20
5.967465
 42
-0.024977
  0
VERTEX
  8
0
 10
7.358636
 20
5.963222
 42
0.074197
  0
VERTEX
  8
0
 10
7.367967
 20
5.957279
 42
0.192162
  0
VERTEX
  8
0
 10
7.379678
 20
5.95751
  0
VERTEX
  8
0
 10
7.374074
 20
5.877179
 42
-0.078658
  0
VERTEX
  8
0
 10
7.368971
 20
5.8829
 42
-0.027282
  0
VERTEX
  8
0
 10
7.365295
 20
5.889425
 42
0.04237
  0
VERTEX
  8
0
 10
7.360675
 20
5.897263
 42
0.118723
  0
VERTEX
  8
0
 10
7.353524
 20
5.903336
 42
-0.110204
  0
VERTEX
  8
0
 10
7.336231
 20
5.8858
 42
-0.166786
  0
VERTEX
  8
0
 10
7.319888
 20
5.882207
 42
-0.100528
  0
VERTEX
  8
0
 10
7.304269
 20
5.887845
 42
-0.027557
  0
VERTEX
  8
0
 10
7.289148
 20
5.897999
 42
0.030989
  0
VERTEX
  8
0
 10
7.273682
 20
5.908297
 42
0.121926
  0
VERTEX
  8
0
 10
7.258255
 20
5.913056
 42
0.186817
  0
VERTEX
  8
0
 10
7.242609
 20
5.90695
 42
0.097898
  0
VERTEX
  8
0
 10
7.22649
 20
5.884654
 42
-0.078214
  0
VERTEX
  8
0
 10
7.028701
 20
5.839147
 42
-0.014399
  0
VERTEX
  8
0
 10
6.620747
 20
5.791013
 42
-0.020047
  0
VERTEX
  8
0
 10
6.209289
 20
5.767749
 42
-0.031244
  0
VERTEX
  8
0
 10
6.066829
 20
5.774036
 42
-0.181037
  0
SEQEND
  8
0
  0
POLYLINE
  8
0
 66
1
 70
1
  0
VERTEX
  8
0
 10
7.379678
 20
5.755751
 42
-0.043748
  0
VERTEX
  8
0
 10
7.037808
 20
5.695971
  0
VERTEX
  8
0
 10
7.063962
 20
5.742674
 42
0.031194
  0
VERTEX
  8
0
 10
7.272986
 20
5.763143
 42
-0.007831
  0
VERTEX
  8
0
 10
7.374074
 20
5.776301
 42
-0.00974
  0
VERTEX
  8
0
 10
7.373972
 20
5.772497
 42
0.063688
  0
VERTEX
  8
0
 10
7.374385
 20
5.762825
 42
0.238071
  0
SEQEND
  8
0
  0
POLYLINE
  8
0
 66
1
 70
1
  0
VERTEX
  8
0
 10
6.621212
 20
5.507289
 42
-0.108725
  0
VERTEX
  8
0
 10
6.602124
 20
5.503206
 42
-0.23413
  0
VERTEX
  8
0
 10
6.592181
 20
5.5084
 42
-0.121291
  0
VERTEX
  8
0
 10
6.588333
 20
5.51995
 42
-0.027015
  0
VERTEX
  8
0
 10
6.587527
 20
5.534934
 42
0.036135
  0
VERTEX
  8
0
 10
6.58633
 20
5.55304
 42
0.155072
  0
VERTEX
  8
0
 10
6.580114
 20
5.567069
  0
VERTEX
  8
0
 10
6.59319
 20
5.582014
 42
0.046148
  0
VERTEX
  8
0
 10
6.859341
 20
5.589643
 42
-0.028494
  0
VERTEX
  8
0
 10
7.071436
 20
5.600696
  0
VERTEX
  8
0
 10
7.071436
 20
5.561465
 42
-0.053364
  0
VERTEX
  8
0
 10
6.884779
 20
5.522164
 42
-0.018091
  0
VERTEX
  8
0
 10
6.690846
 20
5.510138
 42
0.00192
  0
SEQEND
  8
0
  0
POLYLINE
  8
0
 66
1
 70
1
  0
VERTEX
  8
0
 10
7.125611
 20
5.124321
  0
VERTEX
  8
0
 10
7.118139
 20
5.116849
 42
-0.146624
  0
VERTEX
  8
0
 10
7.112096
 20
5.130494
 42
-0.042109
  0
VERTEX
  8
0
 10
7.111364
 20
5.146562
 42
0.086993
  0
VERTEX
  8
0
 10
7.109104
 20
5.168678
 42
0.245571
  0
VERTEX
  8
0
 10
7.091985
 20
5.184101
  0
VERTEX
  8
0
 10
6.963083
 20
5.197179
 42
-0.052825
  0
VERTEX
  8
0
 10
6.980597
 20
5.378621
 42
-0.13155
  0
VERTEX
  8
0
 10
7.058358
 20
5.533443
 42
0.280419
  0
VERTEX
  8
0
 10
7.086385
 20
5.513682
 42
0.076651
  0
VERTEX
  8
0
 10
7.123861
 20
5.518451
 42
-0.032665
  0
VERTEX
  8
0
 10
7.149575
 20
5.523149
 42
-0.127502
  0
VERTEX
  8
0
 10
7.172314
 20
5.520365
 42
0.060415
  0
SEQEND
  8
0
  0
POLYLINE
  8
0
 66
1
 70
1
  0
VERTEX
  8
0
 10
7.332974
 20
5.077618
 42
-0.007644
  0
VERTEX
  8
0
 10
7.330049
 20
5.091595
 42
0.033908
  0
VERTEX
  8
0
 10
7.322614
 20
5.121756
 42
0.092783
  0
VERTEX
  8
0
 10
7.306819
 20
5.150475
  0
VERTEX
  8
0
 10
7.306819
 20
5.150475
 42
0.013211
  0
VERTEX
  8
0
 10
7.255446
 20
5.193442
 42
0.028836
  0
VERTEX
  8
0
 10
7.218551
 20
5.21983
 42
0.058819
  0
VERTEX
  8
0
 10
7.20527
 20
5.22628
 42
0.370603
  0
VERTEX
  8
0
 10
7.198468
 20
5.2252
 42
0.033413
  0
VERTEX
  8
0
 10
7.202728
 20
5.259498
 42
0.008051
  0
VERTEX
  8
0
 10
7.204693
 20
5.301294
 42
-0.044715
  0
VERTEX
  8
0
 10
7.216736
 20
5.424311
 42
-0.168464
  0
VERTEX
  8
0
 10
7.273193
 20
5.527839
  0
VERTEX
  8
0
 10
7.360996
 20
5.533443
 42
0.051871
  0
SEQEND
  8
0
  0
POLYLINE
  8
0
 66
1
 70
1
  0
VERTEX
  8
0
 10
7.581436
 20
5.507289
 42
-0.021547
  0
VERTEX
  8
0
 10
7.573804
 20
5.478106
 42
0.018393
  0
VERTEX
  8
0
 10
7.566238
 20
5.449605
 42
0.053063
  0
VERTEX
  8
0
 10
7.562756
 20
5.419487
 42
-0.253508
  0
VERTEX
  8
0
 10
7.550441
 20
5.429249
 42
-0.057809
  0
VERTEX
  8
0
 10
7.544652
 20
5.447919
 42
0.037551
  0
VERTEX
  8
0
 10
7.539428
 20
5.466146
 42
0.127923
  0
VERTEX
  8
0
 10
7.529128
 20
5.481135
 42
-0.201142
  0
VERTEX
  8
0
 10
7.533713
 20
5.496782
 42
-0.142037
  0
VERTEX
  8
0
 10
7.546655
 20
5.504594
 42
-0.076445
  0
VERTEX
  8
0
 10
7.577397
 20
5.50735
 42
0.004941
  0
SEQEND
  8
0
  0
POLYLINE
  8
0
 66
1
 70
1
  0
VERTEX
  8
0
 10
7.529128
 20
5.204651
 42
-0.030155
  0
VERTEX
  8
0
 10
7.524457
 20
5.019939
 42
-0.101873
  0
VERTEX
  8
0
 10
7.474953
 20
4.847837
 42
-0.143396
  0
VERTEX
  8
0
 10
7.413944
 20
4.950803
 42
-0.043817
  0
VERTEX
  8
0
 10
7.394013
 20
5.074102
 42
0.044188
  0
VERTEX
  8
0
 10
7.374074
 20
5.197179
  0
VERTEX
  8
0
 10
7.38715
 20
5.212124
 42
0.002293
  0
VERTEX
  8
0
 10
7.384531
 20
5.24865
 42
-0.04245
  0
VERTEX
  8
0
 10
7.381686
 20
5.394683
 42
-0.132523
  0
VERTEX
  8
0
 10
7.42825
 20
5.527839
 42
-0.175666
  0
VERTEX
  8
0
 10
7.511315
 20
5.379837
 42
-0.0459
  0
VERTEX
  8
0
 10
7.528847
 20
5.211895
 42
0.000155
  0
SEQEND
  8
0
  0
POLYLINE
  8
0
 66
1
 70
1
  0
VERTEX
  8
0
 10
7.58891
 20
5.641794
 42
0.002073
  0
VERTEX
  8
0
 10
7.483636
 20
5.636906
 42
-0.020515
  0
VERTEX
  8
0
 10
7.125611
 20
5.628718
  0
VERTEX
  8
0
 10
7.091985
 20
5.654871
  0
VERTEX
  8
0
 10
7.374074
 20
5.701575
 42
0.272608
  0
VERTEX
  8
0
 10
7.4313
 20
5.655517
 42
0.077483
  0
VERTEX
  8
0
 10
7.509777
 20
5.659593
 42
-0.020857
  0
VERTEX
  8
0
 10
7.551568
 20
5.664771
 42
-0.078435
  0
VERTEX
  8
0
 10
7.58891
 20
5.662344
  0
SEQEND
  8
0
  0
POLYLINE
  8
0
 66
1
 70
1
  0
VERTEX
  8
0
 10
7.702865
 20
5.951907
 42
0.157288
  0
VERTEX
  8
0
 10
7.691737
 20
5.961832
 42
0.107807
  0
VERTEX
  8
0
 10
7.676863
 20
5.964435
 42
0.059471
  0
VERTEX
  8
0
 10
7.641651
 20
5.957652
 42
-0.022736
  0
VERTEX
  8
0
 10
7.620333
 20
5.952509
 42
-0.102649
  0
VERTEX
  8
0
 10
7.602623
 20
5.952309
 42
-0.239223
  0
VERTEX
  8
0
 10
7.591243
 20
5.96175
 42
-0.128779
  0
VERTEX
  8
0
 10
7.58891
 20
5.985533
 42
-0.077112
  0
VERTEX
  8
0
 10
7.637144
 20
6.005583
 42
-0.024539
  0
VERTEX
  8
0
 10
7.689978
 20
6.015805
 42
0.003346
  0
VERTEX
  8
0
 10
7.710338
 20
6.01916
 42
-0.181509
  0
VERTEX
  8
0
 10
7.735775
 20
6.00849
 42
-0.066706
  0
VERTEX
  8
0
 10
7.752027
 20
5.986187
 42
0.005303
  0
VERTEX
  8
0
 10
7.757042
 20
5.978061
 42
0.116221
  0
VERTEX
  8
0
 10
7.732055
 20
5.974091
 42
0.172878
  0
SEQEND
  8
0
  0
POLYLINE
  8
0
 66
1
 70
1
  0
VERTEX
  8
0
 10
2.7934
 20
5.649267
  0
VERTEX
  8
0
 10
2.821421
 20
5.675422
 42
-0.048637
  0
VERTEX
  8
0
 10
2.814766
 20
5.741567
 42
0.072126
  0
VERTEX
  8
0
 10
2.806077
 20
5.809877
 42
0.192535
  0
VERTEX
  8
0
 10
2.759774
 20
5.864103
  0
VERTEX
  8
0
 10
1.098999
 20
5.709047
  0
VERTEX
  8
0
 10
1.011196
 20
5.688499
 42
0.115743
  0
VERTEX
  8
0
 10
0.994324
 20
5.645093
 42
0.064199
  0
VERTEX
  8
0
 10
0.992515
 20
5.590655
 42
0.05948
  0
VERTEX
  8
0
 10
1.003315
 20
5.537967
 42
0.1035
  0
VERTEX
  8
0
 10
1.024272
 20
5.499817
 42
0.005282
  0
VERTEX
  8
0
 10
1.924147
 20
5.575811
 42
-0.005313
  0
SEQEND
  8
0
  0
POLYLINE
  8
0
 66
1
 70
1
  0
VERTEX
  8
0
 10
2.834497
 20
5.413882
 42
0.07053
  0
VERTEX
  8
0
 10
2.839402
 20
5.511492
 42
0.139653
  0
VERTEX
  8
0
 10
2.806476
 20
5.600696
 42
0.02477
  0
VERTEX
  8
0
 10
1.803772
 20
5.533341
 42
-0.011844
  0
VERTEX
  8
0
 10
1.098999
 20
5.473662
 42
0.102068
  0
VERTEX
  8
0
 10
1.053317
 20
5.483996
 42
0.177381
  0
VERTEX
  8
0
 10
1.023923
 20
5.473663
 42
0.217244
  0
VERTEX
  8
0
 10
1.004191
 20
5.412014
 42
0.077594
  0
VERTEX
  8
0
 10
1.020187
 20
5.33075
 42
0.099924
  0
VERTEX
  8
0
 10
1.052296
 20
5.271904
 42
-0.009466
  0
SEQEND
  8
0
  0
POLYLINE
  8
0
 66
1
 70
1
  0
VERTEX
  8
0
 10
2.666367
 20
5.171025
  0
VERTEX
  8
0
 10
2.834497
 20
5.163551
  0
VERTEX
  8
0
 10
2.847575
 20
5.178497
 42
0.090282
  0
VERTEX
  8
0
 10
2.860886
 20
5.277508
 42
0.205257
  0
VERTEX
  8
0
 10
2.813949
 20
5.365311
 42
0.050253
  0
VERTEX
  8
0
 10
2.671657
 20
5.370946
 42
0.016584
  0
VERTEX
  8
0
 10
2.531496
 20
5.357834
 42
-0.013312
  0
VERTEX
  8
0
 10
2.417904
 20
5.346629
  0
VERTEX
  8
0
 10
1.039218
 20
5.230806
  0
VERTEX
  8
0
 10
1.024272
 20
5.217728
 42
-0.099467
  0
VERTEX
  8
0
 10
1.031439
 20
5.180899
 42
-0.024287
  0
VERTEX
  8
0
 10
1.02986
 20
5.137279
 42
0.017844
  0
VERTEX
  8
0
 10
1.028201
 20
5.10007
 42
0.070133
  0
VERTEX
  8
0
 10
1.032075
 20
5.067819
 42
0.16592
  0
VERTEX
  8
0
 10
1.046989
 20
5.045108
 42
0.162243
  0
VERTEX
  8
0
 10
1.07845
 20
5.036519
  0
SEQEND
  8
0
  0
POLYLINE
  8
0
 66
1
 70
1
  0
VERTEX
  8
0
 10
2.868125
 20
4.928167
 42
0.133897
  0
VERTEX
  8
0
 10
2.881409
 20
4.983284
 42
0.042103
  0
VERTEX
  8
0
 10
2.874655
 20
5.040898
 42
-0.042249
  0
VERTEX
  8
0
 10
2.868125
 20
5.096299
 42
0.136649
  0
VERTEX
  8
0
 10
2.833658
 20
5.116623
 42
0.044412
  0
VERTEX
  8
0
 10
2.793801
 20
5.12327
 42
-0.045591
  0
VERTEX
  8
0
 10
2.754168
 20
5.129925
 42
-0.002318
  0
VERTEX
  8
0
 10
2.256224
 20
5.095705
 42
0.016396
  0
VERTEX
  8
0
 10
1.052296
 20
4.989815
 42
0.07927
  0
VERTEX
  8
0
 10
1.048353
 20
4.959984
 42
0.024394
  0
VERTEX
  8
0
 10
1.050751
 20
4.928049
 42
-0.058064
  0
VERTEX
  8
0
 10
1.052296
 20
4.868386
 42
0.106967
  0
VERTEX
  8
0
 10
1.054718
 20
4.827822
 42
0.209428
  0
VERTEX
  8
0
 10
1.070637
 20
4.809057
 42
0.117539
  0
VERTEX
  8
0
 10
1.096024
 20
4.804891
 42
0.027618
  0
VERTEX
  8
0
 10
1.126848
 20
4.808123
 42
-0.023804
  0
VERTEX
  8
0
 10
1.157982
 20
4.811511
 42
-0.085479
  0
VERTEX
  8
0
 10
1.186801
 20
4.808606
 42
-0.003096
  0
VERTEX
  8
0
 10
2.759774
 20
4.922562
 42
0.054623
  0
VERTEX
  8
0
 10
2.818152
 20
4.914156
 42
0.155731
  0
SEQEND
  8
0
  0
POLYLINE
  8
0
 66
1
 70
1
  0
VERTEX
  8
0
 10
4.125382
 20
6.38905
 42
0.123682
  0
VERTEX
  8
0
 10
4.185162
 20
6.637512
 42
-0.020614
  0
VERTEX
  8
0
 10
4.175817
 20
6.739663
 42
0.05294
  0
VERTEX
  8
0
 10
4.152281
 20
6.914161
 42
0.195048
  0
VERTEX
  8
0
 10
4.058129
 20
7.046635
 42
0.058664
  0
VERTEX
  8
0
 10
3.748402
 20
7.0319
 42
-0.029735
  0
VERTEX
  8
0
 10
3.533182
 20
7.013007
 42
-0.00142
  0
VERTEX
  8
0
 10
3.2455
 20
6.985519
 42
0.034314
  0
VERTEX
  8
0
 10
1.906033
 20
6.798172
 42
-0.034117
  0
VERTEX
  8
0
 10
1.866154
 20
6.783608
 42
0.068936
  0
VERTEX
  8
0
 10
1.806388
 20
6.758579
 42
0.22054
  0
VERTEX
  8
0
 10
1.771528
 20
6.704765
 42
-0.001759
  0
VERTEX
  8
0
 10
1.747768
 20
6.5922
 42
0.025418
  0
VERTEX
  8
0
 10
1.670647
 20
6.159269
 42
0.255297
  0
VERTEX
  8
0
 10
1.70612
 20
6.123705
 42
0.075445
  0
VERTEX
  8
0
 10
1.757643
 20
6.118453
 42
-0.021366
  0
VERTEX
  8
0
 10
1.783657
 20
6.117643
 42
-0.086429
  0
VERTEX
  8
0
 10
1.805154
 20
6.112567
 42
-0.030359
  0
VERTEX
  8
0
 10
3.43049
 20
6.291018
 42
0.004054
  0
VERTEX
  8
0
 10
4.024503
 20
6.334875
  0
SEQEND
  8
0
  0
POLYLINE
  8
0
 66
1
 70
1
  0
VERTEX
  8
0
 10
1.846253
 20
6.220918
  0
VERTEX
  8
0
 10
1.784604
 20
6.205974
 42
0.008309
  0
VERTEX
  8
0
 10
1.808999
 20
6.326842
 42
-0.048104
  0
VERTEX
  8
0
 10
1.879879
 20
6.603886
 42
0.005119
  0
VERTEX
  8
0
 10
1.875439
 20
6.510275
 42
-0.045757
  0
SEQEND
  8
0
  0
POLYLINE
  8
0
 66
1
  0
VERTEX
  8
0
 10
2.2012
 20
6.280699
 42
-0.015441
  0
VERTEX
  8
0
 10
2.055251
 20
6.251743
 42
-0.043631
  0
VERTEX
  8
0
 10
1.913506
 20
6.2396
 42
-0.020548
  0
VERTEX
  8
0
 10
1.937737
 20
6.52931
 42
0.001539
  0
VERTEX
  8
0
 10
1.947132
 20
6.616964
 42
-0.157017
  0
VERTEX
  8
0
 10
2.025126
 20
6.66073
 42
-0.043559
  0
VERTEX
  8
0
 10
2.121833
 20
6.672444
 42
0.012858
  0
VERTEX
  8
0
 10
2.175044
 20
6.676744
 42
-0.271548
  0
VERTEX
  8
0
 10
2.195478
 20
6.658117
 42
-0.069678
  0
VERTEX
  8
0
 10
2.207505
 20
6.612498
 42
-0.038965
  0
VERTEX
  8
0
 10
2.213343
 20
6.47662
 42
-0.018754
  0
VERTEX
  8
0
 10
2.2012
 20
6.280699
  0
SEQEND
  8
0
  0
POLYLINE
  8
0
 66
1
 70
1
  0
VERTEX
  8
0
 10
2.186267
 20
4.387557
 42
0.13502
  0
VERTEX
  8
0
 10
2.208077
 20
4.430418
 42
0.078506
  0
VERTEX
  8
0
 10
2.21029
 20
4.481339
 42
0.052974
  0
VERTEX
  8
0
 10
2.186267
 20
4.581446
 42
0.085488
  0
VERTEX
  8
0
 10
2.050442
 20
4.583036
 42
-0.025672
  0
VERTEX
  8
0
 10
1.962028
 20
4.576386
  0
VERTEX
  8
0
 10
1.773199
 20
4.564585
 42
0.258537
  0
VERTEX
  8
0
 10
1.73667
 20
4.502613
 42
0.068189
  0
VERTEX
  8
0
 10
1.746046
 20
4.424359
 42
-0.042471
  0
VERTEX
  8
0
 10
1.754653
 20
4.369011
  0
SEQEND
  8
0
  0
POLYLINE
  8
0
 66
1
 70
1
  0
VERTEX
  8
0
 10
1.779943
 20
4.520749
  0
VERTEX
  8
0
 10
1.919879
 20
4.539296
  0
VERTEX
  8
0
 10
2.149172
 20
4.546039
 42
-0.155775
  0
VERTEX
  8
0
 10
2.166437
 20
4.508665
 42
-0.046913
  0
VERTEX
  8
0
 10
2.167583
 20
4.465213
 42
0.029158
  0
VERTEX
  8
0
 10
2.167719
 20
4.429707
 42
0.02013
  0
VERTEX
  8
0
 10
2.031685
 20
4.417503
 42
-0.018557
  0
VERTEX
  8
0
 10
1.909678
 20
4.406218
 42
-0.052581
  0
VERTEX
  8
0
 10
1.785001
 20
4.412846
 42
-0.064595
  0
VERTEX
  8
0
 10
1.779546
 20
4.449213
 42
-0.017824
  0
VERTEX
  8
0
 10
1.779786
 20
4.488169
 42
0.020739
  0
SEQEND
  8
0
  0
POLYLINE
  8
0
 66
1
 70
1
  0
VERTEX
  8
0
 10
3.647137
 20
5.413882
 42
0.000227
  0
VERTEX
  8
0
 10
3.590894
 20
5.41016
 42
-0.005466
  0
VERTEX
  8
0
 10
3.305268
 20
5.393333
  0
VERTEX
  8
0
 10
3.243619
 20
5.359706
 42
0.045645
  0
VERTEX
  8
0
 10
3.264169
 20
5.043992
 42
-0.036785
  0
VERTEX
  8
0
 10
3.348443
 20
5.092978
 42
0.008517
  0
VERTEX
  8
0
 10
3.393071
 20
5.116849
  0
VERTEX
  8
0
 10
3.406147
 20
5.103772
 42
-0.071028
  0
VERTEX
  8
0
 10
3.384976
 20
5.083477
 42
-0.020738
  0
VERTEX
  8
0
 10
3.358785
 20
5.066096
 42
0.044234
  0
VERTEX
  8
0
 10
3.321303
 20
5.03953
 42
0.149152
  0
VERTEX
  8
0
 10
3.297796
 20
5.002892
  0
VERTEX
  8
0
 10
3.67516
 20
5.036519
  0
VERTEX
  8
0
 10
3.701315
 20
5.062672
  0
VERTEX
  8
0
 10
3.701315
 20
5.352233
 42
-0.015365
  0
VERTEX
  8
0
 10
3.693192
 20
5.369033
 42
0.070473
  0
VERTEX
  8
0
 10
3.677128
 20
5.397152
 42
0.172083
  0
SEQEND
  8
0
  0
POLYLINE
  8
0
 66
1
 70
1
  0
VERTEX
  8
0
 10
3.63406
 20
5.197179
 42
-0.098792
  0
VERTEX
  8
0
 10
3.598333
 20
5.128524
 42
-0.206401
  0
VERTEX
  8
0
 10
3.533182
 20
5.090694
 42
-0.123181
  0
VERTEX
  8
0
 10
3.472233
 20
5.108909
 42
-0.186464
  0
VERTEX
  8
0
 10
3.432301
 20
5.157947
 42
-0.389157
  0
VERTEX
  8
0
 10
3.499554
 20
5.331685
 42
0.002603
  0
VERTEX
  8
0
 10
3.509579
 20
5.334116
 42
-0.051437
  0
VERTEX
  8
0
 10
3.548727
 20
5.341058
 42
-0.142817
  0
VERTEX
  8
0
 10
3.587357
 20
5.331685
 42
-0.16132
  0
VERTEX
  8
0
 10
3.635228
 20
5.271437
 42
-0.176632
  0
SEQEND
  8
0
  0
POLYLINE
  8
0
 66
1
 70
1
  0
VERTEX
  8
0
 10
4.381317
 20
4.545199
 42
0.067147
  0
VERTEX
  8
0
 10
4.371917
 20
4.57147
 42
0.022373
  0
VERTEX
  8
0
 10
4.357964
 20
4.595639
 42
-0.022372
  0
VERTEX
  8
0
 10
4.344011
 20
4.619808
 42
-0.067146
  0
VERTEX
  8
0
 10
4.334613
 20
4.646078
 42
-0.008622
  0
VERTEX
  8
0
 10
4.320202
 20
4.653711
 42
0.060649
  0
VERTEX
  8
0
 10
4.280761
 20
4.671293
 42
0.200999
  0
VERTEX
  8
0
 10
4.239339
 20
4.666628
 42
0.146413
  0
VERTEX
  8
0
 10
4.157738
 20
4.524259
 42
0.043405
  0
VERTEX
  8
0
 10
4.132861
 20
4.352466
 42
-0.008047
  0
VERTEX
  8
0
 10
4.125382
 20
4.276186
 42
0.073556
  0
VERTEX
  8
0
 10
4.131031
 20
4.122743
 42
0.021216
  0
VERTEX
  8
0
 10
4.164491
 20
3.970444
 42
-0.001202
  0
VERTEX
  8
0
 10
4.172085
 20
3.939921
 42
0.027728
  0
VERTEX
  8
0
 10
4.188345
 20
3.911267
 42
-0.027348
  0
VERTEX
  8
0
 10
4.205356
 20
3.881278
 42
-0.108873
  0
VERTEX
  8
0
 10
4.213185
 20
3.852118
 42
0.134676
  0
VERTEX
  8
0
 10
4.25872
 20
3.813355
 42
0.111984
  0
VERTEX
  8
0
 10
4.319668
 20
3.799811
 42
0.107914
  0
VERTEX
  8
0
 10
4.412374
 20
3.923809
 42
0.057312
  0
VERTEX
  8
0
 10
4.461646
 20
4.074426
 42
-0.004053
  0
VERTEX
  8
0
 10
4.461606
 20
4.144765
 42
0.035717
  0
VERTEX
  8
0
 10
4.452367
 20
4.362487
 42
0.139455
  0
SEQEND
  8
0
  0
POLYLINE
  8
0
 66
1
 70
1
  0
VERTEX
  8
0
 10
4.333372
 20
3.948056
 42
-0.25833
  0
VERTEX
  8
0
 10
4.304301
 20
3.969315
 42
-0.070194
  0
VERTEX
  8
0
 10
4.279077
 20
4.02918
 42
-0.059884
  0
VERTEX
  8
0
 10
4.250797
 20
4.228626
 42
-0.059884
  0
VERTEX
  8
0
 10
4.265096
 20
4.42956
 42
-0.070195
  0
VERTEX
  8
0
 10
4.286083
 20
4.491039
 42
-0.258319
  0
VERTEX
  8
0
 10
4.313601
 20
4.514275
 42
-0.258323
  0
VERTEX
  8
0
 10
4.342673
 20
4.493015
 42
-0.070192
  0
VERTEX
  8
0
 10
4.367896
 20
4.433149
 42
-0.05988
  0
VERTEX
  8
0
 10
4.396178
 20
4.233703
 42
-0.05988
  0
VERTEX
  8
0
 10
4.381877
 20
4.03277
 42
-0.070192
  0
VERTEX
  8
0
 10
4.36089
 20
3.971291
 42
-0.258328
  0
SEQEND
  8
0
  0
POLYLINE
  8
0
 66
1
 70
1
  0
VERTEX
  8
0
 10
4.79791
 20
6.200369
 42
0.122304
  0
VERTEX
  8
0
 10
4.786905
 20
6.231625
 42
0.162233
  0
VERTEX
  8
0
 10
4.766714
 20
6.246187
 42
0.083489
  0
VERTEX
  8
0
 10
4.739229
 20
6.249501
 42
0.020769
  0
VERTEX
  8
0
 10
4.706345
 20
6.247011
 42
-0.056804
  0
VERTEX
  8
0
 10
4.638889
 20
6.245371
 42
0.078626
  0
VERTEX
  8
0
 10
4.627909
 20
6.238425
 42
0.11831
  0
VERTEX
  8
0
 10
4.622615
 20
6.230753
 42
0.086897
  0
VERTEX
  8
0
 10
4.621152
 20
6.22211
 42
0.024806
  0
VERTEX
  8
0
 10
4.621667
 20
6.212248
 42
-0.021402
  0
VERTEX
  8
0
 10
4.622306
 20
6.200369
 42
-0.113422
  0
VERTEX
  8
0
 10
4.663239
 20
6.203867
 42
-0.035365
  0
VERTEX
  8
0
 10
4.704471
 20
6.195047
 42
0.056682
  0
VERTEX
  8
0
 10
4.753301
 20
6.185928
 42
0.187376
  0
SEQEND
  8
0
  0
POLYLINE
  8
0
 66
1
 70
1
  0
VERTEX
  8
0
 10
5.713299
 20
4.545199
 42
-0.018179
  0
VERTEX
  8
0
 10
5.724855
 20
4.510577
 42
0.068109
  0
VERTEX
  8
0
 10
5.75391
 20
4.439358
 42
0.270961
  0
VERTEX
  8
0
 10
5.814178
 20
4.405089
 42
-0.024056
  0
VERTEX
  8
0
 10
5.820994
 20
4.412239
 42
0.078595
  0
VERTEX
  8
0
 10
5.832376
 20
4.426002
 42
0.230471
  0
VERTEX
  8
0
 10
5.83286
 20
4.444319
  0
VERTEX
  8
0
 10
5.793629
 20
4.444319
 42
-0.163023
  0
VERTEX
  8
0
 10
5.773884
 20
4.464685
 42
-0.059937
  0
VERTEX
  8
0
 10
5.76602
 20
4.490296
 42
0.043539
  0
VERTEX
  8
0
 10
5.760003
 20
4.511572
 42
0.096464
  0
VERTEX
  8
0
 10
5.800192
 20
4.585001
 42
0.031335
  0
VERTEX
  8
0
 10
5.820674
 20
4.667234
 42
-0.029591
  0
VERTEX
  8
0
 10
5.840332
 20
4.746957
 42
0.005034
  0
VERTEX
  8
0
 10
5.836208
 20
4.771959
 42
-0.015601
  0
VERTEX
  8
0
 10
5.827798
 20
4.828165
 42
-0.059804
  0
VERTEX
  8
0
 10
5.827254
 20
4.881462
  0
VERTEX
  8
0
 10
5.860881
 20
4.814211
 42
-0.010198
  0
VERTEX
  8
0
 10
5.854362
 20
4.861531
 42
0.061463
  0
VERTEX
  8
0
 10
5.829995
 20
4.979627
 42
0.235375
  0
VERTEX
  8
0
 10
5.752529
 20
5.057068
 42
0.130542
  0
VERTEX
  8
0
 10
5.694854
 20
4.952271
 42
0.067898
  0
VERTEX
  8
0
 10
5.679644
 20
4.819771
 42
0.043085
  0
VERTEX
  8
0
 10
5.712124
 20
4.551615
 42
-0.000042
  0
SEQEND
  8
0
  0
POLYLINE
  8
0
 66
1
 70
1
  0
VERTEX
  8
0
 10
6.122421
 20
5.124321
 42
0.131653
  0
VERTEX
  8
0
 10
6.074082
 20
4.871188
 42
0.044803
  0
VERTEX
  8
0
 10
6.116817
 20
4.612451
 42
0.098469
  0
VERTEX
  8
0
 10
6.140635
 20
4.563414
 42
0.092318
  0
VERTEX
  8
0
 10
6.160425
 20
4.545199
 42
0.165704
  0
VERTEX
  8
0
 10
6.184068
 20
4.539594
 42
0.324939
  0
VERTEX
  8
0
 10
6.217694
 20
4.591903
 42
0.10243
  0
VERTEX
  8
0
 10
6.194344
 20
4.587465
 42
0.138194
  0
VERTEX
  8
0
 10
6.176596
 20
4.573221
 42
-0.11623
  0
VERTEX
  8
0
 10
6.158166
 20
4.592272
 42
-0.04402
  0
VERTEX
  8
0
 10
6.14773
 20
4.614907
 42
0.05426
  0
VERTEX
  8
0
 10
6.135497
 20
4.640474
 42
-0.021805
  0
VERTEX
  8
0
 10
6.153967
 20
4.740022
 42
0.027711
  0
VERTEX
  8
0
 10
6.175983
 20
4.864937
 42
0.088671
  0
VERTEX
  8
0
 10
6.169124
 20
4.989815
 42
-0.152752
  0
VERTEX
  8
0
 10
6.171459
 20
4.997055
 42
-0.048758
  0
VERTEX
  8
0
 10
6.176596
 20
5.002892
 42
-0.163703
  0
VERTEX
  8
0
 10
6.20345
 20
4.980007
 42
-0.05523
  0
VERTEX
  8
0
 10
6.217694
 20
4.948717
  0
VERTEX
  8
0
 10
6.2233
 20
4.956189
 42
-0.008636
  0
VERTEX
  8
0
 10
6.218119
 20
4.984822
 42
0.074042
  0
VERTEX
  8
0
 10
6.194105
 20
5.0734
 42
0.265131
  0
SEQEND
  8
0
  0
POLYLINE
  8
0
 66
1
 70
1
  0
VERTEX
  8
0
 10
7.420776
 20
5.212124
 42
0.184325
  0
VERTEX
  8
0
 10
7.461875
 20
4.961793
 42
-0.009287
  0
VERTEX
  8
0
 10
7.464354
 20
4.961725
 42
0.077338
  0
VERTEX
  8
0
 10
7.474069
 20
4.962369
 42
0.304556
  0
VERTEX
  8
0
 10
7.480557
 20
4.969265
 42
-0.082614
  0
VERTEX
  8
0
 10
7.466546
 20
5.07248
 42
-0.052905
  0
VERTEX
  8
0
 10
7.480557
 20
5.184101
 42
0.230197
  0
VERTEX
  8
0
 10
7.497263
 20
5.181287
 42
0.195364
  0
VERTEX
  8
0
 10
7.506948
 20
5.191926
 42
0.076188
  0
VERTEX
  8
0
 10
7.513803
 20
5.226766
 42
-0.002041
  0
VERTEX
  8
0
 10
7.514183
 20
5.230806
 42
-0.049811
  0
VERTEX
  8
0
 10
7.506087
 20
5.289799
 42
0.062714
  0
VERTEX
  8
0
 10
7.495972
 20
5.355426
 42
0.192321
  0
VERTEX
  8
0
 10
7.454403
 20
5.40641
 42
0.162838
  0
VERTEX
  8
0
 10
7.420852
 20
5.346078
 42
0.066585
  0
VERTEX
  8
0
 10
7.420701
 20
5.282485
 42
-0.060589
  0
SEQEND
  8
0
  0
ENDSEC
  0
EOF
