  0
SECTION
  2
HEADER
  9
$ACADVER
  1
AC1012
  9
$DWGCODEPAGE
  3
dos850
  9
$INSBASE
 10
0.0
 20
0.0
 30
0.0
  9
$EXTMIN
 10
-90.0481
 20
-119.551
 30
1.000000E+20
  9
$EXTMAX
 10
81.4351
 20
93.207
 30
-1.000000E+20
  9
$LIMMIN
 10
0.0
 20
0.0
  9
$LIMMAX
 10
0.0
 20
0.0
  9
$ORTHOMODE
 70
     0
  9
$REGENMODE
 70
     1
  9
$FILLMODE
 70
     1
  9
$QTEXTMODE
 70
     0
  9
$MIRRTEXT
 70
     1
  9
$DRAGMODE
 70
     2
  9
$LTSCALE
 40
1.0
  9
$OSMODE
 70
     0
  9
$ATTMODE
 70
     1
  9
$TEXTSIZE
 40
0.2
  9
$TRACEWID
 40
0.05
  9
$TEXTSTYLE
  7
STANDARD
  9
$CLAYER
  8
0
  9
$CELTYPE
  6
CONTINUOUS
  9
$CECOLOR
 62
   256
  9
$CELTSCALE
 40
1.0
  9
$DELOBJ
 70
     1
  9
$DISPSILH
 70
     0
  9
$DIMSCALE
 40
1.0
  9
$DIMASZ
 40
0.18
  9
$DIMEXO
 40
0.0625
  9
$DIMDLI
 40
0.38
  9
$DIMRND
 40
0.0
  9
$DIMDLE
 40
0.0
  9
$DIMEXE
 40
0.18
  9
$DIMTP
 40
0.0
  9
$DIMTM
 40
0.0
  9
$DIMTXT
 40
0.18
  9
$DIMCEN
 40
0.09
  9
$DIMTSZ
 40
0.0
  9
$DIMTOL
 70
     0
  9
$DIMLIM
 70
     0
  9
$DIMTIH
 70
     1
  9
$DIMTOH
 70
     1
  9
$DIMSE1
 70
     0
  9
$DIMSE2
 70
     0
  9
$DIMTAD
 70
     0
  9
$DIMZIN
 70
     0
  9
$DIMBLK
  1

  9
$DIMASO
 70
     1
  9
$DIMSHO
 70
     1
  9
$DIMPOST
  1

  9
$DIMAPOST
  1

  9
$DIMALT
 70
     0
  9
$DIMALTD
 70
     2
  9
$DIMALTF
 40
25.4
  9
$DIMLFAC
 40
1.0
  9
$DIMTOFL
 70
     0
  9
$DIMTVP
 40
0.0
  9
$DIMTIX
 70
     0
  9
$DIMSOXD
 70
     0
  9
$DIMSAH
 70
     0
  9
$DIMBLK1
  1

  9
$DIMBLK2
  1

  9
$DIMSTYLE
  2
STANDARD
  9
$DIMCLRD
 70
     0
  9
$DIMCLRE
 70
     0
  9
$DIMCLRT
 70
     0
  9
$DIMTFAC
 40
1.0
  9
$DIMGAP
 40
0.09
  9
$DIMJUST
 70
     0
  9
$DIMSD1
 70
     0
  9
$DIMSD2
 70
     0
  9
$DIMTOLJ
 70
     1
  9
$DIMTZIN
 70
     0
  9
$DIMALTZ
 70
     0
  9
$DIMALTTZ
 70
     0
  9
$DIMFIT
 70
     3
  9
$DIMUPT
 70
     0
  9
$DIMUNIT
 70
     2
  9
$DIMDEC
 70
     4
  9
$DIMTDEC
 70
     4
  9
$DIMALTU
 70
     2
  9
$DIMALTTD
 70
     2
  9
$DIMTXSTY
  7
STANDARD
  9
$DIMAUNIT
 70
     0
  9
$LUNITS
 70
     2
  9
$LUPREC
 70
     4
  9
$SKETCHINC
 40
0.1
  9
$FILLETRAD
 40
0.0
  9
$AUNITS
 70
     0
  9
$AUPREC
 70
     0
  9
$MENU
  1
acad
  9
$ELEVATION
 40
0.0
  9
$PELEVATION
 40
0.0
  9
$THICKNESS
 40
0.0
  9
$LIMCHECK
 70
     0
  9
$BLIPMODE
 70
     1
  9
$CHAMFERA
 40
0.0
  9
$CHAMFERB
 40
0.0
  9
$CHAMFERC
 40
0.0
  9
$CHAMFERD
 40
0.0
  9
$SKPOLY
 70
     0
  9
$TDCREATE
 40
0.000000000
  9
$TDUPDATE
 40
0.000000000
  9
$TDINDWG
 40
0.0000000000
  9
$TDUSRTIMER
 40
0.0000000000
  9
$USRTIMER
 70
     1
  9
$ANGBASE
 50
0.0
  9
$ANGDIR
 70
     0
  9
$PDMODE
 70
     0
  9
$PDSIZE
 40
0.0
  9
$PLINEWID
 40
0.0
  9
$COORDS
 70
     0
  9
$SPLFRAME
 70
     0
  9
$SPLINETYPE
 70
     6
  9
$SPLINESEGS
 70
     8
  9
$ATTDIA
 70
     0
  9
$ATTREQ
 70
     1
  9
$HANDLING
 70
     1
  9
$HANDSEED
  5
41
  9
$SURFTAB1
 70
     6
  9
$SURFTAB2
 70
     6
  9
$SURFTYPE
 70
     6
  9
$SURFU
 70
     6
  9
$SURFV
 70
     6
  9
$UCSNAME
  2

  9
$UCSORG
 10
0.0
 20
0.0
 30
0.0
  9
$UCSXDIR
 10
1.0
 20
0.0
 30
0.0
  9
$UCSYDIR
 10
0.0
 20
1.0
 30
0.0
  9
$PUCSNAME
  2

  9
$PUCSORG
 10
0.0
 20
0.0
 30
0.0
  9
$PUCSXDIR
 10
1.0
 20
0.0
 30
0.0
  9
$PUCSYDIR
 10
0.0
 20
1.0
 30
0.0
  9
$USERI1
 70
     0
  9
$USERI2
 70
     0
  9
$USERI3
 70
     0
  9
$USERI4
 70
     0
  9
$USERI5
 70
     0
  9
$USERR1
 40
0.0
  9
$USERR2
 40
0.0
  9
$USERR3
 40
0.0
  9
$USERR4
 40
0.0
  9
$USERR5
 40
0.0
  9
$WORLDVIEW
 70
     1
  9
$SHADEDGE
 70
     3
  9
$SHADEDIF
 70
    70
  9
$TILEMODE
 70
     1
  9
$MAXACTVP
 70
    16
  9
$PINSBASE
 10
0.0
 20
0.0
 30
0.0
  9
$PLIMCHECK
 70
     0
  9
$PEXTMIN
 10
1.000000E+20
 20
1.000000E+20
 30
1.000000E+20
  9
$PEXTMAX
 10
-1.000000E+20
 20
-1.000000E+20
 30
-1.000000E+20
  9
$PLIMMIN
 10
0.0
 20
0.0
  9
$PLIMMAX
 10
12.0
 20
9.0
  9
$UNITMODE
 70
     0
  9
$VISRETAIN
 70
     0
  9
$PLINEGEN
 70
     1
  9
$PSLTSCALE
 70
     0
  9
$TREEDEPTH
 70
  3020
  9
$PICKSTYLE
 70
     1
  9
$CMLSTYLE
  2
STANDARD
  9
$CMLJUST
 70
     0
  9
$CMLSCALE
 40
1.0
  9
$SAVEIMAGES
 70
     0
  0
ENDSEC
  0
SECTION
  2
CLASSES
  0
CLASS
  1
LWPOLYLINE
  2
AcDbPolyline
  3
"AutoCAD"
 90
        0
280
     0
281
     1
  0
CLASS
  1
IMAGE
  2
AcDbRasterImage
  3
ISM
 90
      127
280
     0
281
     1
  0
CLASS
  1
OLE2FRAME
  2
AcDbOle2Frame
  3
""
 90
        0
280
     0
281
     1
  0
CLASS
  1
HATCH
  2
AcDbHatch
  3
"ACAD_SEDONA"
 90
        0
280
     0
281
     1
  0
CLASS
  1
DICTIONARYVAR
  2
AcDbDictionaryVar
  3
"AutoCAD"
 90
        0
280
     0
281
     0
  0
CLASS
  1
RASTERVARIABLES
  2
AcDbRasterVariables
  3
ISM
 90
        0
280
     0
281
     0
  0
CLASS
  1
IMAGEDEF
  2
AcDbRasterImageDef
  3
ISM
 90
        0
280
     0
281
     0
  0
CLASS
  1
IMAGEDEF_REACTOR
  2
AcDbRasterImageDefReactor
  3
ISM
 90
        1
280
     0
281
     0
  0
CLASS
  1
IDBUFFER
  2
AcDbIdBuffer
  3
"Acad"
 90
        0
280
     0
281
     0
  0
CLASS
  1
SPATIAL_FILTER
  2
AcDbSpatialFilter
  3
"Acad"
 90
        0
280
     0
281
     0
  0
CLASS
  1
XRECORD
  2
AcDbXrecord
  3
"<Built In>"
 90
        0
280
     0
281
     0
  0
CLASS
  1
SORTENTSTABLE
  2
AcDbSortentsTable
  3
"AutoCAD"
 90
        0
280
     0
281
     0
  0
CLASS
  1
LAYER_INDEX
  2
AcDbLayerIndex
  3
"Acad"
 90
        0
280
     0
281
     0
  0
CLASS
  1
SPATIAL_INDEX
  2
AcDbSpatialIndex
  3
"Acad"
 90
        0
280
     0
281
     0
  0
CLASS
  1
OBJECT_PTR
  2
CAseDLPNTableRecord
  3
"ASE-LPNTableRecord"
 90
        1
280
     0
281
     0
  0
CLASS
  1
LAYOUT
  2
AcDbLayout
  3
"AutoCAD 2000"
 90
        1
280
     0
281
     0
  0
CLASS
  1
PLOTSETTINGS
  2
AcDbPlotSettings
  3
"AutoCAD 2000"
 90
        1
280
     0
281
     0
  0
CLASS
  1
ACDBDICTIONARYWDFLT
  2
AcDbDictionaryWithDefault
  3
"AutoCAD 2000"
 90
        1
280
     0
281
     0
  0
CLASS
  1
ACDBPLACEHOLDER
  2
AcDbPlaceHolder
  3
"AutoCAD 2000"
 90
        1
280
     0
281
     0
  0
CLASS
  1
VBA_PROJECT
  2
AcDbVbaProject
  3
"acadvba"
 90
        1
280
     0
281
     0
  0
CLASS
  1
WIPEOUT
  2
AcDbWipeout
  3
WipeOut|AutoCAD Express Tool|expresstools@autodesk.com
 90
      127
280
     0
281
     1
  0
CLASS
  1
WIPEOUTVARIABLES
  2
AcDbWipeoutVariables
  3
WipeOut|AutoCAD Express Tool|expresstools@autodesk.com
 90
        0
280
     0
281
     0
  0
CLASS
  1
RTEXT
  2
RText
  3
RText|AutoCAD Express Tool|expresstools@autodesk.com
 90
        0
280
     0
281
     1
  0
CLASS
  1
ARCALIGNEDTEXT
  2
AcDbArcAlignedText
  3
ATEXT|AutoCAD Express Tool|expresstools@autodesk.com
 90
        0
280
     0
281
     1
  0
ENDSEC
  0
SECTION
  2
TABLES
  0
TABLE
  2
VPORT
  5
7
100
AcDbSymbolTable
 70
     1
  0
VPORT
  5
15
100
AcDbSymbolTableRecord
100
AcDbViewportTableRecord
  2
*ACTIVE
 70
     0
 10
0.0
 20
0.0
 11
1.0
 21
1.0
 12
6.591288
 22
4.579184
 13
0.0
 23
0.0
 14
1.0
 24
1.0
 15
0.0
 25
0.0
 16
0.0
 26
0.0
 36
1.0
 17
0.0
 27
0.0
 37
0.0
 40
9.158369
 41
0.688564
 42
50.0
 43
0.0
 44
0.0
 50
0.0
 51
0.0
 71
     0
 72
   100
 73
     1
 74
     1
 75
     0
 76
     0
 77
     0
 78
     0
  0
ENDTAB
  0
TABLE
  2
LTYPE
  5
4
100
AcDbSymbolTable
 70
     3
  0
LTYPE
  5
11
100
AcDbSymbolTableRecord
100
AcDbLinetypeTableRecord
  2
BYBLOCK
 70
    64
  3

 72
    65
 73
     0
 40
0.0
  0
LTYPE
  5
12
100
AcDbSymbolTableRecord
100
AcDbLinetypeTableRecord
  2
BYLAYER
 70
    64
  3

 72
    65
 73
     0
 40
0.0
  0
LTYPE
  5
13
100
AcDbSymbolTableRecord
100
AcDbLinetypeTableRecord
  2
CONTINUOUS
 70
    64
  3
Solid line
 72
    65
 73
     0
 40
0.0
  0
ENDTAB
  0
TABLE
  2
LAYER
  5
2
100
AcDbSymbolTable
 70
     2
  0
LAYER
  5
14
100
AcDbSymbolTableRecord
100
AcDbLayerTableRecord
  2
0
 70
     0
 62
     7
  6
CONTINUOUS
  0
LAYER
  5
24
100
AcDbSymbolTableRecord
100
AcDbLayerTableRecord
  2
LAYER_1
 70
     0
 62
     7
  6
CONTINUOUS
  0
ENDTAB
  0
TABLE
  2
STYLE
  5
3
100
AcDbSymbolTable
 70
     1
  0
STYLE
  5
17
100
AcDbSymbolTableRecord
100
AcDbTextStyleTableRecord
  2
STANDARD
 70
     0
 40
0.0
 41
1.0
 50
0.0
 71
     0
 42
0.0
  3
txt
  4

  0
ENDTAB
  0
TABLE
  2
VIEW
  5
5
100
AcDbSymbolTable
 70
     0
  0
ENDTAB
  0
TABLE
  2
UCS
  5
6
100
AcDbSymbolTable
 70
     0
  0
ENDTAB
  0
TABLE
  2
APPID
  5
8
100
AcDbSymbolTable
 70
     1
  0
APPID
  5
16
100
AcDbSymbolTableRecord
100
AcDbRegAppTableRecord
  2
ACAD
 70
     0
  0
ENDTAB
  0
TABLE
  2
DIMSTYLE
  5
9
100
AcDbSymbolTable
 70
     1
  0
DIMSTYLE
105
18
100
AcDbSymbolTableRecord
100
AcDbDimStyleTableRecord
  2
STANDARD
 70
     0
  3

  4

  5

  6

  7

 40
1.0
 41
0.18
 42
0.0625
 43
0.38
 44
0.18
 45
0.0
 46
0.0
 47
0.0
 48
0.0
 71
     0
 72
     0
 73
     1
 74
     1
 75
     0
 76
     0
 77
     0
 78
     0
140
0.18
141
0.09
142
0.0
143
25.4
144
1.0
145
0.0
146
1.0
147
0.09
170
     0
171
     2
172
     0
173
     0
174
     0
175
     0
176
     0
177
     0
178
     0
270
     2
271
     4
272
     4
273
     2
274
     2
275
     0
280
     0
281
     0
282
     0
283
     1
284
     0
285
     0
286
     0
287
     0
288
     0
340
17
  0
ENDTAB
  0
TABLE
  2
BLOCK_RECORD
  5
1
100
AcDbSymbolTable
 70
     0
  0
BLOCK_RECORD
  5
A
100
AcDbSymbolTableRecord
100
AcDbBlockTableRecord
  2
*MODEL_SPACE
  0
BLOCK_RECORD
  5
B
100
AcDbSymbolTableRecord
100
AcDbBlockTableRecord
  2
*PAPER_SPACE
  0
ENDTAB
  0
ENDSEC
  0
SECTION
  2
BLOCKS
  0
BLOCK
  5
D
100
AcDbEntity
  8
0
100
AcDbBlockBegin
  2
*MODEL_SPACE
 70
     0
 10
0.0
 20
0.0
 30
0.0
  3
*MODEL_SPACE
  1

  0
ENDBLK
  5
E
100
AcDbEntity
  8
0
100
AcDbBlockEnd
  0
BLOCK
  5
F
100
AcDbEntity
 67
     1
  8
0
100
AcDbBlockBegin
  2
*PAPER_SPACE
 70
     0
 10
0.0
 20
0.0
 30
0.0
  3
*PAPER_SPACE
  1

  0
ENDBLK
  5
10
100
AcDbEntity
 67
     1
  8
0
100
AcDbBlockEnd
  0
ENDSEC
  0
SECTION
  2
ENTITIES
  0
SPLINE
  5
25
100
AcDbEntity
  8
LAYER_1
 62
     7
100
AcDbSpline
210
0.0
220
0.0
230
1.0
 70
     1
 71
     3
 72
    20
 73
    16
 74
     0
 42
0.0000000001
 43
0.0000000001
 40
0.0
 40
0.0
 40
0.0
 40
0.0
 40
0.25
 40
0.25
 40
0.25
 40
0.25
 40
0.5
 40
0.5
 40
0.5
 40
0.5
 40
0.75
 40
0.75
 40
0.75
 40
0.75
 40
1.0
 40
1.0
 40
1.0
 40
1.0
 10
-90.031500000000008
 20
93.1905
 30
0.0
 10
-90.031500000000008
 20
93.1905
 30
0.0
 10
81.418500000000009
 20
93.1905
 30
0.0
 10
81.418500000000009
 20
93.1905
 30
0.0
 10
81.418500000000009
 20
93.1905
 30
0.0
 10
81.418500000000009
 20
93.1905
 30
0.0
 10
81.418500000000009
 20
-119.53450000000001
 30
0.0
 10
81.418500000000009
 20
-119.53450000000001
 30
0.0
 10
81.418500000000009
 20
-119.53450000000001
 30
0.0
 10
81.418500000000009
 20
-119.53450000000001
 30
0.0
 10
-90.031500000000008
 20
-119.53450000000001
 30
0.0
 10
-90.031500000000008
 20
-119.53450000000001
 30
0.0
 10
-90.031500000000008
 20
-119.53450000000001
 30
0.0
 10
-90.031500000000008
 20
-119.53450000000001
 30
0.0
 10
-90.031500000000008
 20
93.1905
 30
0.0
 10
-90.031500000000008
 20
93.1905
 30
0.0
  0
SPLINE
  5
26
100
AcDbEntity
  8
LAYER_1
100
AcDbSpline
210
0.0
220
0.0
230
1.0
 70
     1
 71
     3
 72
   196
 73
   192
 74
     0
 42
0.0000000001
 43
0.0000000001
 40
0.0
 40
0.0
 40
0.0
 40
0.0
 40
0.0208333333333333
 40
0.0208333333333333
 40
0.0208333333333333
 40
0.0208333333333333
 40
0.0416666666666667
 40
0.0416666666666667
 40
0.0416666666666667
 40
0.0416666666666667
 40
0.0625
 40
0.0625
 40
0.0625
 40
0.0625
 40
0.0833333333333333
 40
0.0833333333333333
 40
0.0833333333333333
 40
0.0833333333333333
 40
0.1041666666666667
 40
0.1041666666666667
 40
0.1041666666666667
 40
0.1041666666666667
 40
0.125
 40
0.125
 40
0.125
 40
0.125
 40
0.1458333333333333
 40
0.1458333333333333
 40
0.1458333333333333
 40
0.1458333333333333
 40
0.1666666666666667
 40
0.1666666666666667
 40
0.1666666666666667
 40
0.1666666666666667
 40
0.1875
 40
0.1875
 40
0.1875
 40
0.1875
 40
0.2083333333333333
 40
0.2083333333333333
 40
0.2083333333333333
 40
0.2083333333333333
 40
0.2291666666666667
 40
0.2291666666666667
 40
0.2291666666666667
 40
0.2291666666666667
 40
0.25
 40
0.25
 40
0.25
 40
0.25
 40
0.2708333333333333
 40
0.2708333333333333
 40
0.2708333333333333
 40
0.2708333333333333
 40
0.2916666666666666
 40
0.2916666666666666
 40
0.2916666666666666
 40
0.2916666666666666
 40
0.3124999999999999
 40
0.3124999999999999
 40
0.3124999999999999
 40
0.3124999999999999
 40
0.3333333333333333
 40
0.3333333333333333
 40
0.3333333333333333
 40
0.3333333333333333
 40
0.3541666666666666
 40
0.3541666666666666
 40
0.3541666666666666
 40
0.3541666666666666
 40
0.3749999999999999
 40
0.3749999999999999
 40
0.3749999999999999
 40
0.3749999999999999
 40
0.3958333333333332
 40
0.3958333333333332
 40
0.3958333333333332
 40
0.3958333333333332
 40
0.4166666666666665
 40
0.4166666666666665
 40
0.4166666666666665
 40
0.4166666666666665
 40
0.4374999999999998
 40
0.4374999999999998
 40
0.4374999999999998
 40
0.4374999999999998
 40
0.4583333333333332
 40
0.4583333333333332
 40
0.4583333333333332
 40
0.4583333333333332
 40
0.4791666666666665
 40
0.4791666666666665
 40
0.4791666666666665
 40
0.4791666666666665
 40
0.4999999999999998
 40
0.4999999999999998
 40
0.4999999999999998
 40
0.4999999999999998
 40
0.5208333333333332
 40
0.5208333333333332
 40
0.5208333333333332
 40
0.5208333333333332
 40
0.5416666666666665
 40
0.5416666666666665
 40
0.5416666666666665
 40
0.5416666666666665
 40
0.5624999999999999
 40
0.5624999999999999
 40
0.5624999999999999
 40
0.5624999999999999
 40
0.5833333333333333
 40
0.5833333333333333
 40
0.5833333333333333
 40
0.5833333333333333
 40
0.6041666666666666
 40
0.6041666666666666
 40
0.6041666666666666
 40
0.6041666666666666
 40
0.625
 40
0.625
 40
0.625
 40
0.625
 40
0.6458333333333334
 40
0.6458333333333334
 40
0.6458333333333334
 40
0.6458333333333334
 40
0.6666666666666667
 40
0.6666666666666667
 40
0.6666666666666667
 40
0.6666666666666667
 40
0.6875000000000001
 40
0.6875000000000001
 40
0.6875000000000001
 40
0.6875000000000001
 40
0.7083333333333335
 40
0.7083333333333335
 40
0.7083333333333335
 40
0.7083333333333335
 40
0.7291666666666669
 40
0.7291666666666669
 40
0.7291666666666669
 40
0.7291666666666669
 40
0.7500000000000002
 40
0.7500000000000002
 40
0.7500000000000002
 40
0.7500000000000002
 40
0.7708333333333336
 40
0.7708333333333336
 40
0.7708333333333336
 40
0.7708333333333336
 40
0.791666666666667
 40
0.791666666666667
 40
0.791666666666667
 40
0.791666666666667
 40
0.8125000000000003
 40
0.8125000000000003
 40
0.8125000000000003
 40
0.8125000000000003
 40
0.8333333333333337
 40
0.8333333333333337
 40
0.8333333333333337
 40
0.8333333333333337
 40
0.8541666666666671
 40
0.8541666666666671
 40
0.8541666666666671
 40
0.8541666666666671
 40
0.8750000000000004
 40
0.8750000000000004
 40
0.8750000000000004
 40
0.8750000000000004
 40
0.8958333333333338
 40
0.8958333333333338
 40
0.8958333333333338
 40
0.8958333333333338
 40
0.9166666666666672
 40
0.9166666666666672
 40
0.9166666666666672
 40
0.9166666666666672
 40
0.9375000000000006
 40
0.9375000000000006
 40
0.9375000000000006
 40
0.9375000000000006
 40
0.9583333333333339
 40
0.9583333333333339
 40
0.9583333333333339
 40
0.9583333333333339
 40
0.9791666666666673
 40
0.9791666666666673
 40
0.9791666666666673
 40
0.9791666666666673
 40
1.0
 40
1.0
 40
1.0
 40
1.0
 10
-26.037600000000001
 20
86.699399999999997
 30
0.0
 10
-21.6632
 20
88.181100000000001
 30
0.0
 10
-16.9359
 20
88.745500000000007
 30
0.0
 10
-12.420400000000001
 20
87.898800000000008
 30
0.0
 10
-12.420400000000001
 20
87.898800000000008
 30
0.0
 10
-9.9157000000000011
 20
87.898800000000008
 30
0.0
 10
-7.5872999999999999
 20
86.769900000000007
 30
0.0
 10
-5.0826000000000002
 20
86.840500000000006
 30
0.0
 10
-5.0826000000000002
 20
86.840500000000006
 30
0.0
 10
-4.6946000000000003
 20
86.240800000000007
 30
0.0
 10
-4.4476000000000004
 20
85.499900000000011
 30
0.0
 10
-3.7421000000000002
 20
85.288300000000007
 30
0.0
 10
-3.7421000000000002
 20
85.288300000000007
 30
0.0
 10
-2.7190000000000003
 20
84.759100000000004
 30
0.0
 10
-1.3784000000000001
 20
85.464700000000008
 30
0.0
 10
-0.4259
 20
84.723799999999997
 30
0.0
 10
-0.4259
 20
84.723799999999997
 30
0.0
 10
3.2077
 20
81.972200000000001
 30
0.0
 10
8.0760000000000005
 20
80.102400000000003
 30
0.0
 10
9.9457000000000004
 20
75.5869
 30
0.0
 10
9.9457000000000004
 20
75.5869
 30
0.0
 10
7.1941000000000006
 20
75.622200000000007
 30
0.0
 10
4.3718000000000004
 20
75.304699999999997
 30
0.0
 10
1.6907000000000001
 20
75.90440000000001
 30
0.0
 10
1.6907000000000001
 20
75.90440000000001
 30
0.0
 10
-0.3907
 20
75.763300000000001
 30
0.0
 10
-2.4368000000000003
 20
76.292400000000001
 30
0.0
 10
-4.4476000000000004
 20
76.85690000000001
 30
0.0
 10
-4.4476000000000004
 20
76.85690000000001
 30
0.0
 10
-4.9062000000000001
 20
77.033299999999997
 30
0.0
 10
-5.3296000000000001
 20
76.751100000000008
 30
0.0
 10
-5.7882000000000007
 20
76.680500000000009
 30
0.0
 10
-5.7882000000000007
 20
76.680500000000009
 30
0.0
 10
-6.7759
 20
76.504100000000008
 30
0.0
 10
-7.7990000000000004
 20
76.751100000000008
 30
0.0
 10
-8.7515000000000001
 20
76.468800000000002
 30
0.0
 10
-8.7515000000000001
 20
76.468800000000002
 30
0.0
 10
-10.2332
 20
75.974900000000005
 30
0.0
 10
-11.8207
 20
76.539400000000001
 30
0.0
 10
-13.267100000000001
 20
76.045500000000004
 30
0.0
 10
-13.267100000000001
 20
76.045500000000004
 30
0.0
 10
-15.101500000000001
 20
75.65740000000001
 30
0.0
 10
-17.006499999999999
 20
75.022400000000005
 30
0.0
 10
-18.1707
 20
73.505499999999998
 30
0.0
 10
-18.1707
 20
73.505499999999998
 30
0.0
 10
-15.9129
 20
72.37660000000001
 30
0.0
 10
-13.3376
 20
73.046900000000008
 30
0.0
 10
-10.974
 20
72.411900000000003
 30
0.0
 10
-10.974
 20
72.411900000000003
 30
0.0
 10
-8.1517999999999997
 20
72.447200000000009
 30
0.0
 10
-5.2237
 20
71.812200000000004
 30
0.0
 10
-2.8248000000000002
 20
70.295200000000008
 30
0.0
 10
-2.8248000000000002
 20
70.295200000000008
 30
0.0
 10
-1.9076000000000002
 20
70.259900000000002
 30
0.0
 10
-0.9551000000000001
 20
70.295200000000008
 30
0.0
 10
-0.1084
 20
69.871899999999997
 30
0.0
 10
-0.1084
 20
69.871899999999997
 30
0.0
 10
1.4438
 20
69.025199999999998
 30
0.0
 10
2.6079000000000003
 20
67.6494
 30
0.0
 10
4.0543000000000005
 20
66.626300000000001
 30
0.0
 10
4.0543000000000005
 20
66.626300000000001
 30
0.0
 10
5.1832000000000003
 20
65.603300000000004
 30
0.0
 10
6.8413000000000004
 20
65.003600000000006
 30
0.0
 10
8.287700000000001
 20
65.744399999999999
 30
0.0
 10
8.287700000000001
 20
65.744399999999999
 30
0.0
 10
9.0638000000000005
 20
64.1922
 30
0.0
 10
9.2401999999999997
 20
62.4636
 30
0.0
 10
9.0991
 20
60.734900000000003
 30
0.0
 10
9.0991
 20
60.734900000000003
 30
0.0
 10
6.8766000000000007
 20
60.770200000000003
 30
0.0
 10
4.6893000000000002
 20
60.629100000000001
 30
0.0
 10
2.4668000000000001
 20
60.805500000000002
 30
0.0
 10
2.4668000000000001
 20
60.805500000000002
 30
0.0
 10
0.2443
 20
61.511100000000006
 30
0.0
 10
-2.0487000000000002
 20
60.946600000000004
 30
0.0
 10
-4.3418000000000001
 20
61.087700000000005
 30
0.0
 10
-4.3418000000000001
 20
61.087700000000005
 30
0.0
 10
-5.3296000000000001
 20
61.264100000000006
 30
0.0
 10
-6.1762000000000006
 20
60.664400000000001
 30
0.0
 10
-7.0228999999999999
 20
60.276300000000006
 30
0.0
 10
-7.0228999999999999
 20
60.276300000000006
 30
0.0
 10
-9.6687000000000012
 20
59.218000000000004
 30
0.0
 10
-12.420400000000001
 20
58.5124
 30
0.0
 10
-15.242600000000001
 20
58.265500000000003
 30
0.0
 10
-15.242600000000001
 20
58.265500000000003
 30
0.0
 10
-17.253399999999999
 20
58.159700000000001
 30
0.0
 10
-19.334800000000001
 20
58.547700000000006
 30
0.0
 10
-21.310400000000001
 20
57.9833
 30
0.0
 10
-21.310400000000001
 20
57.9833
 30
0.0
 10
-25.437900000000003
 20
57.7363
 30
0.0
 10
-29.459600000000002
 20
56.924900000000001
 30
0.0
 10
-33.5518
 20
56.466300000000004
 30
0.0
 10
-33.5518
 20
56.466300000000004
 30
0.0
 10
-35.915399999999998
 20
56.0077
 30
0.0
 10
-38.314300000000003
 20
55.937200000000004
 30
0.0
 10
-40.677900000000001
 20
55.4786
 30
0.0
 10
-40.677900000000001
 20
55.4786
 30
0.0
 10
-42.0184
 20
55.443300000000001
 30
0.0
 10
-43.641200000000005
 20
55.549100000000003
 30
0.0
 10
-44.629000000000005
 20
54.455500000000001
 30
0.0
 10
-44.629000000000005
 20
54.455500000000001
 30
0.0
 10
-45.087600000000002
 20
53.820500000000003
 30
0.0
 10
-45.899000000000001
 20
54.102700000000006
 30
0.0
 10
-46.569300000000005
 20
53.996900000000004
 30
0.0
 10
-46.569300000000005
 20
53.996900000000004
 30
0.0
 10
-46.957300000000004
 20
54.702400000000004
 30
0.0
 10
-47.415900000000001
 20
55.408000000000001
 30
0.0
 10
-47.6629
 20
56.184100000000001
 30
0.0
 10
-47.6629
 20
56.184100000000001
 30
0.0
 10
-47.733400000000003
 20
58.159700000000001
 30
0.0
 10
-47.6629
 20
60.135200000000005
 30
0.0
 10
-47.6982
 20
62.110800000000005
 30
0.0
 10
-47.6982
 20
62.110800000000005
 30
0.0
 10
-47.063200000000002
 20
62.4636
 30
0.0
 10
-46.392900000000004
 20
62.9574
 30
0.0
 10
-45.581500000000005
 20
62.851600000000005
 30
0.0
 10
-45.581500000000005
 20
62.851600000000005
 30
0.0
 10
-44.382100000000001
 20
62.816300000000005
 30
0.0
 10
-43.076799999999999
 20
63.028000000000006
 30
0.0
 10
-41.912600000000005
 20
62.639900000000004
 30
0.0
 10
-41.912600000000005
 20
62.639900000000004
 30
0.0
 10
-40.889600000000002
 20
62.251900000000006
 30
0.0
 10
-39.901800000000001
 20
62.992700000000006
 30
0.0
 10
-38.9846
 20
63.310200000000002
 30
0.0
 10
-38.9846
 20
63.310200000000002
 30
0.0
 10
-37.009
 20
64.015799999999999
 30
0.0
 10
-35.0687
 20
65.179900000000004
 30
0.0
 10
-32.881500000000003
 20
64.968299999999999
 30
0.0
 10
-32.881500000000003
 20
64.968299999999999
 30
0.0
 10
-32.034800000000004
 20
65.038800000000009
 30
0.0
 10
-31.223400000000002
 20
64.827200000000005
 30
0.0
 10
-30.412100000000002
 20
64.615499999999997
 30
0.0
 10
-30.412100000000002
 20
64.615499999999997
 30
0.0
 10
-29.142100000000003
 20
65.003600000000006
 30
0.0
 10
-27.801500000000001
 20
64.933000000000007
 30
0.0
 10
-26.496200000000002
 20
65.285800000000009
 30
0.0
 10
-26.496200000000002
 20
65.285800000000009
 30
0.0
 10
-23.956200000000003
 20
65.250500000000002
 30
0.0
 10
-21.345700000000001
 20
65.497399999999999
 30
0.0
 10
-18.982100000000003
 20
66.520499999999998
 30
0.0
 10
-18.982100000000003
 20
66.520499999999998
 30
0.0
 10
-20.005100000000002
 20
67.226100000000002
 30
0.0
 10
-21.028200000000002
 20
68.037400000000005
 30
0.0
 10
-22.333400000000001
 20
68.143299999999996
 30
0.0
 10
-22.333400000000001
 20
68.143299999999996
 30
0.0
 10
-25.579000000000001
 20
68.178600000000003
 30
0.0
 10
-28.8598
 20
68.108000000000004
 30
0.0
 10
-32.140700000000002
 20
68.178600000000003
 30
0.0
 10
-32.140700000000002
 20
68.178600000000003
 30
0.0
 10
-33.834000000000003
 20
68.67240000000001
 30
0.0
 10
-35.668399999999998
 20
68.354900000000001
 30
0.0
 10
-37.326500000000003
 20
68.954700000000003
 30
0.0
 10
-37.326500000000003
 20
68.954700000000003
 30
0.0
 10
-37.926200000000001
 20
69.413300000000007
 30
0.0
 10
-38.420100000000005
 20
70.048299999999998
 30
0.0
 10
-39.019800000000004
 20
70.506900000000002
 30
0.0
 10
-39.019800000000004
 20
70.506900000000002
 30
0.0
 10
-39.937100000000001
 20
70.683300000000003
 30
0.0
 10
-40.854300000000002
 20
70.894900000000007
 30
0.0
 10
-41.700900000000004
 20
71.318300000000008
 30
0.0
 10
-41.700900000000004
 20
71.318300000000008
 30
0.0
 10
-41.665700000000001
 20
73.046900000000008
 30
0.0
 10
-41.771500000000003
 20
74.775500000000008
 30
0.0
 10
-41.665700000000001
 20
76.504100000000008
 30
0.0
 10
-41.665700000000001
 20
76.504100000000008
 30
0.0
 10
-41.136500000000005
 20
77.280200000000008
 30
0.0
 10
-40.113399999999999
 20
76.821600000000004
 30
0.0
 10
-39.337299999999999
 20
77.033299999999997
 30
0.0
 10
-39.337299999999999
 20
77.033299999999997
 30
0.0
 10
-37.432300000000005
 20
77.703600000000009
 30
0.0
 10
-35.386200000000002
 20
76.927400000000006
 30
0.0
 10
-33.516500000000001
 20
77.597700000000003
 30
0.0
 10
-33.516500000000001
 20
77.597700000000003
 30
0.0
 10
-29.283200000000001
 20
77.703600000000009
 30
0.0
 10
-25.014600000000002
 20
78.444400000000002
 30
0.0
 10
-21.098700000000001
 20
80.0672
 30
0.0
 10
-21.098700000000001
 20
80.0672
 30
0.0
 10
-20.322600000000001
 20
80.666899999999998
 30
0.0
 10
-21.557300000000001
 20
81.231300000000005
 30
0.0
 10
-22.086500000000001
 20
81.442999999999998
 30
0.0
 10
-22.086500000000001
 20
81.442999999999998
 30
0.0
 10
-25.332100000000001
 20
82.11330000000001
 30
0.0
 10
-28.8598
 20
80.0672
 30
0.0
 10
-31.858400000000003
 20
82.042700000000011
 30
0.0
 10
-31.858400000000003
 20
82.042700000000011
 30
0.0
 10
-31.893700000000003
 20
83.206900000000005
 30
0.0
 10
-31.3293
 20
84.406300000000002
 30
0.0
 10
-30.200400000000002
 20
84.864900000000006
 30
0.0
 10
-30.200400000000002
 20
84.864900000000006
 30
0.0
 10
-28.789300000000001
 20
85.429400000000001
 30
0.0
 10
-27.3782
 20
85.993800000000007
 30
0.0
 10
-26.037600000000001
 20
86.699399999999997
 30
0.0
  0
SPLINE
  5
27
100
AcDbEntity
  8
LAYER_1
100
AcDbSpline
210
0.0
220
0.0
230
1.0
 70
     1
 71
     3
 72
    88
 73
    84
 74
     0
 42
0.0000000001
 43
0.0000000001
 40
0.0
 40
0.0
 40
0.0
 40
0.0
 40
0.0476190476190476
 40
0.0476190476190476
 40
0.0476190476190476
 40
0.0476190476190476
 40
0.0952380952380952
 40
0.0952380952380952
 40
0.0952380952380952
 40
0.0952380952380952
 40
0.1428571428571429
 40
0.1428571428571429
 40
0.1428571428571429
 40
0.1428571428571429
 40
0.1904761904761905
 40
0.1904761904761905
 40
0.1904761904761905
 40
0.1904761904761905
 40
0.2380952380952381
 40
0.2380952380952381
 40
0.2380952380952381
 40
0.2380952380952381
 40
0.2857142857142857
 40
0.2857142857142857
 40
0.2857142857142857
 40
0.2857142857142857
 40
0.3333333333333333
 40
0.3333333333333333
 40
0.3333333333333333
 40
0.3333333333333333
 40
0.3809523809523809
 40
0.3809523809523809
 40
0.3809523809523809
 40
0.3809523809523809
 40
0.4285714285714286
 40
0.4285714285714286
 40
0.4285714285714286
 40
0.4285714285714286
 40
0.4761904761904762
 40
0.4761904761904762
 40
0.4761904761904762
 40
0.4761904761904762
 40
0.5238095238095237
 40
0.5238095238095237
 40
0.5238095238095237
 40
0.5238095238095237
 40
0.5714285714285714
 40
0.5714285714285714
 40
0.5714285714285714
 40
0.5714285714285714
 40
0.6190476190476191
 40
0.6190476190476191
 40
0.6190476190476191
 40
0.6190476190476191
 40
0.6666666666666667
 40
0.6666666666666667
 40
0.6666666666666667
 40
0.6666666666666667
 40
0.7142857142857144
 40
0.7142857142857144
 40
0.7142857142857144
 40
0.7142857142857144
 40
0.7619047619047621
 40
0.7619047619047621
 40
0.7619047619047621
 40
0.7619047619047621
 40
0.8095238095238098
 40
0.8095238095238098
 40
0.8095238095238098
 40
0.8095238095238098
 40
0.8571428571428574
 40
0.8571428571428574
 40
0.8571428571428574
 40
0.8571428571428574
 40
0.9047619047619051
 40
0.9047619047619051
 40
0.9047619047619051
 40
0.9047619047619051
 40
0.9523809523809528
 40
0.9523809523809528
 40
0.9523809523809528
 40
0.9523809523809528
 40
1.0
 40
1.0
 40
1.0
 40
1.0
 10
9.7693000000000012
 20
53.256100000000004
 30
0.0
 10
10.9688
 20
53.855800000000002
 30
0.0
 10
12.3446
 20
53.644100000000002
 30
0.0
 10
13.6852
 20
53.679400000000001
 30
0.0
 10
13.6852
 20
53.679400000000001
 30
0.0
 10
14.743500000000001
 20
51.668600000000005
 30
0.0
 10
14.5671
 20
49.234400000000001
 30
0.0
 10
13.896800000000001
 20
47.117699999999999
 30
0.0
 10
13.896800000000001
 20
47.117699999999999
 30
0.0
 10
12.9443
 20
44.613
 30
0.0
 10
11.639100000000001
 20
42.249400000000001
 30
0.0
 10
10.7218
 20
39.709400000000002
 30
0.0
 10
10.7218
 20
39.709400000000002
 30
0.0
 10
10.051600000000001
 20
35.864100000000001
 30
0.0
 10
8.1466000000000012
 20
32.4069
 30
0.0
 10
6.8413000000000004
 20
28.773300000000003
 30
0.0
 10
6.8413000000000004
 20
28.773300000000003
 30
0.0
 10
5.7124000000000006
 20
26.409700000000001
 30
0.0
 10
5.3596000000000004
 20
23.5169
 30
0.0
 10
3.3841000000000001
 20
21.647200000000002
 30
0.0
 10
3.3841000000000001
 20
21.647200000000002
 30
0.0
 10
2.2904
 20
20.3066
 30
0.0
 10
1.7613000000000001
 20
18.613300000000002
 30
0.0
 10
0.7735000000000001
 20
17.202200000000001
 30
0.0
 10
0.7735000000000001
 20
17.202200000000001
 30
0.0
 10
0.0679
 20
15.9322
 30
0.0
 10
-0.4965
 20
14.5563
 30
0.0
 10
-1.5548000000000002
 20
13.533300000000001
 30
0.0
 10
-1.5548000000000002
 20
13.533300000000001
 30
0.0
 10
-3.9184000000000001
 20
11.9458
 30
0.0
 10
-6.5996000000000006
 20
10.8169
 30
0.0
 10
-8.8925999999999998
 20
9.1588000000000012
 30
0.0
 10
-8.8925999999999998
 20
9.1588000000000012
 30
0.0
 10
-9.6687000000000012
 20
9.8291000000000004
 30
0.0
 10
-10.585900000000001
 20
10.534700000000001
 30
0.0
 10
-11.644300000000001
 20
10.287700000000001
 30
0.0
 10
-11.644300000000001
 20
10.287700000000001
 30
0.0
 10
-13.302300000000001
 20
9.6527000000000012
 30
0.0
 10
-14.642900000000001
 20
8.5237999999999996
 30
0.0
 10
-16.089300000000001
 20
7.5712999999999999
 30
0.0
 10
-16.089300000000001
 20
7.5712999999999999
 30
0.0
 10
-16.689
 20
7.3597000000000001
 30
0.0
 10
-17.359300000000001
 20
7.5008000000000008
 30
0.0
 10
-17.959
 20
7.4655000000000005
 30
0.0
 10
-17.959
 20
7.4655000000000005
 30
0.0
 10
-18.9115
 20
8.3474000000000004
 30
0.0
 10
-19.334800000000001
 20
9.5822000000000003
 30
0.0
 10
-19.123200000000001
 20
10.8522
 30
0.0
 10
-19.123200000000001
 20
10.8522
 30
0.0
 10
-17.782600000000002
 20
12.016300000000001
 30
0.0
 10
-16.689
 20
13.498000000000001
 30
0.0
 10
-15.1721
 20
14.4505
 30
0.0
 10
-15.1721
 20
14.4505
 30
0.0
 10
-14.149000000000001
 20
15.1913
 30
0.0
 10
-13.514000000000001
 20
16.3202
 30
0.0
 10
-12.667300000000001
 20
17.2727
 30
0.0
 10
-12.667300000000001
 20
17.2727
 30
0.0
 10
-11.8207
 20
18.119400000000002
 30
0.0
 10
-11.503200000000001
 20
19.354100000000003
 30
0.0
 10
-10.8682
 20
20.377200000000002
 30
0.0
 10
-10.8682
 20
20.377200000000002
 30
0.0
 10
-9.1043000000000003
 20
22.4938
 30
0.0
 10
-6.8465000000000007
 20
24.151900000000001
 30
0.0
 10
-5.2590000000000003
 20
26.409700000000001
 30
0.0
 10
-5.2590000000000003
 20
26.409700000000001
 30
0.0
 10
-3.8479000000000001
 20
28.032400000000003
 30
0.0
 10
-2.0487000000000002
 20
29.337700000000002
 30
0.0
 10
-0.8493000000000001
 20
31.1722
 30
0.0
 10
-0.8493000000000001
 20
31.1722
 30
0.0
 10
2.0788000000000002
 20
34.276600000000002
 30
0.0
 10
4.7952000000000004
 20
37.557400000000001
 30
0.0
 10
7.2999000000000001
 20
41.049900000000001
 30
0.0
 10
7.2999000000000001
 20
41.049900000000001
 30
0.0
 10
8.0053999999999998
 20
41.826100000000004
 30
0.0
 10
7.4763000000000002
 20
43.025500000000001
 30
0.0
 10
7.8996000000000004
 20
43.942700000000002
 30
0.0
 10
7.8996000000000004
 20
43.942700000000002
 30
0.0
 10
8.6757000000000009
 20
46.5886
 30
0.0
 10
9.910400000000001
 20
49.128600000000006
 30
0.0
 10
10.157400000000001
 20
51.915500000000002
 30
0.0
 10
10.157400000000001
 20
51.915500000000002
 30
0.0
 10
10.157400000000001
 20
52.374100000000006
 30
0.0
 10
9.8752000000000013
 20
52.797400000000003
 30
0.0
 10
9.7693000000000012
 20
53.256100000000004
 30
0.0
  0
SPLINE
  5
28
100
AcDbEntity
  8
LAYER_1
100
AcDbSpline
210
0.0
220
0.0
230
1.0
 70
     1
 71
     3
 72
    88
 73
    84
 74
     0
 42
0.0000000001
 43
0.0000000001
 40
0.0
 40
0.0
 40
0.0
 40
0.0
 40
0.0476190476190476
 40
0.0476190476190476
 40
0.0476190476190476
 40
0.0476190476190476
 40
0.0952380952380952
 40
0.0952380952380952
 40
0.0952380952380952
 40
0.0952380952380952
 40
0.1428571428571429
 40
0.1428571428571429
 40
0.1428571428571429
 40
0.1428571428571429
 40
0.1904761904761905
 40
0.1904761904761905
 40
0.1904761904761905
 40
0.1904761904761905
 40
0.2380952380952381
 40
0.2380952380952381
 40
0.2380952380952381
 40
0.2380952380952381
 40
0.2857142857142857
 40
0.2857142857142857
 40
0.2857142857142857
 40
0.2857142857142857
 40
0.3333333333333333
 40
0.3333333333333333
 40
0.3333333333333333
 40
0.3333333333333333
 40
0.3809523809523809
 40
0.3809523809523809
 40
0.3809523809523809
 40
0.3809523809523809
 40
0.4285714285714286
 40
0.4285714285714286
 40
0.4285714285714286
 40
0.4285714285714286
 40
0.4761904761904762
 40
0.4761904761904762
 40
0.4761904761904762
 40
0.4761904761904762
 40
0.5238095238095237
 40
0.5238095238095237
 40
0.5238095238095237
 40
0.5238095238095237
 40
0.5714285714285714
 40
0.5714285714285714
 40
0.5714285714285714
 40
0.5714285714285714
 40
0.6190476190476191
 40
0.6190476190476191
 40
0.6190476190476191
 40
0.6190476190476191
 40
0.6666666666666667
 40
0.6666666666666667
 40
0.6666666666666667
 40
0.6666666666666667
 40
0.7142857142857144
 40
0.7142857142857144
 40
0.7142857142857144
 40
0.7142857142857144
 40
0.7619047619047621
 40
0.7619047619047621
 40
0.7619047619047621
 40
0.7619047619047621
 40
0.8095238095238098
 40
0.8095238095238098
 40
0.8095238095238098
 40
0.8095238095238098
 40
0.8571428571428574
 40
0.8571428571428574
 40
0.8571428571428574
 40
0.8571428571428574
 40
0.9047619047619051
 40
0.9047619047619051
 40
0.9047619047619051
 40
0.9047619047619051
 40
0.9523809523809528
 40
0.9523809523809528
 40
0.9523809523809528
 40
0.9523809523809528
 40
1.0
 40
1.0
 40
1.0
 40
1.0
 10
-30.764800000000001
 20
51.5627
 30
0.0
 10
-29.283200000000001
 20
51.456900000000005
 30
0.0
 10
-28.013200000000001
 20
52.233000000000004
 30
0.0
 10
-26.813700000000001
 20
52.973800000000004
 30
0.0
 10
-26.813700000000001
 20
52.973800000000004
 30
0.0
 10
-24.944000000000003
 20
52.903300000000002
 30
0.0
 10
-23.003700000000002
 20
53.220800000000004
 30
0.0
 10
-21.1693
 20
52.691600000000001
 30
0.0
 10
-21.1693
 20
52.691600000000001
 30
0.0
 10
-19.617100000000001
 20
52.444700000000005
 30
0.0
 10
-18.029600000000002
 20
52.868000000000002
 30
0.0
 10
-16.512599999999999
 20
52.409400000000005
 30
0.0
 10
-16.512599999999999
 20
52.409400000000005
 30
0.0
 10
-15.348400000000002
 20
52.091900000000003
 30
0.0
 10
-14.0784
 20
52.444700000000005
 30
0.0
 10
-12.914300000000001
 20
52.127200000000002
 30
0.0
 10
-12.914300000000001
 20
52.127200000000002
 30
0.0
 10
-11.4679
 20
51.668600000000005
 30
0.0
 10
-9.8803999999999998
 20
52.197700000000005
 30
0.0
 10
-8.4693000000000005
 20
51.633300000000006
 30
0.0
 10
-8.4693000000000005
 20
51.633300000000006
 30
0.0
 10
-4.4828999999999999
 20
51.456900000000005
 30
0.0
 10
-0.4965
 20
51.5274
 30
0.0
 10
3.4546000000000001
 20
51.5627
 30
0.0
 10
3.4546000000000001
 20
51.5627
 30
0.0
 10
4.3718000000000004
 20
51.668600000000005
 30
0.0
 10
5.1127000000000002
 20
51.0336
 30
0.0
 10
5.9241000000000001
 20
50.716100000000004
 30
0.0
 10
5.9241000000000001
 20
50.716100000000004
 30
0.0
 10
5.8888000000000007
 20
49.234400000000001
 30
0.0
 10
5.8535000000000004
 20
47.717400000000005
 30
0.0
 10
6.3474000000000004
 20
46.271100000000004
 30
0.0
 10
6.3474000000000004
 20
46.271100000000004
 30
0.0
 10
5.3949000000000007
 20
46.271100000000004
 30
0.0
 10
4.4424000000000001
 20
46.3063
 30
0.0
 10
3.5252000000000003
 20
46.235800000000005
 30
0.0
 10
3.5252000000000003
 20
46.235800000000005
 30
0.0
 10
2.5374000000000003
 20
45.847700000000003
 30
0.0
 10
1.5143
 20
45.459700000000005
 30
0.0
 10
0.5971000000000001
 20
44.895200000000003
 30
0.0
 10
0.5971000000000001
 20
44.895200000000003
 30
0.0
 10
-1.4490000000000001
 20
43.801600000000001
 30
0.0
 10
-3.1776
 20
42.002400000000002
 30
0.0
 10
-5.5059000000000005
 20
41.473300000000002
 30
0.0
 10
-5.5059000000000005
 20
41.473300000000002
 30
0.0
 10
-7.9048000000000007
 20
40.908799999999999
 30
0.0
 10
-10.585900000000001
 20
41.014700000000005
 30
0.0
 10
-12.561500000000001
 20
39.321300000000001
 30
0.0
 10
-12.561500000000001
 20
39.321300000000001
 30
0.0
 10
-14.8193
 20
39.215499999999999
 30
0.0
 10
-17.077100000000002
 20
38.509900000000002
 30
0.0
 10
-19.334800000000001
 20
39.003800000000005
 30
0.0
 10
-19.334800000000001
 20
39.003800000000005
 30
0.0
 10
-20.463699999999999
 20
39.3919
 30
0.0
 10
-21.6632
 20
39.039100000000005
 30
0.0
 10
-22.792100000000001
 20
39.427199999999999
 30
0.0
 10
-22.792100000000001
 20
39.427199999999999
 30
0.0
 10
-24.979300000000002
 20
39.850500000000004
 30
0.0
 10
-27.1312
 20
40.3444
 30
0.0
 10
-29.212600000000002
 20
41.1205
 30
0.0
 10
-29.212600000000002
 20
41.1205
 30
0.0
 10
-29.988700000000001
 20
41.473300000000002
 30
0.0
 10
-30.870700000000003
 20
41.226300000000002
 30
0.0
 10
-31.682100000000002
 20
41.438000000000002
 30
0.0
 10
-31.682100000000002
 20
41.438000000000002
 30
0.0
 10
-32.987300000000005
 20
42.002400000000002
 30
0.0
 10
-33.798700000000004
 20
43.201900000000002
 30
0.0
 10
-34.786500000000004
 20
44.154400000000003
 30
0.0
 10
-34.786500000000004
 20
44.154400000000003
 30
0.0
 10
-38.208400000000005
 20
43.907400000000003
 30
0.0
 10
-41.4893
 20
45.177399999999999
 30
0.0
 10
-44.452600000000004
 20
46.729700000000001
 30
0.0
 10
-44.452600000000004
 20
46.729700000000001
 30
0.0
 10
-44.840700000000005
 20
47.964400000000005
 30
0.0
 10
-45.264000000000003
 20
49.516600000000004
 30
0.0
 10
-44.240900000000003
 20
50.610199999999999
 30
0.0
 10
-44.240900000000003
 20
50.610199999999999
 30
0.0
 10
-41.983200000000004
 20
52.162400000000005
 30
0.0
 10
-39.090400000000002
 20
52.021300000000004
 30
0.0
 10
-36.479800000000004
 20
51.844900000000003
 30
0.0
 10
-36.479800000000004
 20
51.844900000000003
 30
0.0
 10
-34.645400000000002
 20
51.280500000000004
 30
0.0
 10
-32.669800000000002
 20
51.668600000000005
 30
0.0
 10
-30.764800000000001
 20
51.5627
 30
0.0
  0
SPLINE
  5
29
100
AcDbEntity
  8
LAYER_1
100
AcDbSpline
210
0.0
220
0.0
230
1.0
 70
     1
 71
     3
 72
   100
 73
    96
 74
     0
 42
0.0000000001
 43
0.0000000001
 40
0.0
 40
0.0
 40
0.0
 40
0.0
 40
0.0416666666666667
 40
0.0416666666666667
 40
0.0416666666666667
 40
0.0416666666666667
 40
0.0833333333333333
 40
0.0833333333333333
 40
0.0833333333333333
 40
0.0833333333333333
 40
0.125
 40
0.125
 40
0.125
 40
0.125
 40
0.1666666666666667
 40
0.1666666666666667
 40
0.1666666666666667
 40
0.1666666666666667
 40
0.2083333333333333
 40
0.2083333333333333
 40
0.2083333333333333
 40
0.2083333333333333
 40
0.25
 40
0.25
 40
0.25
 40
0.25
 40
0.2916666666666666
 40
0.2916666666666666
 40
0.2916666666666666
 40
0.2916666666666666
 40
0.3333333333333333
 40
0.3333333333333333
 40
0.3333333333333333
 40
0.3333333333333333
 40
0.375
 40
0.375
 40
0.375
 40
0.375
 40
0.4166666666666667
 40
0.4166666666666667
 40
0.4166666666666667
 40
0.4166666666666667
 40
0.4583333333333334
 40
0.4583333333333334
 40
0.4583333333333334
 40
0.4583333333333334
 40
0.5
 40
0.5
 40
0.5
 40
0.5
 40
0.5416666666666666
 40
0.5416666666666666
 40
0.5416666666666666
 40
0.5416666666666666
 40
0.5833333333333333
 40
0.5833333333333333
 40
0.5833333333333333
 40
0.5833333333333333
 40
0.6249999999999999
 40
0.6249999999999999
 40
0.6249999999999999
 40
0.6249999999999999
 40
0.6666666666666665
 40
0.6666666666666665
 40
0.6666666666666665
 40
0.6666666666666665
 40
0.7083333333333332
 40
0.7083333333333332
 40
0.7083333333333332
 40
0.7083333333333332
 40
0.7499999999999998
 40
0.7499999999999998
 40
0.7499999999999998
 40
0.7499999999999998
 40
0.7916666666666664
 40
0.7916666666666664
 40
0.7916666666666664
 40
0.7916666666666664
 40
0.833333333333333
 40
0.833333333333333
 40
0.833333333333333
 40
0.833333333333333
 40
0.8749999999999997
 40
0.8749999999999997
 40
0.8749999999999997
 40
0.8749999999999997
 40
0.9166666666666663
 40
0.9166666666666663
 40
0.9166666666666663
 40
0.9166666666666663
 40
0.9583333333333329
 40
0.9583333333333329
 40
0.9583333333333329
 40
0.9583333333333329
 40
1.0
 40
1.0
 40
1.0
 40
1.0
 10
-43.041499999999999
 20
41.3322
 30
0.0
 10
-42.406500000000001
 20
41.3322
 30
0.0
 10
-41.771500000000003
 20
41.3322
 30
0.0
 10
-41.136500000000005
 20
41.3322
 30
0.0
 10
-41.136500000000005
 20
41.3322
 30
0.0
 10
-40.360399999999998
 20
40.520800000000001
 30
0.0
 10
-39.407900000000005
 20
39.744700000000002
 30
0.0
 10
-39.196200000000005
 20
38.580500000000001
 30
0.0
 10
-39.196200000000005
 20
38.580500000000001
 30
0.0
 10
-38.878700000000002
 20
37.134100000000004
 30
0.0
 10
-38.384799999999998
 20
35.758299999999998
 30
0.0
 10
-37.538200000000003
 20
34.558800000000005
 30
0.0
 10
-37.538200000000003
 20
34.558800000000005
 30
0.0
 10
-36.479800000000004
 20
33.994399999999999
 30
0.0
 10
-35.527300000000004
 20
33.288800000000002
 30
0.0
 10
-34.574800000000003
 20
32.583300000000001
 30
0.0
 10
-34.574800000000003
 20
32.583300000000001
 30
0.0
 10
-32.034800000000004
 20
29.831600000000002
 30
0.0
 10
-30.376800000000003
 20
26.444900000000001
 30
0.0
 10
-28.224800000000002
 20
23.411100000000001
 30
0.0
 10
-28.224800000000002
 20
23.411100000000001
 30
0.0
 10
-27.3429
 20
21.858800000000002
 30
0.0
 10
-25.720100000000002
 20
20.906300000000002
 30
0.0
 10
-24.732300000000002
 20
19.459900000000001
 30
0.0
 10
-24.732300000000002
 20
19.459900000000001
 30
0.0
 10
-24.9087
 20
18.719100000000001
 30
0.0
 10
-25.3673
 20
17.907700000000002
 30
0.0
 10
-25.014600000000002
 20
17.131600000000002
 30
0.0
 10
-25.014600000000002
 20
17.131600000000002
 30
0.0
 10
-24.238400000000002
 20
14.979700000000001
 30
0.0
 10
-22.015900000000002
 20
13.780200000000001
 30
0.0
 10
-21.239800000000002
 20
11.663600000000001
 30
0.0
 10
-21.239800000000002
 20
11.663600000000001
 30
0.0
 10
-21.204600000000003
 20
10.640500000000001
 30
0.0
 10
-21.134
 20
9.5822000000000003
 30
0.0
 10
-21.451499999999999
 20
8.6296999999999997
 30
0.0
 10
-21.451499999999999
 20
8.6296999999999997
 30
0.0
 10
-19.617100000000001
 20
5.6663000000000006
 30
0.0
 10
-18.276500000000002
 20
2.4208000000000003
 30
0.0
 10
-16.653700000000001
 20
-0.6484
 30
0.0
 10
-16.653700000000001
 20
-0.6484
 30
0.0
 10
-16.054000000000002
 20
-2.4123000000000001
 30
0.0
 10
-15.0662
 20
-4.0350999999999999
 30
0.0
 10
-14.3254
 20
-5.7284000000000006
 30
0.0
 10
-14.3254
 20
-5.7284000000000006
 30
0.0
 10
-12.632100000000001
 20
-10.3498
 30
0.0
 10
-9.4218000000000011
 20
-14.1951
 30
0.0
 10
-7.5521000000000003
 20
-18.710599999999999
 30
0.0
 10
-7.5521000000000003
 20
-18.710599999999999
 30
0.0
 10
-5.7176
 20
-20.8978
 30
0.0
 10
-3.7068000000000003
 20
-23.190900000000003
 30
0.0
 10
-3.2482000000000002
 20
-26.0837
 30
0.0
 10
-3.2482000000000002
 20
-26.0837
 30
0.0
 10
-3.0718000000000001
 20
-27.3537
 30
0.0
 10
-3.6715
 20
-28.517800000000001
 30
0.0
 10
-4.0948000000000002
 20
-29.682000000000002
 30
0.0
 10
-4.0948000000000002
 20
-29.682000000000002
 30
0.0
 10
-5.5059000000000005
 20
-29.0823
 30
0.0
 10
-6.6701000000000006
 20
-28.059200000000001
 30
0.0
 10
-7.9048000000000007
 20
-27.177300000000002
 30
0.0
 10
-7.9048000000000007
 20
-27.177300000000002
 30
0.0
 10
-10.903400000000001
 20
-24.037600000000001
 30
0.0
 10
-12.385100000000001
 20
-19.804200000000002
 30
0.0
 10
-15.348400000000002
 20
-16.629200000000001
 30
0.0
 10
-15.348400000000002
 20
-16.629200000000001
 30
0.0
 10
-15.983400000000001
 20
-16.100100000000001
 30
0.0
 10
-16.794800000000002
 20
-15.712000000000002
 30
0.0
 10
-17.253399999999999
 20
-15.006400000000001
 30
0.0
 10
-17.253399999999999
 20
-15.006400000000001
 30
0.0
 10
-19.052600000000002
 20
-11.4434
 30
0.0
 10
-20.992900000000002
 20
-7.8451000000000004
 30
0.0
 10
-23.779800000000002
 20
-4.9169999999999998
 30
0.0
 10
-23.779800000000002
 20
-4.9169999999999998
 30
0.0
 10
-24.3443
 20
-4.1055999999999999
 30
0.0
 10
-25.1557
 20
-3.4001000000000001
 30
0.0
 10
-25.437900000000003
 20
-2.3770000000000002
 30
0.0
 10
-25.437900000000003
 20
-2.3770000000000002
 30
0.0
 10
-28.895100000000003
 20
6.8658000000000001
 30
0.0
 10
-33.410699999999999
 20
15.614700000000001
 30
0.0
 10
-37.114800000000002
 20
24.7516
 30
0.0
 10
-37.114800000000002
 20
24.7516
 30
0.0
 10
-37.397100000000002
 20
25.386600000000001
 30
0.0
 10
-37.679300000000005
 20
26.021600000000003
 30
0.0
 10
-38.314300000000003
 20
26.374400000000001
 30
0.0
 10
-38.314300000000003
 20
26.374400000000001
 30
0.0
 10
-39.548999999999999
 20
27.009400000000003
 30
0.0
 10
-40.113399999999999
 20
28.349900000000002
 30
0.0
 10
-41.065899999999999
 20
29.267200000000003
 30
0.0
 10
-41.065899999999999
 20
29.267200000000003
 30
0.0
 10
-42.124300000000005
 20
30.9252
 30
0.0
 10
-42.900400000000005
 20
32.794899999999998
 30
0.0
 10
-43.429600000000001
 20
34.6999
 30
0.0
 10
-43.429600000000001
 20
34.6999
 30
0.0
 10
-43.535400000000003
 20
36.922400000000003
 30
0.0
 10
-43.570700000000002
 20
39.180199999999999
 30
0.0
 10
-43.041499999999999
 20
41.3322
 30
0.0
  0
SPLINE
  5
2A
100
AcDbEntity
  8
LAYER_1
100
AcDbSpline
210
0.0
220
0.0
230
1.0
 70
     1
 71
     3
 72
    72
 73
    68
 74
     0
 42
0.0000000001
 43
0.0000000001
 40
0.0
 40
0.0
 40
0.0
 40
0.0
 40
0.0588235294117647
 40
0.0588235294117647
 40
0.0588235294117647
 40
0.0588235294117647
 40
0.1176470588235294
 40
0.1176470588235294
 40
0.1176470588235294
 40
0.1176470588235294
 40
0.1764705882352941
 40
0.1764705882352941
 40
0.1764705882352941
 40
0.1764705882352941
 40
0.2352941176470588
 40
0.2352941176470588
 40
0.2352941176470588
 40
0.2352941176470588
 40
0.2941176470588235
 40
0.2941176470588235
 40
0.2941176470588235
 40
0.2941176470588235
 40
0.3529411764705883
 40
0.3529411764705883
 40
0.3529411764705883
 40
0.3529411764705883
 40
0.411764705882353
 40
0.411764705882353
 40
0.411764705882353
 40
0.411764705882353
 40
0.4705882352941177
 40
0.4705882352941177
 40
0.4705882352941177
 40
0.4705882352941177
 40
0.5294117647058824
 40
0.5294117647058824
 40
0.5294117647058824
 40
0.5294117647058824
 40
0.5882352941176471
 40
0.5882352941176471
 40
0.5882352941176471
 40
0.5882352941176471
 40
0.6470588235294118
 40
0.6470588235294118
 40
0.6470588235294118
 40
0.6470588235294118
 40
0.7058823529411765
 40
0.7058823529411765
 40
0.7058823529411765
 40
0.7058823529411765
 40
0.7647058823529412
 40
0.7647058823529412
 40
0.7647058823529412
 40
0.7647058823529412
 40
0.823529411764706
 40
0.823529411764706
 40
0.823529411764706
 40
0.823529411764706
 40
0.8823529411764707
 40
0.8823529411764707
 40
0.8823529411764707
 40
0.8823529411764707
 40
0.9411764705882354
 40
0.9411764705882354
 40
0.9411764705882354
 40
0.9411764705882354
 40
1.0
 40
1.0
 40
1.0
 40
1.0
 10
13.0854
 20
30.643000000000001
 30
0.0
 10
14.249600000000001
 20
31.348600000000001
 30
0.0
 10
16.084099999999999
 20
32.054099999999998
 30
0.0
 10
17.177700000000002
 20
30.995800000000003
 30
0.0
 10
17.177700000000002
 20
30.995800000000003
 30
0.0
 10
17.248200000000001
 20
29.866900000000001
 30
0.0
 10
17.2835
 20
28.773300000000003
 30
0.0
 10
17.142400000000002
 20
27.644400000000001
 30
0.0
 10
17.142400000000002
 20
27.644400000000001
 30
0.0
 10
16.5427
 20
25.9511
 30
0.0
 10
17.0718
 20
24.151900000000001
 30
0.0
 10
16.7896
 20
22.423300000000001
 30
0.0
 10
16.7896
 20
22.423300000000001
 30
0.0
 10
15.5549
 20
20.0244
 30
0.0
 10
12.979600000000001
 20
18.507400000000001
 30
0.0
 10
12.4152
 20
15.7911
 30
0.0
 10
12.4152
 20
15.7911
 30
0.0
 10
11.7096
 20
11.910500000000001
 30
0.0
 10
10.545400000000001
 20
8.1005000000000003
 30
0.0
 10
8.781600000000001
 20
4.6080000000000005
 30
0.0
 10
8.781600000000001
 20
4.6080000000000005
 30
0.0
 10
9.0638000000000005
 20
1.2919
 30
0.0
 10
7.5821000000000005
 20
-1.742
 30
0.0
 10
7.0177000000000005
 20
-4.9169999999999998
 30
0.0
 10
7.0177000000000005
 20
-4.9169999999999998
 30
0.0
 10
6.9824000000000002
 20
-5.6577999999999999
 30
0.0
 10
6.7354000000000003
 20
-6.3987000000000007
 30
0.0
 10
6.2063000000000006
 20
-6.8926000000000007
 30
0.0
 10
6.2063000000000006
 20
-6.8926000000000007
 30
0.0
 10
4.4777000000000005
 20
-8.5506000000000011
 30
0.0
 10
3.3488000000000002
 20
-10.667300000000001
 30
0.0
 10
1.9377000000000002
 20
-12.537000000000001
 30
0.0
 10
1.9377000000000002
 20
-12.537000000000001
 30
0.0
 10
0.456
 20
-14.053900000000001
 30
0.0
 10
-1.1315
 20
-16.1706
 30
0.0
 10
-3.5304000000000002
 20
-15.8178
 30
0.0
 10
-3.5304000000000002
 20
-15.8178
 30
0.0
 10
-5.6471
 20
-14.9359
 30
0.0
 10
-6.6701000000000006
 20
-12.5723
 30
0.0
 10
-7.0582000000000003
 20
-10.4556
 30
0.0
 10
-7.0582000000000003
 20
-10.4556
 30
0.0
 10
-7.4109000000000007
 20
-7.5981000000000005
 30
0.0
 10
-6.6701000000000006
 20
-4.5642000000000005
 30
0.0
 10
-4.5887000000000002
 20
-2.4828000000000001
 30
0.0
 10
-4.5887000000000002
 20
-2.4828000000000001
 30
0.0
 10
-2.4368000000000003
 20
-0.4014
 30
0.0
 10
-0.179
 20
1.7152000000000001
 30
0.0
 10
1.1968000000000001
 20
4.4316000000000004
 30
0.0
 10
1.1968000000000001
 20
4.4316000000000004
 30
0.0
 10
1.5849
 20
5.9838000000000005
 30
0.0
 10
2.3257000000000003
 20
7.3949000000000007
 30
0.0
 10
3.3135000000000003
 20
8.6649000000000012
 30
0.0
 10
3.3135000000000003
 20
8.6649000000000012
 30
0.0
 10
5.7477
 20
12.051600000000001
 30
0.0
 10
9.0285000000000011
 20
15.5441
 30
0.0
 10
8.7462999999999997
 20
20.0244
 30
0.0
 10
8.7462999999999997
 20
20.0244
 30
0.0
 10
10.3338
 20
21.082700000000003
 30
0.0
 10
10.8277
 20
22.9877
 30
0.0
 10
10.8629
 20
24.7516
 30
0.0
 10
10.8629
 20
24.7516
 30
0.0
 10
10.898200000000001
 20
25.9863
 30
0.0
 10
11.4627
 20
27.115200000000002
 30
0.0
 10
12.132900000000001
 20
28.103000000000002
 30
0.0
 10
12.132900000000001
 20
28.103000000000002
 30
0.0
 10
12.3093
 20
28.9849
 30
0.0
 10
12.626800000000001
 20
29.866900000000001
 30
0.0
 10
13.0854
 20
30.643000000000001
 30
0.0
  0
SPLINE
  5
2B
100
AcDbEntity
  8
LAYER_1
100
AcDbSpline
210
0.0
220
0.0
230
1.0
 70
     1
 71
     3
 72
   104
 73
   100
 74
     0
 42
0.0000000001
 43
0.0000000001
 40
0.0
 40
0.0
 40
0.0
 40
0.0
 40
0.04
 40
0.04
 40
0.04
 40
0.04
 40
0.08
 40
0.08
 40
0.08
 40
0.08
 40
0.12
 40
0.12
 40
0.12
 40
0.12
 40
0.16
 40
0.16
 40
0.16
 40
0.16
 40
0.2
 40
0.2
 40
0.2
 40
0.2
 40
0.24
 40
0.24
 40
0.24
 40
0.24
 40
0.28
 40
0.28
 40
0.28
 40
0.28
 40
0.32
 40
0.32
 40
0.32
 40
0.32
 40
0.36
 40
0.36
 40
0.36
 40
0.36
 40
0.4
 40
0.4
 40
0.4
 40
0.4
 40
0.44
 40
0.44
 40
0.44
 40
0.44
 40
0.4799999999999999
 40
0.4799999999999999
 40
0.4799999999999999
 40
0.4799999999999999
 40
0.5199999999999999
 40
0.5199999999999999
 40
0.5199999999999999
 40
0.5199999999999999
 40
0.5599999999999999
 40
0.5599999999999999
 40
0.5599999999999999
 40
0.5599999999999999
 40
0.6
 40
0.6
 40
0.6
 40
0.6
 40
0.64
 40
0.64
 40
0.64
 40
0.64
 40
0.6800000000000001
 40
0.6800000000000001
 40
0.6800000000000001
 40
0.6800000000000001
 40
0.7200000000000001
 40
0.7200000000000001
 40
0.7200000000000001
 40
0.7200000000000001
 40
0.7600000000000001
 40
0.7600000000000001
 40
0.7600000000000001
 40
0.7600000000000001
 40
0.8000000000000002
 40
0.8000000000000002
 40
0.8000000000000002
 40
0.8000000000000002
 40
0.8400000000000002
 40
0.8400000000000002
 40
0.8400000000000002
 40
0.8400000000000002
 40
0.8800000000000002
 40
0.8800000000000002
 40
0.8800000000000002
 40
0.8800000000000002
 40
0.9200000000000003
 40
0.9200000000000003
 40
0.9200000000000003
 40
0.9200000000000003
 40
0.9600000000000003
 40
0.9600000000000003
 40
0.9600000000000003
 40
0.9600000000000003
 40
1.0
 40
1.0
 40
1.0
 40
1.0
 10
-42.053699999999999
 20
17.978300000000001
 30
0.0
 10
-40.889600000000002
 20
19.2836
 30
0.0
 10
-38.631799999999998
 20
19.459900000000001
 30
0.0
 10
-37.538200000000003
 20
17.943000000000001
 30
0.0
 10
-37.538200000000003
 20
17.943000000000001
 30
0.0
 10
-37.079599999999999
 20
15.649900000000001
 30
0.0
 10
-37.150100000000002
 20
13.251100000000001
 30
0.0
 10
-36.374000000000002
 20
11.028600000000001
 30
0.0
 10
-36.374000000000002
 20
11.028600000000001
 30
0.0
 10
-34.574800000000003
 20
5.2077
 30
0.0
 10
-34.5396
 20
-1.3187
 30
0.0
 10
-31.011800000000001
 20
-6.5398000000000005
 30
0.0
 10
-31.011800000000001
 20
-6.5398000000000005
 30
0.0
 10
-28.189600000000002
 20
-10.808400000000001
 30
0.0
 10
-28.5776
 20
-16.523400000000002
 30
0.0
 10
-25.261500000000002
 20
-20.545100000000001
 30
0.0
 10
-25.261500000000002
 20
-20.545100000000001
 30
0.0
 10
-23.532900000000001
 20
-24.1081
 30
0.0
 10
-24.026800000000001
 20
-28.447300000000002
 30
0.0
 10
-21.6632
 20
-31.763400000000001
 30
0.0
 10
-21.6632
 20
-31.763400000000001
 30
0.0
 10
-20.322600000000001
 20
-32.962800000000001
 30
0.0
 10
-19.864000000000001
 20
-34.832599999999999
 30
0.0
 10
-18.523400000000002
 20
-36.032000000000004
 30
0.0
 10
-18.523400000000002
 20
-36.032000000000004
 30
0.0
 10
-17.394600000000001
 20
-37.337299999999999
 30
0.0
 10
-16.159800000000001
 20
-38.677800000000005
 30
0.0
 10
-15.877600000000001
 20
-40.441700000000004
 30
0.0
 10
-15.877600000000001
 20
-40.441700000000004
 30
0.0
 10
-15.489600000000001
 20
-41.641200000000005
 30
0.0
 10
-14.7134
 20
-42.7348
 30
0.0
 10
-14.537100000000001
 20
-44.040100000000002
 30
0.0
 10
-14.537100000000001
 20
-44.040100000000002
 30
0.0
 10
-14.4312
 20
-44.992600000000003
 30
0.0
 10
-13.8315
 20
-45.733400000000003
 30
0.0
 10
-13.125900000000001
 20
-46.297800000000002
 30
0.0
 10
-13.125900000000001
 20
-46.297800000000002
 30
0.0
 10
-13.619800000000001
 20
-50.143100000000004
 30
0.0
 10
-11.2562
 20
-53.600300000000004
 30
0.0
 10
-8.3986999999999998
 20
-55.8934
 30
0.0
 10
-8.3986999999999998
 20
-55.8934
 30
0.0
 10
-7.1993
 20
-56.669499999999999
 30
0.0
 10
-6.3173000000000004
 20
-57.798400000000001
 30
0.0
 10
-5.2943000000000007
 20
-58.786200000000001
 30
0.0
 10
-5.2943000000000007
 20
-58.786200000000001
 30
0.0
 10
-4.2359
 20
-59.879800000000003
 30
0.0
 10
-2.9307000000000003
 20
-60.797000000000004
 30
0.0
 10
-2.4368000000000003
 20
-62.278700000000001
 30
0.0
 10
-2.4368000000000003
 20
-62.278700000000001
 30
0.0
 10
-3.7421000000000002
 20
-62.948900000000002
 30
0.0
 10
-5.2943000000000007
 20
-62.772600000000004
 30
0.0
 10
-6.7054
 20
-62.702000000000005
 30
0.0
 10
-6.7054
 20
-62.702000000000005
 30
0.0
 10
-8.3986999999999998
 20
-62.137600000000006
 30
0.0
 10
-10.1273
 20
-61.502600000000001
 30
0.0
 10
-11.926500000000001
 20
-61.678900000000006
 30
0.0
 10
-11.926500000000001
 20
-61.678900000000006
 30
0.0
 10
-12.526200000000001
 20
-61.043900000000001
 30
0.0
 10
-13.161200000000001
 20
-60.444200000000002
 30
0.0
 10
-13.7257
 20
-59.809200000000004
 30
0.0
 10
-13.7257
 20
-59.809200000000004
 30
0.0
 10
-14.537100000000001
 20
-58.080600000000004
 30
0.0
 10
-14.9251
 20
-56.210900000000002
 30
0.0
 10
-15.383700000000001
 20
-54.411700000000003
 30
0.0
 10
-15.383700000000001
 20
-54.411700000000003
 30
0.0
 10
-16.018699999999999
 20
-52.894800000000004
 30
0.0
 10
-17.394600000000001
 20
-51.836400000000005
 30
0.0
 10
-18.876200000000001
 20
-51.2014
 30
0.0
 10
-18.876200000000001
 20
-51.2014
 30
0.0
 10
-22.333400000000001
 20
-49.719799999999999
 30
0.0
 10
-23.8857
 20
-46.086200000000005
 30
0.0
 10
-26.249300000000002
 20
-43.440300000000001
 30
0.0
 10
-26.249300000000002
 20
-43.440300000000001
 30
0.0
 10
-26.919600000000003
 20
-42.7348
 30
0.0
 10
-27.5898
 20
-42.099800000000002
 30
0.0
 10
-28.295400000000001
 20
-41.429500000000004
 30
0.0
 10
-28.295400000000001
 20
-41.429500000000004
 30
0.0
 10
-28.154300000000003
 20
-39.0306
 30
0.0
 10
-28.542300000000001
 20
-36.243700000000004
 30
0.0
 10
-30.482600000000001
 20
-34.585599999999999
 30
0.0
 10
-30.482600000000001
 20
-34.585599999999999
 30
0.0
 10
-32.175899999999999
 20
-32.962800000000001
 30
0.0
 10
-32.458200000000005
 20
-30.528700000000001
 30
0.0
 10
-33.798700000000004
 20
-28.729500000000002
 30
0.0
 10
-33.798700000000004
 20
-28.729500000000002
 30
0.0
 10
-34.151499999999999
 20
-27.671200000000002
 30
0.0
 10
-33.728200000000001
 20
-26.542300000000001
 30
0.0
 10
-34.0809
 20
-25.483900000000002
 30
0.0
 10
-34.0809
 20
-25.483900000000002
 30
0.0
 10
-34.5396
 20
-24.1434
 30
0.0
 10
-34.045700000000004
 20
-22.6617
 30
0.0
 10
-34.504300000000001
 20
-21.321200000000001
 30
0.0
 10
-34.504300000000001
 20
-21.321200000000001
 30
0.0
 10
-35.739000000000004
 20
-9.2914000000000012
 30
0.0
 10
-39.7254
 20
2.2444000000000002
 30
0.0
 10
-41.736200000000004
 20
14.133000000000001
 30
0.0
 10
-41.736200000000004
 20
14.133000000000001
 30
0.0
 10
-42.124300000000005
 20
15.367700000000001
 30
0.0
 10
-42.088999999999999
 20
16.673000000000002
 30
0.0
 10
-42.053699999999999
 20
17.978300000000001
 30
0.0
  0
SPLINE
  5
2C
100
AcDbEntity
  8
LAYER_1
100
AcDbSpline
210
0.0
220
0.0
230
1.0
 70
     1
 71
     3
 72
    92
 73
    88
 74
     0
 42
0.0000000001
 43
0.0000000001
 40
0.0
 40
0.0
 40
0.0
 40
0.0
 40
0.0454545454545455
 40
0.0454545454545455
 40
0.0454545454545455
 40
0.0454545454545455
 40
0.0909090909090909
 40
0.0909090909090909
 40
0.0909090909090909
 40
0.0909090909090909
 40
0.1363636363636364
 40
0.1363636363636364
 40
0.1363636363636364
 40
0.1363636363636364
 40
0.1818181818181818
 40
0.1818181818181818
 40
0.1818181818181818
 40
0.1818181818181818
 40
0.2272727272727273
 40
0.2272727272727273
 40
0.2272727272727273
 40
0.2272727272727273
 40
0.2727272727272728
 40
0.2727272727272728
 40
0.2727272727272728
 40
0.2727272727272728
 40
0.3181818181818182
 40
0.3181818181818182
 40
0.3181818181818182
 40
0.3181818181818182
 40
0.3636363636363637
 40
0.3636363636363637
 40
0.3636363636363637
 40
0.3636363636363637
 40
0.4090909090909092
 40
0.4090909090909092
 40
0.4090909090909092
 40
0.4090909090909092
 40
0.4545454545454546
 40
0.4545454545454546
 40
0.4545454545454546
 40
0.4545454545454546
 40
0.5000000000000001
 40
0.5000000000000001
 40
0.5000000000000001
 40
0.5000000000000001
 40
0.5454545454545455
 40
0.5454545454545455
 40
0.5454545454545455
 40
0.5454545454545455
 40
0.5909090909090909
 40
0.5909090909090909
 40
0.5909090909090909
 40
0.5909090909090909
 40
0.6363636363636364
 40
0.6363636363636364
 40
0.6363636363636364
 40
0.6363636363636364
 40
0.6818181818181818
 40
0.6818181818181818
 40
0.6818181818181818
 40
0.6818181818181818
 40
0.7272727272727272
 40
0.7272727272727272
 40
0.7272727272727272
 40
0.7272727272727272
 40
0.7727272727272726
 40
0.7727272727272726
 40
0.7727272727272726
 40
0.7727272727272726
 40
0.818181818181818
 40
0.818181818181818
 40
0.818181818181818
 40
0.818181818181818
 40
0.8636363636363634
 40
0.8636363636363634
 40
0.8636363636363634
 40
0.8636363636363634
 40
0.9090909090909088
 40
0.9090909090909088
 40
0.9090909090909088
 40
0.9090909090909088
 40
0.9545454545454543
 40
0.9545454545454543
 40
0.9545454545454543
 40
0.9545454545454543
 40
1.0
 40
1.0
 40
1.0
 40
1.0
 10
-51.9315
 20
7.8183000000000007
 30
0.0
 10
-51.684600000000003
 20
8.5944000000000003
 30
0.0
 10
-50.767300000000006
 20
8.5591000000000008
 30
0.0
 10
-50.1676
 20
8.8765999999999998
 30
0.0
 10
-50.1676
 20
8.8765999999999998
 30
0.0
 10
-48.368400000000001
 20
8.1711000000000009
 30
0.0
 10
-46.7104
 20
7.1127000000000002
 30
0.0
 10
-45.193400000000004
 20
5.9485999999999999
 30
0.0
 10
-45.193400000000004
 20
5.9485999999999999
 30
0.0
 10
-45.193400000000004
 20
5.1724000000000006
 30
0.0
 10
-45.264000000000003
 20
4.3611000000000004
 30
0.0
 10
-45.440400000000004
 20
3.5849000000000002
 30
0.0
 10
-45.440400000000004
 20
3.5849000000000002
 30
0.0
 10
-45.017099999999999
 20
1.7505000000000002
 30
0.0
 10
-45.334600000000002
 20
-0.1545
 30
0.0
 10
-45.193400000000004
 20
-1.9889000000000001
 30
0.0
 10
-45.193400000000004
 20
-1.9889000000000001
 30
0.0
 10
-44.487900000000003
 20
-3.4353000000000002
 30
0.0
 10
-44.170400000000001
 20
-4.9876000000000005
 30
0.0
 10
-43.676500000000004
 20
-6.5045000000000002
 30
0.0
 10
-43.676500000000004
 20
-6.5045000000000002
 30
0.0
 10
-43.0062
 20
-8.5859000000000005
 30
0.0
 10
-42.582900000000002
 20
-11.196400000000001
 30
0.0
 10
-44.170400000000001
 20
-12.9251
 30
0.0
 10
-44.170400000000001
 20
-12.9251
 30
0.0
 10
-43.711800000000004
 20
-14.018700000000001
 30
0.0
 10
-43.605900000000005
 20
-15.1828
 30
0.0
 10
-43.2532
 20
-16.311700000000002
 30
0.0
 10
-43.2532
 20
-16.311700000000002
 30
0.0
 10
-41.736200000000004
 20
-20.721400000000003
 30
0.0
 10
-39.125700000000002
 20
-24.778400000000001
 30
0.0
 10
-38.420100000000005
 20
-29.435100000000002
 30
0.0
 10
-38.420100000000005
 20
-29.435100000000002
 30
0.0
 10
-37.502900000000004
 20
-31.198900000000002
 30
0.0
 10
-36.162300000000002
 20
-32.7864
 30
0.0
 10
-35.562600000000003
 20
-34.726700000000001
 30
0.0
 10
-35.562600000000003
 20
-34.726700000000001
 30
0.0
 10
-33.975100000000005
 20
-38.2898
 30
0.0
 10
-33.5871
 20
-42.276200000000003
 30
0.0
 10
-32.281800000000004
 20
-45.945100000000004
 30
0.0
 10
-32.281800000000004
 20
-45.945100000000004
 30
0.0
 10
-32.070100000000004
 20
-46.509500000000003
 30
0.0
 10
-32.034800000000004
 20
-47.2151
 30
0.0
 10
-32.634599999999999
 20
-47.532600000000002
 30
0.0
 10
-32.634599999999999
 20
-47.532600000000002
 30
0.0
 10
-34.151499999999999
 20
-47.744199999999999
 30
0.0
 10
-35.597900000000003
 20
-46.9681
 30
0.0
 10
-36.832599999999999
 20
-46.2273
 30
0.0
 10
-36.832599999999999
 20
-46.2273
 30
0.0
 10
-38.667100000000005
 20
-43.7226
 30
0.0
 10
-38.067300000000003
 20
-40.512300000000003
 30
0.0
 10
-38.843400000000003
 20
-37.654800000000002
 30
0.0
 10
-38.843400000000003
 20
-37.654800000000002
 30
0.0
 10
-39.055100000000003
 20
-36.137799999999999
 30
0.0
 10
-40.5015
 20
-35.3264
 30
0.0
 10
-41.454000000000001
 20
-34.232800000000005
 30
0.0
 10
-41.454000000000001
 20
-34.232800000000005
 30
0.0
 10
-43.2532
 20
-32.363100000000003
 30
0.0
 10
-43.747100000000003
 20
-29.682000000000002
 30
0.0
 10
-44.276200000000003
 20
-27.212600000000002
 30
0.0
 10
-44.276200000000003
 20
-27.212600000000002
 30
0.0
 10
-44.629000000000005
 20
-25.942600000000002
 30
0.0
 10
-44.417300000000004
 20
-24.566700000000001
 30
0.0
 10
-44.9818
 20
-23.332000000000001
 30
0.0
 10
-44.9818
 20
-23.332000000000001
 30
0.0
 10
-45.616800000000005
 20
-22.555900000000001
 30
0.0
 10
-46.428200000000004
 20
-21.956200000000003
 30
0.0
 10
-47.063200000000002
 20
-21.180099999999999
 30
0.0
 10
-47.063200000000002
 20
-21.180099999999999
 30
0.0
 10
-48.685900000000004
 20
-18.6753
 30
0.0
 10
-49.356200000000001
 20
-15.712000000000002
 30
0.0
 10
-49.497300000000003
 20
-12.783900000000001
 30
0.0
 10
-49.497300000000003
 20
-12.783900000000001
 30
0.0
 10
-52.249000000000002
 20
-10.2087
 30
0.0
 10
-53.589600000000004
 20
-6.5398000000000005
 30
0.0
 10
-54.189300000000003
 20
-2.9062000000000001
 30
0.0
 10
-54.189300000000003
 20
-2.9062000000000001
 30
0.0
 10
-54.6479
 20
-1.5656000000000001
 30
0.0
 10
-54.154000000000003
 20
-0.0839
 30
0.0
 10
-54.6126
 20
1.2919
 30
0.0
 10
-54.6126
 20
1.2919
 30
0.0
 10
-54.753700000000002
 20
1.7505000000000002
 30
0.0
 10
-54.753700000000002
 20
2.2091000000000003
 30
0.0
 10
-54.789000000000001
 20
2.7030000000000003
 30
0.0
 10
-54.789000000000001
 20
2.7030000000000003
 30
0.0
 10
-52.566500000000005
 20
3.4438
 30
0.0
 10
-53.025100000000002
 20
6.1955
 30
0.0
 10
-51.9315
 20
7.8183000000000007
 30
0.0
  0
SPLINE
  5
2D
100
AcDbEntity
  8
LAYER_1
100
AcDbSpline
210
0.0
220
0.0
230
1.0
 70
     1
 71
     3
 72
    68
 73
    64
 74
     0
 42
0.0000000001
 43
0.0000000001
 40
0.0
 40
0.0
 40
0.0
 40
0.0
 40
0.0625
 40
0.0625
 40
0.0625
 40
0.0625
 40
0.125
 40
0.125
 40
0.125
 40
0.125
 40
0.1875
 40
0.1875
 40
0.1875
 40
0.1875
 40
0.25
 40
0.25
 40
0.25
 40
0.25
 40
0.3125
 40
0.3125
 40
0.3125
 40
0.3125
 40
0.375
 40
0.375
 40
0.375
 40
0.375
 40
0.4375
 40
0.4375
 40
0.4375
 40
0.4375
 40
0.5
 40
0.5
 40
0.5
 40
0.5
 40
0.5625
 40
0.5625
 40
0.5625
 40
0.5625
 40
0.625
 40
0.625
 40
0.625
 40
0.625
 40
0.6875
 40
0.6875
 40
0.6875
 40
0.6875
 40
0.75
 40
0.75
 40
0.75
 40
0.75
 40
0.8125
 40
0.8125
 40
0.8125
 40
0.8125
 40
0.875
 40
0.875
 40
0.875
 40
0.875
 40
0.9375
 40
0.9375
 40
0.9375
 40
0.9375
 40
1.0
 40
1.0
 40
1.0
 40
1.0
 10
15.519600000000001
 20
6.3719000000000001
 30
0.0
 10
16.260400000000001
 20
6.3719000000000001
 30
0.0
 10
16.966000000000001
 20
6.4777000000000005
 30
0.0
 10
17.671600000000002
 20
6.6894
 30
0.0
 10
17.671600000000002
 20
6.6894
 30
0.0
 10
18.659300000000002
 20
6.9716000000000005
 30
0.0
 10
19.611800000000002
 20
6.4072000000000005
 30
0.0
 10
20.634900000000002
 20
6.3366000000000007
 30
0.0
 10
20.634900000000002
 20
6.3366000000000007
 30
0.0
 10
21.199300000000001
 20
5.1019000000000005
 30
0.0
 10
21.869600000000002
 20
3.6908000000000003
 30
0.0
 10
23.2102
 20
3.1616
 30
0.0
 10
23.2102
 20
3.1616
 30
0.0
 10
23.033799999999999
 20
-3.6117000000000004
 30
0.0
 10
20.4938
 20
-9.9969999999999999
 30
0.0
 10
19.470700000000001
 20
-16.6645
 30
0.0
 10
19.470700000000001
 20
-16.6645
 30
0.0
 10
19.2591
 20
-17.511200000000002
 30
0.0
 10
19.329599999999999
 20
-18.3931
 30
0.0
 10
19.329599999999999
 20
-19.275100000000002
 30
0.0
 10
19.329599999999999
 20
-19.275100000000002
 30
0.0
 10
17.7774
 20
-19.804200000000002
 30
0.0
 10
15.942900000000002
 20
-20.262800000000002
 30
0.0
 10
15.096300000000001
 20
-21.815100000000001
 30
0.0
 10
15.096300000000001
 20
-21.815100000000001
 30
0.0
 10
13.1913
 20
-24.319800000000001
 30
0.0
 10
13.261800000000001
 20
-27.918100000000003
 30
0.0
 10
10.898200000000001
 20
-30.0701
 30
0.0
 10
10.898200000000001
 20
-30.0701
 30
0.0
 10
11.004100000000001
 20
-32.574800000000003
 30
0.0
 10
10.157400000000001
 20
-35.5381
 30
0.0
 10
7.7232000000000003
 20
-36.702300000000001
 30
0.0
 10
7.7232000000000003
 20
-36.702300000000001
 30
0.0
 10
6.8766000000000007
 20
-36.173100000000005
 30
0.0
 10
5.7124000000000006
 20
-35.926200000000001
 30
0.0
 10
5.5712999999999999
 20
-34.7973
 30
0.0
 10
5.5712999999999999
 20
-34.7973
 30
0.0
 10
5.3949000000000007
 20
-32.645299999999999
 30
0.0
 10
7.3352000000000004
 20
-30.987300000000001
 30
0.0
 10
7.3352000000000004
 20
-28.870600000000003
 30
0.0
 10
7.3352000000000004
 20
-28.870600000000003
 30
0.0
 10
7.1941000000000006
 20
-27.283100000000001
 30
0.0
 10
8.3229000000000006
 20
-25.977800000000002
 30
0.0
 10
8.5346000000000011
 20
-24.425600000000003
 30
0.0
 10
8.5346000000000011
 20
-24.425600000000003
 30
0.0
 10
9.0285000000000011
 20
-21.956200000000003
 30
0.0
 10
9.5929000000000002
 20
-19.4514
 30
0.0
 10
9.4870999999999999
 20
-16.9114
 30
0.0
 10
9.4870999999999999
 20
-16.9114
 30
0.0
 10
10.016300000000001
 20
-15.394500000000001
 30
0.0
 10
9.5929000000000002
 20
-13.736400000000001
 30
0.0
 10
10.0868
 20
-12.184200000000001
 30
0.0
 10
10.0868
 20
-12.184200000000001
 30
0.0
 10
10.157400000000001
 20
-10.385100000000001
 30
0.0
 10
10.6866
 20
-8.6563999999999997
 30
0.0
 10
11.180400000000001
 20
-6.9278000000000004
 30
0.0
 10
11.180400000000001
 20
-6.9278000000000004
 30
0.0
 10
11.674300000000001
 20
-5.1638999999999999
 30
0.0
 10
13.226600000000001
 20
-3.7176
 30
0.0
 10
13.014900000000001
 20
-1.742
 30
0.0
 10
13.014900000000001
 20
-1.742
 30
0.0
 10
13.4382
 20
1.0802
 30
0.0
 10
15.1668
 20
3.5144000000000002
 30
0.0
 10
15.519600000000001
 20
6.3719000000000001
 30
0.0
  0
SPLINE
  5
2E
100
AcDbEntity
  8
LAYER_1
100
AcDbSpline
210
0.0
220
0.0
230
1.0
 70
     1
 71
     3
 72
    84
 73
    80
 74
     0
 42
0.0000000001
 43
0.0000000001
 40
0.0
 40
0.0
 40
0.0
 40
0.0
 40
0.05
 40
0.05
 40
0.05
 40
0.05
 40
0.1
 40
0.1
 40
0.1
 40
0.1
 40
0.15
 40
0.15
 40
0.15
 40
0.15
 40
0.2
 40
0.2
 40
0.2
 40
0.2
 40
0.25
 40
0.25
 40
0.25
 40
0.25
 40
0.3
 40
0.3
 40
0.3
 40
0.3
 40
0.35
 40
0.35
 40
0.35
 40
0.35
 40
0.4
 40
0.4
 40
0.4
 40
0.4
 40
0.45
 40
0.45
 40
0.45
 40
0.45
 40
0.4999999999999999
 40
0.4999999999999999
 40
0.4999999999999999
 40
0.4999999999999999
 40
0.5499999999999999
 40
0.5499999999999999
 40
0.5499999999999999
 40
0.5499999999999999
 40
0.6
 40
0.6
 40
0.6
 40
0.6
 40
0.65
 40
0.65
 40
0.65
 40
0.65
 40
0.7000000000000001
 40
0.7000000000000001
 40
0.7000000000000001
 40
0.7000000000000001
 40
0.7500000000000001
 40
0.7500000000000001
 40
0.7500000000000001
 40
0.7500000000000001
 40
0.8000000000000002
 40
0.8000000000000002
 40
0.8000000000000002
 40
0.8000000000000002
 40
0.8500000000000002
 40
0.8500000000000002
 40
0.8500000000000002
 40
0.8500000000000002
 40
0.9000000000000002
 40
0.9000000000000002
 40
0.9000000000000002
 40
0.9000000000000002
 40
0.9500000000000003
 40
0.9500000000000003
 40
0.9500000000000003
 40
0.9500000000000003
 40
1.0
 40
1.0
 40
1.0
 40
1.0
 10
-68.159300000000002
 20
-3.1178000000000003
 30
0.0
 10
-66.995100000000008
 20
-0.9306000000000001
 30
0.0
 10
-63.432100000000005
 20
-0.7189
 30
0.0
 10
-61.915100000000002
 20
-2.5181
 30
0.0
 10
-61.915100000000002
 20
-2.5181
 30
0.0
 10
-61.280100000000004
 20
-5.3756000000000004
 30
0.0
 10
-60.750900000000001
 20
-8.2331000000000003
 30
0.0
 10
-60.680400000000006
 20
-11.161200000000001
 30
0.0
 10
-60.680400000000006
 20
-11.161200000000001
 30
0.0
 10
-60.151200000000003
 20
-12.607600000000001
 30
0.0
 10
-60.539300000000004
 20
-14.159800000000001
 30
0.0
 10
-60.327600000000004
 20
-15.641400000000001
 30
0.0
 10
-60.327600000000004
 20
-15.641400000000001
 30
0.0
 10
-59.480900000000005
 20
-16.558700000000002
 30
0.0
 10
-58.634300000000003
 20
-17.6876
 30
0.0
 10
-58.634300000000003
 20
-18.992800000000003
 30
0.0
 10
-58.634300000000003
 20
-18.992800000000003
 30
0.0
 10
-58.457900000000002
 20
-20.4039
 30
0.0
 10
-58.069800000000001
 20
-21.815100000000001
 30
0.0
 10
-57.470100000000002
 20
-23.1203
 30
0.0
 10
-57.470100000000002
 20
-23.1203
 30
0.0
 10
-57.046800000000005
 20
-23.6495
 30
0.0
 10
-56.305900000000001
 20
-23.790600000000001
 30
0.0
 10
-55.741500000000002
 20
-24.1081
 30
0.0
 10
-55.741500000000002
 20
-24.1081
 30
0.0
 10
-55.988400000000006
 20
-25.237000000000002
 30
0.0
 10
-56.623400000000004
 20
-26.260100000000001
 30
0.0
 10
-56.517600000000002
 20
-27.459500000000002
 30
0.0
 10
-56.517600000000002
 20
-27.459500000000002
 30
0.0
 10
-56.341200000000001
 20
-30.211200000000002
 30
0.0
 10
-54.577300000000001
 20
-32.433700000000002
 30
0.0
 10
-53.342600000000004
 20
-34.7973
 30
0.0
 10
-53.342600000000004
 20
-34.7973
 30
0.0
 10
-53.942300000000003
 20
-35.820300000000003
 30
0.0
 10
-53.765900000000002
 20
-37.055100000000003
 30
0.0
 10
-53.413200000000003
 20
-38.113399999999999
 30
0.0
 10
-53.413200000000003
 20
-38.113399999999999
 30
0.0
 10
-52.884
 20
-40.477000000000004
 30
0.0
 10
-51.402300000000004
 20
-42.417300000000004
 30
0.0
 10
-50.238199999999999
 20
-44.4634
 30
0.0
 10
-50.238199999999999
 20
-44.4634
 30
0.0
 10
-49.391500000000001
 20
-45.627600000000001
 30
0.0
 10
-49.144600000000004
 20
-47.073900000000002
 30
0.0
 10
-48.474299999999999
 20
-48.343900000000005
 30
0.0
 10
-48.474299999999999
 20
-48.343900000000005
 30
0.0
 10
-46.992600000000003
 20
-50.4253
 30
0.0
 10
-47.345400000000005
 20
-53.1417
 30
0.0
 10
-47.380700000000004
 20
-55.575900000000004
 30
0.0
 10
-47.380700000000004
 20
-55.575900000000004
 30
0.0
 10
-47.733400000000003
 20
-56.210900000000002
 30
0.0
 10
-48.474299999999999
 20
-56.034500000000001
 30
0.0
 10
-49.074000000000005
 20
-56.034500000000001
 30
0.0
 10
-49.074000000000005
 20
-56.034500000000001
 30
0.0
 10
-50.061800000000005
 20
-56.034500000000001
 30
0.0
 10
-50.978999999999999
 20
-55.046700000000001
 30
0.0
 10
-51.9315
 20
-55.611200000000004
 30
0.0
 10
-51.9315
 20
-55.611200000000004
 30
0.0
 10
-51.472900000000003
 20
-53.423900000000003
 30
0.0
 10
-53.6248
 20
-52.259800000000006
 30
0.0
 10
-54.824300000000001
 20
-50.813400000000001
 30
0.0
 10
-54.824300000000001
 20
-50.813400000000001
 30
0.0
 10
-57.258400000000002
 20
-45.803899999999999
 30
0.0
 10
-58.175700000000006
 20
-39.7714
 30
0.0
 10
-62.409000000000006
 20
-35.820300000000003
 30
0.0
 10
-62.409000000000006
 20
-35.820300000000003
 30
0.0
 10
-63.855400000000003
 20
-32.257300000000001
 30
0.0
 10
-65.513400000000004
 20
-28.8001
 30
0.0
 10
-66.465900000000005
 20
-25.060600000000001
 30
0.0
 10
-66.465900000000005
 20
-25.060600000000001
 30
0.0
 10
-67.700699999999998
 20
-21.074200000000001
 30
0.0
 10
-68.476799999999997
 20
-16.9467
 30
0.0
 10
-69.005899999999997
 20
-12.783900000000001
 30
0.0
 10
-69.005899999999997
 20
-12.783900000000001
 30
0.0
 10
-69.429299999999998
 20
-11.4434
 30
0.0
 10
-68.970700000000008
 20
-9.9969999999999999
 30
0.0
 10
-69.499800000000008
 20
-8.6917000000000009
 30
0.0
 10
-69.499800000000008
 20
-8.6917000000000009
 30
0.0
 10
-69.7821
 20
-6.7514000000000003
 30
0.0
 10
-69.394000000000005
 20
-4.6701000000000006
 30
0.0
 10
-68.159300000000002
 20
-3.1178000000000003
 30
0.0
  0
SPLINE
  5
2F
100
AcDbEntity
  8
LAYER_1
100
AcDbSpline
210
0.0
220
0.0
230
1.0
 70
     1
 71
     3
 72
    88
 73
    84
 74
     0
 42
0.0000000001
 43
0.0000000001
 40
0.0
 40
0.0
 40
0.0
 40
0.0
 40
0.0476190476190476
 40
0.0476190476190476
 40
0.0476190476190476
 40
0.0476190476190476
 40
0.0952380952380952
 40
0.0952380952380952
 40
0.0952380952380952
 40
0.0952380952380952
 40
0.1428571428571429
 40
0.1428571428571429
 40
0.1428571428571429
 40
0.1428571428571429
 40
0.1904761904761905
 40
0.1904761904761905
 40
0.1904761904761905
 40
0.1904761904761905
 40
0.2380952380952381
 40
0.2380952380952381
 40
0.2380952380952381
 40
0.2380952380952381
 40
0.2857142857142857
 40
0.2857142857142857
 40
0.2857142857142857
 40
0.2857142857142857
 40
0.3333333333333333
 40
0.3333333333333333
 40
0.3333333333333333
 40
0.3333333333333333
 40
0.3809523809523809
 40
0.3809523809523809
 40
0.3809523809523809
 40
0.3809523809523809
 40
0.4285714285714286
 40
0.4285714285714286
 40
0.4285714285714286
 40
0.4285714285714286
 40
0.4761904761904762
 40
0.4761904761904762
 40
0.4761904761904762
 40
0.4761904761904762
 40
0.5238095238095237
 40
0.5238095238095237
 40
0.5238095238095237
 40
0.5238095238095237
 40
0.5714285714285714
 40
0.5714285714285714
 40
0.5714285714285714
 40
0.5714285714285714
 40
0.6190476190476191
 40
0.6190476190476191
 40
0.6190476190476191
 40
0.6190476190476191
 40
0.6666666666666667
 40
0.6666666666666667
 40
0.6666666666666667
 40
0.6666666666666667
 40
0.7142857142857144
 40
0.7142857142857144
 40
0.7142857142857144
 40
0.7142857142857144
 40
0.7619047619047621
 40
0.7619047619047621
 40
0.7619047619047621
 40
0.7619047619047621
 40
0.8095238095238098
 40
0.8095238095238098
 40
0.8095238095238098
 40
0.8095238095238098
 40
0.8571428571428574
 40
0.8571428571428574
 40
0.8571428571428574
 40
0.8571428571428574
 40
0.9047619047619051
 40
0.9047619047619051
 40
0.9047619047619051
 40
0.9047619047619051
 40
0.9523809523809528
 40
0.9523809523809528
 40
0.9523809523809528
 40
0.9523809523809528
 40
1.0
 40
1.0
 40
1.0
 40
1.0
 10
31.4299
 20
-1.6362000000000001
 30
0.0
 10
32.135400000000004
 20
-1.6362000000000001
 30
0.0
 10
32.629300000000001
 20
-2.0594999999999999
 30
0.0
 10
33.087900000000005
 20
-2.5181
 30
0.0
 10
33.087900000000005
 20
-2.5181
 30
0.0
 10
33.158500000000004
 20
-4.5994999999999999
 30
0.0
 10
32.841000000000001
 20
-6.7514000000000003
 30
0.0
 10
33.4054
 20
-8.797600000000001
 30
0.0
 10
33.4054
 20
-8.797600000000001
 30
0.0
 10
33.546600000000005
 20
-11.655100000000001
 30
0.0
 10
33.511299999999999
 20
-15.147600000000001
 30
0.0
 10
30.971300000000003
 20
-17.017300000000002
 30
0.0
 10
30.971300000000003
 20
-17.017300000000002
 30
0.0
 10
31.4299
 20
-18.040300000000002
 30
0.0
 10
31.359300000000001
 20
-19.239800000000002
 30
0.0
 10
31.288800000000002
 20
-20.333400000000001
 30
0.0
 10
31.288800000000002
 20
-20.333400000000001
 30
0.0
 10
30.759600000000002
 20
-22.273700000000002
 30
0.0
 10
29.4191
 20
-23.825900000000001
 30
0.0
 10
28.078500000000002
 20
-25.307600000000001
 30
0.0
 10
28.078500000000002
 20
-25.307600000000001
 30
0.0
 10
26.7027
 20
-27.3889
 30
0.0
 10
24.339100000000002
 20
-28.729500000000002
 30
0.0
 10
23.316000000000003
 20
-31.0931
 30
0.0
 10
23.316000000000003
 20
-31.0931
 30
0.0
 10
22.575200000000002
 20
-33.0687
 30
0.0
 10
21.587400000000002
 20
-34.973700000000001
 30
0.0
 10
20.599600000000002
 20
-36.843400000000003
 30
0.0
 10
20.599600000000002
 20
-36.843400000000003
 30
0.0
 10
19.929300000000001
 20
-37.831200000000003
 30
0.0
 10
18.694600000000001
 20
-38.430900000000001
 30
0.0
 10
18.482900000000001
 20
-39.700900000000004
 30
0.0
 10
18.482900000000001
 20
-39.700900000000004
 30
0.0
 10
16.648500000000002
 20
-40.9709
 30
0.0
 10
15.343200000000001
 20
-42.911200000000001
 30
0.0
 10
13.4382
 20
-44.145900000000005
 30
0.0
 10
13.4382
 20
-44.145900000000005
 30
0.0
 10
11.9566
 20
-45.733400000000003
 30
0.0
 10
10.1221
 20
-46.897600000000004
 30
0.0
 10
8.6403999999999996
 20
-48.520299999999999
 30
0.0
 10
8.6403999999999996
 20
-48.520299999999999
 30
0.0
 10
6.4885000000000002
 20
-49.8962
 30
0.0
 10
5.0421000000000005
 20
-52.048100000000005
 30
0.0
 10
3.3488000000000002
 20
-53.9178
 30
0.0
 10
3.3488000000000002
 20
-53.9178
 30
0.0
 10
2.2552000000000003
 20
-53.9178
 30
0.0
 10
1.1616
 20
-53.9178
 30
0.0
 10
0.0679
 20
-53.9178
 30
0.0
 10
0.0679
 20
-53.9178
 30
0.0
 10
-0.2143
 20
-53.635600000000004
 30
0.0
 10
-0.4965
 20
-53.353400000000001
 30
0.0
 10
-0.7787000000000001
 20
-53.071200000000005
 30
0.0
 10
-0.7787000000000001
 20
-53.071200000000005
 30
0.0
 10
-1.0609
 20
-50.566400000000002
 30
0.0
 10
0.8088000000000001
 20
-48.555600000000005
 30
0.0
 10
2.2904
 20
-46.756399999999999
 30
0.0
 10
2.2904
 20
-46.756399999999999
 30
0.0
 10
5.4654000000000007
 20
-43.863700000000001
 30
0.0
 10
9.2754000000000012
 20
-41.429500000000004
 30
0.0
 10
11.5685
 20
-37.690100000000001
 30
0.0
 10
11.5685
 20
-37.690100000000001
 30
0.0
 10
12.4152
 20
-35.714500000000001
 30
0.0
 10
13.896800000000001
 20
-34.162300000000002
 30
0.0
 10
15.025700000000001
 20
-32.327800000000003
 30
0.0
 10
15.025700000000001
 20
-32.327800000000003
 30
0.0
 10
18.165400000000002
 20
-28.023900000000001
 30
0.0
 10
20.917100000000001
 20
-23.437800000000003
 30
0.0
 10
24.056800000000003
 20
-19.133900000000001
 30
0.0
 10
24.056800000000003
 20
-19.133900000000001
 30
0.0
 10
24.9741
 20
-18.287300000000002
 30
0.0
 10
24.4802
 20
-16.981999999999999
 30
0.0
 10
24.656600000000001
 20
-15.888400000000001
 30
0.0
 10
24.656600000000001
 20
-15.888400000000001
 30
0.0
 10
25.185700000000001
 20
-14.0892
 30
0.0
 10
25.856000000000002
 20
-12.290100000000001
 30
0.0
 10
26.9496
 20
-10.7378
 30
0.0
 10
26.9496
 20
-10.7378
 30
0.0
 10
27.9727
 20
-8.8681000000000001
 30
0.0
 10
29.1721
 20
-6.8926000000000007
 30
0.0
 10
28.854600000000001
 20
-4.6701000000000006
 30
0.0
 10
28.854600000000001
 20
-4.6701000000000006
 30
0.0
 10
29.842400000000001
 20
-3.7528000000000001
 30
0.0
 10
30.865400000000001
 20
-2.8356000000000003
 30
0.0
 10
31.4299
 20
-1.6362000000000001
 30
0.0
  0
SPLINE
  5
30
100
AcDbEntity
  8
LAYER_1
100
AcDbSpline
210
0.0
220
0.0
230
1.0
 70
     1
 71
     3
 72
    52
 73
    48
 74
     0
 42
0.0000000001
 43
0.0000000001
 40
0.0
 40
0.0
 40
0.0
 40
0.0
 40
0.0833333333333333
 40
0.0833333333333333
 40
0.0833333333333333
 40
0.0833333333333333
 40
0.1666666666666667
 40
0.1666666666666667
 40
0.1666666666666667
 40
0.1666666666666667
 40
0.25
 40
0.25
 40
0.25
 40
0.25
 40
0.3333333333333333
 40
0.3333333333333333
 40
0.3333333333333333
 40
0.3333333333333333
 40
0.4166666666666666
 40
0.4166666666666666
 40
0.4166666666666666
 40
0.4166666666666666
 40
0.4999999999999999
 40
0.4999999999999999
 40
0.4999999999999999
 40
0.4999999999999999
 40
0.5833333333333333
 40
0.5833333333333333
 40
0.5833333333333333
 40
0.5833333333333333
 40
0.6666666666666666
 40
0.6666666666666666
 40
0.6666666666666666
 40
0.6666666666666666
 40
0.75
 40
0.75
 40
0.75
 40
0.75
 40
0.8333333333333334
 40
0.8333333333333334
 40
0.8333333333333334
 40
0.8333333333333334
 40
0.9166666666666667
 40
0.9166666666666667
 40
0.9166666666666667
 40
0.9166666666666667
 40
1.0
 40
1.0
 40
1.0
 40
1.0
 10
41.307700000000004
 20
-13.1014
 30
0.0
 10
42.789300000000004
 20
-10.914200000000001
 30
0.0
 10
44.8354
 20
-8.8681000000000001
 30
0.0
 10
47.5518
 20
-8.4448000000000008
 30
0.0
 10
47.5518
 20
-8.4448000000000008
 30
0.0
 10
48.751300000000001
 20
-10.7026
 30
0.0
 10
49.421600000000005
 20
-13.418900000000001
 30
0.0
 10
48.680700000000002
 20
-15.888400000000001
 30
0.0
 10
48.680700000000002
 20
-15.888400000000001
 30
0.0
 10
48.469100000000005
 20
-17.969799999999999
 30
0.0
 10
48.433800000000005
 20
-20.192299999999999
 30
0.0
 10
49.597900000000003
 20
-22.026700000000002
 30
0.0
 10
49.597900000000003
 20
-22.026700000000002
 30
0.0
 10
48.5396
 20
-24.566700000000001
 30
0.0
 10
46.493500000000004
 20
-26.6128
 30
0.0
 10
44.0946
 20
-27.8828
 30
0.0
 10
44.0946
 20
-27.8828
 30
0.0
 10
41.131300000000003
 20
-29.964200000000002
 30
0.0
 10
39.049900000000001
 20
-32.962800000000001
 30
0.0
 10
36.862700000000004
 20
-35.820300000000003
 30
0.0
 10
36.862700000000004
 20
-35.820300000000003
 30
0.0
 10
36.192399999999999
 20
-36.5259
 30
0.0
 10
35.451599999999999
 20
-37.231400000000001
 30
0.0
 10
34.922400000000003
 20
-38.113399999999999
 30
0.0
 10
34.922400000000003
 20
-38.113399999999999
 30
0.0
 10
34.040399999999998
 20
-39.101199999999999
 30
0.0
 10
32.629300000000001
 20
-38.501400000000004
 30
0.0
 10
31.535700000000002
 20
-38.960100000000004
 30
0.0
 10
31.535700000000002
 20
-38.960100000000004
 30
0.0
 10
29.877700000000001
 20
-39.489200000000004
 30
0.0
 10
28.149100000000001
 20
-40.829799999999999
 30
0.0
 10
26.4557
 20
-39.736200000000004
 30
0.0
 10
26.4557
 20
-39.736200000000004
 30
0.0
 10
25.856000000000002
 20
-38.607300000000002
 30
0.0
 10
26.067700000000002
 20
-37.302
 30
0.0
 10
26.032400000000003
 20
-36.067300000000003
 30
0.0
 10
26.032400000000003
 20
-36.067300000000003
 30
0.0
 10
27.761000000000003
 20
-34.197600000000001
 30
0.0
 10
30.054100000000002
 20
-32.715900000000005
 30
0.0
 10
30.971300000000003
 20
-30.281700000000001
 30
0.0
 10
30.971300000000003
 20
-30.281700000000001
 30
0.0
 10
33.370200000000004
 20
-25.730900000000002
 30
0.0
 10
37.744599999999998
 20
-22.273700000000002
 30
0.0
 10
38.944099999999999
 20
-17.087800000000001
 30
0.0
 10
38.944099999999999
 20
-17.087800000000001
 30
0.0
 10
39.120400000000004
 20
-15.465100000000001
 30
0.0
 10
40.460999999999999
 20
-14.371400000000001
 30
0.0
 10
41.307700000000004
 20
-13.1014
 30
0.0
  0
SPLINE
  5
31
100
AcDbEntity
  8
LAYER_1
100
AcDbSpline
210
0.0
220
0.0
230
1.0
 70
     1
 71
     3
 72
    28
 73
    24
 74
     0
 42
0.0000000001
 43
0.0000000001
 40
0.0
 40
0.0
 40
0.0
 40
0.0
 40
0.1666666666666667
 40
0.1666666666666667
 40
0.1666666666666667
 40
0.1666666666666667
 40
0.3333333333333333
 40
0.3333333333333333
 40
0.3333333333333333
 40
0.3333333333333333
 40
0.5
 40
0.5
 40
0.5
 40
0.5
 40
0.6666666666666666
 40
0.6666666666666666
 40
0.6666666666666666
 40
0.6666666666666666
 40
0.8333333333333333
 40
0.8333333333333333
 40
0.8333333333333333
 40
0.8333333333333333
 40
1.0
 40
1.0
 40
1.0
 40
1.0
 10
-1.5196000000000001
 20
-28.517800000000001
 30
0.0
 10
-0.7787000000000001
 20
-28.023900000000001
 30
0.0
 10
0.1032
 20
-28.200300000000002
 30
0.0
 10
0.8793000000000001
 20
-28.165100000000002
 30
0.0
 10
0.8793000000000001
 20
-28.165100000000002
 30
0.0
 10
1.4085000000000001
 20
-29.152800000000003
 30
0.0
 10
2.2199
 20
-29.928900000000002
 30
0.0
 10
3.0313000000000003
 20
-30.740300000000001
 30
0.0
 10
3.0313000000000003
 20
-30.740300000000001
 30
0.0
 10
4.5129000000000001
 20
-32.222000000000001
 30
0.0
 10
3.9132000000000002
 20
-35.079500000000003
 30
0.0
 10
2.0435000000000003
 20
-35.926200000000001
 30
0.0
 10
2.0435000000000003
 20
-35.926200000000001
 30
0.0
 10
1.3732
 20
-35.7851
 30
0.0
 10
0.7029000000000001
 20
-35.608699999999999
 30
0.0
 10
0.0679
 20
-35.467600000000004
 30
0.0
 10
0.0679
 20
-35.467600000000004
 30
0.0
 10
-1.3784000000000001
 20
-34.515100000000004
 30
0.0
 10
-1.9429000000000001
 20
-32.892299999999999
 30
0.0
 10
-2.6837
 20
-31.445900000000002
 30
0.0
 10
-2.6837
 20
-31.445900000000002
 30
0.0
 10
-3.3540000000000001
 20
-30.387600000000003
 30
0.0
 10
-2.4721000000000002
 20
-29.047000000000001
 30
0.0
 10
-1.5196000000000001
 20
-28.517800000000001
 30
0.0
  0
SPLINE
  5
32
100
AcDbEntity
  8
LAYER_1
100
AcDbSpline
210
0.0
220
0.0
230
1.0
 70
     1
 71
     3
 72
   228
 73
   224
 74
     0
 42
0.0000000001
 43
0.0000000001
 40
0.0
 40
0.0
 40
0.0
 40
0.0
 40
0.0178571428571429
 40
0.0178571428571429
 40
0.0178571428571429
 40
0.0178571428571429
 40
0.0357142857142857
 40
0.0357142857142857
 40
0.0357142857142857
 40
0.0357142857142857
 40
0.0535714285714286
 40
0.0535714285714286
 40
0.0535714285714286
 40
0.0535714285714286
 40
0.0714285714285714
 40
0.0714285714285714
 40
0.0714285714285714
 40
0.0714285714285714
 40
0.0892857142857143
 40
0.0892857142857143
 40
0.0892857142857143
 40
0.0892857142857143
 40
0.1071428571428571
 40
0.1071428571428571
 40
0.1071428571428571
 40
0.1071428571428571
 40
0.125
 40
0.125
 40
0.125
 40
0.125
 40
0.1428571428571428
 40
0.1428571428571428
 40
0.1428571428571428
 40
0.1428571428571428
 40
0.1607142857142857
 40
0.1607142857142857
 40
0.1607142857142857
 40
0.1607142857142857
 40
0.1785714285714285
 40
0.1785714285714285
 40
0.1785714285714285
 40
0.1785714285714285
 40
0.1964285714285714
 40
0.1964285714285714
 40
0.1964285714285714
 40
0.1964285714285714
 40
0.2142857142857142
 40
0.2142857142857142
 40
0.2142857142857142
 40
0.2142857142857142
 40
0.2321428571428571
 40
0.2321428571428571
 40
0.2321428571428571
 40
0.2321428571428571
 40
0.2499999999999999
 40
0.2499999999999999
 40
0.2499999999999999
 40
0.2499999999999999
 40
0.2678571428571428
 40
0.2678571428571428
 40
0.2678571428571428
 40
0.2678571428571428
 40
0.2857142857142856
 40
0.2857142857142856
 40
0.2857142857142856
 40
0.2857142857142856
 40
0.3035714285714285
 40
0.3035714285714285
 40
0.3035714285714285
 40
0.3035714285714285
 40
0.3214285714285713
 40
0.3214285714285713
 40
0.3214285714285713
 40
0.3214285714285713
 40
0.3392857142857142
 40
0.3392857142857142
 40
0.3392857142857142
 40
0.3392857142857142
 40
0.357142857142857
 40
0.357142857142857
 40
0.357142857142857
 40
0.357142857142857
 40
0.3749999999999999
 40
0.3749999999999999
 40
0.3749999999999999
 40
0.3749999999999999
 40
0.3928571428571427
 40
0.3928571428571427
 40
0.3928571428571427
 40
0.3928571428571427
 40
0.4107142857142856
 40
0.4107142857142856
 40
0.4107142857142856
 40
0.4107142857142856
 40
0.4285714285714284
 40
0.4285714285714284
 40
0.4285714285714284
 40
0.4285714285714284
 40
0.4464285714285713
 40
0.4464285714285713
 40
0.4464285714285713
 40
0.4464285714285713
 40
0.4642857142857141
 40
0.4642857142857141
 40
0.4642857142857141
 40
0.4642857142857141
 40
0.482142857142857
 40
0.482142857142857
 40
0.482142857142857
 40
0.482142857142857
 40
0.4999999999999998
 40
0.4999999999999998
 40
0.4999999999999998
 40
0.4999999999999998
 40
0.5178571428571427
 40
0.5178571428571427
 40
0.5178571428571427
 40
0.5178571428571427
 40
0.5357142857142856
 40
0.5357142857142856
 40
0.5357142857142856
 40
0.5357142857142856
 40
0.5535714285714285
 40
0.5535714285714285
 40
0.5535714285714285
 40
0.5535714285714285
 40
0.5714285714285714
 40
0.5714285714285714
 40
0.5714285714285714
 40
0.5714285714285714
 40
0.5892857142857143
 40
0.5892857142857143
 40
0.5892857142857143
 40
0.5892857142857143
 40
0.6071428571428572
 40
0.6071428571428572
 40
0.6071428571428572
 40
0.6071428571428572
 40
0.6250000000000001
 40
0.6250000000000001
 40
0.6250000000000001
 40
0.6250000000000001
 40
0.642857142857143
 40
0.642857142857143
 40
0.642857142857143
 40
0.642857142857143
 40
0.6607142857142859
 40
0.6607142857142859
 40
0.6607142857142859
 40
0.6607142857142859
 40
0.6785714285714288
 40
0.6785714285714288
 40
0.6785714285714288
 40
0.6785714285714288
 40
0.6964285714285717
 40
0.6964285714285717
 40
0.6964285714285717
 40
0.6964285714285717
 40
0.7142857142857146
 40
0.7142857142857146
 40
0.7142857142857146
 40
0.7142857142857146
 40
0.7321428571428575
 40
0.7321428571428575
 40
0.7321428571428575
 40
0.7321428571428575
 40
0.7500000000000004
 40
0.7500000000000004
 40
0.7500000000000004
 40
0.7500000000000004
 40
0.7678571428571434
 40
0.7678571428571434
 40
0.7678571428571434
 40
0.7678571428571434
 40
0.7857142857142863
 40
0.7857142857142863
 40
0.7857142857142863
 40
0.7857142857142863
 40
0.8035714285714292
 40
0.8035714285714292
 40
0.8035714285714292
 40
0.8035714285714292
 40
0.8214285714285721
 40
0.8214285714285721
 40
0.8214285714285721
 40
0.8214285714285721
 40
0.839285714285715
 40
0.839285714285715
 40
0.839285714285715
 40
0.839285714285715
 40
0.8571428571428579
 40
0.8571428571428579
 40
0.8571428571428579
 40
0.8571428571428579
 40
0.8750000000000008
 40
0.8750000000000008
 40
0.8750000000000008
 40
0.8750000000000008
 40
0.8928571428571437
 40
0.8928571428571437
 40
0.8928571428571437
 40
0.8928571428571437
 40
0.9107142857142866
 40
0.9107142857142866
 40
0.9107142857142866
 40
0.9107142857142866
 40
0.9285714285714295
 40
0.9285714285714295
 40
0.9285714285714295
 40
0.9285714285714295
 40
0.9464285714285724
 40
0.9464285714285724
 40
0.9464285714285724
 40
0.9464285714285724
 40
0.9642857142857153
 40
0.9642857142857153
 40
0.9642857142857153
 40
0.9642857142857153
 40
0.9821428571428582
 40
0.9821428571428582
 40
0.9821428571428582
 40
0.9821428571428582
 40
1.0
 40
1.0
 40
1.0
 40
1.0
 10
-82.552599999999998
 20
-51.166200000000003
 30
0.0
 10
-81.600099999999998
 20
-50.919200000000004
 30
0.0
 10
-80.647599999999997
 20
-50.742800000000003
 30
0.0
 10
-79.730400000000003
 20
-50.354800000000004
 30
0.0
 10
-79.730400000000003
 20
-50.354800000000004
 30
0.0
 10
-78.6721
 20
-50.6723
 30
0.0
 10
-78.389800000000008
 20
-51.942300000000003
 30
0.0
 10
-77.296199999999999
 20
-52.118700000000004
 30
0.0
 10
-77.296199999999999
 20
-52.118700000000004
 30
0.0
 10
-74.932600000000008
 20
-52.718400000000003
 30
0.0
 10
-72.498400000000004
 20
-53.071200000000005
 30
0.0
 10
-70.205399999999997
 20
-53.847300000000004
 30
0.0
 10
-70.205399999999997
 20
-53.847300000000004
 30
0.0
 10
-68.864800000000002
 20
-53.988400000000006
 30
0.0
 10
-67.594800000000006
 20
-54.8703
 30
0.0
 10
-67.312600000000003
 20
-56.246200000000002
 30
0.0
 10
-67.312600000000003
 20
-56.246200000000002
 30
0.0
 10
-67.171500000000009
 20
-56.916400000000003
 30
0.0
 10
-66.360100000000003
 20
-56.669499999999999
 30
0.0
 10
-65.866200000000006
 20
-56.775300000000001
 30
0.0
 10
-65.866200000000006
 20
-56.775300000000001
 30
0.0
 10
-65.654600000000002
 20
-57.198700000000002
 30
0.0
 10
-65.407600000000002
 20
-57.5867
 30
0.0
 10
-65.090100000000007
 20
-57.904200000000003
 30
0.0
 10
-65.090100000000007
 20
-57.904200000000003
 30
0.0
 10
-63.044000000000004
 20
-59.950300000000006
 30
0.0
 10
-60.927300000000002
 20
-61.961200000000005
 30
0.0
 10
-58.916500000000006
 20
-64.077799999999996
 30
0.0
 10
-58.916500000000006
 20
-64.077799999999996
 30
0.0
 10
-58.422600000000003
 20
-64.995100000000008
 30
0.0
 10
-58.175700000000006
 20
-66.053399999999996
 30
0.0
 10
-57.505400000000002
 20
-66.900100000000009
 30
0.0
 10
-57.505400000000002
 20
-66.900100000000009
 30
0.0
 10
-57.082100000000004
 20
-67.676200000000009
 30
0.0
 10
-56.3765
 20
-68.452300000000008
 30
0.0
 10
-56.517600000000002
 20
-69.404800000000009
 30
0.0
 10
-56.517600000000002
 20
-69.404800000000009
 30
0.0
 10
-56.552900000000001
 20
-69.898700000000005
 30
0.0
 10
-56.870400000000004
 20
-70.322000000000003
 30
0.0
 10
-56.799800000000005
 20
-70.815899999999999
 30
0.0
 10
-56.799800000000005
 20
-70.815899999999999
 30
0.0
 10
-56.341200000000001
 20
-72.756200000000007
 30
0.0
 10
-56.023700000000005
 20
-74.76700000000001
 30
0.0
 10
-55.706200000000003
 20
-76.74260000000001
 30
0.0
 10
-55.706200000000003
 20
-76.74260000000001
 30
0.0
 10
-55.071200000000005
 20
-78.859200000000001
 30
0.0
 10
-55.882600000000004
 20
-81.117000000000004
 30
0.0
 10
-55.106500000000004
 20
-83.198400000000007
 30
0.0
 10
-55.106500000000004
 20
-83.198400000000007
 30
0.0
 10
-55.670900000000003
 20
-84.785899999999998
 30
0.0
 10
-55.3887
 20
-86.443899999999999
 30
0.0
 10
-55.494600000000005
 20
-88.102000000000004
 30
0.0
 10
-55.494600000000005
 20
-88.102000000000004
 30
0.0
 10
-55.741500000000002
 20
-88.878100000000003
 30
0.0
 10
-56.200100000000006
 20
-89.583700000000007
 30
0.0
 10
-56.588200000000001
 20
-90.289200000000008
 30
0.0
 10
-56.588200000000001
 20
-90.289200000000008
 30
0.0
 10
-56.305900000000001
 20
-90.64200000000001
 30
0.0
 10
-56.023700000000005
 20
-90.959500000000006
 30
0.0
 10
-55.706200000000003
 20
-91.277000000000001
 30
0.0
 10
-55.706200000000003
 20
-91.277000000000001
 30
0.0
 10
-56.588200000000001
 20
-92.793900000000008
 30
0.0
 10
-57.8934
 20
-94.240300000000005
 30
0.0
 10
-57.858200000000004
 20
-96.039500000000004
 30
0.0
 10
-57.858200000000004
 20
-96.039500000000004
 30
0.0
 10
-59.198700000000002
 20
-98.332599999999999
 30
0.0
 10
-60.362900000000003
 20
-100.73140000000001
 30
0.0
 10
-61.879800000000003
 20
-102.88340000000001
 30
0.0
 10
-61.879800000000003
 20
-102.88340000000001
 30
0.0
 10
-63.643700000000003
 20
-105.21170000000001
 30
0.0
 10
-65.090100000000007
 20
-108.13980000000001
 30
0.0
 10
-68.088700000000003
 20
-109.057
 30
0.0
 10
-68.088700000000003
 20
-109.057
 30
0.0
 10
-69.147100000000009
 20
-107.71640000000001
 30
0.0
 10
-68.900100000000009
 20
-105.98780000000001
 30
0.0
 10
-68.829599999999999
 20
-104.43560000000001
 30
0.0
 10
-68.829599999999999
 20
-104.43560000000001
 30
0.0
 10
-67.877099999999999
 20
-100.9431
 30
0.0
 10
-65.972099999999998
 20
-97.803400000000011
 30
0.0
 10
-63.714300000000001
 20
-95.051700000000011
 30
0.0
 10
-63.714300000000001
 20
-95.051700000000011
 30
0.0
 10
-63.432100000000005
 20
-94.310900000000004
 30
0.0
 10
-63.114600000000003
 20
-93.570100000000011
 30
0.0
 10
-63.220400000000005
 20
-92.758700000000005
 30
0.0
 10
-63.220400000000005
 20
-92.758700000000005
 30
0.0
 10
-63.784800000000004
 20
-90.077600000000004
 30
0.0
 10
-64.455100000000002
 20
-87.3964
 30
0.0
 10
-64.314000000000007
 20
-84.644800000000004
 30
0.0
 10
-64.314000000000007
 20
-84.644800000000004
 30
0.0
 10
-65.019599999999997
 20
-81.787300000000002
 30
0.0
 10
-64.384600000000006
 20
-78.823900000000009
 30
0.0
 10
-64.702100000000002
 20
-75.931200000000004
 30
0.0
 10
-64.702100000000002
 20
-75.931200000000004
 30
0.0
 10
-64.913700000000006
 20
-75.296199999999999
 30
0.0
 10
-65.442900000000009
 20
-74.978700000000003
 30
0.0
 10
-65.972099999999998
 20
-74.661200000000008
 30
0.0
 10
-65.972099999999998
 20
-74.661200000000008
 30
0.0
 10
-66.360100000000003
 20
-71.7684
 30
0.0
 10
-68.053399999999996
 20
-69.122600000000006
 30
0.0
 10
-70.4876
 20
-67.5351
 30
0.0
 10
-70.4876
 20
-67.5351
 30
0.0
 10
-71.228400000000008
 20
-67.041200000000003
 30
0.0
 10
-71.58120000000001
 20
-66.159199999999998
 30
0.0
 10
-72.145700000000005
 20
-65.488900000000001
 30
0.0
 10
-72.145700000000005
 20
-65.488900000000001
 30
0.0
 10
-72.569000000000003
 20
-65.912300000000002
 30
0.0
 10
-72.9923
 20
-66.335599999999999
 30
0.0
 10
-73.450900000000004
 20
-66.723700000000008
 30
0.0
 10
-73.450900000000004
 20
-66.723700000000008
 30
0.0
 10
-73.450900000000004
 20
-67.781999999999996
 30
0.0
 10
-73.380400000000009
 20
-68.875600000000006
 30
0.0
 10
-73.733199999999997
 20
-69.863399999999999
 30
0.0
 10
-73.733199999999997
 20
-69.863399999999999
 30
0.0
 10
-73.944800000000001
 20
-72.967799999999997
 30
0.0
 10
-73.662599999999998
 20
-76.107600000000005
 30
0.0
 10
-73.874300000000005
 20
-79.24730000000001
 30
0.0
 10
-73.874300000000005
 20
-79.24730000000001
 30
0.0
 10
-74.403400000000005
 20
-80.6584
 30
0.0
 10
-73.944800000000001
 20
-82.210599999999999
 30
0.0
 10
-74.332900000000009
 20
-83.657000000000011
 30
0.0
 10
-74.332900000000009
 20
-83.657000000000011
 30
0.0
 10
-74.474000000000004
 20
-84.186199999999999
 30
0.0
 10
-74.050700000000006
 20
-84.715299999999999
 30
0.0
 10
-74.227100000000007
 20
-85.244500000000002
 30
0.0
 10
-74.227100000000007
 20
-85.244500000000002
 30
0.0
 10
-74.685699999999997
 20
-86.6203
 30
0.0
 10
-74.50930000000001
 20
-88.102000000000004
 30
0.0
 10
-74.474000000000004
 20
-89.513100000000009
 30
0.0
 10
-74.474000000000004
 20
-89.513100000000009
 30
0.0
 10
-74.050700000000006
 20
-91.171199999999999
 30
0.0
 10
-73.944800000000001
 20
-92.935100000000006
 30
0.0
 10
-74.438699999999997
 20
-94.5578
 30
0.0
 10
-74.438699999999997
 20
-94.5578
 30
0.0
 10
-74.685699999999997
 20
-96.110100000000003
 30
0.0
 10
-74.227100000000007
 20
-97.697600000000008
 30
0.0
 10
-74.826800000000006
 20
-99.179200000000009
 30
0.0
 10
-74.826800000000006
 20
-99.179200000000009
 30
0.0
 10
-75.144300000000001
 20
-100.0612
 30
0.0
 10
-74.227100000000007
 20
-100.87260000000001
 30
0.0
 10
-74.650400000000005
 20
-101.75450000000001
 30
0.0
 10
-74.650400000000005
 20
-101.75450000000001
 30
0.0
 10
-75.003200000000007
 20
-102.6717
 30
0.0
 10
-74.791499999999999
 20
-103.6948
 30
0.0
 10
-74.897300000000001
 20
-104.6473
 30
0.0
 10
-74.897300000000001
 20
-104.6473
 30
0.0
 10
-75.250100000000003
 20
-105.81140000000001
 30
0.0
 10
-75.673400000000001
 20
-106.9756
 30
0.0
 10
-76.026200000000003
 20
-108.1045
 30
0.0
 10
-76.026200000000003
 20
-108.1045
 30
0.0
 10
-77.155100000000004
 20
-109.9037
 30
0.0
 10
-79.377600000000001
 20
-110.2564
 30
0.0
 10
-81.106200000000001
 20
-111.17370000000001
 30
0.0
 10
-81.106200000000001
 20
-111.17370000000001
 30
0.0
 10
-81.564800000000005
 20
-111.4559
 30
0.0
 10
-82.094000000000008
 20
-111.42060000000001
 30
0.0
 10
-82.623199999999997
 20
-111.4559
 30
0.0
 10
-82.623199999999997
 20
-111.4559
 30
0.0
 10
-82.587900000000005
 20
-109.1276
 30
0.0
 10
-82.728999999999999
 20
-106.76390000000001
 30
0.0
 10
-82.552599999999998
 20
-104.43560000000001
 30
0.0
 10
-82.552599999999998
 20
-104.43560000000001
 30
0.0
 10
-81.988200000000006
 20
-103.0245
 30
0.0
 10
-82.517300000000006
 20
-101.43700000000001
 30
0.0
 10
-82.058700000000002
 20
-99.990600000000001
 30
0.0
 10
-82.058700000000002
 20
-99.990600000000001
 30
0.0
 10
-81.7059
 20
-98.755900000000011
 30
0.0
 10
-82.164600000000007
 20
-97.380099999999999
 30
0.0
 10
-81.635400000000004
 20
-96.180599999999998
 30
0.0
 10
-81.635400000000004
 20
-96.180599999999998
 30
0.0
 10
-81.459000000000003
 20
-95.369200000000006
 30
0.0
 10
-80.682900000000004
 20
-94.910600000000002
 30
0.0
 10
-80.153700000000001
 20
-94.34620000000001
 30
0.0
 10
-80.153700000000001
 20
-94.34620000000001
 30
0.0
 10
-80.153700000000001
 20
-93.922800000000009
 30
0.0
 10
-80.153700000000001
 20
-93.534800000000004
 30
0.0
 10
-80.118400000000008
 20
-93.111400000000003
 30
0.0
 10
-80.118400000000008
 20
-93.111400000000003
 30
0.0
 10
-80.71820000000001
 20
-92.582300000000004
 30
0.0
 10
-81.741200000000006
 20
-92.970300000000009
 30
0.0
 10
-82.164600000000007
 20
-92.264800000000008
 30
0.0
 10
-82.164600000000007
 20
-92.264800000000008
 30
0.0
 10
-82.305700000000002
 20
-91.629800000000003
 30
0.0
 10
-82.764300000000006
 20
-91.030100000000004
 30
0.0
 10
-82.482100000000003
 20
-90.395099999999999
 30
0.0
 10
-82.482100000000003
 20
-90.395099999999999
 30
0.0
 10
-81.988200000000006
 20
-89.336700000000008
 30
0.0
 10
-82.764300000000006
 20
-88.278400000000005
 30
0.0
 10
-82.799599999999998
 20
-87.18480000000001
 30
0.0
 10
-82.799599999999998
 20
-87.18480000000001
 30
0.0
 10
-81.670700000000011
 20
-85.1387
 30
0.0
 10
-82.728999999999999
 20
-82.739800000000002
 30
0.0
 10
-82.058700000000002
 20
-80.587800000000001
 30
0.0
 10
-82.058700000000002
 20
-80.587800000000001
 30
0.0
 10
-81.7059
 20
-79.353099999999998
 30
0.0
 10
-81.9529
 20
-78.047800000000009
 30
0.0
 10
-82.235100000000003
 20
-76.813100000000006
 30
0.0
 10
-82.235100000000003
 20
-76.813100000000006
 30
0.0
 10
-82.305700000000002
 20
-73.638100000000009
 30
0.0
 10
-82.235100000000003
 20
-70.463099999999997
 30
0.0
 10
-82.270400000000009
 20
-67.323400000000007
 30
0.0
 10
-82.270400000000009
 20
-67.323400000000007
 30
0.0
 10
-82.340900000000005
 20
-66.370900000000006
 30
0.0
 10
-81.917600000000007
 20
-65.488900000000001
 30
0.0
 10
-81.847099999999998
 20
-64.571700000000007
 30
0.0
 10
-81.847099999999998
 20
-64.571700000000007
 30
0.0
 10
-80.541800000000009
 20
-64.218900000000005
 30
0.0
 10
-79.2012
 20
-63.866200000000006
 30
0.0
 10
-77.895899999999997
 20
-63.372300000000003
 30
0.0
 10
-77.895899999999997
 20
-63.372300000000003
 30
0.0
 10
-78.213400000000007
 20
-63.0901
 30
0.0
 10
-78.530900000000003
 20
-62.772600000000004
 30
0.0
 10
-78.883700000000005
 20
-62.525600000000004
 30
0.0
 10
-78.883700000000005
 20
-62.525600000000004
 30
0.0
 10
-80.894599999999997
 20
-61.714200000000005
 30
0.0
 10
-82.97590000000001
 20
-61.043900000000001
 30
0.0
 10
-84.986800000000002
 20
-60.162000000000006
 30
0.0
 10
-84.986800000000002
 20
-60.162000000000006
 30
0.0
 10
-86.080399999999997
 20
-58.962600000000002
 30
0.0
 10
-85.868700000000004
 20
-57.092800000000004
 30
0.0
 10
-85.480699999999999
 20
-55.6464
 30
0.0
 10
-85.480699999999999
 20
-55.6464
 30
0.0
 10
-85.480699999999999
 20
-53.635600000000004
 30
0.0
 10
-83.293400000000005
 20
-52.824200000000005
 30
0.0
 10
-82.552599999999998
 20
-51.166200000000003
 30
0.0
  0
SPLINE
  5
33
100
AcDbEntity
  8
LAYER_1
100
AcDbSpline
210
0.0
220
0.0
230
1.0
 70
     1
 71
     3
 72
    88
 73
    84
 74
     0
 42
0.0000000001
 43
0.0000000001
 40
0.0
 40
0.0
 40
0.0
 40
0.0
 40
0.0476190476190476
 40
0.0476190476190476
 40
0.0476190476190476
 40
0.0476190476190476
 40
0.0952380952380952
 40
0.0952380952380952
 40
0.0952380952380952
 40
0.0952380952380952
 40
0.1428571428571429
 40
0.1428571428571429
 40
0.1428571428571429
 40
0.1428571428571429
 40
0.1904761904761905
 40
0.1904761904761905
 40
0.1904761904761905
 40
0.1904761904761905
 40
0.2380952380952381
 40
0.2380952380952381
 40
0.2380952380952381
 40
0.2380952380952381
 40
0.2857142857142857
 40
0.2857142857142857
 40
0.2857142857142857
 40
0.2857142857142857
 40
0.3333333333333333
 40
0.3333333333333333
 40
0.3333333333333333
 40
0.3333333333333333
 40
0.3809523809523809
 40
0.3809523809523809
 40
0.3809523809523809
 40
0.3809523809523809
 40
0.4285714285714286
 40
0.4285714285714286
 40
0.4285714285714286
 40
0.4285714285714286
 40
0.4761904761904762
 40
0.4761904761904762
 40
0.4761904761904762
 40
0.4761904761904762
 40
0.5238095238095237
 40
0.5238095238095237
 40
0.5238095238095237
 40
0.5238095238095237
 40
0.5714285714285714
 40
0.5714285714285714
 40
0.5714285714285714
 40
0.5714285714285714
 40
0.6190476190476191
 40
0.6190476190476191
 40
0.6190476190476191
 40
0.6190476190476191
 40
0.6666666666666667
 40
0.6666666666666667
 40
0.6666666666666667
 40
0.6666666666666667
 40
0.7142857142857144
 40
0.7142857142857144
 40
0.7142857142857144
 40
0.7142857142857144
 40
0.7619047619047621
 40
0.7619047619047621
 40
0.7619047619047621
 40
0.7619047619047621
 40
0.8095238095238098
 40
0.8095238095238098
 40
0.8095238095238098
 40
0.8095238095238098
 40
0.8571428571428574
 40
0.8571428571428574
 40
0.8571428571428574
 40
0.8571428571428574
 40
0.9047619047619051
 40
0.9047619047619051
 40
0.9047619047619051
 40
0.9047619047619051
 40
0.9523809523809528
 40
0.9523809523809528
 40
0.9523809523809528
 40
0.9523809523809528
 40
1.0
 40
1.0
 40
1.0
 40
1.0
 10
26.632100000000001
 20
-55.575900000000004
 30
0.0
 10
27.126000000000001
 20
-54.023700000000005
 30
0.0
 10
28.9604
 20
-53.847300000000004
 30
0.0
 10
30.301000000000002
 20
-53.565100000000001
 30
0.0
 10
30.301000000000002
 20
-53.565100000000001
 30
0.0
 10
31.571000000000002
 20
-53.741400000000006
 30
0.0
 10
32.9116
 20
-53.3887
 30
0.0
 10
34.111000000000004
 20
-53.953099999999999
 30
0.0
 10
34.111000000000004
 20
-53.953099999999999
 30
0.0
 10
35.063500000000005
 20
-54.411700000000003
 30
0.0
 10
36.192399999999999
 20
-53.953099999999999
 30
0.0
 10
37.180199999999999
 20
-54.411700000000003
 30
0.0
 10
37.180199999999999
 20
-54.411700000000003
 30
0.0
 10
39.261600000000001
 20
-55.223100000000002
 30
0.0
 10
41.6252
 20
-55.293700000000001
 30
0.0
 10
43.530200000000001
 20
-56.528400000000005
 30
0.0
 10
43.530200000000001
 20
-56.528400000000005
 30
0.0
 10
46.881599999999999
 20
-58.715600000000002
 30
0.0
 10
50.162400000000005
 20
-61.3262
 30
0.0
 10
52.067399999999999
 20
-64.924500000000009
 30
0.0
 10
52.067399999999999
 20
-64.924500000000009
 30
0.0
 10
52.702400000000004
 20
-66.159199999999998
 30
0.0
 10
54.0077
 20
-66.900100000000009
 30
0.0
 10
54.289900000000003
 20
-68.346400000000003
 30
0.0
 10
54.289900000000003
 20
-68.346400000000003
 30
0.0
 10
54.854300000000002
 20
-69.298900000000003
 30
0.0
 10
55.701000000000001
 20
-70.145600000000002
 30
0.0
 10
55.983200000000004
 20
-71.239199999999997
 30
0.0
 10
55.983200000000004
 20
-71.239199999999997
 30
0.0
 10
56.053800000000003
 20
-72.368099999999998
 30
0.0
 10
55.7363
 20
-73.638100000000009
 30
0.0
 10
56.794600000000003
 20
-74.378900000000002
 30
0.0
 10
56.794600000000003
 20
-74.378900000000002
 30
0.0
 10
56.4771
 20
-75.119799999999998
 30
0.0
 10
56.300700000000006
 20
-75.931200000000004
 30
0.0
 10
56.336000000000006
 20
-76.777799999999999
 30
0.0
 10
56.336000000000006
 20
-76.777799999999999
 30
0.0
 10
55.630400000000002
 20
-76.918900000000008
 30
0.0
 10
54.9602
 20
-77.130600000000001
 30
0.0
 10
54.254600000000003
 20
-77.27170000000001
 30
0.0
 10
54.254600000000003
 20
-77.27170000000001
 30
0.0
 10
54.360400000000006
 20
-81.646200000000007
 30
0.0
 10
51.185400000000001
 20
-85.173900000000003
 30
0.0
 10
50.621000000000002
 20
-89.407300000000006
 30
0.0
 10
50.621000000000002
 20
-89.407300000000006
 30
0.0
 10
49.633200000000002
 20
-91.135900000000007
 30
0.0
 10
48.645400000000002
 20
-92.8292
 30
0.0
 10
47.375399999999999
 20
-94.310900000000004
 30
0.0
 10
47.375399999999999
 20
-94.310900000000004
 30
0.0
 10
46.564100000000003
 20
-95.016400000000004
 30
0.0
 10
45.611600000000003
 20
-95.686700000000002
 30
0.0
 10
44.482700000000001
 20
-95.5809
 30
0.0
 10
44.482700000000001
 20
-95.5809
 30
0.0
 10
43.459600000000002
 20
-93.111400000000003
 30
0.0
 10
44.588500000000003
 20
-90.359800000000007
 30
0.0
 10
43.671300000000002
 20
-87.890300000000011
 30
0.0
 10
43.671300000000002
 20
-87.890300000000011
 30
0.0
 10
44.694300000000005
 20
-86.796700000000001
 30
0.0
 10
45.929100000000005
 20
-85.808900000000008
 30
0.0
 10
47.481300000000005
 20
-85.561999999999998
 30
0.0
 10
47.481300000000005
 20
-85.561999999999998
 30
0.0
 10
48.680700000000002
 20
-81.399200000000008
 30
0.0
 10
47.269600000000004
 20
-77.095300000000009
 30
0.0
 10
45.999600000000001
 20
-73.108900000000006
 30
0.0
 10
45.999600000000001
 20
-73.108900000000006
 30
0.0
 10
45.717400000000005
 20
-71.83890000000001
 30
0.0
 10
44.3416
 20
-71.486199999999997
 30
0.0
 10
43.565400000000004
 20
-70.604200000000006
 30
0.0
 10
43.565400000000004
 20
-70.604200000000006
 30
0.0
 10
40.108200000000004
 20
-67.711399999999998
 30
0.0
 10
36.651000000000003
 20
-64.395300000000006
 30
0.0
 10
32.100200000000001
 20
-63.372300000000003
 30
0.0
 10
32.100200000000001
 20
-63.372300000000003
 30
0.0
 10
30.618500000000001
 20
-62.8431
 30
0.0
 10
28.607700000000001
 20
-63.407600000000002
 30
0.0
 10
27.549300000000002
 20
-61.925900000000006
 30
0.0
 10
27.549300000000002
 20
-61.925900000000006
 30
0.0
 10
26.914300000000001
 20
-61.043900000000001
 30
0.0
 10
26.2441
 20
-60.197300000000006
 30
0.0
 10
25.397400000000001
 20
-59.491700000000002
 30
0.0
 10
25.397400000000001
 20
-59.491700000000002
 30
0.0
 10
25.926600000000001
 20
-58.221700000000006
 30
0.0
 10
26.2441
 20
-56.8812
 30
0.0
 10
26.632100000000001
 20
-55.575900000000004
 30
0.0
  0
SPLINE
  5
34
100
AcDbEntity
  8
LAYER_1
100
AcDbSpline
210
0.0
220
0.0
230
1.0
 70
     1
 71
     3
 72
   100
 73
    96
 74
     0
 42
0.0000000001
 43
0.0000000001
 40
0.0
 40
0.0
 40
0.0
 40
0.0
 40
0.0416666666666667
 40
0.0416666666666667
 40
0.0416666666666667
 40
0.0416666666666667
 40
0.0833333333333333
 40
0.0833333333333333
 40
0.0833333333333333
 40
0.0833333333333333
 40
0.125
 40
0.125
 40
0.125
 40
0.125
 40
0.1666666666666667
 40
0.1666666666666667
 40
0.1666666666666667
 40
0.1666666666666667
 40
0.2083333333333333
 40
0.2083333333333333
 40
0.2083333333333333
 40
0.2083333333333333
 40
0.25
 40
0.25
 40
0.25
 40
0.25
 40
0.2916666666666666
 40
0.2916666666666666
 40
0.2916666666666666
 40
0.2916666666666666
 40
0.3333333333333333
 40
0.3333333333333333
 40
0.3333333333333333
 40
0.3333333333333333
 40
0.375
 40
0.375
 40
0.375
 40
0.375
 40
0.4166666666666667
 40
0.4166666666666667
 40
0.4166666666666667
 40
0.4166666666666667
 40
0.4583333333333334
 40
0.4583333333333334
 40
0.4583333333333334
 40
0.4583333333333334
 40
0.5
 40
0.5
 40
0.5
 40
0.5
 40
0.5416666666666666
 40
0.5416666666666666
 40
0.5416666666666666
 40
0.5416666666666666
 40
0.5833333333333333
 40
0.5833333333333333
 40
0.5833333333333333
 40
0.5833333333333333
 40
0.6249999999999999
 40
0.6249999999999999
 40
0.6249999999999999
 40
0.6249999999999999
 40
0.6666666666666665
 40
0.6666666666666665
 40
0.6666666666666665
 40
0.6666666666666665
 40
0.7083333333333332
 40
0.7083333333333332
 40
0.7083333333333332
 40
0.7083333333333332
 40
0.7499999999999998
 40
0.7499999999999998
 40
0.7499999999999998
 40
0.7499999999999998
 40
0.7916666666666664
 40
0.7916666666666664
 40
0.7916666666666664
 40
0.7916666666666664
 40
0.833333333333333
 40
0.833333333333333
 40
0.833333333333333
 40
0.833333333333333
 40
0.8749999999999997
 40
0.8749999999999997
 40
0.8749999999999997
 40
0.8749999999999997
 40
0.9166666666666663
 40
0.9166666666666663
 40
0.9166666666666663
 40
0.9166666666666663
 40
0.9583333333333329
 40
0.9583333333333329
 40
0.9583333333333329
 40
0.9583333333333329
 40
1.0
 40
1.0
 40
1.0
 40
1.0
 10
32.735199999999999
 20
-69.440100000000001
 30
0.0
 10
34.463799999999999
 20
-67.993700000000004
 30
0.0
 10
36.933199999999999
 20
-66.582599999999999
 30
0.0
 10
39.155700000000003
 20
-67.781999999999996
 30
0.0
 10
39.155700000000003
 20
-67.781999999999996
 30
0.0
 10
38.908799999999999
 20
-68.699200000000005
 30
0.0
 10
38.732399999999998
 20
-69.651700000000005
 30
0.0
 10
38.379600000000003
 20
-70.53370000000001
 30
0.0
 10
38.379600000000003
 20
-70.53370000000001
 30
0.0
 10
38.661799999999999
 20
-71.168700000000001
 30
0.0
 10
39.296800000000005
 20
-71.803700000000006
 30
0.0
 10
39.014600000000002
 20
-72.544499999999999
 30
0.0
 10
39.014600000000002
 20
-72.544499999999999
 30
0.0
 10
38.485399999999998
 20
-73.849800000000002
 30
0.0
 10
38.979300000000002
 20
-75.296199999999999
 30
0.0
 10
38.520700000000005
 20
-76.636700000000005
 30
0.0
 10
38.520700000000005
 20
-76.636700000000005
 30
0.0
 10
38.273800000000001
 20
-77.165900000000008
 30
0.0
 10
38.697099999999999
 20
-77.659800000000004
 30
0.0
 10
38.661799999999999
 20
-78.188900000000004
 30
0.0
 10
38.661799999999999
 20
-78.188900000000004
 30
0.0
 10
38.273800000000001
 20
-79.494200000000006
 30
0.0
 10
38.450200000000002
 20
-80.870100000000008
 30
0.0
 10
38.062100000000001
 20
-82.175300000000007
 30
0.0
 10
38.062100000000001
 20
-82.175300000000007
 30
0.0
 10
38.0974
 20
-84.43310000000001
 30
0.0
 10
37.779900000000005
 20
-86.690899999999999
 30
0.0
 10
37.074300000000001
 20
-88.807600000000008
 30
0.0
 10
37.074300000000001
 20
-88.807600000000008
 30
0.0
 10
37.250700000000002
 20
-89.513100000000009
 30
0.0
 10
37.3566
 20
-90.218699999999998
 30
0.0
 10
37.321300000000001
 20
-90.959500000000006
 30
0.0
 10
37.321300000000001
 20
-90.959500000000006
 30
0.0
 10
37.286000000000001
 20
-93.287800000000004
 30
0.0
 10
37.3566
 20
-95.65140000000001
 30
0.0
 10
37.286000000000001
 20
-97.979800000000012
 30
0.0
 10
37.286000000000001
 20
-97.979800000000012
 30
0.0
 10
36.439300000000003
 20
-101.2253
 30
0.0
 10
37.497700000000002
 20
-104.68260000000001
 30
0.0
 10
36.651000000000003
 20
-107.9281
 30
0.0
 10
36.651000000000003
 20
-107.9281
 30
0.0
 10
36.509900000000002
 20
-109.86840000000001
 30
0.0
 10
36.721600000000002
 20
-111.8439
 30
0.0
 10
36.545200000000001
 20
-113.81950000000001
 30
0.0
 10
36.545200000000001
 20
-113.81950000000001
 30
0.0
 10
36.227699999999999
 20
-114.7367
 30
0.0
 10
36.227699999999999
 20
-115.72450000000001
 30
0.0
 10
36.262900000000002
 20
-116.67700000000001
 30
0.0
 10
36.262900000000002
 20
-116.67700000000001
 30
0.0
 10
34.252099999999999
 20
-117.8412
 30
0.0
 10
31.853200000000001
 20
-118.2998
 30
0.0
 10
29.560200000000002
 20
-118.1234
 30
0.0
 10
29.560200000000002
 20
-118.1234
 30
0.0
 10
29.4543
 20
-116.1126
 30
0.0
 10
29.807100000000002
 20
-114.03120000000001
 30
0.0
 10
29.277900000000002
 20
-112.02030000000001
 30
0.0
 10
29.277900000000002
 20
-112.02030000000001
 30
0.0
 10
29.2074
 20
-111.35010000000001
 30
0.0
 10
29.101600000000001
 20
-110.6798
 30
0.0
 10
28.995700000000003
 20
-110.0095
 30
0.0
 10
28.995700000000003
 20
-110.0095
 30
0.0
 10
29.348500000000001
 20
-108.7748
 30
0.0
 10
29.101600000000001
 20
-107.46950000000001
 30
0.0
 10
29.277900000000002
 20
-106.1995
 30
0.0
 10
29.277900000000002
 20
-106.1995
 30
0.0
 10
29.7013
 20
-105.0001
 30
0.0
 10
29.4191
 20
-103.73010000000001
 30
0.0
 10
29.842400000000001
 20
-102.53060000000001
 30
0.0
 10
29.842400000000001
 20
-102.53060000000001
 30
0.0
 10
30.018800000000002
 20
-100.55510000000001
 30
0.0
 10
29.842400000000001
 20
-98.57950000000001
 30
0.0
 10
29.9129
 20
-96.639200000000002
 30
0.0
 10
29.9129
 20
-96.639200000000002
 30
0.0
 10
30.1599
 20
-94.840100000000007
 30
0.0
 10
31.1829
 20
-93.217300000000009
 30
0.0
 10
31.006600000000002
 20
-91.3476
 30
0.0
 10
31.006600000000002
 20
-91.3476
 30
0.0
 10
30.4421
 20
-90.959500000000006
 30
0.0
 10
29.807100000000002
 20
-90.924199999999999
 30
0.0
 10
29.136800000000001
 20
-90.888900000000007
 30
0.0
 10
29.136800000000001
 20
-90.888900000000007
 30
0.0
 10
29.7013
 20
-88.842800000000011
 30
0.0
 10
29.524900000000002
 20
-86.726200000000006
 30
0.0
 10
29.595400000000001
 20
-84.644800000000004
 30
0.0
 10
29.595400000000001
 20
-84.644800000000004
 30
0.0
 10
30.371600000000001
 20
-82.069500000000005
 30
0.0
 10
29.4543
 20
-79.317800000000005
 30
0.0
 10
30.1952
 20
-76.777799999999999
 30
0.0
 10
30.1952
 20
-76.777799999999999
 30
0.0
 10
30.4068
 20
-75.084500000000006
 30
0.0
 10
30.124600000000001
 20
-73.355900000000005
 30
0.0
 10
30.336300000000001
 20
-71.662599999999998
 30
0.0
 10
30.336300000000001
 20
-71.662599999999998
 30
0.0
 10
30.865400000000001
 20
-70.710099999999997
 30
0.0
 10
31.9238
 20
-70.180900000000008
 30
0.0
 10
32.735199999999999
 20
-69.440100000000001
 30
0.0
  0
SPLINE
  5
35
100
AcDbEntity
  8
LAYER_1
100
AcDbSpline
210
0.0
220
0.0
230
1.0
 70
     1
 71
     3
 72
   144
 73
   140
 74
     0
 42
0.0000000001
 43
0.0000000001
 40
0.0
 40
0.0
 40
0.0
 40
0.0
 40
0.0285714285714286
 40
0.0285714285714286
 40
0.0285714285714286
 40
0.0285714285714286
 40
0.0571428571428571
 40
0.0571428571428571
 40
0.0571428571428571
 40
0.0571428571428571
 40
0.0857142857142857
 40
0.0857142857142857
 40
0.0857142857142857
 40
0.0857142857142857
 40
0.1142857142857143
 40
0.1142857142857143
 40
0.1142857142857143
 40
0.1142857142857143
 40
0.1428571428571429
 40
0.1428571428571429
 40
0.1428571428571429
 40
0.1428571428571429
 40
0.1714285714285714
 40
0.1714285714285714
 40
0.1714285714285714
 40
0.1714285714285714
 40
0.2
 40
0.2
 40
0.2
 40
0.2
 40
0.2285714285714286
 40
0.2285714285714286
 40
0.2285714285714286
 40
0.2285714285714286
 40
0.2571428571428572
 40
0.2571428571428572
 40
0.2571428571428572
 40
0.2571428571428572
 40
0.2857142857142858
 40
0.2857142857142858
 40
0.2857142857142858
 40
0.2857142857142858
 40
0.3142857142857143
 40
0.3142857142857143
 40
0.3142857142857143
 40
0.3142857142857143
 40
0.3428571428571429
 40
0.3428571428571429
 40
0.3428571428571429
 40
0.3428571428571429
 40
0.3714285714285715
 40
0.3714285714285715
 40
0.3714285714285715
 40
0.3714285714285715
 40
0.4000000000000001
 40
0.4000000000000001
 40
0.4000000000000001
 40
0.4000000000000001
 40
0.4285714285714287
 40
0.4285714285714287
 40
0.4285714285714287
 40
0.4285714285714287
 40
0.4571428571428572
 40
0.4571428571428572
 40
0.4571428571428572
 40
0.4571428571428572
 40
0.4857142857142858
 40
0.4857142857142858
 40
0.4857142857142858
 40
0.4857142857142858
 40
0.5142857142857144
 40
0.5142857142857144
 40
0.5142857142857144
 40
0.5142857142857144
 40
0.5428571428571429
 40
0.5428571428571429
 40
0.5428571428571429
 40
0.5428571428571429
 40
0.5714285714285715
 40
0.5714285714285715
 40
0.5714285714285715
 40
0.5714285714285715
 40
0.6000000000000001
 40
0.6000000000000001
 40
0.6000000000000001
 40
0.6000000000000001
 40
0.6285714285714287
 40
0.6285714285714287
 40
0.6285714285714287
 40
0.6285714285714287
 40
0.6571428571428573
 40
0.6571428571428573
 40
0.6571428571428573
 40
0.6571428571428573
 40
0.6857142857142858
 40
0.6857142857142858
 40
0.6857142857142858
 40
0.6857142857142858
 40
0.7142857142857144
 40
0.7142857142857144
 40
0.7142857142857144
 40
0.7142857142857144
 40
0.742857142857143
 40
0.742857142857143
 40
0.742857142857143
 40
0.742857142857143
 40
0.7714285714285716
 40
0.7714285714285716
 40
0.7714285714285716
 40
0.7714285714285716
 40
0.8000000000000002
 40
0.8000000000000002
 40
0.8000000000000002
 40
0.8000000000000002
 40
0.8285714285714287
 40
0.8285714285714287
 40
0.8285714285714287
 40
0.8285714285714287
 40
0.8571428571428573
 40
0.8571428571428573
 40
0.8571428571428573
 40
0.8571428571428573
 40
0.8857142857142859
 40
0.8857142857142859
 40
0.8857142857142859
 40
0.8857142857142859
 40
0.9142857142857145
 40
0.9142857142857145
 40
0.9142857142857145
 40
0.9142857142857145
 40
0.9428571428571431
 40
0.9428571428571431
 40
0.9428571428571431
 40
0.9428571428571431
 40
0.9714285714285716
 40
0.9714285714285716
 40
0.9714285714285716
 40
0.9714285714285716
 40
1.0
 40
1.0
 40
1.0
 40
1.0
 10
-27.519300000000001
 20
-70.568899999999999
 30
0.0
 10
-26.460900000000002
 20
-70.568899999999999
 30
0.0
 10
-25.332100000000001
 20
-69.757599999999996
 30
0.0
 10
-24.309000000000001
 20
-70.357300000000009
 30
0.0
 10
-24.309000000000001
 20
-70.357300000000009
 30
0.0
 10
-23.568200000000001
 20
-70.53370000000001
 30
0.0
 10
-23.321200000000001
 20
-71.274500000000003
 30
0.0
 10
-22.968400000000003
 20
-71.83890000000001
 30
0.0
 10
-22.968400000000003
 20
-71.83890000000001
 30
0.0
 10
-23.180099999999999
 20
-72.297600000000003
 30
0.0
 10
-23.462300000000003
 20
-72.756200000000007
 30
0.0
 10
-23.3565
 20
-73.285300000000007
 30
0.0
 10
-23.3565
 20
-73.285300000000007
 30
0.0
 10
-22.686199999999999
 20
-75.507800000000003
 30
0.0
 10
-22.933199999999999
 20
-77.906700000000001
 30
0.0
 10
-23.603400000000001
 20
-80.129199999999997
 30
0.0
 10
-23.603400000000001
 20
-80.129199999999997
 30
0.0
 10
-24.1326
 20
-81.081699999999998
 30
0.0
 10
-24.485400000000002
 20
-82.598700000000008
 30
0.0
 10
-23.3918
 20
-83.339500000000001
 30
0.0
 10
-23.3918
 20
-83.339500000000001
 30
0.0
 10
-22.404
 20
-82.775100000000009
 30
0.0
 10
-21.486800000000002
 20
-82.069500000000005
 30
0.0
 10
-20.8871
 20
-81.081699999999998
 30
0.0
 10
-20.8871
 20
-81.081699999999998
 30
0.0
 10
-20.357900000000001
 20
-80.058700000000002
 30
0.0
 10
-19.1937
 20
-79.7059
 30
0.0
 10
-18.347100000000001
 20
-79.035600000000002
 30
0.0
 10
-18.347100000000001
 20
-79.035600000000002
 30
0.0
 10
-16.724299999999999
 20
-77.589200000000005
 30
0.0
 10
-14.9251
 20
-76.354500000000002
 30
0.0
 10
-13.3376
 20
-74.837600000000009
 30
0.0
 10
-13.3376
 20
-74.837600000000009
 30
0.0
 10
-11.7148
 20
-74.273099999999999
 30
0.0
 10
-9.9862000000000002
 20
-73.779200000000003
 30
0.0
 10
-8.2576000000000001
 20
-73.673400000000001
 30
0.0
 10
-8.2576000000000001
 20
-73.673400000000001
 30
0.0
 10
-7.3404000000000007
 20
-74.026200000000003
 30
0.0
 10
-6.5643000000000002
 20
-74.555300000000003
 30
0.0
 10
-5.6471
 20
-74.908100000000005
 30
0.0
 10
-5.6471
 20
-74.908100000000005
 30
0.0
 10
-5.0826000000000002
 20
-74.837600000000009
 30
0.0
 10
-4.5533999999999999
 20
-74.731700000000004
 30
0.0
 10
-4.0243000000000002
 20
-74.661200000000008
 30
0.0
 10
-4.0243000000000002
 20
-74.661200000000008
 30
0.0
 10
-3.6715
 20
-75.190300000000008
 30
0.0
 10
-3.5657000000000001
 20
-75.79010000000001
 30
0.0
 10
-3.5657000000000001
 20
-76.4251
 30
0.0
 10
-3.5657000000000001
 20
-76.4251
 30
0.0
 10
-2.5779000000000001
 20
-76.74260000000001
 30
0.0
 10
-2.4015
 20
-77.7303
 30
0.0
 10
-2.1193
 20
-78.612300000000005
 30
0.0
 10
-2.1193
 20
-78.612300000000005
 30
0.0
 10
-2.7896000000000001
 20
-79.529499999999999
 30
0.0
 10
-3.6715
 20
-80.446700000000007
 30
0.0
 10
-3.7068000000000003
 20
-81.646200000000007
 30
0.0
 10
-3.7068000000000003
 20
-81.646200000000007
 30
0.0
 10
-4.6946000000000003
 20
-82.810299999999998
 30
0.0
 10
-5.7882000000000007
 20
-83.833399999999997
 30
0.0
 10
-7.0228999999999999
 20
-84.715299999999999
 30
0.0
 10
-7.0228999999999999
 20
-84.715299999999999
 30
0.0
 10
-8.0812000000000008
 20
-85.844200000000001
 30
0.0
 10
-9.3864999999999998
 20
-86.6203
 30
0.0
 10
-10.7271
 20
-87.361200000000011
 30
0.0
 10
-10.7271
 20
-87.361200000000011
 30
0.0
 10
-14.3254
 20
-89.901200000000003
 30
0.0
 10
-17.500399999999999
 20
-93.005600000000001
 30
0.0
 10
-21.3809
 20
-95.087000000000003
 30
0.0
 10
-21.3809
 20
-95.087000000000003
 30
0.0
 10
-22.1571
 20
-95.192800000000005
 30
0.0
 10
-22.933199999999999
 20
-95.298700000000011
 30
0.0
 10
-23.6387
 20
-95.5809
 30
0.0
 10
-23.6387
 20
-95.5809
 30
0.0
 10
-24.167899999999999
 20
-97.027300000000011
 30
0.0
 10
-24.555900000000001
 20
-99.0381
 30
0.0
 10
-23.250700000000002
 20
-100.167
 30
0.0
 10
-23.250700000000002
 20
-100.167
 30
0.0
 10
-23.568200000000001
 20
-101.0489
 30
0.0
 10
-24.062100000000001
 20
-101.9662
 30
0.0
 10
-24.062100000000001
 20
-102.9539
 30
0.0
 10
-24.062100000000001
 20
-102.9539
 30
0.0
 10
-24.097300000000001
 20
-104.9295
 30
0.0
 10
-24.167899999999999
 20
-106.9756
 30
0.0
 10
-23.462300000000003
 20
-108.84530000000001
 30
0.0
 10
-23.462300000000003
 20
-108.84530000000001
 30
0.0
 10
-23.8504
 20
-110.04480000000001
 30
0.0
 10
-24.9087
 20
-110.71510000000001
 30
0.0
 10
-25.825900000000001
 20
-111.52640000000001
 30
0.0
 10
-25.825900000000001
 20
-111.52640000000001
 30
0.0
 10
-25.755400000000002
 20
-112.44370000000001
 30
0.0
 10
-25.825900000000001
 20
-113.39620000000001
 30
0.0
 10
-26.284600000000001
 20
-114.2428
 30
0.0
 10
-26.284600000000001
 20
-114.2428
 30
0.0
 10
-26.672600000000003
 20
-114.2428
 30
0.0
 10
-27.060700000000001
 20
-114.2428
 30
0.0
 10
-27.448700000000002
 20
-114.2428
 30
0.0
 10
-27.448700000000002
 20
-114.2428
 30
0.0
 10
-27.730900000000002
 20
-113.9606
 30
0.0
 10
-28.013200000000001
 20
-113.67840000000001
 30
0.0
 10
-28.295400000000001
 20
-113.39620000000001
 30
0.0
 10
-28.295400000000001
 20
-113.39620000000001
 30
0.0
 10
-28.3307
 20
-112.3378
 30
0.0
 10
-28.154300000000003
 20
-111.24420000000001
 30
0.0
 10
-28.507100000000001
 20
-110.22120000000001
 30
0.0
 10
-28.507100000000001
 20
-110.22120000000001
 30
0.0
 10
-28.8598
 20
-109.5509
 30
0.0
 10
-28.3659
 20
-108.8806
 30
0.0
 10
-28.3307
 20
-108.2103
 30
0.0
 10
-28.3307
 20
-108.2103
 30
0.0
 10
-28.224800000000002
 20
-106.3759
 30
0.0
 10
-28.401200000000003
 20
-104.50620000000001
 30
0.0
 10
-28.224800000000002
 20
-102.6717
 30
0.0
 10
-28.224800000000002
 20
-102.6717
 30
0.0
 10
-27.8368
 20
-101.4723
 30
0.0
 10
-27.8368
 20
-100.167
 30
0.0
 10
-28.224800000000002
 20
-99.002800000000008
 30
0.0
 10
-28.224800000000002
 20
-99.002800000000008
 30
0.0
 10
-28.401200000000003
 20
-97.732800000000012
 30
0.0
 10
-28.224800000000002
 20
-96.462800000000001
 30
0.0
 10
-28.3307
 20
-95.228099999999998
 30
0.0
 10
-28.3307
 20
-95.228099999999998
 30
0.0
 10
-28.3307
 20
-94.663700000000006
 30
0.0
 10
-28.718700000000002
 20
-94.134500000000003
 30
0.0
 10
-28.507100000000001
 20
-93.570100000000011
 30
0.0
 10
-28.507100000000001
 20
-93.570100000000011
 30
0.0
 10
-28.189600000000002
 20
-92.476399999999998
 30
0.0
 10
-28.3659
 20
-91.3476
 30
0.0
 10
-28.0837
 20
-90.253900000000002
 30
0.0
 10
-28.0837
 20
-90.253900000000002
 30
0.0
 10
-29.142100000000003
 20
-86.232300000000009
 30
0.0
 10
-28.401200000000003
 20
-82.069500000000005
 30
0.0
 10
-28.718700000000002
 20
-77.9773
 30
0.0
 10
-28.718700000000002
 20
-77.9773
 30
0.0
 10
-29.036200000000001
 20
-76.530900000000003
 30
0.0
 10
-29.424300000000002
 20
-74.76700000000001
 30
0.0
 10
-28.436500000000002
 20
-73.497
 30
0.0
 10
-28.436500000000002
 20
-73.497
 30
0.0
 10
-28.189600000000002
 20
-72.509200000000007
 30
0.0
 10
-27.907300000000003
 20
-71.5214
 30
0.0
 10
-27.519300000000001
 20
-70.568899999999999
 30
0.0
  0
SPLINE
  5
36
100
AcDbEntity
  8
LAYER_1
100
AcDbSpline
210
0.0
220
0.0
230
1.0
 70
     1
 71
     3
 72
   136
 73
   132
 74
     0
 42
0.0000000001
 43
0.0000000001
 40
0.0
 40
0.0
 40
0.0
 40
0.0
 40
0.0303030303030303
 40
0.0303030303030303
 40
0.0303030303030303
 40
0.0303030303030303
 40
0.0606060606060606
 40
0.0606060606060606
 40
0.0606060606060606
 40
0.0606060606060606
 40
0.0909090909090909
 40
0.0909090909090909
 40
0.0909090909090909
 40
0.0909090909090909
 40
0.1212121212121212
 40
0.1212121212121212
 40
0.1212121212121212
 40
0.1212121212121212
 40
0.1515151515151515
 40
0.1515151515151515
 40
0.1515151515151515
 40
0.1515151515151515
 40
0.1818181818181818
 40
0.1818181818181818
 40
0.1818181818181818
 40
0.1818181818181818
 40
0.2121212121212121
 40
0.2121212121212121
 40
0.2121212121212121
 40
0.2121212121212121
 40
0.2424242424242424
 40
0.2424242424242424
 40
0.2424242424242424
 40
0.2424242424242424
 40
0.2727272727272727
 40
0.2727272727272727
 40
0.2727272727272727
 40
0.2727272727272727
 40
0.303030303030303
 40
0.303030303030303
 40
0.303030303030303
 40
0.303030303030303
 40
0.3333333333333333
 40
0.3333333333333333
 40
0.3333333333333333
 40
0.3333333333333333
 40
0.3636363636363635
 40
0.3636363636363635
 40
0.3636363636363635
 40
0.3636363636363635
 40
0.3939393939393938
 40
0.3939393939393938
 40
0.3939393939393938
 40
0.3939393939393938
 40
0.4242424242424241
 40
0.4242424242424241
 40
0.4242424242424241
 40
0.4242424242424241
 40
0.4545454545454544
 40
0.4545454545454544
 40
0.4545454545454544
 40
0.4545454545454544
 40
0.4848484848484846
 40
0.4848484848484846
 40
0.4848484848484846
 40
0.4848484848484846
 40
0.5151515151515149
 40
0.5151515151515149
 40
0.5151515151515149
 40
0.5151515151515149
 40
0.5454545454545452
 40
0.5454545454545452
 40
0.5454545454545452
 40
0.5454545454545452
 40
0.5757575757575755
 40
0.5757575757575755
 40
0.5757575757575755
 40
0.5757575757575755
 40
0.6060606060606057
 40
0.6060606060606057
 40
0.6060606060606057
 40
0.6060606060606057
 40
0.636363636363636
 40
0.636363636363636
 40
0.636363636363636
 40
0.636363636363636
 40
0.6666666666666663
 40
0.6666666666666663
 40
0.6666666666666663
 40
0.6666666666666663
 40
0.6969696969696966
 40
0.6969696969696966
 40
0.6969696969696966
 40
0.6969696969696966
 40
0.7272727272727269
 40
0.7272727272727269
 40
0.7272727272727269
 40
0.7272727272727269
 40
0.7575757575757571
 40
0.7575757575757571
 40
0.7575757575757571
 40
0.7575757575757571
 40
0.7878787878787874
 40
0.7878787878787874
 40
0.7878787878787874
 40
0.7878787878787874
 40
0.8181818181818177
 40
0.8181818181818177
 40
0.8181818181818177
 40
0.8181818181818177
 40
0.848484848484848
 40
0.848484848484848
 40
0.848484848484848
 40
0.848484848484848
 40
0.8787878787878782
 40
0.8787878787878782
 40
0.8787878787878782
 40
0.8787878787878782
 40
0.9090909090909085
 40
0.9090909090909085
 40
0.9090909090909085
 40
0.9090909090909085
 40
0.9393939393939388
 40
0.9393939393939388
 40
0.9393939393939388
 40
0.9393939393939388
 40
0.9696969696969691
 40
0.9696969696969691
 40
0.9696969696969691
 40
0.9696969696969691
 40
1.0
 40
1.0
 40
1.0
 40
1.0
 10
-41.983200000000004
 20
-77.024799999999999
 30
0.0
 10
-41.030700000000003
 20
-76.989500000000007
 30
0.0
 10
-40.148700000000005
 20
-76.566200000000009
 30
0.0
 10
-39.231500000000004
 20
-76.4251
 30
0.0
 10
-39.231500000000004
 20
-76.4251
 30
0.0
 10
-39.407900000000005
 20
-77.906700000000001
 30
0.0
 10
-39.407900000000005
 20
-79.529499999999999
 30
0.0
 10
-38.667100000000005
 20
-80.905299999999997
 30
0.0
 10
-38.667100000000005
 20
-80.905299999999997
 30
0.0
 10
-38.455400000000004
 20
-83.586399999999998
 30
0.0
 10
-36.620899999999999
 20
-85.738399999999999
 30
0.0
 10
-35.774300000000004
 20
-88.207800000000006
 30
0.0
 10
-35.774300000000004
 20
-88.207800000000006
 30
0.0
 10
-35.668399999999998
 20
-89.230900000000005
 30
0.0
 10
-35.103999999999999
 20
-90.112800000000007
 30
0.0
 10
-34.3279
 20
-90.747799999999998
 30
0.0
 10
-34.3279
 20
-90.747799999999998
 30
0.0
 10
-34.398400000000002
 20
-92.335300000000004
 30
0.0
 10
-33.798700000000004
 20
-93.8523
 30
0.0
 10
-33.445900000000002
 20
-95.369200000000006
 30
0.0
 10
-33.445900000000002
 20
-95.369200000000006
 30
0.0
 10
-32.317100000000003
 20
-97.591700000000003
 30
0.0
 10
-30.8354
 20
-99.708400000000012
 30
0.0
 10
-30.376800000000003
 20
-102.1778
 30
0.0
 10
-30.376800000000003
 20
-102.1778
 30
0.0
 10
-31.117600000000003
 20
-102.60120000000001
 30
0.0
 10
-31.893700000000003
 20
-102.98920000000001
 30
0.0
 10
-32.634599999999999
 20
-103.41260000000001
 30
0.0
 10
-32.634599999999999
 20
-103.41260000000001
 30
0.0
 10
-32.493400000000001
 20
-103.94170000000001
 30
0.0
 10
-32.317100000000003
 20
-104.4709
 30
0.0
 10
-32.140700000000002
 20
-104.96480000000001
 30
0.0
 10
-32.140700000000002
 20
-104.96480000000001
 30
0.0
 10
-31.646800000000002
 20
-105.0706
 30
0.0
 10
-31.188200000000002
 20
-105.21170000000001
 30
0.0
 10
-30.764800000000001
 20
-105.4234
 30
0.0
 10
-30.764800000000001
 20
-105.4234
 30
0.0
 10
-30.8001
 20
-106.41120000000001
 30
0.0
 10
-30.941200000000002
 20
-107.54010000000001
 30
0.0
 10
-30.024000000000001
 20
-108.2103
 30
0.0
 10
-30.024000000000001
 20
-108.2103
 30
0.0
 10
-30.412100000000002
 20
-110.39760000000001
 30
0.0
 10
-32.669800000000002
 20
-111.42060000000001
 30
0.0
 10
-34.680700000000002
 20
-111.7381
 30
0.0
 10
-34.680700000000002
 20
-111.7381
 30
0.0
 10
-35.703700000000005
 20
-111.77340000000001
 30
0.0
 10
-36.550400000000003
 20
-112.37310000000001
 30
0.0
 10
-37.397100000000002
 20
-112.83170000000001
 30
0.0
 10
-37.397100000000002
 20
-112.83170000000001
 30
0.0
 10
-39.019800000000004
 20
-110.99730000000001
 30
0.0
 10
-39.901800000000001
 20
-108.6337
 30
0.0
 10
-39.972300000000004
 20
-106.1995
 30
0.0
 10
-39.972300000000004
 20
-106.1995
 30
0.0
 10
-41.312899999999999
 20
-105.56450000000001
 30
0.0
 10
-42.865100000000005
 20
-105.63510000000001
 30
0.0
 10
-44.240900000000003
 20
-106.05840000000001
 30
0.0
 10
-44.240900000000003
 20
-106.05840000000001
 30
0.0
 10
-46.145900000000005
 20
-106.41120000000001
 30
0.0
 10
-47.945100000000004
 20
-105.49390000000001
 30
0.0
 10
-49.814800000000005
 20
-105.3528
 30
0.0
 10
-49.814800000000005
 20
-105.3528
 30
0.0
 10
-49.814800000000005
 20
-104.2239
 30
0.0
 10
-49.814800000000005
 20
-103.13030000000001
 30
0.0
 10
-49.814800000000005
 20
-102.0014
 30
0.0
 10
-49.814800000000005
 20
-102.0014
 30
0.0
 10
-49.144600000000004
 20
-101.43700000000001
 30
0.0
 10
-48.544800000000002
 20
-100.6962
 30
0.0
 10
-47.6629
 20
-100.5198
 30
0.0
 10
-47.6629
 20
-100.5198
 30
0.0
 10
-46.287100000000002
 20
-100.4492
 30
0.0
 10
-44.9465
 20
-100.5198
 30
0.0
 10
-43.605900000000005
 20
-100.48450000000001
 30
0.0
 10
-43.605900000000005
 20
-100.48450000000001
 30
0.0
 10
-43.041499999999999
 20
-101.43700000000001
 30
0.0
 10
-41.877300000000005
 20
-101.9662
 30
0.0
 10
-40.924800000000005
 20
-101.15480000000001
 30
0.0
 10
-40.924800000000005
 20
-101.15480000000001
 30
0.0
 10
-42.088999999999999
 20
-97.732800000000012
 30
0.0
 10
-43.0062
 20
-94.205100000000002
 30
0.0
 10
-43.500100000000003
 20
-90.64200000000001
 30
0.0
 10
-43.500100000000003
 20
-90.64200000000001
 30
0.0
 10
-43.535400000000003
 20
-90.112800000000007
 30
0.0
 10
-43.747100000000003
 20
-89.618900000000011
 30
0.0
 10
-43.888200000000005
 20
-89.089800000000011
 30
0.0
 10
-43.888200000000005
 20
-89.089800000000011
 30
0.0
 10
-45.440400000000004
 20
-90.289200000000008
 30
0.0
 10
-46.181200000000004
 20
-92.088400000000007
 30
0.0
 10
-47.027900000000002
 20
-93.746400000000008
 30
0.0
 10
-47.027900000000002
 20
-93.746400000000008
 30
0.0
 10
-48.756500000000003
 20
-96.2864
 30
0.0
 10
-50.132300000000001
 20
-99.073400000000007
 30
0.0
 10
-51.860900000000001
 20
-101.6134
 30
0.0
 10
-51.860900000000001
 20
-101.6134
 30
0.0
 10
-53.236800000000002
 20
-103.977
 30
0.0
 10
-54.8596
 20
-106.1995
 30
0.0
 10
-56.200100000000006
 20
-108.59840000000001
 30
0.0
 10
-56.200100000000006
 20
-108.59840000000001
 30
0.0
 10
-56.799800000000005
 20
-109.51560000000001
 30
0.0
 10
-57.258400000000002
 20
-110.57390000000001
 30
0.0
 10
-57.999300000000005
 20
-111.42060000000001
 30
0.0
 10
-57.999300000000005
 20
-111.42060000000001
 30
0.0
 10
-58.528400000000005
 20
-111.42060000000001
 30
0.0
 10
-59.057600000000001
 20
-111.42060000000001
 30
0.0
 10
-59.586800000000004
 20
-111.42060000000001
 30
0.0
 10
-59.586800000000004
 20
-111.42060000000001
 30
0.0
 10
-59.727900000000005
 20
-110.64450000000001
 30
0.0
 10
-60.221800000000002
 20
-109.86840000000001
 30
0.0
 10
-60.010100000000001
 20
-109.057
 30
0.0
 10
-60.010100000000001
 20
-109.057
 30
0.0
 10
-59.657299999999999
 20
-107.6812
 30
0.0
 10
-59.375100000000003
 20
-106.3053
 30
0.0
 10
-59.234000000000002
 20
-104.89420000000001
 30
0.0
 10
-59.234000000000002
 20
-104.89420000000001
 30
0.0
 10
-56.905700000000003
 20
-101.57810000000001
 30
0.0
 10
-54.259800000000006
 20
-98.473700000000008
 30
0.0
 10
-52.178400000000003
 20
-94.945900000000009
 30
0.0
 10
-52.178400000000003
 20
-94.945900000000009
 30
0.0
 10
-51.860900000000001
 20
-94.416700000000006
 30
0.0
 10
-51.649300000000004
 20
-93.817000000000007
 30
0.0
 10
-51.437600000000003
 20
-93.217300000000009
 30
0.0
 10
-51.437600000000003
 20
-93.217300000000009
 30
0.0
 10
-50.2029
 20
-90.183400000000006
 30
0.0
 10
-47.415900000000001
 20
-87.996200000000002
 30
0.0
 10
-46.392900000000004
 20
-84.856400000000008
 30
0.0
 10
-46.392900000000004
 20
-84.856400000000008
 30
0.0
 10
-45.652100000000004
 20
-83.1631
 30
0.0
 10
-44.629000000000005
 20
-81.575600000000009
 30
0.0
 10
-44.029299999999999
 20
-79.811700000000002
 30
0.0
 10
-44.029299999999999
 20
-79.811700000000002
 30
0.0
 10
-43.323700000000002
 20
-78.894500000000008
 30
0.0
 10
-42.335900000000002
 20
-78.188900000000004
 30
0.0
 10
-41.983200000000004
 20
-77.024799999999999
 30
0.0
  0
SPLINE
  5
37
100
AcDbEntity
  8
LAYER_1
100
AcDbSpline
210
0.0
220
0.0
230
1.0
 70
     1
 71
     3
 72
   144
 73
   140
 74
     0
 42
0.0000000001
 43
0.0000000001
 40
0.0
 40
0.0
 40
0.0
 40
0.0
 40
0.0285714285714286
 40
0.0285714285714286
 40
0.0285714285714286
 40
0.0285714285714286
 40
0.0571428571428571
 40
0.0571428571428571
 40
0.0571428571428571
 40
0.0571428571428571
 40
0.0857142857142857
 40
0.0857142857142857
 40
0.0857142857142857
 40
0.0857142857142857
 40
0.1142857142857143
 40
0.1142857142857143
 40
0.1142857142857143
 40
0.1142857142857143
 40
0.1428571428571429
 40
0.1428571428571429
 40
0.1428571428571429
 40
0.1428571428571429
 40
0.1714285714285714
 40
0.1714285714285714
 40
0.1714285714285714
 40
0.1714285714285714
 40
0.2
 40
0.2
 40
0.2
 40
0.2
 40
0.2285714285714286
 40
0.2285714285714286
 40
0.2285714285714286
 40
0.2285714285714286
 40
0.2571428571428572
 40
0.2571428571428572
 40
0.2571428571428572
 40
0.2571428571428572
 40
0.2857142857142858
 40
0.2857142857142858
 40
0.2857142857142858
 40
0.2857142857142858
 40
0.3142857142857143
 40
0.3142857142857143
 40
0.3142857142857143
 40
0.3142857142857143
 40
0.3428571428571429
 40
0.3428571428571429
 40
0.3428571428571429
 40
0.3428571428571429
 40
0.3714285714285715
 40
0.3714285714285715
 40
0.3714285714285715
 40
0.3714285714285715
 40
0.4000000000000001
 40
0.4000000000000001
 40
0.4000000000000001
 40
0.4000000000000001
 40
0.4285714285714287
 40
0.4285714285714287
 40
0.4285714285714287
 40
0.4285714285714287
 40
0.4571428571428572
 40
0.4571428571428572
 40
0.4571428571428572
 40
0.4571428571428572
 40
0.4857142857142858
 40
0.4857142857142858
 40
0.4857142857142858
 40
0.4857142857142858
 40
0.5142857142857144
 40
0.5142857142857144
 40
0.5142857142857144
 40
0.5142857142857144
 40
0.5428571428571429
 40
0.5428571428571429
 40
0.5428571428571429
 40
0.5428571428571429
 40
0.5714285714285715
 40
0.5714285714285715
 40
0.5714285714285715
 40
0.5714285714285715
 40
0.6000000000000001
 40
0.6000000000000001
 40
0.6000000000000001
 40
0.6000000000000001
 40
0.6285714285714287
 40
0.6285714285714287
 40
0.6285714285714287
 40
0.6285714285714287
 40
0.6571428571428573
 40
0.6571428571428573
 40
0.6571428571428573
 40
0.6571428571428573
 40
0.6857142857142858
 40
0.6857142857142858
 40
0.6857142857142858
 40
0.6857142857142858
 40
0.7142857142857144
 40
0.7142857142857144
 40
0.7142857142857144
 40
0.7142857142857144
 40
0.742857142857143
 40
0.742857142857143
 40
0.742857142857143
 40
0.742857142857143
 40
0.7714285714285716
 40
0.7714285714285716
 40
0.7714285714285716
 40
0.7714285714285716
 40
0.8000000000000002
 40
0.8000000000000002
 40
0.8000000000000002
 40
0.8000000000000002
 40
0.8285714285714287
 40
0.8285714285714287
 40
0.8285714285714287
 40
0.8285714285714287
 40
0.8571428571428573
 40
0.8571428571428573
 40
0.8571428571428573
 40
0.8571428571428573
 40
0.8857142857142859
 40
0.8857142857142859
 40
0.8857142857142859
 40
0.8857142857142859
 40
0.9142857142857145
 40
0.9142857142857145
 40
0.9142857142857145
 40
0.9142857142857145
 40
0.9428571428571431
 40
0.9428571428571431
 40
0.9428571428571431
 40
0.9428571428571431
 40
0.9714285714285716
 40
0.9714285714285716
 40
0.9714285714285716
 40
0.9714285714285716
 40
1.0
 40
1.0
 40
1.0
 40
1.0
 10
13.861600000000001
 20
-77.2012
 30
0.0
 10
14.602400000000001
 20
-77.2012
 30
0.0
 10
15.343200000000001
 20
-77.2012
 30
0.0
 10
16.084099999999999
 20
-77.2012
 30
0.0
 10
16.084099999999999
 20
-77.2012
 30
0.0
 10
16.013500000000001
 20
-78.576999999999998
 30
0.0
 10
16.966000000000001
 20
-79.670600000000007
 30
0.0
 10
17.459900000000001
 20
-80.870100000000008
 30
0.0
 10
17.459900000000001
 20
-80.870100000000008
 30
0.0
 10
17.7774
 20
-82.810299999999998
 30
0.0
 10
18.236000000000001
 20
-84.715299999999999
 30
0.0
 10
18.3066
 20
-86.655600000000007
 30
0.0
 10
18.3066
 20
-86.655600000000007
 30
0.0
 10
18.5182
 20
-87.255300000000005
 30
0.0
 10
18.588800000000003
 20
-87.960900000000009
 30
0.0
 10
19.082700000000003
 20
-88.384200000000007
 30
0.0
 10
19.082700000000003
 20
-88.384200000000007
 30
0.0
 10
20.387900000000002
 20
-89.830600000000004
 30
0.0
 10
20.634900000000002
 20
-91.841400000000007
 30
0.0
 10
21.340400000000002
 20
-93.570100000000011
 30
0.0
 10
21.340400000000002
 20
-93.570100000000011
 30
0.0
 10
21.622700000000002
 20
-94.205100000000002
 30
0.0
 10
21.305199999999999
 20
-94.840100000000007
 30
0.0
 10
21.058199999999999
 20
-95.404499999999999
 30
0.0
 10
21.058199999999999
 20
-95.404499999999999
 30
0.0
 10
21.834300000000002
 20
-96.004200000000012
 30
0.0
 10
22.4693
 20
-96.745100000000008
 30
0.0
 10
22.892700000000001
 20
-97.591700000000003
 30
0.0
 10
22.892700000000001
 20
-97.591700000000003
 30
0.0
 10
22.7163
 20
-97.979800000000012
 30
0.0
 10
22.539899999999999
 20
-98.367800000000003
 30
0.0
 10
22.363500000000002
 20
-98.720600000000005
 30
0.0
 10
22.363500000000002
 20
-98.720600000000005
 30
0.0
 10
22.857400000000002
 20
-99.249800000000008
 30
0.0
 10
23.386600000000001
 20
-99.778900000000007
 30
0.0
 10
23.915700000000001
 20
-100.2728
 30
0.0
 10
23.915700000000001
 20
-100.2728
 30
0.0
 10
23.845200000000002
 20
-101.7192
 30
0.0
 10
23.951000000000001
 20
-103.2009
 30
0.0
 10
24.374300000000002
 20
-104.61200000000001
 30
0.0
 10
24.374300000000002
 20
-104.61200000000001
 30
0.0
 10
24.9741
 20
-105.45870000000001
 30
0.0
 10
25.926600000000001
 20
-105.91730000000001
 30
0.0
 10
26.7379
 20
-106.5523
 30
0.0
 10
26.7379
 20
-106.5523
 30
0.0
 10
26.7379
 20
-107.64590000000001
 30
0.0
 10
26.561600000000002
 20
-108.81010000000001
 30
0.0
 10
27.126000000000001
 20
-109.8331
 30
0.0
 10
27.126000000000001
 20
-109.8331
 30
0.0
 10
25.573800000000002
 20
-110.22120000000001
 30
0.0
 10
25.7502
 20
-112.02030000000001
 30
0.0
 10
25.2563
 20
-113.21980000000001
 30
0.0
 10
25.2563
 20
-113.21980000000001
 30
0.0
 10
23.845200000000002
 20
-113.3609
 30
0.0
 10
22.5046
 20
-112.5142
 30
0.0
 10
21.128800000000002
 20
-113.14920000000001
 30
0.0
 10
21.128800000000002
 20
-113.14920000000001
 30
0.0
 10
19.929300000000001
 20
-112.6906
 30
0.0
 10
18.588800000000003
 20
-112.0909
 30
0.0
 10
17.3188
 20
-112.83170000000001
 30
0.0
 10
17.3188
 20
-112.83170000000001
 30
0.0
 10
16.225200000000001
 20
-111.52640000000001
 30
0.0
 10
14.390700000000001
 20
-110.29170000000001
 30
0.0
 10
14.743500000000001
 20
-108.31620000000001
 30
0.0
 10
14.743500000000001
 20
-108.31620000000001
 30
0.0
 10
14.1791
 20
-108.13980000000001
 30
0.0
 10
13.649900000000001
 20
-107.9281
 30
0.0
 10
13.120700000000001
 20
-107.78700000000001
 30
0.0
 10
13.120700000000001
 20
-107.78700000000001
 30
0.0
 10
12.9091
 20
-108.31620000000001
 30
0.0
 10
12.6974
 20
-108.81010000000001
 30
0.0
 10
12.521000000000001
 20
-109.33920000000001
 30
0.0
 10
12.521000000000001
 20
-109.33920000000001
 30
0.0
 10
10.8629
 20
-109.4803
 30
0.0
 10
9.3107000000000006
 20
-108.7748
 30
0.0
 10
7.6879
 20
-108.9512
 30
0.0
 10
7.6879
 20
-108.9512
 30
0.0
 10
7.6527000000000003
 20
-107.0462
 30
0.0
 10
7.8643000000000001
 20
-105.0706
 30
0.0
 10
8.8521000000000001
 20
-103.41260000000001
 30
0.0
 10
8.8521000000000001
 20
-103.41260000000001
 30
0.0
 10
9.3813000000000013
 20
-102.81280000000001
 30
0.0
 10
10.298500000000001
 20
-102.35420000000001
 30
0.0
 10
11.0746
 20
-102.7423
 30
0.0
 10
11.0746
 20
-102.7423
 30
0.0
 10
11.7096
 20
-103.0245
 30
0.0
 10
12.9091
 20
-103.2009
 30
0.0
 10
12.979600000000001
 20
-102.21310000000001
 30
0.0
 10
12.979600000000001
 20
-102.21310000000001
 30
0.0
 10
12.3093
 20
-99.637799999999999
 30
0.0
 10
12.2035
 20
-96.956699999999998
 30
0.0
 10
11.1099
 20
-94.487300000000005
 30
0.0
 10
11.1099
 20
-94.487300000000005
 30
0.0
 10
10.898200000000001
 20
-94.487300000000005
 30
0.0
 10
10.4749
 20
-94.487300000000005
 30
0.0
 10
10.2279
 20
-94.487300000000005
 30
0.0
 10
10.2279
 20
-94.487300000000005
 30
0.0
 10
9.0638000000000005
 20
-96.251200000000011
 30
0.0
 10
7.9702000000000002
 20
-98.120900000000006
 30
0.0
 10
7.3704000000000001
 20
-100.167
 30
0.0
 10
7.3704000000000001
 20
-100.167
 30
0.0
 10
6.806
 20
-102.072
 30
0.0
 10
5.5007000000000001
 20
-103.65950000000001
 30
0.0
 10
4.0895999999999999
 20
-105.0001
 30
0.0
 10
4.0895999999999999
 20
-105.0001
 30
0.0
 10
3.3135000000000003
 20
-106.2701
 30
0.0
 10
3.7721
 20
-107.9281
 30
0.0
 10
2.996
 20
-109.19810000000001
 30
0.0
 10
2.996
 20
-109.19810000000001
 30
0.0
 10
2.2199
 20
-110.53870000000001
 30
0.0
 10
1.7966000000000002
 20
-112.1614
 30
0.0
 10
0.4913
 20
-113.14920000000001
 30
0.0
 10
0.4913
 20
-113.14920000000001
 30
0.0
 10
-0.4612
 20
-113.43140000000001
 30
0.0
 10
-1.2373000000000001
 20
-112.54950000000001
 30
0.0
 10
-2.1546000000000003
 20
-112.65530000000001
 30
0.0
 10
-2.1546000000000003
 20
-112.65530000000001
 30
0.0
 10
-2.9659
 20
-111.1384
 30
0.0
 10
-2.4368000000000003
 20
-109.44510000000001
 30
0.0
 10
-1.7312000000000001
 20
-107.9987
 30
0.0
 10
-1.7312000000000001
 20
-107.9987
 30
0.0
 10
-1.2021000000000002
 20
-106.34060000000001
 30
0.0
 10
-0.1084
 20
-104.9295
 30
0.0
 10
0.1385
 20
-103.16560000000001
 30
0.0
 10
0.1385
 20
-103.16560000000001
 30
0.0
 10
0.5266000000000001
 20
-100.55510000000001
 30
0.0
 10
2.6432000000000002
 20
-98.720600000000005
 30
0.0
 10
3.5604
 20
-96.356999999999999
 30
0.0
 10
3.5604
 20
-96.356999999999999
 30
0.0
 10
4.4070999999999998
 20
-94.063900000000004
 30
0.0
 10
5.1478999999999999
 20
-91.594500000000011
 30
0.0
 10
6.8766000000000007
 20
-89.760100000000008
 30
0.0
 10
6.8766000000000007
 20
-89.760100000000008
 30
0.0
 10
7.3352000000000004
 20
-88.3489
 30
0.0
 10
7.5821000000000005
 20
-86.8673
 30
0.0
 10
8.1818000000000008
 20
-85.45620000000001
 30
0.0
 10
8.1818000000000008
 20
-85.45620000000001
 30
0.0
 10
9.9809999999999999
 20
-82.669200000000004
 30
0.0
 10
12.097700000000001
 20
-80.058700000000002
 30
0.0
 10
13.861600000000001
 20
-77.2012
 30
0.0
  0
SPLINE
  5
38
100
AcDbEntity
  8
LAYER_1
100
AcDbSpline
210
0.0
220
0.0
230
1.0
 70
     1
 71
     3
 72
    40
 73
    36
 74
     0
 42
0.0000000001
 43
0.0000000001
 40
0.0
 40
0.0
 40
0.0
 40
0.0
 40
0.1111111111111111
 40
0.1111111111111111
 40
0.1111111111111111
 40
0.1111111111111111
 40
0.2222222222222222
 40
0.2222222222222222
 40
0.2222222222222222
 40
0.2222222222222222
 40
0.3333333333333333
 40
0.3333333333333333
 40
0.3333333333333333
 40
0.3333333333333333
 40
0.4444444444444444
 40
0.4444444444444444
 40
0.4444444444444444
 40
0.4444444444444444
 40
0.5555555555555556
 40
0.5555555555555556
 40
0.5555555555555556
 40
0.5555555555555556
 40
0.6666666666666667
 40
0.6666666666666667
 40
0.6666666666666667
 40
0.6666666666666667
 40
0.7777777777777779
 40
0.7777777777777779
 40
0.7777777777777779
 40
0.7777777777777779
 40
0.8888888888888891
 40
0.8888888888888891
 40
0.8888888888888891
 40
0.8888888888888891
 40
1.0
 40
1.0
 40
1.0
 40
1.0
 10
64.979100000000003
 20
-83.657000000000011
 30
0.0
 10
66.390200000000007
 20
-83.4101
 30
0.0
 10
67.9071
 20
-83.551200000000009
 30
0.0
 10
69.353499999999997
 20
-83.586399999999998
 30
0.0
 10
69.353499999999997
 20
-83.586399999999998
 30
0.0
 10
71.576000000000008
 20
-84.221400000000003
 30
0.0
 10
73.798500000000004
 20
-85.45620000000001
 30
0.0
 10
74.997900000000001
 20
-87.502300000000005
 30
0.0
 10
74.997900000000001
 20
-87.502300000000005
 30
0.0
 10
76.938200000000009
 20
-90.253900000000002
 30
0.0
 10
76.938200000000009
 20
-94.063900000000004
 30
0.0
 10
75.527100000000004
 20
-97.062600000000003
 30
0.0
 10
75.527100000000004
 20
-97.062600000000003
 30
0.0
 10
74.468800000000002
 20
-99.002800000000008
 30
0.0
 10
72.740200000000002
 20
-100.55510000000001
 30
0.0
 10
70.694100000000006
 20
-101.40170000000001
 30
0.0
 10
70.694100000000006
 20
-101.40170000000001
 30
0.0
 10
69.000700000000009
 20
-102.21310000000001
 30
0.0
 10
67.060400000000001
 20
-101.86030000000001
 30
0.0
 10
65.261300000000006
 20
-101.86030000000001
 30
0.0
 10
65.261300000000006
 20
-101.86030000000001
 30
0.0
 10
62.544900000000005
 20
-101.1195
 30
0.0
 10
59.863800000000005
 20
-99.35560000000001
 30
0.0
 10
58.840700000000005
 20
-96.60390000000001
 30
0.0
 10
58.840700000000005
 20
-96.60390000000001
 30
0.0
 10
57.817700000000002
 20
-94.769500000000008
 30
0.0
 10
58.135200000000005
 20
-92.652799999999999
 30
0.0
 10
58.170400000000001
 20
-90.677300000000002
 30
0.0
 10
58.170400000000001
 20
-90.677300000000002
 30
0.0
 10
58.770200000000003
 20
-88.419499999999999
 30
0.0
 10
60.004900000000006
 20
-86.267600000000002
 30
0.0
 10
62.015700000000002
 20
-84.962299999999999
 30
0.0
 10
62.015700000000002
 20
-84.962299999999999
 30
0.0
 10
62.968200000000003
 20
-84.468400000000003
 30
0.0
 10
63.920700000000004
 20
-83.974500000000006
 30
0.0
 10
64.979100000000003
 20
-83.657000000000011
 30
0.0
  0
SPLINE
  5
39
100
AcDbEntity
  8
LAYER_1
 62
     7
100
AcDbSpline
210
0.0
220
0.0
230
1.0
 70
     1
 71
     3
 72
    32
 73
    28
 74
     0
 42
0.0000000001
 43
0.0000000001
 40
0.0
 40
0.0
 40
0.0
 40
0.0
 40
0.1428571428571429
 40
0.1428571428571429
 40
0.1428571428571429
 40
0.1428571428571429
 40
0.2857142857142857
 40
0.2857142857142857
 40
0.2857142857142857
 40
0.2857142857142857
 40
0.4285714285714286
 40
0.4285714285714286
 40
0.4285714285714286
 40
0.4285714285714286
 40
0.5714285714285714
 40
0.5714285714285714
 40
0.5714285714285714
 40
0.5714285714285714
 40
0.7142857142857142
 40
0.7142857142857142
 40
0.7142857142857142
 40
0.7142857142857142
 40
0.857142857142857
 40
0.857142857142857
 40
0.857142857142857
 40
0.857142857142857
 40
1.0
 40
1.0
 40
1.0
 40
1.0
 10
66.390200000000007
 20
-84.3626
 30
0.0
 10
67.836600000000004
 20
-84.009799999999998
 30
0.0
 10
69.318200000000004
 20
-84.609499999999997
 30
0.0
 10
70.623500000000007
 20
-85.173900000000003
 30
0.0
 10
70.623500000000007
 20
-85.173900000000003
 30
0.0
 10
73.481000000000009
 20
-86.443899999999999
 30
0.0
 10
75.38600000000001
 20
-89.372
 30
0.0
 10
75.703500000000005
 20
-92.441200000000009
 30
0.0
 10
75.703500000000005
 20
-92.441200000000009
 30
0.0
 10
75.703500000000005
 20
-96.498100000000008
 30
0.0
 10
72.493200000000002
 20
-100.20230000000001
 30
0.0
 10
68.506799999999998
 20
-100.97840000000001
 30
0.0
 10
68.506799999999998
 20
-100.97840000000001
 30
0.0
 10
67.342700000000008
 20
-101.4723
 30
0.0
 10
66.143200000000007
 20
-100.97840000000001
 30
0.0
 10
64.979100000000003
 20
-100.6962
 30
0.0
 10
64.979100000000003
 20
-100.6962
 30
0.0
 10
62.262700000000002
 20
-100.02590000000001
 30
0.0
 10
60.040200000000006
 20
-97.768100000000004
 30
0.0
 10
59.299300000000002
 20
-95.087000000000003
 30
0.0
 10
59.299300000000002
 20
-95.087000000000003
 30
0.0
 10
58.276300000000006
 20
-92.723399999999998
 30
0.0
 10
59.017100000000006
 20
-89.971699999999998
 30
0.0
 10
60.463500000000003
 20
-87.996200000000002
 30
0.0
 10
60.463500000000003
 20
-87.996200000000002
 30
0.0
 10
61.733500000000006
 20
-85.9148
 30
0.0
 10
64.061800000000005
 20
-84.785899999999998
 30
0.0
 10
66.390200000000007
 20
-84.3626
 30
0.0
  0
SPLINE
  5
3A
100
AcDbEntity
  8
LAYER_1
100
AcDbSpline
210
0.0
220
0.0
230
1.0
 70
     1
 71
     3
 72
    36
 73
    32
 74
     0
 42
0.0000000001
 43
0.0000000001
 40
0.0
 40
0.0
 40
0.0
 40
0.0
 40
0.125
 40
0.125
 40
0.125
 40
0.125
 40
0.25
 40
0.25
 40
0.25
 40
0.25
 40
0.375
 40
0.375
 40
0.375
 40
0.375
 40
0.5
 40
0.5
 40
0.5
 40
0.5
 40
0.625
 40
0.625
 40
0.625
 40
0.625
 40
0.75
 40
0.75
 40
0.75
 40
0.75
 40
0.875
 40
0.875
 40
0.875
 40
0.875
 40
1.0
 40
1.0
 40
1.0
 40
1.0
 10
60.604600000000005
 20
-89.901200000000003
 30
0.0
 10
62.368500000000004
 20
-89.901200000000003
 30
0.0
 10
64.132400000000004
 20
-89.901200000000003
 30
0.0
 10
65.896299999999997
 20
-89.901200000000003
 30
0.0
 10
65.896299999999997
 20
-89.901200000000003
 30
0.0
 10
65.896299999999997
 20
-90.077600000000004
 30
0.0
 10
65.896299999999997
 20
-90.430300000000003
 30
0.0
 10
65.896299999999997
 20
-90.606700000000004
 30
0.0
 10
65.896299999999997
 20
-90.606700000000004
 30
0.0
 10
65.084900000000005
 20
-90.606700000000004
 30
0.0
 10
64.238200000000006
 20
-90.606700000000004
 30
0.0
 10
63.4268
 20
-90.606700000000004
 30
0.0
 10
63.4268
 20
-90.606700000000004
 30
0.0
 10
63.4268
 20
-92.476399999999998
 30
0.0
 10
63.4268
 20
-94.381399999999999
 30
0.0
 10
63.4268
 20
-96.251200000000011
 30
0.0
 10
63.4268
 20
-96.251200000000011
 30
0.0
 10
63.144600000000004
 20
-96.251200000000011
 30
0.0
 10
62.650700000000001
 20
-96.251200000000011
 30
0.0
 10
62.368500000000004
 20
-96.251200000000011
 30
0.0
 10
62.368500000000004
 20
-96.251200000000011
 30
0.0
 10
62.368500000000004
 20
-94.381399999999999
 30
0.0
 10
62.368500000000004
 20
-92.476399999999998
 30
0.0
 10
62.368500000000004
 20
-90.606700000000004
 30
0.0
 10
62.368500000000004
 20
-90.606700000000004
 30
0.0
 10
61.768800000000006
 20
-90.606700000000004
 30
0.0
 10
61.204300000000003
 20
-90.606700000000004
 30
0.0
 10
60.604600000000005
 20
-90.606700000000004
 30
0.0
 10
60.604600000000005
 20
-90.606700000000004
 30
0.0
 10
60.604600000000005
 20
-90.430300000000003
 30
0.0
 10
60.604600000000005
 20
-90.077600000000004
 30
0.0
 10
60.604600000000005
 20
-89.901200000000003
 30
0.0
  0
SPLINE
  5
3B
100
AcDbEntity
  8
LAYER_1
100
AcDbSpline
210
0.0
220
0.0
230
1.0
 70
     1
 71
     3
 72
    56
 73
    52
 74
     0
 42
0.0000000001
 43
0.0000000001
 40
0.0
 40
0.0
 40
0.0
 40
0.0
 40
0.0769230769230769
 40
0.0769230769230769
 40
0.0769230769230769
 40
0.0769230769230769
 40
0.1538461538461539
 40
0.1538461538461539
 40
0.1538461538461539
 40
0.1538461538461539
 40
0.2307692307692308
 40
0.2307692307692308
 40
0.2307692307692308
 40
0.2307692307692308
 40
0.3076923076923077
 40
0.3076923076923077
 40
0.3076923076923077
 40
0.3076923076923077
 40
0.3846153846153846
 40
0.3846153846153846
 40
0.3846153846153846
 40
0.3846153846153846
 40
0.4615384615384616
 40
0.4615384615384616
 40
0.4615384615384616
 40
0.4615384615384616
 40
0.5384615384615386
 40
0.5384615384615386
 40
0.5384615384615386
 40
0.5384615384615386
 40
0.6153846153846154
 40
0.6153846153846154
 40
0.6153846153846154
 40
0.6153846153846154
 40
0.6923076923076923
 40
0.6923076923076923
 40
0.6923076923076923
 40
0.6923076923076923
 40
0.7692307692307692
 40
0.7692307692307692
 40
0.7692307692307692
 40
0.7692307692307692
 40
0.846153846153846
 40
0.846153846153846
 40
0.846153846153846
 40
0.846153846153846
 40
0.9230769230769229
 40
0.9230769230769229
 40
0.9230769230769229
 40
0.9230769230769229
 40
1.0
 40
1.0
 40
1.0
 40
1.0
 10
66.249099999999999
 20
-89.901200000000003
 30
0.0
 10
66.672399999999996
 20
-89.901200000000003
 30
0.0
 10
67.095700000000008
 20
-89.901200000000003
 30
0.0
 10
67.554299999999998
 20
-89.901200000000003
 30
0.0
 10
67.554299999999998
 20
-89.901200000000003
 30
0.0
 10
68.224600000000009
 20
-91.488700000000009
 30
0.0
 10
68.824300000000008
 20
-93.0762
 30
0.0
 10
69.6357
 20
-94.628399999999999
 30
0.0
 10
69.6357
 20
-94.628399999999999
 30
0.0
 10
70.059100000000001
 20
-93.005600000000001
 30
0.0
 10
70.764600000000002
 20
-91.488700000000009
 30
0.0
 10
71.258499999999998
 20
-89.901200000000003
 30
0.0
 10
71.258499999999998
 20
-89.901200000000003
 30
0.0
 10
71.822900000000004
 20
-89.901200000000003
 30
0.0
 10
72.3874
 20
-89.901200000000003
 30
0.0
 10
72.951800000000006
 20
-89.901200000000003
 30
0.0
 10
72.951800000000006
 20
-89.901200000000003
 30
0.0
 10
72.951800000000006
 20
-92.017800000000008
 30
0.0
 10
72.951800000000006
 20
-94.134500000000003
 30
0.0
 10
72.951800000000006
 20
-96.251200000000011
 30
0.0
 10
72.951800000000006
 20
-96.251200000000011
 30
0.0
 10
72.352100000000007
 20
-96.251200000000011
 30
0.0
 10
71.787700000000001
 20
-96.251200000000011
 30
0.0
 10
71.187899999999999
 20
-96.251200000000011
 30
0.0
 10
71.187899999999999
 20
-96.251200000000011
 30
0.0
 10
71.187899999999999
 20
-95.016400000000004
 30
0.0
 10
71.223200000000006
 20
-93.746400000000008
 30
0.0
 10
71.15270000000001
 20
-92.511700000000005
 30
0.0
 10
71.15270000000001
 20
-92.511700000000005
 30
0.0
 10
70.517700000000005
 20
-93.675899999999999
 30
0.0
 10
70.447100000000006
 20
-95.12230000000001
 30
0.0
 10
69.706299999999999
 20
-96.251200000000011
 30
0.0
 10
69.706299999999999
 20
-96.251200000000011
 30
0.0
 10
69.036000000000001
 20
-96.462800000000001
 30
0.0
 10
68.789100000000005
 20
-95.757300000000001
 30
0.0
 10
68.612700000000004
 20
-95.298700000000011
 30
0.0
 10
68.612700000000004
 20
-95.298700000000011
 30
0.0
 10
68.118800000000007
 20
-94.169800000000009
 30
0.0
 10
67.871800000000007
 20
-92.935100000000006
 30
0.0
 10
67.342700000000008
 20
-91.806200000000004
 30
0.0
 10
67.342700000000008
 20
-91.806200000000004
 30
0.0
 10
67.236800000000002
 20
-93.287800000000004
 30
0.0
 10
67.342700000000008
 20
-94.769500000000008
 30
0.0
 10
67.307400000000001
 20
-96.251200000000011
 30
0.0
 10
67.307400000000001
 20
-96.251200000000011
 30
0.0
 10
67.025199999999998
 20
-96.251200000000011
 30
0.0
 10
66.531300000000002
 20
-96.251200000000011
 30
0.0
 10
66.249099999999999
 20
-96.251200000000011
 30
0.0
 10
66.249099999999999
 20
-96.251200000000011
 30
0.0
 10
66.249099999999999
 20
-94.134500000000003
 30
0.0
 10
66.249099999999999
 20
-92.017800000000008
 30
0.0
 10
66.249099999999999
 20
-89.901200000000003
 30
0.0
  0
SPLINE
  5
3C
100
AcDbEntity
  8
LAYER_1
100
AcDbSpline
210
0.0
220
0.0
230
1.0
 70
     1
 71
     3
 72
    76
 73
    72
 74
     0
 42
0.0000000001
 43
0.0000000001
 40
0.0
 40
0.0
 40
0.0
 40
0.0
 40
0.0555555555555556
 40
0.0555555555555556
 40
0.0555555555555556
 40
0.0555555555555556
 40
0.1111111111111111
 40
0.1111111111111111
 40
0.1111111111111111
 40
0.1111111111111111
 40
0.1666666666666667
 40
0.1666666666666667
 40
0.1666666666666667
 40
0.1666666666666667
 40
0.2222222222222222
 40
0.2222222222222222
 40
0.2222222222222222
 40
0.2222222222222222
 40
0.2777777777777778
 40
0.2777777777777778
 40
0.2777777777777778
 40
0.2777777777777778
 40
0.3333333333333334
 40
0.3333333333333334
 40
0.3333333333333334
 40
0.3333333333333334
 40
0.388888888888889
 40
0.388888888888889
 40
0.388888888888889
 40
0.388888888888889
 40
0.4444444444444445
 40
0.4444444444444445
 40
0.4444444444444445
 40
0.4444444444444445
 40
0.5000000000000001
 40
0.5000000000000001
 40
0.5000000000000001
 40
0.5000000000000001
 40
0.5555555555555557
 40
0.5555555555555557
 40
0.5555555555555557
 40
0.5555555555555557
 40
0.6111111111111113
 40
0.6111111111111113
 40
0.6111111111111113
 40
0.6111111111111113
 40
0.6666666666666669
 40
0.6666666666666669
 40
0.6666666666666669
 40
0.6666666666666669
 40
0.7222222222222224
 40
0.7222222222222224
 40
0.7222222222222224
 40
0.7222222222222224
 40
0.777777777777778
 40
0.777777777777778
 40
0.777777777777778
 40
0.777777777777778
 40
0.8333333333333336
 40
0.8333333333333336
 40
0.8333333333333336
 40
0.8333333333333336
 40
0.8888888888888892
 40
0.8888888888888892
 40
0.8888888888888892
 40
0.8888888888888892
 40
0.9444444444444448
 40
0.9444444444444448
 40
0.9444444444444448
 40
0.9444444444444448
 40
1.0
 40
1.0
 40
1.0
 40
1.0
 10
40.002400000000002
 20
-95.545600000000007
 30
0.0
 10
40.3904
 20
-95.12230000000001
 30
0.0
 10
40.813800000000001
 20
-94.698900000000009
 30
0.0
 10
41.237100000000005
 20
-94.310900000000004
 30
0.0
 10
41.237100000000005
 20
-94.310900000000004
 30
0.0
 10
41.801600000000001
 20
-95.757300000000001
 30
0.0
 10
43.247900000000001
 20
-96.2864
 30
0.0
 10
44.588500000000003
 20
-96.745100000000008
 30
0.0
 10
44.588500000000003
 20
-96.745100000000008
 30
0.0
 10
46.140700000000002
 20
-98.085599999999999
 30
0.0
 10
47.622399999999999
 20
-99.567300000000003
 30
0.0
 10
49.633200000000002
 20
-100.167
 30
0.0
 10
49.633200000000002
 20
-100.167
 30
0.0
 10
51.150200000000005
 20
-100.7667
 30
0.0
 10
52.067399999999999
 20
-102.21310000000001
 30
0.0
 10
53.407900000000005
 20
-103.0951
 30
0.0
 10
53.407900000000005
 20
-103.0951
 30
0.0
 10
54.783799999999999
 20
-104.4003
 30
0.0
 10
56.935700000000004
 20
-105.28230000000001
 30
0.0
 10
57.182700000000004
 20
-107.4342
 30
0.0
 10
57.182700000000004
 20
-107.4342
 30
0.0
 10
58.487900000000003
 20
-108.49260000000001
 30
0.0
 10
60.2166
 20
-108.73950000000001
 30
0.0
 10
61.451300000000003
 20
-109.9037
 30
0.0
 10
61.451300000000003
 20
-109.9037
 30
0.0
 10
63.003500000000003
 20
-110.2564
 30
0.0
 10
64.555700000000002
 20
-110.64450000000001
 30
0.0
 10
65.896299999999997
 20
-111.4559
 30
0.0
 10
65.896299999999997
 20
-111.4559
 30
0.0
 10
65.896299999999997
 20
-112.79640000000001
 30
0.0
 10
65.896299999999997
 20
-114.17230000000001
 30
0.0
 10
65.896299999999997
 20
-115.5128
 30
0.0
 10
65.896299999999997
 20
-115.5128
 30
0.0
 10
65.614100000000008
 20
-115.79510000000001
 30
0.0
 10
65.331800000000001
 20
-116.042
 30
0.0
 10
65.049599999999998
 20
-116.3242
 30
0.0
 10
65.049599999999998
 20
-116.3242
 30
0.0
 10
64.238200000000006
 20
-116.35950000000001
 30
0.0
 10
63.391600000000004
 20
-116.28890000000001
 30
0.0
 10
62.650700000000001
 20
-116.7123
 30
0.0
 10
62.650700000000001
 20
-116.7123
 30
0.0
 10
61.874600000000001
 20
-115.9362
 30
0.0
 10
60.745699999999999
 20
-115.8656
 30
0.0
 10
59.828500000000005
 20
-115.3717
 30
0.0
 10
59.828500000000005
 20
-115.3717
 30
0.0
 10
59.122900000000001
 20
-114.9131
 30
0.0
 10
58.276300000000006
 20
-114.8426
 30
0.0
 10
57.5002
 20
-114.56030000000001
 30
0.0
 10
57.5002
 20
-114.56030000000001
 30
0.0
 10
57.359100000000005
 20
-113.67840000000001
 30
0.0
 10
57.112100000000005
 20
-112.62010000000001
 30
0.0
 10
56.159600000000005
 20
-112.3378
 30
0.0
 10
56.159600000000005
 20
-112.3378
 30
0.0
 10
54.9602
 20
-111.94980000000001
 30
0.0
 10
53.513800000000003
 20
-112.1614
 30
0.0
 10
52.420200000000001
 20
-111.49120000000001
 30
0.0
 10
52.420200000000001
 20
-111.49120000000001
 30
0.0
 10
48.645400000000002
 20
-107.54010000000001
 30
0.0
 10
43.918199999999999
 20
-104.71780000000001
 30
0.0
 10
39.579100000000004
 20
-101.40170000000001
 30
0.0
 10
39.579100000000004
 20
-101.40170000000001
 30
0.0
 10
39.014600000000002
 20
-100.9431
 30
0.0
 10
38.062100000000001
 20
-100.4139
 30
0.0
 10
38.450200000000002
 20
-99.496700000000004
 30
0.0
 10
38.450200000000002
 20
-99.496700000000004
 30
0.0
 10
39.0852
 20
-98.226700000000008
 30
0.0
 10
38.1327
 20
-96.921400000000006
 30
0.0
 10
38.344300000000004
 20
-95.545600000000007
 30
0.0
 10
38.344300000000004
 20
-95.545600000000007
 30
0.0
 10
38.908799999999999
 20
-95.545600000000007
 30
0.0
 10
39.473199999999999
 20
-95.545600000000007
 30
0.0
 10
40.002400000000002
 20
-95.545600000000007
 30
0.0
  0
SPLINE
  5
3D
100
AcDbEntity
  8
LAYER_1
100
AcDbSpline
210
0.0
220
0.0
230
1.0
 70
     1
 71
     3
 72
    60
 73
    56
 74
     0
 42
0.0000000001
 43
0.0000000001
 40
0.0
 40
0.0
 40
0.0
 40
0.0
 40
0.0714285714285714
 40
0.0714285714285714
 40
0.0714285714285714
 40
0.0714285714285714
 40
0.1428571428571429
 40
0.1428571428571429
 40
0.1428571428571429
 40
0.1428571428571429
 40
0.2142857142857143
 40
0.2142857142857143
 40
0.2142857142857143
 40
0.2142857142857143
 40
0.2857142857142857
 40
0.2857142857142857
 40
0.2857142857142857
 40
0.2857142857142857
 40
0.3571428571428571
 40
0.3571428571428571
 40
0.3571428571428571
 40
0.3571428571428571
 40
0.4285714285714285
 40
0.4285714285714285
 40
0.4285714285714285
 40
0.4285714285714285
 40
0.4999999999999999
 40
0.4999999999999999
 40
0.4999999999999999
 40
0.4999999999999999
 40
0.5714285714285713
 40
0.5714285714285713
 40
0.5714285714285713
 40
0.5714285714285713
 40
0.6428571428571427
 40
0.6428571428571427
 40
0.6428571428571427
 40
0.6428571428571427
 40
0.7142857142857141
 40
0.7142857142857141
 40
0.7142857142857141
 40
0.7142857142857141
 40
0.7857142857142855
 40
0.7857142857142855
 40
0.7857142857142855
 40
0.7857142857142855
 40
0.8571428571428569
 40
0.8571428571428569
 40
0.8571428571428569
 40
0.8571428571428569
 40
0.9285714285714283
 40
0.9285714285714283
 40
0.9285714285714283
 40
0.9285714285714283
 40
1.0
 40
1.0
 40
1.0
 40
1.0
 10
-18.276500000000002
 20
-95.192800000000005
 30
0.0
 10
-17.006499999999999
 20
-95.757300000000001
 30
0.0
 10
-15.595400000000001
 20
-95.510300000000001
 30
0.0
 10
-14.254800000000001
 20
-95.545600000000007
 30
0.0
 10
-14.254800000000001
 20
-95.545600000000007
 30
0.0
 10
-14.043200000000001
 20
-95.863100000000003
 30
0.0
 10
-13.866800000000001
 20
-96.215900000000005
 30
0.0
 10
-13.6904
 20
-96.60390000000001
 30
0.0
 10
-13.6904
 20
-96.60390000000001
 30
0.0
 10
-12.914300000000001
 20
-96.5334
 30
0.0
 10
-12.138200000000001
 20
-96.674500000000009
 30
0.0
 10
-11.4679
 20
-97.027300000000011
 30
0.0
 10
-11.4679
 20
-97.027300000000011
 30
0.0
 10
-10.8682
 20
-98.932299999999998
 30
0.0
 10
-9.4218000000000011
 20
-100.37870000000001
 30
0.0
 10
-7.7990000000000004
 20
-101.4723
 30
0.0
 10
-7.7990000000000004
 20
-101.4723
 30
0.0
 10
-6.5289999999999999
 20
-102.6717
 30
0.0
 10
-5.1179000000000006
 20
-103.6242
 30
0.0
 10
-3.9184000000000001
 20
-104.85890000000001
 30
0.0
 10
-3.9184000000000001
 20
-104.85890000000001
 30
0.0
 10
-3.8126000000000002
 20
-105.67030000000001
 30
0.0
 10
-4.2359
 20
-106.2701
 30
0.0
 10
-4.6946000000000003
 20
-106.86980000000001
 30
0.0
 10
-4.6946000000000003
 20
-106.86980000000001
 30
0.0
 10
-4.5887000000000002
 20
-107.6812
 30
0.0
 10
-3.8479000000000001
 20
-108.2809
 30
0.0
 10
-3.4951000000000003
 20
-109.02170000000001
 30
0.0
 10
-3.4951000000000003
 20
-109.02170000000001
 30
0.0
 10
-5.0472999999999999
 20
-109.7273
 30
0.0
 10
-5.6471
 20
-111.4559
 30
0.0
 10
-6.4584000000000001
 20
-112.83170000000001
 30
0.0
 10
-6.4584000000000001
 20
-112.83170000000001
 30
0.0
 10
-7.7284000000000006
 20
-112.65530000000001
 30
0.0
 10
-8.8925999999999998
 20
-113.07870000000001
 30
0.0
 10
-10.0215
 20
-113.50200000000001
 30
0.0
 10
-10.0215
 20
-113.50200000000001
 30
0.0
 10
-10.797600000000001
 20
-113.50200000000001
 30
0.0
 10
-11.538400000000001
 20
-113.1139
 30
0.0
 10
-12.279300000000001
 20
-113.5373
 30
0.0
 10
-12.279300000000001
 20
-113.5373
 30
0.0
 10
-13.7257
 20
-111.9851
 30
0.0
 10
-15.3132
 20
-110.57390000000001
 30
0.0
 10
-16.724299999999999
 20
-109.02170000000001
 30
0.0
 10
-16.724299999999999
 20
-109.02170000000001
 30
0.0
 10
-18.523400000000002
 20
-106.5523
 30
0.0
 10
-20.463699999999999
 20
-104.1534
 30
0.0
 10
-21.839600000000001
 20
-101.40170000000001
 30
0.0
 10
-21.839600000000001
 20
-101.40170000000001
 30
0.0
 10
-22.333400000000001
 20
-100.4139
 30
0.0
 10
-21.522100000000002
 20
-99.60260000000001
 30
0.0
 10
-21.204600000000003
 20
-98.755900000000011
 30
0.0
 10
-21.204600000000003
 20
-98.755900000000011
 30
0.0
 10
-20.745900000000002
 20
-97.203699999999998
 30
0.0
 10
-19.228999999999999
 20
-96.392300000000006
 30
0.0
 10
-18.276500000000002
 20
-95.192800000000005
 30
0.0
  0
SPLINE
  5
3E
100
AcDbEntity
  8
LAYER_1
100
AcDbSpline
210
0.0
220
0.0
230
1.0
 70
     1
 71
     3
 72
    36
 73
    32
 74
     0
 42
0.0000000001
 43
0.0000000001
 40
0.0
 40
0.0
 40
0.0
 40
0.0
 40
0.125
 40
0.125
 40
0.125
 40
0.125
 40
0.25
 40
0.25
 40
0.25
 40
0.25
 40
0.375
 40
0.375
 40
0.375
 40
0.375
 40
0.5
 40
0.5
 40
0.5
 40
0.5
 40
0.625
 40
0.625
 40
0.625
 40
0.625
 40
0.75
 40
0.75
 40
0.75
 40
0.75
 40
0.875
 40
0.875
 40
0.875
 40
0.875
 40
1.0
 40
1.0
 40
1.0
 40
1.0
 10
-72.9923
 20
-107.18730000000001
 30
0.0
 10
-72.357300000000009
 20
-107.18730000000001
 30
0.0
 10
-71.687100000000001
 20
-107.18730000000001
 30
0.0
 10
-71.05210000000001
 20
-107.18730000000001
 30
0.0
 10
-71.05210000000001
 20
-107.18730000000001
 30
0.0
 10
-70.769800000000004
 20
-107.64590000000001
 30
0.0
 10
-70.4876
 20
-108.13980000000001
 30
0.0
 10
-70.205399999999997
 20
-108.6337
 30
0.0
 10
-70.205399999999997
 20
-108.6337
 30
0.0
 10
-70.452300000000008
 20
-109.33920000000001
 30
0.0
 10
-70.7346
 20
-110.04480000000001
 30
0.0
 10
-70.946200000000005
 20
-110.75030000000001
 30
0.0
 10
-70.946200000000005
 20
-110.75030000000001
 30
0.0
 10
-70.4876
 20
-112.12620000000001
 30
0.0
 10
-70.7346
 20
-114.17230000000001
 30
0.0
 10
-72.251500000000007
 20
-114.7367
 30
0.0
 10
-72.251500000000007
 20
-114.7367
 30
0.0
 10
-73.55680000000001
 20
-115.40700000000001
 30
0.0
 10
-75.003200000000007
 20
-114.7367
 30
0.0
 10
-75.990900000000011
 20
-113.7842
 30
0.0
 10
-75.990900000000011
 20
-113.7842
 30
0.0
 10
-75.920400000000001
 20
-113.2903
 30
0.0
 10
-75.920400000000001
 20
-112.79640000000001
 30
0.0
 10
-75.673400000000001
 20
-112.37310000000001
 30
0.0
 10
-75.673400000000001
 20
-112.37310000000001
 30
0.0
 10
-75.109000000000009
 20
-111.35010000000001
 30
0.0
 10
-75.214799999999997
 20
-110.15060000000001
 30
0.0
 10
-74.756200000000007
 20
-109.09230000000001
 30
0.0
 10
-74.756200000000007
 20
-109.09230000000001
 30
0.0
 10
-74.085900000000009
 20
-108.5278
 30
0.0
 10
-73.521500000000003
 20
-107.85760000000001
 30
0.0
 10
-72.9923
 20
-107.18730000000001
 30
0.0
  0
ENDSEC
  0
SECTION
  2
OBJECTS
  0
DICTIONARY
  5
19
100
AcDbDictionary
  3
ACAD_GROUP
350
1A
  3
ACAD_MLINESTYLE
350
1B
  0
DICTIONARY
  5
1A
102
{ACAD_REACTORS
330
19
102
}
100
AcDbDictionary
  0
DICTIONARY
  5
1B
102
{ACAD_REACTORS
330
19
102
}
100
AcDbDictionary
  3
STANDARD
350
1C
  0
MLINESTYLE
  5
1C
102
{ACAD_REACTORS
330
1B
102
}
100
AcDbMlineStyle
  2
STANDARD
 70
     0
  3

 62
     0
 51
90.0
 52
90.0
 71
     2
 49
0.5
 62
   256
  6
BYLAYER
 49
-0.5
 62
   256
  6
BYLAYER
  0
DICTIONARY
  5
22
102
{ACAD_REACTORS
330
19
102
}
100
AcDbDictionary
  0
ENDSEC
  0
EOF
