  0
SECTION
  2
HEADER
  9
$ACADVER
  1
AC1006
  0
ENDSEC
  0
SECTION
  2
TABLES
  0
TABLE
  2
LTYPE
 70
    25
  0
LTYPE
  2
CONTINUOUS
 70
    64
  3
Solid line
 72
    64
 73
     0
 40
0.000000
  0
LTYPE
  2
DASHDOT
 70
    64
  3
__ . __ . __ . __ . __ . __ . __ . __ . __ . __
 72
    65
 73
     4
 40
1.000000
 49
0.500000
 49
-0.250000
 49
0.000000
 49
-0.250000
  0
LTYPE
  2
DASHED
 70
    64
  3
__ __ __ __ __ __ __ __ __ __ __ __ __ __ __ __
 72
    65
 73
     2
 40
0.750000
 49
0.500000
 49
-0.250000
  0
LTYPE
  2
DIVIDE
 70
    64
  3
____ . . ____ . . ____ . . ____ . . ____ . . __
 72
    65
 73
     6
 40
1.250000
 49
0.500000
 49
-0.250000
 49
0.000000
 49
-0.250000
 49
0.000000
 49
-0.250000
  0
LTYPE
  2
DOT
 70
    64
  3
. . . . . . . . . . . . . . . . . . . . . . . . 
 72
    65
 73
     2
 40
0.250000
 49
0.000000
 49
-0.250000
  0
ENDTAB
  0
ENDSEC
  0
SECTION
  2
ENTITIES
  0
LINE
  8
255
 62
     7
  6
CONTINUOUS
 10
843.280000
 20
596.900000
 30
0.000000
 11
731.520000
 21
784.860000
 31
0.000000
  0
ARC
  8
255
 62
     7
  6
CONTINUOUS
 10
774.740107
 20
810.507574
 30
0.000000
 40
50.257100
 50
131.133792
 51
210.685655
  0
LINE
  8
255
 62
     7
  6
CONTINUOUS
 10
741.680000
 20
848.360000
 30
0.000000
 11
929.640000
 21
1028.700000
 31
0.000000
  0
ARC
  8
255
 62
     7
  6
CONTINUOUS
 10
963.920627
 20
990.795961
 30
0.000000
 40
51.106527
 50
29.548924
 51
132.126383
  0
LINE
  8
255
 62
     7
  6
CONTINUOUS
 10
1008.380000
 20
1016.000000
 30
0.000000
 11
1338.580000
 21
454.660000
 31
0.000000
  0
ARC
  8
255
 62
     7
  6
CONTINUOUS
 10
1293.305033
 20
430.008970
 30
0.000000
 40
51.550900
 50
269.505365
 51
388.567122
  0
LINE
  8
255
 62
     7
  6
CONTINUOUS
 10
1292.860000
 20
378.460000
 30
0.000000
 11
998.220000
 21
378.460000
 31
0.000000
  0
ARC
  8
255
 62
     7
  6
CONTINUOUS
 10
998.832699
 20
428.904603
 30
0.000000
 40
50.448312
 50
209.764794
 51
269.304117
  0
LINE
  8
255
 62
     7
  6
CONTINUOUS
 10
955.040000
 20
403.860000
 30
0.000000
 11
843.280000
 21
596.900000
 31
0.000000
  0
LINE
  8
255
 62
     7
  6
CONTINUOUS
 10
482.600000
 20
1211.580000
 30
0.000000
 11
363.220000
 21
1419.860000
 31
0.000000
  0
ARC
  8
255
 62
     7
  6
CONTINUOUS
 10
406.600431
 20
1445.612095
 30
0.000000
 40
50.448312
 50
90.227649
 51
210.694786
  0
LINE
  8
255
 62
     7
  6
CONTINUOUS
 10
406.400000
 20
1496.060000
 30
0.000000
 11
701.040000
 21
1496.060000
 31
0.000000
  0
ARC
  8
255
 62
     7
  6
CONTINUOUS
 10
700.427301
 20
1445.615397
 30
0.000000
 40
50.448312
 50
29.764794
 51
89.304117
  0
LINE
  8
255
 62
     7
  6
CONTINUOUS
 10
744.220000
 20
1470.660000
 30
0.000000
 11
891.540000
 21
1219.200000
 31
0.000000
  0
ARC
  8
255
 62
     7
  6
CONTINUOUS
 10
845.843597
 20
1193.948615
 30
0.000000
 40
52.209116
 50
312.894839
 51
388.924608
  0
LINE
  8
255
 62
     7
  6
CONTINUOUS
 10
881.380000
 20
1155.700000
 30
0.000000
 11
693.420000
 21
977.900000
 31
0.000000
  0
ARC
  8
255
 62
     7
  6
CONTINUOUS
 10
657.980904
 20
1013.444481
 30
0.000000
 40
50.193042
 50
210.380311
 51
314.914930
  0
LINE
  8
255
 62
     7
  6
CONTINUOUS
 10
614.680000
 20
988.060000
 30
0.000000
 11
482.600000
 21
1211.580000
 31
0.000000
  0
ARC
  8
255
 62
     7
  6
CONTINUOUS
 10
3162.300000
 20
835.660000
 30
0.000000
 40
50.800000
 50
0.000000
 51
90.000000
  0
LINE
  8
255
 62
     7
  6
CONTINUOUS
 10
3213.100000
 20
835.660000
 30
0.000000
 11
3213.100000
 21
327.660000
 31
0.000000
  0
ARC
  8
255
 62
     7
  6
CONTINUOUS
 10
3086.100000
 20
327.660000
 30
0.000000
 40
127.000000
 50
270.000000
 51
360.000000
  0
LINE
  8
255
 62
     7
  6
CONTINUOUS
 10
3086.100000
 20
200.660000
 30
0.000000
 11
1071.880000
 21
200.660000
 31
0.000000
  0
ARC
  8
255
 62
     7
  6
CONTINUOUS
 10
1071.913452
 20
454.640950
 30
0.000000
 40
253.980950
 50
210.661381
 51
269.992455
  0
LINE
  8
255
 62
     7
  6
CONTINUOUS
 10
853.440000
 20
325.120000
 30
0.000000
 11
233.680000
 21
1389.380000
 31
0.000000
  0
ARC
  8
255
 62
     7
  6
CONTINUOUS
 10
343.221589
 20
1454.290843
 30
0.000000
 40
127.329413
 50
180.634866
 51
210.649626
  0
LINE
  8
255
 62
     7
  6
CONTINUOUS
 10
215.900000
 20
1452.880000
 30
0.000000
 11
215.900000
 21
1559.560000
 31
0.000000
  0
ARC
  8
255
 62
     7
  6
CONTINUOUS
 10
228.600000
 20
1559.560000
 30
0.000000
 40
12.700000
 50
90.000000
 51
180.000000
  0
LINE
  8
255
 62
     7
  6
CONTINUOUS
 10
228.600000
 20
1572.260000
 30
0.000000
 11
431.800000
 21
1572.260000
 31
0.000000
  0
ARC
  8
255
 62
     7
  6
CONTINUOUS
 10
431.800000
 20
1610.360000
 30
0.000000
 40
38.100000
 50
270.000000
 51
450.000000
  0
LINE
  8
255
 62
     7
  6
CONTINUOUS
 10
431.800000
 20
1648.460000
 30
0.000000
 11
228.600000
 21
1648.460000
 31
0.000000
  0
ARC
  8
255
 62
     7
  6
CONTINUOUS
 10
228.600000
 20
1661.160000
 30
0.000000
 40
12.700000
 50
180.000000
 51
270.000000
  0
LINE
  8
255
 62
     7
  6
CONTINUOUS
 10
215.900000
 20
1661.160000
 30
0.000000
 11
215.900000
 21
1699.260000
 31
0.000000
  0
ARC
  8
255
 62
     7
  6
CONTINUOUS
 10
342.900000
 20
1699.260000
 30
0.000000
 40
127.000000
 50
90.000000
 51
180.000000
  0
LINE
  8
255
 62
     7
  6
CONTINUOUS
 10
342.900000
 20
1826.260000
 30
0.000000
 11
612.140000
 21
1826.260000
 31
0.000000
  0
ARC
  8
255
 62
     7
  6
CONTINUOUS
 10
611.565325
 20
1699.592359
 30
0.000000
 40
126.668936
 50
29.912900
 51
89.740060
  0
LINE
  8
255
 62
     7
  6
CONTINUOUS
 10
721.360000
 20
1762.760000
 30
0.000000
 11
1219.200000
 21
909.320000
 31
0.000000
  0
ARC
  8
255
 62
     7
  6
CONTINUOUS
 10
1437.673452
 20
1038.840950
 30
0.000000
 40
253.980950
 50
210.661381
 51
269.992455
  0
LINE
  8
255
 62
     7
  6
CONTINUOUS
 10
1437.640000
 20
784.860000
 30
0.000000
 11
1866.900000
 21
784.860000
 31
0.000000
  0
ARC
  8
255
 62
     7
  6
CONTINUOUS
 10
1868.875739
 20
835.461956
 30
0.000000
 40
50.640513
 50
267.764048
 51
311.543601
  0
LINE
  8
255
 62
     7
  6
CONTINUOUS
 10
1902.460000
 20
797.560000
 30
0.000000
 11
1978.660000
 21
871.220000
 31
0.000000
  0
ARC
  8
255
 62
     7
  6
CONTINUOUS
 10
2014.834705
 20
835.919029
 30
0.000000
 40
50.544705
 50
90.696827
 51
135.700355
  0
LINE
  8
255
 62
     7
  6
CONTINUOUS
 10
2014.220000
 20
886.460000
 30
0.000000
 11
2133.600000
 21
886.460000
 31
0.000000
  0
ARC
  8
255
 62
     7
  6
CONTINUOUS
 10
2133.600000
 20
873.760000
 30
0.000000
 40
12.700000
 50
0.000000
 51
90.000000
  0
LINE
  8
255
 62
     7
  6
CONTINUOUS
 10
2146.300000
 20
873.760000
 30
0.000000
 11
2146.300000
 21
645.160000
 31
0.000000
  0
ARC
  8
255
 62
     7
  6
CONTINUOUS
 10
2184.400000
 20
645.160000
 30
0.000000
 40
38.100000
 50
180.000000
 51
360.000000
  0
LINE
  8
255
 62
     7
  6
CONTINUOUS
 10
2222.500000
 20
645.160000
 30
0.000000
 11
2222.500000
 21
873.760000
 31
0.000000
  0
ARC
  8
255
 62
     7
  6
CONTINUOUS
 10
2235.200000
 20
873.760000
 30
0.000000
 40
12.700000
 50
90.000000
 51
180.000000
  0
LINE
  8
255
 62
     7
  6
CONTINUOUS
 10
2235.200000
 20
886.460000
 30
0.000000
 11
2921.000000
 21
886.460000
 31
0.000000
  0
ARC
  8
255
 62
     7
  6
CONTINUOUS
 10
2921.000000
 20
873.760000
 30
0.000000
 40
12.700000
 50
0.000000
 51
90.000000
  0
LINE
  8
255
 62
     7
  6
CONTINUOUS
 10
2933.700000
 20
873.760000
 30
0.000000
 11
2933.700000
 21
645.160000
 31
0.000000
  0
ARC
  8
255
 62
     7
  6
CONTINUOUS
 10
2971.800000
 20
645.160000
 30
0.000000
 40
38.100000
 50
180.000000
 51
360.000000
  0
LINE
  8
255
 62
     7
  6
CONTINUOUS
 10
3009.900000
 20
645.160000
 30
0.000000
 11
3009.900000
 21
873.760000
 31
0.000000
  0
ARC
  8
255
 62
     7
  6
CONTINUOUS
 10
3022.600000
 20
873.760000
 30
0.000000
 40
12.700000
 50
90.000000
 51
180.000000
  0
LINE
  8
255
 62
     7
  6
CONTINUOUS
 10
3022.600000
 20
886.460000
 30
0.000000
 11
3162.300000
 21
886.460000
 31
0.000000
  0
LINE
  8
255
 62
     7
  6
CONTINUOUS
 10
1821.180000
 20
2316.480000
 30
0.000000
 11
2164.080000
 21
1145.540000
 31
0.000000
  0
ARC
  8
255
 62
     7
  6
CONTINUOUS
 10
2091.079968
 20
1123.784494
 30
0.000000
 40
76.172873
 50
281.034912
 51
376.595138
  0
LINE
  8
255
 62
     7
  6
CONTINUOUS
 10
2105.660000
 20
1049.020000
 30
0.000000
 11
2047.240000
 21
1038.860000
 31
0.000000
  0
ARC
  8
255
 62
     7
  6
CONTINUOUS
 10
2047.085873
 20
1051.684841
 30
0.000000
 40
12.825755
 50
191.991799
 51
270.688585
  0
LINE
  8
255
 62
     7
  6
CONTINUOUS
 10
2034.540000
 20
1049.020000
 30
0.000000
 11
1856.740000
 21
1653.540000
 31
0.000000
  0
ARC
  8
255
 62
     7
  6
CONTINUOUS
 10
1819.999865
 20
1643.054270
 30
0.000000
 40
38.207188
 50
15.928890
 51
194.915432
  0
LINE
  8
255
 62
     7
  6
CONTINUOUS
 10
1783.080000
 20
1633.220000
 30
0.000000
 11
1955.800000
 21
1046.480000
 31
0.000000
  0
ARC
  8
255
 62
     7
  6
CONTINUOUS
 10
1943.203607
 20
1044.065349
 30
0.000000
 40
12.825755
 50
269.537205
 51
370.851653
  0
ARC
  8
255
 62
     7
  6
CONTINUOUS
 10
1920.173808
 20
1971.070988
 30
0.000000
 40
940.110591
 50
218.422042
 51
271.397393
  0
LINE
  8
255
 62
     7
  6
CONTINUOUS
 10
1183.640000
 20
1386.840000
 30
0.000000
 11
264.160000
 21
2552.700000
 31
0.000000
  0
ARC
  8
255
 62
     7
  6
CONTINUOUS
 10
322.266234
 20
2600.498101
 30
0.000000
 40
75.239575
 50
72.061263
 51
219.440671
  0
ARC
  8
255
 62
     7
  6
CONTINUOUS
 10
1496.771200
 20
6349.898476
 30
0.000000
 40
3853.817870
 50
252.617411
 51
271.122385
  0
ARC
  8
255
 62
     7
  6
CONTINUOUS
 10
1577.790139
 20
2242.493280
 30
0.000000
 40
254.386842
 50
16.908452
 51
91.245655
  0
ARC
  8
255
 62
     7
  6
CONTINUOUS
 10
3180.080000
 20
2138.680000
 30
0.000000
 40
12.700000
 50
233.130102
 51
323.130102
  0
LINE
  8
255
 62
     7
  6
CONTINUOUS
 10
3172.460000
 20
2128.520000
 30
0.000000
 11
2900.680000
 21
2397.760000
 31
0.000000
  0
ARC
  8
255
 62
     7
  6
CONTINUOUS
 10
2874.674693
 20
2369.185533
 30
0.000000
 40
38.636473
 50
47.695024
 51
224.969415
  0
LINE
  8
255
 62
     7
  6
CONTINUOUS
 10
2847.340000
 20
2341.880000
 30
0.000000
 11
3119.120000
 21
2075.180000
 31
0.000000
  0
ARC
  8
255
 62
     7
  6
CONTINUOUS
 10
3111.455017
 20
2066.290000
 30
0.000000
 40
11.738153
 50
310.768050
 51
409.231951
  0
ARC
  8
255
 62
     7
  6
CONTINUOUS
 10
9677.034672
 20
-4315.884510
 30
0.000000
 40
9144.670611
 50
135.818007
 51
142.751020
  0
ARC
  8
255
 62
     7
  6
CONTINUOUS
 10
2338.556486
 20
1267.668813
 30
0.000000
 40
76.513284
 50
189.713018
 51
320.693457
  0
LINE
  8
255
 62
     7
  6
CONTINUOUS
 10
2263.140000
 20
1254.760000
 30
0.000000
 11
2108.200000
 21
2268.220000
 31
0.000000
  0
ARC
  8
255
 62
     7
  6
CONTINUOUS
 10
2862.597805
 20
2376.842871
 30
0.000000
 40
762.177775
 50
175.175880
 51
188.193489
  0
ARC
  8
255
 62
     7
  6
CONTINUOUS
 10
2115.680986
 20
2438.347371
 30
0.000000
 40
12.825755
 50
52.774327
 51
168.337764
  0
LINE
  8
255
 62
     7
  6
CONTINUOUS
 10
2123.440000
 20
2448.560000
 30
0.000000
 11
2296.160000
 21
2280.920000
 31
0.000000
  0
ARC
  8
255
 62
     7
  6
CONTINUOUS
 10
2322.830000
 20
2307.590000
 30
0.000000
 40
37.717070
 50
225.000001
 51
404.999999
  0
LINE
  8
255
 62
     7
  6
CONTINUOUS
 10
2349.500000
 20
2334.260000
 30
0.000000
 11
2125.980000
 21
2552.700000
 31
0.000000
  0
ARC
  8
255
 62
     7
  6
CONTINUOUS
 10
2135.976805
 20
2561.303361
 30
0.000000
 40
13.189153
 50
161.904213
 51
220.715652
  0
ARC
  8
255
 62
     7
  6
CONTINUOUS
 10
2860.078049
 20
2382.558557
 30
0.000000
 40
758.990506
 50
104.737322
 51
166.060287
  0
ARC
  8
255
 62
     7
  6
CONTINUOUS
 10
2671.589755
 20
3106.508773
 30
0.000000
 40
11.067771
 50
42.879982
 51
114.500152
  0
LINE
  8
255
 62
     7
  6
CONTINUOUS
 10
2679.700000
 20
3114.040000
 30
0.000000
 11
2900.680000
 21
2895.600000
 31
0.000000
  0
ARC
  8
255
 62
     7
  6
CONTINUOUS
 10
2927.350000
 20
2922.270000
 30
0.000000
 40
37.717070
 50
225.000000
 51
405.000000
  0
LINE
  8
255
 62
     7
  6
CONTINUOUS
 10
2954.020000
 20
2948.940000
 30
0.000000
 11
2783.840000
 21
3119.120000
 31
0.000000
  0
ARC
  8
255
 62
     7
  6
CONTINUOUS
 10
2791.841838
 20
3127.708070
 30
0.000000
 40
11.738153
 50
91.864167
 51
227.023742
  0
ARC
  8
255
 62
     7
  6
CONTINUOUS
 10
2866.707703
 20
2382.533411
 30
0.000000
 40
760.637747
 50
82.637559
 51
95.677392
  0
LINE
  8
255
 62
     7
  6
CONTINUOUS
 10
2964.180000
 20
3136.900000
 30
0.000000
 11
3977.640000
 21
2999.740000
 31
0.000000
  0
ARC
  8
255
 62
     7
  6
CONTINUOUS
 10
3967.315840
 20
2924.116555
 30
0.000000
 40
76.324917
 50
309.379022
 51
442.226006
  0
ARC
  8
255
 62
     7
  6
CONTINUOUS
 10
9669.112285
 20
-4323.673801
 30
0.000000
 40
9145.456512
 50
128.182027
 51
135.106933
  0
LINE
  8
255
 62
     7
  6
CONTINUOUS
 10
4869.180000
 20
3050.540000
 30
0.000000
 11
4790.440000
 21
3253.740000
 31
0.000000
  0
ARC
  8
255
 62
     7
  6
CONTINUOUS
 10
4742.889447
 20
3233.027316
 30
0.000000
 40
51.865886
 50
23.537592
 51
99.241489
  0
LINE
  8
255
 62
     7
  6
CONTINUOUS
 10
4734.560000
 20
3284.220000
 30
0.000000
 11
4478.020000
 21
3248.660000
 31
0.000000
  0
ARC
  8
255
 62
     7
  6
CONTINUOUS
 10
4483.747700
 20
3198.934318
 30
0.000000
 40
50.054459
 50
96.570706
 51
202.127958
  0
LINE
  8
255
 62
     7
  6
CONTINUOUS
 10
4437.380000
 20
3180.080000
 30
0.000000
 11
4671.060000
 21
2573.020000
 31
0.000000
  0
ARC
  8
255
 62
     7
  6
CONTINUOUS
 10
4718.964476
 20
2590.851410
 30
0.000000
 40
51.115544
 50
200.416682
 51
323.323113
  0
LINE
  8
255
 62
     7
  6
CONTINUOUS
 10
4759.960000
 20
2560.320000
 30
0.000000
 11
4942.840000
 21
2788.920000
 31
0.000000
  0
ARC
  8
255
 62
     7
  6
CONTINUOUS
 10
4902.052934
 20
2821.009573
 30
0.000000
 40
51.897255
 50
321.805816
 51
381.132653
  0
LINE
  8
255
 62
     7
  6
CONTINUOUS
 10
4950.460000
 20
2839.720000
 30
0.000000
 11
4869.180000
 21
3050.540000
 31
0.000000
  0
LINE
  8
255
 62
     7
  6
CONTINUOUS
 10
4612.640000
 20
3710.940000
 30
0.000000
 11
4523.740000
 21
3937.000000
 31
0.000000
  0
ARC
  8
255
 62
     7
  6
CONTINUOUS
 10
4476.612459
 20
3916.506645
 30
0.000000
 40
51.390499
 50
23.501747
 51
139.766480
  0
LINE
  8
255
 62
     7
  6
CONTINUOUS
 10
4437.380000
 20
3949.700000
 30
0.000000
 11
4254.500000
 21
3718.560000
 31
0.000000
  0
ARC
  8
255
 62
     7
  6
CONTINUOUS
 10
4295.287066
 20
3686.470427
 30
0.000000
 40
51.897255
 50
141.805816
 51
201.132653
  0
LINE
  8
255
 62
     7
  6
CONTINUOUS
 10
4246.880000
 20
3667.760000
 30
0.000000
 11
4351.020000
 21
3398.520000
 31
0.000000
  0
ARC
  8
255
 62
     7
  6
CONTINUOUS
 10
4399.237226
 20
3416.325298
 30
0.000000
 40
51.399694
 50
200.267807
 51
278.573739
  0
LINE
  8
255
 62
     7
  6
CONTINUOUS
 10
4406.900000
 20
3365.500000
 30
0.000000
 11
4663.440000
 21
3403.600000
 31
0.000000
  0
ARC
  8
255
 62
     7
  6
CONTINUOUS
 10
4658.830027
 20
3452.663326
 30
0.000000
 40
49.279404
 50
275.367729
 51
383.330934
  0
LINE
  8
255
 62
     7
  6
CONTINUOUS
 10
4704.080000
 20
3472.180000
 30
0.000000
 11
4612.640000
 21
3710.940000
 31
0.000000
  0
ARC
  8
255
 62
     7
  6
CONTINUOUS
 10
3293.110000
 20
1516.335017
 30
0.000000
 40
11.738153
 50
40.768050
 51
139.231951
  0
LINE
  8
255
 62
     7
  6
CONTINUOUS
 10
3302.000000
 20
1524.000000
 30
0.000000
 11
3482.340000
 21
1381.760000
 31
0.000000
  0
ARC
  8
255
 62
     7
  6
CONTINUOUS
 10
3505.200000
 20
1412.240000
 30
0.000000
 40
38.100000
 50
233.130101
 51
413.130103
  0
LINE
  8
255
 62
     7
  6
CONTINUOUS
 10
3528.060000
 20
1442.720000
 30
0.000000
 11
3350.260000
 21
1584.960000
 31
0.000000
  0
ARC
  8
255
 62
     7
  6
CONTINUOUS
 10
3357.880000
 20
1595.120000
 30
0.000000
 40
12.700000
 50
143.130102
 51
233.130102
  0
LINE
  8
255
 62
     7
  6
CONTINUOUS
 10
3347.720000
 20
1602.740000
 30
0.000000
 11
3774.440000
 21
2138.680000
 31
0.000000
  0
ARC
  8
255
 62
     7
  6
CONTINUOUS
 10
3784.600000
 20
2131.060000
 30
0.000000
 40
12.700000
 50
53.130102
 51
143.130102
  0
LINE
  8
255
 62
     7
  6
CONTINUOUS
 10
3792.220000
 20
2141.220000
 30
0.000000
 11
3972.560000
 21
1998.980000
 31
0.000000
  0
ARC
  8
255
 62
     7
  6
CONTINUOUS
 10
3995.311542
 20
2029.328733
 30
0.000000
 40
37.929896
 50
233.142201
 51
407.738464
  0
LINE
  8
255
 62
     7
  6
CONTINUOUS
 10
4020.820000
 20
2057.400000
 30
0.000000
 11
3840.480000
 21
2199.640000
 31
0.000000
  0
ARC
  8
255
 62
     7
  6
CONTINUOUS
 10
3848.100000
 20
2209.800000
 30
0.000000
 40
12.700000
 50
143.130102
 51
233.130102
  0
LINE
  8
255
 62
     7
  6
CONTINUOUS
 10
3837.940000
 20
2217.420000
 30
0.000000
 11
3914.140000
 21
2311.400000
 31
0.000000
  0
ARC
  8
255
 62
     7
  6
CONTINUOUS
 10
3954.285665
 20
2283.152050
 30
0.000000
 40
49.087888
 50
98.346614
 51
144.868391
  0
LINE
  8
255
 62
     7
  6
CONTINUOUS
 10
3947.160000
 20
2331.720000
 30
0.000000
 11
4051.300000
 21
2344.420000
 31
0.000000
  0
ARC
  8
255
 62
     7
  6
CONTINUOUS
 10
4043.039615
 20
2394.831888
 30
0.000000
 40
51.084150
 50
279.305673
 51
323.909332
  0
LINE
  8
255
 62
     7
  6
CONTINUOUS
 10
4084.320000
 20
2364.740000
 30
0.000000
 11
4351.020000
 21
2700.020000
 31
0.000000
  0
ARC
  8
255
 62
     7
  6
CONTINUOUS
 10
4152.932868
 20
2857.715265
 30
0.000000
 40
253.192255
 50
321.477038
 51
381.118514
  0
LINE
  8
255
 62
     7
  6
CONTINUOUS
 10
4389.120000
 20
2948.940000
 30
0.000000
 11
4033.520000
 21
3868.420000
 31
0.000000
  0
ARC
  8
255
 62
     7
  6
CONTINUOUS
 10
4150.377501
 20
3916.804562
 30
0.000000
 40
126.478208
 50
141.568902
 51
202.491878
  0
LINE
  8
255
 62
     7
  6
CONTINUOUS
 10
4051.300000
 20
3995.420000
 30
0.000000
 11
4218.940000
 21
4203.700000
 31
0.000000
  0
ARC
  8
255
 62
     7
  6
CONTINUOUS
 10
4318.000000
 20
4124.960000
 30
0.000000
 40
126.541962
 50
51.519802
 51
141.519802
  0
LINE
  8
255
 62
     7
  6
CONTINUOUS
 10
4396.740000
 20
4224.020000
 30
0.000000
 11
4427.220000
 21
4201.160000
 31
0.000000
  0
ARC
  8
255
 62
     7
  6
CONTINUOUS
 10
4419.600000
 20
4191.000000
 30
0.000000
 40
12.700000
 50
323.130102
 51
413.130102
  0
LINE
  8
255
 62
     7
  6
CONTINUOUS
 10
4429.760000
 20
4183.380000
 30
0.000000
 11
4302.760000
 21
4023.360000
 31
0.000000
  0
ARC
  8
255
 62
     7
  6
CONTINUOUS
 10
4332.452575
 20
4001.116610
 30
0.000000
 40
37.100104
 50
143.162273
 51
320.743643
  0
LINE
  8
255
 62
     7
  6
CONTINUOUS
 10
4361.180000
 20
3977.640000
 30
0.000000
 11
4488.180000
 21
4135.120000
 31
0.000000
  0
ARC
  8
255
 62
     7
  6
CONTINUOUS
 10
4498.340000
 20
4127.500000
 30
0.000000
 40
12.700000
 50
53.130102
 51
143.130102
  0
LINE
  8
255
 62
     7
  6
CONTINUOUS
 10
4505.960000
 20
4137.660000
 30
0.000000
 11
4589.780000
 21
4071.620000
 31
0.000000
  0
ARC
  8
255
 62
     7
  6
CONTINUOUS
 10
4509.351332
 20
3973.893805
 30
0.000000
 40
126.566879
 50
20.529739
 51
50.545616
  0
LINE
  8
255
 62
     7
  6
CONTINUOUS
 10
4627.880000
 20
4018.280000
 30
0.000000
 11
5074.920000
 21
2870.200000
 31
0.000000
  0
ARC
  8
255
 62
     7
  6
CONTINUOUS
 10
4836.250475
 20
2779.355224
 30
0.000000
 40
255.374064
 50
321.757229
 51
380.838324
  0
LINE
  8
255
 62
     7
  6
CONTINUOUS
 10
5036.820000
 20
2621.280000
 30
0.000000
 11
3782.060000
 21
1046.480000
 31
0.000000
  0
ARC
  8
255
 62
     7
  6
CONTINUOUS
 10
3683.000000
 20
1125.220000
 30
0.000000
 40
126.541962
 50
231.519802
 51
321.519802
  0
LINE
  8
255
 62
     7
  6
CONTINUOUS
 10
3604.260000
 20
1026.160000
 30
0.000000
 11
3205.480000
 21
1343.660000
 31
0.000000
  0
ARC
  8
255
 62
     7
  6
CONTINUOUS
 10
3238.628956
 20
1383.179885
 30
0.000000
 40
51.581710
 50
142.220644
 51
230.010363
  0
LINE
  8
255
 62
     7
  6
CONTINUOUS
 10
3197.860000
 20
1414.780000
 30
0.000000
 11
3284.220000
 21
1524.000000
 31
0.000000
  0
LINE
  8
255
 62
     7
  6
CONTINUOUS
 10
6118.860000
 20
2090.420000
 30
0.000000
 11
6118.860000
 21
2052.320000
 31
0.000000
  0
ARC
  8
255
 62
     7
  6
CONTINUOUS
 10
6106.035159
 20
2052.165873
 30
0.000000
 40
12.825755
 50
281.991799
 51
360.688585
  0
LINE
  8
255
 62
     7
  6
CONTINUOUS
 10
6108.700000
 20
2039.620000
 30
0.000000
 11
5854.700000
 21
2029.460000
 31
0.000000
  0
ARC
  8
255
 62
     7
  6
CONTINUOUS
 10
5854.701397
 20
1991.317709
 30
0.000000
 40
38.142291
 50
90.002116
 51
273.816188
  0
LINE
  8
255
 62
     7
  6
CONTINUOUS
 10
5857.240000
 20
1953.260000
 30
0.000000
 11
6111.240000
 21
1963.420000
 31
0.000000
  0
ARC
  8
255
 62
     7
  6
CONTINUOUS
 10
6111.240000
 20
1950.720000
 30
0.000000
 40
12.700000
 50
0.000000
 51
90.000000
  0
LINE
  8
255
 62
     7
  6
CONTINUOUS
 10
6123.940000
 20
1950.720000
 30
0.000000
 11
6141.720000
 21
1480.820000
 31
0.000000
  0
LINE
  8
255
 62
     7
  6
CONTINUOUS
 10
6141.720000
 20
1480.820000
 30
0.000000
 11
6342.380000
 21
1005.840000
 31
0.000000
  0
ARC
  8
255
 62
     7
  6
CONTINUOUS
 10
6433.953375
 20
1046.377892
 30
0.000000
 40
100.144936
 50
203.878112
 51
261.169529
  0
LINE
  8
255
 62
     7
  6
CONTINUOUS
 10
6418.580000
 20
947.420000
 30
0.000000
 11
6535.420000
 21
927.100000
 31
0.000000
  0
ARC
  8
255
 62
     7
  6
CONTINUOUS
 10
6519.646752
 20
826.092379
 30
0.000000
 40
102.231774
 50
2.515902
 51
81.124438
  0
LINE
  8
255
 62
     7
  6
CONTINUOUS
 10
6621.780000
 20
830.580000
 30
0.000000
 11
6637.020000
 21
381.000000
 31
0.000000
  0
ARC
  8
255
 62
     7
  6
CONTINUOUS
 10
6535.420000
 20
375.920000
 30
0.000000
 40
101.726924
 50
272.862405
 51
362.862405
  0
LINE
  8
255
 62
     7
  6
CONTINUOUS
 10
6540.500000
 20
274.320000
 30
0.000000
 11
6464.300000
 21
271.780000
 31
0.000000
  0
ARC
  8
255
 62
     7
  6
CONTINUOUS
 10
6464.300000
 20
284.480000
 30
0.000000
 40
12.700000
 50
180.000000
 51
270.000000
  0
LINE
  8
255
 62
     7
  6
CONTINUOUS
 10
6451.600000
 20
284.480000
 30
0.000000
 11
6443.980000
 21
487.680000
 31
0.000000
  0
ARC
  8
255
 62
     7
  6
CONTINUOUS
 10
6405.837709
 20
487.678603
 30
0.000000
 40
38.142291
 50
0.000000
 51
183.816188
  0
LINE
  8
255
 62
     7
  6
CONTINUOUS
 10
6367.780000
 20
485.140000
 30
0.000000
 11
6375.400000
 21
281.940000
 31
0.000000
  0
ARC
  8
255
 62
     7
  6
CONTINUOUS
 10
6362.700000
 20
281.940000
 30
0.000000
 40
12.700000
 50
270.000000
 51
360.000000
  0
LINE
  8
255
 62
     7
  6
CONTINUOUS
 10
6362.700000
 20
269.240000
 30
0.000000
 11
6286.500000
 21
266.700000
 31
0.000000
  0
ARC
  8
255
 62
     7
  6
CONTINUOUS
 10
6283.910013
 20
368.346330
 30
0.000000
 40
101.679324
 50
182.889892
 51
271.459596
  0
LINE
  8
255
 62
     7
  6
CONTINUOUS
 10
6182.360000
 20
363.220000
 30
0.000000
 11
6174.740000
 21
579.120000
 31
0.000000
  0
ARC
  8
255
 62
     7
  6
CONTINUOUS
 10
5920.982062
 20
567.890482
 30
0.000000
 40
254.006274
 50
2.533852
 51
23.216152
  0
LINE
  8
255
 62
     7
  6
CONTINUOUS
 10
6154.420000
 20
668.020000
 30
0.000000
 11
5920.740000
 21
1216.660000
 31
0.000000
  0
LINE
  8
255
 62
     7
  6
CONTINUOUS
 10
5920.740000
 20
1216.660000
 30
0.000000
 11
5908.040000
 21
1587.500000
 31
0.000000
  0
ARC
  8
255
 62
     7
  6
CONTINUOUS
 10
5869.982291
 20
1584.961397
 30
0.000000
 40
38.142291
 50
3.816189
 51
180.002117
  0
LINE
  8
255
 62
     7
  6
CONTINUOUS
 10
5831.840000
 20
1584.960000
 30
0.000000
 11
5842.000000
 21
1292.860000
 31
0.000000
  0
ARC
  8
255
 62
     7
  6
CONTINUOUS
 10
5537.759308
 20
1280.879963
 30
0.000000
 40
304.476480
 50
281.930073
 51
362.254961
  0
ARC
  8
255
 62
     7
  6
CONTINUOUS
 10
5443.625740
 20
1729.756332
 30
0.000000
 40
763.116787
 50
262.702982
 51
281.878239
  0
ARC
  8
255
 62
     7
  6
CONTINUOUS
 10
5384.635078
 20
1275.260721
 30
0.000000
 40
304.810541
 50
181.944139
 51
262.850737
  0
LINE
  8
255
 62
     7
  6
CONTINUOUS
 10
5080.000000
 20
1264.920000
 30
0.000000
 11
5069.840000
 21
1557.020000
 31
0.000000
  0
ARC
  8
255
 62
     7
  6
CONTINUOUS
 10
5031.782291
 20
1554.481397
 30
0.000000
 40
38.142291
 50
3.816189
 51
180.002117
  0
LINE
  8
255
 62
     7
  6
CONTINUOUS
 10
4993.640000
 20
1554.480000
 30
0.000000
 11
5008.880000
 21
1183.640000
 31
0.000000
  0
LINE
  8
255
 62
     7
  6
CONTINUOUS
 10
5008.880000
 20
1183.640000
 30
0.000000
 11
4815.840000
 21
619.760000
 31
0.000000
  0
ARC
  8
255
 62
     7
  6
CONTINUOUS
 10
5057.301163
 20
539.621781
 30
0.000000
 40
254.412318
 50
161.639581
 51
182.546093
  0
LINE
  8
255
 62
     7
  6
CONTINUOUS
 10
4803.140000
 20
528.320000
 30
0.000000
 11
4810.760000
 21
314.960000
 31
0.000000
  0
ARC
  8
255
 62
     7
  6
CONTINUOUS
 10
4709.205212
 20
309.928717
 30
0.000000
 40
101.679324
 50
271.405936
 51
362.836257
  0
LINE
  8
255
 62
     7
  6
CONTINUOUS
 10
4711.700000
 20
208.280000
 30
0.000000
 11
4635.500000
 21
205.740000
 31
0.000000
  0
ARC
  8
255
 62
     7
  6
CONTINUOUS
 10
4635.500000
 20
218.440000
 30
0.000000
 40
12.700000
 50
180.000000
 51
270.000000
  0
LINE
  8
255
 62
     7
  6
CONTINUOUS
 10
4622.800000
 20
218.440000
 30
0.000000
 11
4615.180000
 21
421.640000
 31
0.000000
  0
ARC
  8
255
 62
     7
  6
CONTINUOUS
 10
4577.122291
 20
419.101397
 30
0.000000
 40
38.142291
 50
3.816189
 51
180.002117
  0
LINE
  8
255
 62
     7
  6
CONTINUOUS
 10
4538.980000
 20
419.100000
 30
0.000000
 11
4546.600000
 21
215.900000
 31
0.000000
  0
ARC
  8
255
 62
     7
  6
CONTINUOUS
 10
4533.900000
 20
215.900000
 30
0.000000
 40
12.700000
 50
270.000000
 51
360.000000
  0
LINE
  8
255
 62
     7
  6
CONTINUOUS
 10
4533.900000
 20
203.200000
 30
0.000000
 11
4457.700000
 21
200.660000
 31
0.000000
  0
ARC
  8
255
 62
     7
  6
CONTINUOUS
 10
4455.110013
 20
302.306330
 30
0.000000
 40
101.679324
 50
182.889892
 51
271.459596
  0
LINE
  8
255
 62
     7
  6
CONTINUOUS
 10
4353.560000
 20
297.180000
 30
0.000000
 11
4338.320000
 21
746.760000
 31
0.000000
  0
ARC
  8
255
 62
     7
  6
CONTINUOUS
 10
4440.171511
 20
752.182570
 30
0.000000
 40
101.995757
 50
104.566044
 51
183.047542
  0
LINE
  8
255
 62
     7
  6
CONTINUOUS
 10
4414.520000
 20
850.900000
 30
0.000000
 11
4531.360000
 21
878.840000
 31
0.000000
  0
ARC
  8
255
 62
     7
  6
CONTINUOUS
 10
4510.536293
 20
977.468302
 30
0.000000
 40
100.802618
 50
281.921948
 51
339.605262
  0
LINE
  8
255
 62
     7
  6
CONTINUOUS
 10
4605.020000
 20
942.340000
 30
0.000000
 11
4770.120000
 21
1430.020000
 31
0.000000
  0
LINE
  8
255
 62
     7
  6
CONTINUOUS
 10
4770.120000
 20
1430.020000
 30
0.000000
 11
4752.340000
 21
1899.920000
 31
0.000000
  0
ARC
  8
255
 62
     7
  6
CONTINUOUS
 10
4765.040000
 20
1899.920000
 30
0.000000
 40
12.700000
 50
90.000000
 51
180.000000
  0
LINE
  8
255
 62
     7
  6
CONTINUOUS
 10
4765.040000
 20
1912.620000
 30
0.000000
 11
5019.040000
 21
1922.780000
 31
0.000000
  0
ARC
  8
255
 62
     7
  6
CONTINUOUS
 10
5016.501397
 20
1960.837709
 30
0.000000
 40
38.142291
 50
273.816189
 51
450.002117
  0
LINE
  8
255
 62
     7
  6
CONTINUOUS
 10
5016.500000
 20
1998.980000
 30
0.000000
 11
4762.500000
 21
1988.820000
 31
0.000000
  0
ARC
  8
255
 62
     7
  6
CONTINUOUS
 10
4762.500000
 20
2001.520000
 30
0.000000
 40
12.700000
 50
180.000000
 51
270.000000
  0
LINE
  8
255
 62
     7
  6
CONTINUOUS
 10
4749.800000
 20
2001.520000
 30
0.000000
 11
4747.260000
 21
2039.620000
 31
0.000000
  0
ARC
  8
255
 62
     7
  6
CONTINUOUS
 10
4823.460000
 20
2042.160000
 30
0.000000
 40
76.242316
 50
91.909152
 51
181.909152
  0
LINE
  8
255
 62
     7
  6
CONTINUOUS
 10
4820.920000
 20
2118.360000
 30
0.000000
 11
5151.120000
 21
2131.060000
 31
0.000000
  0
ARC
  8
255
 62
     7
  6
CONTINUOUS
 10
5148.580000
 20
2207.260000
 30
0.000000
 40
76.242316
 50
271.909152
 51
361.909152
  0
LINE
  8
255
 62
     7
  6
CONTINUOUS
 10
5224.780000
 20
2209.800000
 30
0.000000
 11
5222.240000
 21
2286.000000
 31
0.000000
  0
ARC
  8
255
 62
     7
  6
CONTINUOUS
 10
5298.440000
 20
2288.540000
 30
0.000000
 40
76.242316
 50
91.909152
 51
181.909152
  0
LINE
  8
255
 62
     7
  6
CONTINUOUS
 10
5295.900000
 20
2364.740000
 30
0.000000
 11
5372.100000
 21
2367.280000
 31
0.000000
  0
ARC
  8
255
 62
     7
  6
CONTINUOUS
 10
5372.100000
 20
2354.580000
 30
0.000000
 40
12.700000
 50
0.000000
 51
90.000000
  0
LINE
  8
255
 62
     7
  6
CONTINUOUS
 10
5384.800000
 20
2354.580000
 30
0.000000
 11
5389.880000
 21
2176.780000
 31
0.000000
  0
ARC
  8
255
 62
     7
  6
CONTINUOUS
 10
5427.980000
 20
2179.320000
 30
0.000000
 40
38.184582
 50
183.814075
 51
363.814075
  0
LINE
  8
255
 62
     7
  6
CONTINUOUS
 10
5466.080000
 20
2181.860000
 30
0.000000
 11
5461.000000
 21
2359.660000
 31
0.000000
  0
ARC
  8
255
 62
     7
  6
CONTINUOUS
 10
5473.700000
 20
2359.660000
 30
0.000000
 40
12.700000
 50
90.000000
 51
180.000000
  0
LINE
  8
255
 62
     7
  6
CONTINUOUS
 10
5473.700000
 20
2372.360000
 30
0.000000
 11
5549.900000
 21
2374.900000
 31
0.000000
  0
ARC
  8
255
 62
     7
  6
CONTINUOUS
 10
5552.440000
 20
2298.700000
 30
0.000000
 40
76.242316
 50
1.909152
 51
91.909152
  0
LINE
  8
255
 62
     7
  6
CONTINUOUS
 10
5628.640000
 20
2301.240000
 30
0.000000
 11
5631.180000
 21
2225.040000
 31
0.000000
  0
ARC
  8
255
 62
     7
  6
CONTINUOUS
 10
5707.380000
 20
2227.580000
 30
0.000000
 40
76.242316
 50
181.909152
 51
271.909152
  0
LINE
  8
255
 62
     7
  6
CONTINUOUS
 10
5709.920000
 20
2151.380000
 30
0.000000
 11
6040.120000
 21
2164.080000
 31
0.000000
  0
ARC
  8
255
 62
     7
  6
CONTINUOUS
 10
6042.660000
 20
2087.880000
 30
0.000000
 40
76.242316
 50
1.909152
 51
91.909152
  0
ARC
  8
255
 62
     7
  6
CONTINUOUS
 10
6164.580000
 20
3695.700000
 30
0.000000
 40
12.700000
 50
270.000000
 51
360.000000
  0
LINE
  8
255
 62
     7
  6
CONTINUOUS
 10
6164.580000
 20
3683.000000
 30
0.000000
 11
5935.980000
 21
3683.000000
 31
0.000000
  0
ARC
  8
255
 62
     7
  6
CONTINUOUS
 10
5935.980000
 20
3644.900000
 30
0.000000
 40
38.100000
 50
90.000000
 51
270.000000
  0
LINE
  8
255
 62
     7
  6
CONTINUOUS
 10
5935.980000
 20
3606.800000
 30
0.000000
 11
6164.580000
 21
3606.800000
 31
0.000000
  0
ARC
  8
255
 62
     7
  6
CONTINUOUS
 10
6164.580000
 20
3594.100000
 30
0.000000
 40
12.700000
 50
0.000000
 51
90.000000
  0
LINE
  8
255
 62
     7
  6
CONTINUOUS
 10
6177.280000
 20
3594.100000
 30
0.000000
 11
6177.280000
 21
3276.600000
 31
0.000000
  0
ARC
  8
255
 62
     7
  6
CONTINUOUS
 10
6062.980000
 20
3276.600000
 30
0.000000
 40
114.300000
 50
270.000000
 51
360.000000
  0
LINE
  8
255
 62
     7
  6
CONTINUOUS
 10
6062.980000
 20
3162.300000
 30
0.000000
 11
5948.680000
 21
3162.300000
 31
0.000000
  0
ARC
  8
255
 62
     7
  6
CONTINUOUS
 10
5948.680000
 20
3009.900000
 30
0.000000
 40
152.400000
 50
90.000000
 51
180.000000
  0
LINE
  8
255
 62
     7
  6
CONTINUOUS
 10
5796.280000
 20
3009.900000
 30
0.000000
 11
5796.280000
 21
2806.700000
 31
0.000000
  0
ARC
  8
255
 62
     7
  6
CONTINUOUS
 10
5681.980000
 20
2806.700000
 30
0.000000
 40
114.300000
 50
270.000000
 51
360.000000
  0
LINE
  8
255
 62
     7
  6
CONTINUOUS
 10
5681.980000
 20
2692.400000
 30
0.000000
 11
5377.180000
 21
2692.400000
 31
0.000000
  0
ARC
  8
255
 62
     7
  6
CONTINUOUS
 10
5377.180000
 20
2806.700000
 30
0.000000
 40
114.300000
 50
180.000000
 51
270.000000
  0
LINE
  8
255
 62
     7
  6
CONTINUOUS
 10
5262.880000
 20
2806.700000
 30
0.000000
 11
5262.880000
 21
2882.900000
 31
0.000000
  0
ARC
  8
255
 62
     7
  6
CONTINUOUS
 10
5275.580000
 20
2882.900000
 30
0.000000
 40
12.700000
 50
90.000000
 51
180.000000
  0
LINE
  8
255
 62
     7
  6
CONTINUOUS
 10
5275.580000
 20
2895.600000
 30
0.000000
 11
5554.980000
 21
2895.600000
 31
0.000000
  0
ARC
  8
255
 62
     7
  6
CONTINUOUS
 10
5555.017541
 20
2934.077241
 30
0.000000
 40
38.477266
 50
269.944100
 51
438.634713
  0
LINE
  8
255
 62
     7
  6
CONTINUOUS
 10
5562.600000
 20
2971.800000
 30
0.000000
 11
5275.580000
 21
2971.800000
 31
0.000000
  0
ARC
  8
255
 62
     7
  6
CONTINUOUS
 10
5275.580000
 20
2984.500000
 30
0.000000
 40
12.700000
 50
180.000000
 51
270.000000
  0
LINE
  8
255
 62
     7
  6
CONTINUOUS
 10
5262.880000
 20
2984.500000
 30
0.000000
 11
5262.880000
 21
3314.700000
 31
0.000000
  0
ARC
  8
255
 62
     7
  6
CONTINUOUS
 10
5377.180000
 20
3314.700000
 30
0.000000
 40
114.300000
 50
90.000000
 51
180.000000
  0
LINE
  8
255
 62
     7
  6
CONTINUOUS
 10
5377.180000
 20
3429.000000
 30
0.000000
 11
5384.800000
 21
3429.000000
 31
0.000000
  0
ARC
  8
255
 62
     7
  6
CONTINUOUS
 10
5385.770559
 20
3543.983209
 30
0.000000
 40
114.987324
 50
269.516391
 51
340.288601
  0
LINE
  8
255
 62
     7
  6
CONTINUOUS
 10
5494.020000
 20
3505.200000
 30
0.000000
 11
5582.920000
 21
3779.520000
 31
0.000000
  0
ARC
  8
255
 62
     7
  6
CONTINUOUS
 10
5871.891939
 20
3682.493016
 30
0.000000
 40
304.826187
 50
99.965535
 51
161.439692
  0
ARC
  8
255
 62
     7
  6
CONTINUOUS
 10
5821.554651
 20
3970.123607
 30
0.000000
 40
12.825755
 50
359.537205
 51
460.851653
  0
LINE
  8
255
 62
     7
  6
CONTINUOUS
 10
5834.380000
 20
3970.020000
 30
0.000000
 11
5834.380000
 21
3797.300000
 31
0.000000
  0
ARC
  8
255
 62
     7
  6
CONTINUOUS
 10
5872.480000
 20
3797.300000
 30
0.000000
 40
38.100000
 50
180.000000
 51
360.000000
  0
LINE
  8
255
 62
     7
  6
CONTINUOUS
 10
5910.580000
 20
3797.300000
 30
0.000000
 11
5910.580000
 21
3970.020000
 31
0.000000
  0
ARC
  8
255
 62
     7
  6
CONTINUOUS
 10
5923.405349
 20
3970.123607
 30
0.000000
 40
12.825755
 50
79.148347
 51
180.462795
  0
ARC
  8
255
 62
     7
  6
CONTINUOUS
 10
5872.813985
 20
3682.618289
 30
0.000000
 40
304.746914
 50
2.460264
 51
79.983340
  0
ARC
  8
255
 62
     7
  6
CONTINUOUS
 10
3527.328709
 20
3640.774735
 30
0.000000
 40
203.191186
 50
7.631846
 51
66.976051
  0
LINE
  8
255
 62
     7
  6
CONTINUOUS
 10
3728.720000
 20
3667.760000
 30
0.000000
 11
3766.820000
 21
3421.380000
 31
0.000000
  0
ARC
  8
255
 62
     7
  6
CONTINUOUS
 10
3716.265389
 20
3414.043566
 30
0.000000
 40
51.084150
 50
269.724767
 51
368.257059
  0
LINE
  8
255
 62
     7
  6
CONTINUOUS
 10
3716.020000
 20
3362.960000
 30
0.000000
 11
3561.080000
 21
3362.960000
 31
0.000000
  0
ARC
  8
255
 62
     7
  6
CONTINUOUS
 10
3561.080000
 20
3375.660000
 30
0.000000
 40
12.700000
 50
180.000000
 51
270.000000
  0
LINE
  8
255
 62
     7
  6
CONTINUOUS
 10
3548.380000
 20
3375.660000
 30
0.000000
 11
3548.380000
 21
3528.060000
 31
0.000000
  0
ARC
  8
255
 62
     7
  6
CONTINUOUS
 10
3510.280000
 20
3528.060000
 30
0.000000
 40
38.100000
 50
0.000000
 51
180.000000
  0
LINE
  8
255
 62
     7
  6
CONTINUOUS
 10
3472.180000
 20
3528.060000
 30
0.000000
 11
3472.180000
 21
3375.660000
 31
0.000000
  0
ARC
  8
255
 62
     7
  6
CONTINUOUS
 10
3459.480000
 20
3375.660000
 30
0.000000
 40
12.700000
 50
270.000000
 51
360.000000
  0
LINE
  8
255
 62
     7
  6
CONTINUOUS
 10
3459.480000
 20
3362.960000
 30
0.000000
 11
3302.000000
 21
3362.960000
 31
0.000000
  0
ARC
  8
255
 62
     7
  6
CONTINUOUS
 10
3301.754611
 20
3414.043566
 30
0.000000
 40
51.084150
 50
171.742941
 51
270.275233
  0
LINE
  8
255
 62
     7
  6
CONTINUOUS
 10
3251.200000
 20
3421.380000
 30
0.000000
 11
3289.300000
 21
3667.760000
 31
0.000000
  0
ARC
  8
255
 62
     7
  6
CONTINUOUS
 10
3490.691291
 20
3640.774735
 30
0.000000
 40
203.191186
 50
113.023949
 51
172.368154
  0
ARC
  8
255
 62
     7
  6
CONTINUOUS
 10
3361.521674
 20
3945.531276
 30
0.000000
 40
127.809574
 50
292.882752
 51
325.696061
  0
ARC
  8
255
 62
     7
  6
CONTINUOUS
 10
3509.698238
 20
3845.247783
 30
0.000000
 40
51.115544
 50
89.347886
 51
146.446656
  0
ARC
  8
255
 62
     7
  6
CONTINUOUS
 10
3508.281020
 20
3845.251796
 30
0.000000
 40
51.147269
 50
33.524348
 51
87.760145
  0
ARC
  8
255
 62
     7
  6
CONTINUOUS
 10
3656.498326
 20
3945.531276
 30
0.000000
 40
127.809574
 50
214.303938
 51
247.117247
  0
ARC
  8
255
 62
     7
  6
CONTINUOUS
 10
3771.592101
 20
4324.809740
 30
0.000000
 40
50.951333
 50
258.850887
 51
419.697995
  0
ARC
  8
255
 62
     7
  6
CONTINUOUS
 10
3641.050147
 20
3651.116929
 30
0.000000
 40
635.272821
 50
79.048316
 51
186.531046
  0
ARC
  8
255
 62
     7
  6
CONTINUOUS
 10
2958.924003
 20
3573.643424
 30
0.000000
 40
51.242214
 50
249.907014
 51
365.842953
  0
ARC
  8
255
 62
     7
  6
CONTINUOUS
 10
2752.699143
 20
2999.326844
 30
0.000000
 40
558.978587
 50
70.279113
 51
173.696491
  0
ARC
  8
255
 62
     7
  6
CONTINUOUS
 10
2146.266421
 20
3065.761483
 30
0.000000
 40
51.084937
 50
243.459345
 51
354.313818
  0
ARC
  8
255
 62
     7
  6
CONTINUOUS
 10
1861.086677
 20
2526.999721
 30
0.000000
 40
558.513844
 50
61.982923
 51
162.500868
  0
ARC
  8
255
 62
     7
  6
CONTINUOUS
 10
1280.031857
 20
2710.196459
 30
0.000000
 40
50.736297
 50
182.888195
 51
342.500286
  0
ARC
  8
255
 62
     7
  6
CONTINUOUS
 10
621.961901
 20
2659.692471
 30
0.000000
 40
609.287631
 50
4.513525
 51
89.968206
  0
LINE
  8
255
 62
     7
  6
CONTINUOUS
 10
622.300000
 20
3268.980000
 30
0.000000
 11
266.700000
 21
3268.980000
 31
0.000000
  0
ARC
  8
255
 62
     7
  6
CONTINUOUS
 10
266.700000
 20
3319.780000
 30
0.000000
 40
50.800000
 50
180.000000
 51
270.000000
  0
LINE
  8
255
 62
     7
  6
CONTINUOUS
 10
215.900000
 20
3319.780000
 30
0.000000
 11
215.900000
 21
3459.480000
 31
0.000000
  0
ARC
  8
255
 62
     7
  6
CONTINUOUS
 10
228.600000
 20
3459.480000
 30
0.000000
 40
12.700000
 50
90.000000
 51
180.000000
  0
LINE
  8
255
 62
     7
  6
CONTINUOUS
 10
228.600000
 20
3472.180000
 30
0.000000
 11
533.400000
 21
3472.180000
 31
0.000000
  0
ARC
  8
255
 62
     7
  6
CONTINUOUS
 10
533.400000
 20
3510.280000
 30
0.000000
 40
38.100000
 50
270.000000
 51
450.000000
  0
LINE
  8
255
 62
     7
  6
CONTINUOUS
 10
533.400000
 20
3548.380000
 30
0.000000
 11
228.600000
 21
3548.380000
 31
0.000000
  0
ARC
  8
255
 62
     7
  6
CONTINUOUS
 10
228.600000
 20
3561.080000
 30
0.000000
 40
12.700000
 50
180.000000
 51
270.000000
  0
LINE
  8
255
 62
     7
  6
CONTINUOUS
 10
215.900000
 20
3561.080000
 30
0.000000
 11
215.900000
 21
3703.320000
 31
0.000000
  0
ARC
  8
255
 62
     7
  6
CONTINUOUS
 10
266.983083
 20
3703.650886
 30
0.000000
 40
51.084150
 50
98.899817
 51
180.371110
  0
ARC
  8
255
 62
     7
  6
CONTINUOUS
 10
215.854661
 20
4107.128768
 30
0.000000
 40
355.645339
 50
276.981023
 51
360.000000
  0
LINE
  8
255
 62
     7
  6
CONTINUOUS
 10
571.500000
 20
4107.180000
 30
0.000000
 11
571.500000
 21
4246.880000
 31
0.000000
  0
ARC
  8
255
 62
     7
  6
CONTINUOUS
 10
584.200000
 20
4246.880000
 30
0.000000
 40
12.700000
 50
90.000000
 51
180.000000
  0
LINE
  8
255
 62
     7
  6
CONTINUOUS
 10
584.200000
 20
4259.580000
 30
0.000000
 11
838.200000
 21
4259.580000
 31
0.000000
  0
ARC
  8
255
 62
     7
  6
CONTINUOUS
 10
838.200000
 20
4297.680000
 30
0.000000
 40
38.100000
 50
270.000000
 51
450.000000
  0
LINE
  8
255
 62
     7
  6
CONTINUOUS
 10
838.200000
 20
4335.780000
 30
0.000000
 11
584.200000
 21
4335.780000
 31
0.000000
  0
ARC
  8
255
 62
     7
  6
CONTINUOUS
 10
584.200000
 20
4348.480000
 30
0.000000
 40
12.700000
 50
180.000000
 51
270.000000
  0
LINE
  8
255
 62
     7
  6
CONTINUOUS
 10
571.500000
 20
4348.480000
 30
0.000000
 11
571.500000
 21
4462.780000
 31
0.000000
  0
ARC
  8
255
 62
     7
  6
CONTINUOUS
 10
698.954533
 20
4463.294426
 30
0.000000
 40
127.455574
 50
97.073197
 51
180.231249
  0
ARC
  8
255
 62
     7
  6
CONTINUOUS
 10
516.446999
 20
5977.031302
 30
0.000000
 40
1397.244704
 50
276.856733
 51
315.995236
  0
ARC
  8
255
 62
     7
  6
CONTINUOUS
 10
1739.910617
 20
4792.983302
 30
0.000000
 40
305.355117
 50
78.972306
 51
135.675874
  0
ARC
  8
255
 62
     7
  6
CONTINUOUS
 10
403.146666
 20
-1881.881733
 30
0.000000
 40
7112.756056
 50
61.497805
 51
78.688038
  0
ARC
  8
255
 62
     7
  6
CONTINUOUS
 10
5620.303187
 20
4480.819410
 30
0.000000
 40
63.495428
 50
161.582566
 51
338.647104
  0
ARC
  8
255
 62
     7
  6
CONTINUOUS
 10
5295.583618
 20
4590.450027
 30
0.000000
 40
279.232055
 50
341.290336
 51
429.151894
  0
LINE
  8
255
 62
     7
  6
CONTINUOUS
 10
5394.960000
 20
4851.400000
 30
0.000000
 11
4267.200000
 21
5285.740000
 31
0.000000
  0
ARC
  8
255
 62
     7
  6
CONTINUOUS
 10
4221.480000
 20
5166.360000
 30
0.000000
 40
127.835457
 50
69.044223
 51
159.044223
  0
LINE
  8
255
 62
     7
  6
CONTINUOUS
 10
4102.100000
 20
5212.080000
 30
0.000000
 11
4028.440000
 21
5021.580000
 31
0.000000
  0
ARC
  8
255
 62
     7
  6
CONTINUOUS
 10
3957.903997
 20
5049.783398
 30
0.000000
 40
75.965507
 50
249.998173
 51
338.206297
  0
LINE
  8
255
 62
     7
  6
CONTINUOUS
 10
3931.920000
 20
4978.400000
 30
0.000000
 11
3825.240000
 21
5019.040000
 31
0.000000
  0
ARC
  8
255
 62
     7
  6
CONTINUOUS
 10
3828.197093
 20
5030.830197
 30
0.000000
 40
12.155373
 50
150.477121
 51
255.920059
  0
LINE
  8
255
 62
     7
  6
CONTINUOUS
 10
3817.620000
 20
5036.820000
 30
0.000000
 11
3888.740000
 21
5224.780000
 31
0.000000
  0
ARC
  8
255
 62
     7
  6
CONTINUOUS
 10
3853.612257
 20
5239.850277
 30
0.000000
 40
38.223977
 50
336.780011
 51
520.324516
  0
LINE
  8
255
 62
     7
  6
CONTINUOUS
 10
3817.620000
 20
5252.720000
 30
0.000000
 11
3746.500000
 21
5062.220000
 31
0.000000
  0
ARC
  8
255
 62
     7
  6
CONTINUOUS
 10
3735.495755
 20
5067.079858
 30
0.000000
 40
12.029618
 50
235.718704
 51
336.172089
  0
LINE
  8
255
 62
     7
  6
CONTINUOUS
 10
3728.720000
 20
5057.140000
 30
0.000000
 11
3622.040000
 21
5097.780000
 31
0.000000
  0
ARC
  8
255
 62
     7
  6
CONTINUOUS
 10
3650.243398
 20
5168.316003
 30
0.000000
 40
75.965507
 50
159.998173
 51
248.206297
  0
LINE
  8
255
 62
     7
  6
CONTINUOUS
 10
3578.860000
 20
5194.300000
 30
0.000000
 11
3652.520000
 21
5384.800000
 31
0.000000
  0
ARC
  8
255
 62
     7
  6
CONTINUOUS
 10
3533.140000
 20
5430.520000
 30
0.000000
 40
127.835457
 50
339.044223
 51
429.044223
  0
LINE
  8
255
 62
     7
  6
CONTINUOUS
 10
3578.860000
 20
5549.900000
 30
0.000000
 11
2788.920000
 21
5852.160000
 31
0.000000
  0
ARC
  8
255
 62
     7
  6
CONTINUOUS
 10
2817.604677
 20
5922.501642
 30
0.000000
 40
75.965507
 50
198.912032
 51
247.814813
  0
LINE
  8
255
 62
     7
  6
CONTINUOUS
 10
2745.740000
 20
5897.880000
 30
0.000000
 11
2679.700000
 21
6075.680000
 31
0.000000
  0
ARC
  8
255
 62
     7
  6
CONTINUOUS
 10
2727.960000
 20
6093.460000
 30
0.000000
 40
51.431088
 50
69.775140
 51
200.224859
  0
LINE
  8
255
 62
     7
  6
CONTINUOUS
 10
2745.740000
 20
6141.720000
 30
0.000000
 11
5463.540000
 21
5097.780000
 31
0.000000
  0
ARC
  8
255
 62
     7
  6
CONTINUOUS
 10
5308.600000
 20
4696.460000
 30
0.000000
 40
430.190834
 50
338.889625
 51
428.889625
  0
LINE
  8
255
 62
     7
  6
CONTINUOUS
 10
5709.920000
 20
4541.520000
 30
0.000000
 11
5679.440000
 21
4457.700000
 31
0.000000
  0
ARC
  8
255
 62
     7
  6
CONTINUOUS
 10
5105.659207
 20
4678.580711
 30
0.000000
 40
63.980187
 50
341.576008
 51
516.512439
  0
LINE
  8
255
 62
     7
  6
CONTINUOUS
 10
5166.360000
 20
4658.360000
 30
0.000000
 11
5135.880000
 21
4574.540000
 31
0.000000
  0
ARC
  8
255
 62
     7
  6
CONTINUOUS
 10
4730.031129
 20
4722.119385
 30
0.000000
 40
431.848336
 50
250.334228
 51
340.017146
  0
LINE
  8
255
 62
     7
  6
CONTINUOUS
 10
4584.700000
 20
4315.460000
 30
0.000000
 11
1846.580000
 21
5306.060000
 31
0.000000
  0
ARC
  8
255
 62
     7
  6
CONTINUOUS
 10
1864.423602
 20
5353.584467
 30
0.000000
 40
50.763856
 50
120.106500
 51
249.420784
  0
LINE
  8
255
 62
     7
  6
CONTINUOUS
 10
1838.960000
 20
5397.500000
 30
0.000000
 11
2006.600000
 21
5488.940000
 31
0.000000
  0
ARC
  8
255
 62
     7
  6
CONTINUOUS
 10
2043.842242
 20
5422.826924
 30
0.000000
 40
75.880976
 50
69.754785
 51
119.393058
  0
LINE
  8
255
 62
     7
  6
CONTINUOUS
 10
2070.100000
 20
5494.020000
 30
0.000000
 11
2865.120000
 21
5207.000000
 31
0.000000
  0
ARC
  8
255
 62
     7
  6
CONTINUOUS
 10
2908.300000
 20
5326.380000
 30
0.000000
 40
126.949200
 50
250.114835
 51
340.114835
  0
LINE
  8
255
 62
     7
  6
CONTINUOUS
 10
3027.680000
 20
5283.200000
 30
0.000000
 11
3096.260000
 21
5473.700000
 31
0.000000
  0
ARC
  8
255
 62
     7
  6
CONTINUOUS
 10
3167.380000
 20
5448.300000
 30
0.000000
 40
75.519636
 50
70.346176
 51
160.346176
  0
LINE
  8
255
 62
     7
  6
CONTINUOUS
 10
3192.780000
 20
5519.420000
 30
0.000000
 11
3302.000000
 21
5481.320000
 31
0.000000
  0
ARC
  8
255
 62
     7
  6
CONTINUOUS
 10
3296.657669
 20
5469.123834
 30
0.000000
 40
13.314909
 50
346.785137
 51
426.344965
  0
LINE
  8
255
 62
     7
  6
CONTINUOUS
 10
3309.620000
 20
5466.080000
 30
0.000000
 11
3241.040000
 21
5273.040000
 31
0.000000
  0
ARC
  8
255
 62
     7
  6
CONTINUOUS
 10
3276.600000
 20
5260.340000
 30
0.000000
 40
37.759818
 50
160.346176
 51
340.346176
  0
LINE
  8
255
 62
     7
  6
CONTINUOUS
 10
3312.160000
 20
5247.640000
 30
0.000000
 11
3380.740000
 21
5438.140000
 31
0.000000
  0
ARC
  8
255
 62
     7
  6
CONTINUOUS
 10
3391.412140
 20
5435.845720
 30
0.000000
 40
10.915955
 50
65.262748
 51
167.867355
  0
LINE
  8
255
 62
     7
  6
CONTINUOUS
 10
3395.980000
 20
5445.760000
 30
0.000000
 11
3505.200000
 21
5407.660000
 31
0.000000
  0
ARC
  8
255
 62
     7
  6
CONTINUOUS
 10
3477.720477
 20
5335.554963
 30
0.000000
 40
77.163854
 50
341.554399
 51
429.137953
  0
LINE
  8
255
 62
     7
  6
CONTINUOUS
 10
3550.920000
 20
5311.140000
 30
0.000000
 11
3479.800000
 21
5118.100000
 31
0.000000
  0
ARC
  8
255
 62
     7
  6
CONTINUOUS
 10
3599.180000
 20
5074.920000
 30
0.000000
 40
126.949200
 50
160.114835
 51
250.114835
  0
LINE
  8
255
 62
     7
  6
CONTINUOUS
 10
3556.000000
 20
4955.540000
 30
0.000000
 11
4693.920000
 21
4544.060000
 31
0.000000
  0
ARC
  8
255
 62
     7
  6
CONTINUOUS
 10
4787.141658
 20
4807.877278
 30
0.000000
 40
279.803200
 50
250.538785
 51
338.224839
  0
ARC
  8
255
 62
     7
  6
CONTINUOUS
 10
6271.496804
 20
5574.873813
 30
0.000000
 40
50.256110
 50
342.856477
 51
435.641176
  0
LINE
  8
255
 62
     7
  6
CONTINUOUS
 10
6319.520000
 20
5560.060000
 30
0.000000
 11
6306.820000
 21
5511.800000
 31
0.000000
  0
ARC
  8
255
 62
     7
  6
CONTINUOUS
 10
6258.133813
 20
5524.263196
 30
0.000000
 40
50.256110
 50
252.856477
 51
345.641176
  0
LINE
  8
255
 62
     7
  6
CONTINUOUS
 10
6243.320000
 20
5476.240000
 30
0.000000
 11
6144.260000
 21
5504.180000
 31
0.000000
  0
ARC
  8
255
 62
     7
  6
CONTINUOUS
 10
6131.110852
 20
5455.674560
 30
0.000000
 40
50.256110
 50
74.832447
 51
162.053409
  0
LINE
  8
255
 62
     7
  6
CONTINUOUS
 10
6083.300000
 20
5471.160000
 30
0.000000
 11
6042.660000
 21
5336.540000
 31
0.000000
  0
ARC
  8
255
 62
     7
  6
CONTINUOUS
 10
6029.960000
 20
5339.080000
 30
0.000000
 40
12.951511
 50
258.690068
 51
348.690068
  0
LINE
  8
255
 62
     7
  6
CONTINUOUS
 10
6027.420000
 20
5326.380000
 30
0.000000
 11
5905.500000
 21
5361.940000
 31
0.000000
  0
ARC
  8
255
 62
     7
  6
CONTINUOUS
 10
5895.014270
 20
5325.199865
 30
0.000000
 40
38.207188
 50
74.071110
 51
255.084568
  0
LINE
  8
255
 62
     7
  6
CONTINUOUS
 10
5885.180000
 20
5288.280000
 30
0.000000
 11
6007.100000
 21
5252.720000
 31
0.000000
  0
ARC
  8
255
 62
     7
  6
CONTINUOUS
 10
6001.757669
 20
5240.523834
 30
0.000000
 40
13.314909
 50
346.785137
 51
426.344965
  0
LINE
  8
255
 62
     7
  6
CONTINUOUS
 10
6014.720000
 20
5237.480000
 30
0.000000
 11
5976.620000
 21
5102.860000
 31
0.000000
  0
ARC
  8
255
 62
     7
  6
CONTINUOUS
 10
6025.125440
 20
5089.710852
 30
0.000000
 40
50.256110
 50
164.832447
 51
252.053409
  0
LINE
  8
255
 62
     7
  6
CONTINUOUS
 10
6009.640000
 20
5041.900000
 30
0.000000
 11
6108.700000
 21
5013.960000
 31
0.000000
  0
ARC
  8
255
 62
     7
  6
CONTINUOUS
 10
6093.220351
 20
4963.584586
 30
0.000000
 40
52.700098
 50
345.579102
 51
432.918551
  0
LINE
  8
255
 62
     7
  6
CONTINUOUS
 10
6144.260000
 20
4950.460000
 30
0.000000
 11
6129.020000
 21
4902.200000
 31
0.000000
  0
ARC
  8
255
 62
     7
  6
CONTINUOUS
 10
6080.333813
 20
4914.663196
 30
0.000000
 40
50.256110
 50
252.856477
 51
345.641176
  0
LINE
  8
255
 62
     7
  6
CONTINUOUS
 10
6065.520000
 20
4866.640000
 30
0.000000
 11
5862.320000
 21
4925.060000
 31
0.000000
  0
ARC
  8
255
 62
     7
  6
CONTINUOUS
 10
5884.429989
 20
4996.977585
 30
0.000000
 40
75.239575
 50
194.294892
 51
252.910747
  0
LINE
  8
255
 62
     7
  6
CONTINUOUS
 10
5811.520000
 20
4978.400000
 30
0.000000
 11
5750.560000
 21
5176.520000
 31
0.000000
  0
ARC
  8
255
 62
     7
  6
CONTINUOUS
 10
5603.394584
 20
5135.717288
 30
0.000000
 40
152.717144
 50
15.496433
 51
71.639374
  0
LINE
  8
255
 62
     7
  6
CONTINUOUS
 10
5651.500000
 20
5280.660000
 30
0.000000
 11
3583.940000
 21
5928.360000
 31
0.000000
  0
ARC
  8
255
 62
     7
  6
CONTINUOUS
 10
3604.403866
 20
5989.823174
 30
0.000000
 40
64.780338
 50
76.524132
 51
251.585077
  0
LINE
  8
255
 62
     7
  6
CONTINUOUS
 10
3619.500000
 20
6052.820000
 30
0.000000
 11
5715.000000
 21
5496.560000
 31
0.000000
  0
ARC
  8
255
 62
     7
  6
CONTINUOUS
 10
5753.886841
 20
5644.067935
 30
0.000000
 40
152.547625
 50
255.231383
 51
311.365758
  0
LINE
  8
255
 62
     7
  6
CONTINUOUS
 10
5854.700000
 20
5529.580000
 30
0.000000
 11
6009.640000
 21
5666.740000
 31
0.000000
  0
ARC
  8
255
 62
     7
  6
CONTINUOUS
 10
6059.400581
 20
5608.090638
 30
0.000000
 40
76.914654
 50
73.876847
 51
130.312667
  0
LINE
  8
255
 62
     7
  6
CONTINUOUS
 10
6080.760000
 20
5681.980000
 30
0.000000
 11
6283.960000
 21
5623.560000
 31
0.000000
  0
ARC
  8
255
 62
     7
  6
CONTINUOUS
 10
2148.840000
 20
7785.100000
 30
0.000000
 40
12.951511
 50
348.690068
 51
438.690068
  0
LINE
  8
255
 62
     7
  6
CONTINUOUS
 10
2161.540000
 20
7782.560000
 30
0.000000
 11
2075.180000
 21
7490.460000
 31
0.000000
  0
ARC
  8
255
 62
     7
  6
CONTINUOUS
 10
2112.481195
 20
7480.548285
 30
0.000000
 40
38.595605
 50
165.119190
 51
340.397891
  0
LINE
  8
255
 62
     7
  6
CONTINUOUS
 10
2148.840000
 20
7467.600000
 30
0.000000
 11
2235.200000
 21
7762.240000
 31
0.000000
  0
ARC
  8
255
 62
     7
  6
CONTINUOUS
 10
2247.396166
 20
7756.897669
 30
0.000000
 40
13.314909
 50
76.785137
 51
156.344965
  0
LINE
  8
255
 62
     7
  6
CONTINUOUS
 10
2250.440000
 20
7769.860000
 30
0.000000
 11
2385.060000
 21
7731.760000
 31
0.000000
  0
ARC
  8
255
 62
     7
  6
CONTINUOUS
 10
2369.820000
 20
7683.500000
 30
0.000000
 40
50.609144
 50
342.474432
 51
432.474432
  0
LINE
  8
255
 62
     7
  6
CONTINUOUS
 10
2418.080000
 20
7668.260000
 30
0.000000
 11
2319.020000
 21
7327.900000
 31
0.000000
  0
ARC
  8
255
 62
     7
  6
CONTINUOUS
 10
2905.760000
 20
7157.720000
 30
0.000000
 40
610.921486
 50
163.825553
 51
249.304549
  0
ARC
  8
255
 62
     7
  6
CONTINUOUS
 10
2672.123891
 20
6538.246334
 30
0.000000
 40
51.147269
 50
272.797290
 51
429.710386
  0
ARC
  8
255
 62
     7
  6
CONTINUOUS
 10
2686.928357
 20
5927.869628
 30
0.000000
 40
559.425780
 50
91.260712
 51
191.472626
  0
ARC
  8
255
 62
     7
  6
CONTINUOUS
 10
2089.380327
 20
5805.372590
 30
0.000000
 40
50.561951
 50
259.608143
 51
372.829608
  0
ARC
  8
255
 62
     7
  6
CONTINUOUS
 10
1983.583612
 20
5206.860021
 30
0.000000
 40
557.230483
 50
80.008944
 51
183.644427
  0
ARC
  8
255
 62
     7
  6
CONTINUOUS
 10
1377.159527
 20
5166.704653
 30
0.000000
 40
50.542774
 50
245.699438
 51
365.375918
  0
ARC
  8
255
 62
     7
  6
CONTINUOUS
 10
1112.646898
 20
4533.976505
 30
0.000000
 40
635.271704
 50
67.440912
 51
174.730516
  0
ARC
  8
255
 62
     7
  6
CONTINUOUS
 10
430.036884
 20
4594.920528
 30
0.000000
 40
50.090680
 50
191.773354
 51
357.024056
  0
ARC
  8
255
 62
     7
  6
CONTINUOUS
 10
7327.870130
 20
6106.613339
 30
0.000000
 40
7111.626010
 50
175.188995
 51
192.357075
  0
ARC
  8
255
 62
     7
  6
CONTINUOUS
 10
544.235386
 20
6678.685220
 30
0.000000
 40
303.914429
 50
118.050447
 51
175.399777
  0
ARC
  8
255
 62
     7
  6
CONTINUOUS
 10
-251.588473
 20
8186.280757
 30
0.000000
 40
1400.840505
 50
297.780358
 51
336.835996
  0
ARC
  8
255
 62
     7
  6
CONTINUOUS
 10
1153.090658
 20
7586.945888
 30
0.000000
 40
126.363400
 50
74.819628
 51
157.530953
  0
LINE
  8
255
 62
     7
  6
CONTINUOUS
 10
1186.180000
 20
7708.900000
 30
0.000000
 11
1297.940000
 21
7675.880000
 31
0.000000
  0
ARC
  8
255
 62
     7
  6
CONTINUOUS
 10
1292.597669
 20
7663.683834
 30
0.000000
 40
13.314909
 50
346.785137
 51
426.344965
  0
LINE
  8
255
 62
     7
  6
CONTINUOUS
 10
1305.560000
 20
7660.640000
 30
0.000000
 11
1234.440000
 21
7416.800000
 31
0.000000
  0
ARC
  8
255
 62
     7
  6
CONTINUOUS
 10
1271.180135
 20
7406.314270
 30
0.000000
 40
38.207188
 50
164.071110
 51
345.084568
  0
LINE
  8
255
 62
     7
  6
CONTINUOUS
 10
1308.100000
 20
7396.480000
 30
0.000000
 11
1379.220000
 21
7640.320000
 31
0.000000
  0
ARC
  8
255
 62
     7
  6
CONTINUOUS
 10
1391.416166
 20
7634.977669
 30
0.000000
 40
13.314909
 50
76.785137
 51
156.344965
  0
LINE
  8
255
 62
     7
  6
CONTINUOUS
 10
1394.460000
 20
7647.940000
 30
0.000000
 11
1529.080000
 21
7609.840000
 31
0.000000
  0
ARC
  8
255
 62
     7
  6
CONTINUOUS
 10
1627.717344
 20
7950.000305
 30
0.000000
 40
354.172799
 50
253.829263
 51
336.804081
  0
ARC
  8
255
 62
     7
  6
CONTINUOUS
 10
1999.374157
 20
7790.359121
 30
0.000000
 40
50.320677
 50
72.840971
 51
156.406158
  0
LINE
  8
255
 62
     7
  6
CONTINUOUS
 10
2014.220000
 20
7838.440000
 30
0.000000
 11
2151.380000
 21
7797.800000
 31
0.000000
  0
ARC
  8
255
 62
     7
  6
CONTINUOUS
 10
5763.260711
 20
6452.870000
 30
0.000000
 40
304.421591
 50
254.514145
 51
465.485854
  0
LINE
  8
255
 62
     7
  6
CONTINUOUS
 10
5681.980000
 20
6159.500000
 30
0.000000
 11
4869.180000
 21
6385.560000
 31
0.000000
  0
ARC
  8
255
 62
     7
  6
CONTINUOUS
 10
4853.020139
 20
6324.102236
 30
0.000000
 40
63.546812
 50
75.267970
 51
160.877003
  0
ARC
  8
255
 62
     7
  6
CONTINUOUS
 10
4467.860000
 20
6454.140000
 30
0.000000
 40
342.975260
 50
198.569130
 51
341.430869
  0
ARC
  8
255
 62
     7
  6
CONTINUOUS
 10
4082.699861
 20
6324.102236
 30
0.000000
 40
63.546812
 50
19.122997
 51
104.732030
  0
LINE
  8
255
 62
     7
  6
CONTINUOUS
 10
4066.540000
 20
6385.560000
 30
0.000000
 11
3253.740000
 21
6159.500000
 31
0.000000
  0
ARC
  8
255
 62
     7
  6
CONTINUOUS
 10
3172.459289
 20
6452.870000
 30
0.000000
 40
304.421591
 50
74.514145
 51
285.485854
  0
LINE
  8
255
 62
     7
  6
CONTINUOUS
 10
3253.740000
 20
6746.240000
 30
0.000000
 11
4066.540000
 21
6522.720000
 31
0.000000
  0
ARC
  8
255
 62
     7
  6
CONTINUOUS
 10
4082.699861
 20
6584.177764
 30
0.000000
 40
63.546812
 50
255.267970
 51
340.877003
  0
ARC
  8
255
 62
     7
  6
CONTINUOUS
 10
4467.528022
 20
6454.038705
 30
0.000000
 40
342.692863
 50
52.501308
 51
161.397141
  0
ARC
  8
255
 62
     7
  6
CONTINUOUS
 10
4668.520000
 20
6715.760000
 30
0.000000
 40
12.700000
 50
306.869897
 51
413.130102
  0
LINE
  8
255
 62
     7
  6
CONTINUOUS
 10
4676.140000
 20
6705.600000
 30
0.000000
 11
4467.860000
 21
6507.480000
 31
0.000000
  0
ARC
  8
255
 62
     7
  6
CONTINUOUS
 10
4495.194693
 20
6480.174467
 30
0.000000
 40
38.636473
 50
135.030585
 51
312.304976
  0
LINE
  8
255
 62
     7
  6
CONTINUOUS
 10
4521.200000
 20
6451.600000
 30
0.000000
 11
4729.480000
 21
6652.260000
 31
0.000000
  0
ARC
  8
255
 62
     7
  6
CONTINUOUS
 10
4738.542187
 20
6642.207569
 30
0.000000
 40
13.534212
 50
33.715517
 51
132.034450
  0
ARC
  8
255
 62
     7
  6
CONTINUOUS
 10
4467.605594
 20
6454.647797
 30
0.000000
 40
343.055169
 50
18.475205
 51
34.654897
  0
ARC
  8
255
 62
     7
  6
CONTINUOUS
 10
4853.020139
 20
6584.177764
 30
0.000000
 40
63.546812
 50
199.122997
 51
284.732030
  0
LINE
  8
255
 62
     7
  6
CONTINUOUS
 10
4869.180000
 20
6522.720000
 30
0.000000
 11
5681.980000
 21
6746.240000
 31
0.000000
  0
ARC
  8
255
 62
     7
  6
CONTINUOUS
 10
5367.020000
 20
7099.300000
 30
0.000000
 40
12.700000
 50
270.000000
 51
360.000000
  0
LINE
  8
255
 62
     7
  6
CONTINUOUS
 10
5367.020000
 20
7086.600000
 30
0.000000
 11
5189.220000
 21
7086.600000
 31
0.000000
  0
ARC
  8
255
 62
     7
  6
CONTINUOUS
 10
5189.220000
 20
7048.500000
 30
0.000000
 40
38.100000
 50
90.000000
 51
270.000000
  0
LINE
  8
255
 62
     7
  6
CONTINUOUS
 10
5189.220000
 20
7010.400000
 30
0.000000
 11
5367.020000
 21
7010.400000
 31
0.000000
  0
ARC
  8
255
 62
     7
  6
CONTINUOUS
 10
5367.020000
 20
6997.700000
 30
0.000000
 40
12.700000
 50
0.000000
 51
90.000000
  0
LINE
  8
255
 62
     7
  6
CONTINUOUS
 10
5379.720000
 20
6997.700000
 30
0.000000
 11
5379.720000
 21
6908.800000
 31
0.000000
  0
ARC
  8
255
 62
     7
  6
CONTINUOUS
 10
5316.220000
 20
6908.800000
 30
0.000000
 40
63.500000
 50
270.000000
 51
360.000000
  0
LINE
  8
255
 62
     7
  6
CONTINUOUS
 10
5316.220000
 20
6845.300000
 30
0.000000
 11
4897.120000
 21
6845.300000
 31
0.000000
  0
ARC
  8
255
 62
     7
  6
CONTINUOUS
 10
4897.120000
 20
6972.300000
 30
0.000000
 40
127.000000
 50
180.000000
 51
270.000000
  0
LINE
  8
255
 62
     7
  6
CONTINUOUS
 10
4770.120000
 20
6972.300000
 30
0.000000
 11
4770.120000
 21
7188.200000
 31
0.000000
  0
ARC
  8
255
 62
     7
  6
CONTINUOUS
 10
4503.323302
 20
7188.311709
 30
0.000000
 40
266.796723
 50
0.000000
 51
81.768804
  0
ARC
  8
255
 62
     7
  6
CONTINUOUS
 10
4541.520000
 20
7465.060000
 30
0.000000
 40
12.700000
 50
180.000000
 51
270.000000
  0
LINE
  8
255
 62
     7
  6
CONTINUOUS
 10
4528.820000
 20
7465.060000
 30
0.000000
 11
4528.820000
 21
7594.600000
 31
0.000000
  0
ARC
  8
255
 62
     7
  6
CONTINUOUS
 10
4490.720000
 20
7594.600000
 30
0.000000
 40
38.100000
 50
0.000000
 51
180.000000
  0
LINE
  8
255
 62
     7
  6
CONTINUOUS
 10
4452.620000
 20
7594.600000
 30
0.000000
 11
4452.620000
 21
7465.060000
 31
0.000000
  0
ARC
  8
255
 62
     7
  6
CONTINUOUS
 10
4439.795159
 20
7464.905873
 30
0.000000
 40
12.825755
 50
281.991799
 51
360.688585
  0
ARC
  8
255
 62
     7
  6
CONTINUOUS
 10
4477.941336
 20
7188.110084
 30
0.000000
 40
266.621362
 50
97.647474
 51
179.980675
  0
LINE
  8
255
 62
     7
  6
CONTINUOUS
 10
4211.320000
 20
7188.200000
 30
0.000000
 11
4211.320000
 21
6972.300000
 31
0.000000
  0
ARC
  8
255
 62
     7
  6
CONTINUOUS
 10
4084.320000
 20
6972.300000
 30
0.000000
 40
127.000000
 50
270.000000
 51
360.000000
  0
LINE
  8
255
 62
     7
  6
CONTINUOUS
 10
4084.320000
 20
6845.300000
 30
0.000000
 11
3665.220000
 21
6845.300000
 31
0.000000
  0
ARC
  8
255
 62
     7
  6
CONTINUOUS
 10
3665.220000
 20
6908.800000
 30
0.000000
 40
63.500000
 50
180.000000
 51
270.000000
  0
LINE
  8
255
 62
     7
  6
CONTINUOUS
 10
3601.720000
 20
6908.800000
 30
0.000000
 11
3601.720000
 21
6997.700000
 31
0.000000
  0
ARC
  8
255
 62
     7
  6
CONTINUOUS
 10
3614.420000
 20
6997.700000
 30
0.000000
 40
12.700000
 50
90.000000
 51
180.000000
  0
LINE
  8
255
 62
     7
  6
CONTINUOUS
 10
3614.420000
 20
7010.400000
 30
0.000000
 11
3792.220000
 21
7010.400000
 31
0.000000
  0
ARC
  8
255
 62
     7
  6
CONTINUOUS
 10
3792.220000
 20
7048.500000
 30
0.000000
 40
38.100000
 50
270.000000
 51
450.000000
  0
LINE
  8
255
 62
     7
  6
CONTINUOUS
 10
3792.220000
 20
7086.600000
 30
0.000000
 11
3614.420000
 21
7086.600000
 31
0.000000
  0
ARC
  8
255
 62
     7
  6
CONTINUOUS
 10
3614.420000
 20
7099.300000
 30
0.000000
 40
12.700000
 50
180.000000
 51
270.000000
  0
LINE
  8
255
 62
     7
  6
CONTINUOUS
 10
3601.720000
 20
7099.300000
 30
0.000000
 11
3601.720000
 21
7188.200000
 31
0.000000
  0
ARC
  8
255
 62
     7
  6
CONTINUOUS
 10
3665.220000
 20
7188.200000
 30
0.000000
 40
63.500000
 50
90.000000
 51
180.000000
  0
LINE
  8
255
 62
     7
  6
CONTINUOUS
 10
3665.220000
 20
7251.700000
 30
0.000000
 11
3754.120000
 21
7251.700000
 31
0.000000
  0
ARC
  8
255
 62
     7
  6
CONTINUOUS
 10
3754.120000
 20
7378.700000
 30
0.000000
 40
127.000000
 50
270.000000
 51
360.000000
  0
LINE
  8
255
 62
     7
  6
CONTINUOUS
 10
3881.120000
 20
7378.700000
 30
0.000000
 11
3881.120000
 21
7645.400000
 31
0.000000
  0
ARC
  8
255
 62
     7
  6
CONTINUOUS
 10
3970.020000
 20
7645.400000
 30
0.000000
 40
88.900000
 50
90.000000
 51
180.000000
  0
LINE
  8
255
 62
     7
  6
CONTINUOUS
 10
3970.020000
 20
7734.300000
 30
0.000000
 11
4020.820000
 21
7734.300000
 31
0.000000
  0
ARC
  8
255
 62
     7
  6
CONTINUOUS
 10
4020.820000
 20
7721.600000
 30
0.000000
 40
12.700000
 50
0.000000
 51
90.000000
  0
LINE
  8
255
 62
     7
  6
CONTINUOUS
 10
4033.520000
 20
7721.600000
 30
0.000000
 11
4033.520000
 21
7442.200000
 31
0.000000
  0
ARC
  8
255
 62
     7
  6
CONTINUOUS
 10
4071.620000
 20
7442.200000
 30
0.000000
 40
38.100000
 50
180.000000
 51
360.000000
  0
LINE
  8
255
 62
     7
  6
CONTINUOUS
 10
4109.720000
 20
7442.200000
 30
0.000000
 11
4109.720000
 21
7747.000000
 31
0.000000
  0
ARC
  8
255
 62
     7
  6
CONTINUOUS
 10
4376.420000
 20
7747.000000
 30
0.000000
 40
266.700000
 50
90.000000
 51
180.000000
  0
LINE
  8
255
 62
     7
  6
CONTINUOUS
 10
4376.420000
 20
8013.700000
 30
0.000000
 11
4490.720000
 21
8013.700000
 31
0.000000
  0
LINE
  8
255
 62
     7
  6
CONTINUOUS
 10
4490.720000
 20
8013.700000
 30
0.000000
 11
4605.020000
 21
8013.700000
 31
0.000000
  0
ARC
  8
255
 62
     7
  6
CONTINUOUS
 10
4605.020000
 20
7747.000000
 30
0.000000
 40
266.700000
 50
0.000000
 51
90.000000
  0
LINE
  8
255
 62
     7
  6
CONTINUOUS
 10
4871.720000
 20
7747.000000
 30
0.000000
 11
4871.720000
 21
7442.200000
 31
0.000000
  0
ARC
  8
255
 62
     7
  6
CONTINUOUS
 10
4909.820000
 20
7442.200000
 30
0.000000
 40
38.100000
 50
180.000000
 51
360.000000
  0
LINE
  8
255
 62
     7
  6
CONTINUOUS
 10
4947.920000
 20
7442.200000
 30
0.000000
 11
4947.920000
 21
7721.600000
 31
0.000000
  0
ARC
  8
255
 62
     7
  6
CONTINUOUS
 10
4960.620000
 20
7721.600000
 30
0.000000
 40
12.700000
 50
90.000000
 51
180.000000
  0
LINE
  8
255
 62
     7
  6
CONTINUOUS
 10
4960.620000
 20
7734.300000
 30
0.000000
 11
5011.420000
 21
7734.300000
 31
0.000000
  0
ARC
  8
255
 62
     7
  6
CONTINUOUS
 10
5011.420000
 20
7645.400000
 30
0.000000
 40
88.900000
 50
0.000000
 51
90.000000
  0
LINE
  8
255
 62
     7
  6
CONTINUOUS
 10
5100.320000
 20
7645.400000
 30
0.000000
 11
5100.320000
 21
7378.700000
 31
0.000000
  0
ARC
  8
255
 62
     7
  6
CONTINUOUS
 10
5227.320000
 20
7378.700000
 30
0.000000
 40
127.000000
 50
180.000000
 51
270.000000
  0
LINE
  8
255
 62
     7
  6
CONTINUOUS
 10
5227.320000
 20
7251.700000
 30
0.000000
 11
5316.220000
 21
7251.700000
 31
0.000000
  0
ARC
  8
255
 62
     7
  6
CONTINUOUS
 10
5316.220000
 20
7188.200000
 30
0.000000
 40
63.500000
 50
0.000000
 51
90.000000
  0
LINE
  8
255
 62
     7
  6
CONTINUOUS
 10
5379.720000
 20
7188.200000
 30
0.000000
 11
5379.720000
 21
7099.300000
 31
0.000000
  0
ENDSEC
  0
EOF
