  0
SECTION
  2
HEADER
  9
$ACADVER
  1
AC1012
  9
$DWGCODEPAGE
  3
ansi_1250
  9
$INSBASE
 10
0.0
 20
0.0
 30
0.0
  9
$EXTMIN
 10
-105.0
 20
-148.5
 30
0.0
  9
$EXTMAX
 10
95.0
 20
-73.14
 30
0.0
  9
$LIMMIN
 10
0.0
 20
0.0
  9
$LIMMAX
 10
12.0
 20
9.0
  9
$ORTHOMODE
 70
     0
  9
$REGENMODE
 70
     1
  9
$FILLMODE
 70
     1
  9
$QTEXTMODE
 70
     0
  9
$MIRRTEXT
 70
     1
  9
$DRAGMODE
 70
     2
  9
$LTSCALE
 40
1.0
  9
$OSMODE
 70
    37
  9
$ATTMODE
 70
     1
  9
$TEXTSIZE
 40
0.2
  9
$TRACEWID
 40
0.05
  9
$TEXTSTYLE
  7
STANDARD
  9
$CLAYER
  8
0
  9
$CELTYPE
  6
BYLAYER
  9
$CECOLOR
 62
   256
  9
$CELTSCALE
 40
1.0
  9
$DELOBJ
 70
     1
  9
$DISPSILH
 70
     0
  9
$DIMSCALE
 40
1.0
  9
$DIMASZ
 40
0.18
  9
$DIMEXO
 40
0.0625
  9
$DIMDLI
 40
0.38
  9
$DIMRND
 40
0.0
  9
$DIMDLE
 40
0.0
  9
$DIMEXE
 40
0.18
  9
$DIMTP
 40
0.0
  9
$DIMTM
 40
0.0
  9
$DIMTXT
 40
0.18
  9
$DIMCEN
 40
0.09
  9
$DIMTSZ
 40
0.0
  9
$DIMTOL
 70
     0
  9
$DIMLIM
 70
     0
  9
$DIMTIH
 70
     1
  9
$DIMTOH
 70
     1
  9
$DIMSE1
 70
     0
  9
$DIMSE2
 70
     0
  9
$DIMTAD
 70
     0
  9
$DIMZIN
 70
     0
  9
$DIMBLK
  1

  9
$DIMASO
 70
     1
  9
$DIMSHO
 70
     1
  9
$DIMPOST
  1

  9
$DIMAPOST
  1

  9
$DIMALT
 70
     0
  9
$DIMALTD
 70
     2
  9
$DIMALTF
 40
25.4
  9
$DIMLFAC
 40
1.0
  9
$DIMTOFL
 70
     0
  9
$DIMTVP
 40
0.0
  9
$DIMTIX
 70
     0
  9
$DIMSOXD
 70
     0
  9
$DIMSAH
 70
     0
  9
$DIMBLK1
  1

  9
$DIMBLK2
  1

  9
$DIMSTYLE
  2
STANDARD
  9
$DIMCLRD
 70
     0
  9
$DIMCLRE
 70
     0
  9
$DIMCLRT
 70
     0
  9
$DIMTFAC
 40
1.0
  9
$DIMGAP
 40
0.09
  9
$DIMJUST
 70
     0
  9
$DIMSD1
 70
     0
  9
$DIMSD2
 70
     0
  9
$DIMTOLJ
 70
     1
  9
$DIMTZIN
 70
     0
  9
$DIMALTZ
 70
     0
  9
$DIMALTTZ
 70
     0
  9
$DIMFIT
 70
     3
  9
$DIMUPT
 70
     0
  9
$DIMUNIT
 70
     2
  9
$DIMDEC
 70
     4
  9
$DIMTDEC
 70
     4
  9
$DIMALTU
 70
     2
  9
$DIMALTTD
 70
     2
  9
$DIMTXSTY
  7
STANDARD
  9
$DIMAUNIT
 70
     0
  9
$LUNITS
 70
     2
  9
$LUPREC
 70
     4
  9
$SKETCHINC
 40
0.1
  9
$FILLETRAD
 40
0.5
  9
$AUNITS
 70
     0
  9
$AUPREC
 70
     0
  9
$MENU
  1
.
  9
$ELEVATION
 40
0.0
  9
$PELEVATION
 40
0.0
  9
$THICKNESS
 40
0.0
  9
$LIMCHECK
 70
     0
  9
$CHAMFERA
 40
0.5
  9
$CHAMFERB
 40
0.5
  9
$CHAMFERC
 40
1.0
  9
$CHAMFERD
 40
0.0
  9
$SKPOLY
 70
     0
  9
$TDCREATE
 40
2456995.872722998
  9
$TDUPDATE
 40
2456995.872723009
  9
$TDINDWG
 40
0.0000000116
  9
$TDUSRTIMER
 40
0.0000000116
  9
$USRTIMER
 70
     1
  9
$ANGBASE
 50
0.0
  9
$ANGDIR
 70
     0
  9
$PDMODE
 70
     0
  9
$PDSIZE
 40
0.0
  9
$PLINEWID
 40
0.0
  9
$COORDS
 70
     1
  9
$SPLFRAME
 70
     0
  9
$SPLINETYPE
 70
     6
  9
$SPLINESEGS
 70
     8
  9
$ATTDIA
 70
     0
  9
$ATTREQ
 70
     1
  9
$HANDLING
 70
     1
  9
$HANDSEED
  5
5E
  9
$SURFTAB1
 70
     6
  9
$SURFTAB2
 70
     6
  9
$SURFTYPE
 70
     6
  9
$SURFU
 70
     6
  9
$SURFV
 70
     6
  9
$UCSNAME
  2

  9
$UCSORG
 10
0.0
 20
0.0
 30
0.0
  9
$UCSXDIR
 10
1.0
 20
0.0
 30
0.0
  9
$UCSYDIR
 10
0.0
 20
1.0
 30
0.0
  9
$PUCSNAME
  2

  9
$PUCSORG
 10
0.0
 20
0.0
 30
0.0
  9
$PUCSXDIR
 10
1.0
 20
0.0
 30
0.0
  9
$PUCSYDIR
 10
0.0
 20
1.0
 30
0.0
  9
$USERI1
 70
     0
  9
$USERI2
 70
     0
  9
$USERI3
 70
     0
  9
$USERI4
 70
     0
  9
$USERI5
 70
     0
  9
$USERR1
 40
0.0
  9
$USERR2
 40
0.0
  9
$USERR3
 40
0.0
  9
$USERR4
 40
0.0
  9
$USERR5
 40
0.0
  9
$WORLDVIEW
 70
     1
  9
$SHADEDGE
 70
     3
  9
$SHADEDIF
 70
    70
  9
$TILEMODE
 70
     1
  9
$MAXACTVP
 70
    64
  9
$PINSBASE
 10
0.0
 20
0.0
 30
0.0
  9
$PLIMCHECK
 70
     0
  9
$PEXTMIN
 10
1.000000000000000E+20
 20
1.000000000000000E+20
 30
1.000000000000000E+20
  9
$PEXTMAX
 10
-1.000000000000000E+20
 20
-1.000000000000000E+20
 30
-1.000000000000000E+20
  9
$PLIMMIN
 10
0.0
 20
0.0
  9
$PLIMMAX
 10
12.0
 20
9.0
  9
$UNITMODE
 70
     0
  9
$VISRETAIN
 70
     1
  9
$PLINEGEN
 70
     0
  9
$PSLTSCALE
 70
     1
  9
$TREEDEPTH
 70
  3020
  9
$PICKSTYLE
 70
     1
  9
$CMLSTYLE
  2
STANDARD
  9
$CMLJUST
 70
     0
  9
$CMLSCALE
 40
1.0
  9
$SAVEIMAGES
 70
     1
  0
ENDSEC
  0
SECTION
  2
CLASSES
  0
CLASS
  1
ACDBDICTIONARYWDFLT
  2
AcDbDictionaryWithDefault
  3
ObjectDBX Classes
 90
    32768
280
     0
281
     0
  0
CLASS
  1
VISUALSTYLE
  2
AcDbVisualStyle
  3
ObjectDBX Classes
 90
     4095
280
     0
281
     0
  0
CLASS
  1
MATERIAL
  2
AcDbMaterial
  3
ObjectDBX Classes
 90
     1153
280
     0
281
     0
  0
CLASS
  1
DICTIONARYVAR
  2
AcDbDictionaryVar
  3
ObjectDBX Classes
 90
        0
280
     0
281
     0
  0
CLASS
  1
XRECORD
  2
AcDbXrecord
  3
AutoCAD 2000
 90
    32768
280
     0
281
     0
  0
CLASS
  1
LWPOLYLINE
  2
AcDbPolyline
  3
AutoCAD 2000
 90
    32768
280
     0
281
     1
  0
CLASS
  1
HATCH
  2
AcDbHatch
  3
AutoCAD 2000
 90
    32768
280
     0
281
     1
  0
CLASS
  1
ACDBPLACEHOLDER
  2
AcDbPlaceHolder
  3
ObjectDBX Classes
 90
        0
280
     0
281
     0
  0
CLASS
  1
LAYOUT
  2
AcDbLayout
  3
ObjectDBX Classes
 90
        0
280
     0
281
     0
  0
ENDSEC
  0
SECTION
  2
TABLES
  0
TABLE
  2
VPORT
  5
8
330
0
100
AcDbSymbolTable
 70
     1
  0
VPORT
  5
29
330
8
100
AcDbSymbolTableRecord
100
AcDbViewportTableRecord
  2
*ACTIVE
 70
     0
 10
0.0
 20
0.0
 11
1.0
 21
1.0
 12
10.42990654205607
 22
4.5
 13
0.0
 23
0.0
 14
0.5
 24
0.5
 15
0.5
 25
0.5
 16
0.0
 26
0.0
 36
1.0
 17
0.0
 27
0.0
 37
0.0
 40
9.0
 41
1.972972972850329
 42
50.0
 43
0.0
 44
0.0
 50
0.0
 51
0.0
 71
     0
 72
   100
 73
     1
 74
     3
 75
     0
 76
     0
 77
     0
 78
     0
  0
ENDTAB
  0
TABLE
  2
LTYPE
  5
5
330
0
100
AcDbSymbolTable
 70
     1
  0
LTYPE
  5
14
330
5
100
AcDbSymbolTableRecord
100
AcDbLinetypeTableRecord
  2
BYBLOCK
 70
     0
  3

 72
    65
 73
     0
 40
0.0
  0
LTYPE
  5
15
330
5
100
AcDbSymbolTableRecord
100
AcDbLinetypeTableRecord
  2
BYLAYER
 70
     0
  3

 72
    65
 73
     0
 40
0.0
  0
LTYPE
  5
16
330
5
100
AcDbSymbolTableRecord
100
AcDbLinetypeTableRecord
  2
CONTINUOUS
 70
     0
  3
Solid line
 72
    65
 73
     0
 40
0.0
  0
ENDTAB
  0
TABLE
  2
LAYER
  5
2
330
0
100
AcDbSymbolTable
 70
     2
  0
LAYER
  5
10
330
2
100
AcDbSymbolTableRecord
100
AcDbLayerTableRecord
  2
0
 70
     0
 62
     7
  6
CONTINUOUS
  0
LAYER
  5
40
330
2
100
AcDbSymbolTableRecord
100
AcDbLayerTableRecord
  2
_LAYER_1
 70
     0
 62
     7
  6
CONTINUOUS
  0
ENDTAB
  0
TABLE
  2
STYLE
  5
3
330
0
100
AcDbSymbolTable
 70
     1
  0
STYLE
  5
11
330
3
100
AcDbSymbolTableRecord
100
AcDbTextStyleTableRecord
  2
STANDARD
 70
     0
 40
0.0
 41
1.0
 50
0.0
 71
     0
 42
0.2
  3
txt
  4

  0
ENDTAB
  0
TABLE
  2
VIEW
  5
6
330
0
100
AcDbSymbolTable
 70
     0
  0
ENDTAB
  0
TABLE
  2
UCS
  5
7
330
0
100
AcDbSymbolTable
 70
     0
  0
ENDTAB
  0
TABLE
  2
APPID
  5
9
330
0
100
AcDbSymbolTable
 70
     2
  0
APPID
  5
12
330
9
100
AcDbSymbolTableRecord
100
AcDbRegAppTableRecord
  2
ACAD
 70
     0
  0
APPID
  5
3F
330
9
100
AcDbSymbolTableRecord
100
AcDbRegAppTableRecord
  2
ODA
 70
     0
  0
ENDTAB
  0
TABLE
  2
DIMSTYLE
  5
A
330
0
100
AcDbSymbolTable
 70
     1
  0
DIMSTYLE
105
27
330
A
100
AcDbSymbolTableRecord
100
AcDbDimStyleTableRecord
  2
STANDARD
 70
     0
  3

  4

  5

  6

  7

 40
1.0
 41
0.18
 42
0.0625
 43
0.38
 44
0.18
 45
0.0
 46
0.0
 47
0.0
 48
0.0
140
0.18
141
0.09
142
0.0
143
25.4
144
1.0
145
0.0
146
1.0
147
0.09
 71
     0
 72
     0
 73
     1
 74
     1
 75
     0
 76
     0
 77
     0
 78
     0
170
     0
171
     2
172
     0
173
     0
174
     0
175
     0
176
     0
177
     0
178
     0
270
     2
271
     4
272
     4
273
     2
274
     2
340
11
275
     0
280
     0
281
     0
282
     0
283
     1
284
     0
285
     0
286
     0
287
     3
288
     0
  0
ENDTAB
  0
TABLE
  2
BLOCK_RECORD
  5
1
330
0
100
AcDbSymbolTable
 70
     1
  0
BLOCK_RECORD
  5
1F
330
1
100
AcDbSymbolTableRecord
100
AcDbBlockTableRecord
  2
*MODEL_SPACE
  0
BLOCK_RECORD
  5
1B
330
1
100
AcDbSymbolTableRecord
100
AcDbBlockTableRecord
  2
*PAPER_SPACE
  0
ENDTAB
  0
ENDSEC
  0
SECTION
  2
BLOCKS
  0
BLOCK
  5
20
330
1F
100
AcDbEntity
  8
0
100
AcDbBlockBegin
  2
*MODEL_SPACE
 70
     0
 10
0.0
 20
0.0
 30
0.0
  3
*MODEL_SPACE
  1

  0
ENDBLK
  5
21
330
1F
100
AcDbEntity
  8
0
100
AcDbBlockEnd
  0
BLOCK
  5
1C
330
1B
100
AcDbEntity
 67
     1
  8
0
100
AcDbBlockBegin
  2
*PAPER_SPACE
 70
     0
 10
0.0
 20
0.0
 30
0.0
  3
*PAPER_SPACE
  1

  0
ENDBLK
  5
1D
330
1B
100
AcDbEntity
 67
     1
  8
0
100
AcDbBlockEnd
  0
ENDSEC
  0
SECTION
  2
ENTITIES
  0
SPLINE
  5
41
330
1F
100
AcDbEntity
  8
_LAYER_1
 62
   165
100
AcDbSpline
210
0.0
220
0.0
230
1.0
 70
    11
 71
     3
 72
    20
 73
    16
 74
     0
 42
0.0000000001
 43
0.0000000001
 40
0.0
 40
0.0
 40
0.0
 40
0.0
 40
0.2
 40
0.2
 40
0.2
 40
0.2
 40
0.4
 40
0.4
 40
0.4
 40
0.4
 40
0.6
 40
0.6
 40
0.6
 40
0.6
 40
1.0
 40
1.0
 40
1.0
 40
1.0
 10
-104.6369
 20
-73.5468
 30
0.0
 10
-104.6369
 20
-73.5468
 30
0.0
 10
95.0
 20
-73.5468
 30
0.0
 10
95.0
 20
-73.5468
 30
0.0
 10
95.0
 20
-73.5468
 30
0.0
 10
95.0
 20
-73.5468
 30
0.0
 10
95.0
 20
-148.5
 30
0.0
 10
95.0
 20
-148.5
 30
0.0
 10
95.0
 20
-148.5
 30
0.0
 10
95.0
 20
-148.5
 30
0.0
 10
-104.6369
 20
-148.5
 30
0.0
 10
-104.6369
 20
-148.5
 30
0.0
 10
-104.6369
 20
-148.5
 30
0.0
 10
-104.6369
 20
-148.5
 30
0.0
 10
-104.6369
 20
-73.5468
 30
0.0
 10
-104.6369
 20
-73.5468
 30
0.0
  0
SPLINE
  5
42
330
1F
100
AcDbEntity
  8
_LAYER_1
 62
     7
100
AcDbSpline
210
0.0
220
0.0
230
1.0
 70
    11
 71
     3
 72
    28
 73
    24
 74
     0
 42
0.0000000001
 43
0.0000000001
 40
0.0
 40
0.0
 40
0.0
 40
0.0
 40
0.1428571428571428
 40
0.1428571428571428
 40
0.1428571428571428
 40
0.1428571428571428
 40
0.2857142857142857
 40
0.2857142857142857
 40
0.2857142857142857
 40
0.2857142857142857
 40
0.4285714285714285
 40
0.4285714285714285
 40
0.4285714285714285
 40
0.4285714285714285
 40
0.5714285714285714
 40
0.5714285714285714
 40
0.5714285714285714
 40
0.5714285714285714
 40
0.7142857142857143
 40
0.7142857142857143
 40
0.7142857142857143
 40
0.7142857142857143
 40
1.0
 40
1.0
 40
1.0
 40
1.0
 10
0.4503
 20
-110.7216
 30
0.0
 10
-0.8894
 20
-110.7216
 30
0.0
 10
-1.854
 20
-111.1599
 30
0.0
 10
-2.8327
 20
-111.6064
 30
0.0
 10
-2.8327
 20
-111.6064
 30
0.0
 10
-2.8327
 20
-111.6064
 30
0.0
 10
-2.8327
 20
-121.713
 30
0.0
 10
-2.8327
 20
-121.713
 30
0.0
 10
-2.8327
 20
-121.713
 30
0.0
 10
-1.894
 20
-121.8045
 30
0.0
 10
-1.359
 20
-121.8045
 30
0.0
 10
-0.4678
 20
-121.8045
 30
0.0
 10
-0.4678
 20
-121.8045
 30
0.0
 10
2.7467
 20
-121.8045
 30
0.0
 10
3.1863
 20
-120.3334
 30
0.0
 10
3.1863
 20
-118.2817
 30
0.0
 10
3.1863
 20
-118.2817
 30
0.0
 10
3.1863
 20
-118.2817
 30
0.0
 10
3.1863
 20
-113.4527
 30
0.0
 10
3.1863
 20
-113.4527
 30
0.0
 10
3.1863
 20
-113.4527
 30
0.0
 10
3.1863
 20
-111.9389
 30
0.0
 10
2.6835
 20
-110.7216
 30
0.0
 10
0.4503
 20
-110.7216
 30
0.0
  0
SPLINE
  5
43
330
1F
100
AcDbEntity
  8
_LAYER_1
 62
     7
100
AcDbSpline
210
0.0
220
0.0
230
1.0
 70
    11
 71
     3
 72
    28
 73
    24
 74
     0
 42
0.0000000001
 43
0.0000000001
 40
0.0
 40
0.0
 40
0.0
 40
0.0
 40
0.1428571428571428
 40
0.1428571428571428
 40
0.1428571428571428
 40
0.1428571428571428
 40
0.2857142857142857
 40
0.2857142857142857
 40
0.2857142857142857
 40
0.2857142857142857
 40
0.4285714285714285
 40
0.4285714285714285
 40
0.4285714285714285
 40
0.4285714285714285
 40
0.5714285714285714
 40
0.5714285714285714
 40
0.5714285714285714
 40
0.5714285714285714
 40
0.7142857142857143
 40
0.7142857142857143
 40
0.7142857142857143
 40
0.7142857142857143
 40
1.0
 40
1.0
 40
1.0
 40
1.0
 10
-20.8928
 20
-110.1697
 30
0.0
 10
-20.8928
 20
-110.1697
 30
0.0
 10
-20.8928
 20
-110.1697
 30
0.0
 10
-20.8928
 20
-110.1697
 30
0.0
 10
-20.8928
 20
-110.1697
 30
0.0
 10
-23.1228
 20
-110.1697
 30
0.0
 10
-23.6309
 20
-111.3919
 30
0.0
 10
-23.6309
 20
-112.9061
 30
0.0
 10
-23.6309
 20
-112.9061
 30
0.0
 10
-23.6309
 20
-112.9061
 30
0.0
 10
-23.6309
 20
-113.7559
 30
0.0
 10
-23.6309
 20
-113.7559
 30
0.0
 10
-23.6309
 20
-113.7559
 30
0.0
 10
-23.6309
 20
-113.7559
 30
0.0
 10
-18.1566
 20
-113.7559
 30
0.0
 10
-18.1566
 20
-113.7559
 30
0.0
 10
-18.1566
 20
-113.7559
 30
0.0
 10
-18.1566
 20
-113.7559
 30
0.0
 10
-18.1566
 20
-112.9061
 30
0.0
 10
-18.1566
 20
-112.9061
 30
0.0
 10
-18.1566
 20
-112.9061
 30
0.0
 10
-18.1566
 20
-111.3919
 30
0.0
 10
-18.6653
 20
-110.1697
 30
0.0
 10
-20.8928
 20
-110.1697
 30
0.0
  0
SPLINE
  5
44
330
1F
100
AcDbEntity
  8
_LAYER_1
 62
     7
100
AcDbSpline
210
0.0
220
0.0
230
1.0
 70
    11
 71
     3
 72
    28
 73
    24
 74
     0
 42
0.0000000001
 43
0.0000000001
 40
0.0
 40
0.0
 40
0.0
 40
0.0
 40
0.1428571428571428
 40
0.1428571428571428
 40
0.1428571428571428
 40
0.1428571428571428
 40
0.2857142857142857
 40
0.2857142857142857
 40
0.2857142857142857
 40
0.2857142857142857
 40
0.4285714285714285
 40
0.4285714285714285
 40
0.4285714285714285
 40
0.4285714285714285
 40
0.5714285714285714
 40
0.5714285714285714
 40
0.5714285714285714
 40
0.5714285714285714
 40
0.7142857142857143
 40
0.7142857142857143
 40
0.7142857142857143
 40
0.7142857142857143
 40
1.0
 40
1.0
 40
1.0
 40
1.0
 10
-62.2381
 20
-120.6918
 30
0.0
 10
-62.2381
 20
-120.6918
 30
0.0
 10
-62.2381
 20
-120.6918
 30
0.0
 10
-62.2381
 20
-120.6918
 30
0.0
 10
-62.2381
 20
-120.6918
 30
0.0
 10
-62.2381
 20
-121.8884
 30
0.0
 10
-61.6727
 20
-122.5099
 30
0.0
 10
-60.4239
 20
-122.5099
 30
0.0
 10
-60.4239
 20
-122.5099
 30
0.0
 10
-59.0834
 20
-122.5099
 30
0.0
 10
-58.2911
 20
-122.074
 30
0.0
 10
-57.3131
 20
-121.6252
 30
0.0
 10
-57.3131
 20
-121.6252
 30
0.0
 10
-57.3131
 20
-121.6252
 30
0.0
 10
-57.3131
 20
-119.2296
 30
0.0
 10
-57.3131
 20
-119.2296
 30
0.0
 10
-57.3131
 20
-119.2296
 30
0.0
 10
-57.3131
 20
-119.2296
 30
0.0
 10
-60.2428
 20
-119.2296
 30
0.0
 10
-60.2428
 20
-119.2296
 30
0.0
 10
-60.2428
 20
-119.2296
 30
0.0
 10
-61.6295
 20
-119.2296
 30
0.0
 10
-62.2381
 20
-119.4862
 30
0.0
 10
-62.2381
 20
-120.6918
 30
0.0
  0
SPLINE
  5
45
330
1F
100
AcDbEntity
  8
_LAYER_1
 62
     7
100
AcDbSpline
210
0.0
220
0.0
230
1.0
 70
    11
 71
     3
 72
    32
 73
    28
 74
     0
 42
0.0000000001
 43
0.0000000001
 40
0.0
 40
0.0
 40
0.0
 40
0.0
 40
0.125
 40
0.125
 40
0.125
 40
0.125
 40
0.25
 40
0.25
 40
0.25
 40
0.25
 40
0.375
 40
0.375
 40
0.375
 40
0.375
 40
0.5
 40
0.5
 40
0.5
 40
0.5
 40
0.625
 40
0.625
 40
0.625
 40
0.625
 40
0.75
 40
0.75
 40
0.75
 40
0.75
 40
1.0
 40
1.0
 40
1.0
 40
1.0
 10
21.2128
 20
-110.7216
 30
0.0
 10
21.2128
 20
-110.7216
 30
0.0
 10
21.2128
 20
-110.7216
 30
0.0
 10
21.2128
 20
-110.7216
 30
0.0
 10
21.2128
 20
-110.7216
 30
0.0
 10
18.9796
 20
-110.7216
 30
0.0
 10
18.2058
 20
-111.9389
 30
0.0
 10
18.2058
 20
-113.4527
 30
0.0
 10
18.2058
 20
-113.4527
 30
0.0
 10
18.2058
 20
-113.4527
 30
0.0
 10
18.2058
 20
-118.9845
 30
0.0
 10
18.2058
 20
-118.9845
 30
0.0
 10
18.2058
 20
-118.9845
 30
0.0
 10
18.2058
 20
-120.5035
 30
0.0
 10
18.9796
 20
-121.7233
 30
0.0
 10
21.2128
 20
-121.7233
 30
0.0
 10
21.2128
 20
-121.7233
 30
0.0
 10
23.4398
 20
-121.7233
 30
0.0
 10
24.2198
 20
-120.5035
 30
0.0
 10
24.2198
 20
-118.9845
 30
0.0
 10
24.2198
 20
-118.9845
 30
0.0
 10
24.2198
 20
-118.9845
 30
0.0
 10
24.2198
 20
-113.4527
 30
0.0
 10
24.2198
 20
-113.4527
 30
0.0
 10
24.2198
 20
-113.4527
 30
0.0
 10
24.2198
 20
-111.9389
 30
0.0
 10
23.4398
 20
-110.7216
 30
0.0
 10
21.2128
 20
-110.7216
 30
0.0
  0
SPLINE
  5
46
330
1F
100
AcDbEntity
  8
_LAYER_1
 62
     7
100
AcDbSpline
210
0.0
220
0.0
230
1.0
 70
    11
 71
     3
 72
    72
 73
    68
 74
     0
 42
0.0000000001
 43
0.0000000001
 40
0.0
 40
0.0
 40
0.0
 40
0.0
 40
0.0555555555555556
 40
0.0555555555555556
 40
0.0555555555555556
 40
0.0555555555555556
 40
0.1111111111111111
 40
0.1111111111111111
 40
0.1111111111111111
 40
0.1111111111111111
 40
0.1666666666666667
 40
0.1666666666666667
 40
0.1666666666666667
 40
0.1666666666666667
 40
0.2222222222222222
 40
0.2222222222222222
 40
0.2222222222222222
 40
0.2222222222222222
 40
0.2777777777777778
 40
0.2777777777777778
 40
0.2777777777777778
 40
0.2777777777777778
 40
0.3333333333333333
 40
0.3333333333333333
 40
0.3333333333333333
 40
0.3333333333333333
 40
0.3888888888888889
 40
0.3888888888888889
 40
0.3888888888888889
 40
0.3888888888888889
 40
0.4444444444444444
 40
0.4444444444444444
 40
0.4444444444444444
 40
0.4444444444444444
 40
0.5
 40
0.5
 40
0.5
 40
0.5
 40
0.5555555555555556
 40
0.5555555555555556
 40
0.5555555555555556
 40
0.5555555555555556
 40
0.6111111111111112
 40
0.6111111111111112
 40
0.6111111111111112
 40
0.6111111111111112
 40
0.6666666666666666
 40
0.6666666666666666
 40
0.6666666666666666
 40
0.6666666666666666
 40
0.7222222222222222
 40
0.7222222222222222
 40
0.7222222222222222
 40
0.7222222222222222
 40
0.7777777777777778
 40
0.7777777777777778
 40
0.7777777777777778
 40
0.7777777777777778
 40
0.8333333333333334
 40
0.8333333333333334
 40
0.8333333333333334
 40
0.8333333333333334
 40
0.8888888888888888
 40
0.8888888888888888
 40
0.8888888888888888
 40
0.8888888888888888
 40
1.0
 40
1.0
 40
1.0
 40
1.0
 10
-73.1842
 20
-126.8914
 30
0.0
 10
-73.1842
 20
-126.8914
 30
0.0
 10
-73.1842
 20
-126.8914
 30
0.0
 10
-73.1842
 20
-126.8914
 30
0.0
 10
-73.1842
 20
-126.8914
 30
0.0
 10
-73.1842
 20
-126.8914
 30
0.0
 10
-79.7488
 20
-126.8914
 30
0.0
 10
-79.7488
 20
-126.8914
 30
0.0
 10
-79.7488
 20
-126.8914
 30
0.0
 10
-79.7488
 20
-126.8914
 30
0.0
 10
-79.7488
 20
-111.0221
 30
0.0
 10
-79.7488
 20
-111.0221
 30
0.0
 10
-79.7488
 20
-111.0221
 30
0.0
 10
-79.7488
 20
-111.0221
 30
0.0
 10
-83.0305
 20
-111.0221
 30
0.0
 10
-83.0305
 20
-111.0221
 30
0.0
 10
-83.0305
 20
-111.0221
 30
0.0
 10
-83.0305
 20
-111.0221
 30
0.0
 10
-83.0305
 20
-105.5521
 30
0.0
 10
-83.0305
 20
-105.5521
 30
0.0
 10
-83.0305
 20
-105.5521
 30
0.0
 10
-83.0305
 20
-105.5521
 30
0.0
 10
-79.7488
 20
-105.5521
 30
0.0
 10
-79.7488
 20
-105.5521
 30
0.0
 10
-79.7488
 20
-105.5521
 30
0.0
 10
-79.7488
 20
-105.5521
 30
0.0
 10
-79.7488
 20
-102.2693
 30
0.0
 10
-79.7488
 20
-102.2693
 30
0.0
 10
-79.7488
 20
-102.2693
 30
0.0
 10
-79.7488
 20
-97.8078
 30
0.0
 10
-77.8964
 20
-95.1541
 30
0.0
 10
-72.6349
 20
-95.1541
 30
0.0
 10
-72.6349
 20
-95.1541
 30
0.0
 10
-72.6349
 20
-95.1541
 30
0.0
 10
-68.2534
 20
-95.1541
 30
0.0
 10
-68.2534
 20
-95.1541
 30
0.0
 10
-68.2534
 20
-95.1541
 30
0.0
 10
-68.2534
 20
-95.1541
 30
0.0
 10
-68.2534
 20
-100.6239
 30
0.0
 10
-68.2534
 20
-100.6239
 30
0.0
 10
-68.2534
 20
-100.6239
 30
0.0
 10
-68.2534
 20
-100.6239
 30
0.0
 10
-70.9909
 20
-100.6239
 30
0.0
 10
-70.9909
 20
-100.6239
 30
0.0
 10
-70.9909
 20
-100.6239
 30
0.0
 10
-73.0399
 20
-100.6239
 30
0.0
 10
-73.1758
 20
-101.3886
 30
0.0
 10
-73.1758
 20
-102.8148
 30
0.0
 10
-73.1758
 20
-102.8148
 30
0.0
 10
-73.1758
 20
-102.8148
 30
0.0
 10
-73.1842
 20
-105.5521
 30
0.0
 10
-73.1842
 20
-105.5521
 30
0.0
 10
-73.1842
 20
-105.5521
 30
0.0
 10
-73.1842
 20
-105.5521
 30
0.0
 10
-68.2218
 20
-105.5521
 30
0.0
 10
-68.2218
 20
-105.5521
 30
0.0
 10
-68.2218
 20
-105.5521
 30
0.0
 10
-68.2218
 20
-105.5521
 30
0.0
 10
-68.8026
 20
-111.0221
 30
0.0
 10
-68.8026
 20
-111.0221
 30
0.0
 10
-68.8026
 20
-111.0221
 30
0.0
 10
-68.8026
 20
-111.0221
 30
0.0
 10
-73.1842
 20
-111.0221
 30
0.0
 10
-73.1842
 20
-111.0221
 30
0.0
 10
-73.1842
 20
-111.0221
 30
0.0
 10
-73.1842
 20
-111.0221
 30
0.0
 10
-73.1842
 20
-126.8914
 30
0.0
 10
-73.1842
 20
-126.8914
 30
0.0
  0
SPLINE
  5
47
330
1F
100
AcDbEntity
  8
_LAYER_1
 62
     7
100
AcDbSpline
210
0.0
220
0.0
230
1.0
 70
    11
 71
     3
 72
    60
 73
    56
 74
     0
 42
0.0000000001
 43
0.0000000001
 40
0.0
 40
0.0
 40
0.0
 40
0.0
 40
0.0666666666666667
 40
0.0666666666666667
 40
0.0666666666666667
 40
0.0666666666666667
 40
0.1333333333333333
 40
0.1333333333333333
 40
0.1333333333333333
 40
0.1333333333333333
 40
0.2
 40
0.2
 40
0.2
 40
0.2
 40
0.2666666666666667
 40
0.2666666666666667
 40
0.2666666666666667
 40
0.2666666666666667
 40
0.3333333333333333
 40
0.3333333333333333
 40
0.3333333333333333
 40
0.3333333333333333
 40
0.4
 40
0.4
 40
0.4
 40
0.4
 40
0.4666666666666667
 40
0.4666666666666667
 40
0.4666666666666667
 40
0.4666666666666667
 40
0.5333333333333333
 40
0.5333333333333333
 40
0.5333333333333333
 40
0.5333333333333333
 40
0.6
 40
0.6
 40
0.6
 40
0.6
 40
0.6666666666666666
 40
0.6666666666666666
 40
0.6666666666666666
 40
0.6666666666666666
 40
0.7333333333333333
 40
0.7333333333333333
 40
0.7333333333333333
 40
0.7333333333333333
 40
0.8
 40
0.8
 40
0.8
 40
0.8
 40
0.8666666666666667
 40
0.8666666666666667
 40
0.8666666666666667
 40
0.8666666666666667
 40
1.0
 40
1.0
 40
1.0
 40
1.0
 10
-50.7453
 20
-126.9326
 30
0.0
 10
-50.7453
 20
-126.9326
 30
0.0
 10
-50.7453
 20
-126.9326
 30
0.0
 10
-50.7453
 20
-126.9326
 30
0.0
 10
-50.7453
 20
-126.9326
 30
0.0
 10
-50.7453
 20
-126.9326
 30
0.0
 10
-56.217
 20
-126.9326
 30
0.0
 10
-56.217
 20
-126.9326
 30
0.0
 10
-56.217
 20
-126.9326
 30
0.0
 10
-56.217
 20
-126.9326
 30
0.0
 10
-56.453
 20
-125.5504
 30
0.0
 10
-56.453
 20
-125.5504
 30
0.0
 10
-56.453
 20
-125.5504
 30
0.0
 10
-58.9526
 20
-126.9326
 30
0.0
 10
-61.1828
 20
-127.157
 30
0.0
 10
-62.6528
 20
-127.157
 30
0.0
 10
-62.6528
 20
-127.157
 30
0.0
 10
-66.6666
 20
-127.157
 30
0.0
 10
-68.8026
 20
-124.4801
 30
0.0
 10
-68.8026
 20
-120.7769
 30
0.0
 10
-68.8026
 20
-120.7769
 30
0.0
 10
-68.8026
 20
-116.4096
 30
0.0
 10
-66.3101
 20
-114.8505
 30
0.0
 10
-61.8513
 20
-114.8505
 30
0.0
 10
-61.8513
 20
-114.8505
 30
0.0
 10
-61.8513
 20
-114.8505
 30
0.0
 10
-57.3131
 20
-114.8505
 30
0.0
 10
-57.3131
 20
-114.8505
 30
0.0
 10
-57.3131
 20
-114.8505
 30
0.0
 10
-57.3131
 20
-114.8505
 30
0.0
 10
-57.3131
 20
-113.9067
 30
0.0
 10
-57.3131
 20
-113.9067
 30
0.0
 10
-57.3131
 20
-113.9067
 30
0.0
 10
-57.3131
 20
-111.676
 30
0.0
 10
-57.5691
 20
-111.0221
 30
0.0
 10
-61.0022
 20
-111.0221
 30
0.0
 10
-61.0022
 20
-111.0221
 30
0.0
 10
-61.0022
 20
-111.0221
 30
0.0
 10
-66.6165
 20
-111.0221
 30
0.0
 10
-66.6165
 20
-111.0221
 30
0.0
 10
-66.6165
 20
-111.0221
 30
0.0
 10
-66.6165
 20
-111.0221
 30
0.0
 10
-66.0672
 20
-105.5521
 30
0.0
 10
-66.0672
 20
-105.5521
 30
0.0
 10
-66.0672
 20
-105.5521
 30
0.0
 10
-66.0672
 20
-105.5521
 30
0.0
 10
-59.9314
 20
-105.5521
 30
0.0
 10
-59.9314
 20
-105.5521
 30
0.0
 10
-59.9314
 20
-105.5521
 30
0.0
 10
-52.397
 20
-105.5521
 30
0.0
 10
-50.7453
 20
-107.93
 30
0.0
 10
-50.7453
 20
-113.9505
 30
0.0
 10
-50.7453
 20
-113.9505
 30
0.0
 10
-50.7453
 20
-113.9505
 30
0.0
 10
-50.7453
 20
-126.9326
 30
0.0
 10
-50.7453
 20
-126.9326
 30
0.0
  0
SPLINE
  5
48
330
1F
100
AcDbEntity
  8
_LAYER_1
 62
     7
100
AcDbSpline
210
0.0
220
0.0
230
1.0
 70
    11
 71
     3
 72
    56
 73
    52
 74
     0
 42
0.0000000001
 43
0.0000000001
 40
0.0
 40
0.0
 40
0.0
 40
0.0
 40
0.0714285714285714
 40
0.0714285714285714
 40
0.0714285714285714
 40
0.0714285714285714
 40
0.1428571428571428
 40
0.1428571428571428
 40
0.1428571428571428
 40
0.1428571428571428
 40
0.2142857142857143
 40
0.2142857142857143
 40
0.2142857142857143
 40
0.2142857142857143
 40
0.2857142857142857
 40
0.2857142857142857
 40
0.2857142857142857
 40
0.2857142857142857
 40
0.3571428571428572
 40
0.3571428571428572
 40
0.3571428571428572
 40
0.3571428571428572
 40
0.4285714285714285
 40
0.4285714285714285
 40
0.4285714285714285
 40
0.4285714285714285
 40
0.5
 40
0.5
 40
0.5
 40
0.5
 40
0.5714285714285714
 40
0.5714285714285714
 40
0.5714285714285714
 40
0.5714285714285714
 40
0.6428571428571429
 40
0.6428571428571429
 40
0.6428571428571429
 40
0.6428571428571429
 40
0.7142857142857143
 40
0.7142857142857143
 40
0.7142857142857143
 40
0.7142857142857143
 40
0.7857142857142857
 40
0.7857142857142857
 40
0.7857142857142857
 40
0.7857142857142857
 40
0.8571428571428571
 40
0.8571428571428571
 40
0.8571428571428571
 40
0.8571428571428571
 40
1.0
 40
1.0
 40
1.0
 40
1.0
 10
-32.138
 20
-111.423
 30
0.0
 10
-32.138
 20
-111.423
 30
0.0
 10
-32.138
 20
-111.423
 30
0.0
 10
-32.138
 20
-111.423
 30
0.0
 10
-32.138
 20
-111.423
 30
0.0
 10
-35.5434
 20
-110.8402
 30
0.0
 10
-36.5209
 20
-110.7113
 30
0.0
 10
-38.1591
 20
-110.7113
 30
0.0
 10
-38.1591
 20
-110.7113
 30
0.0
 10
-41.1023
 20
-110.7113
 30
0.0
 10
-41.9914
 20
-111.361
 30
0.0
 10
-41.9914
 20
-113.8551
 30
0.0
 10
-41.9914
 20
-113.8551
 30
0.0
 10
-41.9914
 20
-113.8551
 30
0.0
 10
-41.9914
 20
-118.5771
 30
0.0
 10
-41.9914
 20
-118.5771
 30
0.0
 10
-41.9914
 20
-118.5771
 30
0.0
 10
-41.9914
 20
-121.0733
 30
0.0
 10
-41.1023
 20
-121.7233
 30
0.0
 10
-38.1591
 20
-121.7233
 30
0.0
 10
-38.1591
 20
-121.7233
 30
0.0
 10
-36.5209
 20
-121.7233
 30
0.0
 10
-35.5434
 20
-121.5943
 30
0.0
 10
-32.138
 20
-121.009
 30
0.0
 10
-32.138
 20
-121.009
 30
0.0
 10
-32.138
 20
-121.009
 30
0.0
 10
-32.138
 20
-126.3422
 30
0.0
 10
-32.138
 20
-126.3422
 30
0.0
 10
-32.138
 20
-126.3422
 30
0.0
 10
-35.121
 20
-127.0114
 30
0.0
 10
-37.0638
 20
-127.1867
 30
0.0
 10
-38.7057
 20
-127.1867
 30
0.0
 10
-38.7057
 20
-127.1867
 30
0.0
 10
-45.7552
 20
-127.1867
 30
0.0
 10
-48.5558
 20
-123.4847
 30
0.0
 10
-48.5558
 20
-118.136
 30
0.0
 10
-48.5558
 20
-118.136
 30
0.0
 10
-48.5558
 20
-118.136
 30
0.0
 10
-48.5558
 20
-114.3052
 30
0.0
 10
-48.5558
 20
-114.3052
 30
0.0
 10
-48.5558
 20
-114.3052
 30
0.0
 10
-48.5558
 20
-108.9525
 30
0.0
 10
-45.7552
 20
-105.2441
 30
0.0
 10
-38.7057
 20
-105.2441
 30
0.0
 10
-38.7057
 20
-105.2441
 30
0.0
 10
-37.0638
 20
-105.2441
 30
0.0
 10
-35.121
 20
-105.4213
 30
0.0
 10
-32.138
 20
-106.0905
 30
0.0
 10
-32.138
 20
-106.0905
 30
0.0
 10
-32.138
 20
-106.0905
 30
0.0
 10
-32.138
 20
-111.423
 30
0.0
 10
-32.138
 20
-111.423
 30
0.0
  0
SPLINE
  5
49
330
1F
100
AcDbEntity
  8
_LAYER_1
 62
     7
100
AcDbSpline
210
0.0
220
0.0
230
1.0
 70
    11
 71
     3
 72
    52
 73
    48
 74
     0
 42
0.0000000001
 43
0.0000000001
 40
0.0
 40
0.0
 40
0.0
 40
0.0
 40
0.0769230769230769
 40
0.0769230769230769
 40
0.0769230769230769
 40
0.0769230769230769
 40
0.1538461538461539
 40
0.1538461538461539
 40
0.1538461538461539
 40
0.1538461538461539
 40
0.2307692307692308
 40
0.2307692307692308
 40
0.2307692307692308
 40
0.2307692307692308
 40
0.3076923076923077
 40
0.3076923076923077
 40
0.3076923076923077
 40
0.3076923076923077
 40
0.3846153846153846
 40
0.3846153846153846
 40
0.3846153846153846
 40
0.3846153846153846
 40
0.4615384615384616
 40
0.4615384615384616
 40
0.4615384615384616
 40
0.4615384615384616
 40
0.5384615384615384
 40
0.5384615384615384
 40
0.5384615384615384
 40
0.5384615384615384
 40
0.6153846153846154
 40
0.6153846153846154
 40
0.6153846153846154
 40
0.6153846153846154
 40
0.6923076923076923
 40
0.6923076923076923
 40
0.6923076923076923
 40
0.6923076923076923
 40
0.7692307692307693
 40
0.7692307692307693
 40
0.7692307692307693
 40
0.7692307692307693
 40
0.8461538461538461
 40
0.8461538461538461
 40
0.8461538461538461
 40
0.8461538461538461
 40
1.0
 40
1.0
 40
1.0
 40
1.0
 10
-11.5921
 20
-118.136
 30
0.0
 10
-11.5921
 20
-118.136
 30
0.0
 10
-11.5921
 20
-118.136
 30
0.0
 10
-11.5921
 20
-118.136
 30
0.0
 10
-11.5921
 20
-118.136
 30
0.0
 10
-11.5921
 20
-118.136
 30
0.0
 10
-23.6309
 20
-118.136
 30
0.0
 10
-23.6309
 20
-118.136
 30
0.0
 10
-23.6309
 20
-118.136
 30
0.0
 10
-23.6309
 20
-118.136
 30
0.0
 10
-23.6309
 20
-118.5771
 30
0.0
 10
-23.6309
 20
-118.5771
 30
0.0
 10
-23.6309
 20
-118.5771
 30
0.0
 10
-23.6309
 20
-121.0733
 30
0.0
 10
-22.7412
 20
-121.7233
 30
0.0
 10
-19.7994
 20
-121.7233
 30
0.0
 10
-19.7994
 20
-121.7233
 30
0.0
 10
-17.1534
 20
-121.7233
 30
0.0
 10
-15.5396
 20
-121.5943
 30
0.0
 10
-12.1413
 20
-121.009
 30
0.0
 10
-12.1413
 20
-121.009
 30
0.0
 10
-12.1413
 20
-121.009
 30
0.0
 10
-12.1413
 20
-126.3422
 30
0.0
 10
-12.1413
 20
-126.3422
 30
0.0
 10
-12.1413
 20
-126.3422
 30
0.0
 10
-15.4186
 20
-127.0114
 30
0.0
 10
-17.1257
 20
-127.1867
 30
0.0
 10
-20.3434
 20
-127.1867
 30
0.0
 10
-20.3434
 20
-127.1867
 30
0.0
 10
-27.3928
 20
-127.1867
 30
0.0
 10
-30.1962
 20
-123.4847
 30
0.0
 10
-30.1962
 20
-118.136
 30
0.0
 10
-30.1962
 20
-118.136
 30
0.0
 10
-30.1962
 20
-118.136
 30
0.0
 10
-30.1962
 20
-113.7559
 30
0.0
 10
-30.1962
 20
-113.7559
 30
0.0
 10
-30.1962
 20
-113.7559
 30
0.0
 10
-30.1962
 20
-109.0775
 30
0.0
 10
-28.115
 20
-105.2441
 30
0.0
 10
-20.8928
 20
-105.2441
 30
0.0
 10
-20.8928
 20
-105.2441
 30
0.0
 10
-13.6688
 20
-105.2441
 30
0.0
 10
-11.5921
 20
-109.0324
 30
0.0
 10
-11.5921
 20
-113.7559
 30
0.0
 10
-11.5921
 20
-113.7559
 30
0.0
 10
-11.5921
 20
-113.7559
 30
0.0
 10
-11.5921
 20
-118.136
 30
0.0
 10
-11.5921
 20
-118.136
 30
0.0
  0
SPLINE
  5
4A
330
1F
100
AcDbEntity
  8
_LAYER_1
 62
     7
100
AcDbSpline
210
0.0
220
0.0
230
1.0
 70
    11
 71
     3
 72
    40
 73
    36
 74
     0
 42
0.0000000001
 43
0.0000000001
 40
0.0
 40
0.0
 40
0.0
 40
0.0
 40
0.1
 40
0.1
 40
0.1
 40
0.1
 40
0.2
 40
0.2
 40
0.2
 40
0.2
 40
0.3
 40
0.3
 40
0.3
 40
0.3
 40
0.4
 40
0.4
 40
0.4
 40
0.4
 40
0.5
 40
0.5
 40
0.5
 40
0.5
 40
0.6
 40
0.6
 40
0.6
 40
0.6
 40
0.7
 40
0.7
 40
0.7
 40
0.7
 40
0.8
 40
0.8
 40
0.8
 40
0.8
 40
1.0
 40
1.0
 40
1.0
 40
1.0
 10
9.7511
 20
-118.2366
 30
0.0
 10
9.7511
 20
-118.2366
 30
0.0
 10
9.7511
 20
-118.2366
 30
0.0
 10
9.7511
 20
-118.2366
 30
0.0
 10
9.7511
 20
-118.2366
 30
0.0
 10
9.7511
 20
-123.4061
 30
0.0
 10
8.2719
 20
-127.1764
 30
0.0
 10
-0.6896
 20
-127.1764
 30
0.0
 10
-0.6896
 20
-127.1764
 30
0.0
 10
-3.9236
 20
-127.1764
 30
0.0
 10
-5.8244
 20
-126.8914
 30
0.0
 10
-9.3961
 20
-126.3422
 30
0.0
 10
-9.3961
 20
-126.3422
 30
0.0
 10
-9.3961
 20
-126.3422
 30
0.0
 10
-9.3961
 20
-96.7963
 30
0.0
 10
-9.3961
 20
-96.7963
 30
0.0
 10
-9.3961
 20
-96.7963
 30
0.0
 10
-9.3961
 20
-96.7963
 30
0.0
 10
-2.8327
 20
-95.7034
 30
0.0
 10
-2.8327
 20
-95.7034
 30
0.0
 10
-2.8327
 20
-95.7034
 30
0.0
 10
-2.8327
 20
-95.7034
 30
0.0
 10
-2.8327
 20
-106.0376
 30
0.0
 10
-2.8327
 20
-106.0376
 30
0.0
 10
-2.8327
 20
-106.0376
 30
0.0
 10
-1.4144
 20
-105.511
 30
0.0
 10
0.4219
 20
-105.2441
 30
0.0
 10
2.0929
 20
-105.2441
 30
0.0
 10
2.0929
 20
-105.2441
 30
0.0
 10
8.6589
 20
-105.2441
 30
0.0
 10
9.7511
 20
-108.1839
 30
0.0
 10
9.7511
 20
-112.9061
 30
0.0
 10
9.7511
 20
-112.9061
 30
0.0
 10
9.7511
 20
-112.9061
 30
0.0
 10
9.7511
 20
-118.2366
 30
0.0
 10
9.7511
 20
-118.2366
 30
0.0
  0
SPLINE
  5
4B
330
1F
100
AcDbEntity
  8
_LAYER_1
 62
     7
100
AcDbSpline
210
0.0
220
0.0
230
1.0
 70
    11
 71
     3
 72
    32
 73
    28
 74
     0
 42
0.0000000001
 43
0.0000000001
 40
0.0
 40
0.0
 40
0.0
 40
0.0
 40
0.125
 40
0.125
 40
0.125
 40
0.125
 40
0.25
 40
0.25
 40
0.25
 40
0.25
 40
0.375
 40
0.375
 40
0.375
 40
0.375
 40
0.5
 40
0.5
 40
0.5
 40
0.5
 40
0.625
 40
0.625
 40
0.625
 40
0.625
 40
0.75
 40
0.75
 40
0.75
 40
0.75
 40
1.0
 40
1.0
 40
1.0
 40
1.0
 10
30.7909
 20
-118.35
 30
0.0
 10
30.7909
 20
-118.35
 30
0.0
 10
30.7909
 20
-118.35
 30
0.0
 10
30.7909
 20
-118.35
 30
0.0
 10
30.7909
 20
-118.35
 30
0.0
 10
30.7909
 20
-122.8091
 30
0.0
 10
28.947
 20
-127.1338
 30
0.0
 10
21.2349
 20
-127.1338
 30
0.0
 10
21.2349
 20
-127.1338
 30
0.0
 10
13.5175
 20
-127.1338
 30
0.0
 10
11.6401
 20
-122.8091
 30
0.0
 10
11.6401
 20
-118.35
 30
0.0
 10
11.6401
 20
-118.35
 30
0.0
 10
11.6401
 20
-118.35
 30
0.0
 10
11.6401
 20
-114.0447
 30
0.0
 10
11.6401
 20
-114.0447
 30
0.0
 10
11.6401
 20
-114.0447
 30
0.0
 10
11.6401
 20
-109.5843
 30
0.0
 10
13.5175
 20
-105.2589
 30
0.0
 10
21.2349
 20
-105.2589
 30
0.0
 10
21.2349
 20
-105.2589
 30
0.0
 10
28.947
 20
-105.2589
 30
0.0
 10
30.7909
 20
-109.5843
 30
0.0
 10
30.7909
 20
-114.0447
 30
0.0
 10
30.7909
 20
-114.0447
 30
0.0
 10
30.7909
 20
-114.0447
 30
0.0
 10
30.7909
 20
-118.35
 30
0.0
 10
30.7909
 20
-118.35
 30
0.0
  0
SPLINE
  5
4C
330
1F
100
AcDbEntity
  8
_LAYER_1
 62
     7
100
AcDbSpline
210
0.0
220
0.0
230
1.0
 70
    11
 71
     3
 72
    32
 73
    28
 74
     0
 42
0.0000000001
 43
0.0000000001
 40
0.0
 40
0.0
 40
0.0
 40
0.0
 40
0.125
 40
0.125
 40
0.125
 40
0.125
 40
0.25
 40
0.25
 40
0.25
 40
0.25
 40
0.375
 40
0.375
 40
0.375
 40
0.375
 40
0.5
 40
0.5
 40
0.5
 40
0.5
 40
0.625
 40
0.625
 40
0.625
 40
0.625
 40
0.75
 40
0.75
 40
0.75
 40
0.75
 40
1.0
 40
1.0
 40
1.0
 40
1.0
 10
51.8138
 20
-118.35
 30
0.0
 10
51.8138
 20
-118.35
 30
0.0
 10
51.8138
 20
-118.35
 30
0.0
 10
51.8138
 20
-118.35
 30
0.0
 10
51.8138
 20
-118.35
 30
0.0
 10
51.8138
 20
-122.8091
 30
0.0
 10
49.9686
 20
-127.1338
 30
0.0
 10
42.2591
 20
-127.1338
 30
0.0
 10
42.2591
 20
-127.1338
 30
0.0
 10
34.5418
 20
-127.1338
 30
0.0
 10
32.663
 20
-122.8091
 30
0.0
 10
32.663
 20
-118.35
 30
0.0
 10
32.663
 20
-118.35
 30
0.0
 10
32.663
 20
-118.35
 30
0.0
 10
32.663
 20
-114.0447
 30
0.0
 10
32.663
 20
-114.0447
 30
0.0
 10
32.663
 20
-114.0447
 30
0.0
 10
32.663
 20
-109.5843
 30
0.0
 10
34.5418
 20
-105.2589
 30
0.0
 10
42.2591
 20
-105.2589
 30
0.0
 10
42.2591
 20
-105.2589
 30
0.0
 10
49.9686
 20
-105.2589
 30
0.0
 10
51.8138
 20
-109.5843
 30
0.0
 10
51.8138
 20
-114.0447
 30
0.0
 10
51.8138
 20
-114.0447
 30
0.0
 10
51.8138
 20
-114.0447
 30
0.0
 10
51.8138
 20
-118.35
 30
0.0
 10
51.8138
 20
-118.35
 30
0.0
  0
SPLINE
  5
4D
330
1F
100
AcDbEntity
  8
_LAYER_1
 62
     7
100
AcDbSpline
210
0.0
220
0.0
230
1.0
 70
    11
 71
     3
 72
    52
 73
    48
 74
     0
 42
0.0000000001
 43
0.0000000001
 40
0.0
 40
0.0
 40
0.0
 40
0.0
 40
0.0769230769230769
 40
0.0769230769230769
 40
0.0769230769230769
 40
0.0769230769230769
 40
0.1538461538461539
 40
0.1538461538461539
 40
0.1538461538461539
 40
0.1538461538461539
 40
0.2307692307692308
 40
0.2307692307692308
 40
0.2307692307692308
 40
0.2307692307692308
 40
0.3076923076923077
 40
0.3076923076923077
 40
0.3076923076923077
 40
0.3076923076923077
 40
0.3846153846153846
 40
0.3846153846153846
 40
0.3846153846153846
 40
0.3846153846153846
 40
0.4615384615384616
 40
0.4615384615384616
 40
0.4615384615384616
 40
0.4615384615384616
 40
0.5384615384615384
 40
0.5384615384615384
 40
0.5384615384615384
 40
0.5384615384615384
 40
0.6153846153846154
 40
0.6153846153846154
 40
0.6153846153846154
 40
0.6153846153846154
 40
0.6923076923076923
 40
0.6923076923076923
 40
0.6923076923076923
 40
0.6923076923076923
 40
0.7692307692307693
 40
0.7692307692307693
 40
0.7692307692307693
 40
0.7692307692307693
 40
0.8461538461538461
 40
0.8461538461538461
 40
0.8461538461538461
 40
0.8461538461538461
 40
1.0
 40
1.0
 40
1.0
 40
1.0
 10
73.3928
 20
-126.8914
 30
0.0
 10
73.3928
 20
-126.8914
 30
0.0
 10
73.3928
 20
-126.8914
 30
0.0
 10
73.3928
 20
-126.8914
 30
0.0
 10
73.3928
 20
-126.8914
 30
0.0
 10
73.3928
 20
-126.8914
 30
0.0
 10
66.2763
 20
-126.8914
 30
0.0
 10
66.2763
 20
-126.8914
 30
0.0
 10
66.2763
 20
-126.8914
 30
0.0
 10
66.2763
 20
-126.8914
 30
0.0
 10
60.2597
 20
-116.8621
 30
0.0
 10
60.2597
 20
-116.8621
 30
0.0
 10
60.2597
 20
-116.8621
 30
0.0
 10
60.2597
 20
-116.8621
 30
0.0
 10
60.2597
 20
-126.8914
 30
0.0
 10
60.2597
 20
-126.8914
 30
0.0
 10
60.2597
 20
-126.8914
 30
0.0
 10
60.2597
 20
-126.8914
 30
0.0
 10
53.6952
 20
-126.8914
 30
0.0
 10
53.6952
 20
-126.8914
 30
0.0
 10
53.6952
 20
-126.8914
 30
0.0
 10
53.6952
 20
-126.8914
 30
0.0
 10
53.6952
 20
-96.7963
 30
0.0
 10
53.6952
 20
-96.7963
 30
0.0
 10
53.6952
 20
-96.7963
 30
0.0
 10
53.6952
 20
-96.7963
 30
0.0
 10
60.2597
 20
-95.7034
 30
0.0
 10
60.2597
 20
-95.7034
 30
0.0
 10
60.2597
 20
-95.7034
 30
0.0
 10
60.2597
 20
-95.7034
 30
0.0
 10
60.2597
 20
-115.0775
 30
0.0
 10
60.2597
 20
-115.0775
 30
0.0
 10
60.2597
 20
-115.0775
 30
0.0
 10
60.2597
 20
-115.0775
 30
0.0
 10
66.2763
 20
-105.5521
 30
0.0
 10
66.2763
 20
-105.5521
 30
0.0
 10
66.2763
 20
-105.5521
 30
0.0
 10
66.2763
 20
-105.5521
 30
0.0
 10
73.3928
 20
-105.5521
 30
0.0
 10
73.3928
 20
-105.5521
 30
0.0
 10
73.3928
 20
-105.5521
 30
0.0
 10
73.3928
 20
-105.5521
 30
0.0
 10
66.823
 20
-115.9466
 30
0.0
 10
66.823
 20
-115.9466
 30
0.0
 10
66.823
 20
-115.9466
 30
0.0
 10
66.823
 20
-115.9466
 30
0.0
 10
73.3928
 20
-126.8914
 30
0.0
 10
73.3928
 20
-126.8914
 30
0.0
  0
SPLINE
  5
4E
330
1F
100
AcDbEntity
  8
_LAYER_1
 62
     7
100
AcDbSpline
210
0.0
220
0.0
230
1.0
 70
    11
 71
     3
 72
    32
 73
    28
 74
     0
 42
0.0000000001
 43
0.0000000001
 40
0.0
 40
0.0
 40
0.0
 40
0.0
 40
0.125
 40
0.125
 40
0.125
 40
0.125
 40
0.25
 40
0.25
 40
0.25
 40
0.25
 40
0.375
 40
0.375
 40
0.375
 40
0.375
 40
0.5
 40
0.5
 40
0.5
 40
0.5
 40
0.625
 40
0.625
 40
0.625
 40
0.625
 40
0.75
 40
0.75
 40
0.75
 40
0.75
 40
1.0
 40
1.0
 40
1.0
 40
1.0
 10
42.2359
 20
-110.7216
 30
0.0
 10
42.2359
 20
-110.7216
 30
0.0
 10
42.2359
 20
-110.7216
 30
0.0
 10
42.2359
 20
-110.7216
 30
0.0
 10
42.2359
 20
-110.7216
 30
0.0
 10
40.0065
 20
-110.7216
 30
0.0
 10
39.2328
 20
-111.9389
 30
0.0
 10
39.2328
 20
-113.4527
 30
0.0
 10
39.2328
 20
-113.4527
 30
0.0
 10
39.2328
 20
-113.4527
 30
0.0
 10
39.2328
 20
-118.9845
 30
0.0
 10
39.2328
 20
-118.9845
 30
0.0
 10
39.2328
 20
-118.9845
 30
0.0
 10
39.2328
 20
-120.5035
 30
0.0
 10
40.0065
 20
-121.7233
 30
0.0
 10
42.2359
 20
-121.7233
 30
0.0
 10
42.2359
 20
-121.7233
 30
0.0
 10
44.4627
 20
-121.7233
 30
0.0
 10
45.2506
 20
-120.5035
 30
0.0
 10
45.2506
 20
-118.9845
 30
0.0
 10
45.2506
 20
-118.9845
 30
0.0
 10
45.2506
 20
-118.9845
 30
0.0
 10
45.2506
 20
-113.4527
 30
0.0
 10
45.2506
 20
-113.4527
 30
0.0
 10
45.2506
 20
-113.4527
 30
0.0
 10
45.2506
 20
-111.9389
 30
0.0
 10
44.4627
 20
-110.7216
 30
0.0
 10
42.2359
 20
-110.7216
 30
0.0
  0
SPLINE
  5
4F
330
1F
100
AcDbEntity
  8
_LAYER_1
 62
     7
100
AcDbSpline
210
0.0
220
0.0
230
1.0
 70
    11
 71
     3
 72
    24
 73
    20
 74
     0
 42
0.0000000001
 43
0.0000000001
 40
0.0
 40
0.0
 40
0.0
 40
0.0
 40
0.1666666666666667
 40
0.1666666666666667
 40
0.1666666666666667
 40
0.1666666666666667
 40
0.3333333333333333
 40
0.3333333333333333
 40
0.3333333333333333
 40
0.3333333333333333
 40
0.5
 40
0.5
 40
0.5
 40
0.5
 40
0.6666666666666666
 40
0.6666666666666666
 40
0.6666666666666666
 40
0.6666666666666666
 40
1.0
 40
1.0
 40
1.0
 40
1.0
 10
77.1399
 20
-123.1495
 30
0.0
 10
78.2448
 20
-123.1495
 30
0.0
 10
79.1257
 20
-124.0495
 30
0.0
 10
79.1257
 20
-125.1738
 30
0.0
 10
79.1257
 20
-125.1738
 30
0.0
 10
79.1257
 20
-126.315
 30
0.0
 10
78.2448
 20
-127.206
 30
0.0
 10
77.1295
 20
-127.206
 30
0.0
 10
77.1295
 20
-127.206
 30
0.0
 10
76.0244
 20
-127.206
 30
0.0
 10
75.1244
 20
-126.315
 30
0.0
 10
75.1244
 20
-125.1738
 30
0.0
 10
75.1244
 20
-125.1738
 30
0.0
 10
75.1244
 20
-124.0495
 30
0.0
 10
76.0244
 20
-123.1495
 30
0.0
 10
77.1295
 20
-123.1495
 30
0.0
 10
77.1295
 20
-123.1495
 30
0.0
 10
77.1295
 20
-123.1495
 30
0.0
 10
77.1399
 20
-123.1495
 30
0.0
 10
77.1399
 20
-123.1495
 30
0.0
  0
SPLINE
  5
50
330
1F
100
AcDbEntity
  8
_LAYER_1
 62
     7
100
AcDbSpline
210
0.0
220
0.0
230
1.0
 70
    11
 71
     3
 72
    28
 73
    24
 74
     0
 42
0.0000000001
 43
0.0000000001
 40
0.0
 40
0.0
 40
0.0
 40
0.0
 40
0.1428571428571428
 40
0.1428571428571428
 40
0.1428571428571428
 40
0.1428571428571428
 40
0.2857142857142857
 40
0.2857142857142857
 40
0.2857142857142857
 40
0.2857142857142857
 40
0.4285714285714285
 40
0.4285714285714285
 40
0.4285714285714285
 40
0.4285714285714285
 40
0.5714285714285714
 40
0.5714285714285714
 40
0.5714285714285714
 40
0.5714285714285714
 40
0.7142857142857143
 40
0.7142857142857143
 40
0.7142857142857143
 40
0.7142857142857143
 40
1.0
 40
1.0
 40
1.0
 40
1.0
 10
77.1295
 20
-123.4641
 30
0.0
 10
77.1295
 20
-123.4641
 30
0.0
 10
77.1295
 20
-123.4641
 30
0.0
 10
77.1295
 20
-123.4641
 30
0.0
 10
77.1295
 20
-123.4641
 30
0.0
 10
76.2411
 20
-123.4641
 30
0.0
 10
75.5112
 20
-124.2288
 30
0.0
 10
75.5112
 20
-125.1738
 30
0.0
 10
75.5112
 20
-125.1738
 30
0.0
 10
75.5112
 20
-126.1357
 30
0.0
 10
76.2411
 20
-126.8914
 30
0.0
 10
77.1399
 20
-126.8914
 30
0.0
 10
77.1399
 20
-126.8914
 30
0.0
 10
78.0386
 20
-126.9004
 30
0.0
 10
78.7581
 20
-126.1357
 30
0.0
 10
78.7581
 20
-125.1817
 30
0.0
 10
78.7581
 20
-125.1817
 30
0.0
 10
78.7581
 20
-124.2288
 30
0.0
 10
78.0386
 20
-123.4641
 30
0.0
 10
77.1399
 20
-123.4641
 30
0.0
 10
77.1399
 20
-123.4641
 30
0.0
 10
77.1399
 20
-123.4641
 30
0.0
 10
77.1295
 20
-123.4641
 30
0.0
 10
77.1295
 20
-123.4641
 30
0.0
  0
SPLINE
  5
51
330
1F
100
AcDbEntity
  8
_LAYER_1
 62
     7
100
AcDbSpline
210
0.0
220
0.0
230
1.0
 70
    11
 71
     3
 72
    64
 73
    60
 74
     0
 42
0.0000000001
 43
0.0000000001
 40
0.0
 40
0.0
 40
0.0
 40
0.0
 40
0.0625
 40
0.0625
 40
0.0625
 40
0.0625
 40
0.125
 40
0.125
 40
0.125
 40
0.125
 40
0.1875
 40
0.1875
 40
0.1875
 40
0.1875
 40
0.25
 40
0.25
 40
0.25
 40
0.25
 40
0.3125
 40
0.3125
 40
0.3125
 40
0.3125
 40
0.375
 40
0.375
 40
0.375
 40
0.375
 40
0.4375
 40
0.4375
 40
0.4375
 40
0.4375
 40
0.5
 40
0.5
 40
0.5
 40
0.5
 40
0.5625
 40
0.5625
 40
0.5625
 40
0.5625
 40
0.625
 40
0.625
 40
0.625
 40
0.625
 40
0.6875
 40
0.6875
 40
0.6875
 40
0.6875
 40
0.75
 40
0.75
 40
0.75
 40
0.75
 40
0.8125
 40
0.8125
 40
0.8125
 40
0.8125
 40
0.875
 40
0.875
 40
0.875
 40
0.875
 40
1.0
 40
1.0
 40
1.0
 40
1.0
 10
76.7518
 20
-126.3524
 30
0.0
 10
76.7518
 20
-126.3524
 30
0.0
 10
76.7518
 20
-126.3524
 30
0.0
 10
76.7518
 20
-126.3524
 30
0.0
 10
76.7518
 20
-126.3524
 30
0.0
 10
76.7518
 20
-126.3524
 30
0.0
 10
76.3932
 20
-126.3524
 30
0.0
 10
76.3932
 20
-126.3524
 30
0.0
 10
76.3932
 20
-126.3524
 30
0.0
 10
76.3932
 20
-126.3524
 30
0.0
 10
76.3932
 20
-124.0933
 30
0.0
 10
76.3932
 20
-124.0933
 30
0.0
 10
76.3932
 20
-124.0933
 30
0.0
 10
76.5815
 20
-124.0663
 30
0.0
 10
76.7608
 20
-124.0405
 30
0.0
 10
77.0303
 20
-124.0405
 30
0.0
 10
77.0303
 20
-124.0405
 30
0.0
 10
77.3733
 20
-124.0405
 30
0.0
 10
77.5975
 20
-124.1114
 30
0.0
 10
77.733
 20
-124.2106
 30
0.0
 10
77.733
 20
-124.2106
 30
0.0
 10
77.8685
 20
-124.31
 30
0.0
 10
77.9381
 20
-124.4621
 30
0.0
 10
77.9381
 20
-124.6786
 30
0.0
 10
77.9381
 20
-124.6786
 30
0.0
 10
77.9381
 20
-124.9753
 30
0.0
 10
77.742
 20
-125.1545
 30
0.0
 10
77.4996
 20
-125.2281
 30
0.0
 10
77.4996
 20
-125.2281
 30
0.0
 10
77.4996
 20
-125.2281
 30
0.0
 10
77.4996
 20
-125.2461
 30
0.0
 10
77.4996
 20
-125.2461
 30
0.0
 10
77.4996
 20
-125.2461
 30
0.0
 10
77.6969
 20
-125.2822
 30
0.0
 10
77.8324
 20
-125.4602
 30
0.0
 10
77.8761
 20
-125.7929
 30
0.0
 10
77.8761
 20
-125.7929
 30
0.0
 10
77.9302
 20
-126.1449
 30
0.0
 10
77.9845
 20
-126.2802
 30
0.0
 10
78.0206
 20
-126.3524
 30
0.0
 10
78.0206
 20
-126.3524
 30
0.0
 10
78.0206
 20
-126.3524
 30
0.0
 10
77.6428
 20
-126.3524
 30
0.0
 10
77.6428
 20
-126.3524
 30
0.0
 10
77.6428
 20
-126.3524
 30
0.0
 10
77.5885
 20
-126.2802
 30
0.0
 10
77.5331
 20
-126.0727
 30
0.0
 10
77.4893
 20
-125.7774
 30
0.0
 10
77.4893
 20
-125.7774
 30
0.0
 10
77.4351
 20
-125.4884
 30
0.0
 10
77.2919
 20
-125.3802
 30
0.0
 10
77.0018
 20
-125.3802
 30
0.0
 10
77.0018
 20
-125.3802
 30
0.0
 10
77.0018
 20
-125.3802
 30
0.0
 10
76.7518
 20
-125.3802
 30
0.0
 10
76.7518
 20
-125.3802
 30
0.0
 10
76.7518
 20
-125.3802
 30
0.0
 10
76.7518
 20
-125.3802
 30
0.0
 10
76.7518
 20
-126.3524
 30
0.0
 10
76.7518
 20
-126.3524
 30
0.0
  0
SPLINE
  5
52
330
1F
100
AcDbEntity
  8
_LAYER_1
 62
     7
100
AcDbSpline
210
0.0
220
0.0
230
1.0
 70
    11
 71
     3
 72
    28
 73
    24
 74
     0
 42
0.0000000001
 43
0.0000000001
 40
0.0
 40
0.0
 40
0.0
 40
0.0
 40
0.1428571428571428
 40
0.1428571428571428
 40
0.1428571428571428
 40
0.1428571428571428
 40
0.2857142857142857
 40
0.2857142857142857
 40
0.2857142857142857
 40
0.2857142857142857
 40
0.4285714285714285
 40
0.4285714285714285
 40
0.4285714285714285
 40
0.4285714285714285
 40
0.5714285714285714
 40
0.5714285714285714
 40
0.5714285714285714
 40
0.5714285714285714
 40
0.7142857142857143
 40
0.7142857142857143
 40
0.7142857142857143
 40
0.7142857142857143
 40
1.0
 40
1.0
 40
1.0
 40
1.0
 10
76.7518
 20
-125.1016
 30
0.0
 10
76.7518
 20
-125.1016
 30
0.0
 10
76.7518
 20
-125.1016
 30
0.0
 10
76.7518
 20
-125.1016
 30
0.0
 10
76.7518
 20
-125.1016
 30
0.0
 10
76.7518
 20
-125.1016
 30
0.0
 10
77.0134
 20
-125.1016
 30
0.0
 10
77.0134
 20
-125.1016
 30
0.0
 10
77.0134
 20
-125.1016
 30
0.0
 10
77.3087
 20
-125.1016
 30
0.0
 10
77.5616
 20
-124.9932
 30
0.0
 10
77.5616
 20
-124.7148
 30
0.0
 10
77.5616
 20
-124.7148
 30
0.0
 10
77.5616
 20
-124.5162
 30
0.0
 10
77.4171
 20
-124.319
 30
0.0
 10
77.0134
 20
-124.319
 30
0.0
 10
77.0134
 20
-124.319
 30
0.0
 10
76.8961
 20
-124.319
 30
0.0
 10
76.8136
 20
-124.3279
 30
0.0
 10
76.7518
 20
-124.3369
 30
0.0
 10
76.7518
 20
-124.3369
 30
0.0
 10
76.7518
 20
-124.3369
 30
0.0
 10
76.7518
 20
-125.1016
 30
0.0
 10
76.7518
 20
-125.1016
 30
0.0
  0
ENDSEC
  0
SECTION
  2
OBJECTS
  0
DICTIONARY
  5
C
330
0
100
AcDbDictionary
  3
ACAD_GROUP
350
D
  3
ACAD_LAYOUT
350
1A
  3
ACAD_MATERIAL
350
3B
  3
ACAD_MLEADERSTYLE
350
55
  3
ACAD_MLINESTYLE
350
17
  3
ACAD_PLOTSETTINGS
350
19
  3
ACAD_VISUALSTYLE
350
2A
  3
ACDBVARIABLEDICTIONARY
350
53
1001
ACAD
1000
TREAT_AS_HARD
1070
     0
  0
DICTIONARY
  5
D
102
{ACAD_REACTORS
330
C
102
}
330
C
100
AcDbDictionary
1001
ACAD
1000
TREAT_AS_HARD
1070
     0
  0
DICTIONARY
  5
1A
102
{ACAD_REACTORS
330
C
102
}
330
C
100
AcDbDictionary
1001
ACAD
1000
TREAT_AS_HARD
1070
     0
  0
DICTIONARY
  5
3B
102
{ACAD_REACTORS
330
C
102
}
330
C
100
AcDbDictionary
  3
BYBLOCK
350
3D
  3
BYLAYER
350
3C
  3
GLOBAL
350
3E
1001
ACAD
1000
TREAT_AS_HARD
1070
     0
  0
DICTIONARY
  5
55
102
{ACAD_REACTORS
330
C
102
}
330
C
100
AcDbDictionary
1001
ACAD
1000
TREAT_AS_HARD
1070
     0
  0
DICTIONARY
  5
17
102
{ACAD_REACTORS
330
C
102
}
330
C
100
AcDbDictionary
  3
STANDARD
350
18
1001
ACAD
1000
TREAT_AS_HARD
1070
     0
  0
DICTIONARY
  5
19
102
{ACAD_REACTORS
330
C
102
}
330
C
100
AcDbDictionary
1001
ACAD
1000
TREAT_AS_HARD
1070
     0
  0
DICTIONARY
  5
2A
102
{ACAD_REACTORS
330
C
102
}
330
C
100
AcDbDictionary
  3
2DWIREFRAME
350
2F
  3
3D_HIDDEN
350
31
  3
3DWIREFRAME
350
30
  3
BASIC
350
32
  3
BRIGHTEN
350
36
  3
COLORCHANGE
350
3A
  3
CONCEPTUAL
350
34
  3
DIM
350
35
  3
FACEPATTERN
350
39
  3
FLAT
350
2B
  3
FLATWITHEDGES
350
2C
  3
GOURAUD
350
2D
  3
GOURAUDWITHEDGES
350
2E
  3
LINEPATTERN
350
38
  3
REALISTIC
350
33
  3
THICKEN
350
37
1001
ACAD
1000
TREAT_AS_HARD
1070
     0
  0
DICTIONARY
  5
53
102
{ACAD_REACTORS
330
C
102
}
330
C
100
AcDbDictionary
  3
DIMASSOC
350
56
  3
HIDETEXT
350
57
1001
ACAD
1000
TREAT_AS_HARD
1070
     0
  0
MATERIAL
  5
3D
102
{ACAD_REACTORS
330
3B
102
}
102
{ACAD_XDICTIONARY
360
5A
102
}
330
3B
100
AcDbMaterial
  1
ByBlock
  0
MATERIAL
  5
3C
102
{ACAD_REACTORS
330
3B
102
}
102
{ACAD_XDICTIONARY
360
58
102
}
330
3B
100
AcDbMaterial
  1
ByLayer
  0
MATERIAL
  5
3E
102
{ACAD_REACTORS
330
3B
102
}
102
{ACAD_XDICTIONARY
360
5C
102
}
330
3B
100
AcDbMaterial
  1
Global
  0
MLINESTYLE
  5
18
102
{ACAD_REACTORS
330
17
102
}
330
17
100
AcDbMlineStyle
  2
Standard
 70
     0
  3

 62
   256
 51
90.0
 52
90.0
 71
     2
 49
0.5
 62
   256
  6
BYLAYER
 49
-0.5
 62
   256
  6
BYLAYER
  0
ACAD_PROXY_OBJECT
  5
2F
102
{ACAD_REACTORS
330
2A
102
}
330
2A
100
AcDbZombieObject
 90
      499
 91
      501
 93
      436
310
42CC9915DA5C99599C985B595049028333333333333E3BF0000000000000FB0107901411070040501600405405064090741402480A0340
1001
ACAD
1000
AcDbSavedByObjectVersion
1070
     0
  0
ACAD_PROXY_OBJECT
  5
31
102
{ACAD_REACTORS
330
2A
102
}
330
2A
100
AcDbZombieObject
 90
      499
 91
      501
 93
      500
310
424CD108121A5919195B90640502408333333333333E3BF0000000000000FB01079024090700405020000000000001110200405405064090740C02480A0340
1001
ACAD
1000
AcDbSavedByObjectVersion
1070
     0
  0
ACAD_PROXY_OBJECT
  5
30
102
{ACAD_REACTORS
330
2A
102
}
330
2A
100
AcDbZombieObject
 90
      499
 91
      501
 93
      436
310
42CCD915DA5C99599C985B595059028333333333333E3BF0000000000000FB0107901411070040501600405405064090741402480A0340
1001
ACAD
1000
AcDbSavedByObjectVersion
1070
     0
  0
ACAD_PROXY_OBJECT
  5
32
102
{ACAD_REACTORS
330
2A
102
}
330
2A
100
AcDbZombieObject
 90
      499
 91
      501
 93
      388
310
4150985CDA58D07406404333333333333E3BF0000000000000FB0107A41107004050150841D405064090741402480A0350
1001
ACAD
1000
AcDbSavedByObjectVersion
1070
     0
  0
ACAD_PROXY_OBJECT
  5
36
102
{ACAD_REACTORS
330
2A
102
}
330
2A
100
AcDbZombieObject
 90
      499
 91
      501
 93
      428
310
42109C9A59DA1D195B90C409028333333333333E3BF0000000000000FB010790141107004050150841D405064090741402480A029950
1001
ACAD
1000
AcDbSavedByObjectVersion
1070
     0
  0
ACAD_PROXY_OBJECT
  5
3A
102
{ACAD_REACTORS
330
2A
102
}
330
2A
100
AcDbZombieObject
 90
      499
 91
      501
 93
      452
310
42D0DBDB1BDC90DA185B99D95104090240C333333333333E3BF0000000000000FB0108901411070040501508421405064090741402480A0350
1001
ACAD
1000
AcDbSavedByObjectVersion
1070
     0
  0
ACAD_PROXY_OBJECT
  5
34
102
{ACAD_REACTORS
330
2A
102
}
330
2A
100
AcDbZombieObject
 90
      499
 91
      501
 93
      500
310
4290DBDB98D95C1D1D585B10940D028333333333333E3BF0000000000000FB0107902409070040501000000000000111010841D405064090740C02480A0340
1001
ACAD
1000
AcDbSavedByObjectVersion
1070
     0
  0
ACAD_PROXY_OBJECT
  5
35
102
{ACAD_REACTORS
330
2A
102
}
330
2A
100
AcDbZombieObject
 90
      499
 91
      501
 93
      412
310
40D11A5B50B409028333333333333E3BF0000000000000FB010790141107004050150841D405064090741402480A02677FFFFFD0
1001
ACAD
1000
AcDbSavedByObjectVersion
1070
     0
  0
ACAD_PROXY_OBJECT
  5
39
102
{ACAD_REACTORS
330
2A
102
}
330
2A
100
AcDbZombieObject
 90
      499
 91
      501
 93
      444
310
42D19858D95C185D1D195C9B90F409028333333333333E3BF0000000000000FB010790141107004050150841D405064090741402480A0350
1001
ACAD
1000
AcDbSavedByObjectVersion
1070
     0
  0
ACAD_PROXY_OBJECT
  5
2B
102
{ACAD_REACTORS
330
2A
102
}
330
2A
100
AcDbZombieObject
 90
      499
 91
      501
 93
      388
310
41119B185D240901404333333333333E3BF0000000000000F9010740A41107004050150841D405064090741402480A1B50
1001
ACAD
1000
AcDbSavedByObjectVersion
1070
     0
  0
ACAD_PROXY_OBJECT
  5
2C
102
{ACAD_REACTORS
330
2A
102
}
330
2A
100
AcDbZombieObject
 90
      499
 91
      501
 93
      476
310
43519B185D15DA5D1A115919D95CD0140901404333333333333E3BF0000000000000F9010740901411070040501600405405064090741402480A1B50
1001
ACAD
1000
AcDbSavedByObjectVersion
1070
     0
  0
ACAD_PROXY_OBJECT
  5
2D
102
{ACAD_REACTORS
330
2A
102
}
330
2A
100
AcDbZombieObject
 90
      499
 91
      501
 93
      412
310
41D1DBDD5C985D5910240902404333333333333E3BF0000000000000F9010740A411070040501641D405064090741402480A1B50
1001
ACAD
1000
AcDbSavedByObjectVersion
1070
     0
  0
ACAD_PROXY_OBJECT
  5
2E
102
{ACAD_REACTORS
330
2A
102
}
330
2A
100
AcDbZombieObject
 90
      499
 91
      501
 93
      500
310
4411DBDD5C985D5915DA5D1A115919D95CD0340902404333333333333E3BF0000000000000F9010740901411070040501600405405064090741402480A1B50
1001
ACAD
1000
AcDbSavedByObjectVersion
1070
     0
  0
ACAD_PROXY_OBJECT
  5
38
102
{ACAD_REACTORS
330
2A
102
}
330
2A
100
AcDbZombieObject
 90
      499
 91
      501
 93
      444
310
42D31A5B995C185D1D195C9B90E409028333333333333E3BF0000000000000FB010790141107004050750841D405064090741402483A0350
1001
ACAD
1000
AcDbSavedByObjectVersion
1070
     0
  0
ACAD_PROXY_OBJECT
  5
33
102
{ACAD_REACTORS
330
2A
102
}
330
2A
100
AcDbZombieObject
 90
      499
 91
      501
 93
      420
310
425499585B1A5CDD1A58D08409028333333333333E3BF0000000000000FB01079019070040501508421405064090741402480A1B40
1001
ACAD
1000
AcDbSavedByObjectVersion
1070
     0
  0
ACAD_PROXY_OBJECT
  5
37
102
{ACAD_REACTORS
330
2A
102
}
330
2A
100
AcDbZombieObject
 90
      499
 91
      501
 93
      412
310
41D51A1A58DAD95B90D409028333333333333E3BF0000000000000FB010790141107004050150C41D405064090741402480A0350
1001
ACAD
1000
AcDbSavedByObjectVersion
1070
     0
  0
DICTIONARYVAR
  5
56
102
{ACAD_REACTORS
330
53
102
}
330
53
100
DictionaryVariables
280
     0
  1
2
  0
DICTIONARYVAR
  5
57
102
{ACAD_REACTORS
330
53
102
}
330
53
100
DictionaryVariables
280
     0
  1
1
  0
DICTIONARY
  5
5A
330
3D
100
AcDbDictionary
  3
ACAD_XREC_ROUNDTRIP
360
5B
1001
ACAD
1000
TREAT_AS_HARD
1070
     1
  0
DICTIONARY
  5
58
330
3C
100
AcDbDictionary
  3
ACAD_XREC_ROUNDTRIP
360
59
1001
ACAD
1000
TREAT_AS_HARD
1070
     1
  0
DICTIONARY
  5
5C
330
3E
100
AcDbDictionary
  3
ACAD_XREC_ROUNDTRIP
360
5D
1001
ACAD
1000
TREAT_AS_HARD
1070
     1
  0
XRECORD
  5
5B
102
{ACAD_REACTORS
330
5A
102
}
330
5A
100
AcDbXrecord
102
MATERIAL
148
0.0
149
0.0
149
0.0
 93
        0
 94
      127
282
     0
 72
     1
 77
     1
171
     1
175
     1
179
     1
273
     0
  0
XRECORD
  5
59
102
{ACAD_REACTORS
330
58
102
}
330
58
100
AcDbXrecord
102
MATERIAL
148
0.0
149
0.0
149
0.0
 93
        0
 94
      127
282
     0
 72
     1
 77
     1
171
     1
175
     1
179
     1
273
     0
  0
XRECORD
  5
5D
102
{ACAD_REACTORS
330
5C
102
}
330
5C
100
AcDbXrecord
102
MATERIAL
148
0.0
149
0.0
149
0.0
 93
        0
 94
      127
282
     0
 72
     1
 77
     1
171
     1
175
     1
179
     1
273
     0
  0
ENDSEC
  0
EOF
