  0
SECTION
  2
HEADER
  9
$ACADVER
  1
AC1006
  9
$EXTMIN
 10
-2.502276
 20
-3.306154
  9
$EXTMAX
 10
2.502551
 20
1.698673
  9
$LTSCALE
 40
0.000394
  9
$PDMODE
 70
    35
  9
$PDSIZE
 40
0.000315
  0
ENDSEC
  0
SECTION
  2
TABLES
  0
TABLE
  2
LTYPE
 70
     9
  0
LTYPE
  2
CONTINUOUS
 70
    64
  3
Solid line
 72
    65
 73
     0
 40
0.000000
  0
LTYPE
  2
DASHED
 70
    64
  3
__ __ __ __ __ __ __ __ __ __ __ __ __ __ __
 72
    65
 73
     2
 40
0.000003
 49
0.000002
 49
-0.000001
  0
LTYPE
  2
HIDDEN
 70
    64
  3
 _ _ _ _ _ _ _ _ _ _ _ _ _ _ _ _ _ _ _ _ _ _
 72
    65
 73
     2
 40
0.000001
 49
0.000001
 49
-0.000000
  0
LTYPE
  2
CENTER
 70
    64
  3
____ _ ____ _ ____ _ ____ _ ____ _ ____ _ ____
 72
    65
 73
     4
 40
0.000008
 49
0.000005
 49
-0.000001
 49
0.000001
 49
-0.000001
  0
LTYPE
  2
PHANTOM
 70
    64
  3
_____ _ _ _____ _ _ _____ _ _ _____ _ _ ____
 72
    65
 73
     6
 40
0.000010
 49
0.000005
 49
-0.000001
 49
0.000001
 49
-0.000001
 49
0.000001
 49
-0.000001
  0
LTYPE
  2
DOT
 70
    64
  3
...............................................
 72
    65
 73
     2
 40
0.000001
 49
0.000000
 49
-0.000001
  0
LTYPE
  2
DASHDOT
 70
    64
  3
__ . __ . __ . __ . __ . __ . __ . __ . __ . __
 72
    65
 73
     4
 40
0.000004
 49
0.000002
 49
-0.000001
 49
0.000000
 49
-0.000001
  0
LTYPE
  2
BORDER
 70
    64
  3
__ __ . __ __ . __ __ . __ __ . __ __ . __ __
 72
    65
 73
     6
 40
0.000007
 49
0.000002
 49
-0.000001
 49
0.000002
 49
-0.000001
 49
0.000000
 49
-0.000001
  0
LTYPE
  2
DIVIDE
 70
    64
  3
__ . . __ . . __ . . __ . . __ . . __ . . __
 72
    65
 73
     6
 40
0.000005
 49
0.000002
 49
-0.000001
 49
0.000000
 49
-0.000001
 49
0.000000
 49
-0.000001
  0
LTYPE
  2
DOTDOT
 70
    64
  3
 . .  . .  . .  . .  . .  . . 
 72
    65
 73
     5
 40
0.000002
 49
-0.000001
 49
0.000000
 49
-0.000001
 49
0.000000
 49
-0.000001
  0
ENDTAB
  0
TABLE
  2
STYLE
 70
     0
  0
ENDTAB
  0
TABLE
  2
LAYER
 70
     3
  0
LAYER
  2
FOREGROUND
 70
    64
 62
     7
  6
CONTINUOUS
  0
LAYER
  2
BACKGROUND
 70
    65
 62
    -7
  6
CONTINUOUS
  0
LAYER
  2
EBENE_1
 70
    64
 62
     7
  6
CONTINUOUS
  0
ENDTAB
  0
ENDSEC
  0
SECTION
  2
ENTITIES
  0
POLYLINE
  8
EBENE_1
 62
    39
  6
CONTINUOUS
 66
     1
 40
0.003000
 41
0.003000
  0
VERTEX
  8
EBENE_1
 62
    39
  6
CONTINUOUS
 10
1.557091
 20
-1.251500
  0
VERTEX
  8
EBENE_1
 62
    39
  6
CONTINUOUS
 10
1.551283
 20
-1.294445
  0
VERTEX
  8
EBENE_1
 62
    39
  6
CONTINUOUS
 10
1.544181
 20
-1.336812
  0
VERTEX
  8
EBENE_1
 62
    39
  6
CONTINUOUS
 10
1.535837
 20
-1.378759
  0
VERTEX
  8
EBENE_1
 62
    39
  6
CONTINUOUS
 10
1.526303
 20
-1.420445
  0
VERTEX
  8
EBENE_1
 62
    39
  6
CONTINUOUS
 10
1.515633
 20
-1.462025
  0
VERTEX
  8
EBENE_1
 62
    39
  6
CONTINUOUS
 10
1.503878
 20
-1.503657
  0
VERTEX
  8
EBENE_1
 62
    39
  6
CONTINUOUS
 10
1.491091
 20
-1.545500
  0
VERTEX
  8
EBENE_1
 62
    39
  6
CONTINUOUS
 10
1.476019
 20
-1.581128
  0
VERTEX
  8
EBENE_1
 62
    39
  6
CONTINUOUS
 10
1.460835
 20
-1.616814
  0
VERTEX
  8
EBENE_1
 62
    39
  6
CONTINUOUS
 10
1.445587
 20
-1.652564
  0
VERTEX
  8
EBENE_1
 62
    39
  6
CONTINUOUS
 10
1.430323
 20
-1.688384
  0
VERTEX
  8
EBENE_1
 62
    39
  6
CONTINUOUS
 10
1.415091
 20
-1.724278
  0
VERTEX
  8
EBENE_1
 62
    39
  6
CONTINUOUS
 10
1.399939
 20
-1.760252
  0
VERTEX
  8
EBENE_1
 62
    39
  6
CONTINUOUS
 10
1.384915
 20
-1.796312
  0
VERTEX
  8
EBENE_1
 62
    39
  6
CONTINUOUS
 10
1.370067
 20
-1.832462
  0
VERTEX
  8
EBENE_1
 62
    39
  6
CONTINUOUS
 10
1.355443
 20
-1.868708
  0
VERTEX
  8
EBENE_1
 62
    39
  6
CONTINUOUS
 10
1.341091
 20
-1.905056
  0
VERTEX
  8
EBENE_1
 62
    39
  6
CONTINUOUS
 10
1.327059
 20
-1.941510
  0
VERTEX
  8
EBENE_1
 62
    39
  6
CONTINUOUS
 10
1.313395
 20
-1.978076
  0
VERTEX
  8
EBENE_1
 62
    39
  6
CONTINUOUS
 10
1.300147
 20
-2.014760
  0
VERTEX
  8
EBENE_1
 62
    39
  6
CONTINUOUS
 10
1.287363
 20
-2.051566
  0
VERTEX
  8
EBENE_1
 62
    39
  6
CONTINUOUS
 10
1.275091
 20
-2.088500
  0
VERTEX
  8
EBENE_1
 62
    39
  6
CONTINUOUS
 10
1.275091
 20
-2.088500
  0
VERTEX
  8
EBENE_1
 62
    39
  6
CONTINUOUS
 10
1.251747
 20
-2.181672
  0
VERTEX
  8
EBENE_1
 62
    39
  6
CONTINUOUS
 10
1.238341
 20
-2.233875
  0
VERTEX
  8
EBENE_1
 62
    39
  6
CONTINUOUS
 10
1.229809
 20
-2.264141
  0
VERTEX
  8
EBENE_1
 62
    39
  6
CONTINUOUS
 10
1.221091
 20
-2.291500
  0
VERTEX
  8
EBENE_1
 62
    39
  6
CONTINUOUS
 10
1.196128
 20
-2.333463
  0
VERTEX
  8
EBENE_1
 62
    39
  6
CONTINUOUS
 10
1.171387
 20
-2.375204
  0
VERTEX
  8
EBENE_1
 62
    39
  6
CONTINUOUS
 10
1.147091
 20
-2.416500
  0
VERTEX
  8
EBENE_1
 62
    39
  6
CONTINUOUS
 10
1.143387
 20
-2.417463
  0
VERTEX
  8
EBENE_1
 62
    39
  6
CONTINUOUS
 10
1.140128
 20
-2.418204
  0
VERTEX
  8
EBENE_1
 62
    39
  6
CONTINUOUS
 10
1.137091
 20
-2.418500
  0
VERTEX
  8
EBENE_1
 62
    39
  6
CONTINUOUS
 10
1.126905
 20
-2.364463
  0
VERTEX
  8
EBENE_1
 62
    39
  6
CONTINUOUS
 10
1.112276
 20
-2.311537
  0
VERTEX
  8
EBENE_1
 62
    39
  6
CONTINUOUS
 10
1.090091
 20
-2.261500
  0
VERTEX
  8
EBENE_1
 62
    39
  6
CONTINUOUS
 10
1.073387
 20
-2.252537
  0
VERTEX
  8
EBENE_1
 62
    39
  6
CONTINUOUS
 10
1.038461
 20
-2.231130
  0
VERTEX
  8
EBENE_1
 62
    39
  6
CONTINUOUS
 10
0.981091
 20
-2.199500
  0
VERTEX
  8
EBENE_1
 62
    39
  6
CONTINUOUS
 10
0.951137
 20
-2.167759
  0
VERTEX
  8
EBENE_1
 62
    39
  6
CONTINUOUS
 10
0.930794
 20
-2.133574
  0
VERTEX
  8
EBENE_1
 62
    39
  6
CONTINUOUS
 10
0.917841
 20
-2.097000
  0
VERTEX
  8
EBENE_1
 62
    39
  6
CONTINUOUS
 10
0.910054
 20
-2.058093
  0
VERTEX
  8
EBENE_1
 62
    39
  6
CONTINUOUS
 10
0.905211
 20
-2.016907
  0
VERTEX
  8
EBENE_1
 62
    39
  6
CONTINUOUS
 10
0.901091
 20
-1.973500
  0
VERTEX
  8
EBENE_1
 62
    39
  6
CONTINUOUS
 10
0.899891
 20
-1.927292
  0
VERTEX
  8
EBENE_1
 62
    39
  6
CONTINUOUS
 10
0.898691
 20
-1.881036
  0
VERTEX
  8
EBENE_1
 62
    39
  6
CONTINUOUS
 10
0.897491
 20
-1.834684
  0
VERTEX
  8
EBENE_1
 62
    39
  6
CONTINUOUS
 10
0.896291
 20
-1.788188
  0
VERTEX
  8
EBENE_1
 62
    39
  6
CONTINUOUS
 10
0.895091
 20
-1.741500
  0
VERTEX
  8
EBENE_1
 62
    39
  6
CONTINUOUS
 10
0.889072
 20
-1.694481
  0
VERTEX
  8
EBENE_1
 62
    39
  6
CONTINUOUS
 10
0.884276
 20
-1.658685
  0
VERTEX
  8
EBENE_1
 62
    39
  6
CONTINUOUS
 10
0.879591
 20
-1.627000
  0
VERTEX
  8
EBENE_1
 62
    39
  6
CONTINUOUS
 10
0.873905
 20
-1.592315
  0
VERTEX
  8
EBENE_1
 62
    39
  6
CONTINUOUS
 10
0.866109
 20
-1.547519
  0
VERTEX
  8
EBENE_1
 62
    39
  6
CONTINUOUS
 10
0.855091
 20
-1.485500
  0
VERTEX
  8
EBENE_1
 62
    39
  6
CONTINUOUS
 10
0.855128
 20
-1.478500
  0
VERTEX
  8
EBENE_1
 62
    39
  6
CONTINUOUS
 10
0.855387
 20
-1.471500
  0
VERTEX
  8
EBENE_1
 62
    39
  6
CONTINUOUS
 10
0.856091
 20
-1.464500
  0
VERTEX
  8
EBENE_1
 62
    39
  6
CONTINUOUS
 10
0.875054
 20
-1.469574
  0
VERTEX
  8
EBENE_1
 62
    39
  6
CONTINUOUS
 10
0.909128
 20
-1.480426
  0
VERTEX
  8
EBENE_1
 62
    39
  6
CONTINUOUS
 10
0.960091
 20
-1.493500
  0
VERTEX
  8
EBENE_1
 62
    39
  6
CONTINUOUS
 10
1.008512
 20
-1.504344
  0
VERTEX
  8
EBENE_1
 62
    39
  6
CONTINUOUS
 10
1.054216
 20
-1.500750
  0
VERTEX
  8
EBENE_1
 62
    39
  6
CONTINUOUS
 10
1.098606
 20
-1.487031
  0
VERTEX
  8
EBENE_1
 62
    39
  6
CONTINUOUS
 10
1.143091
 20
-1.467500
  0
VERTEX
  8
EBENE_1
 62
    39
  6
CONTINUOUS
 10
1.176706
 20
-1.441569
  0
VERTEX
  8
EBENE_1
 62
    39
  6
CONTINUOUS
 10
1.211350
 20
-1.417389
  0
VERTEX
  8
EBENE_1
 62
    39
  6
CONTINUOUS
 10
1.246716
 20
-1.394375
  0
VERTEX
  8
EBENE_1
 62
    39
  6
CONTINUOUS
 10
1.282498
 20
-1.371944
  0
VERTEX
  8
EBENE_1
 62
    39
  6
CONTINUOUS
 10
1.318391
 20
-1.349514
  0
VERTEX
  8
EBENE_1
 62
    39
  6
CONTINUOUS
 10
1.354091
 20
-1.326500
  0
VERTEX
  8
EBENE_1
 62
    39
  6
CONTINUOUS
 10
1.386868
 20
-1.284093
  0
VERTEX
  8
EBENE_1
 62
    39
  6
CONTINUOUS
 10
1.401646
 20
-1.249241
  0
VERTEX
  8
EBENE_1
 62
    39
  6
CONTINUOUS
 10
1.405091
 20
-1.195500
  0
VERTEX
  8
EBENE_1
 62
    39
  6
CONTINUOUS
 10
1.395091
 20
-1.146500
  0
VERTEX
  8
EBENE_1
 62
    39
  6
CONTINUOUS
 10
1.385091
 20
-1.097500
  0
VERTEX
  8
EBENE_1
 62
    39
  6
CONTINUOUS
 10
1.375091
 20
-1.048500
  0
VERTEX
  8
EBENE_1
 62
    39
  6
CONTINUOUS
 10
1.377461
 20
-0.992241
  0
VERTEX
  8
EBENE_1
 62
    39
  6
CONTINUOUS
 10
1.380054
 20
-0.957759
  0
VERTEX
  8
EBENE_1
 62
    39
  6
CONTINUOUS
 10
1.385091
 20
-0.915500
  0
VERTEX
  8
EBENE_1
 62
    39
  6
CONTINUOUS
 10
1.377135
 20
-0.873572
  0
VERTEX
  8
EBENE_1
 62
    39
  6
CONTINUOUS
 10
1.365512
 20
-0.835641
  0
VERTEX
  8
EBENE_1
 62
    39
  6
CONTINUOUS
 10
1.350585
 20
-0.800732
  0
VERTEX
  8
EBENE_1
 62
    39
  6
CONTINUOUS
 10
1.332716
 20
-0.767875
  0
VERTEX
  8
EBENE_1
 62
    39
  6
CONTINUOUS
 10
1.312268
 20
-0.736096
  0
VERTEX
  8
EBENE_1
 62
    39
  6
CONTINUOUS
 10
1.289606
 20
-0.704422
  0
VERTEX
  8
EBENE_1
 62
    39
  6
CONTINUOUS
 10
1.265093
 20
-0.671881
  0
VERTEX
  8
EBENE_1
 62
    39
  6
CONTINUOUS
 10
1.239091
 20
-0.637500
  0
VERTEX
  8
EBENE_1
 62
    39
  6
CONTINUOUS
 10
1.207523
 20
-0.578884
  0
VERTEX
  8
EBENE_1
 62
    39
  6
CONTINUOUS
 10
1.186227
 20
-0.539852
  0
VERTEX
  8
EBENE_1
 62
    39
  6
CONTINUOUS
 10
1.170115
 20
-0.511428
  0
VERTEX
  8
EBENE_1
 62
    39
  6
CONTINUOUS
 10
1.154099
 20
-0.484636
  0
VERTEX
  8
EBENE_1
 62
    39
  6
CONTINUOUS
 10
1.133091
 20
-0.450500
  0
VERTEX
  8
EBENE_1
 62
    39
  6
CONTINUOUS
 10
1.114683
 20
-0.429426
  0
VERTEX
  8
EBENE_1
 62
    39
  6
CONTINUOUS
 10
1.095831
 20
-0.407241
  0
VERTEX
  8
EBENE_1
 62
    39
  6
CONTINUOUS
 10
1.080091
 20
-0.385500
  0
VERTEX
  8
EBENE_1
 62
    39
  6
CONTINUOUS
 10
1.077387
 20
-0.385500
  0
VERTEX
  8
EBENE_1
 62
    39
  6
CONTINUOUS
 10
1.075128
 20
-0.385500
  0
VERTEX
  8
EBENE_1
 62
    39
  6
CONTINUOUS
 10
1.073091
 20
-0.385500
  0
VERTEX
  8
EBENE_1
 62
    39
  6
CONTINUOUS
 10
1.041239
 20
-0.354722
  0
VERTEX
  8
EBENE_1
 62
    39
  6
CONTINUOUS
 10
1.002942
 20
-0.331278
  0
VERTEX
  8
EBENE_1
 62
    39
  6
CONTINUOUS
 10
0.963091
 20
-0.310500
  0
VERTEX
  8
EBENE_1
 62
    39
  6
CONTINUOUS
 10
0.928435
 20
-0.299880
  0
VERTEX
  8
EBENE_1
 62
    39
  6
CONTINUOUS
 10
0.893356
 20
-0.289151
  0
VERTEX
  8
EBENE_1
 62
    39
  6
CONTINUOUS
 10
0.857948
 20
-0.278246
  0
VERTEX
  8
EBENE_1
 62
    39
  6
CONTINUOUS
 10
0.822307
 20
-0.267098
  0
VERTEX
  8
EBENE_1
 62
    39
  6
CONTINUOUS
 10
0.786528
 20
-0.255640
  0
VERTEX
  8
EBENE_1
 62
    39
  6
CONTINUOUS
 10
0.750707
 20
-0.243805
  0
VERTEX
  8
EBENE_1
 62
    39
  6
CONTINUOUS
 10
0.714937
 20
-0.231525
  0
VERTEX
  8
EBENE_1
 62
    39
  6
CONTINUOUS
 10
0.679316
 20
-0.218734
  0
VERTEX
  8
EBENE_1
 62
    39
  6
CONTINUOUS
 10
0.643938
 20
-0.205363
  0
VERTEX
  8
EBENE_1
 62
    39
  6
CONTINUOUS
 10
0.608898
 20
-0.191347
  0
VERTEX
  8
EBENE_1
 62
    39
  6
CONTINUOUS
 10
0.574291
 20
-0.176617
  0
VERTEX
  8
EBENE_1
 62
    39
  6
CONTINUOUS
 10
0.540213
 20
-0.161107
  0
VERTEX
  8
EBENE_1
 62
    39
  6
CONTINUOUS
 10
0.506760
 20
-0.144749
  0
VERTEX
  8
EBENE_1
 62
    39
  6
CONTINUOUS
 10
0.474025
 20
-0.127477
  0
VERTEX
  8
EBENE_1
 62
    39
  6
CONTINUOUS
 10
0.442105
 20
-0.109223
  0
VERTEX
  8
EBENE_1
 62
    39
  6
CONTINUOUS
 10
0.411095
 20
-0.089919
  0
VERTEX
  8
EBENE_1
 62
    39
  6
CONTINUOUS
 10
0.381091
 20
-0.069500
  0
VERTEX
  8
EBENE_1
 62
    39
  6
CONTINUOUS
 10
0.369831
 20
-0.057870
  0
VERTEX
  8
EBENE_1
 62
    39
  6
CONTINUOUS
 10
0.360350
 20
-0.045796
  0
VERTEX
  8
EBENE_1
 62
    39
  6
CONTINUOUS
 10
0.353091
 20
-0.031500
  0
VERTEX
  8
EBENE_1
 62
    39
  6
CONTINUOUS
 10
0.357387
 20
-0.030500
  0
VERTEX
  8
EBENE_1
 62
    39
  6
CONTINUOUS
 10
0.362128
 20
-0.029500
  0
VERTEX
  8
EBENE_1
 62
    39
  6
CONTINUOUS
 10
0.367091
 20
-0.028500
  0
VERTEX
  8
EBENE_1
 62
    39
  6
CONTINUOUS
 10
0.367091
 20
-0.026463
  0
VERTEX
  8
EBENE_1
 62
    39
  6
CONTINUOUS
 10
0.367091
 20
-0.024204
  0
VERTEX
  8
EBENE_1
 62
    39
  6
CONTINUOUS
 10
0.367091
 20
-0.021500
  0
VERTEX
  8
EBENE_1
 62
    39
  6
CONTINUOUS
 10
0.405609
 20
-0.006537
  0
VERTEX
  8
EBENE_1
 62
    39
  6
CONTINUOUS
 10
0.441905
 20
0.015537
  0
VERTEX
  8
EBENE_1
 62
    39
  6
CONTINUOUS
 10
0.477091
 20
0.028500
  0
VERTEX
  8
EBENE_1
 62
    39
  6
CONTINUOUS
 10
0.495809
 20
-0.016156
  0
VERTEX
  8
EBENE_1
 62
    39
  6
CONTINUOUS
 10
0.521091
 20
-0.042250
  0
VERTEX
  8
EBENE_1
 62
    39
  6
CONTINUOUS
 10
0.558372
 20
-0.054469
  0
VERTEX
  8
EBENE_1
 62
    39
  6
CONTINUOUS
 10
0.613091
 20
-0.057500
  0
VERTEX
  8
EBENE_1
 62
    39
  6
CONTINUOUS
 10
0.652054
 20
-0.038500
  0
VERTEX
  8
EBENE_1
 62
    39
  6
CONTINUOUS
 10
0.677461
 20
-0.009500
  0
VERTEX
  8
EBENE_1
 62
    39
  6
CONTINUOUS
 10
0.699091
 20
0.029500
  0
VERTEX
  8
EBENE_1
 62
    39
  6
CONTINUOUS
 10
0.727247
 20
0.064781
  0
VERTEX
  8
EBENE_1
 62
    39
  6
CONTINUOUS
 10
0.733841
 20
0.101000
  0
VERTEX
  8
EBENE_1
 62
    39
  6
CONTINUOUS
 10
0.723559
 20
0.139469
  0
VERTEX
  8
EBENE_1
 62
    39
  6
CONTINUOUS
 10
0.701091
 20
0.181500
  0
VERTEX
  8
EBENE_1
 62
    39
  6
CONTINUOUS
 10
0.685512
 20
0.215172
  0
VERTEX
  8
EBENE_1
 62
    39
  6
CONTINUOUS
 10
0.654466
 20
0.231125
  0
VERTEX
  8
EBENE_1
 62
    39
  6
CONTINUOUS
 10
0.615731
 20
0.236766
  0
VERTEX
  8
EBENE_1
 62
    39
  6
CONTINUOUS
 10
0.577091
 20
0.239500
  0
VERTEX
  8
EBENE_1
 62
    39
  6
CONTINUOUS
 10
0.565128
 20
0.247500
  0
VERTEX
  8
EBENE_1
 62
    39
  6
CONTINUOUS
 10
0.553387
 20
0.255500
  0
VERTEX
  8
EBENE_1
 62
    39
  6
CONTINUOUS
 10
0.542091
 20
0.263500
  0
VERTEX
  8
EBENE_1
 62
    39
  6
CONTINUOUS
 10
0.525251
 20
0.297598
  0
VERTEX
  8
EBENE_1
 62
    39
  6
CONTINUOUS
 10
0.505878
 20
0.329949
  0
VERTEX
  8
EBENE_1
 62
    39
  6
CONTINUOUS
 10
0.484184
 20
0.360641
  0
VERTEX
  8
EBENE_1
 62
    39
  6
CONTINUOUS
 10
0.460387
 20
0.389759
  0
VERTEX
  8
EBENE_1
 62
    39
  6
CONTINUOUS
 10
0.434701
 20
0.417392
  0
VERTEX
  8
EBENE_1
 62
    39
  6
CONTINUOUS
 10
0.407341
 20
0.443625
  0
VERTEX
  8
EBENE_1
 62
    39
  6
CONTINUOUS
 10
0.378522
 20
0.468546
  0
VERTEX
  8
EBENE_1
 62
    39
  6
CONTINUOUS
 10
0.348461
 20
0.492241
  0
VERTEX
  8
EBENE_1
 62
    39
  6
CONTINUOUS
 10
0.317372
 20
0.514797
  0
VERTEX
  8
EBENE_1
 62
    39
  6
CONTINUOUS
 10
0.285470
 20
0.536301
  0
VERTEX
  8
EBENE_1
 62
    39
  6
CONTINUOUS
 10
0.252971
 20
0.556840
  0
VERTEX
  8
EBENE_1
 62
    39
  6
CONTINUOUS
 10
0.220091
 20
0.576500
  0
VERTEX
  8
EBENE_1
 62
    39
  6
CONTINUOUS
 10
0.182424
 20
0.591120
  0
VERTEX
  8
EBENE_1
 62
    39
  6
CONTINUOUS
 10
0.144863
 20
0.602477
  0
VERTEX
  8
EBENE_1
 62
    39
  6
CONTINUOUS
 10
0.107420
 20
0.610676
  0
VERTEX
  8
EBENE_1
 62
    39
  6
CONTINUOUS
 10
0.070108
 20
0.615824
  0
VERTEX
  8
EBENE_1
 62
    39
  6
CONTINUOUS
 10
0.032940
 20
0.618023
  0
VERTEX
  8
EBENE_1
 62
    39
  6
CONTINUOUS
 10
-0.004070
 20
0.617380
  0
VERTEX
  8
EBENE_1
 62
    39
  6
CONTINUOUS
 10
-0.040909
 20
0.614000
  0
VERTEX
  8
EBENE_1
 62
    39
  6
CONTINUOUS
 10
-0.077565
 20
0.607987
  0
VERTEX
  8
EBENE_1
 62
    39
  6
CONTINUOUS
 10
-0.114025
 20
0.599446
  0
VERTEX
  8
EBENE_1
 62
    39
  6
CONTINUOUS
 10
-0.150274
 20
0.588483
  0
VERTEX
  8
EBENE_1
 62
    39
  6
CONTINUOUS
 10
-0.186300
 20
0.575201
  0
VERTEX
  8
EBENE_1
 62
    39
  6
CONTINUOUS
 10
-0.222090
 20
0.559707
  0
VERTEX
  8
EBENE_1
 62
    39
  6
CONTINUOUS
 10
-0.257631
 20
0.542105
  0
VERTEX
  8
EBENE_1
 62
    39
  6
CONTINUOUS
 10
-0.292909
 20
0.522500
  0
VERTEX
  8
EBENE_1
 62
    39
  6
CONTINUOUS
 10
-0.324502
 20
0.535870
  0
VERTEX
  8
EBENE_1
 62
    39
  6
CONTINUOUS
 10
-0.355650
 20
0.545463
  0
VERTEX
  8
EBENE_1
 62
    39
  6
CONTINUOUS
 10
-0.389909
 20
0.541500
  0
VERTEX
  8
EBENE_1
 62
    39
  6
CONTINUOUS
 10
-0.408613
 20
0.517315
  0
VERTEX
  8
EBENE_1
 62
    39
  6
CONTINUOUS
 10
-0.434872
 20
0.501352
  0
VERTEX
  8
EBENE_1
 62
    39
  6
CONTINUOUS
 10
-0.462909
 20
0.488500
  0
VERTEX
  8
EBENE_1
 62
    39
  6
CONTINUOUS
 10
-0.459872
 20
0.464093
  0
VERTEX
  8
EBENE_1
 62
    39
  6
CONTINUOUS
 10
-0.457280
 20
0.451907
  0
VERTEX
  8
EBENE_1
 62
    39
  6
CONTINUOUS
 10
-0.452909
 20
0.441500
  0
VERTEX
  8
EBENE_1
 62
    39
  6
CONTINUOUS
 10
-0.450909
 20
0.441500
  0
VERTEX
  8
EBENE_1
 62
    39
  6
CONTINUOUS
 10
-0.448909
 20
0.441500
  0
VERTEX
  8
EBENE_1
 62
    39
  6
CONTINUOUS
 10
-0.446909
 20
0.441500
  0
VERTEX
  8
EBENE_1
 62
    39
  6
CONTINUOUS
 10
-0.446613
 20
0.438500
  0
VERTEX
  8
EBENE_1
 62
    39
  6
CONTINUOUS
 10
-0.445872
 20
0.435500
  0
VERTEX
  8
EBENE_1
 62
    39
  6
CONTINUOUS
 10
-0.444909
 20
0.432500
  0
VERTEX
  8
EBENE_1
 62
    39
  6
CONTINUOUS
 10
-0.454909
 20
0.420500
  0
VERTEX
  8
EBENE_1
 62
    39
  6
CONTINUOUS
 10
-0.464909
 20
0.408500
  0
VERTEX
  8
EBENE_1
 62
    39
  6
CONTINUOUS
 10
-0.474909
 20
0.396500
  0
VERTEX
  8
EBENE_1
 62
    39
  6
CONTINUOUS
 10
-0.460280
 20
0.372833
  0
VERTEX
  8
EBENE_1
 62
    39
  6
CONTINUOUS
 10
-0.439872
 20
0.357167
  0
VERTEX
  8
EBENE_1
 62
    39
  6
CONTINUOUS
 10
-0.415909
 20
0.345500
  0
VERTEX
  8
EBENE_1
 62
    39
  6
CONTINUOUS
 10
-0.416132
 20
0.332500
  0
VERTEX
  8
EBENE_1
 62
    39
  6
CONTINUOUS
 10
-0.417021
 20
0.310167
  0
VERTEX
  8
EBENE_1
 62
    39
  6
CONTINUOUS
 10
-0.415909
 20
0.270500
  0
VERTEX
  8
EBENE_1
 62
    39
  6
CONTINUOUS
 10
-0.453835
 20
0.246833
  0
VERTEX
  8
EBENE_1
 62
    39
  6
CONTINUOUS
 10
-0.491317
 20
0.221167
  0
VERTEX
  8
EBENE_1
 62
    39
  6
CONTINUOUS
 10
-0.527909
 20
0.195500
  0
VERTEX
  8
EBENE_1
 62
    39
  6
CONTINUOUS
 10
-0.532613
 20
0.165907
  0
VERTEX
  8
EBENE_1
 62
    39
  6
CONTINUOUS
 10
-0.522872
 20
0.142093
  0
VERTEX
  8
EBENE_1
 62
    39
  6
CONTINUOUS
 10
-0.504909
 20
0.116500
  0
VERTEX
  8
EBENE_1
 62
    39
  6
CONTINUOUS
 10
-0.524243
 20
0.093389
  0
VERTEX
  8
EBENE_1
 62
    39
  6
CONTINUOUS
 10
-0.542909
 20
0.069611
  0
VERTEX
  8
EBENE_1
 62
    39
  6
CONTINUOUS
 10
-0.558909
 20
0.044500
  0
VERTEX
  8
EBENE_1
 62
    39
  6
CONTINUOUS
 10
-0.541798
 20
0.017241
  0
VERTEX
  8
EBENE_1
 62
    39
  6
CONTINUOUS
 10
-0.510021
 20
0.002426
  0
VERTEX
  8
EBENE_1
 62
    39
  6
CONTINUOUS
 10
-0.492909
 20
-0.019500
  0
VERTEX
  8
EBENE_1
 62
    39
  6
CONTINUOUS
 10
-0.518428
 20
-0.025278
  0
VERTEX
  8
EBENE_1
 62
    39
  6
CONTINUOUS
 10
-0.543058
 20
-0.026389
  0
VERTEX
  8
EBENE_1
 62
    39
  6
CONTINUOUS
 10
-0.569909
 20
-0.025500
  0
VERTEX
  8
EBENE_1
 62
    39
  6
CONTINUOUS
 10
-0.567058
 20
-0.053907
  0
VERTEX
  8
EBENE_1
 62
    39
  6
CONTINUOUS
 10
-0.561761
 20
-0.080759
  0
VERTEX
  8
EBENE_1
 62
    39
  6
CONTINUOUS
 10
-0.558909
 20
-0.108500
  0
VERTEX
  8
EBENE_1
 62
    39
  6
CONTINUOUS
 10
-0.567280
 20
-0.141759
  0
VERTEX
  8
EBENE_1
 62
    39
  6
CONTINUOUS
 10
-0.572539
 20
-0.173907
  0
VERTEX
  8
EBENE_1
 62
    39
  6
CONTINUOUS
 10
-0.574909
 20
-0.208500
  0
VERTEX
  8
EBENE_1
 62
    39
  6
CONTINUOUS
 10
-0.563909
 20
-0.237500
  0
VERTEX
  8
EBENE_1
 62
    39
  6
CONTINUOUS
 10
-0.552909
 20
-0.266500
  0
VERTEX
  8
EBENE_1
 62
    39
  6
CONTINUOUS
 10
-0.541909
 20
-0.295500
  0
VERTEX
  8
EBENE_1
 62
    39
  6
CONTINUOUS
 10
-0.540058
 20
-0.338585
  0
VERTEX
  8
EBENE_1
 62
    39
  6
CONTINUOUS
 10
-0.538609
 20
-0.379727
  0
VERTEX
  8
EBENE_1
 62
    39
  6
CONTINUOUS
 10
-0.536006
 20
-0.419191
  0
VERTEX
  8
EBENE_1
 62
    39
  6
CONTINUOUS
 10
-0.530691
 20
-0.457238
  0
VERTEX
  8
EBENE_1
 62
    39
  6
CONTINUOUS
 10
-0.521108
 20
-0.494130
  0
VERTEX
  8
EBENE_1
 62
    39
  6
CONTINUOUS
 10
-0.505700
 20
-0.530130
  0
VERTEX
  8
EBENE_1
 62
    39
  6
CONTINUOUS
 10
-0.482909
 20
-0.565500
  0
VERTEX
  8
EBENE_1
 62
    39
  6
CONTINUOUS
 10
-0.460021
 20
-0.558833
  0
VERTEX
  8
EBENE_1
 62
    39
  6
CONTINUOUS
 10
-0.439132
 20
-0.548833
  0
VERTEX
  8
EBENE_1
 62
    39
  6
CONTINUOUS
 10
-0.416909
 20
-0.541500
  0
VERTEX
  8
EBENE_1
 62
    39
  6
CONTINUOUS
 10
-0.419909
 20
-0.574463
  0
VERTEX
  8
EBENE_1
 62
    39
  6
CONTINUOUS
 10
-0.422909
 20
-0.607204
  0
VERTEX
  8
EBENE_1
 62
    39
  6
CONTINUOUS
 10
-0.425909
 20
-0.639500
  0
VERTEX
  8
EBENE_1
 62
    39
  6
CONTINUOUS
 10
-0.466226
 20
-0.636076
  0
VERTEX
  8
EBENE_1
 62
    39
  6
CONTINUOUS
 10
-0.505926
 20
-0.631220
  0
VERTEX
  8
EBENE_1
 62
    39
  6
CONTINUOUS
 10
-0.545132
 20
-0.625056
  0
VERTEX
  8
EBENE_1
 62
    39
  6
CONTINUOUS
 10
-0.583967
 20
-0.617706
  0
VERTEX
  8
EBENE_1
 62
    39
  6
CONTINUOUS
 10
-0.622556
 20
-0.609294
  0
VERTEX
  8
EBENE_1
 62
    39
  6
CONTINUOUS
 10
-0.661021
 20
-0.599944
  0
VERTEX
  8
EBENE_1
 62
    39
  6
CONTINUOUS
 10
-0.699486
 20
-0.589780
  0
VERTEX
  8
EBENE_1
 62
    39
  6
CONTINUOUS
 10
-0.738074
 20
-0.578924
  0
VERTEX
  8
EBENE_1
 62
    39
  6
CONTINUOUS
 10
-0.776909
 20
-0.567500
  0
VERTEX
  8
EBENE_1
 62
    39
  6
CONTINUOUS
 10
-0.792872
 20
-0.569204
  0
VERTEX
  8
EBENE_1
 62
    39
  6
CONTINUOUS
 10
-0.808613
 20
-0.570463
  0
VERTEX
  8
EBENE_1
 62
    39
  6
CONTINUOUS
 10
-0.823909
 20
-0.571500
  0
VERTEX
  8
EBENE_1
 62
    39
  6
CONTINUOUS
 10
-0.844021
 20
-0.596537
  0
VERTEX
  8
EBENE_1
 62
    39
  6
CONTINUOUS
 10
-0.858132
 20
-0.588463
  0
VERTEX
  8
EBENE_1
 62
    39
  6
CONTINUOUS
 10
-0.880909
 20
-0.569500
  0
VERTEX
  8
EBENE_1
 62
    39
  6
CONTINUOUS
 10
-0.889761
 20
-0.558315
  0
VERTEX
  8
EBENE_1
 62
    39
  6
CONTINUOUS
 10
-0.907724
 20
-0.544685
  0
VERTEX
  8
EBENE_1
 62
    39
  6
CONTINUOUS
 10
-0.921909
 20
-0.531500
  0
VERTEX
  8
EBENE_1
 62
    39
  6
CONTINUOUS
 10
-0.920470
 20
-0.493921
  0
VERTEX
  8
EBENE_1
 62
    39
  6
CONTINUOUS
 10
-0.919032
 20
-0.456307
  0
VERTEX
  8
EBENE_1
 62
    39
  6
CONTINUOUS
 10
-0.917598
 20
-0.418661
  0
VERTEX
  8
EBENE_1
 62
    39
  6
CONTINUOUS
 10
-0.916170
 20
-0.380986
  0
VERTEX
  8
EBENE_1
 62
    39
  6
CONTINUOUS
 10
-0.914749
 20
-0.343284
  0
VERTEX
  8
EBENE_1
 62
    39
  6
CONTINUOUS
 10
-0.913339
 20
-0.305559
  0
VERTEX
  8
EBENE_1
 62
    39
  6
CONTINUOUS
 10
-0.911939
 20
-0.267815
  0
VERTEX
  8
EBENE_1
 62
    39
  6
CONTINUOUS
 10
-0.910553
 20
-0.230053
  0
VERTEX
  8
EBENE_1
 62
    39
  6
CONTINUOUS
 10
-0.909183
 20
-0.192278
  0
VERTEX
  8
EBENE_1
 62
    39
  6
CONTINUOUS
 10
-0.907829
 20
-0.154492
  0
VERTEX
  8
EBENE_1
 62
    39
  6
CONTINUOUS
 10
-0.906495
 20
-0.116698
  0
VERTEX
  8
EBENE_1
 62
    39
  6
CONTINUOUS
 10
-0.905182
 20
-0.078900
  0
VERTEX
  8
EBENE_1
 62
    39
  6
CONTINUOUS
 10
-0.903892
 20
-0.041100
  0
VERTEX
  8
EBENE_1
 62
    39
  6
CONTINUOUS
 10
-0.902628
 20
-0.003302
  0
VERTEX
  8
EBENE_1
 62
    39
  6
CONTINUOUS
 10
-0.901389
 20
0.034492
  0
VERTEX
  8
EBENE_1
 62
    39
  6
CONTINUOUS
 10
-0.900180
 20
0.072278
  0
VERTEX
  8
EBENE_1
 62
    39
  6
CONTINUOUS
 10
-0.899002
 20
0.110053
  0
VERTEX
  8
EBENE_1
 62
    39
  6
CONTINUOUS
 10
-0.897856
 20
0.147815
  0
VERTEX
  8
EBENE_1
 62
    39
  6
CONTINUOUS
 10
-0.896744
 20
0.185559
  0
VERTEX
  8
EBENE_1
 62
    39
  6
CONTINUOUS
 10
-0.895669
 20
0.223284
  0
VERTEX
  8
EBENE_1
 62
    39
  6
CONTINUOUS
 10
-0.894633
 20
0.260986
  0
VERTEX
  8
EBENE_1
 62
    39
  6
CONTINUOUS
 10
-0.893637
 20
0.298661
  0
VERTEX
  8
EBENE_1
 62
    39
  6
CONTINUOUS
 10
-0.892683
 20
0.336307
  0
VERTEX
  8
EBENE_1
 62
    39
  6
CONTINUOUS
 10
-0.891773
 20
0.373921
  0
VERTEX
  8
EBENE_1
 62
    39
  6
CONTINUOUS
 10
-0.890909
 20
0.411500
  0
VERTEX
  8
EBENE_1
 62
    39
  6
CONTINUOUS
 10
-0.882465
 20
0.413981
  0
VERTEX
  8
EBENE_1
 62
    39
  6
CONTINUOUS
 10
-0.877354
 20
0.418019
  0
VERTEX
  8
EBENE_1
 62
    39
  6
CONTINUOUS
 10
-0.872909
 20
0.424500
  0
VERTEX
  8
EBENE_1
 62
    39
  6
CONTINUOUS
 10
-0.837425
 20
0.436612
  0
VERTEX
  8
EBENE_1
 62
    39
  6
CONTINUOUS
 10
-0.802063
 20
0.449217
  0
VERTEX
  8
EBENE_1
 62
    39
  6
CONTINUOUS
 10
-0.766813
 20
0.462267
  0
VERTEX
  8
EBENE_1
 62
    39
  6
CONTINUOUS
 10
-0.731661
 20
0.475716
  0
VERTEX
  8
EBENE_1
 62
    39
  6
CONTINUOUS
 10
-0.696597
 20
0.489516
  0
VERTEX
  8
EBENE_1
 62
    39
  6
CONTINUOUS
 10
-0.661607
 20
0.503619
  0
VERTEX
  8
EBENE_1
 62
    39
  6
CONTINUOUS
 10
-0.626681
 20
0.517979
  0
VERTEX
  8
EBENE_1
 62
    39
  6
CONTINUOUS
 10
-0.591805
 20
0.532548
  0
VERTEX
  8
EBENE_1
 62
    39
  6
CONTINUOUS
 10
-0.556969
 20
0.547279
  0
VERTEX
  8
EBENE_1
 62
    39
  6
CONTINUOUS
 10
-0.522159
 20
0.562125
  0
VERTEX
  8
EBENE_1
 62
    39
  6
CONTINUOUS
 10
-0.487365
 20
0.577038
  0
VERTEX
  8
EBENE_1
 62
    39
  6
CONTINUOUS
 10
-0.452573
 20
0.591972
  0
VERTEX
  8
EBENE_1
 62
    39
  6
CONTINUOUS
 10
-0.417773
 20
0.606879
  0
VERTEX
  8
EBENE_1
 62
    39
  6
CONTINUOUS
 10
-0.382951
 20
0.621711
  0
VERTEX
  8
EBENE_1
 62
    39
  6
CONTINUOUS
 10
-0.348097
 20
0.636422
  0
VERTEX
  8
EBENE_1
 62
    39
  6
CONTINUOUS
 10
-0.313197
 20
0.650964
  0
VERTEX
  8
EBENE_1
 62
    39
  6
CONTINUOUS
 10
-0.278241
 20
0.665290
  0
VERTEX
  8
EBENE_1
 62
    39
  6
CONTINUOUS
 10
-0.243215
 20
0.679353
  0
VERTEX
  8
EBENE_1
 62
    39
  6
CONTINUOUS
 10
-0.208109
 20
0.693105
  0
VERTEX
  8
EBENE_1
 62
    39
  6
CONTINUOUS
 10
-0.172909
 20
0.706500
  0
VERTEX
  8
EBENE_1
 62
    39
  6
CONTINUOUS
 10
-0.121909
 20
0.719537
  0
VERTEX
  8
EBENE_1
 62
    39
  6
CONTINUOUS
 10
-0.070909
 20
0.732796
  0
VERTEX
  8
EBENE_1
 62
    39
  6
CONTINUOUS
 10
-0.019909
 20
0.746500
  0
VERTEX
  8
EBENE_1
 62
    39
  6
CONTINUOUS
 10
0.017638
 20
0.752790
  0
VERTEX
  8
EBENE_1
 62
    39
  6
CONTINUOUS
 10
0.055080
 20
0.758392
  0
VERTEX
  8
EBENE_1
 62
    39
  6
CONTINUOUS
 10
0.092419
 20
0.763204
  0
VERTEX
  8
EBENE_1
 62
    39
  6
CONTINUOUS
 10
0.129656
 20
0.767126
  0
VERTEX
  8
EBENE_1
 62
    39
  6
CONTINUOUS
 10
0.166794
 20
0.770056
  0
VERTEX
  8
EBENE_1
 62
    39
  6
CONTINUOUS
 10
0.203835
 20
0.771892
  0
VERTEX
  8
EBENE_1
 62
    39
  6
CONTINUOUS
 10
0.240779
 20
0.772534
  0
VERTEX
  8
EBENE_1
 62
    39
  6
CONTINUOUS
 10
0.277629
 20
0.771880
  0
VERTEX
  8
EBENE_1
 62
    39
  6
CONTINUOUS
 10
0.314387
 20
0.769828
  0
VERTEX
  8
EBENE_1
 62
    39
  6
CONTINUOUS
 10
0.351054
 20
0.766278
  0
VERTEX
  8
EBENE_1
 62
    39
  6
CONTINUOUS
 10
0.387632
 20
0.761128
  0
VERTEX
  8
EBENE_1
 62
    39
  6
CONTINUOUS
 10
0.424123
 20
0.754276
  0
VERTEX
  8
EBENE_1
 62
    39
  6
CONTINUOUS
 10
0.460528
 20
0.745622
  0
VERTEX
  8
EBENE_1
 62
    39
  6
CONTINUOUS
 10
0.496850
 20
0.735064
  0
VERTEX
  8
EBENE_1
 62
    39
  6
CONTINUOUS
 10
0.533091
 20
0.722500
  0
VERTEX
  8
EBENE_1
 62
    39
  6
CONTINUOUS
 10
0.575235
 20
0.698612
  0
VERTEX
  8
EBENE_1
 62
    39
  6
CONTINUOUS
 10
0.615363
 20
0.672516
  0
VERTEX
  8
EBENE_1
 62
    39
  6
CONTINUOUS
 10
0.653619
 20
0.644164
  0
VERTEX
  8
EBENE_1
 62
    39
  6
CONTINUOUS
 10
0.690147
 20
0.613508
  0
VERTEX
  8
EBENE_1
 62
    39
  6
CONTINUOUS
 10
0.725091
 20
0.580500
  0
VERTEX
  8
EBENE_1
 62
    39
  6
CONTINUOUS
 10
0.752091
 20
0.543500
  0
VERTEX
  8
EBENE_1
 62
    39
  6
CONTINUOUS
 10
0.779091
 20
0.506500
  0
VERTEX
  8
EBENE_1
 62
    39
  6
CONTINUOUS
 10
0.806091
 20
0.469500
  0
VERTEX
  8
EBENE_1
 62
    39
  6
CONTINUOUS
 10
0.832716
 20
0.421516
  0
VERTEX
  8
EBENE_1
 62
    39
  6
CONTINUOUS
 10
0.855591
 20
0.378125
  0
VERTEX
  8
EBENE_1
 62
    39
  6
CONTINUOUS
 10
0.876966
 20
0.337172
  0
VERTEX
  8
EBENE_1
 62
    39
  6
CONTINUOUS
 10
0.899091
 20
0.296500
  0
VERTEX
  8
EBENE_1
 62
    39
  6
CONTINUOUS
 10
0.926364
 20
0.263144
  0
VERTEX
  8
EBENE_1
 62
    39
  6
CONTINUOUS
 10
0.955276
 20
0.231315
  0
VERTEX
  8
EBENE_1
 62
    39
  6
CONTINUOUS
 10
0.985966
 20
0.201375
  0
VERTEX
  8
EBENE_1
 62
    39
  6
CONTINUOUS
 10
1.018572
 20
0.173685
  0
VERTEX
  8
EBENE_1
 62
    39
  6
CONTINUOUS
 10
1.053234
 20
0.148606
  0
VERTEX
  8
EBENE_1
 62
    39
  6
CONTINUOUS
 10
1.090091
 20
0.126500
  0
VERTEX
  8
EBENE_1
 62
    39
  6
CONTINUOUS
 10
1.112276
 20
0.112278
  0
VERTEX
  8
EBENE_1
 62
    39
  6
CONTINUOUS
 10
1.154239
 20
0.083389
  0
VERTEX
  8
EBENE_1
 62
    39
  6
CONTINUOUS
 10
1.179091
 20
0.060500
  0
VERTEX
  8
EBENE_1
 62
    39
  6
CONTINUOUS
 10
1.216165
 20
0.028907
  0
VERTEX
  8
EBENE_1
 62
    39
  6
CONTINUOUS
 10
1.233683
 20
0.013093
  0
VERTEX
  8
EBENE_1
 62
    39
  6
CONTINUOUS
 10
1.244091
 20
0.005500
  0
VERTEX
  8
EBENE_1
 62
    39
  6
CONTINUOUS
 10
1.269867
 20
-0.030268
  0
VERTEX
  8
EBENE_1
 62
    39
  6
CONTINUOUS
 10
1.294299
 20
-0.066804
  0
VERTEX
  8
EBENE_1
 62
    39
  6
CONTINUOUS
 10
1.317243
 20
-0.104156
  0
VERTEX
  8
EBENE_1
 62
    39
  6
CONTINUOUS
 10
1.338555
 20
-0.142372
  0
VERTEX
  8
EBENE_1
 62
    39
  6
CONTINUOUS
 10
1.358091
 20
-0.181500
  0
VERTEX
  8
EBENE_1
 62
    39
  6
CONTINUOUS
 10
1.368556
 20
-0.217180
  0
VERTEX
  8
EBENE_1
 62
    39
  6
CONTINUOUS
 10
1.378123
 20
-0.253102
  0
VERTEX
  8
EBENE_1
 62
    39
  6
CONTINUOUS
 10
1.386897
 20
-0.289237
  0
VERTEX
  8
EBENE_1
 62
    39
  6
CONTINUOUS
 10
1.394987
 20
-0.325556
  0
VERTEX
  8
EBENE_1
 62
    39
  6
CONTINUOUS
 10
1.402497
 20
-0.362031
  0
VERTEX
  8
EBENE_1
 62
    39
  6
CONTINUOUS
 10
1.409535
 20
-0.398634
  0
VERTEX
  8
EBENE_1
 62
    39
  6
CONTINUOUS
 10
1.416206
 20
-0.435336
  0
VERTEX
  8
EBENE_1
 62
    39
  6
CONTINUOUS
 10
1.422619
 20
-0.472108
  0
VERTEX
  8
EBENE_1
 62
    39
  6
CONTINUOUS
 10
1.428878
 20
-0.508922
  0
VERTEX
  8
EBENE_1
 62
    39
  6
CONTINUOUS
 10
1.435091
 20
-0.545750
  0
VERTEX
  8
EBENE_1
 62
    39
  6
CONTINUOUS
 10
1.441363
 20
-0.582563
  0
VERTEX
  8
EBENE_1
 62
    39
  6
CONTINUOUS
 10
1.447803
 20
-0.619332
  0
VERTEX
  8
EBENE_1
 62
    39
  6
CONTINUOUS
 10
1.454515
 20
-0.656029
  0
VERTEX
  8
EBENE_1
 62
    39
  6
CONTINUOUS
 10
1.461607
 20
-0.692626
  0
VERTEX
  8
EBENE_1
 62
    39
  6
CONTINUOUS
 10
1.469184
 20
-0.729094
  0
VERTEX
  8
EBENE_1
 62
    39
  6
CONTINUOUS
 10
1.477355
 20
-0.765404
  0
VERTEX
  8
EBENE_1
 62
    39
  6
CONTINUOUS
 10
1.486224
 20
-0.801528
  0
VERTEX
  8
EBENE_1
 62
    39
  6
CONTINUOUS
 10
1.495899
 20
-0.837438
  0
VERTEX
  8
EBENE_1
 62
    39
  6
CONTINUOUS
 10
1.506485
 20
-0.873105
  0
VERTEX
  8
EBENE_1
 62
    39
  6
CONTINUOUS
 10
1.518091
 20
-0.908500
  0
VERTEX
  8
EBENE_1
 62
    39
  6
CONTINUOUS
 10
1.527091
 20
-0.943204
  0
VERTEX
  8
EBENE_1
 62
    39
  6
CONTINUOUS
 10
1.536091
 20
-0.977463
  0
VERTEX
  8
EBENE_1
 62
    39
  6
CONTINUOUS
 10
1.545091
 20
-1.011500
  0
VERTEX
  8
EBENE_1
 62
    39
  6
CONTINUOUS
 10
1.548931
 20
-1.059500
  0
VERTEX
  8
EBENE_1
 62
    39
  6
CONTINUOUS
 10
1.552051
 20
-1.107500
  0
VERTEX
  8
EBENE_1
 62
    39
  6
CONTINUOUS
 10
1.554451
 20
-1.155500
  0
VERTEX
  8
EBENE_1
 62
    39
  6
CONTINUOUS
 10
1.556131
 20
-1.203500
  0
VERTEX
  8
EBENE_1
 62
    39
  6
CONTINUOUS
 10
1.557091
 20
-1.251500
  0
SEQEND
  8
0
  0
POLYLINE
  8
EBENE_1
 62
    39
  6
CONTINUOUS
 66
     1
 40
0.003000
 41
0.003000
  0
VERTEX
  8
EBENE_1
 62
    39
  6
CONTINUOUS
 10
0.953091
 20
-2.291500
  0
VERTEX
  8
EBENE_1
 62
    39
  6
CONTINUOUS
 10
0.909778
 20
-2.318094
  0
VERTEX
  8
EBENE_1
 62
    39
  6
CONTINUOUS
 10
0.866841
 20
-2.342250
  0
VERTEX
  8
EBENE_1
 62
    39
  6
CONTINUOUS
 10
0.822028
 20
-2.361531
  0
VERTEX
  8
EBENE_1
 62
    39
  6
CONTINUOUS
 10
0.773091
 20
-2.373500
  0
SEQEND
  8
0
  0
POLYLINE
  8
EBENE_1
 62
    39
  6
CONTINUOUS
 66
     1
 40
0.003000
 41
0.003000
  0
VERTEX
  8
EBENE_1
 62
    39
  6
CONTINUOUS
 10
0.773091
 20
-2.373500
  0
VERTEX
  8
EBENE_1
 62
    39
  6
CONTINUOUS
 10
0.745387
 20
-2.373500
  0
VERTEX
  8
EBENE_1
 62
    39
  6
CONTINUOUS
 10
0.718128
 20
-2.373500
  0
VERTEX
  8
EBENE_1
 62
    39
  6
CONTINUOUS
 10
0.691091
 20
-2.373500
  0
SEQEND
  8
0
  0
POLYLINE
  8
EBENE_1
 62
    39
  6
CONTINUOUS
 66
     1
 40
0.003000
 41
0.003000
  0
VERTEX
  8
EBENE_1
 62
    39
  6
CONTINUOUS
 10
-0.114909
 20
-2.697500
  0
VERTEX
  8
EBENE_1
 62
    39
  6
CONTINUOUS
 10
-0.074995
 20
-2.693783
  0
VERTEX
  8
EBENE_1
 62
    39
  6
CONTINUOUS
 10
-0.035409
 20
-2.688391
  0
VERTEX
  8
EBENE_1
 62
    39
  6
CONTINUOUS
 10
0.003989
 20
-2.682084
  0
VERTEX
  8
EBENE_1
 62
    39
  6
CONTINUOUS
 10
0.043341
 20
-2.675625
  0
VERTEX
  8
EBENE_1
 62
    39
  6
CONTINUOUS
 10
0.082786
 20
-2.669775
  0
VERTEX
  8
EBENE_1
 62
    39
  6
CONTINUOUS
 10
0.122466
 20
-2.665297
  0
VERTEX
  8
EBENE_1
 62
    39
  6
CONTINUOUS
 10
0.162520
 20
-2.662951
  0
VERTEX
  8
EBENE_1
 62
    39
  6
CONTINUOUS
 10
0.203091
 20
-2.663500
  0
SEQEND
  8
0
  0
POLYLINE
  8
EBENE_1
 62
    39
  6
CONTINUOUS
 66
     1
 40
0.003000
 41
0.003000
  0
VERTEX
  8
EBENE_1
 62
    39
  6
CONTINUOUS
 10
0.203091
 20
-2.663500
  0
VERTEX
  8
EBENE_1
 62
    39
  6
CONTINUOUS
 10
0.247356
 20
-2.673078
  0
VERTEX
  8
EBENE_1
 62
    39
  6
CONTINUOUS
 10
0.291716
 20
-2.682375
  0
VERTEX
  8
EBENE_1
 62
    39
  6
CONTINUOUS
 10
0.336262
 20
-2.691484
  0
VERTEX
  8
EBENE_1
 62
    39
  6
CONTINUOUS
 10
0.381091
 20
-2.700500
  0
SEQEND
  8
0
  0
POLYLINE
  8
EBENE_1
 62
    39
  6
CONTINUOUS
 66
     1
 40
0.003000
 41
0.003000
  0
VERTEX
  8
EBENE_1
 62
    39
  6
CONTINUOUS
 10
0.381091
 20
-2.700500
  0
VERTEX
  8
EBENE_1
 62
    39
  6
CONTINUOUS
 10
0.427459
 20
-2.701612
  0
VERTEX
  8
EBENE_1
 62
    39
  6
CONTINUOUS
 10
0.473155
 20
-2.700996
  0
VERTEX
  8
EBENE_1
 62
    39
  6
CONTINUOUS
 10
0.518467
 20
-2.698124
  0
VERTEX
  8
EBENE_1
 62
    39
  6
CONTINUOUS
 10
0.563683
 20
-2.692468
  0
VERTEX
  8
EBENE_1
 62
    39
  6
CONTINUOUS
 10
0.609091
 20
-2.683500
  0
SEQEND
  8
0
  0
POLYLINE
  8
EBENE_1
 62
    39
  6
CONTINUOUS
 66
     1
 40
0.003000
 41
0.003000
  0
VERTEX
  8
EBENE_1
 62
    39
  6
CONTINUOUS
 10
0.609091
 20
-2.683500
  0
VERTEX
  8
EBENE_1
 62
    39
  6
CONTINUOUS
 10
0.646187
 20
-2.669900
  0
VERTEX
  8
EBENE_1
 62
    39
  6
CONTINUOUS
 10
0.674979
 20
-2.658940
  0
VERTEX
  8
EBENE_1
 62
    39
  6
CONTINUOUS
 10
0.704923
 20
-2.646780
  0
VERTEX
  8
EBENE_1
 62
    39
  6
CONTINUOUS
 10
0.745475
 20
-2.629580
  0
VERTEX
  8
EBENE_1
 62
    39
  6
CONTINUOUS
 10
0.806091
 20
-2.603500
  0
SEQEND
  8
0
  0
POLYLINE
  8
EBENE_1
 62
    39
  6
CONTINUOUS
 66
     1
 40
0.003000
 41
0.003000
  0
VERTEX
  8
EBENE_1
 62
    39
  6
CONTINUOUS
 10
0.806091
 20
-2.603500
  0
VERTEX
  8
EBENE_1
 62
    39
  6
CONTINUOUS
 10
0.841091
 20
-2.593907
  0
VERTEX
  8
EBENE_1
 62
    39
  6
CONTINUOUS
 10
0.871424
 20
-2.587426
  0
VERTEX
  8
EBENE_1
 62
    39
  6
CONTINUOUS
 10
0.923091
 20
-2.578500
  0
SEQEND
  8
0
  0
POLYLINE
  8
EBENE_1
 62
    39
  6
CONTINUOUS
 66
     1
 40
0.003000
 41
0.003000
  0
VERTEX
  8
EBENE_1
 62
    39
  6
CONTINUOUS
 10
0.923091
 20
-2.578500
  0
VERTEX
  8
EBENE_1
 62
    39
  6
CONTINUOUS
 10
0.923091
 20
-2.582204
  0
VERTEX
  8
EBENE_1
 62
    39
  6
CONTINUOUS
 10
0.923091
 20
-2.585463
  0
VERTEX
  8
EBENE_1
 62
    39
  6
CONTINUOUS
 10
0.923091
 20
-2.588500
  0
SEQEND
  8
0
  0
POLYLINE
  8
EBENE_1
 62
    39
  6
CONTINUOUS
 66
     1
 40
0.003000
 41
0.003000
  0
VERTEX
  8
EBENE_1
 62
    39
  6
CONTINUOUS
 10
0.504134
 20
-0.259169
  0
VERTEX
  8
EBENE_1
 62
    39
  6
CONTINUOUS
 10
0.520562
 20
-0.293029
  0
VERTEX
  8
EBENE_1
 62
    39
  6
CONTINUOUS
 10
0.536530
 20
-0.326864
  0
VERTEX
  8
EBENE_1
 62
    39
  6
CONTINUOUS
 10
0.552044
 20
-0.360684
  0
VERTEX
  8
EBENE_1
 62
    39
  6
CONTINUOUS
 10
0.567111
 20
-0.394499
  0
VERTEX
  8
EBENE_1
 62
    39
  6
CONTINUOUS
 10
0.581736
 20
-0.428318
  0
VERTEX
  8
EBENE_1
 62
    39
  6
CONTINUOUS
 10
0.595926
 20
-0.462151
  0
VERTEX
  8
EBENE_1
 62
    39
  6
CONTINUOUS
 10
0.609686
 20
-0.496009
  0
VERTEX
  8
EBENE_1
 62
    39
  6
CONTINUOUS
 10
0.623023
 20
-0.529901
  0
VERTEX
  8
EBENE_1
 62
    39
  6
CONTINUOUS
 10
0.635944
 20
-0.563837
  0
VERTEX
  8
EBENE_1
 62
    39
  6
CONTINUOUS
 10
0.648453
 20
-0.597826
  0
VERTEX
  8
EBENE_1
 62
    39
  6
CONTINUOUS
 10
0.660558
 20
-0.631880
  0
VERTEX
  8
EBENE_1
 62
    39
  6
CONTINUOUS
 10
0.672264
 20
-0.666006
  0
VERTEX
  8
EBENE_1
 62
    39
  6
CONTINUOUS
 10
0.683577
 20
-0.700217
  0
VERTEX
  8
EBENE_1
 62
    39
  6
CONTINUOUS
 10
0.694504
 20
-0.734520
  0
VERTEX
  8
EBENE_1
 62
    39
  6
CONTINUOUS
 10
0.705051
 20
-0.768927
  0
VERTEX
  8
EBENE_1
 62
    39
  6
CONTINUOUS
 10
0.715224
 20
-0.803446
  0
VERTEX
  8
EBENE_1
 62
    39
  6
CONTINUOUS
 10
0.725029
 20
-0.838089
  0
VERTEX
  8
EBENE_1
 62
    39
  6
CONTINUOUS
 10
0.734472
 20
-0.872864
  0
VERTEX
  8
EBENE_1
 62
    39
  6
CONTINUOUS
 10
0.743559
 20
-0.907781
  0
VERTEX
  8
EBENE_1
 62
    39
  6
CONTINUOUS
 10
0.752297
 20
-0.942851
  0
VERTEX
  8
EBENE_1
 62
    39
  6
CONTINUOUS
 10
0.760691
 20
-0.978084
  0
VERTEX
  8
EBENE_1
 62
    39
  6
CONTINUOUS
 10
0.768748
 20
-1.013488
  0
VERTEX
  8
EBENE_1
 62
    39
  6
CONTINUOUS
 10
0.776473
 20
-1.049074
  0
VERTEX
  8
EBENE_1
 62
    39
  6
CONTINUOUS
 10
0.783874
 20
-1.084853
  0
VERTEX
  8
EBENE_1
 62
    39
  6
CONTINUOUS
 10
0.790956
 20
-1.120833
  0
VERTEX
  8
EBENE_1
 62
    39
  6
CONTINUOUS
 10
0.797724
 20
-1.157024
  0
VERTEX
  8
EBENE_1
 62
    39
  6
CONTINUOUS
 10
0.804186
 20
-1.193437
  0
VERTEX
  8
EBENE_1
 62
    39
  6
CONTINUOUS
 10
0.810348
 20
-1.230081
  0
VERTEX
  8
EBENE_1
 62
    39
  6
CONTINUOUS
 10
0.816215
 20
-1.266967
  0
VERTEX
  8
EBENE_1
 62
    39
  6
CONTINUOUS
 10
0.821794
 20
-1.304103
  0
VERTEX
  8
EBENE_1
 62
    39
  6
CONTINUOUS
 10
0.827091
 20
-1.341500
  0
SEQEND
  8
0
  0
POLYLINE
  8
EBENE_1
 62
    39
  6
CONTINUOUS
 66
     1
 40
0.003000
 41
0.003000
  0
VERTEX
  8
EBENE_1
 62
    39
  6
CONTINUOUS
 10
-0.500909
 20
-2.384500
  0
VERTEX
  8
EBENE_1
 62
    39
  6
CONTINUOUS
 10
-0.483206
 20
-2.388389
  0
VERTEX
  8
EBENE_1
 62
    39
  6
CONTINUOUS
 10
-0.436613
 20
-2.401611
  0
VERTEX
  8
EBENE_1
 62
    39
  6
CONTINUOUS
 10
-0.346909
 20
-2.423500
  0
SEQEND
  8
0
  0
POLYLINE
  8
EBENE_1
 62
    39
  6
CONTINUOUS
 66
     1
 40
0.003000
 41
0.003000
  0
VERTEX
  8
EBENE_1
 62
    39
  6
CONTINUOUS
 10
-0.346909
 20
-2.423500
  0
VERTEX
  8
EBENE_1
 62
    39
  6
CONTINUOUS
 10
-0.303323
 20
-2.421885
  0
VERTEX
  8
EBENE_1
 62
    39
  6
CONTINUOUS
 10
-0.262711
 20
-2.418660
  0
VERTEX
  8
EBENE_1
 62
    39
  6
CONTINUOUS
 10
-0.224006
 20
-2.413687
  0
VERTEX
  8
EBENE_1
 62
    39
  6
CONTINUOUS
 10
-0.186140
 20
-2.406824
  0
VERTEX
  8
EBENE_1
 62
    39
  6
CONTINUOUS
 10
-0.148046
 20
-2.397931
  0
VERTEX
  8
EBENE_1
 62
    39
  6
CONTINUOUS
 10
-0.108659
 20
-2.386870
  0
VERTEX
  8
EBENE_1
 62
    39
  6
CONTINUOUS
 10
-0.066909
 20
-2.373500
  0
SEQEND
  8
0
  0
POLYLINE
  8
EBENE_1
 62
    39
  6
CONTINUOUS
 66
     1
 40
0.003000
 41
0.003000
  0
VERTEX
  8
EBENE_1
 62
    39
  6
CONTINUOUS
 10
-0.066909
 20
-2.373500
  0
VERTEX
  8
EBENE_1
 62
    39
  6
CONTINUOUS
 10
-0.028909
 20
-2.366204
  0
VERTEX
  8
EBENE_1
 62
    39
  6
CONTINUOUS
 10
0.009091
 20
-2.358463
  0
VERTEX
  8
EBENE_1
 62
    39
  6
CONTINUOUS
 10
0.047091
 20
-2.350500
  0
SEQEND
  8
0
  0
POLYLINE
  8
EBENE_1
 62
    39
  6
CONTINUOUS
 66
     1
 40
0.003000
 41
0.003000
  0
VERTEX
  8
EBENE_1
 62
    39
  6
CONTINUOUS
 10
0.047091
 20
-2.350500
  0
VERTEX
  8
EBENE_1
 62
    39
  6
CONTINUOUS
 10
0.092868
 20
-2.352875
  0
VERTEX
  8
EBENE_1
 62
    39
  6
CONTINUOUS
 10
0.138313
 20
-2.357500
  0
VERTEX
  8
EBENE_1
 62
    39
  6
CONTINUOUS
 10
0.183591
 20
-2.363625
  0
VERTEX
  8
EBENE_1
 62
    39
  6
CONTINUOUS
 10
0.228868
 20
-2.370500
  0
VERTEX
  8
EBENE_1
 62
    39
  6
CONTINUOUS
 10
0.274313
 20
-2.377375
  0
VERTEX
  8
EBENE_1
 62
    39
  6
CONTINUOUS
 10
0.320091
 20
-2.383500
  0
SEQEND
  8
0
  0
POLYLINE
  8
EBENE_1
 62
    39
  6
CONTINUOUS
 66
     1
 40
0.003000
 41
0.003000
  0
VERTEX
  8
EBENE_1
 62
    39
  6
CONTINUOUS
 10
0.320091
 20
-2.383500
  0
VERTEX
  8
EBENE_1
 62
    39
  6
CONTINUOUS
 10
0.365387
 20
-2.383204
  0
VERTEX
  8
EBENE_1
 62
    39
  6
CONTINUOUS
 10
0.411128
 20
-2.382463
  0
VERTEX
  8
EBENE_1
 62
    39
  6
CONTINUOUS
 10
0.457091
 20
-2.381500
  0
SEQEND
  8
0
  0
POLYLINE
  8
EBENE_1
 62
    39
  6
CONTINUOUS
 66
     1
 40
0.003000
 41
0.003000
  0
VERTEX
  8
EBENE_1
 62
    39
  6
CONTINUOUS
 10
-0.372909
 20
-1.178500
  0
VERTEX
  8
EBENE_1
 62
    39
  6
CONTINUOUS
 10
-0.334351
 20
-1.174257
  0
VERTEX
  8
EBENE_1
 62
    39
  6
CONTINUOUS
 10
-0.296205
 20
-1.168914
  0
VERTEX
  8
EBENE_1
 62
    39
  6
CONTINUOUS
 10
-0.258457
 20
-1.162470
  0
VERTEX
  8
EBENE_1
 62
    39
  6
CONTINUOUS
 10
-0.221095
 20
-1.154926
  0
VERTEX
  8
EBENE_1
 62
    39
  6
CONTINUOUS
 10
-0.184104
 20
-1.146281
  0
VERTEX
  8
EBENE_1
 62
    39
  6
CONTINUOUS
 10
-0.147471
 20
-1.136536
  0
VERTEX
  8
EBENE_1
 62
    39
  6
CONTINUOUS
 10
-0.111182
 20
-1.125689
  0
VERTEX
  8
EBENE_1
 62
    39
  6
CONTINUOUS
 10
-0.075224
 20
-1.113743
  0
VERTEX
  8
EBENE_1
 62
    39
  6
CONTINUOUS
 10
-0.039582
 20
-1.100695
  0
VERTEX
  8
EBENE_1
 62
    39
  6
CONTINUOUS
 10
-0.004243
 20
-1.086547
  0
VERTEX
  8
EBENE_1
 62
    39
  6
CONTINUOUS
 10
0.030806
 20
-1.071299
  0
VERTEX
  8
EBENE_1
 62
    39
  6
CONTINUOUS
 10
0.065579
 20
-1.054950
  0
VERTEX
  8
EBENE_1
 62
    39
  6
CONTINUOUS
 10
0.100091
 20
-1.037500
  0
SEQEND
  8
0
  0
POLYLINE
  8
EBENE_1
 62
    39
  6
CONTINUOUS
 66
     1
 40
0.003000
 41
0.003000
  0
VERTEX
  8
EBENE_1
 62
    39
  6
CONTINUOUS
 10
0.100091
 20
-1.037500
  0
VERTEX
  8
EBENE_1
 62
    39
  6
CONTINUOUS
 10
0.141176
 20
-1.009964
  0
VERTEX
  8
EBENE_1
 62
    39
  6
CONTINUOUS
 10
0.175632
 20
-0.983756
  0
VERTEX
  8
EBENE_1
 62
    39
  6
CONTINUOUS
 10
0.205855
 20
-0.957190
  0
VERTEX
  8
EBENE_1
 62
    39
  6
CONTINUOUS
 10
0.234242
 20
-0.928583
  0
VERTEX
  8
EBENE_1
 62
    39
  6
CONTINUOUS
 10
0.263188
 20
-0.896248
  0
VERTEX
  8
EBENE_1
 62
    39
  6
CONTINUOUS
 10
0.295091
 20
-0.858500
  0
SEQEND
  8
0
  0
POLYLINE
  8
EBENE_1
 62
    39
  6
CONTINUOUS
 66
     1
 40
0.003000
 41
0.003000
  0
VERTEX
  8
EBENE_1
 62
    39
  6
CONTINUOUS
 10
0.295091
 20
-0.858500
  0
VERTEX
  8
EBENE_1
 62
    39
  6
CONTINUOUS
 10
0.315350
 20
-0.824022
  0
VERTEX
  8
EBENE_1
 62
    39
  6
CONTINUOUS
 10
0.332483
 20
-0.788476
  0
VERTEX
  8
EBENE_1
 62
    39
  6
CONTINUOUS
 10
0.346724
 20
-0.751994
  0
VERTEX
  8
EBENE_1
 62
    39
  6
CONTINUOUS
 10
0.358307
 20
-0.714708
  0
VERTEX
  8
EBENE_1
 62
    39
  6
CONTINUOUS
 10
0.367466
 20
-0.676750
  0
VERTEX
  8
EBENE_1
 62
    39
  6
CONTINUOUS
 10
0.374435
 20
-0.638252
  0
VERTEX
  8
EBENE_1
 62
    39
  6
CONTINUOUS
 10
0.379448
 20
-0.599346
  0
VERTEX
  8
EBENE_1
 62
    39
  6
CONTINUOUS
 10
0.382739
 20
-0.560164
  0
VERTEX
  8
EBENE_1
 62
    39
  6
CONTINUOUS
 10
0.384542
 20
-0.520838
  0
VERTEX
  8
EBENE_1
 62
    39
  6
CONTINUOUS
 10
0.385091
 20
-0.481500
  0
SEQEND
  8
0
  0
POLYLINE
  8
EBENE_1
 62
    39
  6
CONTINUOUS
 66
     1
 40
0.003000
 41
0.003000
  0
VERTEX
  8
EBENE_1
 62
    39
  6
CONTINUOUS
 10
0.385091
 20
-0.481500
  0
VERTEX
  8
EBENE_1
 62
    39
  6
CONTINUOUS
 10
0.386128
 20
-0.479463
  0
VERTEX
  8
EBENE_1
 62
    39
  6
CONTINUOUS
 10
0.387387
 20
-0.477204
  0
VERTEX
  8
EBENE_1
 62
    39
  6
CONTINUOUS
 10
0.389091
 20
-0.474500
  0
SEQEND
  8
0
  0
POLYLINE
  8
EBENE_1
 62
    39
  6
CONTINUOUS
 66
     1
 40
0.003000
 41
0.003000
  0
VERTEX
  8
EBENE_1
 62
    39
  6
CONTINUOUS
 10
0.389091
 20
-0.474500
  0
VERTEX
  8
EBENE_1
 62
    39
  6
CONTINUOUS
 10
0.405534
 20
-0.477531
  0
VERTEX
  8
EBENE_1
 62
    39
  6
CONTINUOUS
 10
0.434548
 20
-0.483161
  0
VERTEX
  8
EBENE_1
 62
    39
  6
CONTINUOUS
 10
0.451657
 20
-0.486193
  0
SEQEND
  8
0
  0
POLYLINE
  8
EBENE_1
 62
    39
  6
CONTINUOUS
 66
     1
 40
0.003000
 41
0.003000
  0
VERTEX
  8
EBENE_1
 62
    39
  6
CONTINUOUS
 10
-0.136909
 20
0.473500
  0
VERTEX
  8
EBENE_1
 62
    39
  6
CONTINUOUS
 10
-0.113058
 20
0.462981
  0
VERTEX
  8
EBENE_1
 62
    39
  6
CONTINUOUS
 10
-0.090095
 20
0.450685
  0
VERTEX
  8
EBENE_1
 62
    39
  6
CONTINUOUS
 10
-0.068909
 20
0.435500
  0
SEQEND
  8
0
  0
POLYLINE
  8
EBENE_1
 62
    39
  6
CONTINUOUS
 66
     1
 40
0.003000
 41
0.003000
  0
VERTEX
  8
EBENE_1
 62
    39
  6
CONTINUOUS
 10
-0.068909
 20
0.435500
  0
VERTEX
  8
EBENE_1
 62
    39
  6
CONTINUOUS
 10
-0.068872
 20
0.417500
  0
VERTEX
  8
EBENE_1
 62
    39
  6
CONTINUOUS
 10
-0.068613
 20
0.399500
  0
VERTEX
  8
EBENE_1
 62
    39
  6
CONTINUOUS
 10
-0.067909
 20
0.381500
  0
SEQEND
  8
0
  0
POLYLINE
  8
EBENE_1
 62
    39
  6
CONTINUOUS
 66
     1
 40
0.003000
 41
0.003000
  0
VERTEX
  8
EBENE_1
 62
    39
  6
CONTINUOUS
 10
-0.067909
 20
0.381500
  0
VERTEX
  8
EBENE_1
 62
    39
  6
CONTINUOUS
 10
-0.028835
 20
0.369093
  0
VERTEX
  8
EBENE_1
 62
    39
  6
CONTINUOUS
 10
0.009350
 20
0.354241
  0
VERTEX
  8
EBENE_1
 62
    39
  6
CONTINUOUS
 10
0.045091
 20
0.334500
  0
SEQEND
  8
0
  0
POLYLINE
  8
EBENE_1
 62
    39
  6
CONTINUOUS
 66
     1
 40
0.003000
 41
0.003000
  0
VERTEX
  8
EBENE_1
 62
    39
  6
CONTINUOUS
 10
0.045091
 20
0.334500
  0
VERTEX
  8
EBENE_1
 62
    39
  6
CONTINUOUS
 10
0.056387
 20
0.308500
  0
VERTEX
  8
EBENE_1
 62
    39
  6
CONTINUOUS
 10
0.068128
 20
0.282500
  0
VERTEX
  8
EBENE_1
 62
    39
  6
CONTINUOUS
 10
0.080091
 20
0.256500
  0
SEQEND
  8
0
  0
POLYLINE
  8
EBENE_1
 62
    39
  6
CONTINUOUS
 66
     1
 40
0.003000
 41
0.003000
  0
VERTEX
  8
EBENE_1
 62
    39
  6
CONTINUOUS
 10
0.080091
 20
0.256500
  0
VERTEX
  8
EBENE_1
 62
    39
  6
CONTINUOUS
 10
0.109683
 20
0.234204
  0
VERTEX
  8
EBENE_1
 62
    39
  6
CONTINUOUS
 10
0.124831
 20
0.211463
  0
VERTEX
  8
EBENE_1
 62
    39
  6
CONTINUOUS
 10
0.135091
 20
0.176500
  0
SEQEND
  8
0
  0
POLYLINE
  8
EBENE_1
 62
    39
  6
CONTINUOUS
 66
     1
 40
0.003000
 41
0.003000
  0
VERTEX
  8
EBENE_1
 62
    39
  6
CONTINUOUS
 10
0.135091
 20
0.176500
  0
VERTEX
  8
EBENE_1
 62
    39
  6
CONTINUOUS
 10
0.148128
 20
0.167500
  0
VERTEX
  8
EBENE_1
 62
    39
  6
CONTINUOUS
 10
0.161387
 20
0.158500
  0
VERTEX
  8
EBENE_1
 62
    39
  6
CONTINUOUS
 10
0.175091
 20
0.149500
  0
SEQEND
  8
0
  0
POLYLINE
  8
EBENE_1
 62
    39
  6
CONTINUOUS
 66
     1
 40
0.003000
 41
0.003000
  0
VERTEX
  8
EBENE_1
 62
    39
  6
CONTINUOUS
 10
0.175091
 20
0.149500
  0
VERTEX
  8
EBENE_1
 62
    39
  6
CONTINUOUS
 10
0.204757
 20
0.136648
  0
VERTEX
  8
EBENE_1
 62
    39
  6
CONTINUOUS
 10
0.215757
 20
0.118019
  0
VERTEX
  8
EBENE_1
 62
    39
  6
CONTINUOUS
 10
0.220091
 20
0.084500
  0
SEQEND
  8
0
  0
POLYLINE
  8
EBENE_1
 62
    39
  6
CONTINUOUS
 66
     1
 40
0.003000
 41
0.003000
  0
VERTEX
  8
EBENE_1
 62
    39
  6
CONTINUOUS
 10
0.123091
 20
-1.835500
  0
VERTEX
  8
EBENE_1
 62
    39
  6
CONTINUOUS
 10
0.123040
 20
-1.809803
  0
VERTEX
  8
EBENE_1
 62
    39
  6
CONTINUOUS
 10
0.126981
 20
-1.774666
  0
VERTEX
  8
EBENE_1
 62
    39
  6
CONTINUOUS
 10
0.133054
 20
-1.733019
  0
VERTEX
  8
EBENE_1
 62
    39
  6
CONTINUOUS
 10
0.139398
 20
-1.687791
  0
VERTEX
  8
EBENE_1
 62
    39
  6
CONTINUOUS
 10
0.144154
 20
-1.641913
  0
VERTEX
  8
EBENE_1
 62
    39
  6
CONTINUOUS
 10
0.145461
 20
-1.598315
  0
VERTEX
  8
EBENE_1
 62
    39
  6
CONTINUOUS
 10
0.141460
 20
-1.559927
  0
VERTEX
  8
EBENE_1
 62
    39
  6
CONTINUOUS
 10
0.130289
 20
-1.529678
  0
VERTEX
  8
EBENE_1
 62
    39
  6
CONTINUOUS
 10
0.110091
 20
-1.510500
  0
SEQEND
  8
0
  0
POLYLINE
  8
EBENE_1
 62
    39
  6
CONTINUOUS
 66
     1
 40
0.003000
 41
0.003000
  0
VERTEX
  8
EBENE_1
 62
    39
  6
CONTINUOUS
 10
0.110091
 20
-1.510500
  0
VERTEX
  8
EBENE_1
 62
    39
  6
CONTINUOUS
 10
0.063479
 20
-1.506019
  0
VERTEX
  8
EBENE_1
 62
    39
  6
CONTINUOUS
 10
0.017535
 20
-1.500315
  0
VERTEX
  8
EBENE_1
 62
    39
  6
CONTINUOUS
 10
-0.027909
 20
-1.493000
  0
VERTEX
  8
EBENE_1
 62
    39
  6
CONTINUOUS
 10
-0.073021
 20
-1.483685
  0
VERTEX
  8
EBENE_1
 62
    39
  6
CONTINUOUS
 10
-0.117965
 20
-1.471981
  0
VERTEX
  8
EBENE_1
 62
    39
  6
CONTINUOUS
 10
-0.162909
 20
-1.457500
  0
SEQEND
  8
0
  0
POLYLINE
  8
EBENE_1
 62
    39
  6
CONTINUOUS
 66
     1
 40
0.003000
 41
0.003000
  0
VERTEX
  8
EBENE_1
 62
    39
  6
CONTINUOUS
 10
-0.162909
 20
-1.457500
  0
VERTEX
  8
EBENE_1
 62
    39
  6
CONTINUOUS
 10
-0.200491
 20
-1.440198
  0
VERTEX
  8
EBENE_1
 62
    39
  6
CONTINUOUS
 10
-0.249120
 20
-1.416982
  0
VERTEX
  8
EBENE_1
 62
    39
  6
CONTINUOUS
 10
-0.289124
 20
-1.388142
  0
VERTEX
  8
EBENE_1
 62
    39
  6
CONTINUOUS
 10
-0.300831
 20
-1.353965
  0
SEQEND
  8
0
  0
POLYLINE
  8
EBENE_1
 62
    39
  6
CONTINUOUS
 66
     1
 40
0.003000
 41
0.003000
  0
VERTEX
  8
EBENE_1
 62
    39
  6
CONTINUOUS
 10
0.083091
 20
-0.325500
  0
VERTEX
  8
EBENE_1
 62
    39
  6
CONTINUOUS
 10
0.070387
 20
-0.336463
  0
VERTEX
  8
EBENE_1
 62
    39
  6
CONTINUOUS
 10
0.058128
 20
-0.347204
  0
VERTEX
  8
EBENE_1
 62
    39
  6
CONTINUOUS
 10
0.046091
 20
-0.357500
  0
SEQEND
  8
0
  0
POLYLINE
  8
EBENE_1
 62
    39
  6
CONTINUOUS
 66
     1
 40
0.003000
 41
0.003000
  0
VERTEX
  8
EBENE_1
 62
    39
  6
CONTINUOUS
 10
0.046091
 20
-0.357500
  0
VERTEX
  8
EBENE_1
 62
    39
  6
CONTINUOUS
 10
0.028819
 20
-0.383079
  0
VERTEX
  8
EBENE_1
 62
    39
  6
CONTINUOUS
 10
0.008334
 20
-0.412085
  0
VERTEX
  8
EBENE_1
 62
    39
  6
CONTINUOUS
 10
-0.015009
 20
-0.443281
  0
VERTEX
  8
EBENE_1
 62
    39
  6
CONTINUOUS
 10
-0.040855
 20
-0.475432
  0
VERTEX
  8
EBENE_1
 62
    39
  6
CONTINUOUS
 10
-0.068846
 20
-0.507305
  0
VERTEX
  8
EBENE_1
 62
    39
  6
CONTINUOUS
 10
-0.098626
 20
-0.537662
  0
VERTEX
  8
EBENE_1
 62
    39
  6
CONTINUOUS
 10
-0.129840
 20
-0.565270
  0
VERTEX
  8
EBENE_1
 62
    39
  6
CONTINUOUS
 10
-0.162132
 20
-0.588893
  0
VERTEX
  8
EBENE_1
 62
    39
  6
CONTINUOUS
 10
-0.195145
 20
-0.607296
  0
VERTEX
  8
EBENE_1
 62
    39
  6
CONTINUOUS
 10
-0.228523
 20
-0.619243
  0
VERTEX
  8
EBENE_1
 62
    39
  6
CONTINUOUS
 10
-0.261909
 20
-0.623500
  0
SEQEND
  8
0
  0
POLYLINE
  8
EBENE_1
 62
    39
  6
CONTINUOUS
 66
     1
 40
0.003000
 41
0.003000
  0
VERTEX
  8
EBENE_1
 62
    39
  6
CONTINUOUS
 10
-0.350909
 20
-0.454500
  0
VERTEX
  8
EBENE_1
 62
    39
  6
CONTINUOUS
 10
-0.334534
 20
-0.416047
  0
VERTEX
  8
EBENE_1
 62
    39
  6
CONTINUOUS
 10
-0.295659
 20
-0.386125
  0
VERTEX
  8
EBENE_1
 62
    39
  6
CONTINUOUS
 10
-0.249659
 20
-0.362391
  0
VERTEX
  8
EBENE_1
 62
    39
  6
CONTINUOUS
 10
-0.211909
 20
-0.342500
  0
SEQEND
  8
0
  0
POLYLINE
  8
EBENE_1
 62
    39
  6
CONTINUOUS
 66
     1
 40
0.003000
 41
0.003000
  0
VERTEX
  8
EBENE_1
 62
    39
  6
CONTINUOUS
 10
-0.211909
 20
-0.342500
  0
VERTEX
  8
EBENE_1
 62
    39
  6
CONTINUOUS
 10
-0.186909
 20
-0.306463
  0
VERTEX
  8
EBENE_1
 62
    39
  6
CONTINUOUS
 10
-0.161909
 20
-0.270204
  0
VERTEX
  8
EBENE_1
 62
    39
  6
CONTINUOUS
 10
-0.136909
 20
-0.233500
  0
SEQEND
  8
0
  0
POLYLINE
  8
EBENE_1
 62
    39
  6
CONTINUOUS
 66
     1
 40
0.003000
 41
0.003000
  0
VERTEX
  8
EBENE_1
 62
    39
  6
CONTINUOUS
 10
-0.136909
 20
-0.233500
  0
VERTEX
  8
EBENE_1
 62
    39
  6
CONTINUOUS
 10
-0.095869
 20
-0.221668
  0
VERTEX
  8
EBENE_1
 62
    39
  6
CONTINUOUS
 10
-0.054589
 20
-0.211804
  0
VERTEX
  8
EBENE_1
 62
    39
  6
CONTINUOUS
 10
-0.015229
 20
-0.199156
  0
VERTEX
  8
EBENE_1
 62
    39
  6
CONTINUOUS
 10
0.020051
 20
-0.178972
  0
VERTEX
  8
EBENE_1
 62
    39
  6
CONTINUOUS
 10
0.049091
 20
-0.146500
  0
SEQEND
  8
0
  0
POLYLINE
  8
EBENE_1
 62
    39
  6
CONTINUOUS
 66
     1
 40
0.003000
 41
0.003000
  0
VERTEX
  8
EBENE_1
 62
    39
  6
CONTINUOUS
 10
-0.376909
 20
-1.335500
  0
VERTEX
  8
EBENE_1
 62
    39
  6
CONTINUOUS
 10
-0.383501
 20
-1.379556
  0
VERTEX
  8
EBENE_1
 62
    39
  6
CONTINUOUS
 10
-0.389325
 20
-1.423468
  0
VERTEX
  8
EBENE_1
 62
    39
  6
CONTINUOUS
 10
-0.395053
 20
-1.468052
  0
VERTEX
  8
EBENE_1
 62
    39
  6
CONTINUOUS
 10
-0.401357
 20
-1.514124
  0
VERTEX
  8
EBENE_1
 62
    39
  6
CONTINUOUS
 10
-0.408909
 20
-1.562500
  0
SEQEND
  8
0
  0
POLYLINE
  8
EBENE_1
 62
    39
  6
CONTINUOUS
 66
     1
 40
0.003000
 41
0.003000
  0
VERTEX
  8
EBENE_1
 62
    39
  6
CONTINUOUS
 10
-0.408909
 20
-1.562500
  0
VERTEX
  8
EBENE_1
 62
    39
  6
CONTINUOUS
 10
-0.410391
 20
-1.599114
  0
VERTEX
  8
EBENE_1
 62
    39
  6
CONTINUOUS
 10
-0.406834
 20
-1.632541
  0
VERTEX
  8
EBENE_1
 62
    39
  6
CONTINUOUS
 10
-0.398638
 20
-1.662897
  0
VERTEX
  8
EBENE_1
 62
    39
  6
CONTINUOUS
 10
-0.386200
 20
-1.690297
  0
VERTEX
  8
EBENE_1
 62
    39
  6
CONTINUOUS
 10
-0.369919
 20
-1.714858
  0
VERTEX
  8
EBENE_1
 62
    39
  6
CONTINUOUS
 10
-0.350193
 20
-1.736695
  0
VERTEX
  8
EBENE_1
 62
    39
  6
CONTINUOUS
 10
-0.327422
 20
-1.755924
  0
VERTEX
  8
EBENE_1
 62
    39
  6
CONTINUOUS
 10
-0.302004
 20
-1.772662
  0
VERTEX
  8
EBENE_1
 62
    39
  6
CONTINUOUS
 10
-0.274337
 20
-1.787024
  0
VERTEX
  8
EBENE_1
 62
    39
  6
CONTINUOUS
 10
-0.244820
 20
-1.799126
  0
VERTEX
  8
EBENE_1
 62
    39
  6
CONTINUOUS
 10
-0.213852
 20
-1.809084
  0
VERTEX
  8
EBENE_1
 62
    39
  6
CONTINUOUS
 10
-0.181830
 20
-1.817014
  0
VERTEX
  8
EBENE_1
 62
    39
  6
CONTINUOUS
 10
-0.149155
 20
-1.823032
  0
VERTEX
  8
EBENE_1
 62
    39
  6
CONTINUOUS
 10
-0.116223
 20
-1.827254
  0
VERTEX
  8
EBENE_1
 62
    39
  6
CONTINUOUS
 10
-0.083434
 20
-1.829796
  0
VERTEX
  8
EBENE_1
 62
    39
  6
CONTINUOUS
 10
-0.051187
 20
-1.830774
  0
VERTEX
  8
EBENE_1
 62
    39
  6
CONTINUOUS
 10
-0.019879
 20
-1.830303
  0
VERTEX
  8
EBENE_1
 62
    39
  6
CONTINUOUS
 10
0.010091
 20
-1.828500
  0
SEQEND
  8
0
  0
POLYLINE
  8
EBENE_1
 62
    39
  6
CONTINUOUS
 66
     1
 40
0.003000
 41
0.003000
  0
VERTEX
  8
EBENE_1
 62
    39
  6
CONTINUOUS
 10
-0.387909
 20
0.085500
  0
VERTEX
  8
EBENE_1
 62
    39
  6
CONTINUOUS
 10
-0.345691
 20
0.098109
  0
VERTEX
  8
EBENE_1
 62
    39
  6
CONTINUOUS
 10
-0.307409
 20
0.120375
  0
VERTEX
  8
EBENE_1
 62
    39
  6
CONTINUOUS
 10
-0.272878
 20
0.149203
  0
VERTEX
  8
EBENE_1
 62
    39
  6
CONTINUOUS
 10
-0.241909
 20
0.181500
  0
SEQEND
  8
0
  0
POLYLINE
  8
EBENE_1
 62
    39
  6
CONTINUOUS
 66
     1
 40
0.003000
 41
0.003000
  0
VERTEX
  8
EBENE_1
 62
    39
  6
CONTINUOUS
 10
-0.241909
 20
0.181500
  0
VERTEX
  8
EBENE_1
 62
    39
  6
CONTINUOUS
 10
-0.238909
 20
0.229130
  0
VERTEX
  8
EBENE_1
 62
    39
  6
CONTINUOUS
 10
-0.259909
 20
0.273204
  0
VERTEX
  8
EBENE_1
 62
    39
  6
CONTINUOUS
 10
-0.292909
 20
0.309500
  0
SEQEND
  8
0
  0
POLYLINE
  8
EBENE_1
 62
    39
  6
CONTINUOUS
 66
     1
 40
0.003000
 41
0.003000
  0
VERTEX
  8
EBENE_1
 62
    39
  6
CONTINUOUS
 10
-0.292909
 20
0.309500
  0
VERTEX
  8
EBENE_1
 62
    39
  6
CONTINUOUS
 10
-0.328280
 20
0.313833
  0
VERTEX
  8
EBENE_1
 62
    39
  6
CONTINUOUS
 10
-0.342539
 20
0.316167
  0
VERTEX
  8
EBENE_1
 62
    39
  6
CONTINUOUS
 10
-0.347909
 20
0.318500
  0
SEQEND
  8
0
  0
POLYLINE
  8
EBENE_1
 62
    39
  6
CONTINUOUS
 66
     1
 40
0.003000
 41
0.003000
  0
VERTEX
  8
EBENE_1
 62
    39
  6
CONTINUOUS
 10
-0.938909
 20
-2.510500
  0
VERTEX
  8
EBENE_1
 62
    39
  6
CONTINUOUS
 10
-0.919206
 20
-2.530537
  0
VERTEX
  8
EBENE_1
 62
    39
  6
CONTINUOUS
 10
-0.898613
 20
-2.549463
  0
VERTEX
  8
EBENE_1
 62
    39
  6
CONTINUOUS
 10
-0.874909
 20
-2.565500
  0
SEQEND
  8
0
  0
POLYLINE
  8
EBENE_1
 62
    39
  6
CONTINUOUS
 66
     1
 40
0.003000
 41
0.003000
  0
VERTEX
  8
EBENE_1
 62
    39
  6
CONTINUOUS
 10
-0.874909
 20
-2.565500
  0
VERTEX
  8
EBENE_1
 62
    39
  6
CONTINUOUS
 10
-0.835894
 20
-2.576518
  0
VERTEX
  8
EBENE_1
 62
    39
  6
CONTINUOUS
 10
-0.796222
 20
-2.584641
  0
VERTEX
  8
EBENE_1
 62
    39
  6
CONTINUOUS
 10
-0.756081
 20
-2.590725
  0
VERTEX
  8
EBENE_1
 62
    39
  6
CONTINUOUS
 10
-0.715659
 20
-2.595625
  0
VERTEX
  8
EBENE_1
 62
    39
  6
CONTINUOUS
 10
-0.675144
 20
-2.600197
  0
VERTEX
  8
EBENE_1
 62
    39
  6
CONTINUOUS
 10
-0.634722
 20
-2.605297
  0
VERTEX
  8
EBENE_1
 62
    39
  6
CONTINUOUS
 10
-0.594581
 20
-2.611779
  0
VERTEX
  8
EBENE_1
 62
    39
  6
CONTINUOUS
 10
-0.554909
 20
-2.620500
  0
SEQEND
  8
0
  0
POLYLINE
  8
EBENE_1
 62
    39
  6
CONTINUOUS
 66
     1
 40
0.003000
 41
0.003000
  0
VERTEX
  8
EBENE_1
 62
    39
  6
CONTINUOUS
 10
-0.554909
 20
-2.620500
  0
VERTEX
  8
EBENE_1
 62
    39
  6
CONTINUOUS
 10
-0.518095
 20
-2.639796
  0
VERTEX
  8
EBENE_1
 62
    39
  6
CONTINUOUS
 10
-0.481058
 20
-2.657537
  0
VERTEX
  8
EBENE_1
 62
    39
  6
CONTINUOUS
 10
-0.442909
 20
-2.673500
  0
SEQEND
  8
0
  0
POLYLINE
  8
EBENE_1
 62
    39
  6
CONTINUOUS
 66
     1
 40
0.003000
 41
0.003000
  0
VERTEX
  8
EBENE_1
 62
    39
  6
CONTINUOUS
 10
-0.442909
 20
-2.673500
  0
VERTEX
  8
EBENE_1
 62
    39
  6
CONTINUOUS
 10
-0.413984
 20
-2.676463
  0
VERTEX
  8
EBENE_1
 62
    39
  6
CONTINUOUS
 10
-0.402835
 20
-2.678537
  0
VERTEX
  8
EBENE_1
 62
    39
  6
CONTINUOUS
 10
-0.399909
 20
-2.681500
  0
SEQEND
  8
0
  0
POLYLINE
  8
EBENE_1
 62
    39
  6
CONTINUOUS
 66
     1
 40
0.003000
 41
0.003000
  0
VERTEX
  8
EBENE_1
 62
    39
  6
CONTINUOUS
 10
-0.536909
 20
-1.288500
  0
VERTEX
  8
EBENE_1
 62
    39
  6
CONTINUOUS
 10
-0.544225
 20
-1.325682
  0
VERTEX
  8
EBENE_1
 62
    39
  6
CONTINUOUS
 10
-0.552393
 20
-1.362669
  0
VERTEX
  8
EBENE_1
 62
    39
  6
CONTINUOUS
 10
-0.561318
 20
-1.399481
  0
VERTEX
  8
EBENE_1
 62
    39
  6
CONTINUOUS
 10
-0.570904
 20
-1.436138
  0
VERTEX
  8
EBENE_1
 62
    39
  6
CONTINUOUS
 10
-0.581053
 20
-1.472660
  0
VERTEX
  8
EBENE_1
 62
    39
  6
CONTINUOUS
 10
-0.591670
 20
-1.509066
  0
VERTEX
  8
EBENE_1
 62
    39
  6
CONTINUOUS
 10
-0.602659
 20
-1.545375
  0
VERTEX
  8
EBENE_1
 62
    39
  6
CONTINUOUS
 10
-0.613924
 20
-1.581608
  0
VERTEX
  8
EBENE_1
 62
    39
  6
CONTINUOUS
 10
-0.625368
 20
-1.617784
  0
VERTEX
  8
EBENE_1
 62
    39
  6
CONTINUOUS
 10
-0.636895
 20
-1.653923
  0
VERTEX
  8
EBENE_1
 62
    39
  6
CONTINUOUS
 10
-0.648409
 20
-1.690044
  0
VERTEX
  8
EBENE_1
 62
    39
  6
CONTINUOUS
 10
-0.659813
 20
-1.726168
  0
VERTEX
  8
EBENE_1
 62
    39
  6
CONTINUOUS
 10
-0.671012
 20
-1.762313
  0
VERTEX
  8
EBENE_1
 62
    39
  6
CONTINUOUS
 10
-0.681909
 20
-1.798500
  0
VERTEX
  8
EBENE_1
 62
    39
  6
CONTINUOUS
 10
-0.681909
 20
-1.798500
  0
VERTEX
  8
EBENE_1
 62
    39
  6
CONTINUOUS
 10
-0.699581
 20
-1.838109
  0
VERTEX
  8
EBENE_1
 62
    39
  6
CONTINUOUS
 10
-0.722784
 20
-1.883625
  0
VERTEX
  8
EBENE_1
 62
    39
  6
CONTINUOUS
 10
-0.751800
 20
-1.924078
  0
VERTEX
  8
EBENE_1
 62
    39
  6
CONTINUOUS
 10
-0.786909
 20
-1.948500
  0
VERTEX
  8
EBENE_1
 62
    39
  6
CONTINUOUS
 10
-0.786909
 20
-1.951204
  0
VERTEX
  8
EBENE_1
 62
    39
  6
CONTINUOUS
 10
-0.786909
 20
-1.953463
  0
VERTEX
  8
EBENE_1
 62
    39
  6
CONTINUOUS
 10
-0.786909
 20
-1.955500
  0
VERTEX
  8
EBENE_1
 62
    39
  6
CONTINUOUS
 10
-0.819132
 20
-1.993093
  0
VERTEX
  8
EBENE_1
 62
    39
  6
CONTINUOUS
 10
-0.841354
 20
-2.040907
  0
VERTEX
  8
EBENE_1
 62
    39
  6
CONTINUOUS
 10
-0.858909
 20
-2.088500
  0
VERTEX
  8
EBENE_1
 62
    39
  6
CONTINUOUS
 10
-0.869901
 20
-2.136444
  0
VERTEX
  8
EBENE_1
 62
    39
  6
CONTINUOUS
 10
-0.884205
 20
-2.181172
  0
VERTEX
  8
EBENE_1
 62
    39
  6
CONTINUOUS
 10
-0.904413
 20
-2.221628
  0
VERTEX
  8
EBENE_1
 62
    39
  6
CONTINUOUS
 10
-0.933117
 20
-2.256756
  0
VERTEX
  8
EBENE_1
 62
    39
  6
CONTINUOUS
 10
-0.972909
 20
-2.285500
  0
VERTEX
  8
EBENE_1
 62
    39
  6
CONTINUOUS
 10
-0.973817
 20
-2.249145
  0
VERTEX
  8
EBENE_1
 62
    39
  6
CONTINUOUS
 10
-0.974492
 20
-2.212767
  0
VERTEX
  8
EBENE_1
 62
    39
  6
CONTINUOUS
 10
-0.974944
 20
-2.176368
  0
VERTEX
  8
EBENE_1
 62
    39
  6
CONTINUOUS
 10
-0.975184
 20
-2.139948
  0
VERTEX
  8
EBENE_1
 62
    39
  6
CONTINUOUS
 10
-0.975224
 20
-2.103509
  0
VERTEX
  8
EBENE_1
 62
    39
  6
CONTINUOUS
 10
-0.975076
 20
-2.067052
  0
VERTEX
  8
EBENE_1
 62
    39
  6
CONTINUOUS
 10
-0.974749
 20
-2.030580
  0
VERTEX
  8
EBENE_1
 62
    39
  6
CONTINUOUS
 10
-0.974257
 20
-1.994093
  0
VERTEX
  8
EBENE_1
 62
    39
  6
CONTINUOUS
 10
-0.973608
 20
-1.957592
  0
VERTEX
  8
EBENE_1
 62
    39
  6
CONTINUOUS
 10
-0.972816
 20
-1.921080
  0
VERTEX
  8
EBENE_1
 62
    39
  6
CONTINUOUS
 10
-0.971891
 20
-1.884557
  0
VERTEX
  8
EBENE_1
 62
    39
  6
CONTINUOUS
 10
-0.970844
 20
-1.848025
  0
VERTEX
  8
EBENE_1
 62
    39
  6
CONTINUOUS
 10
-0.969686
 20
-1.811486
  0
VERTEX
  8
EBENE_1
 62
    39
  6
CONTINUOUS
 10
-0.968429
 20
-1.774940
  0
VERTEX
  8
EBENE_1
 62
    39
  6
CONTINUOUS
 10
-0.967084
 20
-1.738389
  0
VERTEX
  8
EBENE_1
 62
    39
  6
CONTINUOUS
 10
-0.965662
 20
-1.701835
  0
VERTEX
  8
EBENE_1
 62
    39
  6
CONTINUOUS
 10
-0.964175
 20
-1.665279
  0
VERTEX
  8
EBENE_1
 62
    39
  6
CONTINUOUS
 10
-0.962632
 20
-1.628721
  0
VERTEX
  8
EBENE_1
 62
    39
  6
CONTINUOUS
 10
-0.961046
 20
-1.592165
  0
VERTEX
  8
EBENE_1
 62
    39
  6
CONTINUOUS
 10
-0.959428
 20
-1.555611
  0
VERTEX
  8
EBENE_1
 62
    39
  6
CONTINUOUS
 10
-0.957789
 20
-1.519060
  0
VERTEX
  8
EBENE_1
 62
    39
  6
CONTINUOUS
 10
-0.956141
 20
-1.482514
  0
VERTEX
  8
EBENE_1
 62
    39
  6
CONTINUOUS
 10
-0.954493
 20
-1.445975
  0
VERTEX
  8
EBENE_1
 62
    39
  6
CONTINUOUS
 10
-0.952859
 20
-1.409443
  0
VERTEX
  8
EBENE_1
 62
    39
  6
CONTINUOUS
 10
-0.951248
 20
-1.372920
  0
VERTEX
  8
EBENE_1
 62
    39
  6
CONTINUOUS
 10
-0.949672
 20
-1.336408
  0
VERTEX
  8
EBENE_1
 62
    39
  6
CONTINUOUS
 10
-0.948142
 20
-1.299907
  0
VERTEX
  8
EBENE_1
 62
    39
  6
CONTINUOUS
 10
-0.946669
 20
-1.263420
  0
VERTEX
  8
EBENE_1
 62
    39
  6
CONTINUOUS
 10
-0.945266
 20
-1.226948
  0
VERTEX
  8
EBENE_1
 62
    39
  6
CONTINUOUS
 10
-0.943942
 20
-1.190491
  0
VERTEX
  8
EBENE_1
 62
    39
  6
CONTINUOUS
 10
-0.942708
 20
-1.154052
  0
VERTEX
  8
EBENE_1
 62
    39
  6
CONTINUOUS
 10
-0.941577
 20
-1.117632
  0
VERTEX
  8
EBENE_1
 62
    39
  6
CONTINUOUS
 10
-0.940560
 20
-1.081233
  0
VERTEX
  8
EBENE_1
 62
    39
  6
CONTINUOUS
 10
-0.939667
 20
-1.044855
  0
VERTEX
  8
EBENE_1
 62
    39
  6
CONTINUOUS
 10
-0.938909
 20
-1.008500
  0
VERTEX
  8
EBENE_1
 62
    39
  6
CONTINUOUS
 10
-0.934909
 20
-0.969500
  0
VERTEX
  8
EBENE_1
 62
    39
  6
CONTINUOUS
 10
-0.930909
 20
-0.930500
  0
VERTEX
  8
EBENE_1
 62
    39
  6
CONTINUOUS
 10
-0.926909
 20
-0.891500
  0
VERTEX
  8
EBENE_1
 62
    39
  6
CONTINUOUS
 10
-0.923613
 20
-0.892500
  0
VERTEX
  8
EBENE_1
 62
    39
  6
CONTINUOUS
 10
-0.919872
 20
-0.893500
  0
VERTEX
  8
EBENE_1
 62
    39
  6
CONTINUOUS
 10
-0.915909
 20
-0.894500
  0
VERTEX
  8
EBENE_1
 62
    39
  6
CONTINUOUS
 10
-0.910735
 20
-0.936176
  0
VERTEX
  8
EBENE_1
 62
    39
  6
CONTINUOUS
 10
-0.905367
 20
-0.977993
  0
VERTEX
  8
EBENE_1
 62
    39
  6
CONTINUOUS
 10
-0.899615
 20
-1.019844
  0
VERTEX
  8
EBENE_1
 62
    39
  6
CONTINUOUS
 10
-0.893286
 20
-1.061625
  0
VERTEX
  8
EBENE_1
 62
    39
  6
CONTINUOUS
 10
-0.886186
 20
-1.103232
  0
VERTEX
  8
EBENE_1
 62
    39
  6
CONTINUOUS
 10
-0.878125
 20
-1.144558
  0
VERTEX
  8
EBENE_1
 62
    39
  6
CONTINUOUS
 10
-0.868909
 20
-1.185500
  0
VERTEX
  8
EBENE_1
 62
    39
  6
CONTINUOUS
 10
-0.852502
 20
-1.200463
  0
VERTEX
  8
EBENE_1
 62
    39
  6
CONTINUOUS
 10
-0.832317
 20
-1.209870
  0
VERTEX
  8
EBENE_1
 62
    39
  6
CONTINUOUS
 10
-0.809909
 20
-1.217500
  0
VERTEX
  8
EBENE_1
 62
    39
  6
CONTINUOUS
 10
-0.766034
 20
-1.217903
  0
VERTEX
  8
EBENE_1
 62
    39
  6
CONTINUOUS
 10
-0.720909
 20
-1.218389
  0
VERTEX
  8
EBENE_1
 62
    39
  6
CONTINUOUS
 10
-0.675284
 20
-1.217875
  0
VERTEX
  8
EBENE_1
 62
    39
  6
CONTINUOUS
 10
-0.629909
 20
-1.215278
  0
VERTEX
  8
EBENE_1
 62
    39
  6
CONTINUOUS
 10
-0.585534
 20
-1.209514
  0
VERTEX
  8
EBENE_1
 62
    39
  6
CONTINUOUS
 10
-0.542909
 20
-1.199500
  0
VERTEX
  8
EBENE_1
 62
    39
  6
CONTINUOUS
 10
-0.540021
 20
-1.208796
  0
VERTEX
  8
EBENE_1
 62
    39
  6
CONTINUOUS
 10
-0.538465
 20
-1.231870
  0
VERTEX
  8
EBENE_1
 62
    39
  6
CONTINUOUS
 10
-0.536909
 20
-1.288500
  0
SEQEND
  8
0
  0
POLYLINE
  8
EBENE_1
 62
    39
  6
CONTINUOUS
 66
     1
 40
0.003000
 41
0.003000
  0
VERTEX
  8
EBENE_1
 62
    39
  6
CONTINUOUS
 10
-0.897909
 20
-0.816500
  0
VERTEX
  8
EBENE_1
 62
    39
  6
CONTINUOUS
 10
-0.897472
 20
-0.806594
  0
VERTEX
  8
EBENE_1
 62
    39
  6
CONTINUOUS
 10
-0.893659
 20
-0.783750
  0
VERTEX
  8
EBENE_1
 62
    39
  6
CONTINUOUS
 10
-0.884972
 20
-0.733531
  0
VERTEX
  8
EBENE_1
 62
    39
  6
CONTINUOUS
 10
-0.869909
 20
-0.641500
  0
SEQEND
  8
0
  0
POLYLINE
  8
EBENE_1
 62
    39
  6
CONTINUOUS
 66
     1
 40
0.003000
 41
0.003000
  0
VERTEX
  8
EBENE_1
 62
    39
  6
CONTINUOUS
 10
1.385449
 20
0.955031
  0
VERTEX
  8
EBENE_1
 62
    39
  6
CONTINUOUS
 10
1.250016
 20
0.811976
  0
VERTEX
  8
EBENE_1
 62
    39
  6
CONTINUOUS
 10
1.347949
 20
0.641043
  0
VERTEX
  8
EBENE_1
 62
    39
  6
CONTINUOUS
 10
1.170043
 20
0.725646
  0
VERTEX
  8
EBENE_1
 62
    39
  6
CONTINUOUS
 10
1.037744
 20
0.579681
  0
VERTEX
  8
EBENE_1
 62
    39
  6
CONTINUOUS
 10
1.063224
 20
0.775024
  0
VERTEX
  8
EBENE_1
 62
    39
  6
CONTINUOUS
 10
0.883524
 20
0.855744
  0
VERTEX
  8
EBENE_1
 62
    39
  6
CONTINUOUS
 10
1.077181
 20
0.891874
  0
VERTEX
  8
EBENE_1
 62
    39
  6
CONTINUOUS
 10
1.098413
 20
1.087724
  0
VERTEX
  8
EBENE_1
 62
    39
  6
CONTINUOUS
 10
1.192626
 20
0.914709
  0
VERTEX
  8
EBENE_1
 62
    39
  6
CONTINUOUS
 10
1.385449
 20
0.955031
  0
SEQEND
  8
0
  0
POLYLINE
  8
EBENE_1
 62
    39
  6
CONTINUOUS
 66
     1
 40
0.003000
 41
0.003000
  0
VERTEX
  8
EBENE_1
 62
    39
  6
CONTINUOUS
 10
1.830827
 20
0.431039
  0
VERTEX
  8
EBENE_1
 62
    39
  6
CONTINUOUS
 10
1.889665
 20
0.243035
  0
VERTEX
  8
EBENE_1
 62
    39
  6
CONTINUOUS
 10
2.086654
 20
0.245169
  0
VERTEX
  8
EBENE_1
 62
    39
  6
CONTINUOUS
 10
1.926031
 20
0.131114
  0
VERTEX
  8
EBENE_1
 62
    39
  6
CONTINUOUS
 10
1.988937
 20
-0.055571
  0
VERTEX
  8
EBENE_1
 62
    39
  6
CONTINUOUS
 10
1.830827
 20
0.061941
  0
VERTEX
  8
EBENE_1
 62
    39
  6
CONTINUOUS
 10
1.672717
 20
-0.055571
  0
VERTEX
  8
EBENE_1
 62
    39
  6
CONTINUOUS
 10
1.735622
 20
0.131114
  0
VERTEX
  8
EBENE_1
 62
    39
  6
CONTINUOUS
 10
1.575000
 20
0.245169
  0
VERTEX
  8
EBENE_1
 62
    39
  6
CONTINUOUS
 10
1.771988
 20
0.243035
  0
VERTEX
  8
EBENE_1
 62
    39
  6
CONTINUOUS
 10
1.830827
 20
0.431039
  0
SEQEND
  8
0
  0
POLYLINE
  8
EBENE_1
 62
    39
  6
CONTINUOUS
 66
     1
 40
0.003000
 41
0.003000
  0
VERTEX
  8
EBENE_1
 62
    39
  6
CONTINUOUS
 10
1.810630
 20
-0.480094
  0
VERTEX
  8
EBENE_1
 62
    39
  6
CONTINUOUS
 10
1.869469
 20
-0.668098
  0
VERTEX
  8
EBENE_1
 62
    39
  6
CONTINUOUS
 10
2.066457
 20
-0.665965
  0
VERTEX
  8
EBENE_1
 62
    39
  6
CONTINUOUS
 10
1.905835
 20
-0.780020
  0
VERTEX
  8
EBENE_1
 62
    39
  6
CONTINUOUS
 10
1.968740
 20
-0.966705
  0
VERTEX
  8
EBENE_1
 62
    39
  6
CONTINUOUS
 10
1.810630
 20
-0.849193
  0
VERTEX
  8
EBENE_1
 62
    39
  6
CONTINUOUS
 10
1.652520
 20
-0.966705
  0
VERTEX
  8
EBENE_1
 62
    39
  6
CONTINUOUS
 10
1.715425
 20
-0.780020
  0
VERTEX
  8
EBENE_1
 62
    39
  6
CONTINUOUS
 10
1.554803
 20
-0.665965
  0
VERTEX
  8
EBENE_1
 62
    39
  6
CONTINUOUS
 10
1.751791
 20
-0.668098
  0
VERTEX
  8
EBENE_1
 62
    39
  6
CONTINUOUS
 10
1.810630
 20
-0.480094
  0
SEQEND
  8
0
  0
POLYLINE
  8
EBENE_1
 62
    39
  6
CONTINUOUS
 66
     1
 40
0.003000
 41
0.003000
  0
VERTEX
  8
EBENE_1
 62
    39
  6
CONTINUOUS
 10
2.018890
 20
-1.329008
  0
VERTEX
  8
EBENE_1
 62
    39
  6
CONTINUOUS
 10
2.077728
 20
-1.517012
  0
VERTEX
  8
EBENE_1
 62
    39
  6
CONTINUOUS
 10
2.274717
 20
-1.514878
  0
VERTEX
  8
EBENE_1
 62
    39
  6
CONTINUOUS
 10
2.114094
 20
-1.628933
  0
VERTEX
  8
EBENE_1
 62
    39
  6
CONTINUOUS
 10
2.177000
 20
-1.815618
  0
VERTEX
  8
EBENE_1
 62
    39
  6
CONTINUOUS
 10
2.018890
 20
-1.698106
  0
VERTEX
  8
EBENE_1
 62
    39
  6
CONTINUOUS
 10
1.860780
 20
-1.815618
  0
VERTEX
  8
EBENE_1
 62
    39
  6
CONTINUOUS
 10
1.923685
 20
-1.628933
  0
VERTEX
  8
EBENE_1
 62
    39
  6
CONTINUOUS
 10
1.763063
 20
-1.514878
  0
VERTEX
  8
EBENE_1
 62
    39
  6
CONTINUOUS
 10
1.960051
 20
-1.517012
  0
VERTEX
  8
EBENE_1
 62
    39
  6
CONTINUOUS
 10
2.018890
 20
-1.329008
  0
SEQEND
  8
0
  0
POLYLINE
  8
EBENE_1
 62
    39
  6
CONTINUOUS
 66
     1
 40
0.003000
 41
0.003000
  0
VERTEX
  8
EBENE_1
 62
    39
  6
CONTINUOUS
 10
0.234228
 20
1.621213
  0
VERTEX
  8
EBENE_1
 62
    39
  6
CONTINUOUS
 10
0.276933
 20
1.484756
  0
VERTEX
  8
EBENE_1
 62
    39
  6
CONTINUOUS
 10
0.419909
 20
1.486307
  0
VERTEX
  8
EBENE_1
 62
    39
  6
CONTINUOUS
 10
0.303331
 20
1.403524
  0
VERTEX
  8
EBENE_1
 62
    39
  6
CONTINUOUS
 10
0.348984
 20
1.268028
  0
VERTEX
  8
EBENE_1
 62
    39
  6
CONTINUOUS
 10
0.234228
 20
1.353319
  0
VERTEX
  8
EBENE_1
 62
    39
  6
CONTINUOUS
 10
0.119472
 20
1.268028
  0
VERTEX
  8
EBENE_1
 62
    39
  6
CONTINUOUS
 10
0.165126
 20
1.403524
  0
VERTEX
  8
EBENE_1
 62
    39
  6
CONTINUOUS
 10
0.048547
 20
1.486307
  0
VERTEX
  8
EBENE_1
 62
    39
  6
CONTINUOUS
 10
0.191524
 20
1.484756
  0
VERTEX
  8
EBENE_1
 62
    39
  6
CONTINUOUS
 10
0.234228
 20
1.621213
  0
SEQEND
  8
0
  0
POLYLINE
  8
EBENE_1
 62
    39
  6
CONTINUOUS
 66
     1
 40
0.003000
 41
0.003000
  0
VERTEX
  8
EBENE_1
 62
    39
  6
CONTINUOUS
 10
-0.017748
 20
1.183638
  0
VERTEX
  8
EBENE_1
 62
    39
  6
CONTINUOUS
 10
0.094831
 20
1.095488
  0
VERTEX
  8
EBENE_1
 62
    39
  6
CONTINUOUS
 10
0.211697
 20
1.177874
  0
VERTEX
  8
EBENE_1
 62
    39
  6
CONTINUOUS
 10
0.162654
 20
1.043567
  0
VERTEX
  8
EBENE_1
 62
    39
  6
CONTINUOUS
 10
0.277114
 20
0.957882
  0
VERTEX
  8
EBENE_1
 62
    39
  6
CONTINUOUS
 10
0.134224
 20
0.963024
  0
VERTEX
  8
EBENE_1
 62
    39
  6
CONTINUOUS
 10
0.088106
 20
0.827685
  0
VERTEX
  8
EBENE_1
 62
    39
  6
CONTINUOUS
 10
0.048839
 20
0.965165
  0
VERTEX
  8
EBENE_1
 62
    39
  6
CONTINUOUS
 10
-0.094130
 20
0.967205
  0
VERTEX
  8
EBENE_1
 62
    39
  6
CONTINUOUS
 10
0.024496
 20
1.047035
  0
VERTEX
  8
EBENE_1
 62
    39
  6
CONTINUOUS
 10
-0.017748
 20
1.183638
  0
SEQEND
  8
0
  0
POLYLINE
  8
EBENE_1
 62
    39
  6
CONTINUOUS
 66
     1
 40
0.003000
 41
0.003000
  0
VERTEX
  8
EBENE_1
 62
    39
  6
CONTINUOUS
 10
-0.295102
 20
1.586488
  0
VERTEX
  8
EBENE_1
 62
    39
  6
CONTINUOUS
 10
-0.252398
 20
1.450031
  0
VERTEX
  8
EBENE_1
 62
    39
  6
CONTINUOUS
 10
-0.109421
 20
1.451583
  0
VERTEX
  8
EBENE_1
 62
    39
  6
CONTINUOUS
 10
-0.226000
 20
1.368799
  0
VERTEX
  8
EBENE_1
 62
    39
  6
CONTINUOUS
 10
-0.180346
 20
1.233303
  0
VERTEX
  8
EBENE_1
 62
    39
  6
CONTINUOUS
 10
-0.295102
 20
1.318594
  0
VERTEX
  8
EBENE_1
 62
    39
  6
CONTINUOUS
 10
-0.409858
 20
1.233303
  0
VERTEX
  8
EBENE_1
 62
    39
  6
CONTINUOUS
 10
-0.364205
 20
1.368799
  0
VERTEX
  8
EBENE_1
 62
    39
  6
CONTINUOUS
 10
-0.480783
 20
1.451583
  0
VERTEX
  8
EBENE_1
 62
    39
  6
CONTINUOUS
 10
-0.337807
 20
1.450031
  0
VERTEX
  8
EBENE_1
 62
    39
  6
CONTINUOUS
 10
-0.295102
 20
1.586488
  0
SEQEND
  8
0
  0
POLYLINE
  8
EBENE_1
 62
    39
  6
CONTINUOUS
 66
     1
 40
0.003000
 41
0.003000
  0
VERTEX
  8
EBENE_1
 62
    39
  6
CONTINUOUS
 10
-0.380386
 20
1.096220
  0
VERTEX
  8
EBENE_1
 62
    39
  6
CONTINUOUS
 10
-0.337681
 20
0.959764
  0
VERTEX
  8
EBENE_1
 62
    39
  6
CONTINUOUS
 10
-0.194705
 20
0.961315
  0
VERTEX
  8
EBENE_1
 62
    39
  6
CONTINUOUS
 10
-0.311283
 20
0.878531
  0
VERTEX
  8
EBENE_1
 62
    39
  6
CONTINUOUS
 10
-0.265630
 20
0.743035
  0
VERTEX
  8
EBENE_1
 62
    39
  6
CONTINUOUS
 10
-0.380386
 20
0.828327
  0
VERTEX
  8
EBENE_1
 62
    39
  6
CONTINUOUS
 10
-0.495142
 20
0.743035
  0
VERTEX
  8
EBENE_1
 62
    39
  6
CONTINUOUS
 10
-0.449488
 20
0.878531
  0
VERTEX
  8
EBENE_1
 62
    39
  6
CONTINUOUS
 10
-0.566067
 20
0.961315
  0
VERTEX
  8
EBENE_1
 62
    39
  6
CONTINUOUS
 10
-0.423091
 20
0.959764
  0
VERTEX
  8
EBENE_1
 62
    39
  6
CONTINUOUS
 10
-0.380386
 20
1.096220
  0
SEQEND
  8
0
  0
POLYLINE
  8
EBENE_1
 62
    39
  6
CONTINUOUS
 66
     1
 40
0.003000
 41
0.003000
  0
VERTEX
  8
EBENE_1
 62
    39
  6
CONTINUOUS
 10
-1.008024
 20
0.857583
  0
VERTEX
  8
EBENE_1
 62
    39
  6
CONTINUOUS
 10
-0.965319
 20
0.721126
  0
VERTEX
  8
EBENE_1
 62
    39
  6
CONTINUOUS
 10
-0.822343
 20
0.722677
  0
VERTEX
  8
EBENE_1
 62
    39
  6
CONTINUOUS
 10
-0.938921
 20
0.639894
  0
VERTEX
  8
EBENE_1
 62
    39
  6
CONTINUOUS
 10
-0.893268
 20
0.504398
  0
VERTEX
  8
EBENE_1
 62
    39
  6
CONTINUOUS
 10
-1.008024
 20
0.589689
  0
VERTEX
  8
EBENE_1
 62
    39
  6
CONTINUOUS
 10
-1.122780
 20
0.504398
  0
VERTEX
  8
EBENE_1
 62
    39
  6
CONTINUOUS
 10
-1.077126
 20
0.639894
  0
VERTEX
  8
EBENE_1
 62
    39
  6
CONTINUOUS
 10
-1.193705
 20
0.722677
  0
VERTEX
  8
EBENE_1
 62
    39
  6
CONTINUOUS
 10
-1.050728
 20
0.721126
  0
VERTEX
  8
EBENE_1
 62
    39
  6
CONTINUOUS
 10
-1.008024
 20
0.857583
  0
SEQEND
  8
0
  0
POLYLINE
  8
EBENE_1
 62
    39
  6
CONTINUOUS
 66
     1
 40
0.003000
 41
0.003000
  0
VERTEX
  8
EBENE_1
 62
    39
  6
CONTINUOUS
 10
1.250843
 20
0.514937
  0
VERTEX
  8
EBENE_1
 62
    39
  6
CONTINUOUS
 10
1.293547
 20
0.378480
  0
VERTEX
  8
EBENE_1
 62
    39
  6
CONTINUOUS
 10
1.436524
 20
0.380031
  0
VERTEX
  8
EBENE_1
 62
    39
  6
CONTINUOUS
 10
1.319945
 20
0.297248
  0
VERTEX
  8
EBENE_1
 62
    39
  6
CONTINUOUS
 10
1.365598
 20
0.161752
  0
VERTEX
  8
EBENE_1
 62
    39
  6
CONTINUOUS
 10
1.250843
 20
0.247043
  0
VERTEX
  8
EBENE_1
 62
    39
  6
CONTINUOUS
 10
1.136087
 20
0.161752
  0
VERTEX
  8
EBENE_1
 62
    39
  6
CONTINUOUS
 10
1.181740
 20
0.297248
  0
VERTEX
  8
EBENE_1
 62
    39
  6
CONTINUOUS
 10
1.065161
 20
0.380031
  0
VERTEX
  8
EBENE_1
 62
    39
  6
CONTINUOUS
 10
1.208138
 20
0.378480
  0
VERTEX
  8
EBENE_1
 62
    39
  6
CONTINUOUS
 10
1.250843
 20
0.514937
  0
SEQEND
  8
0
  0
POLYLINE
  8
EBENE_1
 62
    39
  6
CONTINUOUS
 66
     1
 40
0.003000
 41
0.003000
  0
VERTEX
  8
EBENE_1
 62
    39
  6
CONTINUOUS
 10
1.563984
 20
-0.054256
  0
VERTEX
  8
EBENE_1
 62
    39
  6
CONTINUOUS
 10
1.648575
 20
-0.169531
  0
VERTEX
  8
EBENE_1
 62
    39
  6
CONTINUOUS
 10
1.783343
 20
-0.121768
  0
VERTEX
  8
EBENE_1
 62
    39
  6
CONTINUOUS
 10
1.699854
 20
-0.237839
  0
VERTEX
  8
EBENE_1
 62
    39
  6
CONTINUOUS
 10
1.786921
 20
-0.351252
  0
VERTEX
  8
EBENE_1
 62
    39
  6
CONTINUOUS
 10
1.650732
 20
-0.307717
  0
VERTEX
  8
EBENE_1
 62
    39
  6
CONTINUOUS
 10
1.569776
 20
-0.425571
  0
VERTEX
  8
EBENE_1
 62
    39
  6
CONTINUOUS
 10
1.569094
 20
-0.282591
  0
VERTEX
  8
EBENE_1
 62
    39
  6
CONTINUOUS
 10
1.431992
 20
-0.242016
  0
VERTEX
  8
EBENE_1
 62
    39
  6
CONTINUOUS
 10
1.567764
 20
-0.197189
  0
VERTEX
  8
EBENE_1
 62
    39
  6
CONTINUOUS
 10
1.563984
 20
-0.054256
  0
SEQEND
  8
0
  0
POLYLINE
  8
EBENE_1
 62
    39
  6
CONTINUOUS
 66
     1
 40
0.003000
 41
0.003000
  0
VERTEX
  8
EBENE_1
 62
    39
  6
CONTINUOUS
 10
2.150457
 20
-0.109764
  0
VERTEX
  8
EBENE_1
 62
    39
  6
CONTINUOUS
 10
2.193161
 20
-0.246220
  0
VERTEX
  8
EBENE_1
 62
    39
  6
CONTINUOUS
 10
2.336138
 20
-0.244669
  0
VERTEX
  8
EBENE_1
 62
    39
  6
CONTINUOUS
 10
2.219559
 20
-0.327453
  0
VERTEX
  8
EBENE_1
 62
    39
  6
CONTINUOUS
 10
2.265213
 20
-0.462949
  0
VERTEX
  8
EBENE_1
 62
    39
  6
CONTINUOUS
 10
2.150457
 20
-0.377657
  0
VERTEX
  8
EBENE_1
 62
    39
  6
CONTINUOUS
 10
2.035701
 20
-0.462949
  0
VERTEX
  8
EBENE_1
 62
    39
  6
CONTINUOUS
 10
2.081354
 20
-0.327453
  0
VERTEX
  8
EBENE_1
 62
    39
  6
CONTINUOUS
 10
1.964776
 20
-0.244669
  0
VERTEX
  8
EBENE_1
 62
    39
  6
CONTINUOUS
 10
2.107752
 20
-0.246220
  0
VERTEX
  8
EBENE_1
 62
    39
  6
CONTINUOUS
 10
2.150457
 20
-0.109764
  0
SEQEND
  8
0
  0
POLYLINE
  8
EBENE_1
 62
    39
  6
CONTINUOUS
 66
     1
 40
0.003000
 41
0.003000
  0
VERTEX
  8
EBENE_1
 62
    39
  6
CONTINUOUS
 10
2.247378
 20
-0.727354
  0
VERTEX
  8
EBENE_1
 62
    39
  6
CONTINUOUS
 10
2.290083
 20
-0.863811
  0
VERTEX
  8
EBENE_1
 62
    39
  6
CONTINUOUS
 10
2.433059
 20
-0.862260
  0
VERTEX
  8
EBENE_1
 62
    39
  6
CONTINUOUS
 10
2.316480
 20
-0.945043
  0
VERTEX
  8
EBENE_1
 62
    39
  6
CONTINUOUS
 10
2.362134
 20
-1.080539
  0
VERTEX
  8
EBENE_1
 62
    39
  6
CONTINUOUS
 10
2.247378
 20
-0.995248
  0
VERTEX
  8
EBENE_1
 62
    39
  6
CONTINUOUS
 10
2.132622
 20
-1.080539
  0
VERTEX
  8
EBENE_1
 62
    39
  6
CONTINUOUS
 10
2.178276
 20
-0.945043
  0
VERTEX
  8
EBENE_1
 62
    39
  6
CONTINUOUS
 10
2.061697
 20
-0.862260
  0
VERTEX
  8
EBENE_1
 62
    39
  6
CONTINUOUS
 10
2.204673
 20
-0.863811
  0
VERTEX
  8
EBENE_1
 62
    39
  6
CONTINUOUS
 10
2.247378
 20
-0.727354
  0
SEQEND
  8
0
  0
POLYLINE
  8
EBENE_1
 62
    39
  6
CONTINUOUS
 66
     1
 40
0.003000
 41
0.003000
  0
VERTEX
  8
EBENE_1
 62
    39
  6
CONTINUOUS
 10
1.807772
 20
-1.077409
  0
VERTEX
  8
EBENE_1
 62
    39
  6
CONTINUOUS
 10
1.850476
 20
-1.213866
  0
VERTEX
  8
EBENE_1
 62
    39
  6
CONTINUOUS
 10
1.993453
 20
-1.212315
  0
VERTEX
  8
EBENE_1
 62
    39
  6
CONTINUOUS
 10
1.876874
 20
-1.295098
  0
VERTEX
  8
EBENE_1
 62
    39
  6
CONTINUOUS
 10
1.922528
 20
-1.430594
  0
VERTEX
  8
EBENE_1
 62
    39
  6
CONTINUOUS
 10
1.807772
 20
-1.345303
  0
VERTEX
  8
EBENE_1
 62
    39
  6
CONTINUOUS
 10
1.693016
 20
-1.430594
  0
VERTEX
  8
EBENE_1
 62
    39
  6
CONTINUOUS
 10
1.738669
 20
-1.295098
  0
VERTEX
  8
EBENE_1
 62
    39
  6
CONTINUOUS
 10
1.622091
 20
-1.212315
  0
VERTEX
  8
EBENE_1
 62
    39
  6
CONTINUOUS
 10
1.765067
 20
-1.213866
  0
VERTEX
  8
EBENE_1
 62
    39
  6
CONTINUOUS
 10
1.807772
 20
-1.077409
  0
SEQEND
  8
0
  0
POLYLINE
  8
EBENE_1
 62
    39
  6
CONTINUOUS
 66
     1
 40
0.003000
 41
0.003000
  0
VERTEX
  8
EBENE_1
 62
    39
  6
CONTINUOUS
 10
1.632756
 20
-1.670323
  0
VERTEX
  8
EBENE_1
 62
    39
  6
CONTINUOUS
 10
1.675461
 20
-1.806780
  0
VERTEX
  8
EBENE_1
 62
    39
  6
CONTINUOUS
 10
1.818437
 20
-1.805228
  0
VERTEX
  8
EBENE_1
 62
    39
  6
CONTINUOUS
 10
1.701858
 20
-1.888012
  0
VERTEX
  8
EBENE_1
 62
    39
  6
CONTINUOUS
 10
1.747512
 20
-2.023508
  0
VERTEX
  8
EBENE_1
 62
    39
  6
CONTINUOUS
 10
1.632756
 20
-1.938217
  0
VERTEX
  8
EBENE_1
 62
    39
  6
CONTINUOUS
 10
1.518000
 20
-2.023508
  0
VERTEX
  8
EBENE_1
 62
    39
  6
CONTINUOUS
 10
1.563654
 20
-1.888012
  0
VERTEX
  8
EBENE_1
 62
    39
  6
CONTINUOUS
 10
1.447075
 20
-1.805228
  0
VERTEX
  8
EBENE_1
 62
    39
  6
CONTINUOUS
 10
1.590051
 20
-1.806780
  0
VERTEX
  8
EBENE_1
 62
    39
  6
CONTINUOUS
 10
1.632756
 20
-1.670323
  0
SEQEND
  8
0
  0
POLYLINE
  8
EBENE_1
 62
    39
  6
CONTINUOUS
 66
     1
 40
0.003000
 41
0.003000
  0
VERTEX
  8
EBENE_1
 62
    39
  6
CONTINUOUS
 10
1.710874
 20
-2.042016
  0
VERTEX
  8
EBENE_1
 62
    39
  6
CONTINUOUS
 10
1.753579
 20
-2.178472
  0
VERTEX
  8
EBENE_1
 62
    39
  6
CONTINUOUS
 10
1.896555
 20
-2.176921
  0
VERTEX
  8
EBENE_1
 62
    39
  6
CONTINUOUS
 10
1.779976
 20
-2.259705
  0
VERTEX
  8
EBENE_1
 62
    39
  6
CONTINUOUS
 10
1.825630
 20
-2.395201
  0
VERTEX
  8
EBENE_1
 62
    39
  6
CONTINUOUS
 10
1.710874
 20
-2.309909
  0
VERTEX
  8
EBENE_1
 62
    39
  6
CONTINUOUS
 10
1.596118
 20
-2.395201
  0
VERTEX
  8
EBENE_1
 62
    39
  6
CONTINUOUS
 10
1.641772
 20
-2.259705
  0
VERTEX
  8
EBENE_1
 62
    39
  6
CONTINUOUS
 10
1.525193
 20
-2.176921
  0
VERTEX
  8
EBENE_1
 62
    39
  6
CONTINUOUS
 10
1.668169
 20
-2.178472
  0
VERTEX
  8
EBENE_1
 62
    39
  6
CONTINUOUS
 10
1.710874
 20
-2.042016
  0
SEQEND
  8
0
  0
POLYLINE
  8
EBENE_1
 62
    39
  6
CONTINUOUS
 66
     1
 40
0.003000
 41
0.003000
  0
VERTEX
  8
EBENE_1
 62
    39
  6
CONTINUOUS
 10
1.615402
 20
0.860528
  0
VERTEX
  8
EBENE_1
 62
    39
  6
CONTINUOUS
 10
1.658106
 20
0.724071
  0
VERTEX
  8
EBENE_1
 62
    39
  6
CONTINUOUS
 10
1.801083
 20
0.725622
  0
VERTEX
  8
EBENE_1
 62
    39
  6
CONTINUOUS
 10
1.684504
 20
0.642839
  0
VERTEX
  8
EBENE_1
 62
    39
  6
CONTINUOUS
 10
1.730157
 20
0.507343
  0
VERTEX
  8
EBENE_1
 62
    39
  6
CONTINUOUS
 10
1.615402
 20
0.592634
  0
VERTEX
  8
EBENE_1
 62
    39
  6
CONTINUOUS
 10
1.500646
 20
0.507343
  0
VERTEX
  8
EBENE_1
 62
    39
  6
CONTINUOUS
 10
1.546299
 20
0.642839
  0
VERTEX
  8
EBENE_1
 62
    39
  6
CONTINUOUS
 10
1.429720
 20
0.725622
  0
VERTEX
  8
EBENE_1
 62
    39
  6
CONTINUOUS
 10
1.572697
 20
0.724071
  0
VERTEX
  8
EBENE_1
 62
    39
  6
CONTINUOUS
 10
1.615402
 20
0.860528
  0
SEQEND
  8
0
  0
POLYLINE
  8
EBENE_1
 62
    39
  6
CONTINUOUS
 66
     1
 40
0.003000
 41
0.003000
  0
VERTEX
  8
EBENE_1
 62
    39
  6
CONTINUOUS
 10
-1.700724
 20
-0.190898
  0
VERTEX
  8
EBENE_1
 62
    39
  6
CONTINUOUS
 10
-1.658020
 20
-0.327354
  0
VERTEX
  8
EBENE_1
 62
    39
  6
CONTINUOUS
 10
-1.515043
 20
-0.325803
  0
VERTEX
  8
EBENE_1
 62
    39
  6
CONTINUOUS
 10
-1.631622
 20
-0.408587
  0
VERTEX
  8
EBENE_1
 62
    39
  6
CONTINUOUS
 10
-1.585969
 20
-0.544083
  0
VERTEX
  8
EBENE_1
 62
    39
  6
CONTINUOUS
 10
-1.700724
 20
-0.458791
  0
VERTEX
  8
EBENE_1
 62
    39
  6
CONTINUOUS
 10
-1.815480
 20
-0.544083
  0
VERTEX
  8
EBENE_1
 62
    39
  6
CONTINUOUS
 10
-1.769827
 20
-0.408587
  0
VERTEX
  8
EBENE_1
 62
    39
  6
CONTINUOUS
 10
-1.886406
 20
-0.325803
  0
VERTEX
  8
EBENE_1
 62
    39
  6
CONTINUOUS
 10
-1.743429
 20
-0.327354
  0
VERTEX
  8
EBENE_1
 62
    39
  6
CONTINUOUS
 10
-1.700724
 20
-0.190898
  0
SEQEND
  8
0
  0
POLYLINE
  8
EBENE_1
 62
    39
  6
CONTINUOUS
 66
     1
 40
0.003000
 41
0.003000
  0
VERTEX
  8
EBENE_1
 62
    39
  6
CONTINUOUS
 10
-2.235843
 20
-0.261740
  0
VERTEX
  8
EBENE_1
 62
    39
  6
CONTINUOUS
 10
-2.193138
 20
-0.398197
  0
VERTEX
  8
EBENE_1
 62
    39
  6
CONTINUOUS
 10
-2.050161
 20
-0.396646
  0
VERTEX
  8
EBENE_1
 62
    39
  6
CONTINUOUS
 10
-2.166740
 20
-0.479429
  0
VERTEX
  8
EBENE_1
 62
    39
  6
CONTINUOUS
 10
-2.121087
 20
-0.614925
  0
VERTEX
  8
EBENE_1
 62
    39
  6
CONTINUOUS
 10
-2.235843
 20
-0.529634
  0
VERTEX
  8
EBENE_1
 62
    39
  6
CONTINUOUS
 10
-2.350598
 20
-0.614925
  0
VERTEX
  8
EBENE_1
 62
    39
  6
CONTINUOUS
 10
-2.304945
 20
-0.479429
  0
VERTEX
  8
EBENE_1
 62
    39
  6
CONTINUOUS
 10
-2.421524
 20
-0.396646
  0
VERTEX
  8
EBENE_1
 62
    39
  6
CONTINUOUS
 10
-2.278547
 20
-0.398197
  0
VERTEX
  8
EBENE_1
 62
    39
  6
CONTINUOUS
 10
-2.235843
 20
-0.261740
  0
SEQEND
  8
0
  0
POLYLINE
  8
EBENE_1
 62
    39
  6
CONTINUOUS
 66
     1
 40
0.003000
 41
0.003000
  0
VERTEX
  8
EBENE_1
 62
    39
  6
CONTINUOUS
 10
-1.622630
 20
-1.036921
  0
VERTEX
  8
EBENE_1
 62
    39
  6
CONTINUOUS
 10
-1.579925
 20
-1.173378
  0
VERTEX
  8
EBENE_1
 62
    39
  6
CONTINUOUS
 10
-1.436949
 20
-1.171827
  0
VERTEX
  8
EBENE_1
 62
    39
  6
CONTINUOUS
 10
-1.553528
 20
-1.254610
  0
VERTEX
  8
EBENE_1
 62
    39
  6
CONTINUOUS
 10
-1.507874
 20
-1.390106
  0
VERTEX
  8
EBENE_1
 62
    39
  6
CONTINUOUS
 10
-1.622630
 20
-1.304815
  0
VERTEX
  8
EBENE_1
 62
    39
  6
CONTINUOUS
 10
-1.737386
 20
-1.390106
  0
VERTEX
  8
EBENE_1
 62
    39
  6
CONTINUOUS
 10
-1.691732
 20
-1.254610
  0
VERTEX
  8
EBENE_1
 62
    39
  6
CONTINUOUS
 10
-1.808311
 20
-1.171827
  0
VERTEX
  8
EBENE_1
 62
    39
  6
CONTINUOUS
 10
-1.665335
 20
-1.173378
  0
VERTEX
  8
EBENE_1
 62
    39
  6
CONTINUOUS
 10
-1.622630
 20
-1.036921
  0
SEQEND
  8
0
  0
POLYLINE
  8
EBENE_1
 62
    39
  6
CONTINUOUS
 66
     1
 40
0.003000
 41
0.003000
  0
VERTEX
  8
EBENE_1
 62
    39
  6
CONTINUOUS
 10
-1.674685
 20
-1.803362
  0
VERTEX
  8
EBENE_1
 62
    39
  6
CONTINUOUS
 10
-1.631980
 20
-1.939819
  0
VERTEX
  8
EBENE_1
 62
    39
  6
CONTINUOUS
 10
-1.489004
 20
-1.938268
  0
VERTEX
  8
EBENE_1
 62
    39
  6
CONTINUOUS
 10
-1.605583
 20
-2.021051
  0
VERTEX
  8
EBENE_1
 62
    39
  6
CONTINUOUS
 10
-1.559929
 20
-2.156547
  0
VERTEX
  8
EBENE_1
 62
    39
  6
CONTINUOUS
 10
-1.674685
 20
-2.071256
  0
VERTEX
  8
EBENE_1
 62
    39
  6
CONTINUOUS
 10
-1.789441
 20
-2.156547
  0
VERTEX
  8
EBENE_1
 62
    39
  6
CONTINUOUS
 10
-1.743787
 20
-2.021051
  0
VERTEX
  8
EBENE_1
 62
    39
  6
CONTINUOUS
 10
-1.860366
 20
-1.938268
  0
VERTEX
  8
EBENE_1
 62
    39
  6
CONTINUOUS
 10
-1.717390
 20
-1.939819
  0
VERTEX
  8
EBENE_1
 62
    39
  6
CONTINUOUS
 10
-1.674685
 20
-1.803362
  0
SEQEND
  8
0
  0
POLYLINE
  8
EBENE_1
 62
    39
  6
CONTINUOUS
 66
     1
 40
0.003000
 41
0.003000
  0
VERTEX
  8
EBENE_1
 62
    39
  6
CONTINUOUS
 10
-2.253165
 20
-0.915433
  0
VERTEX
  8
EBENE_1
 62
    39
  6
CONTINUOUS
 10
-2.210461
 20
-1.051890
  0
VERTEX
  8
EBENE_1
 62
    39
  6
CONTINUOUS
 10
-2.067484
 20
-1.050339
  0
VERTEX
  8
EBENE_1
 62
    39
  6
CONTINUOUS
 10
-2.184063
 20
-1.133122
  0
VERTEX
  8
EBENE_1
 62
    39
  6
CONTINUOUS
 10
-2.138409
 20
-1.268618
  0
VERTEX
  8
EBENE_1
 62
    39
  6
CONTINUOUS
 10
-2.253165
 20
-1.183327
  0
VERTEX
  8
EBENE_1
 62
    39
  6
CONTINUOUS
 10
-2.367921
 20
-1.268618
  0
VERTEX
  8
EBENE_1
 62
    39
  6
CONTINUOUS
 10
-2.322268
 20
-1.133122
  0
VERTEX
  8
EBENE_1
 62
    39
  6
CONTINUOUS
 10
-2.438846
 20
-1.050339
  0
VERTEX
  8
EBENE_1
 62
    39
  6
CONTINUOUS
 10
-2.295870
 20
-1.051890
  0
VERTEX
  8
EBENE_1
 62
    39
  6
CONTINUOUS
 10
-2.253165
 20
-0.915433
  0
SEQEND
  8
0
  0
POLYLINE
  8
EBENE_1
 62
    39
  6
CONTINUOUS
 66
     1
 40
0.003000
 41
0.003000
  0
VERTEX
  8
EBENE_1
 62
    39
  6
CONTINUOUS
 10
-1.269795
 20
1.155465
  0
VERTEX
  8
EBENE_1
 62
    39
  6
CONTINUOUS
 10
-1.227091
 20
1.019008
  0
VERTEX
  8
EBENE_1
 62
    39
  6
CONTINUOUS
 10
-1.084114
 20
1.020559
  0
VERTEX
  8
EBENE_1
 62
    39
  6
CONTINUOUS
 10
-1.200693
 20
0.937776
  0
VERTEX
  8
EBENE_1
 62
    39
  6
CONTINUOUS
 10
-1.155039
 20
0.802280
  0
VERTEX
  8
EBENE_1
 62
    39
  6
CONTINUOUS
 10
-1.269795
 20
0.887571
  0
VERTEX
  8
EBENE_1
 62
    39
  6
CONTINUOUS
 10
-1.384551
 20
0.802280
  0
VERTEX
  8
EBENE_1
 62
    39
  6
CONTINUOUS
 10
-1.338898
 20
0.937776
  0
VERTEX
  8
EBENE_1
 62
    39
  6
CONTINUOUS
 10
-1.455476
 20
1.020559
  0
VERTEX
  8
EBENE_1
 62
    39
  6
CONTINUOUS
 10
-1.312500
 20
1.019008
  0
VERTEX
  8
EBENE_1
 62
    39
  6
CONTINUOUS
 10
-1.269795
 20
1.155465
  0
SEQEND
  8
0
  0
POLYLINE
  8
EBENE_1
 62
    39
  6
CONTINUOUS
 66
     1
 40
0.003000
 41
0.003000
  0
VERTEX
  8
EBENE_1
 62
    39
  6
CONTINUOUS
 10
-0.969295
 20
1.329732
  0
VERTEX
  8
EBENE_1
 62
    39
  6
CONTINUOUS
 10
-0.793516
 20
1.227492
  0
VERTEX
  8
EBENE_1
 62
    39
  6
CONTINUOUS
 10
-0.644937
 20
1.366335
  0
VERTEX
  8
EBENE_1
 62
    39
  6
CONTINUOUS
 10
-0.687850
 20
1.167563
  0
VERTEX
  8
EBENE_1
 62
    39
  6
CONTINUOUS
 10
-0.509894
 20
1.069161
  0
VERTEX
  8
EBENE_1
 62
    39
  6
CONTINUOUS
 10
-0.712197
 20
1.048551
  0
VERTEX
  8
EBENE_1
 62
    39
  6
CONTINUOUS
 10
-0.750787
 20
0.848898
  0
VERTEX
  8
EBENE_1
 62
    39
  6
CONTINUOUS
 10
-0.832906
 20
1.034929
  0
VERTEX
  8
EBENE_1
 62
    39
  6
CONTINUOUS
 10
-1.034717
 20
1.009937
  0
VERTEX
  8
EBENE_1
 62
    39
  6
CONTINUOUS
 10
-0.883165
 20
1.145524
  0
VERTEX
  8
EBENE_1
 62
    39
  6
CONTINUOUS
 10
-0.969295
 20
1.329732
  0
SEQEND
  8
0
  0
POLYLINE
  8
EBENE_1
 62
    39
  6
CONTINUOUS
 66
     1
 40
0.003000
 41
0.003000
  0
VERTEX
  8
EBENE_1
 62
    39
  6
CONTINUOUS
 10
-1.583614
 20
0.835874
  0
VERTEX
  8
EBENE_1
 62
    39
  6
CONTINUOUS
 10
-1.522878
 20
0.641803
  0
VERTEX
  8
EBENE_1
 62
    39
  6
CONTINUOUS
 10
-1.319535
 20
0.644008
  0
VERTEX
  8
EBENE_1
 62
    39
  6
CONTINUOUS
 10
-1.485339
 20
0.526272
  0
VERTEX
  8
EBENE_1
 62
    39
  6
CONTINUOUS
 10
-1.420406
 20
0.333567
  0
VERTEX
  8
EBENE_1
 62
    39
  6
CONTINUOUS
 10
-1.583614
 20
0.454870
  0
VERTEX
  8
EBENE_1
 62
    39
  6
CONTINUOUS
 10
-1.746823
 20
0.333567
  0
VERTEX
  8
EBENE_1
 62
    39
  6
CONTINUOUS
 10
-1.681890
 20
0.526272
  0
VERTEX
  8
EBENE_1
 62
    39
  6
CONTINUOUS
 10
-1.847693
 20
0.644008
  0
VERTEX
  8
EBENE_1
 62
    39
  6
CONTINUOUS
 10
-1.644354
 20
0.641803
  0
VERTEX
  8
EBENE_1
 62
    39
  6
CONTINUOUS
 10
-1.583614
 20
0.835874
  0
SEQEND
  8
0
  0
POLYLINE
  8
EBENE_1
 62
    39
  6
CONTINUOUS
 66
     1
 40
0.003000
 41
0.003000
  0
VERTEX
  8
EBENE_1
 62
    39
  6
CONTINUOUS
 10
-1.939575
 20
0.347122
  0
VERTEX
  8
EBENE_1
 62
    39
  6
CONTINUOUS
 10
-1.830465
 20
0.175524
  0
VERTEX
  8
EBENE_1
 62
    39
  6
CONTINUOUS
 10
-1.634689
 20
0.230528
  0
VERTEX
  8
EBENE_1
 62
    39
  6
CONTINUOUS
 10
-1.764173
 20
0.073728
  0
VERTEX
  8
EBENE_1
 62
    39
  6
CONTINUOUS
 10
-1.651366
 20
-0.095465
  0
VERTEX
  8
EBENE_1
 62
    39
  6
CONTINUOUS
 10
-1.840500
 20
-0.020772
  0
VERTEX
  8
EBENE_1
 62
    39
  6
CONTINUOUS
 10
-1.966551
 20
-0.180343
  0
VERTEX
  8
EBENE_1
 62
    39
  6
CONTINUOUS
 10
-1.953965
 20
0.022618
  0
VERTEX
  8
EBENE_1
 62
    39
  6
CONTINUOUS
 10
-2.144677
 20
0.093189
  0
VERTEX
  8
EBENE_1
 62
    39
  6
CONTINUOUS
 10
-1.947764
 20
0.143933
  0
VERTEX
  8
EBENE_1
 62
    39
  6
CONTINUOUS
 10
-1.939575
 20
0.347122
  0
SEQEND
  8
0
  0
POLYLINE
  8
EBENE_1
 62
    39
  6
CONTINUOUS
 66
     1
 40
0.003000
 41
0.003000
  0
VERTEX
  8
EBENE_1
 62
    39
  6
CONTINUOUS
 10
-1.732689
 20
-0.619496
  0
VERTEX
  8
EBENE_1
 62
    39
  6
CONTINUOUS
 10
-1.814634
 20
-0.805610
  0
VERTEX
  8
EBENE_1
 62
    39
  6
CONTINUOUS
 10
-1.660047
 20
-0.937732
  0
VERTEX
  8
EBENE_1
 62
    39
  6
CONTINUOUS
 10
-1.862374
 20
-0.917311
  0
VERTEX
  8
EBENE_1
 62
    39
  6
CONTINUOUS
 10
-1.940260
 20
-1.105154
  0
VERTEX
  8
EBENE_1
 62
    39
  6
CONTINUOUS
 10
-1.983362
 20
-0.906425
  0
VERTEX
  8
EBENE_1
 62
    39
  6
CONTINUOUS
 10
-2.186079
 20
-0.890394
  0
VERTEX
  8
EBENE_1
 62
    39
  6
CONTINUOUS
 10
-2.010394
 20
-0.787996
  0
VERTEX
  8
EBENE_1
 62
    39
  6
CONTINUOUS
 10
-2.057795
 20
-0.590244
  0
VERTEX
  8
EBENE_1
 62
    39
  6
CONTINUOUS
 10
-1.906114
 20
-0.725685
  0
VERTEX
  8
EBENE_1
 62
    39
  6
CONTINUOUS
 10
-1.732689
 20
-0.619496
  0
SEQEND
  8
0
  0
POLYLINE
  8
EBENE_1
 62
    39
  6
CONTINUOUS
 66
     1
 40
0.003000
 41
0.003000
  0
VERTEX
  8
EBENE_1
 62
    39
  6
CONTINUOUS
 10
-1.875591
 20
-1.305980
  0
VERTEX
  8
EBENE_1
 62
    39
  6
CONTINUOUS
 10
-1.907307
 20
-1.506843
  0
VERTEX
  8
EBENE_1
 62
    39
  6
CONTINUOUS
 10
-1.724114
 20
-1.595126
  0
VERTEX
  8
EBENE_1
 62
    39
  6
CONTINUOUS
 10
-1.924949
 20
-1.627031
  0
VERTEX
  8
EBENE_1
 62
    39
  6
CONTINUOUS
 10
-1.952299
 20
-1.828535
  0
VERTEX
  8
EBENE_1
 62
    39
  6
CONTINUOUS
 10
-2.044709
 20
-1.647394
  0
VERTEX
  8
EBENE_1
 62
    39
  6
CONTINUOUS
 10
-2.244799
 20
-1.683650
  0
VERTEX
  8
EBENE_1
 62
    39
  6
CONTINUOUS
 10
-2.101079
 20
-1.539791
  0
VERTEX
  8
EBENE_1
 62
    39
  6
CONTINUOUS
 10
-2.197394
 20
-1.360693
  0
VERTEX
  8
EBENE_1
 62
    39
  6
CONTINUOUS
 10
-2.016161
 20
-1.452925
  0
VERTEX
  8
EBENE_1
 62
    39
  6
CONTINUOUS
 10
-1.875591
 20
-1.305980
  0
SEQEND
  8
0
  0
POLYLINE
  8
EBENE_1
 62
    39
  6
CONTINUOUS
 66
     1
 40
0.003000
 41
0.003000
  0
VERTEX
  8
EBENE_1
 62
    39
  6
CONTINUOUS
 10
0.552626
 20
1.388031
  0
VERTEX
  8
EBENE_1
 62
    39
  6
CONTINUOUS
 10
0.675004
 20
1.225626
  0
VERTEX
  8
EBENE_1
 62
    39
  6
CONTINUOUS
 10
0.865799
 20
1.295984
  0
VERTEX
  8
EBENE_1
 62
    39
  6
CONTINUOUS
 10
0.749157
 20
1.129409
  0
VERTEX
  8
EBENE_1
 62
    39
  6
CONTINUOUS
 10
0.875028
 20
0.969697
  0
VERTEX
  8
EBENE_1
 62
    39
  6
CONTINUOUS
 10
0.680563
 20
1.029154
  0
VERTEX
  8
EBENE_1
 62
    39
  6
CONTINUOUS
 10
0.567563
 20
0.860087
  0
VERTEX
  8
EBENE_1
 62
    39
  6
CONTINUOUS
 10
0.564020
 20
1.063409
  0
VERTEX
  8
EBENE_1
 62
    39
  6
CONTINUOUS
 10
0.368307
 20
1.118630
  0
VERTEX
  8
EBENE_1
 62
    39
  6
CONTINUOUS
 10
0.560579
 20
1.184835
  0
VERTEX
  8
EBENE_1
 62
    39
  6
CONTINUOUS
 10
0.552626
 20
1.388031
  0
SEQEND
  8
0
  0
POLYLINE
  8
EBENE_1
 62
    39
  6
CONTINUOUS
 66
     1
 40
0.003000
 41
0.003000
  0
VERTEX
  8
EBENE_1
 62
    39
  6
CONTINUOUS
 10
0.000138
 20
1.697173
  0
VERTEX
  8
EBENE_1
 62
    39
  6
CONTINUOUS
 10
0.034237
 20
1.696944
  0
VERTEX
  8
EBENE_1
 62
    39
  6
CONTINUOUS
 10
0.068229
 20
1.696256
  0
VERTEX
  8
EBENE_1
 62
    39
  6
CONTINUOUS
 10
0.102112
 20
1.695115
  0
VERTEX
  8
EBENE_1
 62
    39
  6
CONTINUOUS
 10
0.135881
 20
1.693521
  0
VERTEX
  8
EBENE_1
 62
    39
  6
CONTINUOUS
 10
0.169534
 20
1.691480
  0
VERTEX
  8
EBENE_1
 62
    39
  6
CONTINUOUS
 10
0.203069
 20
1.688992
  0
VERTEX
  8
EBENE_1
 62
    39
  6
CONTINUOUS
 10
0.236482
 20
1.686062
  0
VERTEX
  8
EBENE_1
 62
    39
  6
CONTINUOUS
 10
0.269770
 20
1.682692
  0
VERTEX
  8
EBENE_1
 62
    39
  6
CONTINUOUS
 10
0.302931
 20
1.678885
  0
VERTEX
  8
EBENE_1
 62
    39
  6
CONTINUOUS
 10
0.335961
 20
1.674644
  0
VERTEX
  8
EBENE_1
 62
    39
  6
CONTINUOUS
 10
0.368857
 20
1.669972
  0
VERTEX
  8
EBENE_1
 62
    39
  6
CONTINUOUS
 10
0.401617
 20
1.664872
  0
VERTEX
  8
EBENE_1
 62
    39
  6
CONTINUOUS
 10
0.434237
 20
1.659348
  0
VERTEX
  8
EBENE_1
 62
    39
  6
CONTINUOUS
 10
0.466716
 20
1.653401
  0
VERTEX
  8
EBENE_1
 62
    39
  6
CONTINUOUS
 10
0.499048
 20
1.647034
  0
VERTEX
  8
EBENE_1
 62
    39
  6
CONTINUOUS
 10
0.531233
 20
1.640252
  0
VERTEX
  8
EBENE_1
 62
    39
  6
CONTINUOUS
 10
0.563266
 20
1.633056
  0
VERTEX
  8
EBENE_1
 62
    39
  6
CONTINUOUS
 10
0.595145
 20
1.625450
  0
VERTEX
  8
EBENE_1
 62
    39
  6
CONTINUOUS
 10
0.626868
 20
1.617437
  0
VERTEX
  8
EBENE_1
 62
    39
  6
CONTINUOUS
 10
0.658430
 20
1.609019
  0
VERTEX
  8
EBENE_1
 62
    39
  6
CONTINUOUS
 10
0.689829
 20
1.600200
  0
VERTEX
  8
EBENE_1
 62
    39
  6
CONTINUOUS
 10
0.721062
 20
1.590982
  0
VERTEX
  8
EBENE_1
 62
    39
  6
CONTINUOUS
 10
0.752126
 20
1.581368
  0
VERTEX
  8
EBENE_1
 62
    39
  6
CONTINUOUS
 10
0.783019
 20
1.571362
  0
VERTEX
  8
EBENE_1
 62
    39
  6
CONTINUOUS
 10
0.813736
 20
1.560966
  0
VERTEX
  8
EBENE_1
 62
    39
  6
CONTINUOUS
 10
0.844276
 20
1.550184
  0
VERTEX
  8
EBENE_1
 62
    39
  6
CONTINUOUS
 10
0.874636
 20
1.539017
  0
VERTEX
  8
EBENE_1
 62
    39
  6
CONTINUOUS
 10
0.904811
 20
1.527470
  0
VERTEX
  8
EBENE_1
 62
    39
  6
CONTINUOUS
 10
0.934800
 20
1.515544
  0
VERTEX
  8
EBENE_1
 62
    39
  6
CONTINUOUS
 10
0.964600
 20
1.503244
  0
VERTEX
  8
EBENE_1
 62
    39
  6
CONTINUOUS
 10
0.994207
 20
1.490571
  0
VERTEX
  8
EBENE_1
 62
    39
  6
CONTINUOUS
 10
1.023619
 20
1.477530
  0
VERTEX
  8
EBENE_1
 62
    39
  6
CONTINUOUS
 10
1.052833
 20
1.464122
  0
VERTEX
  8
EBENE_1
 62
    39
  6
CONTINUOUS
 10
1.081845
 20
1.450351
  0
VERTEX
  8
EBENE_1
 62
    39
  6
CONTINUOUS
 10
1.110653
 20
1.436220
  0
VERTEX
  8
EBENE_1
 62
    39
  6
CONTINUOUS
 10
1.139254
 20
1.421731
  0
VERTEX
  8
EBENE_1
 62
    39
  6
CONTINUOUS
 10
1.167645
 20
1.406888
  0
VERTEX
  8
EBENE_1
 62
    39
  6
CONTINUOUS
 10
1.195823
 20
1.391694
  0
VERTEX
  8
EBENE_1
 62
    39
  6
CONTINUOUS
 10
1.223784
 20
1.376151
  0
VERTEX
  8
EBENE_1
 62
    39
  6
CONTINUOUS
 10
1.251527
 20
1.360262
  0
VERTEX
  8
EBENE_1
 62
    39
  6
CONTINUOUS
 10
1.279048
 20
1.344031
  0
VERTEX
  8
EBENE_1
 62
    39
  6
CONTINUOUS
 10
1.306344
 20
1.327460
  0
VERTEX
  8
EBENE_1
 62
    39
  6
CONTINUOUS
 10
1.333413
 20
1.310553
  0
VERTEX
  8
EBENE_1
 62
    39
  6
CONTINUOUS
 10
1.360250
 20
1.293312
  0
VERTEX
  8
EBENE_1
 62
    39
  6
CONTINUOUS
 10
1.386854
 20
1.275739
  0
VERTEX
  8
EBENE_1
 62
    39
  6
CONTINUOUS
 10
1.413222
 20
1.257839
  0
VERTEX
  8
EBENE_1
 62
    39
  6
CONTINUOUS
 10
1.439350
 20
1.239614
  0
VERTEX
  8
EBENE_1
 62
    39
  6
CONTINUOUS
 10
1.465235
 20
1.221068
  0
VERTEX
  8
EBENE_1
 62
    39
  6
CONTINUOUS
 10
1.490875
 20
1.202202
  0
VERTEX
  8
EBENE_1
 62
    39
  6
CONTINUOUS
 10
1.516266
 20
1.183019
  0
VERTEX
  8
EBENE_1
 62
    39
  6
CONTINUOUS
 10
1.541407
 20
1.163524
  0
VERTEX
  8
EBENE_1
 62
    39
  6
CONTINUOUS
 10
1.566293
 20
1.143719
  0
VERTEX
  8
EBENE_1
 62
    39
  6
CONTINUOUS
 10
1.590921
 20
1.123606
  0
VERTEX
  8
EBENE_1
 62
    39
  6
CONTINUOUS
 10
1.615290
 20
1.103189
  0
VERTEX
  8
EBENE_1
 62
    39
  6
CONTINUOUS
 10
1.639395
 20
1.082470
  0
VERTEX
  8
EBENE_1
 62
    39
  6
CONTINUOUS
 10
1.663235
 20
1.061453
  0
VERTEX
  8
EBENE_1
 62
    39
  6
CONTINUOUS
 10
1.686805
 20
1.040141
  0
VERTEX
  8
EBENE_1
 62
    39
  6
CONTINUOUS
 10
1.710104
 20
1.018536
  0
VERTEX
  8
EBENE_1
 62
    39
  6
CONTINUOUS
 10
1.733127
 20
0.996641
  0
VERTEX
  8
EBENE_1
 62
    39
  6
CONTINUOUS
 10
1.755873
 20
0.974460
  0
VERTEX
  8
EBENE_1
 62
    39
  6
CONTINUOUS
 10
1.778338
 20
0.951995
  0
VERTEX
  8
EBENE_1
 62
    39
  6
CONTINUOUS
 10
1.800519
 20
0.929249
  0
VERTEX
  8
EBENE_1
 62
    39
  6
CONTINUOUS
 10
1.822414
 20
0.906226
  0
VERTEX
  8
EBENE_1
 62
    39
  6
CONTINUOUS
 10
1.844019
 20
0.882927
  0
VERTEX
  8
EBENE_1
 62
    39
  6
CONTINUOUS
 10
1.865331
 20
0.859357
  0
VERTEX
  8
EBENE_1
 62
    39
  6
CONTINUOUS
 10
1.886348
 20
0.835517
  0
VERTEX
  8
EBENE_1
 62
    39
  6
CONTINUOUS
 10
1.907067
 20
0.811412
  0
VERTEX
  8
EBENE_1
 62
    39
  6
CONTINUOUS
 10
1.927484
 20
0.787043
  0
VERTEX
  8
EBENE_1
 62
    39
  6
CONTINUOUS
 10
1.947597
 20
0.762415
  0
VERTEX
  8
EBENE_1
 62
    39
  6
CONTINUOUS
 10
1.967402
 20
0.737529
  0
VERTEX
  8
EBENE_1
 62
    39
  6
CONTINUOUS
 10
1.986897
 20
0.712389
  0
VERTEX
  8
EBENE_1
 62
    39
  6
CONTINUOUS
 10
2.006079
 20
0.686997
  0
VERTEX
  8
EBENE_1
 62
    39
  6
CONTINUOUS
 10
2.024945
 20
0.661357
  0
VERTEX
  8
EBENE_1
 62
    39
  6
CONTINUOUS
 10
2.043492
 20
0.635472
  0
VERTEX
  8
EBENE_1
 62
    39
  6
CONTINUOUS
 10
2.061717
 20
0.609344
  0
VERTEX
  8
EBENE_1
 62
    39
  6
CONTINUOUS
 10
2.079617
 20
0.582976
  0
VERTEX
  8
EBENE_1
 62
    39
  6
CONTINUOUS
 10
2.097189
 20
0.556372
  0
VERTEX
  8
EBENE_1
 62
    39
  6
CONTINUOUS
 10
2.114431
 20
0.529535
  0
VERTEX
  8
EBENE_1
 62
    39
  6
CONTINUOUS
 10
2.131338
 20
0.502466
  0
VERTEX
  8
EBENE_1
 62
    39
  6
CONTINUOUS
 10
2.147909
 20
0.475170
  0
VERTEX
  8
EBENE_1
 62
    39
  6
CONTINUOUS
 10
2.164140
 20
0.447649
  0
VERTEX
  8
EBENE_1
 62
    39
  6
CONTINUOUS
 10
2.180029
 20
0.419906
  0
VERTEX
  8
EBENE_1
 62
    39
  6
CONTINUOUS
 10
2.195572
 20
0.391945
  0
VERTEX
  8
EBENE_1
 62
    39
  6
CONTINUOUS
 10
2.210766
 20
0.363767
  0
VERTEX
  8
EBENE_1
 62
    39
  6
CONTINUOUS
 10
2.225609
 20
0.335376
  0
VERTEX
  8
EBENE_1
 62
    39
  6
CONTINUOUS
 10
2.240098
 20
0.306775
  0
VERTEX
  8
EBENE_1
 62
    39
  6
CONTINUOUS
 10
2.254229
 20
0.277967
  0
VERTEX
  8
EBENE_1
 62
    39
  6
CONTINUOUS
 10
2.268000
 20
0.248955
  0
VERTEX
  8
EBENE_1
 62
    39
  6
CONTINUOUS
 10
2.281408
 20
0.219741
  0
VERTEX
  8
EBENE_1
 62
    39
  6
CONTINUOUS
 10
2.294449
 20
0.190329
  0
VERTEX
  8
EBENE_1
 62
    39
  6
CONTINUOUS
 10
2.307122
 20
0.160722
  0
VERTEX
  8
EBENE_1
 62
    39
  6
CONTINUOUS
 10
2.319422
 20
0.130922
  0
VERTEX
  8
EBENE_1
 62
    39
  6
CONTINUOUS
 10
2.331347
 20
0.100933
  0
VERTEX
  8
EBENE_1
 62
    39
  6
CONTINUOUS
 10
2.342895
 20
0.070758
  0
VERTEX
  8
EBENE_1
 62
    39
  6
CONTINUOUS
 10
2.354061
 20
0.040398
  0
VERTEX
  8
EBENE_1
 62
    39
  6
CONTINUOUS
 10
2.364844
 20
0.009858
  0
VERTEX
  8
EBENE_1
 62
    39
  6
CONTINUOUS
 10
2.375240
 20
-0.020859
  0
VERTEX
  8
EBENE_1
 62
    39
  6
CONTINUOUS
 10
2.385246
 20
-0.051752
  0
VERTEX
  8
EBENE_1
 62
    39
  6
CONTINUOUS
 10
2.394860
 20
-0.082816
  0
VERTEX
  8
EBENE_1
 62
    39
  6
CONTINUOUS
 10
2.404078
 20
-0.114049
  0
VERTEX
  8
EBENE_1
 62
    39
  6
CONTINUOUS
 10
2.412897
 20
-0.145448
  0
VERTEX
  8
EBENE_1
 62
    39
  6
CONTINUOUS
 10
2.421315
 20
-0.177010
  0
VERTEX
  8
EBENE_1
 62
    39
  6
CONTINUOUS
 10
2.429328
 20
-0.208732
  0
VERTEX
  8
EBENE_1
 62
    39
  6
CONTINUOUS
 10
2.436934
 20
-0.240612
  0
VERTEX
  8
EBENE_1
 62
    39
  6
CONTINUOUS
 10
2.444130
 20
-0.272645
  0
VERTEX
  8
EBENE_1
 62
    39
  6
CONTINUOUS
 10
2.450912
 20
-0.304830
  0
VERTEX
  8
EBENE_1
 62
    39
  6
CONTINUOUS
 10
2.457279
 20
-0.337162
  0
VERTEX
  8
EBENE_1
 62
    39
  6
CONTINUOUS
 10
2.463226
 20
-0.369640
  0
VERTEX
  8
EBENE_1
 62
    39
  6
CONTINUOUS
 10
2.468750
 20
-0.402261
  0
VERTEX
  8
EBENE_1
 62
    39
  6
CONTINUOUS
 10
2.473850
 20
-0.435021
  0
VERTEX
  8
EBENE_1
 62
    39
  6
CONTINUOUS
 10
2.478522
 20
-0.467917
  0
VERTEX
  8
EBENE_1
 62
    39
  6
CONTINUOUS
 10
2.482763
 20
-0.500947
  0
VERTEX
  8
EBENE_1
 62
    39
  6
CONTINUOUS
 10
2.486570
 20
-0.534108
  0
VERTEX
  8
EBENE_1
 62
    39
  6
CONTINUOUS
 10
2.489940
 20
-0.567396
  0
VERTEX
  8
EBENE_1
 62
    39
  6
CONTINUOUS
 10
2.492870
 20
-0.600809
  0
VERTEX
  8
EBENE_1
 62
    39
  6
CONTINUOUS
 10
2.495358
 20
-0.634344
  0
VERTEX
  8
EBENE_1
 62
    39
  6
CONTINUOUS
 10
2.497399
 20
-0.667997
  0
VERTEX
  8
EBENE_1
 62
    39
  6
CONTINUOUS
 10
2.498993
 20
-0.701766
  0
VERTEX
  8
EBENE_1
 62
    39
  6
CONTINUOUS
 10
2.500134
 20
-0.735649
  0
VERTEX
  8
EBENE_1
 62
    39
  6
CONTINUOUS
 10
2.500821
 20
-0.769641
  0
VERTEX
  8
EBENE_1
 62
    39
  6
CONTINUOUS
 10
2.501051
 20
-0.803740
  0
VERTEX
  8
EBENE_1
 62
    39
  6
CONTINUOUS
 10
2.501051
 20
-0.803740
  0
VERTEX
  8
EBENE_1
 62
    39
  6
CONTINUOUS
 10
2.500821
 20
-0.837839
  0
VERTEX
  8
EBENE_1
 62
    39
  6
CONTINUOUS
 10
2.500134
 20
-0.871832
  0
VERTEX
  8
EBENE_1
 62
    39
  6
CONTINUOUS
 10
2.498993
 20
-0.905714
  0
VERTEX
  8
EBENE_1
 62
    39
  6
CONTINUOUS
 10
2.497399
 20
-0.939483
  0
VERTEX
  8
EBENE_1
 62
    39
  6
CONTINUOUS
 10
2.495358
 20
-0.973137
  0
VERTEX
  8
EBENE_1
 62
    39
  6
CONTINUOUS
 10
2.492870
 20
-1.006671
  0
VERTEX
  8
EBENE_1
 62
    39
  6
CONTINUOUS
 10
2.489940
 20
-1.040084
  0
VERTEX
  8
EBENE_1
 62
    39
  6
CONTINUOUS
 10
2.486570
 20
-1.073373
  0
VERTEX
  8
EBENE_1
 62
    39
  6
CONTINUOUS
 10
2.482763
 20
-1.106533
  0
VERTEX
  8
EBENE_1
 62
    39
  6
CONTINUOUS
 10
2.478522
 20
-1.139563
  0
VERTEX
  8
EBENE_1
 62
    39
  6
CONTINUOUS
 10
2.473850
 20
-1.172459
  0
VERTEX
  8
EBENE_1
 62
    39
  6
CONTINUOUS
 10
2.468750
 20
-1.205219
  0
VERTEX
  8
EBENE_1
 62
    39
  6
CONTINUOUS
 10
2.463226
 20
-1.237840
  0
VERTEX
  8
EBENE_1
 62
    39
  6
CONTINUOUS
 10
2.457279
 20
-1.270318
  0
VERTEX
  8
EBENE_1
 62
    39
  6
CONTINUOUS
 10
2.450912
 20
-1.302651
  0
VERTEX
  8
EBENE_1
 62
    39
  6
CONTINUOUS
 10
2.444130
 20
-1.334835
  0
VERTEX
  8
EBENE_1
 62
    39
  6
CONTINUOUS
 10
2.436934
 20
-1.366869
  0
VERTEX
  8
EBENE_1
 62
    39
  6
CONTINUOUS
 10
2.429328
 20
-1.398748
  0
VERTEX
  8
EBENE_1
 62
    39
  6
CONTINUOUS
 10
2.421315
 20
-1.430470
  0
VERTEX
  8
EBENE_1
 62
    39
  6
CONTINUOUS
 10
2.412897
 20
-1.462032
  0
VERTEX
  8
EBENE_1
 62
    39
  6
CONTINUOUS
 10
2.404078
 20
-1.493431
  0
VERTEX
  8
EBENE_1
 62
    39
  6
CONTINUOUS
 10
2.394860
 20
-1.524664
  0
VERTEX
  8
EBENE_1
 62
    39
  6
CONTINUOUS
 10
2.385246
 20
-1.555728
  0
VERTEX
  8
EBENE_1
 62
    39
  6
CONTINUOUS
 10
2.375240
 20
-1.586621
  0
VERTEX
  8
EBENE_1
 62
    39
  6
CONTINUOUS
 10
2.364844
 20
-1.617339
  0
VERTEX
  8
EBENE_1
 62
    39
  6
CONTINUOUS
 10
2.354061
 20
-1.647879
  0
VERTEX
  8
EBENE_1
 62
    39
  6
CONTINUOUS
 10
2.342895
 20
-1.678238
  0
VERTEX
  8
EBENE_1
 62
    39
  6
CONTINUOUS
 10
2.331347
 20
-1.708414
  0
VERTEX
  8
EBENE_1
 62
    39
  6
CONTINUOUS
 10
2.319422
 20
-1.738403
  0
VERTEX
  8
EBENE_1
 62
    39
  6
CONTINUOUS
 10
2.307122
 20
-1.768202
  0
VERTEX
  8
EBENE_1
 62
    39
  6
CONTINUOUS
 10
2.294449
 20
-1.797810
  0
VERTEX
  8
EBENE_1
 62
    39
  6
CONTINUOUS
 10
2.281408
 20
-1.827222
  0
VERTEX
  8
EBENE_1
 62
    39
  6
CONTINUOUS
 10
2.268000
 20
-1.856435
  0
VERTEX
  8
EBENE_1
 62
    39
  6
CONTINUOUS
 10
2.254229
 20
-1.885447
  0
VERTEX
  8
EBENE_1
 62
    39
  6
CONTINUOUS
 10
2.240098
 20
-1.914255
  0
VERTEX
  8
EBENE_1
 62
    39
  6
CONTINUOUS
 10
2.225609
 20
-1.942856
  0
VERTEX
  8
EBENE_1
 62
    39
  6
CONTINUOUS
 10
2.210766
 20
-1.971247
  0
VERTEX
  8
EBENE_1
 62
    39
  6
CONTINUOUS
 10
2.195572
 20
-1.999425
  0
VERTEX
  8
EBENE_1
 62
    39
  6
CONTINUOUS
 10
2.180029
 20
-2.027387
  0
VERTEX
  8
EBENE_1
 62
    39
  6
CONTINUOUS
 10
2.164140
 20
-2.055130
  0
VERTEX
  8
EBENE_1
 62
    39
  6
CONTINUOUS
 10
2.147909
 20
-2.082651
  0
VERTEX
  8
EBENE_1
 62
    39
  6
CONTINUOUS
 10
2.131338
 20
-2.109947
  0
VERTEX
  8
EBENE_1
 62
    39
  6
CONTINUOUS
 10
2.114431
 20
-2.137015
  0
VERTEX
  8
EBENE_1
 62
    39
  6
CONTINUOUS
 10
2.097189
 20
-2.163853
  0
VERTEX
  8
EBENE_1
 62
    39
  6
CONTINUOUS
 10
2.079617
 20
-2.190457
  0
VERTEX
  8
EBENE_1
 62
    39
  6
CONTINUOUS
 10
2.061717
 20
-2.216824
  0
VERTEX
  8
EBENE_1
 62
    39
  6
CONTINUOUS
 10
2.043492
 20
-2.242952
  0
VERTEX
  8
EBENE_1
 62
    39
  6
CONTINUOUS
 10
2.024945
 20
-2.268837
  0
VERTEX
  8
EBENE_1
 62
    39
  6
CONTINUOUS
 10
2.006079
 20
-2.294477
  0
VERTEX
  8
EBENE_1
 62
    39
  6
CONTINUOUS
 10
1.986897
 20
-2.319869
  0
VERTEX
  8
EBENE_1
 62
    39
  6
CONTINUOUS
 10
1.967402
 20
-2.345009
  0
VERTEX
  8
EBENE_1
 62
    39
  6
CONTINUOUS
 10
1.947597
 20
-2.369895
  0
VERTEX
  8
EBENE_1
 62
    39
  6
CONTINUOUS
 10
1.927484
 20
-2.394524
  0
VERTEX
  8
EBENE_1
 62
    39
  6
CONTINUOUS
 10
1.907067
 20
-2.418892
  0
VERTEX
  8
EBENE_1
 62
    39
  6
CONTINUOUS
 10
1.886348
 20
-2.442998
  0
VERTEX
  8
EBENE_1
 62
    39
  6
CONTINUOUS
 10
1.865331
 20
-2.466837
  0
VERTEX
  8
EBENE_1
 62
    39
  6
CONTINUOUS
 10
1.844019
 20
-2.490408
  0
VERTEX
  8
EBENE_1
 62
    39
  6
CONTINUOUS
 10
1.822414
 20
-2.513706
  0
VERTEX
  8
EBENE_1
 62
    39
  6
CONTINUOUS
 10
1.800519
 20
-2.536730
  0
VERTEX
  8
EBENE_1
 62
    39
  6
CONTINUOUS
 10
1.778338
 20
-2.559475
  0
VERTEX
  8
EBENE_1
 62
    39
  6
CONTINUOUS
 10
1.755873
 20
-2.581940
  0
VERTEX
  8
EBENE_1
 62
    39
  6
CONTINUOUS
 10
1.733127
 20
-2.604122
  0
VERTEX
  8
EBENE_1
 62
    39
  6
CONTINUOUS
 10
1.710104
 20
-2.626016
  0
VERTEX
  8
EBENE_1
 62
    39
  6
CONTINUOUS
 10
1.686805
 20
-2.647621
  0
VERTEX
  8
EBENE_1
 62
    39
  6
CONTINUOUS
 10
1.663235
 20
-2.668934
  0
VERTEX
  8
EBENE_1
 62
    39
  6
CONTINUOUS
 10
1.639395
 20
-2.689951
  0
VERTEX
  8
EBENE_1
 62
    39
  6
CONTINUOUS
 10
1.615290
 20
-2.710669
  0
VERTEX
  8
EBENE_1
 62
    39
  6
CONTINUOUS
 10
1.590921
 20
-2.731086
  0
VERTEX
  8
EBENE_1
 62
    39
  6
CONTINUOUS
 10
1.566293
 20
-2.751199
  0
VERTEX
  8
EBENE_1
 62
    39
  6
CONTINUOUS
 10
1.541407
 20
-2.771004
  0
VERTEX
  8
EBENE_1
 62
    39
  6
CONTINUOUS
 10
1.516266
 20
-2.790500
  0
VERTEX
  8
EBENE_1
 62
    39
  6
CONTINUOUS
 10
1.490875
 20
-2.809682
  0
VERTEX
  8
EBENE_1
 62
    39
  6
CONTINUOUS
 10
1.465235
 20
-2.828548
  0
VERTEX
  8
EBENE_1
 62
    39
  6
CONTINUOUS
 10
1.439350
 20
-2.847095
  0
VERTEX
  8
EBENE_1
 62
    39
  6
CONTINUOUS
 10
1.413222
 20
-2.865320
  0
VERTEX
  8
EBENE_1
 62
    39
  6
CONTINUOUS
 10
1.386854
 20
-2.883220
  0
VERTEX
  8
EBENE_1
 62
    39
  6
CONTINUOUS
 10
1.360250
 20
-2.900792
  0
VERTEX
  8
EBENE_1
 62
    39
  6
CONTINUOUS
 10
1.333413
 20
-2.918033
  0
VERTEX
  8
EBENE_1
 62
    39
  6
CONTINUOUS
 10
1.306344
 20
-2.934941
  0
VERTEX
  8
EBENE_1
 62
    39
  6
CONTINUOUS
 10
1.279048
 20
-2.951511
  0
VERTEX
  8
EBENE_1
 62
    39
  6
CONTINUOUS
 10
1.251527
 20
-2.967743
  0
VERTEX
  8
EBENE_1
 62
    39
  6
CONTINUOUS
 10
1.223784
 20
-2.983631
  0
VERTEX
  8
EBENE_1
 62
    39
  6
CONTINUOUS
 10
1.195823
 20
-2.999174
  0
VERTEX
  8
EBENE_1
 62
    39
  6
CONTINUOUS
 10
1.167645
 20
-3.014368
  0
VERTEX
  8
EBENE_1
 62
    39
  6
CONTINUOUS
 10
1.139254
 20
-3.029211
  0
VERTEX
  8
EBENE_1
 62
    39
  6
CONTINUOUS
 10
1.110653
 20
-3.043700
  0
VERTEX
  8
EBENE_1
 62
    39
  6
CONTINUOUS
 10
1.081845
 20
-3.057831
  0
VERTEX
  8
EBENE_1
 62
    39
  6
CONTINUOUS
 10
1.052833
 20
-3.071602
  0
VERTEX
  8
EBENE_1
 62
    39
  6
CONTINUOUS
 10
1.023619
 20
-3.085010
  0
VERTEX
  8
EBENE_1
 62
    39
  6
CONTINUOUS
 10
0.994207
 20
-3.098052
  0
VERTEX
  8
EBENE_1
 62
    39
  6
CONTINUOUS
 10
0.964600
 20
-3.110724
  0
VERTEX
  8
EBENE_1
 62
    39
  6
CONTINUOUS
 10
0.934800
 20
-3.123024
  0
VERTEX
  8
EBENE_1
 62
    39
  6
CONTINUOUS
 10
0.904811
 20
-3.134950
  0
VERTEX
  8
EBENE_1
 62
    39
  6
CONTINUOUS
 10
0.874636
 20
-3.146497
  0
VERTEX
  8
EBENE_1
 62
    39
  6
CONTINUOUS
 10
0.844276
 20
-3.157664
  0
VERTEX
  8
EBENE_1
 62
    39
  6
CONTINUOUS
 10
0.813736
 20
-3.168447
  0
VERTEX
  8
EBENE_1
 62
    39
  6
CONTINUOUS
 10
0.783019
 20
-3.178842
  0
VERTEX
  8
EBENE_1
 62
    39
  6
CONTINUOUS
 10
0.752126
 20
-3.188849
  0
VERTEX
  8
EBENE_1
 62
    39
  6
CONTINUOUS
 10
0.721062
 20
-3.198462
  0
VERTEX
  8
EBENE_1
 62
    39
  6
CONTINUOUS
 10
0.689829
 20
-3.207680
  0
VERTEX
  8
EBENE_1
 62
    39
  6
CONTINUOUS
 10
0.658430
 20
-3.216500
  0
VERTEX
  8
EBENE_1
 62
    39
  6
CONTINUOUS
 10
0.626868
 20
-3.224917
  0
VERTEX
  8
EBENE_1
 62
    39
  6
CONTINUOUS
 10
0.595145
 20
-3.232931
  0
VERTEX
  8
EBENE_1
 62
    39
  6
CONTINUOUS
 10
0.563266
 20
-3.240537
  0
VERTEX
  8
EBENE_1
 62
    39
  6
CONTINUOUS
 10
0.531233
 20
-3.247732
  0
VERTEX
  8
EBENE_1
 62
    39
  6
CONTINUOUS
 10
0.499048
 20
-3.254515
  0
VERTEX
  8
EBENE_1
 62
    39
  6
CONTINUOUS
 10
0.466716
 20
-3.260881
  0
VERTEX
  8
EBENE_1
 62
    39
  6
CONTINUOUS
 10
0.434237
 20
-3.266828
  0
VERTEX
  8
EBENE_1
 62
    39
  6
CONTINUOUS
 10
0.401617
 20
-3.272353
  0
VERTEX
  8
EBENE_1
 62
    39
  6
CONTINUOUS
 10
0.368857
 20
-3.277452
  0
VERTEX
  8
EBENE_1
 62
    39
  6
CONTINUOUS
 10
0.335961
 20
-3.282124
  0
VERTEX
  8
EBENE_1
 62
    39
  6
CONTINUOUS
 10
0.302931
 20
-3.286365
  0
VERTEX
  8
EBENE_1
 62
    39
  6
CONTINUOUS
 10
0.269770
 20
-3.290172
  0
VERTEX
  8
EBENE_1
 62
    39
  6
CONTINUOUS
 10
0.236482
 20
-3.293542
  0
VERTEX
  8
EBENE_1
 62
    39
  6
CONTINUOUS
 10
0.203069
 20
-3.296472
  0
VERTEX
  8
EBENE_1
 62
    39
  6
CONTINUOUS
 10
0.169534
 20
-3.298960
  0
VERTEX
  8
EBENE_1
 62
    39
  6
CONTINUOUS
 10
0.135881
 20
-3.301002
  0
VERTEX
  8
EBENE_1
 62
    39
  6
CONTINUOUS
 10
0.102112
 20
-3.302595
  0
VERTEX
  8
EBENE_1
 62
    39
  6
CONTINUOUS
 10
0.068229
 20
-3.303737
  0
VERTEX
  8
EBENE_1
 62
    39
  6
CONTINUOUS
 10
0.034237
 20
-3.304424
  0
VERTEX
  8
EBENE_1
 62
    39
  6
CONTINUOUS
 10
0.000138
 20
-3.304654
  0
VERTEX
  8
EBENE_1
 62
    39
  6
CONTINUOUS
 10
0.000138
 20
-3.304654
  0
VERTEX
  8
EBENE_1
 62
    39
  6
CONTINUOUS
 10
-0.033961
 20
-3.304424
  0
VERTEX
  8
EBENE_1
 62
    39
  6
CONTINUOUS
 10
-0.067954
 20
-3.303737
  0
VERTEX
  8
EBENE_1
 62
    39
  6
CONTINUOUS
 10
-0.101836
 20
-3.302595
  0
VERTEX
  8
EBENE_1
 62
    39
  6
CONTINUOUS
 10
-0.135605
 20
-3.301002
  0
VERTEX
  8
EBENE_1
 62
    39
  6
CONTINUOUS
 10
-0.169259
 20
-3.298960
  0
VERTEX
  8
EBENE_1
 62
    39
  6
CONTINUOUS
 10
-0.202793
 20
-3.296472
  0
VERTEX
  8
EBENE_1
 62
    39
  6
CONTINUOUS
 10
-0.236206
 20
-3.293542
  0
VERTEX
  8
EBENE_1
 62
    39
  6
CONTINUOUS
 10
-0.269495
 20
-3.290172
  0
VERTEX
  8
EBENE_1
 62
    39
  6
CONTINUOUS
 10
-0.302655
 20
-3.286365
  0
VERTEX
  8
EBENE_1
 62
    39
  6
CONTINUOUS
 10
-0.335685
 20
-3.282124
  0
VERTEX
  8
EBENE_1
 62
    39
  6
CONTINUOUS
 10
-0.368581
 20
-3.277452
  0
VERTEX
  8
EBENE_1
 62
    39
  6
CONTINUOUS
 10
-0.401341
 20
-3.272353
  0
VERTEX
  8
EBENE_1
 62
    39
  6
CONTINUOUS
 10
-0.433962
 20
-3.266828
  0
VERTEX
  8
EBENE_1
 62
    39
  6
CONTINUOUS
 10
-0.466440
 20
-3.260881
  0
VERTEX
  8
EBENE_1
 62
    39
  6
CONTINUOUS
 10
-0.498773
 20
-3.254515
  0
VERTEX
  8
EBENE_1
 62
    39
  6
CONTINUOUS
 10
-0.530957
 20
-3.247732
  0
VERTEX
  8
EBENE_1
 62
    39
  6
CONTINUOUS
 10
-0.562991
 20
-3.240537
  0
VERTEX
  8
EBENE_1
 62
    39
  6
CONTINUOUS
 10
-0.594870
 20
-3.232931
  0
VERTEX
  8
EBENE_1
 62
    39
  6
CONTINUOUS
 10
-0.626592
 20
-3.224917
  0
VERTEX
  8
EBENE_1
 62
    39
  6
CONTINUOUS
 10
-0.658154
 20
-3.216500
  0
VERTEX
  8
EBENE_1
 62
    39
  6
CONTINUOUS
 10
-0.689553
 20
-3.207680
  0
VERTEX
  8
EBENE_1
 62
    39
  6
CONTINUOUS
 10
-0.720786
 20
-3.198462
  0
VERTEX
  8
EBENE_1
 62
    39
  6
CONTINUOUS
 10
-0.751851
 20
-3.188849
  0
VERTEX
  8
EBENE_1
 62
    39
  6
CONTINUOUS
 10
-0.782743
 20
-3.178842
  0
VERTEX
  8
EBENE_1
 62
    39
  6
CONTINUOUS
 10
-0.813461
 20
-3.168447
  0
VERTEX
  8
EBENE_1
 62
    39
  6
CONTINUOUS
 10
-0.844001
 20
-3.157664
  0
VERTEX
  8
EBENE_1
 62
    39
  6
CONTINUOUS
 10
-0.874360
 20
-3.146497
  0
VERTEX
  8
EBENE_1
 62
    39
  6
CONTINUOUS
 10
-0.904536
 20
-3.134950
  0
VERTEX
  8
EBENE_1
 62
    39
  6
CONTINUOUS
 10
-0.934525
 20
-3.123024
  0
VERTEX
  8
EBENE_1
 62
    39
  6
CONTINUOUS
 10
-0.964324
 20
-3.110724
  0
VERTEX
  8
EBENE_1
 62
    39
  6
CONTINUOUS
 10
-0.993932
 20
-3.098052
  0
VERTEX
  8
EBENE_1
 62
    39
  6
CONTINUOUS
 10
-1.023344
 20
-3.085010
  0
VERTEX
  8
EBENE_1
 62
    39
  6
CONTINUOUS
 10
-1.052557
 20
-3.071602
  0
VERTEX
  8
EBENE_1
 62
    39
  6
CONTINUOUS
 10
-1.081569
 20
-3.057831
  0
VERTEX
  8
EBENE_1
 62
    39
  6
CONTINUOUS
 10
-1.110378
 20
-3.043700
  0
VERTEX
  8
EBENE_1
 62
    39
  6
CONTINUOUS
 10
-1.138978
 20
-3.029211
  0
VERTEX
  8
EBENE_1
 62
    39
  6
CONTINUOUS
 10
-1.167369
 20
-3.014368
  0
VERTEX
  8
EBENE_1
 62
    39
  6
CONTINUOUS
 10
-1.195547
 20
-2.999174
  0
VERTEX
  8
EBENE_1
 62
    39
  6
CONTINUOUS
 10
-1.223509
 20
-2.983631
  0
VERTEX
  8
EBENE_1
 62
    39
  6
CONTINUOUS
 10
-1.251252
 20
-2.967743
  0
VERTEX
  8
EBENE_1
 62
    39
  6
CONTINUOUS
 10
-1.278773
 20
-2.951511
  0
VERTEX
  8
EBENE_1
 62
    39
  6
CONTINUOUS
 10
-1.306069
 20
-2.934941
  0
VERTEX
  8
EBENE_1
 62
    39
  6
CONTINUOUS
 10
-1.333137
 20
-2.918033
  0
VERTEX
  8
EBENE_1
 62
    39
  6
CONTINUOUS
 10
-1.359975
 20
-2.900792
  0
VERTEX
  8
EBENE_1
 62
    39
  6
CONTINUOUS
 10
-1.386579
 20
-2.883220
  0
VERTEX
  8
EBENE_1
 62
    39
  6
CONTINUOUS
 10
-1.412946
 20
-2.865320
  0
VERTEX
  8
EBENE_1
 62
    39
  6
CONTINUOUS
 10
-1.439074
 20
-2.847095
  0
VERTEX
  8
EBENE_1
 62
    39
  6
CONTINUOUS
 10
-1.464959
 20
-2.828548
  0
VERTEX
  8
EBENE_1
 62
    39
  6
CONTINUOUS
 10
-1.490599
 20
-2.809682
  0
VERTEX
  8
EBENE_1
 62
    39
  6
CONTINUOUS
 10
-1.515991
 20
-2.790500
  0
VERTEX
  8
EBENE_1
 62
    39
  6
CONTINUOUS
 10
-1.541131
 20
-2.771004
  0
VERTEX
  8
EBENE_1
 62
    39
  6
CONTINUOUS
 10
-1.566017
 20
-2.751199
  0
VERTEX
  8
EBENE_1
 62
    39
  6
CONTINUOUS
 10
-1.590646
 20
-2.731086
  0
VERTEX
  8
EBENE_1
 62
    39
  6
CONTINUOUS
 10
-1.615014
 20
-2.710669
  0
VERTEX
  8
EBENE_1
 62
    39
  6
CONTINUOUS
 10
-1.639120
 20
-2.689951
  0
VERTEX
  8
EBENE_1
 62
    39
  6
CONTINUOUS
 10
-1.662959
 20
-2.668934
  0
VERTEX
  8
EBENE_1
 62
    39
  6
CONTINUOUS
 10
-1.686530
 20
-2.647621
  0
VERTEX
  8
EBENE_1
 62
    39
  6
CONTINUOUS
 10
-1.709828
 20
-2.626016
  0
VERTEX
  8
EBENE_1
 62
    39
  6
CONTINUOUS
 10
-1.732852
 20
-2.604122
  0
VERTEX
  8
EBENE_1
 62
    39
  6
CONTINUOUS
 10
-1.755597
 20
-2.581940
  0
VERTEX
  8
EBENE_1
 62
    39
  6
CONTINUOUS
 10
-1.778062
 20
-2.559475
  0
VERTEX
  8
EBENE_1
 62
    39
  6
CONTINUOUS
 10
-1.800244
 20
-2.536730
  0
VERTEX
  8
EBENE_1
 62
    39
  6
CONTINUOUS
 10
-1.822138
 20
-2.513706
  0
VERTEX
  8
EBENE_1
 62
    39
  6
CONTINUOUS
 10
-1.843743
 20
-2.490408
  0
VERTEX
  8
EBENE_1
 62
    39
  6
CONTINUOUS
 10
-1.865056
 20
-2.466837
  0
VERTEX
  8
EBENE_1
 62
    39
  6
CONTINUOUS
 10
-1.886073
 20
-2.442998
  0
VERTEX
  8
EBENE_1
 62
    39
  6
CONTINUOUS
 10
-1.906791
 20
-2.418892
  0
VERTEX
  8
EBENE_1
 62
    39
  6
CONTINUOUS
 10
-1.927208
 20
-2.394524
  0
VERTEX
  8
EBENE_1
 62
    39
  6
CONTINUOUS
 10
-1.947321
 20
-2.369895
  0
VERTEX
  8
EBENE_1
 62
    39
  6
CONTINUOUS
 10
-1.967126
 20
-2.345009
  0
VERTEX
  8
EBENE_1
 62
    39
  6
CONTINUOUS
 10
-1.986622
 20
-2.319869
  0
VERTEX
  8
EBENE_1
 62
    39
  6
CONTINUOUS
 10
-2.005804
 20
-2.294477
  0
VERTEX
  8
EBENE_1
 62
    39
  6
CONTINUOUS
 10
-2.024670
 20
-2.268837
  0
VERTEX
  8
EBENE_1
 62
    39
  6
CONTINUOUS
 10
-2.043217
 20
-2.242952
  0
VERTEX
  8
EBENE_1
 62
    39
  6
CONTINUOUS
 10
-2.061442
 20
-2.216824
  0
VERTEX
  8
EBENE_1
 62
    39
  6
CONTINUOUS
 10
-2.079342
 20
-2.190457
  0
VERTEX
  8
EBENE_1
 62
    39
  6
CONTINUOUS
 10
-2.096914
 20
-2.163853
  0
VERTEX
  8
EBENE_1
 62
    39
  6
CONTINUOUS
 10
-2.114155
 20
-2.137015
  0
VERTEX
  8
EBENE_1
 62
    39
  6
CONTINUOUS
 10
-2.131063
 20
-2.109947
  0
VERTEX
  8
EBENE_1
 62
    39
  6
CONTINUOUS
 10
-2.147633
 20
-2.082651
  0
VERTEX
  8
EBENE_1
 62
    39
  6
CONTINUOUS
 10
-2.163865
 20
-2.055130
  0
VERTEX
  8
EBENE_1
 62
    39
  6
CONTINUOUS
 10
-2.179753
 20
-2.027387
  0
VERTEX
  8
EBENE_1
 62
    39
  6
CONTINUOUS
 10
-2.195296
 20
-1.999425
  0
VERTEX
  8
EBENE_1
 62
    39
  6
CONTINUOUS
 10
-2.210490
 20
-1.971247
  0
VERTEX
  8
EBENE_1
 62
    39
  6
CONTINUOUS
 10
-2.225333
 20
-1.942856
  0
VERTEX
  8
EBENE_1
 62
    39
  6
CONTINUOUS
 10
-2.239822
 20
-1.914255
  0
VERTEX
  8
EBENE_1
 62
    39
  6
CONTINUOUS
 10
-2.253953
 20
-1.885447
  0
VERTEX
  8
EBENE_1
 62
    39
  6
CONTINUOUS
 10
-2.267724
 20
-1.856435
  0
VERTEX
  8
EBENE_1
 62
    39
  6
CONTINUOUS
 10
-2.281132
 20
-1.827222
  0
VERTEX
  8
EBENE_1
 62
    39
  6
CONTINUOUS
 10
-2.294174
 20
-1.797810
  0
VERTEX
  8
EBENE_1
 62
    39
  6
CONTINUOUS
 10
-2.306846
 20
-1.768202
  0
VERTEX
  8
EBENE_1
 62
    39
  6
CONTINUOUS
 10
-2.319146
 20
-1.738403
  0
VERTEX
  8
EBENE_1
 62
    39
  6
CONTINUOUS
 10
-2.331072
 20
-1.708414
  0
VERTEX
  8
EBENE_1
 62
    39
  6
CONTINUOUS
 10
-2.342619
 20
-1.678238
  0
VERTEX
  8
EBENE_1
 62
    39
  6
CONTINUOUS
 10
-2.353786
 20
-1.647879
  0
VERTEX
  8
EBENE_1
 62
    39
  6
CONTINUOUS
 10
-2.364569
 20
-1.617339
  0
VERTEX
  8
EBENE_1
 62
    39
  6
CONTINUOUS
 10
-2.374965
 20
-1.586621
  0
VERTEX
  8
EBENE_1
 62
    39
  6
CONTINUOUS
 10
-2.384971
 20
-1.555728
  0
VERTEX
  8
EBENE_1
 62
    39
  6
CONTINUOUS
 10
-2.394584
 20
-1.524664
  0
VERTEX
  8
EBENE_1
 62
    39
  6
CONTINUOUS
 10
-2.403802
 20
-1.493431
  0
VERTEX
  8
EBENE_1
 62
    39
  6
CONTINUOUS
 10
-2.412622
 20
-1.462032
  0
VERTEX
  8
EBENE_1
 62
    39
  6
CONTINUOUS
 10
-2.421039
 20
-1.430470
  0
VERTEX
  8
EBENE_1
 62
    39
  6
CONTINUOUS
 10
-2.429053
 20
-1.398748
  0
VERTEX
  8
EBENE_1
 62
    39
  6
CONTINUOUS
 10
-2.436659
 20
-1.366869
  0
VERTEX
  8
EBENE_1
 62
    39
  6
CONTINUOUS
 10
-2.443854
 20
-1.334835
  0
VERTEX
  8
EBENE_1
 62
    39
  6
CONTINUOUS
 10
-2.450637
 20
-1.302651
  0
VERTEX
  8
EBENE_1
 62
    39
  6
CONTINUOUS
 10
-2.457003
 20
-1.270318
  0
VERTEX
  8
EBENE_1
 62
    39
  6
CONTINUOUS
 10
-2.462950
 20
-1.237840
  0
VERTEX
  8
EBENE_1
 62
    39
  6
CONTINUOUS
 10
-2.468475
 20
-1.205219
  0
VERTEX
  8
EBENE_1
 62
    39
  6
CONTINUOUS
 10
-2.473575
 20
-1.172459
  0
VERTEX
  8
EBENE_1
 62
    39
  6
CONTINUOUS
 10
-2.478246
 20
-1.139563
  0
VERTEX
  8
EBENE_1
 62
    39
  6
CONTINUOUS
 10
-2.482487
 20
-1.106533
  0
VERTEX
  8
EBENE_1
 62
    39
  6
CONTINUOUS
 10
-2.486294
 20
-1.073373
  0
VERTEX
  8
EBENE_1
 62
    39
  6
CONTINUOUS
 10
-2.489664
 20
-1.040084
  0
VERTEX
  8
EBENE_1
 62
    39
  6
CONTINUOUS
 10
-2.492594
 20
-1.006671
  0
VERTEX
  8
EBENE_1
 62
    39
  6
CONTINUOUS
 10
-2.495082
 20
-0.973137
  0
VERTEX
  8
EBENE_1
 62
    39
  6
CONTINUOUS
 10
-2.497124
 20
-0.939483
  0
VERTEX
  8
EBENE_1
 62
    39
  6
CONTINUOUS
 10
-2.498717
 20
-0.905714
  0
VERTEX
  8
EBENE_1
 62
    39
  6
CONTINUOUS
 10
-2.499859
 20
-0.871832
  0
VERTEX
  8
EBENE_1
 62
    39
  6
CONTINUOUS
 10
-2.500546
 20
-0.837839
  0
VERTEX
  8
EBENE_1
 62
    39
  6
CONTINUOUS
 10
-2.500776
 20
-0.803740
  0
VERTEX
  8
EBENE_1
 62
    39
  6
CONTINUOUS
 10
-2.500776
 20
-0.803740
  0
VERTEX
  8
EBENE_1
 62
    39
  6
CONTINUOUS
 10
-2.500546
 20
-0.769641
  0
VERTEX
  8
EBENE_1
 62
    39
  6
CONTINUOUS
 10
-2.499859
 20
-0.735649
  0
VERTEX
  8
EBENE_1
 62
    39
  6
CONTINUOUS
 10
-2.498717
 20
-0.701766
  0
VERTEX
  8
EBENE_1
 62
    39
  6
CONTINUOUS
 10
-2.497124
 20
-0.667997
  0
VERTEX
  8
EBENE_1
 62
    39
  6
CONTINUOUS
 10
-2.495082
 20
-0.634344
  0
VERTEX
  8
EBENE_1
 62
    39
  6
CONTINUOUS
 10
-2.492594
 20
-0.600809
  0
VERTEX
  8
EBENE_1
 62
    39
  6
CONTINUOUS
 10
-2.489664
 20
-0.567396
  0
VERTEX
  8
EBENE_1
 62
    39
  6
CONTINUOUS
 10
-2.486294
 20
-0.534108
  0
VERTEX
  8
EBENE_1
 62
    39
  6
CONTINUOUS
 10
-2.482487
 20
-0.500947
  0
VERTEX
  8
EBENE_1
 62
    39
  6
CONTINUOUS
 10
-2.478246
 20
-0.467917
  0
VERTEX
  8
EBENE_1
 62
    39
  6
CONTINUOUS
 10
-2.473575
 20
-0.435021
  0
VERTEX
  8
EBENE_1
 62
    39
  6
CONTINUOUS
 10
-2.468475
 20
-0.402261
  0
VERTEX
  8
EBENE_1
 62
    39
  6
CONTINUOUS
 10
-2.462950
 20
-0.369640
  0
VERTEX
  8
EBENE_1
 62
    39
  6
CONTINUOUS
 10
-2.457003
 20
-0.337162
  0
VERTEX
  8
EBENE_1
 62
    39
  6
CONTINUOUS
 10
-2.450637
 20
-0.304830
  0
VERTEX
  8
EBENE_1
 62
    39
  6
CONTINUOUS
 10
-2.443854
 20
-0.272645
  0
VERTEX
  8
EBENE_1
 62
    39
  6
CONTINUOUS
 10
-2.436659
 20
-0.240612
  0
VERTEX
  8
EBENE_1
 62
    39
  6
CONTINUOUS
 10
-2.429053
 20
-0.208732
  0
VERTEX
  8
EBENE_1
 62
    39
  6
CONTINUOUS
 10
-2.421039
 20
-0.177010
  0
VERTEX
  8
EBENE_1
 62
    39
  6
CONTINUOUS
 10
-2.412622
 20
-0.145448
  0
VERTEX
  8
EBENE_1
 62
    39
  6
CONTINUOUS
 10
-2.403802
 20
-0.114049
  0
VERTEX
  8
EBENE_1
 62
    39
  6
CONTINUOUS
 10
-2.394584
 20
-0.082816
  0
VERTEX
  8
EBENE_1
 62
    39
  6
CONTINUOUS
 10
-2.384971
 20
-0.051752
  0
VERTEX
  8
EBENE_1
 62
    39
  6
CONTINUOUS
 10
-2.374965
 20
-0.020859
  0
VERTEX
  8
EBENE_1
 62
    39
  6
CONTINUOUS
 10
-2.364569
 20
0.009858
  0
VERTEX
  8
EBENE_1
 62
    39
  6
CONTINUOUS
 10
-2.353786
 20
0.040398
  0
VERTEX
  8
EBENE_1
 62
    39
  6
CONTINUOUS
 10
-2.342619
 20
0.070758
  0
VERTEX
  8
EBENE_1
 62
    39
  6
CONTINUOUS
 10
-2.331072
 20
0.100933
  0
VERTEX
  8
EBENE_1
 62
    39
  6
CONTINUOUS
 10
-2.319146
 20
0.130922
  0
VERTEX
  8
EBENE_1
 62
    39
  6
CONTINUOUS
 10
-2.306846
 20
0.160722
  0
VERTEX
  8
EBENE_1
 62
    39
  6
CONTINUOUS
 10
-2.294174
 20
0.190329
  0
VERTEX
  8
EBENE_1
 62
    39
  6
CONTINUOUS
 10
-2.281132
 20
0.219741
  0
VERTEX
  8
EBENE_1
 62
    39
  6
CONTINUOUS
 10
-2.267724
 20
0.248955
  0
VERTEX
  8
EBENE_1
 62
    39
  6
CONTINUOUS
 10
-2.253953
 20
0.277967
  0
VERTEX
  8
EBENE_1
 62
    39
  6
CONTINUOUS
 10
-2.239822
 20
0.306775
  0
VERTEX
  8
EBENE_1
 62
    39
  6
CONTINUOUS
 10
-2.225333
 20
0.335376
  0
VERTEX
  8
EBENE_1
 62
    39
  6
CONTINUOUS
 10
-2.210490
 20
0.363767
  0
VERTEX
  8
EBENE_1
 62
    39
  6
CONTINUOUS
 10
-2.195296
 20
0.391945
  0
VERTEX
  8
EBENE_1
 62
    39
  6
CONTINUOUS
 10
-2.179753
 20
0.419906
  0
VERTEX
  8
EBENE_1
 62
    39
  6
CONTINUOUS
 10
-2.163865
 20
0.447649
  0
VERTEX
  8
EBENE_1
 62
    39
  6
CONTINUOUS
 10
-2.147633
 20
0.475170
  0
VERTEX
  8
EBENE_1
 62
    39
  6
CONTINUOUS
 10
-2.131063
 20
0.502466
  0
VERTEX
  8
EBENE_1
 62
    39
  6
CONTINUOUS
 10
-2.114155
 20
0.529535
  0
VERTEX
  8
EBENE_1
 62
    39
  6
CONTINUOUS
 10
-2.096914
 20
0.556372
  0
VERTEX
  8
EBENE_1
 62
    39
  6
CONTINUOUS
 10
-2.079342
 20
0.582976
  0
VERTEX
  8
EBENE_1
 62
    39
  6
CONTINUOUS
 10
-2.061442
 20
0.609344
  0
VERTEX
  8
EBENE_1
 62
    39
  6
CONTINUOUS
 10
-2.043217
 20
0.635472
  0
VERTEX
  8
EBENE_1
 62
    39
  6
CONTINUOUS
 10
-2.024670
 20
0.661357
  0
VERTEX
  8
EBENE_1
 62
    39
  6
CONTINUOUS
 10
-2.005804
 20
0.686997
  0
VERTEX
  8
EBENE_1
 62
    39
  6
CONTINUOUS
 10
-1.986622
 20
0.712389
  0
VERTEX
  8
EBENE_1
 62
    39
  6
CONTINUOUS
 10
-1.967126
 20
0.737529
  0
VERTEX
  8
EBENE_1
 62
    39
  6
CONTINUOUS
 10
-1.947321
 20
0.762415
  0
VERTEX
  8
EBENE_1
 62
    39
  6
CONTINUOUS
 10
-1.927208
 20
0.787043
  0
VERTEX
  8
EBENE_1
 62
    39
  6
CONTINUOUS
 10
-1.906791
 20
0.811412
  0
VERTEX
  8
EBENE_1
 62
    39
  6
CONTINUOUS
 10
-1.886073
 20
0.835517
  0
VERTEX
  8
EBENE_1
 62
    39
  6
CONTINUOUS
 10
-1.865056
 20
0.859357
  0
VERTEX
  8
EBENE_1
 62
    39
  6
CONTINUOUS
 10
-1.843743
 20
0.882927
  0
VERTEX
  8
EBENE_1
 62
    39
  6
CONTINUOUS
 10
-1.822138
 20
0.906226
  0
VERTEX
  8
EBENE_1
 62
    39
  6
CONTINUOUS
 10
-1.800244
 20
0.929249
  0
VERTEX
  8
EBENE_1
 62
    39
  6
CONTINUOUS
 10
-1.778062
 20
0.951995
  0
VERTEX
  8
EBENE_1
 62
    39
  6
CONTINUOUS
 10
-1.755597
 20
0.974460
  0
VERTEX
  8
EBENE_1
 62
    39
  6
CONTINUOUS
 10
-1.732852
 20
0.996641
  0
VERTEX
  8
EBENE_1
 62
    39
  6
CONTINUOUS
 10
-1.709828
 20
1.018536
  0
VERTEX
  8
EBENE_1
 62
    39
  6
CONTINUOUS
 10
-1.686530
 20
1.040141
  0
VERTEX
  8
EBENE_1
 62
    39
  6
CONTINUOUS
 10
-1.662959
 20
1.061453
  0
VERTEX
  8
EBENE_1
 62
    39
  6
CONTINUOUS
 10
-1.639120
 20
1.082470
  0
VERTEX
  8
EBENE_1
 62
    39
  6
CONTINUOUS
 10
-1.615014
 20
1.103189
  0
VERTEX
  8
EBENE_1
 62
    39
  6
CONTINUOUS
 10
-1.590646
 20
1.123606
  0
VERTEX
  8
EBENE_1
 62
    39
  6
CONTINUOUS
 10
-1.566017
 20
1.143719
  0
VERTEX
  8
EBENE_1
 62
    39
  6
CONTINUOUS
 10
-1.541131
 20
1.163524
  0
VERTEX
  8
EBENE_1
 62
    39
  6
CONTINUOUS
 10
-1.515991
 20
1.183019
  0
VERTEX
  8
EBENE_1
 62
    39
  6
CONTINUOUS
 10
-1.490599
 20
1.202202
  0
VERTEX
  8
EBENE_1
 62
    39
  6
CONTINUOUS
 10
-1.464959
 20
1.221068
  0
VERTEX
  8
EBENE_1
 62
    39
  6
CONTINUOUS
 10
-1.439074
 20
1.239614
  0
VERTEX
  8
EBENE_1
 62
    39
  6
CONTINUOUS
 10
-1.412946
 20
1.257839
  0
VERTEX
  8
EBENE_1
 62
    39
  6
CONTINUOUS
 10
-1.386579
 20
1.275739
  0
VERTEX
  8
EBENE_1
 62
    39
  6
CONTINUOUS
 10
-1.359975
 20
1.293312
  0
VERTEX
  8
EBENE_1
 62
    39
  6
CONTINUOUS
 10
-1.333137
 20
1.310553
  0
VERTEX
  8
EBENE_1
 62
    39
  6
CONTINUOUS
 10
-1.306069
 20
1.327460
  0
VERTEX
  8
EBENE_1
 62
    39
  6
CONTINUOUS
 10
-1.278773
 20
1.344031
  0
VERTEX
  8
EBENE_1
 62
    39
  6
CONTINUOUS
 10
-1.251252
 20
1.360262
  0
VERTEX
  8
EBENE_1
 62
    39
  6
CONTINUOUS
 10
-1.223509
 20
1.376151
  0
VERTEX
  8
EBENE_1
 62
    39
  6
CONTINUOUS
 10
-1.195547
 20
1.391694
  0
VERTEX
  8
EBENE_1
 62
    39
  6
CONTINUOUS
 10
-1.167369
 20
1.406888
  0
VERTEX
  8
EBENE_1
 62
    39
  6
CONTINUOUS
 10
-1.138978
 20
1.421731
  0
VERTEX
  8
EBENE_1
 62
    39
  6
CONTINUOUS
 10
-1.110378
 20
1.436220
  0
VERTEX
  8
EBENE_1
 62
    39
  6
CONTINUOUS
 10
-1.081569
 20
1.450351
  0
VERTEX
  8
EBENE_1
 62
    39
  6
CONTINUOUS
 10
-1.052557
 20
1.464122
  0
VERTEX
  8
EBENE_1
 62
    39
  6
CONTINUOUS
 10
-1.023344
 20
1.477530
  0
VERTEX
  8
EBENE_1
 62
    39
  6
CONTINUOUS
 10
-0.993932
 20
1.490571
  0
VERTEX
  8
EBENE_1
 62
    39
  6
CONTINUOUS
 10
-0.964324
 20
1.503244
  0
VERTEX
  8
EBENE_1
 62
    39
  6
CONTINUOUS
 10
-0.934525
 20
1.515544
  0
VERTEX
  8
EBENE_1
 62
    39
  6
CONTINUOUS
 10
-0.904536
 20
1.527470
  0
VERTEX
  8
EBENE_1
 62
    39
  6
CONTINUOUS
 10
-0.874360
 20
1.539017
  0
VERTEX
  8
EBENE_1
 62
    39
  6
CONTINUOUS
 10
-0.844001
 20
1.550184
  0
VERTEX
  8
EBENE_1
 62
    39
  6
CONTINUOUS
 10
-0.813461
 20
1.560966
  0
VERTEX
  8
EBENE_1
 62
    39
  6
CONTINUOUS
 10
-0.782743
 20
1.571362
  0
VERTEX
  8
EBENE_1
 62
    39
  6
CONTINUOUS
 10
-0.751851
 20
1.581368
  0
VERTEX
  8
EBENE_1
 62
    39
  6
CONTINUOUS
 10
-0.720786
 20
1.590982
  0
VERTEX
  8
EBENE_1
 62
    39
  6
CONTINUOUS
 10
-0.689553
 20
1.600200
  0
VERTEX
  8
EBENE_1
 62
    39
  6
CONTINUOUS
 10
-0.658154
 20
1.609019
  0
VERTEX
  8
EBENE_1
 62
    39
  6
CONTINUOUS
 10
-0.626592
 20
1.617437
  0
VERTEX
  8
EBENE_1
 62
    39
  6
CONTINUOUS
 10
-0.594870
 20
1.625450
  0
VERTEX
  8
EBENE_1
 62
    39
  6
CONTINUOUS
 10
-0.562991
 20
1.633056
  0
VERTEX
  8
EBENE_1
 62
    39
  6
CONTINUOUS
 10
-0.530957
 20
1.640252
  0
VERTEX
  8
EBENE_1
 62
    39
  6
CONTINUOUS
 10
-0.498773
 20
1.647034
  0
VERTEX
  8
EBENE_1
 62
    39
  6
CONTINUOUS
 10
-0.466440
 20
1.653401
  0
VERTEX
  8
EBENE_1
 62
    39
  6
CONTINUOUS
 10
-0.433962
 20
1.659348
  0
VERTEX
  8
EBENE_1
 62
    39
  6
CONTINUOUS
 10
-0.401341
 20
1.664872
  0
VERTEX
  8
EBENE_1
 62
    39
  6
CONTINUOUS
 10
-0.368581
 20
1.669972
  0
VERTEX
  8
EBENE_1
 62
    39
  6
CONTINUOUS
 10
-0.335685
 20
1.674644
  0
VERTEX
  8
EBENE_1
 62
    39
  6
CONTINUOUS
 10
-0.302655
 20
1.678885
  0
VERTEX
  8
EBENE_1
 62
    39
  6
CONTINUOUS
 10
-0.269495
 20
1.682692
  0
VERTEX
  8
EBENE_1
 62
    39
  6
CONTINUOUS
 10
-0.236206
 20
1.686062
  0
VERTEX
  8
EBENE_1
 62
    39
  6
CONTINUOUS
 10
-0.202793
 20
1.688992
  0
VERTEX
  8
EBENE_1
 62
    39
  6
CONTINUOUS
 10
-0.169259
 20
1.691480
  0
VERTEX
  8
EBENE_1
 62
    39
  6
CONTINUOUS
 10
-0.135605
 20
1.693521
  0
VERTEX
  8
EBENE_1
 62
    39
  6
CONTINUOUS
 10
-0.101836
 20
1.695115
  0
VERTEX
  8
EBENE_1
 62
    39
  6
CONTINUOUS
 10
-0.067954
 20
1.696256
  0
VERTEX
  8
EBENE_1
 62
    39
  6
CONTINUOUS
 10
-0.033961
 20
1.696944
  0
VERTEX
  8
EBENE_1
 62
    39
  6
CONTINUOUS
 10
0.000138
 20
1.697173
  0
VERTEX
  8
EBENE_1
 62
    39
  6
CONTINUOUS
 10
0.000138
 20
1.697173
  0
SEQEND
  8
0
  0
POLYLINE
  8
EBENE_1
 62
    39
  6
CONTINUOUS
 66
     1
 40
0.003000
 41
0.003000
  0
VERTEX
  8
EBENE_1
 62
    39
  6
CONTINUOUS
 10
-1.035945
 20
0.387756
  0
VERTEX
  8
EBENE_1
 62
    39
  6
CONTINUOUS
 10
-1.068548
 20
0.359917
  0
VERTEX
  8
EBENE_1
 62
    39
  6
CONTINUOUS
 10
-1.103652
 20
0.332156
  0
VERTEX
  8
EBENE_1
 62
    39
  6
CONTINUOUS
 10
-1.139455
 20
0.304908
  0
VERTEX
  8
EBENE_1
 62
    39
  6
CONTINUOUS
 10
-1.174156
 20
0.278610
  0
VERTEX
  8
EBENE_1
 62
    39
  6
CONTINUOUS
 10
-1.205953
 20
0.253699
  0
VERTEX
  8
EBENE_1
 62
    39
  6
CONTINUOUS
 10
-1.233045
 20
0.230610
  0
VERTEX
  8
EBENE_1
 62
    39
  6
CONTINUOUS
 10
-1.253630
 20
0.209780
  0
VERTEX
  8
EBENE_1
 62
    39
  6
CONTINUOUS
 10
-1.269394
 20
0.191354
  0
VERTEX
  8
EBENE_1
 62
    39
  6
CONTINUOUS
 10
-1.294493
 20
0.151042
  0
VERTEX
  8
EBENE_1
 62
    39
  6
CONTINUOUS
 10
-1.328369
 20
0.088054
  0
VERTEX
  8
EBENE_1
 62
    39
  6
CONTINUOUS
 10
-1.349335
 20
0.042051
  0
VERTEX
  8
EBENE_1
 62
    39
  6
CONTINUOUS
 10
-1.369728
 20
-0.028033
  0
VERTEX
  8
EBENE_1
 62
    39
  6
CONTINUOUS
 10
-1.385967
 20
-0.087987
  0
VERTEX
  8
EBENE_1
 62
    39
  6
CONTINUOUS
 10
-1.398600
 20
-0.139007
  0
VERTEX
  8
EBENE_1
 62
    39
  6
CONTINUOUS
 10
-1.408171
 20
-0.182288
  0
VERTEX
  8
EBENE_1
 62
    39
  6
CONTINUOUS
 10
-1.415229
 20
-0.219028
  0
VERTEX
  8
EBENE_1
 62
    39
  6
CONTINUOUS
 10
-1.420318
 20
-0.250421
  0
VERTEX
  8
EBENE_1
 62
    39
  6
CONTINUOUS
 10
-1.423986
 20
-0.277664
  0
VERTEX
  8
EBENE_1
 62
    39
  6
CONTINUOUS
 10
-1.426780
 20
-0.301953
  0
VERTEX
  8
EBENE_1
 62
    39
  6
CONTINUOUS
 10
-1.430847
 20
-0.340847
  0
VERTEX
  8
EBENE_1
 62
    39
  6
CONTINUOUS
 10
-1.434453
 20
-0.379398
  0
VERTEX
  8
EBENE_1
 62
    39
  6
CONTINUOUS
 10
-1.437529
 20
-0.417659
  0
VERTEX
  8
EBENE_1
 62
    39
  6
CONTINUOUS
 10
-1.440009
 20
-0.455682
  0
VERTEX
  8
EBENE_1
 62
    39
  6
CONTINUOUS
 10
-1.441825
 20
-0.493518
  0
VERTEX
  8
EBENE_1
 62
    39
  6
CONTINUOUS
 10
-1.442908
 20
-0.531219
  0
VERTEX
  8
EBENE_1
 62
    39
  6
CONTINUOUS
 10
-1.443192
 20
-0.568838
  0
VERTEX
  8
EBENE_1
 62
    39
  6
CONTINUOUS
 10
-1.442608
 20
-0.606426
  0
VERTEX
  8
EBENE_1
 62
    39
  6
CONTINUOUS
 10
-1.441089
 20
-0.644036
  0
VERTEX
  8
EBENE_1
 62
    39
  6
CONTINUOUS
 10
-1.438568
 20
-0.681720
  0
VERTEX
  8
EBENE_1
 62
    39
  6
CONTINUOUS
 10
-1.434976
 20
-0.719529
  0
VERTEX
  8
EBENE_1
 62
    39
  6
CONTINUOUS
 10
-1.430246
 20
-0.757516
  0
VERTEX
  8
EBENE_1
 62
    39
  6
CONTINUOUS
 10
-1.424311
 20
-0.795732
  0
VERTEX
  8
EBENE_1
 62
    39
  6
CONTINUOUS
 10
-1.407711
 20
-0.878835
  0
VERTEX
  8
EBENE_1
 62
    39
  6
CONTINUOUS
 10
-1.395370
 20
-0.943530
  0
VERTEX
  8
EBENE_1
 62
    39
  6
CONTINUOUS
 10
-1.386562
 20
-0.992940
  0
VERTEX
  8
EBENE_1
 62
    39
  6
CONTINUOUS
 10
-1.380560
 20
-1.030186
  0
VERTEX
  8
EBENE_1
 62
    39
  6
CONTINUOUS
 10
-1.376635
 20
-1.058391
  0
VERTEX
  8
EBENE_1
 62
    39
  6
CONTINUOUS
 10
-1.374061
 20
-1.080677
  0
VERTEX
  8
EBENE_1
 62
    39
  6
CONTINUOUS
 10
-1.372111
 20
-1.100166
  0
VERTEX
  8
EBENE_1
 62
    39
  6
CONTINUOUS
 10
-1.370057
 20
-1.119981
  0
VERTEX
  8
EBENE_1
 62
    39
  6
CONTINUOUS
 10
-1.367173
 20
-1.143244
  0
VERTEX
  8
EBENE_1
 62
    39
  6
CONTINUOUS
 10
-1.361924
 20
-1.191531
  0
VERTEX
  8
EBENE_1
 62
    39
  6
CONTINUOUS
 10
-1.359254
 20
-1.243169
  0
VERTEX
  8
EBENE_1
 62
    39
  6
CONTINUOUS
 10
-1.360174
 20
-1.295044
  0
VERTEX
  8
EBENE_1
 62
    39
  6
CONTINUOUS
 10
-1.365689
 20
-1.344039
  0
VERTEX
  8
EBENE_1
 62
    39
  6
CONTINUOUS
 10
-1.372778
 20
-1.381253
  0
VERTEX
  8
EBENE_1
 62
    39
  6
CONTINUOUS
 10
-1.380149
 20
-1.415277
  0
VERTEX
  8
EBENE_1
 62
    39
  6
CONTINUOUS
 10
-1.387536
 20
-1.447151
  0
VERTEX
  8
EBENE_1
 62
    39
  6
CONTINUOUS
 10
-1.394671
 20
-1.477917
  0
VERTEX
  8
EBENE_1
 62
    39
  6
CONTINUOUS
 10
-1.401288
 20
-1.508615
  0
VERTEX
  8
EBENE_1
 62
    39
  6
CONTINUOUS
 10
-1.407121
 20
-1.540286
  0
VERTEX
  8
EBENE_1
 62
    39
  6
CONTINUOUS
 10
-1.411903
 20
-1.573972
  0
VERTEX
  8
EBENE_1
 62
    39
  6
CONTINUOUS
 10
-1.415367
 20
-1.610712
  0
VERTEX
  8
EBENE_1
 62
    39
  6
CONTINUOUS
 10
-1.417247
 20
-1.651547
  0
VERTEX
  8
EBENE_1
 62
    39
  6
CONTINUOUS
 10
-1.417277
 20
-1.697519
  0
VERTEX
  8
EBENE_1
 62
    39
  6
CONTINUOUS
 10
-1.415189
 20
-1.749668
  0
VERTEX
  8
EBENE_1
 62
    39
  6
CONTINUOUS
 10
-1.410717
 20
-1.809035
  0
VERTEX
  8
EBENE_1
 62
    39
  6
CONTINUOUS
 10
-1.406211
 20
-1.845261
  0
VERTEX
  8
EBENE_1
 62
    39
  6
CONTINUOUS
 10
-1.398845
 20
-1.882293
  0
VERTEX
  8
EBENE_1
 62
    39
  6
CONTINUOUS
 10
-1.388918
 20
-1.919839
  0
VERTEX
  8
EBENE_1
 62
    39
  6
CONTINUOUS
 10
-1.376728
 20
-1.957608
  0
VERTEX
  8
EBENE_1
 62
    39
  6
CONTINUOUS
 10
-1.362574
 20
-1.995308
  0
VERTEX
  8
EBENE_1
 62
    39
  6
CONTINUOUS
 10
-1.346754
 20
-2.032648
  0
VERTEX
  8
EBENE_1
 62
    39
  6
CONTINUOUS
 10
-1.329567
 20
-2.069335
  0
VERTEX
  8
EBENE_1
 62
    39
  6
CONTINUOUS
 10
-1.311311
 20
-2.105079
  0
VERTEX
  8
EBENE_1
 62
    39
  6
CONTINUOUS
 10
-1.292284
 20
-2.139587
  0
VERTEX
  8
EBENE_1
 62
    39
  6
CONTINUOUS
 10
-1.272786
 20
-2.172567
  0
VERTEX
  8
EBENE_1
 62
    39
  6
CONTINUOUS
 10
-1.253114
 20
-2.203728
  0
VERTEX
  8
EBENE_1
 62
    39
  6
CONTINUOUS
 10
-1.231165
 20
-2.239702
  0
VERTEX
  8
EBENE_1
 62
    39
  6
CONTINUOUS
 10
-1.207804
 20
-2.276345
  0
VERTEX
  8
EBENE_1
 62
    39
  6
CONTINUOUS
 10
-1.181714
 20
-2.313942
  0
VERTEX
  8
EBENE_1
 62
    39
  6
CONTINUOUS
 10
-1.151578
 20
-2.352780
  0
VERTEX
  8
EBENE_1
 62
    39
  6
CONTINUOUS
 10
-1.116079
 20
-2.393146
  0
VERTEX
  8
EBENE_1
 62
    39
  6
CONTINUOUS
 10
-1.098465
 20
-1.976819
  0
VERTEX
  8
EBENE_1
 62
    39
  6
CONTINUOUS
 10
-1.070886
 20
-0.887327
  0
VERTEX
  8
EBENE_1
 62
    39
  6
CONTINUOUS
 10
-1.108161
 20
-0.867108
  0
VERTEX
  8
EBENE_1
 62
    39
  6
CONTINUOUS
 10
-1.128914
 20
-0.827361
  0
VERTEX
  8
EBENE_1
 62
    39
  6
CONTINUOUS
 10
-1.136882
 20
-0.783303
  0
VERTEX
  8
EBENE_1
 62
    39
  6
CONTINUOUS
 10
-1.148250
 20
-0.754305
  0
VERTEX
  8
EBENE_1
 62
    39
  6
CONTINUOUS
 10
-1.154750
 20
-0.722298
  0
VERTEX
  8
EBENE_1
 62
    39
  6
CONTINUOUS
 10
-1.154724
 20
-0.690319
  0
VERTEX
  8
EBENE_1
 62
    39
  6
CONTINUOUS
 10
-1.151983
 20
-0.677307
  0
VERTEX
  8
EBENE_1
 62
    39
  6
CONTINUOUS
 10
-1.147922
 20
-0.662015
  0
VERTEX
  8
EBENE_1
 62
    39
  6
CONTINUOUS
 10
-1.145067
 20
-0.650087
  0
VERTEX
  8
EBENE_1
 62
    39
  6
CONTINUOUS
 10
-1.145656
 20
-0.608513
  0
VERTEX
  8
EBENE_1
 62
    39
  6
CONTINUOUS
 10
-1.139920
 20
-0.577932
  0
VERTEX
  8
EBENE_1
 62
    39
  6
CONTINUOUS
 10
-1.123551
 20
-0.551437
  0
VERTEX
  8
EBENE_1
 62
    39
  6
CONTINUOUS
 10
-1.113130
 20
-0.539436
  0
VERTEX
  8
EBENE_1
 62
    39
  6
CONTINUOUS
 10
-1.104479
 20
-0.532096
  0
VERTEX
  8
EBENE_1
 62
    39
  6
CONTINUOUS
 10
-1.094000
 20
-0.527008
  0
VERTEX
  8
EBENE_1
 62
    39
  6
CONTINUOUS
 10
-1.074490
 20
-0.519368
  0
VERTEX
  8
EBENE_1
 62
    39
  6
CONTINUOUS
 10
-1.058959
 20
-0.515309
  0
VERTEX
  8
EBENE_1
 62
    39
  6
CONTINUOUS
 10
-1.042622
 20
-0.513047
  0
VERTEX
  8
EBENE_1
 62
    39
  6
CONTINUOUS
 10
-1.035945
 20
0.387756
  0
SEQEND
  8
0
  0
POLYLINE
  8
EBENE_1
 62
    39
  6
CONTINUOUS
 66
     1
 40
0.003000
 41
0.003000
  0
VERTEX
  8
EBENE_1
 62
    39
  6
CONTINUOUS
 10
-0.346205
 20
0.244980
  0
VERTEX
  8
EBENE_1
 62
    39
  6
CONTINUOUS
 10
-0.339677
 20
0.244023
  0
VERTEX
  8
EBENE_1
 62
    39
  6
CONTINUOUS
 10
-0.333808
 20
0.241331
  0
VERTEX
  8
EBENE_1
 62
    39
  6
CONTINUOUS
 10
-0.331260
 20
0.237177
  0
VERTEX
  8
EBENE_1
 62
    39
  6
CONTINUOUS
 10
-0.334432
 20
0.233023
  0
VERTEX
  8
EBENE_1
 62
    39
  6
CONTINUOUS
 10
-0.341459
 20
0.230331
  0
VERTEX
  8
EBENE_1
 62
    39
  6
CONTINUOUS
 10
-0.348610
 20
0.229374
  0
VERTEX
  8
EBENE_1
 62
    39
  6
CONTINUOUS
 10
-0.352381
 20
0.230331
  0
VERTEX
  8
EBENE_1
 62
    39
  6
CONTINUOUS
 10
-0.353135
 20
0.233023
  0
VERTEX
  8
EBENE_1
 62
    39
  6
CONTINUOUS
 10
-0.352929
 20
0.237177
  0
VERTEX
  8
EBENE_1
 62
    39
  6
CONTINUOUS
 10
-0.352511
 20
0.241331
  0
VERTEX
  8
EBENE_1
 62
    39
  6
CONTINUOUS
 10
-0.350599
 20
0.244023
  0
VERTEX
  8
EBENE_1
 62
    39
  6
CONTINUOUS
 10
-0.346205
 20
0.244980
  0
SEQEND
  8
0
  0
ENDSEC
  0
EOF
