  0
SECTION
  2
HEADER
  9
$ACADVER
  1
AC1006
  9
$EXTMIN
 10
-2.672150
 20
-2.750996
  9
$EXTMAX
 10
2.295850
 20
2.207673
  9
$LTSCALE
 40
0.000394
  9
$PDMODE
 70
    35
  9
$PDSIZE
 40
0.000315
  0
ENDSEC
  0
SECTION
  2
TABLES
  0
TABLE
  2
LTYPE
 70
     9
  0
LTYPE
  2
CONTINUOUS
 70
    64
  3
Solid line
 72
    65
 73
     0
 40
0.000000
  0
LTYPE
  2
DASHED
 70
    64
  3
__ __ __ __ __ __ __ __ __ __ __ __ __ __ __
 72
    65
 73
     2
 40
0.000003
 49
0.000002
 49
-0.000001
  0
LTYPE
  2
HIDDEN
 70
    64
  3
 _ _ _ _ _ _ _ _ _ _ _ _ _ _ _ _ _ _ _ _ _ _
 72
    65
 73
     2
 40
0.000001
 49
0.000001
 49
-0.000000
  0
LTYPE
  2
CENTER
 70
    64
  3
____ _ ____ _ ____ _ ____ _ ____ _ ____ _ ____
 72
    65
 73
     4
 40
0.000008
 49
0.000005
 49
-0.000001
 49
0.000001
 49
-0.000001
  0
LTYPE
  2
PHANTOM
 70
    64
  3
_____ _ _ _____ _ _ _____ _ _ _____ _ _ ____
 72
    65
 73
     6
 40
0.000010
 49
0.000005
 49
-0.000001
 49
0.000001
 49
-0.000001
 49
0.000001
 49
-0.000001
  0
LTYPE
  2
DOT
 70
    64
  3
...............................................
 72
    65
 73
     2
 40
0.000001
 49
0.000000
 49
-0.000001
  0
LTYPE
  2
DASHDOT
 70
    64
  3
__ . __ . __ . __ . __ . __ . __ . __ . __ . __
 72
    65
 73
     4
 40
0.000004
 49
0.000002
 49
-0.000001
 49
0.000000
 49
-0.000001
  0
LTYPE
  2
BORDER
 70
    64
  3
__ __ . __ __ . __ __ . __ __ . __ __ . __ __
 72
    65
 73
     6
 40
0.000007
 49
0.000002
 49
-0.000001
 49
0.000002
 49
-0.000001
 49
0.000000
 49
-0.000001
  0
LTYPE
  2
DIVIDE
 70
    64
  3
__ . . __ . . __ . . __ . . __ . . __ . . __
 72
    65
 73
     6
 40
0.000005
 49
0.000002
 49
-0.000001
 49
0.000000
 49
-0.000001
 49
0.000000
 49
-0.000001
  0
LTYPE
  2
DOTDOT
 70
    64
  3
 . .  . .  . .  . .  . .  . . 
 72
    65
 73
     5
 40
0.000002
 49
-0.000001
 49
0.000000
 49
-0.000001
 49
0.000000
 49
-0.000001
  0
ENDTAB
  0
TABLE
  2
STYLE
 70
     0
  0
ENDTAB
  0
TABLE
  2
LAYER
 70
     5
  0
LAYER
  2
FOREGROUND
 70
    64
 62
     7
  6
CONTINUOUS
  0
LAYER
  2
BACKGROUND
 70
    65
 62
    -7
  6
CONTINUOUS
  0
LAYER
  2
EBENE_1
 70
    64
 62
     7
  6
CONTINUOUS
  0
LAYER
  2
EBENE_2
 70
    64
 62
     7
  6
CONTINUOUS
  0
LAYER
  2
EBENE_3
 70
    64
 62
     7
  6
CONTINUOUS
  0
ENDTAB
  0
ENDSEC
  0
SECTION
  2
ENTITIES
  0
POLYLINE
  8
EBENE_1
 62
    39
  6
CONTINUOUS
 66
     1
 40
0.003000
 41
0.003000
  0
VERTEX
  8
EBENE_1
 62
    39
  6
CONTINUOUS
 10
-1.184650
 20
-0.132496
  0
VERTEX
  8
EBENE_1
 62
    39
  6
CONTINUOUS
 10
-1.167390
 20
-0.097570
  0
VERTEX
  8
EBENE_1
 62
    39
  6
CONTINUOUS
 10
-1.129242
 20
-0.073089
  0
VERTEX
  8
EBENE_1
 62
    39
  6
CONTINUOUS
 10
-1.090650
 20
-0.059496
  0
SEQEND
  8
0
  0
POLYLINE
  8
EBENE_1
 62
    39
  6
CONTINUOUS
 66
     1
 40
0.003000
 41
0.003000
  0
VERTEX
  8
EBENE_1
 62
    39
  6
CONTINUOUS
 10
-1.090650
 20
-0.059496
  0
VERTEX
  8
EBENE_1
 62
    39
  6
CONTINUOUS
 10
-1.045163
 20
-0.060228
  0
VERTEX
  8
EBENE_1
 62
    39
  6
CONTINUOUS
 10
-1.010761
 20
-0.068015
  0
VERTEX
  8
EBENE_1
 62
    39
  6
CONTINUOUS
 10
-0.986025
 20
-0.083746
  0
VERTEX
  8
EBENE_1
 62
    39
  6
CONTINUOUS
 10
-0.969538
 20
-0.108311
  0
VERTEX
  8
EBENE_1
 62
    39
  6
CONTINUOUS
 10
-0.959886
 20
-0.142598
  0
VERTEX
  8
EBENE_1
 62
    39
  6
CONTINUOUS
 10
-0.955650
 20
-0.187496
  0
SEQEND
  8
0
  0
POLYLINE
  8
EBENE_1
 62
    39
  6
CONTINUOUS
 66
     1
 40
0.003000
 41
0.003000
  0
VERTEX
  8
EBENE_1
 62
    39
  6
CONTINUOUS
 10
-0.955650
 20
-0.187496
  0
VERTEX
  8
EBENE_1
 62
    39
  6
CONTINUOUS
 10
-0.968044
 20
-0.224381
  0
VERTEX
  8
EBENE_1
 62
    39
  6
CONTINUOUS
 10
-0.983469
 20
-0.259663
  0
VERTEX
  8
EBENE_1
 62
    39
  6
CONTINUOUS
 10
-1.001540
 20
-0.293527
  0
VERTEX
  8
EBENE_1
 62
    39
  6
CONTINUOUS
 10
-1.021872
 20
-0.326163
  0
VERTEX
  8
EBENE_1
 62
    39
  6
CONTINUOUS
 10
-1.044078
 20
-0.357756
  0
VERTEX
  8
EBENE_1
 62
    39
  6
CONTINUOUS
 10
-1.067775
 20
-0.388496
  0
VERTEX
  8
EBENE_1
 62
    39
  6
CONTINUOUS
 10
-1.092575
 20
-0.418569
  0
VERTEX
  8
EBENE_1
 62
    39
  6
CONTINUOUS
 10
-1.118094
 20
-0.448163
  0
VERTEX
  8
EBENE_1
 62
    39
  6
CONTINUOUS
 10
-1.143946
 20
-0.477465
  0
VERTEX
  8
EBENE_1
 62
    39
  6
CONTINUOUS
 10
-1.169747
 20
-0.506663
  0
VERTEX
  8
EBENE_1
 62
    39
  6
CONTINUOUS
 10
-1.195110
 20
-0.535944
  0
VERTEX
  8
EBENE_1
 62
    39
  6
CONTINUOUS
 10
-1.219650
 20
-0.565496
  0
SEQEND
  8
0
  0
POLYLINE
  8
EBENE_1
 62
    39
  6
CONTINUOUS
 66
     1
 40
0.003000
 41
0.003000
  0
VERTEX
  8
EBENE_1
 62
    39
  6
CONTINUOUS
 10
-0.965650
 20
0.132504
  0
VERTEX
  8
EBENE_1
 62
    39
  6
CONTINUOUS
 10
-1.003019
 20
0.141218
  0
VERTEX
  8
EBENE_1
 62
    39
  6
CONTINUOUS
 10
-1.041547
 20
0.163476
  0
VERTEX
  8
EBENE_1
 62
    39
  6
CONTINUOUS
 10
-1.078861
 20
0.193448
  0
VERTEX
  8
EBENE_1
 62
    39
  6
CONTINUOUS
 10
-1.112589
 20
0.225306
  0
VERTEX
  8
EBENE_1
 62
    39
  6
CONTINUOUS
 10
-1.140358
 20
0.253220
  0
SEQEND
  8
0
  0
POLYLINE
  8
EBENE_1
 62
    39
  6
CONTINUOUS
 66
     1
 40
0.003000
 41
0.003000
  0
VERTEX
  8
EBENE_1
 62
    39
  6
CONTINUOUS
 10
-1.140358
 20
0.253220
  0
VERTEX
  8
EBENE_1
 62
    39
  6
CONTINUOUS
 10
-1.162508
 20
0.277405
  0
VERTEX
  8
EBENE_1
 62
    39
  6
CONTINUOUS
 10
-1.194500
 20
0.297653
  0
VERTEX
  8
EBENE_1
 62
    39
  6
CONTINUOUS
 10
-1.220650
 20
0.322504
  0
SEQEND
  8
0
  0
POLYLINE
  8
EBENE_1
 62
    39
  6
CONTINUOUS
 66
     1
 40
0.003000
 41
0.003000
  0
VERTEX
  8
EBENE_1
 62
    39
  6
CONTINUOUS
 10
-0.924339
 20
0.381205
  0
VERTEX
  8
EBENE_1
 62
    39
  6
CONTINUOUS
 10
-0.971783
 20
0.403908
  0
VERTEX
  8
EBENE_1
 62
    39
  6
CONTINUOUS
 10
-1.020561
 20
0.437501
  0
VERTEX
  8
EBENE_1
 62
    39
  6
CONTINUOUS
 10
-1.047339
 20
0.478205
  0
SEQEND
  8
0
  0
POLYLINE
  8
EBENE_1
 62
    39
  6
CONTINUOUS
 66
     1
 40
0.003000
 41
0.003000
  0
VERTEX
  8
EBENE_1
 62
    39
  6
CONTINUOUS
 10
-0.238650
 20
0.041504
  0
VERTEX
  8
EBENE_1
 62
    39
  6
CONTINUOUS
 10
-0.221798
 20
0.081430
  0
VERTEX
  8
EBENE_1
 62
    39
  6
CONTINUOUS
 10
-0.187835
 20
0.113578
  0
VERTEX
  8
EBENE_1
 62
    39
  6
CONTINUOUS
 10
-0.161650
 20
0.147504
  0
SEQEND
  8
0
  0
POLYLINE
  8
EBENE_1
 62
    39
  6
CONTINUOUS
 66
     1
 40
0.003000
 41
0.003000
  0
VERTEX
  8
EBENE_1
 62
    39
  6
CONTINUOUS
 10
-0.161650
 20
0.147504
  0
VERTEX
  8
EBENE_1
 62
    39
  6
CONTINUOUS
 10
-0.134632
 20
0.168090
  0
VERTEX
  8
EBENE_1
 62
    39
  6
CONTINUOUS
 10
-0.104816
 20
0.188519
  0
VERTEX
  8
EBENE_1
 62
    39
  6
CONTINUOUS
 10
-0.073198
 20
0.205938
  0
VERTEX
  8
EBENE_1
 62
    39
  6
CONTINUOUS
 10
-0.040775
 20
0.217498
  0
VERTEX
  8
EBENE_1
 62
    39
  6
CONTINUOUS
 10
-0.008545
 20
0.220347
  0
VERTEX
  8
EBENE_1
 62
    39
  6
CONTINUOUS
 10
0.022496
 20
0.211632
  0
VERTEX
  8
EBENE_1
 62
    39
  6
CONTINUOUS
 10
0.051350
 20
0.188504
  0
SEQEND
  8
0
  0
POLYLINE
  8
EBENE_1
 62
    39
  6
CONTINUOUS
 66
     1
 40
0.003000
 41
0.003000
  0
VERTEX
  8
EBENE_1
 62
    39
  6
CONTINUOUS
 10
0.051350
 20
0.188504
  0
VERTEX
  8
EBENE_1
 62
    39
  6
CONTINUOUS
 10
0.060103
 20
0.152517
  0
VERTEX
  8
EBENE_1
 62
    39
  6
CONTINUOUS
 10
0.064844
 20
0.115620
  0
VERTEX
  8
EBENE_1
 62
    39
  6
CONTINUOUS
 10
0.066024
 20
0.078043
  0
VERTEX
  8
EBENE_1
 62
    39
  6
CONTINUOUS
 10
0.064093
 20
0.040014
  0
VERTEX
  8
EBENE_1
 62
    39
  6
CONTINUOUS
 10
0.059502
 20
0.001765
  0
VERTEX
  8
EBENE_1
 62
    39
  6
CONTINUOUS
 10
0.052703
 20
-0.036476
  0
VERTEX
  8
EBENE_1
 62
    39
  6
CONTINUOUS
 10
0.044145
 20
-0.074477
  0
VERTEX
  8
EBENE_1
 62
    39
  6
CONTINUOUS
 10
0.034281
 20
-0.112010
  0
VERTEX
  8
EBENE_1
 62
    39
  6
CONTINUOUS
 10
0.023559
 20
-0.148844
  0
VERTEX
  8
EBENE_1
 62
    39
  6
CONTINUOUS
 10
0.012432
 20
-0.184749
  0
VERTEX
  8
EBENE_1
 62
    39
  6
CONTINUOUS
 10
0.001350
 20
-0.219496
  0
SEQEND
  8
0
  0
POLYLINE
  8
EBENE_1
 62
    39
  6
CONTINUOUS
 66
     1
 40
0.003000
 41
0.003000
  0
VERTEX
  8
EBENE_1
 62
    39
  6
CONTINUOUS
 10
0.001350
 20
-0.219496
  0
VERTEX
  8
EBENE_1
 62
    39
  6
CONTINUOUS
 10
-0.013645
 20
-0.259552
  0
VERTEX
  8
EBENE_1
 62
    39
  6
CONTINUOUS
 10
-0.029279
 20
-0.301607
  0
VERTEX
  8
EBENE_1
 62
    39
  6
CONTINUOUS
 10
-0.046525
 20
-0.343996
  0
VERTEX
  8
EBENE_1
 62
    39
  6
CONTINUOUS
 10
-0.066353
 20
-0.385052
  0
VERTEX
  8
EBENE_1
 62
    39
  6
CONTINUOUS
 10
-0.089738
 20
-0.423107
  0
VERTEX
  8
EBENE_1
 62
    39
  6
CONTINUOUS
 10
-0.117650
 20
-0.456496
  0
SEQEND
  8
0
  0
POLYLINE
  8
EBENE_1
 62
    39
  6
CONTINUOUS
 66
     1
 40
0.003000
 41
0.003000
  0
VERTEX
  8
EBENE_1
 62
    39
  6
CONTINUOUS
 10
-0.117650
 20
-0.456496
  0
VERTEX
  8
EBENE_1
 62
    39
  6
CONTINUOUS
 10
-0.161478
 20
-0.466387
  0
VERTEX
  8
EBENE_1
 62
    39
  6
CONTINUOUS
 10
-0.205025
 20
-0.471121
  0
VERTEX
  8
EBENE_1
 62
    39
  6
CONTINUOUS
 10
-0.249134
 20
-0.471543
  0
VERTEX
  8
EBENE_1
 62
    39
  6
CONTINUOUS
 10
-0.294650
 20
-0.468496
  0
SEQEND
  8
0
  0
POLYLINE
  8
EBENE_1
 62
    39
  6
CONTINUOUS
 66
     1
 40
0.003000
 41
0.003000
  0
VERTEX
  8
EBENE_1
 62
    39
  6
CONTINUOUS
 10
0.067350
 20
0.617504
  0
VERTEX
  8
EBENE_1
 62
    39
  6
CONTINUOUS
 10
0.023665
 20
0.619921
  0
VERTEX
  8
EBENE_1
 62
    39
  6
CONTINUOUS
 10
-0.019464
 20
0.626504
  0
VERTEX
  8
EBENE_1
 62
    39
  6
CONTINUOUS
 10
-0.062150
 20
0.636254
  0
VERTEX
  8
EBENE_1
 62
    39
  6
CONTINUOUS
 10
-0.104501
 20
0.648171
  0
VERTEX
  8
EBENE_1
 62
    39
  6
CONTINUOUS
 10
-0.146631
 20
0.661254
  0
VERTEX
  8
EBENE_1
 62
    39
  6
CONTINUOUS
 10
-0.188650
 20
0.674504
  0
SEQEND
  8
0
  0
POLYLINE
  8
EBENE_1
 62
    39
  6
CONTINUOUS
 66
     1
 40
0.003000
 41
0.003000
  0
VERTEX
  8
EBENE_1
 62
    39
  6
CONTINUOUS
 10
-0.188650
 20
0.674504
  0
VERTEX
  8
EBENE_1
 62
    39
  6
CONTINUOUS
 10
-0.224464
 20
0.698022
  0
VERTEX
  8
EBENE_1
 62
    39
  6
CONTINUOUS
 10
-0.265835
 20
0.714652
  0
VERTEX
  8
EBENE_1
 62
    39
  6
CONTINUOUS
 10
-0.297650
 20
0.745504
  0
SEQEND
  8
0
  0
POLYLINE
  8
EBENE_1
 62
    39
  6
CONTINUOUS
 66
     1
 40
0.003000
 41
0.003000
  0
VERTEX
  8
EBENE_1
 62
    39
  6
CONTINUOUS
 10
0.073350
 20
0.660504
  0
VERTEX
  8
EBENE_1
 62
    39
  6
CONTINUOUS
 10
0.030202
 20
0.663351
  0
VERTEX
  8
EBENE_1
 62
    39
  6
CONTINUOUS
 10
-0.013835
 20
0.670948
  0
VERTEX
  8
EBENE_1
 62
    39
  6
CONTINUOUS
 10
-0.058150
 20
0.681879
  0
VERTEX
  8
EBENE_1
 62
    39
  6
CONTINUOUS
 10
-0.102131
 20
0.694726
  0
VERTEX
  8
EBENE_1
 62
    39
  6
CONTINUOUS
 10
-0.145168
 20
0.708073
  0
VERTEX
  8
EBENE_1
 62
    39
  6
CONTINUOUS
 10
-0.186650
 20
0.720504
  0
SEQEND
  8
0
  0
POLYLINE
  8
EBENE_1
 62
    39
  6
CONTINUOUS
 66
     1
 40
0.003000
 41
0.003000
  0
VERTEX
  8
EBENE_1
 62
    39
  6
CONTINUOUS
 10
-0.186650
 20
0.720504
  0
VERTEX
  8
EBENE_1
 62
    39
  6
CONTINUOUS
 10
-0.223353
 20
0.735689
  0
VERTEX
  8
EBENE_1
 62
    39
  6
CONTINUOUS
 10
-0.260279
 20
0.753985
  0
VERTEX
  8
EBENE_1
 62
    39
  6
CONTINUOUS
 10
-0.283650
 20
0.782504
  0
SEQEND
  8
0
  0
POLYLINE
  8
EBENE_1
 62
    39
  6
CONTINUOUS
 66
     1
 40
0.003000
 41
0.003000
  0
VERTEX
  8
EBENE_1
 62
    39
  6
CONTINUOUS
 10
-0.243650
 20
0.661504
  0
VERTEX
  8
EBENE_1
 62
    39
  6
CONTINUOUS
 10
-0.218187
 20
0.636427
  0
VERTEX
  8
EBENE_1
 62
    39
  6
CONTINUOUS
 10
-0.200174
 20
0.606593
  0
VERTEX
  8
EBENE_1
 62
    39
  6
CONTINUOUS
 10
-0.188168
 20
0.573097
  0
VERTEX
  8
EBENE_1
 62
    39
  6
CONTINUOUS
 10
-0.180731
 20
0.537032
  0
VERTEX
  8
EBENE_1
 62
    39
  6
CONTINUOUS
 10
-0.176421
 20
0.499494
  0
VERTEX
  8
EBENE_1
 62
    39
  6
CONTINUOUS
 10
-0.173798
 20
0.461578
  0
VERTEX
  8
EBENE_1
 62
    39
  6
CONTINUOUS
 10
-0.171422
 20
0.424378
  0
VERTEX
  8
EBENE_1
 62
    39
  6
CONTINUOUS
 10
-0.167853
 20
0.388988
  0
VERTEX
  8
EBENE_1
 62
    39
  6
CONTINUOUS
 10
-0.161650
 20
0.356504
  0
SEQEND
  8
0
  0
POLYLINE
  8
EBENE_1
 62
    39
  6
CONTINUOUS
 66
     1
 40
0.003000
 41
0.003000
  0
VERTEX
  8
EBENE_1
 62
    39
  6
CONTINUOUS
 10
-0.161650
 20
0.356504
  0
VERTEX
  8
EBENE_1
 62
    39
  6
CONTINUOUS
 10
-0.149687
 20
0.334467
  0
VERTEX
  8
EBENE_1
 62
    39
  6
CONTINUOUS
 10
-0.137946
 20
0.312208
  0
VERTEX
  8
EBENE_1
 62
    39
  6
CONTINUOUS
 10
-0.126650
 20
0.289504
  0
SEQEND
  8
0
  0
POLYLINE
  8
EBENE_1
 62
    39
  6
CONTINUOUS
 66
     1
 40
0.003000
 41
0.003000
  0
VERTEX
  8
EBENE_1
 62
    39
  6
CONTINUOUS
 10
-0.126650
 20
0.289504
  0
VERTEX
  8
EBENE_1
 62
    39
  6
CONTINUOUS
 10
-0.116205
 20
0.284911
  0
VERTEX
  8
EBENE_1
 62
    39
  6
CONTINUOUS
 10
-0.111094
 20
0.277430
  0
VERTEX
  8
EBENE_1
 62
    39
  6
CONTINUOUS
 10
-0.108650
 20
0.267504
  0
SEQEND
  8
0
  0
POLYLINE
  8
EBENE_1
 62
    39
  6
CONTINUOUS
 66
     1
 40
0.003000
 41
0.003000
  0
VERTEX
  8
EBENE_1
 62
    39
  6
CONTINUOUS
 10
-0.175650
 20
0.638504
  0
VERTEX
  8
EBENE_1
 62
    39
  6
CONTINUOUS
 10
-0.148983
 20
0.609356
  0
VERTEX
  8
EBENE_1
 62
    39
  6
CONTINUOUS
 10
-0.132983
 20
0.569319
  0
VERTEX
  8
EBENE_1
 62
    39
  6
CONTINUOUS
 10
-0.121650
 20
0.529504
  0
SEQEND
  8
0
  0
POLYLINE
  8
EBENE_1
 62
    39
  6
CONTINUOUS
 66
     1
 40
0.003000
 41
0.003000
  0
VERTEX
  8
EBENE_1
 62
    39
  6
CONTINUOUS
 10
-0.121650
 20
0.529504
  0
VERTEX
  8
EBENE_1
 62
    39
  6
CONTINUOUS
 10
-0.120464
 20
0.487319
  0
VERTEX
  8
EBENE_1
 62
    39
  6
CONTINUOUS
 10
-0.123501
 20
0.445356
  0
VERTEX
  8
EBENE_1
 62
    39
  6
CONTINUOUS
 10
-0.125650
 20
0.404504
  0
SEQEND
  8
0
  0
POLYLINE
  8
EBENE_1
 62
    39
  6
CONTINUOUS
 66
     1
 40
0.003000
 41
0.003000
  0
VERTEX
  8
EBENE_1
 62
    39
  6
CONTINUOUS
 10
-0.125650
 20
0.404504
  0
VERTEX
  8
EBENE_1
 62
    39
  6
CONTINUOUS
 10
-0.122464
 20
0.396837
  0
VERTEX
  8
EBENE_1
 62
    39
  6
CONTINUOUS
 10
-0.118835
 20
0.383171
  0
VERTEX
  8
EBENE_1
 62
    39
  6
CONTINUOUS
 10
-0.111650
 20
0.359504
  0
SEQEND
  8
0
  0
POLYLINE
  8
EBENE_1
 62
    39
  6
CONTINUOUS
 66
     1
 40
0.003000
 41
0.003000
  0
VERTEX
  8
EBENE_1
 62
    39
  6
CONTINUOUS
 10
-0.111650
 20
0.359504
  0
VERTEX
  8
EBENE_1
 62
    39
  6
CONTINUOUS
 10
-0.094724
 20
0.335726
  0
VERTEX
  8
EBENE_1
 62
    39
  6
CONTINUOUS
 10
-0.076909
 20
0.312615
  0
VERTEX
  8
EBENE_1
 62
    39
  6
CONTINUOUS
 10
-0.068650
 20
0.287504
  0
SEQEND
  8
0
  0
POLYLINE
  8
EBENE_1
 62
    39
  6
CONTINUOUS
 66
     1
 40
0.003000
 41
0.003000
  0
VERTEX
  8
EBENE_1
 62
    39
  6
CONTINUOUS
 10
-0.110650
 20
0.615504
  0
VERTEX
  8
EBENE_1
 62
    39
  6
CONTINUOUS
 10
-0.085698
 20
0.588520
  0
VERTEX
  8
EBENE_1
 62
    39
  6
CONTINUOUS
 10
-0.073994
 20
0.545792
  0
VERTEX
  8
EBENE_1
 62
    39
  6
CONTINUOUS
 10
-0.071266
 20
0.496056
  0
VERTEX
  8
EBENE_1
 62
    39
  6
CONTINUOUS
 10
-0.073242
 20
0.448048
  0
VERTEX
  8
EBENE_1
 62
    39
  6
CONTINUOUS
 10
-0.075650
 20
0.410504
  0
SEQEND
  8
0
  0
POLYLINE
  8
EBENE_1
 62
    39
  6
CONTINUOUS
 66
     1
 40
0.003000
 41
0.003000
  0
VERTEX
  8
EBENE_1
 62
    39
  6
CONTINUOUS
 10
-0.075650
 20
0.410504
  0
VERTEX
  8
EBENE_1
 62
    39
  6
CONTINUOUS
 10
-0.070353
 20
0.401615
  0
VERTEX
  8
EBENE_1
 62
    39
  6
CONTINUOUS
 10
-0.065946
 20
0.390726
  0
VERTEX
  8
EBENE_1
 62
    39
  6
CONTINUOUS
 10
-0.058650
 20
0.368504
  0
SEQEND
  8
0
  0
POLYLINE
  8
EBENE_1
 62
    39
  6
CONTINUOUS
 66
     1
 40
0.003000
 41
0.003000
  0
VERTEX
  8
EBENE_1
 62
    39
  6
CONTINUOUS
 10
-0.058650
 20
0.368504
  0
VERTEX
  8
EBENE_1
 62
    39
  6
CONTINUOUS
 10
-0.043761
 20
0.353356
  0
VERTEX
  8
EBENE_1
 62
    39
  6
CONTINUOUS
 10
-0.026872
 20
0.335319
  0
VERTEX
  8
EBENE_1
 62
    39
  6
CONTINUOUS
 10
-0.016650
 20
0.319504
  0
SEQEND
  8
0
  0
POLYLINE
  8
EBENE_1
 62
    39
  6
CONTINUOUS
 66
     1
 40
0.003000
 41
0.003000
  0
VERTEX
  8
EBENE_1
 62
    39
  6
CONTINUOUS
 10
-0.016650
 20
0.319504
  0
VERTEX
  8
EBENE_1
 62
    39
  6
CONTINUOUS
 10
-0.010946
 20
0.318467
  0
VERTEX
  8
EBENE_1
 62
    39
  6
CONTINUOUS
 10
-0.005687
 20
0.317208
  0
VERTEX
  8
EBENE_1
 62
    39
  6
CONTINUOUS
 10
-0.000650
 20
0.315504
  0
SEQEND
  8
0
  0
POLYLINE
  8
EBENE_1
 62
    39
  6
CONTINUOUS
 66
     1
 40
0.003000
 41
0.003000
  0
VERTEX
  8
EBENE_1
 62
    39
  6
CONTINUOUS
 10
-0.032650
 20
0.597504
  0
VERTEX
  8
EBENE_1
 62
    39
  6
CONTINUOUS
 10
-0.027687
 20
0.577467
  0
VERTEX
  8
EBENE_1
 62
    39
  6
CONTINUOUS
 10
-0.022946
 20
0.557208
  0
VERTEX
  8
EBENE_1
 62
    39
  6
CONTINUOUS
 10
-0.018650
 20
0.536504
  0
SEQEND
  8
0
  0
POLYLINE
  8
EBENE_1
 62
    39
  6
CONTINUOUS
 66
     1
 40
0.003000
 41
0.003000
  0
VERTEX
  8
EBENE_1
 62
    39
  6
CONTINUOUS
 10
-0.018650
 20
0.536504
  0
VERTEX
  8
EBENE_1
 62
    39
  6
CONTINUOUS
 10
-0.020687
 20
0.467504
  0
VERTEX
  8
EBENE_1
 62
    39
  6
CONTINUOUS
 10
-0.020946
 20
0.437171
  0
VERTEX
  8
EBENE_1
 62
    39
  6
CONTINUOUS
 10
-0.019650
 20
0.419504
  0
SEQEND
  8
0
  0
POLYLINE
  8
EBENE_1
 62
    39
  6
CONTINUOUS
 66
     1
 40
0.003000
 41
0.003000
  0
VERTEX
  8
EBENE_1
 62
    39
  6
CONTINUOUS
 10
-0.019650
 20
0.419504
  0
VERTEX
  8
EBENE_1
 62
    39
  6
CONTINUOUS
 10
0.003795
 20
0.382615
  0
VERTEX
  8
EBENE_1
 62
    39
  6
CONTINUOUS
 10
0.031239
 20
0.349059
  0
VERTEX
  8
EBENE_1
 62
    39
  6
CONTINUOUS
 10
0.061350
 20
0.317504
  0
SEQEND
  8
0
  0
POLYLINE
  8
EBENE_1
 62
    39
  6
CONTINUOUS
 66
     1
 40
0.003000
 41
0.003000
  0
VERTEX
  8
EBENE_1
 62
    39
  6
CONTINUOUS
 10
0.024350
 20
0.580504
  0
VERTEX
  8
EBENE_1
 62
    39
  6
CONTINUOUS
 10
0.034980
 20
0.538319
  0
VERTEX
  8
EBENE_1
 62
    39
  6
CONTINUOUS
 10
0.038721
 20
0.493689
  0
VERTEX
  8
EBENE_1
 62
    39
  6
CONTINUOUS
 10
0.041350
 20
0.449504
  0
SEQEND
  8
0
  0
POLYLINE
  8
EBENE_1
 62
    39
  6
CONTINUOUS
 66
     1
 40
0.003000
 41
0.003000
  0
VERTEX
  8
EBENE_1
 62
    39
  6
CONTINUOUS
 10
0.041350
 20
0.449504
  0
VERTEX
  8
EBENE_1
 62
    39
  6
CONTINUOUS
 10
0.054054
 20
0.427467
  0
VERTEX
  8
EBENE_1
 62
    39
  6
CONTINUOUS
 10
0.066313
 20
0.405208
  0
VERTEX
  8
EBENE_1
 62
    39
  6
CONTINUOUS
 10
0.078350
 20
0.382504
  0
SEQEND
  8
0
  0
POLYLINE
  8
EBENE_1
 62
    39
  6
CONTINUOUS
 66
     1
 40
0.003000
 41
0.003000
  0
VERTEX
  8
EBENE_1
 62
    39
  6
CONTINUOUS
 10
0.078350
 20
0.382504
  0
VERTEX
  8
EBENE_1
 62
    39
  6
CONTINUOUS
 10
0.096313
 20
0.368467
  0
VERTEX
  8
EBENE_1
 62
    39
  6
CONTINUOUS
 10
0.114054
 20
0.354208
  0
VERTEX
  8
EBENE_1
 62
    39
  6
CONTINUOUS
 10
0.131350
 20
0.339504
  0
SEQEND
  8
0
  0
POLYLINE
  8
EBENE_1
 62
    39
  6
CONTINUOUS
 66
     1
 40
0.003000
 41
0.003000
  0
VERTEX
  8
EBENE_1
 62
    39
  6
CONTINUOUS
 10
0.076350
 20
0.580504
  0
VERTEX
  8
EBENE_1
 62
    39
  6
CONTINUOUS
 10
0.079980
 20
0.571430
  0
VERTEX
  8
EBENE_1
 62
    39
  6
CONTINUOUS
 10
0.082054
 20
0.559245
  0
VERTEX
  8
EBENE_1
 62
    39
  6
CONTINUOUS
 10
0.084350
 20
0.533504
  0
SEQEND
  8
0
  0
POLYLINE
  8
EBENE_1
 62
    39
  6
CONTINUOUS
 66
     1
 40
0.003000
 41
0.003000
  0
VERTEX
  8
EBENE_1
 62
    39
  6
CONTINUOUS
 10
0.084350
 20
0.533504
  0
VERTEX
  8
EBENE_1
 62
    39
  6
CONTINUOUS
 10
0.101684
 20
0.490504
  0
VERTEX
  8
EBENE_1
 62
    39
  6
CONTINUOUS
 10
0.125017
 20
0.443504
  0
VERTEX
  8
EBENE_1
 62
    39
  6
CONTINUOUS
 10
0.156350
 20
0.410504
  0
SEQEND
  8
0
  0
POLYLINE
  8
EBENE_1
 62
    39
  6
CONTINUOUS
 66
     1
 40
0.003000
 41
0.003000
  0
VERTEX
  8
EBENE_1
 62
    39
  6
CONTINUOUS
 10
0.156350
 20
0.410504
  0
VERTEX
  8
EBENE_1
 62
    39
  6
CONTINUOUS
 10
0.168573
 20
0.399467
  0
VERTEX
  8
EBENE_1
 62
    39
  6
CONTINUOUS
 10
0.182795
 20
0.386208
  0
VERTEX
  8
EBENE_1
 62
    39
  6
CONTINUOUS
 10
0.180350
 20
0.370504
  0
SEQEND
  8
0
  0
POLYLINE
  8
EBENE_1
 62
    39
  6
CONTINUOUS
 66
     1
 40
0.003000
 41
0.003000
  0
VERTEX
  8
EBENE_1
 62
    39
  6
CONTINUOUS
 10
0.277350
 20
-0.701496
  0
VERTEX
  8
EBENE_1
 62
    39
  6
CONTINUOUS
 10
0.238757
 20
-0.699605
  0
VERTEX
  8
EBENE_1
 62
    39
  6
CONTINUOUS
 10
0.218350
 20
-0.678871
  0
VERTEX
  8
EBENE_1
 62
    39
  6
CONTINUOUS
 10
0.208444
 20
-0.645949
  0
VERTEX
  8
EBENE_1
 62
    39
  6
CONTINUOUS
 10
0.201350
 20
-0.607496
  0
SEQEND
  8
0
  0
POLYLINE
  8
EBENE_1
 62
    39
  6
CONTINUOUS
 66
     1
 40
0.003000
 41
0.003000
  0
VERTEX
  8
EBENE_1
 62
    39
  6
CONTINUOUS
 10
0.201350
 20
-0.607496
  0
VERTEX
  8
EBENE_1
 62
    39
  6
CONTINUOUS
 10
0.197894
 20
-0.563416
  0
VERTEX
  8
EBENE_1
 62
    39
  6
CONTINUOUS
 10
0.195542
 20
-0.529416
  0
VERTEX
  8
EBENE_1
 62
    39
  6
CONTINUOUS
 10
0.193718
 20
-0.494456
  0
VERTEX
  8
EBENE_1
 62
    39
  6
CONTINUOUS
 10
0.191846
 20
-0.447496
  0
VERTEX
  8
EBENE_1
 62
    39
  6
CONTINUOUS
 10
0.189350
 20
-0.377496
  0
SEQEND
  8
0
  0
POLYLINE
  8
EBENE_1
 62
    39
  6
CONTINUOUS
 66
     1
 40
0.003000
 41
0.003000
  0
VERTEX
  8
EBENE_1
 62
    39
  6
CONTINUOUS
 10
0.189350
 20
-0.377496
  0
VERTEX
  8
EBENE_1
 62
    39
  6
CONTINUOUS
 10
0.191350
 20
-0.353533
  0
VERTEX
  8
EBENE_1
 62
    39
  6
CONTINUOUS
 10
0.193350
 20
-0.329792
  0
VERTEX
  8
EBENE_1
 62
    39
  6
CONTINUOUS
 10
0.195350
 20
-0.306496
  0
SEQEND
  8
0
  0
POLYLINE
  8
EBENE_1
 62
    39
  6
CONTINUOUS
 66
     1
 40
0.003000
 41
0.003000
  0
VERTEX
  8
EBENE_1
 62
    39
  6
CONTINUOUS
 10
0.403850
 20
-0.332996
  0
VERTEX
  8
EBENE_1
 62
    39
  6
CONTINUOUS
 10
0.369702
 20
-0.323959
  0
VERTEX
  8
EBENE_1
 62
    39
  6
CONTINUOUS
 10
0.342665
 20
-0.310033
  0
VERTEX
  8
EBENE_1
 62
    39
  6
CONTINUOUS
 10
0.315850
 20
-0.286996
  0
SEQEND
  8
0
  0
POLYLINE
  8
EBENE_1
 62
    39
  6
CONTINUOUS
 66
     1
 40
0.003000
 41
0.003000
  0
VERTEX
  8
EBENE_1
 62
    39
  6
CONTINUOUS
 10
0.315850
 20
-0.286996
  0
VERTEX
  8
EBENE_1
 62
    39
  6
CONTINUOUS
 10
0.310850
 20
-0.265292
  0
VERTEX
  8
EBENE_1
 62
    39
  6
CONTINUOUS
 10
0.305850
 20
-0.244033
  0
VERTEX
  8
EBENE_1
 62
    39
  6
CONTINUOUS
 10
0.300850
 20
-0.222996
  0
SEQEND
  8
0
  0
POLYLINE
  8
EBENE_1
 62
    39
  6
CONTINUOUS
 66
     1
 40
0.003000
 41
0.003000
  0
VERTEX
  8
EBENE_1
 62
    39
  6
CONTINUOUS
 10
0.300850
 20
-0.222996
  0
VERTEX
  8
EBENE_1
 62
    39
  6
CONTINUOUS
 10
0.324739
 20
-0.185181
  0
VERTEX
  8
EBENE_1
 62
    39
  6
CONTINUOUS
 10
0.358628
 20
-0.170478
  0
VERTEX
  8
EBENE_1
 62
    39
  6
CONTINUOUS
 10
0.405850
 20
-0.167996
  0
SEQEND
  8
0
  0
POLYLINE
  8
EBENE_1
 62
    39
  6
CONTINUOUS
 66
     1
 40
0.003000
 41
0.003000
  0
VERTEX
  8
EBENE_1
 62
    39
  6
CONTINUOUS
 10
0.565350
 20
-0.534496
  0
VERTEX
  8
EBENE_1
 62
    39
  6
CONTINUOUS
 10
0.538313
 20
-0.535052
  0
VERTEX
  8
EBENE_1
 62
    39
  6
CONTINUOUS
 10
0.510387
 20
-0.532274
  0
VERTEX
  8
EBENE_1
 62
    39
  6
CONTINUOUS
 10
0.489350
 20
-0.519496
  0
SEQEND
  8
0
  0
POLYLINE
  8
EBENE_1
 62
    39
  6
CONTINUOUS
 66
     1
 40
0.003000
 41
0.003000
  0
VERTEX
  8
EBENE_1
 62
    39
  6
CONTINUOUS
 10
0.489350
 20
-0.519496
  0
VERTEX
  8
EBENE_1
 62
    39
  6
CONTINUOUS
 10
0.480315
 20
-0.479814
  0
VERTEX
  8
EBENE_1
 62
    39
  6
CONTINUOUS
 10
0.473882
 20
-0.439605
  0
VERTEX
  8
EBENE_1
 62
    39
  6
CONTINUOUS
 10
0.469557
 20
-0.398998
  0
VERTEX
  8
EBENE_1
 62
    39
  6
CONTINUOUS
 10
0.466850
 20
-0.358121
  0
VERTEX
  8
EBENE_1
 62
    39
  6
CONTINUOUS
 10
0.465268
 20
-0.317103
  0
VERTEX
  8
EBENE_1
 62
    39
  6
CONTINUOUS
 10
0.464319
 20
-0.276074
  0
VERTEX
  8
EBENE_1
 62
    39
  6
CONTINUOUS
 10
0.463511
 20
-0.235162
  0
VERTEX
  8
EBENE_1
 62
    39
  6
CONTINUOUS
 10
0.462350
 20
-0.194496
  0
SEQEND
  8
0
  0
POLYLINE
  8
EBENE_1
 62
    39
  6
CONTINUOUS
 66
     1
 40
0.003000
 41
0.003000
  0
VERTEX
  8
EBENE_1
 62
    39
  6
CONTINUOUS
 10
1.120547
 20
0.474504
  0
VERTEX
  8
EBENE_1
 62
    39
  6
CONTINUOUS
 10
1.092547
 20
0.475504
  0
VERTEX
  8
EBENE_1
 62
    39
  6
CONTINUOUS
 10
1.064547
 20
0.476504
  0
VERTEX
  8
EBENE_1
 62
    39
  6
CONTINUOUS
 10
1.036547
 20
0.477504
  0
SEQEND
  8
0
  0
POLYLINE
  8
EBENE_1
 62
    39
  6
CONTINUOUS
 66
     1
 40
0.003000
 41
0.003000
  0
VERTEX
  8
EBENE_1
 62
    39
  6
CONTINUOUS
 10
1.036547
 20
0.477504
  0
VERTEX
  8
EBENE_1
 62
    39
  6
CONTINUOUS
 10
0.997372
 20
0.493192
  0
VERTEX
  8
EBENE_1
 62
    39
  6
CONTINUOUS
 10
0.960209
 20
0.512396
  0
VERTEX
  8
EBENE_1
 62
    39
  6
CONTINUOUS
 10
0.924743
 20
0.534469
  0
VERTEX
  8
EBENE_1
 62
    39
  6
CONTINUOUS
 10
0.890658
 20
0.558763
  0
VERTEX
  8
EBENE_1
 62
    39
  6
CONTINUOUS
 10
0.857641
 20
0.584632
  0
VERTEX
  8
EBENE_1
 62
    39
  6
CONTINUOUS
 10
0.825375
 20
0.611428
  0
VERTEX
  8
EBENE_1
 62
    39
  6
CONTINUOUS
 10
0.793547
 20
0.638504
  0
SEQEND
  8
0
  0
POLYLINE
  8
EBENE_1
 62
    39
  6
CONTINUOUS
 66
     1
 40
0.003000
 41
0.003000
  0
VERTEX
  8
EBENE_1
 62
    39
  6
CONTINUOUS
 10
1.065547
 20
0.278504
  0
VERTEX
  8
EBENE_1
 62
    39
  6
CONTINUOUS
 10
1.046485
 20
0.258191
  0
VERTEX
  8
EBENE_1
 62
    39
  6
CONTINUOUS
 10
1.008297
 20
0.257004
  0
VERTEX
  8
EBENE_1
 62
    39
  6
CONTINUOUS
 10
0.965985
 20
0.265566
  0
VERTEX
  8
EBENE_1
 62
    39
  6
CONTINUOUS
 10
0.934547
 20
0.274504
  0
SEQEND
  8
0
  0
POLYLINE
  8
EBENE_1
 62
    39
  6
CONTINUOUS
 66
     1
 40
0.003000
 41
0.003000
  0
VERTEX
  8
EBENE_1
 62
    39
  6
CONTINUOUS
 10
0.934547
 20
0.274504
  0
VERTEX
  8
EBENE_1
 62
    39
  6
CONTINUOUS
 10
0.911473
 20
0.308402
  0
VERTEX
  8
EBENE_1
 62
    39
  6
CONTINUOUS
 10
0.893288
 20
0.347689
  0
VERTEX
  8
EBENE_1
 62
    39
  6
CONTINUOUS
 10
0.878547
 20
0.390254
  0
VERTEX
  8
EBENE_1
 62
    39
  6
CONTINUOUS
 10
0.865807
 20
0.433985
  0
VERTEX
  8
EBENE_1
 62
    39
  6
CONTINUOUS
 10
0.853621
 20
0.476772
  0
VERTEX
  8
EBENE_1
 62
    39
  6
CONTINUOUS
 10
0.840547
 20
0.516504
  0
SEQEND
  8
0
  0
POLYLINE
  8
EBENE_1
 62
    39
  6
CONTINUOUS
 66
     1
 40
0.003000
 41
0.003000
  0
VERTEX
  8
EBENE_1
 62
    39
  6
CONTINUOUS
 10
0.840547
 20
0.516504
  0
VERTEX
  8
EBENE_1
 62
    39
  6
CONTINUOUS
 10
0.829177
 20
0.536059
  0
VERTEX
  8
EBENE_1
 62
    39
  6
CONTINUOUS
 10
0.824251
 20
0.546948
  0
VERTEX
  8
EBENE_1
 62
    39
  6
CONTINUOUS
 10
0.821547
 20
0.558504
  0
SEQEND
  8
0
  0
POLYLINE
  8
EBENE_1
 62
    39
  6
CONTINUOUS
 66
     1
 40
0.003000
 41
0.003000
  0
VERTEX
  8
EBENE_1
 62
    39
  6
CONTINUOUS
 10
0.961350
 20
0.163504
  0
VERTEX
  8
EBENE_1
 62
    39
  6
CONTINUOUS
 10
1.004499
 20
0.183726
  0
VERTEX
  8
EBENE_1
 62
    39
  6
CONTINUOUS
 10
1.047202
 20
0.196615
  0
VERTEX
  8
EBENE_1
 62
    39
  6
CONTINUOUS
 10
1.094350
 20
0.193504
  0
SEQEND
  8
0
  0
POLYLINE
  8
EBENE_1
 62
    39
  6
CONTINUOUS
 66
     1
 40
0.003000
 41
0.003000
  0
VERTEX
  8
EBENE_1
 62
    39
  6
CONTINUOUS
 10
1.094350
 20
0.193504
  0
VERTEX
  8
EBENE_1
 62
    39
  6
CONTINUOUS
 10
1.114038
 20
0.170046
  0
VERTEX
  8
EBENE_1
 62
    39
  6
CONTINUOUS
 10
1.125354
 20
0.141804
  0
VERTEX
  8
EBENE_1
 62
    39
  6
CONTINUOUS
 10
1.129498
 20
0.109799
  0
VERTEX
  8
EBENE_1
 62
    39
  6
CONTINUOUS
 10
1.127670
 20
0.075049
  0
VERTEX
  8
EBENE_1
 62
    39
  6
CONTINUOUS
 10
1.121067
 20
0.038572
  0
VERTEX
  8
EBENE_1
 62
    39
  6
CONTINUOUS
 10
1.110890
 20
0.001387
  0
VERTEX
  8
EBENE_1
 62
    39
  6
CONTINUOUS
 10
1.098337
 20
-0.035487
  0
VERTEX
  8
EBENE_1
 62
    39
  6
CONTINUOUS
 10
1.084607
 20
-0.071031
  0
VERTEX
  8
EBENE_1
 62
    39
  6
CONTINUOUS
 10
1.070900
 20
-0.104226
  0
VERTEX
  8
EBENE_1
 62
    39
  6
CONTINUOUS
 10
1.058415
 20
-0.134054
  0
VERTEX
  8
EBENE_1
 62
    39
  6
CONTINUOUS
 10
1.048350
 20
-0.159496
  0
SEQEND
  8
0
  0
POLYLINE
  8
EBENE_1
 62
    39
  6
CONTINUOUS
 66
     1
 40
0.003000
 41
0.003000
  0
VERTEX
  8
EBENE_1
 62
    39
  6
CONTINUOUS
 10
1.048350
 20
-0.159496
  0
VERTEX
  8
EBENE_1
 62
    39
  6
CONTINUOUS
 10
1.028721
 20
-0.196311
  0
VERTEX
  8
EBENE_1
 62
    39
  6
CONTINUOUS
 10
1.017313
 20
-0.216015
  0
VERTEX
  8
EBENE_1
 62
    39
  6
CONTINUOUS
 10
1.004350
 20
-0.235496
  0
SEQEND
  8
0
  0
POLYLINE
  8
EBENE_1
 62
    39
  6
CONTINUOUS
 66
     1
 40
0.003000
 41
0.003000
  0
VERTEX
  8
EBENE_1
 62
    39
  6
CONTINUOUS
 10
1.004350
 20
-0.235496
  0
VERTEX
  8
EBENE_1
 62
    39
  6
CONTINUOUS
 10
0.971502
 20
-0.263832
  0
VERTEX
  8
EBENE_1
 62
    39
  6
CONTINUOUS
 10
0.934286
 20
-0.292504
  0
VERTEX
  8
EBENE_1
 62
    39
  6
CONTINUOUS
 10
0.896494
 20
-0.321608
  0
VERTEX
  8
EBENE_1
 62
    39
  6
CONTINUOUS
 10
0.861918
 20
-0.351240
  0
VERTEX
  8
EBENE_1
 62
    39
  6
CONTINUOUS
 10
0.834350
 20
-0.381496
  0
SEQEND
  8
0
  0
POLYLINE
  8
EBENE_1
 62
    39
  6
CONTINUOUS
 66
     1
 40
0.003000
 41
0.003000
  0
VERTEX
  8
EBENE_1
 62
    39
  6
CONTINUOUS
 10
0.970547
 20
0.323504
  0
VERTEX
  8
EBENE_1
 62
    39
  6
CONTINUOUS
 10
0.942627
 20
0.347080
  0
VERTEX
  8
EBENE_1
 62
    39
  6
CONTINUOUS
 10
0.922387
 20
0.387072
  0
VERTEX
  8
EBENE_1
 62
    39
  6
CONTINUOUS
 10
0.907907
 20
0.435176
  0
VERTEX
  8
EBENE_1
 62
    39
  6
CONTINUOUS
 10
0.897267
 20
0.483088
  0
VERTEX
  8
EBENE_1
 62
    39
  6
CONTINUOUS
 10
0.888547
 20
0.522504
  0
SEQEND
  8
0
  0
POLYLINE
  8
EBENE_1
 62
    39
  6
CONTINUOUS
 66
     1
 40
0.003000
 41
0.003000
  0
VERTEX
  8
EBENE_1
 62
    39
  6
CONTINUOUS
 10
1.033547
 20
0.324504
  0
VERTEX
  8
EBENE_1
 62
    39
  6
CONTINUOUS
 10
1.007755
 20
0.328072
  0
VERTEX
  8
EBENE_1
 62
    39
  6
CONTINUOUS
 10
0.985611
 20
0.360248
  0
VERTEX
  8
EBENE_1
 62
    39
  6
CONTINUOUS
 10
0.967163
 20
0.406440
  0
VERTEX
  8
EBENE_1
 62
    39
  6
CONTINUOUS
 10
0.952459
 20
0.452056
  0
VERTEX
  8
EBENE_1
 62
    39
  6
CONTINUOUS
 10
0.941547
 20
0.482504
  0
SEQEND
  8
0
  0
POLYLINE
  8
EBENE_1
 62
    39
  6
CONTINUOUS
 66
     1
 40
0.003000
 41
0.003000
  0
VERTEX
  8
EBENE_1
 62
    39
  6
CONTINUOUS
 10
1.103547
 20
0.314504
  0
VERTEX
  8
EBENE_1
 62
    39
  6
CONTINUOUS
 10
1.068875
 20
0.331723
  0
VERTEX
  8
EBENE_1
 62
    39
  6
CONTINUOUS
 10
1.040672
 20
0.372754
  0
VERTEX
  8
EBENE_1
 62
    39
  6
CONTINUOUS
 10
1.020157
 20
0.421660
  0
VERTEX
  8
EBENE_1
 62
    39
  6
CONTINUOUS
 10
1.008547
 20
0.462504
  0
SEQEND
  8
0
  0
POLYLINE
  8
EBENE_1
 62
    39
  6
CONTINUOUS
 66
     1
 40
0.003000
 41
0.003000
  0
VERTEX
  8
EBENE_1
 62
    39
  6
CONTINUOUS
 10
1.170547
 20
0.314504
  0
VERTEX
  8
EBENE_1
 62
    39
  6
CONTINUOUS
 10
1.138313
 20
0.328535
  0
VERTEX
  8
EBENE_1
 62
    39
  6
CONTINUOUS
 10
1.110672
 20
0.362254
  0
VERTEX
  8
EBENE_1
 62
    39
  6
CONTINUOUS
 10
1.089969
 20
0.403098
  0
VERTEX
  8
EBENE_1
 62
    39
  6
CONTINUOUS
 10
1.078547
 20
0.438504
  0
SEQEND
  8
0
  0
POLYLINE
  8
EBENE_1
 62
    39
  6
CONTINUOUS
 66
     1
 40
0.003000
 41
0.003000
  0
VERTEX
  8
EBENE_1
 62
    39
  6
CONTINUOUS
 10
1.225327
 20
0.325390
  0
VERTEX
  8
EBENE_1
 62
    39
  6
CONTINUOUS
 10
1.222865
 20
0.325901
  0
VERTEX
  8
EBENE_1
 62
    39
  6
CONTINUOUS
 10
1.220009
 20
0.326660
  0
VERTEX
  8
EBENE_1
 62
    39
  6
CONTINUOUS
 10
1.217547
 20
0.326504
  0
SEQEND
  8
0
  0
POLYLINE
  8
EBENE_1
 62
    39
  6
CONTINUOUS
 66
     1
 40
0.003000
 41
0.003000
  0
VERTEX
  8
EBENE_1
 62
    39
  6
CONTINUOUS
 10
1.217547
 20
0.326504
  0
VERTEX
  8
EBENE_1
 62
    39
  6
CONTINUOUS
 10
1.185103
 20
0.352837
  0
VERTEX
  8
EBENE_1
 62
    39
  6
CONTINUOUS
 10
1.162658
 20
0.387171
  0
VERTEX
  8
EBENE_1
 62
    39
  6
CONTINUOUS
 10
1.145547
 20
0.425504
  0
SEQEND
  8
0
  0
POLYLINE
  8
EBENE_1
 62
    39
  6
CONTINUOUS
 66
     1
 40
0.003000
 41
0.003000
  0
VERTEX
  8
EBENE_1
 62
    39
  6
CONTINUOUS
 10
1.707020
 20
-1.285606
  0
VERTEX
  8
EBENE_1
 62
    39
  6
CONTINUOUS
 10
1.726817
 20
-1.328575
  0
VERTEX
  8
EBENE_1
 62
    39
  6
CONTINUOUS
 10
1.748395
 20
-1.370606
  0
VERTEX
  8
EBENE_1
 62
    39
  6
CONTINUOUS
 10
1.771285
 20
-1.411888
  0
VERTEX
  8
EBENE_1
 62
    39
  6
CONTINUOUS
 10
1.795020
 20
-1.452606
  0
SEQEND
  8
0
  0
POLYLINE
  8
EBENE_1
 62
    39
  6
CONTINUOUS
 66
     1
 40
0.003000
 41
0.003000
  0
VERTEX
  8
EBENE_1
 62
    39
  6
CONTINUOUS
 10
1.795020
 20
-1.452606
  0
VERTEX
  8
EBENE_1
 62
    39
  6
CONTINUOUS
 10
1.792427
 20
-1.500680
  0
VERTEX
  8
EBENE_1
 62
    39
  6
CONTINUOUS
 10
1.780946
 20
-1.533866
  0
VERTEX
  8
EBENE_1
 62
    39
  6
CONTINUOUS
 10
1.755020
 20
-1.574606
  0
SEQEND
  8
0
  0
POLYLINE
  8
EBENE_1
 62
    39
  6
CONTINUOUS
 66
     1
 40
0.003000
 41
0.003000
  0
VERTEX
  8
EBENE_1
 62
    39
  6
CONTINUOUS
 10
-1.894630
 20
-0.251386
  0
VERTEX
  8
EBENE_1
 62
    39
  6
CONTINUOUS
 10
-1.892042
 20
-0.273428
  0
VERTEX
  8
EBENE_1
 62
    39
  6
CONTINUOUS
 10
-1.884635
 20
-0.293864
  0
VERTEX
  8
EBENE_1
 62
    39
  6
CONTINUOUS
 10
-1.871339
 20
-0.313228
  0
SEQEND
  8
0
  0
POLYLINE
  8
EBENE_1
 62
    39
  6
CONTINUOUS
 66
     1
 40
0.003000
 41
0.003000
  0
VERTEX
  8
EBENE_1
 62
    39
  6
CONTINUOUS
 10
-1.839213
 20
-0.244961
  0
VERTEX
  8
EBENE_1
 62
    39
  6
CONTINUOUS
 10
-1.839213
 20
-0.262065
  0
VERTEX
  8
EBENE_1
 62
    39
  6
CONTINUOUS
 10
-1.837071
 20
-0.278990
  0
VERTEX
  8
EBENE_1
 62
    39
  6
CONTINUOUS
 10
-1.832787
 20
-0.293953
  0
SEQEND
  8
0
  0
POLYLINE
  8
EBENE_1
 62
    39
  6
CONTINUOUS
 66
     1
 40
0.003000
 41
0.003000
  0
VERTEX
  8
EBENE_1
 62
    39
  6
CONTINUOUS
 10
-1.788614
 20
-0.244157
  0
VERTEX
  8
EBENE_1
 62
    39
  6
CONTINUOUS
 10
-1.786205
 20
-0.284315
  0
SEQEND
  8
0
  0
POLYLINE
  8
EBENE_1
 62
    39
  6
CONTINUOUS
 66
     1
 40
0.003000
 41
0.003000
  0
VERTEX
  8
EBENE_1
 62
    39
  6
CONTINUOUS
 10
-1.744441
 20
-0.239339
  0
VERTEX
  8
EBENE_1
 62
    39
  6
CONTINUOUS
 10
-1.739622
 20
-0.284315
  0
SEQEND
  8
0
  0
POLYLINE
  8
EBENE_1
 62
    39
  6
CONTINUOUS
 66
     1
 40
0.003000
 41
0.003000
  0
VERTEX
  8
EBENE_1
 62
    39
  6
CONTINUOUS
 10
-1.700268
 20
-0.234520
  0
VERTEX
  8
EBENE_1
 62
    39
  6
CONTINUOUS
 10
-1.699465
 20
-0.283512
  0
SEQEND
  8
0
  0
POLYLINE
  8
EBENE_1
 62
    39
  6
CONTINUOUS
 66
     1
 40
0.003000
 41
0.003000
  0
VERTEX
  8
EBENE_1
 62
    39
  6
CONTINUOUS
 10
-1.648063
 20
-0.236929
  0
VERTEX
  8
EBENE_1
 62
    39
  6
CONTINUOUS
 10
-1.646367
 20
-0.254777
  0
VERTEX
  8
EBENE_1
 62
    39
  6
CONTINUOUS
 10
-1.646278
 20
-0.271554
  0
VERTEX
  8
EBENE_1
 62
    39
  6
CONTINUOUS
 10
-1.655291
 20
-0.283512
  0
SEQEND
  8
0
  0
POLYLINE
  8
EBENE_1
 62
    39
  6
CONTINUOUS
 66
     1
 40
0.003000
 41
0.003000
  0
VERTEX
  8
EBENE_1
 62
    39
  6
CONTINUOUS
 10
-1.598268
 20
-0.234520
  0
VERTEX
  8
EBENE_1
 62
    39
  6
CONTINUOUS
 10
-1.597554
 20
-0.254509
  0
VERTEX
  8
EBENE_1
 62
    39
  6
CONTINUOUS
 10
-1.598982
 20
-0.272892
  0
VERTEX
  8
EBENE_1
 62
    39
  6
CONTINUOUS
 10
-1.606299
 20
-0.287528
  0
SEQEND
  8
0
  0
POLYLINE
  8
EBENE_1
 62
    39
  6
CONTINUOUS
 66
     1
 40
0.003000
 41
0.003000
  0
VERTEX
  8
EBENE_1
 62
    39
  6
CONTINUOUS
 10
-1.549276
 20
-0.230504
  0
VERTEX
  8
EBENE_1
 62
    39
  6
CONTINUOUS
 10
-1.551507
 20
-0.256383
  0
VERTEX
  8
EBENE_1
 62
    39
  6
CONTINUOUS
 10
-1.555879
 20
-0.280121
  0
VERTEX
  8
EBENE_1
 62
    39
  6
CONTINUOUS
 10
-1.569354
 20
-0.294756
  0
SEQEND
  8
0
  0
POLYLINE
  8
EBENE_1
 62
    39
  6
CONTINUOUS
 66
     1
 40
0.003000
 41
0.003000
  0
VERTEX
  8
EBENE_1
 62
    39
  6
CONTINUOUS
 10
-1.596661
 20
-0.191953
  0
VERTEX
  8
EBENE_1
 62
    39
  6
CONTINUOUS
 10
-1.849654
 20
-0.205606
  0
SEQEND
  8
0
  0
POLYLINE
  8
EBENE_1
 62
    39
  6
CONTINUOUS
 66
     1
 40
0.003000
 41
0.003000
  0
VERTEX
  8
EBENE_1
 62
    39
  6
CONTINUOUS
 10
-1.631197
 20
-0.344551
  0
VERTEX
  8
EBENE_1
 62
    39
  6
CONTINUOUS
 10
-1.667071
 20
-0.331076
  0
VERTEX
  8
EBENE_1
 62
    39
  6
CONTINUOUS
 10
-1.706693
 20
-0.328310
  0
VERTEX
  8
EBENE_1
 62
    39
  6
CONTINUOUS
 10
-1.748457
 20
-0.330898
  0
SEQEND
  8
0
  0
POLYLINE
  8
EBENE_1
 62
    39
  6
CONTINUOUS
 66
     1
 40
0.003000
 41
0.003000
  0
VERTEX
  8
EBENE_1
 62
    39
  6
CONTINUOUS
 10
-0.295650
 20
-1.743500
  0
VERTEX
  8
EBENE_1
 62
    39
  6
CONTINUOUS
 10
-0.287636
 20
-1.776572
  0
VERTEX
  8
EBENE_1
 62
    39
  6
CONTINUOUS
 10
-0.296228
 20
-1.804828
  0
VERTEX
  8
EBENE_1
 62
    39
  6
CONTINUOUS
 10
-0.317499
 20
-1.828701
  0
VERTEX
  8
EBENE_1
 62
    39
  6
CONTINUOUS
 10
-0.347525
 20
-1.848625
  0
VERTEX
  8
EBENE_1
 62
    39
  6
CONTINUOUS
 10
-0.382378
 20
-1.865033
  0
VERTEX
  8
EBENE_1
 62
    39
  6
CONTINUOUS
 10
-0.418134
 20
-1.878359
  0
VERTEX
  8
EBENE_1
 62
    39
  6
CONTINUOUS
 10
-0.450866
 20
-1.889037
  0
VERTEX
  8
EBENE_1
 62
    39
  6
CONTINUOUS
 10
-0.476650
 20
-1.897500
  0
SEQEND
  8
0
  0
POLYLINE
  8
EBENE_1
 62
    39
  6
CONTINUOUS
 66
     1
 40
0.003000
 41
0.003000
  0
VERTEX
  8
EBENE_1
 62
    39
  6
CONTINUOUS
 10
-0.476650
 20
-1.897500
  0
VERTEX
  8
EBENE_1
 62
    39
  6
CONTINUOUS
 10
-0.513666
 20
-1.924172
  0
VERTEX
  8
EBENE_1
 62
    39
  6
CONTINUOUS
 10
-0.550538
 20
-1.951036
  0
VERTEX
  8
EBENE_1
 62
    39
  6
CONTINUOUS
 10
-0.587602
 20
-1.977564
  0
VERTEX
  8
EBENE_1
 62
    39
  6
CONTINUOUS
 10
-0.625194
 20
-2.003228
  0
VERTEX
  8
EBENE_1
 62
    39
  6
CONTINUOUS
 10
-0.663650
 20
-2.027500
  0
SEQEND
  8
0
  0
POLYLINE
  8
EBENE_1
 62
    39
  6
CONTINUOUS
 66
     1
 40
0.003000
 41
0.003000
  0
VERTEX
  8
EBENE_1
 62
    39
  6
CONTINUOUS
 10
-0.663650
 20
-2.027500
  0
VERTEX
  8
EBENE_1
 62
    39
  6
CONTINUOUS
 10
-0.709066
 20
-2.045236
  0
VERTEX
  8
EBENE_1
 62
    39
  6
CONTINUOUS
 10
-0.752316
 20
-2.058389
  0
VERTEX
  8
EBENE_1
 62
    39
  6
CONTINUOUS
 10
-0.794900
 20
-2.066875
  0
VERTEX
  8
EBENE_1
 62
    39
  6
CONTINUOUS
 10
-0.838316
 20
-2.070611
  0
VERTEX
  8
EBENE_1
 62
    39
  6
CONTINUOUS
 10
-0.884066
 20
-2.069514
  0
VERTEX
  8
EBENE_1
 62
    39
  6
CONTINUOUS
 10
-0.933650
 20
-2.063500
  0
SEQEND
  8
0
  0
POLYLINE
  8
EBENE_1
 62
    39
  6
CONTINUOUS
 66
     1
 40
0.003000
 41
0.003000
  0
VERTEX
  8
EBENE_1
 62
    39
  6
CONTINUOUS
 10
-0.933650
 20
-2.063500
  0
VERTEX
  8
EBENE_1
 62
    39
  6
CONTINUOUS
 10
-1.005946
 20
-2.044685
  0
VERTEX
  8
EBENE_1
 62
    39
  6
CONTINUOUS
 10
-1.050020
 20
-2.034315
  0
VERTEX
  8
EBENE_1
 62
    39
  6
CONTINUOUS
 10
-1.103650
 20
-2.023500
  0
SEQEND
  8
0
  0
POLYLINE
  8
EBENE_1
 62
    39
  6
CONTINUOUS
 66
     1
 40
0.003000
 41
0.003000
  0
VERTEX
  8
EBENE_1
 62
    39
  6
CONTINUOUS
 10
-1.103650
 20
-2.023500
  0
VERTEX
  8
EBENE_1
 62
    39
  6
CONTINUOUS
 10
-1.149571
 20
-2.021422
  0
VERTEX
  8
EBENE_1
 62
    39
  6
CONTINUOUS
 10
-1.195775
 20
-2.019625
  0
VERTEX
  8
EBENE_1
 62
    39
  6
CONTINUOUS
 10
-1.242165
 20
-2.018016
  0
VERTEX
  8
EBENE_1
 62
    39
  6
CONTINUOUS
 10
-1.288650
 20
-2.016500
  0
SEQEND
  8
0
  0
POLYLINE
  8
EBENE_1
 62
    39
  6
CONTINUOUS
 66
     1
 40
0.003000
 41
0.003000
  0
VERTEX
  8
EBENE_1
 62
    39
  6
CONTINUOUS
 10
-0.501650
 20
-1.665492
  0
VERTEX
  8
EBENE_1
 62
    39
  6
CONTINUOUS
 10
-0.533431
 20
-1.695636
  0
VERTEX
  8
EBENE_1
 62
    39
  6
CONTINUOUS
 10
-0.565608
 20
-1.722867
  0
VERTEX
  8
EBENE_1
 62
    39
  6
CONTINUOUS
 10
-0.598427
 20
-1.747381
  0
VERTEX
  8
EBENE_1
 62
    39
  6
CONTINUOUS
 10
-0.632135
 20
-1.769377
  0
VERTEX
  8
EBENE_1
 62
    39
  6
CONTINUOUS
 10
-0.666979
 20
-1.789052
  0
VERTEX
  8
EBENE_1
 62
    39
  6
CONTINUOUS
 10
-0.703205
 20
-1.806603
  0
VERTEX
  8
EBENE_1
 62
    39
  6
CONTINUOUS
 10
-0.741061
 20
-1.822229
  0
VERTEX
  8
EBENE_1
 62
    39
  6
CONTINUOUS
 10
-0.780794
 20
-1.836126
  0
VERTEX
  8
EBENE_1
 62
    39
  6
CONTINUOUS
 10
-0.822650
 20
-1.848492
  0
SEQEND
  8
0
  0
POLYLINE
  8
EBENE_1
 62
    39
  6
CONTINUOUS
 66
     1
 40
0.003000
 41
0.003000
  0
VERTEX
  8
EBENE_1
 62
    39
  6
CONTINUOUS
 10
-0.822650
 20
-1.848492
  0
VERTEX
  8
EBENE_1
 62
    39
  6
CONTINUOUS
 10
-0.867150
 20
-1.845950
  0
VERTEX
  8
EBENE_1
 62
    39
  6
CONTINUOUS
 10
-0.911650
 20
-1.841825
  0
VERTEX
  8
EBENE_1
 62
    39
  6
CONTINUOUS
 10
-0.956150
 20
-1.836867
  0
VERTEX
  8
EBENE_1
 62
    39
  6
CONTINUOUS
 10
-1.000650
 20
-1.831825
  0
VERTEX
  8
EBENE_1
 62
    39
  6
CONTINUOUS
 10
-1.045150
 20
-1.827450
  0
VERTEX
  8
EBENE_1
 62
    39
  6
CONTINUOUS
 10
-1.089650
 20
-1.824492
  0
SEQEND
  8
0
  0
POLYLINE
  8
EBENE_1
 62
    39
  6
CONTINUOUS
 66
     1
 40
0.003000
 41
0.003000
  0
VERTEX
  8
EBENE_1
 62
    39
  6
CONTINUOUS
 10
-1.089650
 20
-1.824492
  0
VERTEX
  8
EBENE_1
 62
    39
  6
CONTINUOUS
 10
-1.145946
 20
-1.831492
  0
VERTEX
  8
EBENE_1
 62
    39
  6
CONTINUOUS
 10
-1.202687
 20
-1.838492
  0
VERTEX
  8
EBENE_1
 62
    39
  6
CONTINUOUS
 10
-1.259650
 20
-1.845492
  0
SEQEND
  8
0
  0
POLYLINE
  8
EBENE_1
 62
    39
  6
CONTINUOUS
 66
     1
 40
0.003000
 41
0.003000
  0
VERTEX
  8
EBENE_1
 62
    39
  6
CONTINUOUS
 10
-1.259650
 20
-1.845492
  0
VERTEX
  8
EBENE_1
 62
    39
  6
CONTINUOUS
 10
-1.285687
 20
-1.842196
  0
VERTEX
  8
EBENE_1
 62
    39
  6
CONTINUOUS
 10
-1.309279
 20
-1.837788
  0
VERTEX
  8
EBENE_1
 62
    39
  6
CONTINUOUS
 10
-1.350650
 20
-1.828492
  0
SEQEND
  8
0
  0
POLYLINE
  8
EBENE_1
 62
    39
  6
CONTINUOUS
 66
     1
 40
0.003000
 41
0.003000
  0
VERTEX
  8
EBENE_1
 62
    39
  6
CONTINUOUS
 10
-1.350650
 20
-1.828492
  0
VERTEX
  8
EBENE_1
 62
    39
  6
CONTINUOUS
 10
-1.389938
 20
-1.806628
  0
VERTEX
  8
EBENE_1
 62
    39
  6
CONTINUOUS
 10
-1.426154
 20
-1.778620
  0
VERTEX
  8
EBENE_1
 62
    39
  6
CONTINUOUS
 10
-1.457426
 20
-1.745044
  0
VERTEX
  8
EBENE_1
 62
    39
  6
CONTINUOUS
 10
-1.481882
 20
-1.706476
  0
VERTEX
  8
EBENE_1
 62
    39
  6
CONTINUOUS
 10
-1.497650
 20
-1.663492
  0
SEQEND
  8
0
  0
POLYLINE
  8
EBENE_1
 62
    39
  6
CONTINUOUS
 66
     1
 40
0.003000
 41
0.003000
  0
VERTEX
  8
EBENE_1
 62
    39
  6
CONTINUOUS
 10
-0.420650
 20
-1.614496
  0
VERTEX
  8
EBENE_1
 62
    39
  6
CONTINUOUS
 10
-0.446159
 20
-1.602079
  0
VERTEX
  8
EBENE_1
 62
    39
  6
CONTINUOUS
 10
-0.474724
 20
-1.570163
  0
VERTEX
  8
EBENE_1
 62
    39
  6
CONTINUOUS
 10
-0.503400
 20
-1.526746
  0
VERTEX
  8
EBENE_1
 62
    39
  6
CONTINUOUS
 10
-0.529242
 20
-1.479829
  0
VERTEX
  8
EBENE_1
 62
    39
  6
CONTINUOUS
 10
-0.549307
 20
-1.437413
  0
VERTEX
  8
EBENE_1
 62
    39
  6
CONTINUOUS
 10
-0.560650
 20
-1.407496
  0
SEQEND
  8
0
  0
POLYLINE
  8
EBENE_1
 62
    39
  6
CONTINUOUS
 66
     1
 40
0.003000
 41
0.003000
  0
VERTEX
  8
EBENE_1
 62
    39
  6
CONTINUOUS
 10
-1.563992
 20
-1.743024
  0
VERTEX
  8
EBENE_1
 62
    39
  6
CONTINUOUS
 10
-1.589327
 20
-1.788626
  0
SEQEND
  8
0
  0
POLYLINE
  8
EBENE_1
 62
    39
  6
CONTINUOUS
 66
     1
 40
0.003000
 41
0.003000
  0
VERTEX
  8
EBENE_1
 62
    39
  6
CONTINUOUS
 10
-1.511634
 20
-1.803827
  0
VERTEX
  8
EBENE_1
 62
    39
  6
CONTINUOUS
 10
-1.533591
 20
-1.840984
  0
SEQEND
  8
0
  0
POLYLINE
  8
EBENE_1
 62
    39
  6
CONTINUOUS
 66
     1
 40
0.003000
 41
0.003000
  0
VERTEX
  8
EBENE_1
 62
    39
  6
CONTINUOUS
 10
-1.445764
 20
-1.859563
  0
VERTEX
  8
EBENE_1
 62
    39
  6
CONTINUOUS
 10
-1.460965
 20
-1.889965
  0
SEQEND
  8
0
  0
POLYLINE
  8
EBENE_1
 62
    39
  6
CONTINUOUS
 66
     1
 40
0.003000
 41
0.003000
  0
VERTEX
  8
EBENE_1
 62
    39
  6
CONTINUOUS
 10
-1.363004
 20
-1.891654
  0
VERTEX
  8
EBENE_1
 62
    39
  6
CONTINUOUS
 10
-1.374827
 20
-1.922055
  0
SEQEND
  8
0
  0
POLYLINE
  8
EBENE_1
 62
    39
  6
CONTINUOUS
 66
     1
 40
0.003000
 41
0.003000
  0
VERTEX
  8
EBENE_1
 62
    39
  6
CONTINUOUS
 10
-1.256598
 20
-1.911921
  0
VERTEX
  8
EBENE_1
 62
    39
  6
CONTINUOUS
 10
-1.266732
 20
-1.944012
  0
SEQEND
  8
0
  0
POLYLINE
  8
EBENE_1
 62
    39
  6
CONTINUOUS
 66
     1
 40
0.003000
 41
0.003000
  0
VERTEX
  8
EBENE_1
 62
    39
  6
CONTINUOUS
 10
-1.158638
 20
-1.910232
  0
VERTEX
  8
EBENE_1
 62
    39
  6
CONTINUOUS
 10
-1.168772
 20
-1.944012
  0
SEQEND
  8
0
  0
POLYLINE
  8
EBENE_1
 62
    39
  6
CONTINUOUS
 66
     1
 40
0.003000
 41
0.003000
  0
VERTEX
  8
EBENE_1
 62
    39
  6
CONTINUOUS
 10
-1.060677
 20
-1.916988
  0
VERTEX
  8
EBENE_1
 62
    39
  6
CONTINUOUS
 10
-1.067433
 20
-1.952457
  0
SEQEND
  8
0
  0
POLYLINE
  8
EBENE_1
 62
    39
  6
CONTINUOUS
 66
     1
 40
0.003000
 41
0.003000
  0
VERTEX
  8
EBENE_1
 62
    39
  6
CONTINUOUS
 10
-0.967783
 20
-1.906854
  0
VERTEX
  8
EBENE_1
 62
    39
  6
CONTINUOUS
 10
-0.974539
 20
-1.955835
  0
SEQEND
  8
0
  0
POLYLINE
  8
EBENE_1
 62
    39
  6
CONTINUOUS
 66
     1
 40
0.003000
 41
0.003000
  0
VERTEX
  8
EBENE_1
 62
    39
  6
CONTINUOUS
 10
-0.868134
 20
-1.918677
  0
VERTEX
  8
EBENE_1
 62
    39
  6
CONTINUOUS
 10
-0.876579
 20
-1.959213
  0
SEQEND
  8
0
  0
POLYLINE
  8
EBENE_1
 62
    39
  6
CONTINUOUS
 66
     1
 40
0.003000
 41
0.003000
  0
VERTEX
  8
EBENE_1
 62
    39
  6
CONTINUOUS
 10
-0.790441
 20
-1.908543
  0
VERTEX
  8
EBENE_1
 62
    39
  6
CONTINUOUS
 10
-0.785374
 20
-1.949079
  0
SEQEND
  8
0
  0
POLYLINE
  8
EBENE_1
 62
    39
  6
CONTINUOUS
 66
     1
 40
0.003000
 41
0.003000
  0
VERTEX
  8
EBENE_1
 62
    39
  6
CONTINUOUS
 10
-0.707681
 20
-1.864630
  0
VERTEX
  8
EBENE_1
 62
    39
  6
CONTINUOUS
 10
-0.694169
 20
-1.911921
  0
SEQEND
  8
0
  0
POLYLINE
  8
EBENE_1
 62
    39
  6
CONTINUOUS
 66
     1
 40
0.003000
 41
0.003000
  0
VERTEX
  8
EBENE_1
 62
    39
  6
CONTINUOUS
 10
-0.623232
 20
-1.840984
  0
VERTEX
  8
EBENE_1
 62
    39
  6
CONTINUOUS
 10
-0.614787
 20
-1.871386
  0
SEQEND
  8
0
  0
POLYLINE
  8
EBENE_1
 62
    39
  6
CONTINUOUS
 66
     1
 40
0.003000
 41
0.003000
  0
VERTEX
  8
EBENE_1
 62
    39
  6
CONTINUOUS
 10
-0.553984
 20
-1.786937
  0
VERTEX
  8
EBENE_1
 62
    39
  6
CONTINUOUS
 10
-0.540472
 20
-1.820717
  0
SEQEND
  8
0
  0
POLYLINE
  8
EBENE_1
 62
    39
  6
CONTINUOUS
 66
     1
 40
0.003000
 41
0.003000
  0
VERTEX
  8
EBENE_1
 62
    39
  6
CONTINUOUS
 10
-0.501626
 20
-1.759913
  0
VERTEX
  8
EBENE_1
 62
    39
  6
CONTINUOUS
 10
-0.488114
 20
-1.790315
  0
SEQEND
  8
0
  0
POLYLINE
  8
EBENE_1
 62
    39
  6
CONTINUOUS
 66
     1
 40
0.003000
 41
0.003000
  0
VERTEX
  8
EBENE_1
 62
    39
  6
CONTINUOUS
 10
-0.449268
 20
-1.719378
  0
VERTEX
  8
EBENE_1
 62
    39
  6
CONTINUOUS
 10
-0.420555
 20
-1.758224
  0
SEQEND
  8
0
  0
POLYLINE
  8
EBENE_1
 62
    39
  6
CONTINUOUS
 66
     1
 40
0.003000
 41
0.003000
  0
VERTEX
  8
EBENE_1
 62
    39
  6
CONTINUOUS
 10
0.441350
 20
-1.515496
  0
VERTEX
  8
EBENE_1
 62
    39
  6
CONTINUOUS
 10
0.408387
 20
-1.535496
  0
VERTEX
  8
EBENE_1
 62
    39
  6
CONTINUOUS
 10
0.382980
 20
-1.549496
  0
VERTEX
  8
EBENE_1
 62
    39
  6
CONTINUOUS
 10
0.343350
 20
-1.569496
  0
SEQEND
  8
0
  0
POLYLINE
  8
EBENE_1
 62
    39
  6
CONTINUOUS
 66
     1
 40
0.003000
 41
0.003000
  0
VERTEX
  8
EBENE_1
 62
    39
  6
CONTINUOUS
 10
0.343350
 20
-1.569496
  0
VERTEX
  8
EBENE_1
 62
    39
  6
CONTINUOUS
 10
0.305788
 20
-1.582905
  0
VERTEX
  8
EBENE_1
 62
    39
  6
CONTINUOUS
 10
0.267614
 20
-1.593128
  0
VERTEX
  8
EBENE_1
 62
    39
  6
CONTINUOUS
 10
0.228996
 20
-1.600159
  0
VERTEX
  8
EBENE_1
 62
    39
  6
CONTINUOUS
 10
0.190102
 20
-1.603992
  0
VERTEX
  8
EBENE_1
 62
    39
  6
CONTINUOUS
 10
0.151100
 20
-1.604621
  0
VERTEX
  8
EBENE_1
 62
    39
  6
CONTINUOUS
 10
0.112158
 20
-1.602040
  0
VERTEX
  8
EBENE_1
 62
    39
  6
CONTINUOUS
 10
0.073444
 20
-1.596243
  0
VERTEX
  8
EBENE_1
 62
    39
  6
CONTINUOUS
 10
0.035126
 20
-1.587224
  0
VERTEX
  8
EBENE_1
 62
    39
  6
CONTINUOUS
 10
-0.002628
 20
-1.574977
  0
VERTEX
  8
EBENE_1
 62
    39
  6
CONTINUOUS
 10
-0.039650
 20
-1.559496
  0
SEQEND
  8
0
  0
POLYLINE
  8
EBENE_1
 62
    39
  6
CONTINUOUS
 66
     1
 40
0.003000
 41
0.003000
  0
VERTEX
  8
EBENE_1
 62
    39
  6
CONTINUOUS
 10
-0.039650
 20
-1.559496
  0
VERTEX
  8
EBENE_1
 62
    39
  6
CONTINUOUS
 10
-0.081359
 20
-1.545070
  0
VERTEX
  8
EBENE_1
 62
    39
  6
CONTINUOUS
 10
-0.120196
 20
-1.532027
  0
VERTEX
  8
EBENE_1
 62
    39
  6
CONTINUOUS
 10
-0.157230
 20
-1.520719
  0
VERTEX
  8
EBENE_1
 62
    39
  6
CONTINUOUS
 10
-0.193525
 20
-1.511496
  0
VERTEX
  8
EBENE_1
 62
    39
  6
CONTINUOUS
 10
-0.230148
 20
-1.504711
  0
VERTEX
  8
EBENE_1
 62
    39
  6
CONTINUOUS
 10
-0.268165
 20
-1.500715
  0
VERTEX
  8
EBENE_1
 62
    39
  6
CONTINUOUS
 10
-0.308644
 20
-1.499859
  0
VERTEX
  8
EBENE_1
 62
    39
  6
CONTINUOUS
 10
-0.352650
 20
-1.502496
  0
SEQEND
  8
0
  0
POLYLINE
  8
EBENE_1
 62
    39
  6
CONTINUOUS
 66
     1
 40
0.003000
 41
0.003000
  0
VERTEX
  8
EBENE_1
 62
    39
  6
CONTINUOUS
 10
-0.352650
 20
-1.502496
  0
VERTEX
  8
EBENE_1
 62
    39
  6
CONTINUOUS
 10
-0.372872
 20
-1.507385
  0
VERTEX
  8
EBENE_1
 62
    39
  6
CONTINUOUS
 10
-0.383761
 20
-1.508941
  0
VERTEX
  8
EBENE_1
 62
    39
  6
CONTINUOUS
 10
-0.394650
 20
-1.508496
  0
SEQEND
  8
0
  0
POLYLINE
  8
EBENE_1
 62
    39
  6
CONTINUOUS
 66
     1
 40
0.003000
 41
0.003000
  0
VERTEX
  8
EBENE_1
 62
    39
  6
CONTINUOUS
 10
0.470350
 20
-1.651496
  0
VERTEX
  8
EBENE_1
 62
    39
  6
CONTINUOUS
 10
0.433350
 20
-1.667496
  0
VERTEX
  8
EBENE_1
 62
    39
  6
CONTINUOUS
 10
0.396350
 20
-1.683496
  0
VERTEX
  8
EBENE_1
 62
    39
  6
CONTINUOUS
 10
0.359350
 20
-1.699496
  0
SEQEND
  8
0
  0
POLYLINE
  8
EBENE_1
 62
    39
  6
CONTINUOUS
 66
     1
 40
0.003000
 41
0.003000
  0
VERTEX
  8
EBENE_1
 62
    39
  6
CONTINUOUS
 10
0.359350
 20
-1.699496
  0
VERTEX
  8
EBENE_1
 62
    39
  6
CONTINUOUS
 10
0.321631
 20
-1.709770
  0
VERTEX
  8
EBENE_1
 62
    39
  6
CONTINUOUS
 10
0.283807
 20
-1.718064
  0
VERTEX
  8
EBENE_1
 62
    39
  6
CONTINUOUS
 10
0.245975
 20
-1.724136
  0
VERTEX
  8
EBENE_1
 62
    39
  6
CONTINUOUS
 10
0.208228
 20
-1.727742
  0
VERTEX
  8
EBENE_1
 62
    39
  6
CONTINUOUS
 10
0.170661
 20
-1.728640
  0
VERTEX
  8
EBENE_1
 62
    39
  6
CONTINUOUS
 10
0.133370
 20
-1.726584
  0
VERTEX
  8
EBENE_1
 62
    39
  6
CONTINUOUS
 10
0.096448
 20
-1.721332
  0
VERTEX
  8
EBENE_1
 62
    39
  6
CONTINUOUS
 10
0.059991
 20
-1.712641
  0
VERTEX
  8
EBENE_1
 62
    39
  6
CONTINUOUS
 10
0.024092
 20
-1.700267
  0
VERTEX
  8
EBENE_1
 62
    39
  6
CONTINUOUS
 10
-0.011153
 20
-1.683966
  0
VERTEX
  8
EBENE_1
 62
    39
  6
CONTINUOUS
 10
-0.045650
 20
-1.663496
  0
SEQEND
  8
0
  0
POLYLINE
  8
EBENE_1
 62
    39
  6
CONTINUOUS
 66
     1
 40
0.003000
 41
0.003000
  0
VERTEX
  8
EBENE_1
 62
    39
  6
CONTINUOUS
 10
-0.045650
 20
-1.663496
  0
VERTEX
  8
EBENE_1
 62
    39
  6
CONTINUOUS
 10
-0.099798
 20
-1.643422
  0
VERTEX
  8
EBENE_1
 62
    39
  6
CONTINUOUS
 10
-0.128835
 20
-1.633570
  0
VERTEX
  8
EBENE_1
 62
    39
  6
CONTINUOUS
 10
-0.157650
 20
-1.625496
  0
SEQEND
  8
0
  0
POLYLINE
  8
EBENE_1
 62
    39
  6
CONTINUOUS
 66
     1
 40
0.003000
 41
0.003000
  0
VERTEX
  8
EBENE_1
 62
    39
  6
CONTINUOUS
 10
-0.157650
 20
-1.625496
  0
VERTEX
  8
EBENE_1
 62
    39
  6
CONTINUOUS
 10
-0.206613
 20
-1.624237
  0
VERTEX
  8
EBENE_1
 62
    39
  6
CONTINUOUS
 10
-0.255353
 20
-1.624089
  0
VERTEX
  8
EBENE_1
 62
    39
  6
CONTINUOUS
 10
-0.303650
 20
-1.627496
  0
SEQEND
  8
0
  0
POLYLINE
  8
EBENE_1
 62
    39
  6
CONTINUOUS
 66
     1
 40
0.003000
 41
0.003000
  0
VERTEX
  8
EBENE_1
 62
    39
  6
CONTINUOUS
 10
1.504350
 20
-1.799496
  0
VERTEX
  8
EBENE_1
 62
    39
  6
CONTINUOUS
 10
1.466350
 20
-1.826496
  0
VERTEX
  8
EBENE_1
 62
    39
  6
CONTINUOUS
 10
1.427017
 20
-1.848163
  0
VERTEX
  8
EBENE_1
 62
    39
  6
CONTINUOUS
 10
1.384350
 20
-1.868496
  0
SEQEND
  8
0
  0
POLYLINE
  8
EBENE_1
 62
    39
  6
CONTINUOUS
 66
     1
 40
0.003000
 41
0.003000
  0
VERTEX
  8
EBENE_1
 62
    39
  6
CONTINUOUS
 10
1.384350
 20
-1.868496
  0
VERTEX
  8
EBENE_1
 62
    39
  6
CONTINUOUS
 10
1.345036
 20
-1.872228
  0
VERTEX
  8
EBENE_1
 62
    39
  6
CONTINUOUS
 10
1.305897
 20
-1.871168
  0
VERTEX
  8
EBENE_1
 62
    39
  6
CONTINUOUS
 10
1.267016
 20
-1.866053
  0
VERTEX
  8
EBENE_1
 62
    39
  6
CONTINUOUS
 10
1.228475
 20
-1.857621
  0
VERTEX
  8
EBENE_1
 62
    39
  6
CONTINUOUS
 10
1.190356
 20
-1.846611
  0
VERTEX
  8
EBENE_1
 62
    39
  6
CONTINUOUS
 10
1.152741
 20
-1.833762
  0
VERTEX
  8
EBENE_1
 62
    39
  6
CONTINUOUS
 10
1.115712
 20
-1.819811
  0
VERTEX
  8
EBENE_1
 62
    39
  6
CONTINUOUS
 10
1.079350
 20
-1.805496
  0
SEQEND
  8
0
  0
POLYLINE
  8
EBENE_1
 62
    39
  6
CONTINUOUS
 66
     1
 40
0.003000
 41
0.003000
  0
VERTEX
  8
EBENE_1
 62
    39
  6
CONTINUOUS
 10
1.079350
 20
-1.805496
  0
VERTEX
  8
EBENE_1
 62
    39
  6
CONTINUOUS
 10
1.027573
 20
-1.794200
  0
VERTEX
  8
EBENE_1
 62
    39
  6
CONTINUOUS
 10
0.975795
 20
-1.783792
  0
VERTEX
  8
EBENE_1
 62
    39
  6
CONTINUOUS
 10
0.923350
 20
-1.776496
  0
SEQEND
  8
0
  0
POLYLINE
  8
EBENE_1
 62
    39
  6
CONTINUOUS
 66
     1
 40
0.003000
 41
0.003000
  0
VERTEX
  8
EBENE_1
 62
    39
  6
CONTINUOUS
 10
0.923350
 20
-1.776496
  0
VERTEX
  8
EBENE_1
 62
    39
  6
CONTINUOUS
 10
0.883596
 20
-1.780829
  0
VERTEX
  8
EBENE_1
 62
    39
  6
CONTINUOUS
 10
0.841980
 20
-1.785163
  0
VERTEX
  8
EBENE_1
 62
    39
  6
CONTINUOUS
 10
0.799475
 20
-1.788496
  0
VERTEX
  8
EBENE_1
 62
    39
  6
CONTINUOUS
 10
0.757054
 20
-1.789829
  0
VERTEX
  8
EBENE_1
 62
    39
  6
CONTINUOUS
 10
0.715688
 20
-1.788163
  0
VERTEX
  8
EBENE_1
 62
    39
  6
CONTINUOUS
 10
0.676350
 20
-1.782496
  0
SEQEND
  8
0
  0
POLYLINE
  8
EBENE_1
 62
    39
  6
CONTINUOUS
 66
     1
 40
0.003000
 41
0.003000
  0
VERTEX
  8
EBENE_1
 62
    39
  6
CONTINUOUS
 10
0.676350
 20
-1.782496
  0
VERTEX
  8
EBENE_1
 62
    39
  6
CONTINUOUS
 10
0.643350
 20
-1.767792
  0
VERTEX
  8
EBENE_1
 62
    39
  6
CONTINUOUS
 10
0.612350
 20
-1.751533
  0
VERTEX
  8
EBENE_1
 62
    39
  6
CONTINUOUS
 10
0.589350
 20
-1.727496
  0
SEQEND
  8
0
  0
POLYLINE
  8
EBENE_1
 62
    39
  6
CONTINUOUS
 66
     1
 40
0.003000
 41
0.003000
  0
VERTEX
  8
EBENE_1
 62
    39
  6
CONTINUOUS
 10
-0.225661
 20
-0.266941
  0
VERTEX
  8
EBENE_1
 62
    39
  6
CONTINUOUS
 10
-0.162366
 20
-0.267858
  0
SEQEND
  8
0
  0
POLYLINE
  8
EBENE_1
 62
    39
  6
CONTINUOUS
 66
     1
 40
0.003000
 41
0.003000
  0
VERTEX
  8
EBENE_1
 62
    39
  6
CONTINUOUS
 10
-0.188051
 20
-0.239421
  0
VERTEX
  8
EBENE_1
 62
    39
  6
CONTINUOUS
 10
-0.184382
 20
-0.297213
  0
SEQEND
  8
0
  0
POLYLINE
  8
EBENE_1
 62
    39
  6
CONTINUOUS
 66
     1
 40
0.003000
 41
0.003000
  0
VERTEX
  8
EBENE_1
 62
    39
  6
CONTINUOUS
 10
-0.617358
 20
-1.195272
  0
VERTEX
  8
EBENE_1
 62
    39
  6
CONTINUOUS
 10
-0.653134
 20
-0.717346
  0
SEQEND
  8
0
  0
POLYLINE
  8
EBENE_1
 62
    39
  6
CONTINUOUS
 66
     1
 40
0.003000
 41
0.003000
  0
VERTEX
  8
EBENE_1
 62
    39
  6
CONTINUOUS
 10
-0.526543
 20
-1.009055
  0
VERTEX
  8
EBENE_1
 62
    39
  6
CONTINUOUS
 10
-0.508197
 20
-0.734776
  0
SEQEND
  8
0
  0
POLYLINE
  8
EBENE_1
 62
    39
  6
CONTINUOUS
 66
     1
 40
0.003000
 41
0.003000
  0
VERTEX
  8
EBENE_1
 62
    39
  6
CONTINUOUS
 10
1.111728
 20
0.707232
  0
VERTEX
  8
EBENE_1
 62
    39
  6
CONTINUOUS
 10
1.116284
 20
0.712290
  0
VERTEX
  8
EBENE_1
 62
    39
  6
CONTINUOUS
 10
1.116744
 20
0.715016
  0
VERTEX
  8
EBENE_1
 62
    39
  6
CONTINUOUS
 10
1.117299
 20
0.720740
  0
VERTEX
  8
EBENE_1
 62
    39
  6
CONTINUOUS
 10
1.119770
 20
0.719375
  0
VERTEX
  8
EBENE_1
 62
    39
  6
CONTINUOUS
 10
1.121597
 20
0.716650
  0
VERTEX
  8
EBENE_1
 62
    39
  6
CONTINUOUS
 10
1.123402
 20
0.714618
  0
VERTEX
  8
EBENE_1
 62
    39
  6
CONTINUOUS
 10
1.126441
 20
0.702815
  0
VERTEX
  8
EBENE_1
 62
    39
  6
CONTINUOUS
 10
1.127515
 20
0.696132
  0
VERTEX
  8
EBENE_1
 62
    39
  6
CONTINUOUS
 10
1.126555
 20
0.683661
  0
VERTEX
  8
EBENE_1
 62
    39
  6
CONTINUOUS
 10
1.118933
 20
0.691550
  0
VERTEX
  8
EBENE_1
 62
    39
  6
CONTINUOUS
 10
1.115350
 20
0.697344
  0
VERTEX
  8
EBENE_1
 62
    39
  6
CONTINUOUS
 10
1.111728
 20
0.707232
  0
SEQEND
  8
0
  0
POLYLINE
  8
EBENE_1
 62
    39
  6
CONTINUOUS
 66
     1
 40
0.003000
 41
0.003000
  0
VERTEX
  8
EBENE_1
 62
    39
  6
CONTINUOUS
 10
1.009945
 20
0.762819
  0
VERTEX
  8
EBENE_1
 62
    39
  6
CONTINUOUS
 10
1.023175
 20
0.776043
  0
VERTEX
  8
EBENE_1
 62
    39
  6
CONTINUOUS
 10
1.032481
 20
0.782503
  0
VERTEX
  8
EBENE_1
 62
    39
  6
CONTINUOUS
 10
1.049291
 20
0.783378
  0
VERTEX
  8
EBENE_1
 62
    39
  6
CONTINUOUS
 10
1.046264
 20
0.770748
  0
VERTEX
  8
EBENE_1
 62
    39
  6
CONTINUOUS
 10
1.041879
 20
0.763103
  0
VERTEX
  8
EBENE_1
 62
    39
  6
CONTINUOUS
 10
1.034185
 20
0.751807
  0
VERTEX
  8
EBENE_1
 62
    39
  6
CONTINUOUS
 10
1.023234
 20
0.752218
  0
VERTEX
  8
EBENE_1
 62
    39
  6
CONTINUOUS
 10
1.016229
 20
0.755075
  0
VERTEX
  8
EBENE_1
 62
    39
  6
CONTINUOUS
 10
1.009945
 20
0.762819
  0
SEQEND
  8
0
  0
POLYLINE
  8
EBENE_1
 62
    39
  6
CONTINUOUS
 66
     1
 40
0.003000
 41
0.003000
  0
VERTEX
  8
EBENE_1
 62
    39
  6
CONTINUOUS
 10
0.885945
 20
0.805201
  0
VERTEX
  8
EBENE_1
 62
    39
  6
CONTINUOUS
 10
0.910559
 20
0.812786
  0
VERTEX
  8
EBENE_1
 62
    39
  6
CONTINUOUS
 10
0.918176
 20
0.814492
  0
VERTEX
  8
EBENE_1
 62
    39
  6
CONTINUOUS
 10
0.929457
 20
0.814744
  0
VERTEX
  8
EBENE_1
 62
    39
  6
CONTINUOUS
 10
0.925257
 20
0.806834
  0
VERTEX
  8
EBENE_1
 62
    39
  6
CONTINUOUS
 10
0.920601
 20
0.804430
  0
VERTEX
  8
EBENE_1
 62
    39
  6
CONTINUOUS
 10
0.912402
 20
0.800520
  0
VERTEX
  8
EBENE_1
 62
    39
  6
CONTINUOUS
 10
0.889987
 20
0.804622
  0
VERTEX
  8
EBENE_1
 62
    39
  6
CONTINUOUS
 10
0.885693
 20
0.804432
  0
VERTEX
  8
EBENE_1
 62
    39
  6
CONTINUOUS
 10
0.885945
 20
0.805201
  0
SEQEND
  8
0
  0
POLYLINE
  8
EBENE_1
 62
    39
  6
CONTINUOUS
 66
     1
 40
0.003000
 41
0.003000
  0
VERTEX
  8
EBENE_1
 62
    39
  6
CONTINUOUS
 10
-0.439390
 20
2.110772
  0
VERTEX
  8
EBENE_1
 62
    39
  6
CONTINUOUS
 10
-0.434272
 20
2.109380
  0
VERTEX
  8
EBENE_1
 62
    39
  6
CONTINUOUS
 10
-0.430623
 20
2.105730
  0
VERTEX
  8
EBENE_1
 62
    39
  6
CONTINUOUS
 10
-0.429232
 20
2.100606
  0
VERTEX
  8
EBENE_1
 62
    39
  6
CONTINUOUS
 10
-0.430623
 20
2.095488
  0
VERTEX
  8
EBENE_1
 62
    39
  6
CONTINUOUS
 10
-0.434272
 20
2.091840
  0
VERTEX
  8
EBENE_1
 62
    39
  6
CONTINUOUS
 10
-0.439390
 20
2.090449
  0
VERTEX
  8
EBENE_1
 62
    39
  6
CONTINUOUS
 10
-0.444513
 20
2.091840
  0
VERTEX
  8
EBENE_1
 62
    39
  6
CONTINUOUS
 10
-0.448164
 20
2.095488
  0
VERTEX
  8
EBENE_1
 62
    39
  6
CONTINUOUS
 10
-0.449555
 20
2.100606
  0
VERTEX
  8
EBENE_1
 62
    39
  6
CONTINUOUS
 10
-0.448164
 20
2.105730
  0
VERTEX
  8
EBENE_1
 62
    39
  6
CONTINUOUS
 10
-0.444513
 20
2.109380
  0
VERTEX
  8
EBENE_1
 62
    39
  6
CONTINUOUS
 10
-0.439390
 20
2.110772
  0
SEQEND
  8
0
  0
POLYLINE
  8
EBENE_2
 62
    39
  6
CONTINUOUS
 66
     1
 40
0.003000
 41
0.003000
  0
VERTEX
  8
EBENE_2
 62
    39
  6
CONTINUOUS
 10
-0.833650
 20
1.658504
  0
VERTEX
  8
EBENE_2
 62
    39
  6
CONTINUOUS
 10
-0.801872
 20
1.669059
  0
VERTEX
  8
EBENE_2
 62
    39
  6
CONTINUOUS
 10
-0.770094
 20
1.678948
  0
VERTEX
  8
EBENE_2
 62
    39
  6
CONTINUOUS
 10
-0.737650
 20
1.685504
  0
VERTEX
  8
EBENE_2
 62
    39
  6
CONTINUOUS
 10
-0.735946
 20
1.659208
  0
VERTEX
  8
EBENE_2
 62
    39
  6
CONTINUOUS
 10
-0.734687
 20
1.632467
  0
VERTEX
  8
EBENE_2
 62
    39
  6
CONTINUOUS
 10
-0.733650
 20
1.605504
  0
VERTEX
  8
EBENE_2
 62
    39
  6
CONTINUOUS
 10
-0.767798
 20
1.621245
  0
VERTEX
  8
EBENE_2
 62
    39
  6
CONTINUOUS
 10
-0.801501
 20
1.638763
  0
VERTEX
  8
EBENE_2
 62
    39
  6
CONTINUOUS
 10
-0.833650
 20
1.658504
  0
SEQEND
  8
0
  0
POLYLINE
  8
EBENE_2
 62
    39
  6
CONTINUOUS
 66
     1
 40
0.003000
 41
0.003000
  0
VERTEX
  8
EBENE_2
 62
    39
  6
CONTINUOUS
 10
-0.553650
 20
-0.427496
  0
VERTEX
  8
EBENE_2
 62
    39
  6
CONTINUOUS
 10
-0.514464
 20
-0.433385
  0
VERTEX
  8
EBENE_2
 62
    39
  6
CONTINUOUS
 10
-0.475501
 20
-0.446607
  0
VERTEX
  8
EBENE_2
 62
    39
  6
CONTINUOUS
 10
-0.437650
 20
-0.460496
  0
VERTEX
  8
EBENE_2
 62
    39
  6
CONTINUOUS
 10
-0.436687
 20
-0.468496
  0
VERTEX
  8
EBENE_2
 62
    39
  6
CONTINUOUS
 10
-0.435946
 20
-0.476496
  0
VERTEX
  8
EBENE_2
 62
    39
  6
CONTINUOUS
 10
-0.435650
 20
-0.484496
  0
VERTEX
  8
EBENE_2
 62
    39
  6
CONTINUOUS
 10
-0.442006
 20
-0.522025
  0
VERTEX
  8
EBENE_2
 62
    39
  6
CONTINUOUS
 10
-0.448239
 20
-0.559607
  0
VERTEX
  8
EBENE_2
 62
    39
  6
CONTINUOUS
 10
-0.454374
 20
-0.597232
  0
VERTEX
  8
EBENE_2
 62
    39
  6
CONTINUOUS
 10
-0.460443
 20
-0.634893
  0
VERTEX
  8
EBENE_2
 62
    39
  6
CONTINUOUS
 10
-0.466471
 20
-0.672579
  0
VERTEX
  8
EBENE_2
 62
    39
  6
CONTINUOUS
 10
-0.472489
 20
-0.710283
  0
VERTEX
  8
EBENE_2
 62
    39
  6
CONTINUOUS
 10
-0.478525
 20
-0.747996
  0
VERTEX
  8
EBENE_2
 62
    39
  6
CONTINUOUS
 10
-0.484606
 20
-0.785709
  0
VERTEX
  8
EBENE_2
 62
    39
  6
CONTINUOUS
 10
-0.490761
 20
-0.823413
  0
VERTEX
  8
EBENE_2
 62
    39
  6
CONTINUOUS
 10
-0.497020
 20
-0.861100
  0
VERTEX
  8
EBENE_2
 62
    39
  6
CONTINUOUS
 10
-0.503409
 20
-0.898760
  0
VERTEX
  8
EBENE_2
 62
    39
  6
CONTINUOUS
 10
-0.509959
 20
-0.936385
  0
VERTEX
  8
EBENE_2
 62
    39
  6
CONTINUOUS
 10
-0.516696
 20
-0.973967
  0
VERTEX
  8
EBENE_2
 62
    39
  6
CONTINUOUS
 10
-0.523650
 20
-1.011496
  0
VERTEX
  8
EBENE_2
 62
    39
  6
CONTINUOUS
 10
-0.523650
 20
-1.011496
  0
VERTEX
  8
EBENE_2
 62
    39
  6
CONTINUOUS
 10
-0.524946
 20
-1.009496
  0
VERTEX
  8
EBENE_2
 62
    39
  6
CONTINUOUS
 10
-0.526687
 20
-1.007496
  0
VERTEX
  8
EBENE_2
 62
    39
  6
CONTINUOUS
 10
-0.528650
 20
-1.005496
  0
VERTEX
  8
EBENE_2
 62
    39
  6
CONTINUOUS
 10
-0.530250
 20
-0.966896
  0
VERTEX
  8
EBENE_2
 62
    39
  6
CONTINUOUS
 10
-0.531852
 20
-0.928298
  0
VERTEX
  8
EBENE_2
 62
    39
  6
CONTINUOUS
 10
-0.533458
 20
-0.889704
  0
VERTEX
  8
EBENE_2
 62
    39
  6
CONTINUOUS
 10
-0.535069
 20
-0.851115
  0
VERTEX
  8
EBENE_2
 62
    39
  6
CONTINUOUS
 10
-0.536687
 20
-0.812533
  0
VERTEX
  8
EBENE_2
 62
    39
  6
CONTINUOUS
 10
-0.538314
 20
-0.773960
  0
VERTEX
  8
EBENE_2
 62
    39
  6
CONTINUOUS
 10
-0.539951
 20
-0.735398
  0
VERTEX
  8
EBENE_2
 62
    39
  6
CONTINUOUS
 10
-0.541601
 20
-0.696848
  0
VERTEX
  8
EBENE_2
 62
    39
  6
CONTINUOUS
 10
-0.543266
 20
-0.658312
  0
VERTEX
  8
EBENE_2
 62
    39
  6
CONTINUOUS
 10
-0.544946
 20
-0.619792
  0
VERTEX
  8
EBENE_2
 62
    39
  6
CONTINUOUS
 10
-0.546644
 20
-0.581290
  0
VERTEX
  8
EBENE_2
 62
    39
  6
CONTINUOUS
 10
-0.548362
 20
-0.542808
  0
VERTEX
  8
EBENE_2
 62
    39
  6
CONTINUOUS
 10
-0.550101
 20
-0.504347
  0
VERTEX
  8
EBENE_2
 62
    39
  6
CONTINUOUS
 10
-0.551863
 20
-0.465909
  0
VERTEX
  8
EBENE_2
 62
    39
  6
CONTINUOUS
 10
-0.553650
 20
-0.427496
  0
SEQEND
  8
0
  0
POLYLINE
  8
EBENE_2
 62
    39
  6
CONTINUOUS
 66
     1
 40
0.003000
 41
0.003000
  0
VERTEX
  8
EBENE_2
 62
    39
  6
CONTINUOUS
 10
0.346350
 20
-0.714496
  0
VERTEX
  8
EBENE_2
 62
    39
  6
CONTINUOUS
 10
0.386592
 20
-0.710409
  0
VERTEX
  8
EBENE_2
 62
    39
  6
CONTINUOUS
 10
0.427429
 20
-0.706531
  0
VERTEX
  8
EBENE_2
 62
    39
  6
CONTINUOUS
 10
0.468598
 20
-0.702584
  0
VERTEX
  8
EBENE_2
 62
    39
  6
CONTINUOUS
 10
0.509837
 20
-0.698286
  0
VERTEX
  8
EBENE_2
 62
    39
  6
CONTINUOUS
 10
0.550884
 20
-0.693359
  0
VERTEX
  8
EBENE_2
 62
    39
  6
CONTINUOUS
 10
0.591476
 20
-0.687522
  0
VERTEX
  8
EBENE_2
 62
    39
  6
CONTINUOUS
 10
0.631350
 20
-0.680496
  0
VERTEX
  8
EBENE_2
 62
    39
  6
CONTINUOUS
 10
0.648554
 20
-0.647809
  0
VERTEX
  8
EBENE_2
 62
    39
  6
CONTINUOUS
 10
0.651975
 20
-0.607246
  0
VERTEX
  8
EBENE_2
 62
    39
  6
CONTINUOUS
 10
0.650335
 20
-0.564059
  0
VERTEX
  8
EBENE_2
 62
    39
  6
CONTINUOUS
 10
0.652350
 20
-0.523496
  0
VERTEX
  8
EBENE_2
 62
    39
  6
CONTINUOUS
 10
0.678387
 20
-0.507052
  0
VERTEX
  8
EBENE_2
 62
    39
  6
CONTINUOUS
 10
0.692647
 20
-0.499274
  0
VERTEX
  8
EBENE_2
 62
    39
  6
CONTINUOUS
 10
0.707350
 20
-0.493496
  0
VERTEX
  8
EBENE_2
 62
    39
  6
CONTINUOUS
 10
0.707682
 20
-0.532300
  0
VERTEX
  8
EBENE_2
 62
    39
  6
CONTINUOUS
 10
0.706633
 20
-0.571519
  0
VERTEX
  8
EBENE_2
 62
    39
  6
CONTINUOUS
 10
0.704356
 20
-0.611080
  0
VERTEX
  8
EBENE_2
 62
    39
  6
CONTINUOUS
 10
0.701001
 20
-0.650907
  0
VERTEX
  8
EBENE_2
 62
    39
  6
CONTINUOUS
 10
0.696718
 20
-0.690927
  0
VERTEX
  8
EBENE_2
 62
    39
  6
CONTINUOUS
 10
0.691659
 20
-0.731065
  0
VERTEX
  8
EBENE_2
 62
    39
  6
CONTINUOUS
 10
0.685975
 20
-0.771246
  0
VERTEX
  8
EBENE_2
 62
    39
  6
CONTINUOUS
 10
0.679817
 20
-0.811397
  0
VERTEX
  8
EBENE_2
 62
    39
  6
CONTINUOUS
 10
0.673335
 20
-0.851443
  0
VERTEX
  8
EBENE_2
 62
    39
  6
CONTINUOUS
 10
0.666680
 20
-0.891309
  0
VERTEX
  8
EBENE_2
 62
    39
  6
CONTINUOUS
 10
0.660003
 20
-0.930922
  0
VERTEX
  8
EBENE_2
 62
    39
  6
CONTINUOUS
 10
0.653455
 20
-0.970207
  0
VERTEX
  8
EBENE_2
 62
    39
  6
CONTINUOUS
 10
0.647187
 20
-1.009090
  0
VERTEX
  8
EBENE_2
 62
    39
  6
CONTINUOUS
 10
0.641350
 20
-1.047496
  0
VERTEX
  8
EBENE_2
 62
    39
  6
CONTINUOUS
 10
0.641350
 20
-1.047496
  0
VERTEX
  8
EBENE_2
 62
    39
  6
CONTINUOUS
 10
0.636957
 20
-1.087336
  0
VERTEX
  8
EBENE_2
 62
    39
  6
CONTINUOUS
 10
0.632482
 20
-1.127208
  0
VERTEX
  8
EBENE_2
 62
    39
  6
CONTINUOUS
 10
0.627894
 20
-1.167093
  0
VERTEX
  8
EBENE_2
 62
    39
  6
CONTINUOUS
 10
0.623163
 20
-1.206973
  0
VERTEX
  8
EBENE_2
 62
    39
  6
CONTINUOUS
 10
0.618255
 20
-1.246831
  0
VERTEX
  8
EBENE_2
 62
    39
  6
CONTINUOUS
 10
0.613140
 20
-1.286649
  0
VERTEX
  8
EBENE_2
 62
    39
  6
CONTINUOUS
 10
0.607786
 20
-1.326407
  0
VERTEX
  8
EBENE_2
 62
    39
  6
CONTINUOUS
 10
0.602162
 20
-1.366090
  0
VERTEX
  8
EBENE_2
 62
    39
  6
CONTINUOUS
 10
0.596235
 20
-1.405677
  0
VERTEX
  8
EBENE_2
 62
    39
  6
CONTINUOUS
 10
0.589975
 20
-1.445152
  0
VERTEX
  8
EBENE_2
 62
    39
  6
CONTINUOUS
 10
0.583350
 20
-1.484496
  0
VERTEX
  8
EBENE_2
 62
    39
  6
CONTINUOUS
 10
0.580350
 20
-1.483792
  0
VERTEX
  8
EBENE_2
 62
    39
  6
CONTINUOUS
 10
0.577350
 20
-1.483533
  0
VERTEX
  8
EBENE_2
 62
    39
  6
CONTINUOUS
 10
0.574350
 20
-1.483496
  0
VERTEX
  8
EBENE_2
 62
    39
  6
CONTINUOUS
 10
0.552476
 20
-1.450151
  0
VERTEX
  8
EBENE_2
 62
    39
  6
CONTINUOUS
 10
0.532216
 20
-1.416143
  0
VERTEX
  8
EBENE_2
 62
    39
  6
CONTINUOUS
 10
0.513469
 20
-1.381515
  0
VERTEX
  8
EBENE_2
 62
    39
  6
CONTINUOUS
 10
0.496135
 20
-1.346307
  0
VERTEX
  8
EBENE_2
 62
    39
  6
CONTINUOUS
 10
0.480112
 20
-1.310561
  0
VERTEX
  8
EBENE_2
 62
    39
  6
CONTINUOUS
 10
0.465301
 20
-1.274318
  0
VERTEX
  8
EBENE_2
 62
    39
  6
CONTINUOUS
 10
0.451600
 20
-1.237621
  0
VERTEX
  8
EBENE_2
 62
    39
  6
CONTINUOUS
 10
0.438910
 20
-1.200511
  0
VERTEX
  8
EBENE_2
 62
    39
  6
CONTINUOUS
 10
0.427130
 20
-1.163028
  0
VERTEX
  8
EBENE_2
 62
    39
  6
CONTINUOUS
 10
0.416158
 20
-1.125216
  0
VERTEX
  8
EBENE_2
 62
    39
  6
CONTINUOUS
 10
0.405895
 20
-1.087115
  0
VERTEX
  8
EBENE_2
 62
    39
  6
CONTINUOUS
 10
0.396240
 20
-1.048767
  0
VERTEX
  8
EBENE_2
 62
    39
  6
CONTINUOUS
 10
0.387092
 20
-1.010214
  0
VERTEX
  8
EBENE_2
 62
    39
  6
CONTINUOUS
 10
0.378350
 20
-0.971496
  0
VERTEX
  8
EBENE_2
 62
    39
  6
CONTINUOUS
 10
0.378350
 20
-0.971496
  0
VERTEX
  8
EBENE_2
 62
    39
  6
CONTINUOUS
 10
0.368202
 20
-0.897806
  0
VERTEX
  8
EBENE_2
 62
    39
  6
CONTINUOUS
 10
0.361165
 20
-0.845978
  0
VERTEX
  8
EBENE_2
 62
    39
  6
CONTINUOUS
 10
0.356350
 20
-0.808871
  0
VERTEX
  8
EBENE_2
 62
    39
  6
CONTINUOUS
 10
0.352869
 20
-0.779348
  0
VERTEX
  8
EBENE_2
 62
    39
  6
CONTINUOUS
 10
0.349832
 20
-0.750269
  0
VERTEX
  8
EBENE_2
 62
    39
  6
CONTINUOUS
 10
0.346350
 20
-0.714496
  0
SEQEND
  8
0
  0
POLYLINE
  8
EBENE_2
 62
    39
  6
CONTINUOUS
 66
     1
 40
0.003000
 41
0.003000
  0
VERTEX
  8
EBENE_2
 62
    39
  6
CONTINUOUS
 10
-2.227650
 20
-0.201496
  0
VERTEX
  8
EBENE_2
 62
    39
  6
CONTINUOUS
 10
-2.223650
 20
-0.149792
  0
VERTEX
  8
EBENE_2
 62
    39
  6
CONTINUOUS
 10
-2.219650
 20
-0.098533
  0
VERTEX
  8
EBENE_2
 62
    39
  6
CONTINUOUS
 10
-2.215650
 20
-0.047496
  0
VERTEX
  8
EBENE_2
 62
    39
  6
CONTINUOUS
 10
-2.209999
 20
-0.010070
  0
VERTEX
  8
EBENE_2
 62
    39
  6
CONTINUOUS
 10
-2.203976
 20
0.027047
  0
VERTEX
  8
EBENE_2
 62
    39
  6
CONTINUOUS
 10
-2.197562
 20
0.063878
  0
VERTEX
  8
EBENE_2
 62
    39
  6
CONTINUOUS
 10
-2.190735
 20
0.100447
  0
VERTEX
  8
EBENE_2
 62
    39
  6
CONTINUOUS
 10
-2.183478
 20
0.136776
  0
VERTEX
  8
EBENE_2
 62
    39
  6
CONTINUOUS
 10
-2.175770
 20
0.172889
  0
VERTEX
  8
EBENE_2
 62
    39
  6
CONTINUOUS
 10
-2.167591
 20
0.208810
  0
VERTEX
  8
EBENE_2
 62
    39
  6
CONTINUOUS
 10
-2.158923
 20
0.244560
  0
VERTEX
  8
EBENE_2
 62
    39
  6
CONTINUOUS
 10
-2.149746
 20
0.280164
  0
VERTEX
  8
EBENE_2
 62
    39
  6
CONTINUOUS
 10
-2.140040
 20
0.315645
  0
VERTEX
  8
EBENE_2
 62
    39
  6
CONTINUOUS
 10
-2.129786
 20
0.351025
  0
VERTEX
  8
EBENE_2
 62
    39
  6
CONTINUOUS
 10
-2.118963
 20
0.386328
  0
VERTEX
  8
EBENE_2
 62
    39
  6
CONTINUOUS
 10
-2.107554
 20
0.421578
  0
VERTEX
  8
EBENE_2
 62
    39
  6
CONTINUOUS
 10
-2.095537
 20
0.456797
  0
VERTEX
  8
EBENE_2
 62
    39
  6
CONTINUOUS
 10
-2.082894
 20
0.492009
  0
VERTEX
  8
EBENE_2
 62
    39
  6
CONTINUOUS
 10
-2.069604
 20
0.527237
  0
VERTEX
  8
EBENE_2
 62
    39
  6
CONTINUOUS
 10
-2.055650
 20
0.562504
  0
VERTEX
  8
EBENE_2
 62
    39
  6
CONTINUOUS
 10
-2.033900
 20
0.605988
  0
VERTEX
  8
EBENE_2
 62
    39
  6
CONTINUOUS
 10
-2.012150
 20
0.649379
  0
VERTEX
  8
EBENE_2
 62
    39
  6
CONTINUOUS
 10
-1.990400
 20
0.692582
  0
VERTEX
  8
EBENE_2
 62
    39
  6
CONTINUOUS
 10
-1.968650
 20
0.735504
  0
VERTEX
  8
EBENE_2
 62
    39
  6
CONTINUOUS
 10
-1.929599
 20
0.795745
  0
VERTEX
  8
EBENE_2
 62
    39
  6
CONTINUOUS
 10
-1.901576
 20
0.838763
  0
VERTEX
  8
EBENE_2
 62
    39
  6
CONTINUOUS
 10
-1.880275
 20
0.871004
  0
VERTEX
  8
EBENE_2
 62
    39
  6
CONTINUOUS
 10
-1.861390
 20
0.898911
  0
VERTEX
  8
EBENE_2
 62
    39
  6
CONTINUOUS
 10
-1.840617
 20
0.928930
  0
VERTEX
  8
EBENE_2
 62
    39
  6
CONTINUOUS
 10
-1.813650
 20
0.967504
  0
VERTEX
  8
EBENE_2
 62
    39
  6
CONTINUOUS
 10
-1.773650
 20
1.015546
  0
VERTEX
  8
EBENE_2
 62
    39
  6
CONTINUOUS
 10
-1.744316
 20
1.050504
  0
VERTEX
  8
EBENE_2
 62
    39
  6
CONTINUOUS
 10
-1.720650
 20
1.078129
  0
VERTEX
  8
EBENE_2
 62
    39
  6
CONTINUOUS
 10
-1.697650
 20
1.104171
  0
VERTEX
  8
EBENE_2
 62
    39
  6
CONTINUOUS
 10
-1.670316
 20
1.134379
  0
VERTEX
  8
EBENE_2
 62
    39
  6
CONTINUOUS
 10
-1.633650
 20
1.174504
  0
VERTEX
  8
EBENE_2
 62
    39
  6
CONTINUOUS
 10
-1.607943
 20
1.198614
  0
VERTEX
  8
EBENE_2
 62
    39
  6
CONTINUOUS
 10
-1.581570
 20
1.222889
  0
VERTEX
  8
EBENE_2
 62
    39
  6
CONTINUOUS
 10
-1.554556
 20
1.247244
  0
VERTEX
  8
EBENE_2
 62
    39
  6
CONTINUOUS
 10
-1.526930
 20
1.271598
  0
VERTEX
  8
EBENE_2
 62
    39
  6
CONTINUOUS
 10
-1.498717
 20
1.295866
  0
VERTEX
  8
EBENE_2
 62
    39
  6
CONTINUOUS
 10
-1.469946
 20
1.319964
  0
VERTEX
  8
EBENE_2
 62
    39
  6
CONTINUOUS
 10
-1.440642
 20
1.343811
  0
VERTEX
  8
EBENE_2
 62
    39
  6
CONTINUOUS
 10
-1.410834
 20
1.367321
  0
VERTEX
  8
EBENE_2
 62
    39
  6
CONTINUOUS
 10
-1.380547
 20
1.390413
  0
VERTEX
  8
EBENE_2
 62
    39
  6
CONTINUOUS
 10
-1.349810
 20
1.413001
  0
VERTEX
  8
EBENE_2
 62
    39
  6
CONTINUOUS
 10
-1.318650
 20
1.435004
  0
VERTEX
  8
EBENE_2
 62
    39
  6
CONTINUOUS
 10
-1.287092
 20
1.456337
  0
VERTEX
  8
EBENE_2
 62
    39
  6
CONTINUOUS
 10
-1.255165
 20
1.476918
  0
VERTEX
  8
EBENE_2
 62
    39
  6
CONTINUOUS
 10
-1.222895
 20
1.496662
  0
VERTEX
  8
EBENE_2
 62
    39
  6
CONTINUOUS
 10
-1.190310
 20
1.515486
  0
VERTEX
  8
EBENE_2
 62
    39
  6
CONTINUOUS
 10
-1.157436
 20
1.533308
  0
VERTEX
  8
EBENE_2
 62
    39
  6
CONTINUOUS
 10
-1.124301
 20
1.550043
  0
VERTEX
  8
EBENE_2
 62
    39
  6
CONTINUOUS
 10
-1.090931
 20
1.565608
  0
VERTEX
  8
EBENE_2
 62
    39
  6
CONTINUOUS
 10
-1.057354
 20
1.579921
  0
VERTEX
  8
EBENE_2
 62
    39
  6
CONTINUOUS
 10
-1.023597
 20
1.592896
  0
VERTEX
  8
EBENE_2
 62
    39
  6
CONTINUOUS
 10
-0.989686
 20
1.604452
  0
VERTEX
  8
EBENE_2
 62
    39
  6
CONTINUOUS
 10
-0.955650
 20
1.614504
  0
VERTEX
  8
EBENE_2
 62
    39
  6
CONTINUOUS
 10
-0.955650
 20
1.614504
  0
VERTEX
  8
EBENE_2
 62
    39
  6
CONTINUOUS
 10
-0.921353
 20
1.628615
  0
VERTEX
  8
EBENE_2
 62
    39
  6
CONTINUOUS
 10
-0.905279
 20
1.634059
  0
VERTEX
  8
EBENE_2
 62
    39
  6
CONTINUOUS
 10
-0.893650
 20
1.635504
  0
VERTEX
  8
EBENE_2
 62
    39
  6
CONTINUOUS
 10
-0.891384
 20
1.590301
  0
VERTEX
  8
EBENE_2
 62
    39
  6
CONTINUOUS
 10
-0.888275
 20
1.543129
  0
VERTEX
  8
EBENE_2
 62
    39
  6
CONTINUOUS
 10
-0.887603
 20
1.496145
  0
VERTEX
  8
EBENE_2
 62
    39
  6
CONTINUOUS
 10
-0.892650
 20
1.451504
  0
VERTEX
  8
EBENE_2
 62
    39
  6
CONTINUOUS
 10
-0.936915
 20
1.423754
  0
VERTEX
  8
EBENE_2
 62
    39
  6
CONTINUOUS
 10
-0.981275
 20
1.396004
  0
VERTEX
  8
EBENE_2
 62
    39
  6
CONTINUOUS
 10
-1.025821
 20
1.368254
  0
VERTEX
  8
EBENE_2
 62
    39
  6
CONTINUOUS
 10
-1.070650
 20
1.340504
  0
VERTEX
  8
EBENE_2
 62
    39
  6
CONTINUOUS
 10
-1.070687
 20
1.334504
  0
VERTEX
  8
EBENE_2
 62
    39
  6
CONTINUOUS
 10
-1.070946
 20
1.328504
  0
VERTEX
  8
EBENE_2
 62
    39
  6
CONTINUOUS
 10
-1.071650
 20
1.322504
  0
VERTEX
  8
EBENE_2
 62
    39
  6
CONTINUOUS
 10
-1.034450
 20
1.302704
  0
VERTEX
  8
EBENE_2
 62
    39
  6
CONTINUOUS
 10
-0.997250
 20
1.282904
  0
VERTEX
  8
EBENE_2
 62
    39
  6
CONTINUOUS
 10
-0.960050
 20
1.263104
  0
VERTEX
  8
EBENE_2
 62
    39
  6
CONTINUOUS
 10
-0.922850
 20
1.243304
  0
VERTEX
  8
EBENE_2
 62
    39
  6
CONTINUOUS
 10
-0.885650
 20
1.223504
  0
VERTEX
  8
EBENE_2
 62
    39
  6
CONTINUOUS
 10
-0.880738
 20
1.122320
  0
VERTEX
  8
EBENE_2
 62
    39
  6
CONTINUOUS
 10
-0.877554
 20
1.059872
  0
VERTEX
  8
EBENE_2
 62
    39
  6
CONTINUOUS
 10
-0.875426
 20
1.025216
  0
VERTEX
  8
EBENE_2
 62
    39
  6
CONTINUOUS
 10
-0.873682
 20
1.007408
  0
VERTEX
  8
EBENE_2
 62
    39
  6
CONTINUOUS
 10
-0.871650
 20
0.995504
  0
VERTEX
  8
EBENE_2
 62
    39
  6
CONTINUOUS
 10
-0.868946
 20
0.994208
  0
VERTEX
  8
EBENE_2
 62
    39
  6
CONTINUOUS
 10
-0.866687
 20
0.992467
  0
VERTEX
  8
EBENE_2
 62
    39
  6
CONTINUOUS
 10
-0.864650
 20
0.990504
  0
VERTEX
  8
EBENE_2
 62
    39
  6
CONTINUOUS
 10
-0.833868
 20
1.010645
  0
VERTEX
  8
EBENE_2
 62
    39
  6
CONTINUOUS
 10
-0.788650
 20
1.039879
  0
VERTEX
  8
EBENE_2
 62
    39
  6
CONTINUOUS
 10
-0.743431
 20
1.065176
  0
VERTEX
  8
EBENE_2
 62
    39
  6
CONTINUOUS
 10
-0.712650
 20
1.073504
  0
VERTEX
  8
EBENE_2
 62
    39
  6
CONTINUOUS
 10
-0.710990
 20
1.035869
  0
VERTEX
  8
EBENE_2
 62
    39
  6
CONTINUOUS
 10
-0.709267
 20
0.998214
  0
VERTEX
  8
EBENE_2
 62
    39
  6
CONTINUOUS
 10
-0.707491
 20
0.960541
  0
VERTEX
  8
EBENE_2
 62
    39
  6
CONTINUOUS
 10
-0.705673
 20
0.922851
  0
VERTEX
  8
EBENE_2
 62
    39
  6
CONTINUOUS
 10
-0.703821
 20
0.885146
  0
VERTEX
  8
EBENE_2
 62
    39
  6
CONTINUOUS
 10
-0.701946
 20
0.847426
  0
VERTEX
  8
EBENE_2
 62
    39
  6
CONTINUOUS
 10
-0.700059
 20
0.809693
  0
VERTEX
  8
EBENE_2
 62
    39
  6
CONTINUOUS
 10
-0.698168
 20
0.771948
  0
VERTEX
  8
EBENE_2
 62
    39
  6
CONTINUOUS
 10
-0.696284
 20
0.734193
  0
VERTEX
  8
EBENE_2
 62
    39
  6
CONTINUOUS
 10
-0.694418
 20
0.696429
  0
VERTEX
  8
EBENE_2
 62
    39
  6
CONTINUOUS
 10
-0.692578
 20
0.658657
  0
VERTEX
  8
EBENE_2
 62
    39
  6
CONTINUOUS
 10
-0.690775
 20
0.620879
  0
VERTEX
  8
EBENE_2
 62
    39
  6
CONTINUOUS
 10
-0.689018
 20
0.583095
  0
VERTEX
  8
EBENE_2
 62
    39
  6
CONTINUOUS
 10
-0.687319
 20
0.545308
  0
VERTEX
  8
EBENE_2
 62
    39
  6
CONTINUOUS
 10
-0.685687
 20
0.507518
  0
VERTEX
  8
EBENE_2
 62
    39
  6
CONTINUOUS
 10
-0.684131
 20
0.469726
  0
VERTEX
  8
EBENE_2
 62
    39
  6
CONTINUOUS
 10
-0.682662
 20
0.431935
  0
VERTEX
  8
EBENE_2
 62
    39
  6
CONTINUOUS
 10
-0.681290
 20
0.394145
  0
VERTEX
  8
EBENE_2
 62
    39
  6
CONTINUOUS
 10
-0.680025
 20
0.356357
  0
VERTEX
  8
EBENE_2
 62
    39
  6
CONTINUOUS
 10
-0.678876
 20
0.318573
  0
VERTEX
  8
EBENE_2
 62
    39
  6
CONTINUOUS
 10
-0.677855
 20
0.280795
  0
VERTEX
  8
EBENE_2
 62
    39
  6
CONTINUOUS
 10
-0.676970
 20
0.243023
  0
VERTEX
  8
EBENE_2
 62
    39
  6
CONTINUOUS
 10
-0.676231
 20
0.205259
  0
VERTEX
  8
EBENE_2
 62
    39
  6
CONTINUOUS
 10
-0.675650
 20
0.167504
  0
VERTEX
  8
EBENE_2
 62
    39
  6
CONTINUOUS
 10
-0.675650
 20
0.167504
  0
VERTEX
  8
EBENE_2
 62
    39
  6
CONTINUOUS
 10
-0.696798
 20
0.148467
  0
VERTEX
  8
EBENE_2
 62
    39
  6
CONTINUOUS
 10
-0.714835
 20
0.127208
  0
VERTEX
  8
EBENE_2
 62
    39
  6
CONTINUOUS
 10
-0.730650
 20
0.103504
  0
VERTEX
  8
EBENE_2
 62
    39
  6
CONTINUOUS
 10
-0.739906
 20
0.060936
  0
VERTEX
  8
EBENE_2
 62
    39
  6
CONTINUOUS
 10
-0.739898
 20
0.022640
  0
VERTEX
  8
EBENE_2
 62
    39
  6
CONTINUOUS
 10
-0.728562
 20
-0.010472
  0
VERTEX
  8
EBENE_2
 62
    39
  6
CONTINUOUS
 10
-0.703834
 20
-0.037488
  0
VERTEX
  8
EBENE_2
 62
    39
  6
CONTINUOUS
 10
-0.663650
 20
-0.057496
  0
VERTEX
  8
EBENE_2
 62
    39
  6
CONTINUOUS
 10
-0.662004
 20
-0.094561
  0
VERTEX
  8
EBENE_2
 62
    39
  6
CONTINUOUS
 10
-0.660359
 20
-0.131625
  0
VERTEX
  8
EBENE_2
 62
    39
  6
CONTINUOUS
 10
-0.658714
 20
-0.168690
  0
VERTEX
  8
EBENE_2
 62
    39
  6
CONTINUOUS
 10
-0.657069
 20
-0.205754
  0
VERTEX
  8
EBENE_2
 62
    39
  6
CONTINUOUS
 10
-0.655424
 20
-0.242819
  0
VERTEX
  8
EBENE_2
 62
    39
  6
CONTINUOUS
 10
-0.653779
 20
-0.279883
  0
VERTEX
  8
EBENE_2
 62
    39
  6
CONTINUOUS
 10
-0.652133
 20
-0.316948
  0
VERTEX
  8
EBENE_2
 62
    39
  6
CONTINUOUS
 10
-0.650488
 20
-0.354012
  0
VERTEX
  8
EBENE_2
 62
    39
  6
CONTINUOUS
 10
-0.648843
 20
-0.391077
  0
VERTEX
  8
EBENE_2
 62
    39
  6
CONTINUOUS
 10
-0.647198
 20
-0.428141
  0
VERTEX
  8
EBENE_2
 62
    39
  6
CONTINUOUS
 10
-0.645553
 20
-0.465206
  0
VERTEX
  8
EBENE_2
 62
    39
  6
CONTINUOUS
 10
-0.643908
 20
-0.502270
  0
VERTEX
  8
EBENE_2
 62
    39
  6
CONTINUOUS
 10
-0.642263
 20
-0.539335
  0
VERTEX
  8
EBENE_2
 62
    39
  6
CONTINUOUS
 10
-0.640617
 20
-0.576399
  0
VERTEX
  8
EBENE_2
 62
    39
  6
CONTINUOUS
 10
-0.638972
 20
-0.613464
  0
VERTEX
  8
EBENE_2
 62
    39
  6
CONTINUOUS
 10
-0.637327
 20
-0.650528
  0
VERTEX
  8
EBENE_2
 62
    39
  6
CONTINUOUS
 10
-0.635682
 20
-0.687593
  0
VERTEX
  8
EBENE_2
 62
    39
  6
CONTINUOUS
 10
-0.634037
 20
-0.724657
  0
VERTEX
  8
EBENE_2
 62
    39
  6
CONTINUOUS
 10
-0.632392
 20
-0.761722
  0
VERTEX
  8
EBENE_2
 62
    39
  6
CONTINUOUS
 10
-0.630746
 20
-0.798786
  0
VERTEX
  8
EBENE_2
 62
    39
  6
CONTINUOUS
 10
-0.629101
 20
-0.835851
  0
VERTEX
  8
EBENE_2
 62
    39
  6
CONTINUOUS
 10
-0.627456
 20
-0.872915
  0
VERTEX
  8
EBENE_2
 62
    39
  6
CONTINUOUS
 10
-0.625811
 20
-0.909980
  0
VERTEX
  8
EBENE_2
 62
    39
  6
CONTINUOUS
 10
-0.624166
 20
-0.947044
  0
VERTEX
  8
EBENE_2
 62
    39
  6
CONTINUOUS
 10
-0.622521
 20
-0.984109
  0
VERTEX
  8
EBENE_2
 62
    39
  6
CONTINUOUS
 10
-0.620875
 20
-1.021173
  0
VERTEX
  8
EBENE_2
 62
    39
  6
CONTINUOUS
 10
-0.619230
 20
-1.058238
  0
VERTEX
  8
EBENE_2
 62
    39
  6
CONTINUOUS
 10
-0.617585
 20
-1.095303
  0
VERTEX
  8
EBENE_2
 62
    39
  6
CONTINUOUS
 10
-0.615940
 20
-1.132367
  0
VERTEX
  8
EBENE_2
 62
    39
  6
CONTINUOUS
 10
-0.614295
 20
-1.169432
  0
VERTEX
  8
EBENE_2
 62
    39
  6
CONTINUOUS
 10
-0.612650
 20
-1.206496
  0
VERTEX
  8
EBENE_2
 62
    39
  6
CONTINUOUS
 10
-0.612650
 20
-1.206496
  0
VERTEX
  8
EBENE_2
 62
    39
  6
CONTINUOUS
 10
-0.614650
 20
-1.203792
  0
VERTEX
  8
EBENE_2
 62
    39
  6
CONTINUOUS
 10
-0.616650
 20
-1.201533
  0
VERTEX
  8
EBENE_2
 62
    39
  6
CONTINUOUS
 10
-0.618650
 20
-1.199496
  0
VERTEX
  8
EBENE_2
 62
    39
  6
CONTINUOUS
 10
-0.623873
 20
-1.163861
  0
VERTEX
  8
EBENE_2
 62
    39
  6
CONTINUOUS
 10
-0.628737
 20
-1.128129
  0
VERTEX
  8
EBENE_2
 62
    39
  6
CONTINUOUS
 10
-0.633277
 20
-1.092310
  0
VERTEX
  8
EBENE_2
 62
    39
  6
CONTINUOUS
 10
-0.637533
 20
-1.056412
  0
VERTEX
  8
EBENE_2
 62
    39
  6
CONTINUOUS
 10
-0.641541
 20
-1.020447
  0
VERTEX
  8
EBENE_2
 62
    39
  6
CONTINUOUS
 10
-0.645339
 20
-0.984422
  0
VERTEX
  8
EBENE_2
 62
    39
  6
CONTINUOUS
 10
-0.648966
 20
-0.948348
  0
VERTEX
  8
EBENE_2
 62
    39
  6
CONTINUOUS
 10
-0.652458
 20
-0.912234
  0
VERTEX
  8
EBENE_2
 62
    39
  6
CONTINUOUS
 10
-0.655853
 20
-0.876090
  0
VERTEX
  8
EBENE_2
 62
    39
  6
CONTINUOUS
 10
-0.659189
 20
-0.839925
  0
VERTEX
  8
EBENE_2
 62
    39
  6
CONTINUOUS
 10
-0.662504
 20
-0.803748
  0
VERTEX
  8
EBENE_2
 62
    39
  6
CONTINUOUS
 10
-0.665835
 20
-0.767570
  0
VERTEX
  8
EBENE_2
 62
    39
  6
CONTINUOUS
 10
-0.669220
 20
-0.731400
  0
VERTEX
  8
EBENE_2
 62
    39
  6
CONTINUOUS
 10
-0.672697
 20
-0.695246
  0
VERTEX
  8
EBENE_2
 62
    39
  6
CONTINUOUS
 10
-0.676303
 20
-0.659120
  0
VERTEX
  8
EBENE_2
 62
    39
  6
CONTINUOUS
 10
-0.680076
 20
-0.623030
  0
VERTEX
  8
EBENE_2
 62
    39
  6
CONTINUOUS
 10
-0.684054
 20
-0.586985
  0
VERTEX
  8
EBENE_2
 62
    39
  6
CONTINUOUS
 10
-0.688275
 20
-0.550996
  0
VERTEX
  8
EBENE_2
 62
    39
  6
CONTINUOUS
 10
-0.692775
 20
-0.515072
  0
VERTEX
  8
EBENE_2
 62
    39
  6
CONTINUOUS
 10
-0.697593
 20
-0.479222
  0
VERTEX
  8
EBENE_2
 62
    39
  6
CONTINUOUS
 10
-0.702767
 20
-0.443456
  0
VERTEX
  8
EBENE_2
 62
    39
  6
CONTINUOUS
 10
-0.708334
 20
-0.407783
  0
VERTEX
  8
EBENE_2
 62
    39
  6
CONTINUOUS
 10
-0.714332
 20
-0.372213
  0
VERTEX
  8
EBENE_2
 62
    39
  6
CONTINUOUS
 10
-0.720798
 20
-0.336755
  0
VERTEX
  8
EBENE_2
 62
    39
  6
CONTINUOUS
 10
-0.727770
 20
-0.301420
  0
VERTEX
  8
EBENE_2
 62
    39
  6
CONTINUOUS
 10
-0.735286
 20
-0.266216
  0
VERTEX
  8
EBENE_2
 62
    39
  6
CONTINUOUS
 10
-0.743384
 20
-0.231152
  0
VERTEX
  8
EBENE_2
 62
    39
  6
CONTINUOUS
 10
-0.752101
 20
-0.196240
  0
VERTEX
  8
EBENE_2
 62
    39
  6
CONTINUOUS
 10
-0.761475
 20
-0.161487
  0
VERTEX
  8
EBENE_2
 62
    39
  6
CONTINUOUS
 10
-0.771543
 20
-0.126903
  0
VERTEX
  8
EBENE_2
 62
    39
  6
CONTINUOUS
 10
-0.782344
 20
-0.092499
  0
VERTEX
  8
EBENE_2
 62
    39
  6
CONTINUOUS
 10
-0.793914
 20
-0.058283
  0
VERTEX
  8
EBENE_2
 62
    39
  6
CONTINUOUS
 10
-0.806293
 20
-0.024266
  0
VERTEX
  8
EBENE_2
 62
    39
  6
CONTINUOUS
 10
-0.819516
 20
0.009544
  0
VERTEX
  8
EBENE_2
 62
    39
  6
CONTINUOUS
 10
-0.833622
 20
0.043137
  0
VERTEX
  8
EBENE_2
 62
    39
  6
CONTINUOUS
 10
-0.848650
 20
0.076504
  0
VERTEX
  8
EBENE_2
 62
    39
  6
CONTINUOUS
 10
-0.848650
 20
0.076504
  0
VERTEX
  8
EBENE_2
 62
    39
  6
CONTINUOUS
 10
-0.851687
 20
0.081467
  0
VERTEX
  8
EBENE_2
 62
    39
  6
CONTINUOUS
 10
-0.854946
 20
0.086208
  0
VERTEX
  8
EBENE_2
 62
    39
  6
CONTINUOUS
 10
-0.858650
 20
0.090504
  0
VERTEX
  8
EBENE_2
 62
    39
  6
CONTINUOUS
 10
-0.857650
 20
0.095208
  0
VERTEX
  8
EBENE_2
 62
    39
  6
CONTINUOUS
 10
-0.856650
 20
0.099467
  0
VERTEX
  8
EBENE_2
 62
    39
  6
CONTINUOUS
 10
-0.855650
 20
0.103504
  0
VERTEX
  8
EBENE_2
 62
    39
  6
CONTINUOUS
 10
-0.818687
 20
0.135171
  0
VERTEX
  8
EBENE_2
 62
    39
  6
CONTINUOUS
 10
-0.792613
 20
0.180171
  0
VERTEX
  8
EBENE_2
 62
    39
  6
CONTINUOUS
 10
-0.775650
 20
0.226504
  0
VERTEX
  8
EBENE_2
 62
    39
  6
CONTINUOUS
 10
-0.781478
 20
0.270723
  0
VERTEX
  8
EBENE_2
 62
    39
  6
CONTINUOUS
 10
-0.797525
 20
0.302754
  0
VERTEX
  8
EBENE_2
 62
    39
  6
CONTINUOUS
 10
-0.821634
 20
0.331410
  0
VERTEX
  8
EBENE_2
 62
    39
  6
CONTINUOUS
 10
-0.851650
 20
0.365504
  0
VERTEX
  8
EBENE_2
 62
    39
  6
CONTINUOUS
 10
-0.850983
 20
0.413504
  0
VERTEX
  8
EBENE_2
 62
    39
  6
CONTINUOUS
 10
-0.832983
 20
0.464171
  0
VERTEX
  8
EBENE_2
 62
    39
  6
CONTINUOUS
 10
-0.821650
 20
0.515504
  0
VERTEX
  8
EBENE_2
 62
    39
  6
CONTINUOUS
 10
-0.844778
 20
0.550032
  0
VERTEX
  8
EBENE_2
 62
    39
  6
CONTINUOUS
 10
-0.873954
 20
0.583408
  0
VERTEX
  8
EBENE_2
 62
    39
  6
CONTINUOUS
 10
-0.908266
 20
0.611120
  0
VERTEX
  8
EBENE_2
 62
    39
  6
CONTINUOUS
 10
-0.946802
 20
0.628656
  0
VERTEX
  8
EBENE_2
 62
    39
  6
CONTINUOUS
 10
-0.988650
 20
0.631504
  0
VERTEX
  8
EBENE_2
 62
    39
  6
CONTINUOUS
 10
-1.015798
 20
0.610245
  0
VERTEX
  8
EBENE_2
 62
    39
  6
CONTINUOUS
 10
-1.045835
 20
0.586763
  0
VERTEX
  8
EBENE_2
 62
    39
  6
CONTINUOUS
 10
-1.097650
 20
0.549504
  0
VERTEX
  8
EBENE_2
 62
    39
  6
CONTINUOUS
 10
-1.122687
 20
0.560208
  0
VERTEX
  8
EBENE_2
 62
    39
  6
CONTINUOUS
 10
-1.147946
 20
0.570467
  0
VERTEX
  8
EBENE_2
 62
    39
  6
CONTINUOUS
 10
-1.173650
 20
0.580504
  0
VERTEX
  8
EBENE_2
 62
    39
  6
CONTINUOUS
 10
-1.212073
 20
0.576102
  0
VERTEX
  8
EBENE_2
 62
    39
  6
CONTINUOUS
 10
-1.246478
 20
0.563660
  0
VERTEX
  8
EBENE_2
 62
    39
  6
CONTINUOUS
 10
-1.275937
 20
0.544328
  0
VERTEX
  8
EBENE_2
 62
    39
  6
CONTINUOUS
 10
-1.299525
 20
0.519254
  0
VERTEX
  8
EBENE_2
 62
    39
  6
CONTINUOUS
 10
-1.316316
 20
0.489586
  0
VERTEX
  8
EBENE_2
 62
    39
  6
CONTINUOUS
 10
-1.325384
 20
0.456473
  0
VERTEX
  8
EBENE_2
 62
    39
  6
CONTINUOUS
 10
-1.325804
 20
0.421063
  0
VERTEX
  8
EBENE_2
 62
    39
  6
CONTINUOUS
 10
-1.316650
 20
0.384504
  0
VERTEX
  8
EBENE_2
 62
    39
  6
CONTINUOUS
 10
-1.300279
 20
0.338208
  0
VERTEX
  8
EBENE_2
 62
    39
  6
CONTINUOUS
 10
-1.299687
 20
0.289467
  0
VERTEX
  8
EBENE_2
 62
    39
  6
CONTINUOUS
 10
-1.294650
 20
0.238504
  0
VERTEX
  8
EBENE_2
 62
    39
  6
CONTINUOUS
 10
-1.285353
 20
0.221208
  0
VERTEX
  8
EBENE_2
 62
    39
  6
CONTINUOUS
 10
-1.276946
 20
0.204134
  0
VERTEX
  8
EBENE_2
 62
    39
  6
CONTINUOUS
 10
-1.271650
 20
0.185504
  0
VERTEX
  8
EBENE_2
 62
    39
  6
CONTINUOUS
 10
-1.281909
 20
0.144541
  0
VERTEX
  8
EBENE_2
 62
    39
  6
CONTINUOUS
 10
-1.281057
 20
0.110467
  0
VERTEX
  8
EBENE_2
 62
    39
  6
CONTINUOUS
 10
-1.272650
 20
0.069504
  0
VERTEX
  8
EBENE_2
 62
    39
  6
CONTINUOUS
 10
-1.259168
 20
0.055504
  0
VERTEX
  8
EBENE_2
 62
    39
  6
CONTINUOUS
 10
-1.250131
 20
0.046837
  0
VERTEX
  8
EBENE_2
 62
    39
  6
CONTINUOUS
 10
-1.244650
 20
0.039504
  0
VERTEX
  8
EBENE_2
 62
    39
  6
CONTINUOUS
 10
-1.223131
 20
0.029726
  0
VERTEX
  8
EBENE_2
 62
    39
  6
CONTINUOUS
 10
-1.197835
 20
0.015948
  0
VERTEX
  8
EBENE_2
 62
    39
  6
CONTINUOUS
 10
-1.185650
 20
-0.002496
  0
VERTEX
  8
EBENE_2
 62
    39
  6
CONTINUOUS
 10
-1.205880
 20
-0.039771
  0
VERTEX
  8
EBENE_2
 62
    39
  6
CONTINUOUS
 10
-1.225618
 20
-0.077199
  0
VERTEX
  8
EBENE_2
 62
    39
  6
CONTINUOUS
 10
-1.245310
 20
-0.114557
  0
VERTEX
  8
EBENE_2
 62
    39
  6
CONTINUOUS
 10
-1.265400
 20
-0.151621
  0
VERTEX
  8
EBENE_2
 62
    39
  6
CONTINUOUS
 10
-1.286333
 20
-0.188170
  0
VERTEX
  8
EBENE_2
 62
    39
  6
CONTINUOUS
 10
-1.308556
 20
-0.223980
  0
VERTEX
  8
EBENE_2
 62
    39
  6
CONTINUOUS
 10
-1.332513
 20
-0.258830
  0
VERTEX
  8
EBENE_2
 62
    39
  6
CONTINUOUS
 10
-1.358650
 20
-0.292496
  0
VERTEX
  8
EBENE_2
 62
    39
  6
CONTINUOUS
 10
-1.401025
 20
-0.320074
  0
VERTEX
  8
EBENE_2
 62
    39
  6
CONTINUOUS
 10
-1.436650
 20
-0.336121
  0
VERTEX
  8
EBENE_2
 62
    39
  6
CONTINUOUS
 10
-1.474525
 20
-0.344105
  0
VERTEX
  8
EBENE_2
 62
    39
  6
CONTINUOUS
 10
-1.523650
 20
-0.347496
  0
VERTEX
  8
EBENE_2
 62
    39
  6
CONTINUOUS
 10
-1.507681
 20
-0.311605
  0
VERTEX
  8
EBENE_2
 62
    39
  6
CONTINUOUS
 10
-1.493400
 20
-0.271121
  0
VERTEX
  8
EBENE_2
 62
    39
  6
CONTINUOUS
 10
-1.488493
 20
-0.230074
  0
VERTEX
  8
EBENE_2
 62
    39
  6
CONTINUOUS
 10
-1.500650
 20
-0.192496
  0
VERTEX
  8
EBENE_2
 62
    39
  6
CONTINUOUS
 10
-1.548613
 20
-0.170200
  0
VERTEX
  8
EBENE_2
 62
    39
  6
CONTINUOUS
 10
-1.591020
 20
-0.140126
  0
VERTEX
  8
EBENE_2
 62
    39
  6
CONTINUOUS
 10
-1.637650
 20
-0.112496
  0
VERTEX
  8
EBENE_2
 62
    39
  6
CONTINUOUS
 10
-1.648650
 20
-0.109533
  0
VERTEX
  8
EBENE_2
 62
    39
  6
CONTINUOUS
 10
-1.659650
 20
-0.106792
  0
VERTEX
  8
EBENE_2
 62
    39
  6
CONTINUOUS
 10
-1.670650
 20
-0.104496
  0
VERTEX
  8
EBENE_2
 62
    39
  6
CONTINUOUS
 10
-1.681790
 20
-0.062527
  0
VERTEX
  8
EBENE_2
 62
    39
  6
CONTINUOUS
 10
-1.702025
 20
-0.043996
  0
VERTEX
  8
EBENE_2
 62
    39
  6
CONTINUOUS
 10
-1.734071
 20
-0.041215
  0
VERTEX
  8
EBENE_2
 62
    39
  6
CONTINUOUS
 10
-1.780650
 20
-0.046496
  0
VERTEX
  8
EBENE_2
 62
    39
  6
CONTINUOUS
 10
-1.786538
 20
-0.065607
  0
VERTEX
  8
EBENE_2
 62
    39
  6
CONTINUOUS
 10
-1.790427
 20
-0.082718
  0
VERTEX
  8
EBENE_2
 62
    39
  6
CONTINUOUS
 10
-1.795650
 20
-0.112496
  0
VERTEX
  8
EBENE_2
 62
    39
  6
CONTINUOUS
 10
-1.836687
 20
-0.135570
  0
VERTEX
  8
EBENE_2
 62
    39
  6
CONTINUOUS
 10
-1.869279
 20
-0.162422
  0
VERTEX
  8
EBENE_2
 62
    39
  6
CONTINUOUS
 10
-1.895650
 20
-0.201496
  0
VERTEX
  8
EBENE_2
 62
    39
  6
CONTINUOUS
 10
-1.936946
 20
-0.210718
  0
VERTEX
  8
EBENE_2
 62
    39
  6
CONTINUOUS
 10
-1.948687
 20
-0.231274
  0
VERTEX
  8
EBENE_2
 62
    39
  6
CONTINUOUS
 10
-1.948650
 20
-0.276496
  0
VERTEX
  8
EBENE_2
 62
    39
  6
CONTINUOUS
 10
-1.931165
 20
-0.318902
  0
VERTEX
  8
EBENE_2
 62
    39
  6
CONTINUOUS
 10
-1.905525
 20
-0.350246
  0
VERTEX
  8
EBENE_2
 62
    39
  6
CONTINUOUS
 10
-1.871446
 20
-0.372965
  0
VERTEX
  8
EBENE_2
 62
    39
  6
CONTINUOUS
 10
-1.828650
 20
-0.389496
  0
VERTEX
  8
EBENE_2
 62
    39
  6
CONTINUOUS
 10
-1.812478
 20
-0.436168
  0
VERTEX
  8
EBENE_2
 62
    39
  6
CONTINUOUS
 10
-1.785525
 20
-0.471121
  0
VERTEX
  8
EBENE_2
 62
    39
  6
CONTINUOUS
 10
-1.748634
 20
-0.496512
  0
VERTEX
  8
EBENE_2
 62
    39
  6
CONTINUOUS
 10
-1.702650
 20
-0.514496
  0
VERTEX
  8
EBENE_2
 62
    39
  6
CONTINUOUS
 10
-1.699576
 20
-0.566792
  0
VERTEX
  8
EBENE_2
 62
    39
  6
CONTINUOUS
 10
-1.696724
 20
-0.596866
  0
VERTEX
  8
EBENE_2
 62
    39
  6
CONTINUOUS
 10
-1.691650
 20
-0.630496
  0
VERTEX
  8
EBENE_2
 62
    39
  6
CONTINUOUS
 10
-1.691538
 20
-0.703866
  0
VERTEX
  8
EBENE_2
 62
    39
  6
CONTINUOUS
 10
-1.690761
 20
-0.736792
  0
VERTEX
  8
EBENE_2
 62
    39
  6
CONTINUOUS
 10
-1.688650
 20
-0.757496
  0
VERTEX
  8
EBENE_2
 62
    39
  6
CONTINUOUS
 10
-1.659562
 20
-0.764107
  0
VERTEX
  8
EBENE_2
 62
    39
  6
CONTINUOUS
 10
-1.619821
 20
-0.762574
  0
VERTEX
  8
EBENE_2
 62
    39
  6
CONTINUOUS
 10
-1.573214
 20
-0.754596
  0
VERTEX
  8
EBENE_2
 62
    39
  6
CONTINUOUS
 10
-1.523525
 20
-0.741871
  0
VERTEX
  8
EBENE_2
 62
    39
  6
CONTINUOUS
 10
-1.474538
 20
-0.726100
  0
VERTEX
  8
EBENE_2
 62
    39
  6
CONTINUOUS
 10
-1.430040
 20
-0.708980
  0
VERTEX
  8
EBENE_2
 62
    39
  6
CONTINUOUS
 10
-1.393816
 20
-0.692213
  0
VERTEX
  8
EBENE_2
 62
    39
  6
CONTINUOUS
 10
-1.369650
 20
-0.677496
  0
VERTEX
  8
EBENE_2
 62
    39
  6
CONTINUOUS
 10
-1.370696
 20
-0.716920
  0
VERTEX
  8
EBENE_2
 62
    39
  6
CONTINUOUS
 10
-1.373687
 20
-0.756635
  0
VERTEX
  8
EBENE_2
 62
    39
  6
CONTINUOUS
 10
-1.378400
 20
-0.796559
  0
VERTEX
  8
EBENE_2
 62
    39
  6
CONTINUOUS
 10
-1.384613
 20
-0.836607
  0
VERTEX
  8
EBENE_2
 62
    39
  6
CONTINUOUS
 10
-1.392103
 20
-0.876697
  0
VERTEX
  8
EBENE_2
 62
    39
  6
CONTINUOUS
 10
-1.400650
 20
-0.916746
  0
VERTEX
  8
EBENE_2
 62
    39
  6
CONTINUOUS
 10
-1.410029
 20
-0.956670
  0
VERTEX
  8
EBENE_2
 62
    39
  6
CONTINUOUS
 10
-1.420020
 20
-0.996385
  0
VERTEX
  8
EBENE_2
 62
    39
  6
CONTINUOUS
 10
-1.430400
 20
-1.035809
  0
VERTEX
  8
EBENE_2
 62
    39
  6
CONTINUOUS
 10
-1.440946
 20
-1.074857
  0
VERTEX
  8
EBENE_2
 62
    39
  6
CONTINUOUS
 10
-1.451437
 20
-1.113447
  0
VERTEX
  8
EBENE_2
 62
    39
  6
CONTINUOUS
 10
-1.461650
 20
-1.151496
  0
VERTEX
  8
EBENE_2
 62
    39
  6
CONTINUOUS
 10
-1.477362
 20
-1.195904
  0
VERTEX
  8
EBENE_2
 62
    39
  6
CONTINUOUS
 10
-1.493266
 20
-1.240360
  0
VERTEX
  8
EBENE_2
 62
    39
  6
CONTINUOUS
 10
-1.509314
 20
-1.284912
  0
VERTEX
  8
EBENE_2
 62
    39
  6
CONTINUOUS
 10
-1.525458
 20
-1.329608
  0
VERTEX
  8
EBENE_2
 62
    39
  6
CONTINUOUS
 10
-1.541650
 20
-1.374496
  0
VERTEX
  8
EBENE_2
 62
    39
  6
CONTINUOUS
 10
-1.558587
 20
-1.410270
  0
VERTEX
  8
EBENE_2
 62
    39
  6
CONTINUOUS
 10
-1.574775
 20
-1.446371
  0
VERTEX
  8
EBENE_2
 62
    39
  6
CONTINUOUS
 10
-1.590025
 20
-1.482848
  0
VERTEX
  8
EBENE_2
 62
    39
  6
CONTINUOUS
 10
-1.604150
 20
-1.519746
  0
VERTEX
  8
EBENE_2
 62
    39
  6
CONTINUOUS
 10
-1.616962
 20
-1.557113
  0
VERTEX
  8
EBENE_2
 62
    39
  6
CONTINUOUS
 10
-1.628275
 20
-1.594996
  0
VERTEX
  8
EBENE_2
 62
    39
  6
CONTINUOUS
 10
-1.637900
 20
-1.633441
  0
VERTEX
  8
EBENE_2
 62
    39
  6
CONTINUOUS
 10
-1.645650
 20
-1.672496
  0
VERTEX
  8
EBENE_2
 62
    39
  6
CONTINUOUS
 10
-1.647650
 20
-1.673496
  0
VERTEX
  8
EBENE_2
 62
    39
  6
CONTINUOUS
 10
-1.649650
 20
-1.674496
  0
VERTEX
  8
EBENE_2
 62
    39
  6
CONTINUOUS
 10
-1.651650
 20
-1.675496
  0
VERTEX
  8
EBENE_2
 62
    39
  6
CONTINUOUS
 10
-1.677963
 20
-1.650440
  0
VERTEX
  8
EBENE_2
 62
    39
  6
CONTINUOUS
 10
-1.703519
 20
-1.624508
  0
VERTEX
  8
EBENE_2
 62
    39
  6
CONTINUOUS
 10
-1.728337
 20
-1.597754
  0
VERTEX
  8
EBENE_2
 62
    39
  6
CONTINUOUS
 10
-1.752442
 20
-1.570232
  0
VERTEX
  8
EBENE_2
 62
    39
  6
CONTINUOUS
 10
-1.775853
 20
-1.541996
  0
VERTEX
  8
EBENE_2
 62
    39
  6
CONTINUOUS
 10
-1.798593
 20
-1.513100
  0
VERTEX
  8
EBENE_2
 62
    39
  6
CONTINUOUS
 10
-1.820683
 20
-1.483598
  0
VERTEX
  8
EBENE_2
 62
    39
  6
CONTINUOUS
 10
-1.842146
 20
-1.453544
  0
VERTEX
  8
EBENE_2
 62
    39
  6
CONTINUOUS
 10
-1.863002
 20
-1.422992
  0
VERTEX
  8
EBENE_2
 62
    39
  6
CONTINUOUS
 10
-1.883275
 20
-1.391996
  0
VERTEX
  8
EBENE_2
 62
    39
  6
CONTINUOUS
 10
-1.902984
 20
-1.360610
  0
VERTEX
  8
EBENE_2
 62
    39
  6
CONTINUOUS
 10
-1.922154
 20
-1.328888
  0
VERTEX
  8
EBENE_2
 62
    39
  6
CONTINUOUS
 10
-1.940804
 20
-1.296884
  0
VERTEX
  8
EBENE_2
 62
    39
  6
CONTINUOUS
 10
-1.958957
 20
-1.264652
  0
VERTEX
  8
EBENE_2
 62
    39
  6
CONTINUOUS
 10
-1.976634
 20
-1.232246
  0
VERTEX
  8
EBENE_2
 62
    39
  6
CONTINUOUS
 10
-1.993858
 20
-1.199720
  0
VERTEX
  8
EBENE_2
 62
    39
  6
CONTINUOUS
 10
-2.010649
 20
-1.167128
  0
VERTEX
  8
EBENE_2
 62
    39
  6
CONTINUOUS
 10
-2.027031
 20
-1.134524
  0
VERTEX
  8
EBENE_2
 62
    39
  6
CONTINUOUS
 10
-2.043023
 20
-1.101962
  0
VERTEX
  8
EBENE_2
 62
    39
  6
CONTINUOUS
 10
-2.058650
 20
-1.069496
  0
VERTEX
  8
EBENE_2
 62
    39
  6
CONTINUOUS
 10
-2.058650
 20
-1.069496
  0
VERTEX
  8
EBENE_2
 62
    39
  6
CONTINUOUS
 10
-2.074362
 20
-1.026304
  0
VERTEX
  8
EBENE_2
 62
    39
  6
CONTINUOUS
 10
-2.090266
 20
-0.983160
  0
VERTEX
  8
EBENE_2
 62
    39
  6
CONTINUOUS
 10
-2.106314
 20
-0.940112
  0
VERTEX
  8
EBENE_2
 62
    39
  6
CONTINUOUS
 10
-2.122458
 20
-0.897208
  0
VERTEX
  8
EBENE_2
 62
    39
  6
CONTINUOUS
 10
-2.138650
 20
-0.854496
  0
VERTEX
  8
EBENE_2
 62
    39
  6
CONTINUOUS
 10
-2.150050
 20
-0.810208
  0
VERTEX
  8
EBENE_2
 62
    39
  6
CONTINUOUS
 10
-2.161450
 20
-0.766112
  0
VERTEX
  8
EBENE_2
 62
    39
  6
CONTINUOUS
 10
-2.172850
 20
-0.722160
  0
VERTEX
  8
EBENE_2
 62
    39
  6
CONTINUOUS
 10
-2.184250
 20
-0.678304
  0
VERTEX
  8
EBENE_2
 62
    39
  6
CONTINUOUS
 10
-2.195650
 20
-0.634496
  0
VERTEX
  8
EBENE_2
 62
    39
  6
CONTINUOUS
 10
-2.199686
 20
-0.594997
  0
VERTEX
  8
EBENE_2
 62
    39
  6
CONTINUOUS
 10
-2.203591
 20
-0.555579
  0
VERTEX
  8
EBENE_2
 62
    39
  6
CONTINUOUS
 10
-2.207334
 20
-0.516225
  0
VERTEX
  8
EBENE_2
 62
    39
  6
CONTINUOUS
 10
-2.210883
 20
-0.476915
  0
VERTEX
  8
EBENE_2
 62
    39
  6
CONTINUOUS
 10
-2.214207
 20
-0.437633
  0
VERTEX
  8
EBENE_2
 62
    39
  6
CONTINUOUS
 10
-2.217274
 20
-0.398359
  0
VERTEX
  8
EBENE_2
 62
    39
  6
CONTINUOUS
 10
-2.220052
 20
-0.359077
  0
VERTEX
  8
EBENE_2
 62
    39
  6
CONTINUOUS
 10
-2.222511
 20
-0.319767
  0
VERTEX
  8
EBENE_2
 62
    39
  6
CONTINUOUS
 10
-2.224617
 20
-0.280413
  0
VERTEX
  8
EBENE_2
 62
    39
  6
CONTINUOUS
 10
-2.226341
 20
-0.240995
  0
VERTEX
  8
EBENE_2
 62
    39
  6
CONTINUOUS
 10
-2.227650
 20
-0.201496
  0
SEQEND
  8
0
  0
POLYLINE
  8
EBENE_2
 62
    39
  6
CONTINUOUS
 66
     1
 40
0.003000
 41
0.003000
  0
VERTEX
  8
EBENE_2
 62
    39
  6
CONTINUOUS
 10
-0.633650
 20
1.715504
  0
VERTEX
  8
EBENE_2
 62
    39
  6
CONTINUOUS
 10
-0.596207
 20
1.722342
  0
VERTEX
  8
EBENE_2
 62
    39
  6
CONTINUOUS
 10
-0.559014
 20
1.728643
  0
VERTEX
  8
EBENE_2
 62
    39
  6
CONTINUOUS
 10
-0.522039
 20
1.734399
  0
VERTEX
  8
EBENE_2
 62
    39
  6
CONTINUOUS
 10
-0.485249
 20
1.739605
  0
VERTEX
  8
EBENE_2
 62
    39
  6
CONTINUOUS
 10
-0.448612
 20
1.744254
  0
VERTEX
  8
EBENE_2
 62
    39
  6
CONTINUOUS
 10
-0.412097
 20
1.748342
  0
VERTEX
  8
EBENE_2
 62
    39
  6
CONTINUOUS
 10
-0.375669
 20
1.751860
  0
VERTEX
  8
EBENE_2
 62
    39
  6
CONTINUOUS
 10
-0.339298
 20
1.754804
  0
VERTEX
  8
EBENE_2
 62
    39
  6
CONTINUOUS
 10
-0.302950
 20
1.757167
  0
VERTEX
  8
EBENE_2
 62
    39
  6
CONTINUOUS
 10
-0.266593
 20
1.758943
  0
VERTEX
  8
EBENE_2
 62
    39
  6
CONTINUOUS
 10
-0.230195
 20
1.760126
  0
VERTEX
  8
EBENE_2
 62
    39
  6
CONTINUOUS
 10
-0.193724
 20
1.760710
  0
VERTEX
  8
EBENE_2
 62
    39
  6
CONTINUOUS
 10
-0.157147
 20
1.760688
  0
VERTEX
  8
EBENE_2
 62
    39
  6
CONTINUOUS
 10
-0.120432
 20
1.760055
  0
VERTEX
  8
EBENE_2
 62
    39
  6
CONTINUOUS
 10
-0.083546
 20
1.758805
  0
VERTEX
  8
EBENE_2
 62
    39
  6
CONTINUOUS
 10
-0.046457
 20
1.756930
  0
VERTEX
  8
EBENE_2
 62
    39
  6
CONTINUOUS
 10
-0.009133
 20
1.754426
  0
VERTEX
  8
EBENE_2
 62
    39
  6
CONTINUOUS
 10
0.028459
 20
1.751286
  0
VERTEX
  8
EBENE_2
 62
    39
  6
CONTINUOUS
 10
0.066350
 20
1.747504
  0
VERTEX
  8
EBENE_2
 62
    39
  6
CONTINUOUS
 10
0.066350
 20
1.747504
  0
VERTEX
  8
EBENE_2
 62
    39
  6
CONTINUOUS
 10
0.118350
 20
1.738504
  0
VERTEX
  8
EBENE_2
 62
    39
  6
CONTINUOUS
 10
0.170350
 20
1.729504
  0
VERTEX
  8
EBENE_2
 62
    39
  6
CONTINUOUS
 10
0.222350
 20
1.720504
  0
VERTEX
  8
EBENE_2
 62
    39
  6
CONTINUOUS
 10
0.259380
 20
1.711948
  0
VERTEX
  8
EBENE_2
 62
    39
  6
CONTINUOUS
 10
0.296083
 20
1.702697
  0
VERTEX
  8
EBENE_2
 62
    39
  6
CONTINUOUS
 10
0.332478
 20
1.692776
  0
VERTEX
  8
EBENE_2
 62
    39
  6
CONTINUOUS
 10
0.368586
 20
1.682209
  0
VERTEX
  8
EBENE_2
 62
    39
  6
CONTINUOUS
 10
0.404424
 20
1.671022
  0
VERTEX
  8
EBENE_2
 62
    39
  6
CONTINUOUS
 10
0.440014
 20
1.659240
  0
VERTEX
  8
EBENE_2
 62
    39
  6
CONTINUOUS
 10
0.475375
 20
1.646887
  0
VERTEX
  8
EBENE_2
 62
    39
  6
CONTINUOUS
 10
0.510526
 20
1.633988
  0
VERTEX
  8
EBENE_2
 62
    39
  6
CONTINUOUS
 10
0.545486
 20
1.620568
  0
VERTEX
  8
EBENE_2
 62
    39
  6
CONTINUOUS
 10
0.580276
 20
1.606652
  0
VERTEX
  8
EBENE_2
 62
    39
  6
CONTINUOUS
 10
0.614915
 20
1.592265
  0
VERTEX
  8
EBENE_2
 62
    39
  6
CONTINUOUS
 10
0.649422
 20
1.577432
  0
VERTEX
  8
EBENE_2
 62
    39
  6
CONTINUOUS
 10
0.683818
 20
1.562177
  0
VERTEX
  8
EBENE_2
 62
    39
  6
CONTINUOUS
 10
0.718120
 20
1.546526
  0
VERTEX
  8
EBENE_2
 62
    39
  6
CONTINUOUS
 10
0.752350
 20
1.530504
  0
VERTEX
  8
EBENE_2
 62
    39
  6
CONTINUOUS
 10
0.801313
 20
1.502504
  0
VERTEX
  8
EBENE_2
 62
    39
  6
CONTINUOUS
 10
0.850054
 20
1.474504
  0
VERTEX
  8
EBENE_2
 62
    39
  6
CONTINUOUS
 10
0.898350
 20
1.446504
  0
VERTEX
  8
EBENE_2
 62
    39
  6
CONTINUOUS
 10
0.945330
 20
1.412924
  0
VERTEX
  8
EBENE_2
 62
    39
  6
CONTINUOUS
 10
0.981044
 20
1.387250
  0
VERTEX
  8
EBENE_2
 62
    39
  6
CONTINUOUS
 10
1.009657
 20
1.366370
  0
VERTEX
  8
EBENE_2
 62
    39
  6
CONTINUOUS
 10
1.035330
 20
1.347169
  0
VERTEX
  8
EBENE_2
 62
    39
  6
CONTINUOUS
 10
1.062228
 20
1.326533
  0
VERTEX
  8
EBENE_2
 62
    39
  6
CONTINUOUS
 10
1.094514
 20
1.301349
  0
VERTEX
  8
EBENE_2
 62
    39
  6
CONTINUOUS
 10
1.136350
 20
1.268504
  0
VERTEX
  8
EBENE_2
 62
    39
  6
CONTINUOUS
 10
1.136350
 20
1.266504
  0
VERTEX
  8
EBENE_2
 62
    39
  6
CONTINUOUS
 10
1.136350
 20
1.264504
  0
VERTEX
  8
EBENE_2
 62
    39
  6
CONTINUOUS
 10
1.136350
 20
1.262504
  0
VERTEX
  8
EBENE_2
 62
    39
  6
CONTINUOUS
 10
1.162172
 20
1.240239
  0
VERTEX
  8
EBENE_2
 62
    39
  6
CONTINUOUS
 10
1.187535
 20
1.217574
  0
VERTEX
  8
EBENE_2
 62
    39
  6
CONTINUOUS
 10
1.212437
 20
1.194518
  0
VERTEX
  8
EBENE_2
 62
    39
  6
CONTINUOUS
 10
1.236877
 20
1.171077
  0
VERTEX
  8
EBENE_2
 62
    39
  6
CONTINUOUS
 10
1.260855
 20
1.147260
  0
VERTEX
  8
EBENE_2
 62
    39
  6
CONTINUOUS
 10
1.284368
 20
1.123073
  0
VERTEX
  8
EBENE_2
 62
    39
  6
CONTINUOUS
 10
1.307415
 20
1.098525
  0
VERTEX
  8
EBENE_2
 62
    39
  6
CONTINUOUS
 10
1.329994
 20
1.073622
  0
VERTEX
  8
EBENE_2
 62
    39
  6
CONTINUOUS
 10
1.352105
 20
1.048372
  0
VERTEX
  8
EBENE_2
 62
    39
  6
CONTINUOUS
 10
1.373747
 20
1.022783
  0
VERTEX
  8
EBENE_2
 62
    39
  6
CONTINUOUS
 10
1.394916
 20
0.996862
  0
VERTEX
  8
EBENE_2
 62
    39
  6
CONTINUOUS
 10
1.415613
 20
0.970616
  0
VERTEX
  8
EBENE_2
 62
    39
  6
CONTINUOUS
 10
1.435836
 20
0.944054
  0
VERTEX
  8
EBENE_2
 62
    39
  6
CONTINUOUS
 10
1.455584
 20
0.917182
  0
VERTEX
  8
EBENE_2
 62
    39
  6
CONTINUOUS
 10
1.474854
 20
0.890008
  0
VERTEX
  8
EBENE_2
 62
    39
  6
CONTINUOUS
 10
1.493647
 20
0.862539
  0
VERTEX
  8
EBENE_2
 62
    39
  6
CONTINUOUS
 10
1.511959
 20
0.834783
  0
VERTEX
  8
EBENE_2
 62
    39
  6
CONTINUOUS
 10
1.529791
 20
0.806748
  0
VERTEX
  8
EBENE_2
 62
    39
  6
CONTINUOUS
 10
1.547140
 20
0.778440
  0
VERTEX
  8
EBENE_2
 62
    39
  6
CONTINUOUS
 10
1.564006
 20
0.749868
  0
VERTEX
  8
EBENE_2
 62
    39
  6
CONTINUOUS
 10
1.580386
 20
0.721038
  0
VERTEX
  8
EBENE_2
 62
    39
  6
CONTINUOUS
 10
1.596280
 20
0.691959
  0
VERTEX
  8
EBENE_2
 62
    39
  6
CONTINUOUS
 10
1.611686
 20
0.662637
  0
VERTEX
  8
EBENE_2
 62
    39
  6
CONTINUOUS
 10
1.626603
 20
0.633081
  0
VERTEX
  8
EBENE_2
 62
    39
  6
CONTINUOUS
 10
1.641029
 20
0.603297
  0
VERTEX
  8
EBENE_2
 62
    39
  6
CONTINUOUS
 10
1.654963
 20
0.573293
  0
VERTEX
  8
EBENE_2
 62
    39
  6
CONTINUOUS
 10
1.668404
 20
0.543077
  0
VERTEX
  8
EBENE_2
 62
    39
  6
CONTINUOUS
 10
1.681350
 20
0.512657
  0
VERTEX
  8
EBENE_2
 62
    39
  6
CONTINUOUS
 10
1.693800
 20
0.482038
  0
VERTEX
  8
EBENE_2
 62
    39
  6
CONTINUOUS
 10
1.705753
 20
0.451230
  0
VERTEX
  8
EBENE_2
 62
    39
  6
CONTINUOUS
 10
1.717206
 20
0.420239
  0
VERTEX
  8
EBENE_2
 62
    39
  6
CONTINUOUS
 10
1.728160
 20
0.389073
  0
VERTEX
  8
EBENE_2
 62
    39
  6
CONTINUOUS
 10
1.738611
 20
0.357740
  0
VERTEX
  8
EBENE_2
 62
    39
  6
CONTINUOUS
 10
1.748560
 20
0.326246
  0
VERTEX
  8
EBENE_2
 62
    39
  6
CONTINUOUS
 10
1.758004
 20
0.294600
  0
VERTEX
  8
EBENE_2
 62
    39
  6
CONTINUOUS
 10
1.766943
 20
0.262809
  0
VERTEX
  8
EBENE_2
 62
    39
  6
CONTINUOUS
 10
1.775374
 20
0.230880
  0
VERTEX
  8
EBENE_2
 62
    39
  6
CONTINUOUS
 10
1.783297
 20
0.198820
  0
VERTEX
  8
EBENE_2
 62
    39
  6
CONTINUOUS
 10
1.790710
 20
0.166639
  0
VERTEX
  8
EBENE_2
 62
    39
  6
CONTINUOUS
 10
1.797612
 20
0.134341
  0
VERTEX
  8
EBENE_2
 62
    39
  6
CONTINUOUS
 10
1.804002
 20
0.101936
  0
VERTEX
  8
EBENE_2
 62
    39
  6
CONTINUOUS
 10
1.809877
 20
0.069431
  0
VERTEX
  8
EBENE_2
 62
    39
  6
CONTINUOUS
 10
1.815237
 20
0.036833
  0
VERTEX
  8
EBENE_2
 62
    39
  6
CONTINUOUS
 10
1.820080
 20
0.004150
  0
VERTEX
  8
EBENE_2
 62
    39
  6
CONTINUOUS
 10
1.824405
 20
-0.028612
  0
VERTEX
  8
EBENE_2
 62
    39
  6
CONTINUOUS
 10
1.828210
 20
-0.061443
  0
VERTEX
  8
EBENE_2
 62
    39
  6
CONTINUOUS
 10
1.831495
 20
-0.094338
  0
VERTEX
  8
EBENE_2
 62
    39
  6
CONTINUOUS
 10
1.834257
 20
-0.127288
  0
VERTEX
  8
EBENE_2
 62
    39
  6
CONTINUOUS
 10
1.836496
 20
-0.160287
  0
VERTEX
  8
EBENE_2
 62
    39
  6
CONTINUOUS
 10
1.838209
 20
-0.193325
  0
VERTEX
  8
EBENE_2
 62
    39
  6
CONTINUOUS
 10
1.839397
 20
-0.226397
  0
VERTEX
  8
EBENE_2
 62
    39
  6
CONTINUOUS
 10
1.840056
 20
-0.259495
  0
VERTEX
  8
EBENE_2
 62
    39
  6
CONTINUOUS
 10
1.840187
 20
-0.292610
  0
VERTEX
  8
EBENE_2
 62
    39
  6
CONTINUOUS
 10
1.839787
 20
-0.325736
  0
VERTEX
  8
EBENE_2
 62
    39
  6
CONTINUOUS
 10
1.838855
 20
-0.358866
  0
VERTEX
  8
EBENE_2
 62
    39
  6
CONTINUOUS
 10
1.837390
 20
-0.391991
  0
VERTEX
  8
EBENE_2
 62
    39
  6
CONTINUOUS
 10
1.835390
 20
-0.425104
  0
VERTEX
  8
EBENE_2
 62
    39
  6
CONTINUOUS
 10
1.832854
 20
-0.458198
  0
VERTEX
  8
EBENE_2
 62
    39
  6
CONTINUOUS
 10
1.829781
 20
-0.491266
  0
VERTEX
  8
EBENE_2
 62
    39
  6
CONTINUOUS
 10
1.826169
 20
-0.524299
  0
VERTEX
  8
EBENE_2
 62
    39
  6
CONTINUOUS
 10
1.822017
 20
-0.557290
  0
VERTEX
  8
EBENE_2
 62
    39
  6
CONTINUOUS
 10
1.817323
 20
-0.590233
  0
VERTEX
  8
EBENE_2
 62
    39
  6
CONTINUOUS
 10
1.812087
 20
-0.623118
  0
VERTEX
  8
EBENE_2
 62
    39
  6
CONTINUOUS
 10
1.806306
 20
-0.655940
  0
VERTEX
  8
EBENE_2
 62
    39
  6
CONTINUOUS
 10
1.799980
 20
-0.688690
  0
VERTEX
  8
EBENE_2
 62
    39
  6
CONTINUOUS
 10
1.793107
 20
-0.721361
  0
VERTEX
  8
EBENE_2
 62
    39
  6
CONTINUOUS
 10
1.785685
 20
-0.753946
  0
VERTEX
  8
EBENE_2
 62
    39
  6
CONTINUOUS
 10
1.777713
 20
-0.786437
  0
VERTEX
  8
EBENE_2
 62
    39
  6
CONTINUOUS
 10
1.769191
 20
-0.818826
  0
VERTEX
  8
EBENE_2
 62
    39
  6
CONTINUOUS
 10
1.760116
 20
-0.851106
  0
VERTEX
  8
EBENE_2
 62
    39
  6
CONTINUOUS
 10
1.750487
 20
-0.883270
  0
VERTEX
  8
EBENE_2
 62
    39
  6
CONTINUOUS
 10
1.740303
 20
-0.915310
  0
VERTEX
  8
EBENE_2
 62
    39
  6
CONTINUOUS
 10
1.729562
 20
-0.947219
  0
VERTEX
  8
EBENE_2
 62
    39
  6
CONTINUOUS
 10
1.718263
 20
-0.978989
  0
VERTEX
  8
EBENE_2
 62
    39
  6
CONTINUOUS
 10
1.706405
 20
-1.010613
  0
VERTEX
  8
EBENE_2
 62
    39
  6
CONTINUOUS
 10
1.693986
 20
-1.042083
  0
VERTEX
  8
EBENE_2
 62
    39
  6
CONTINUOUS
 10
1.681005
 20
-1.073392
  0
VERTEX
  8
EBENE_2
 62
    39
  6
CONTINUOUS
 10
1.667460
 20
-1.104532
  0
VERTEX
  8
EBENE_2
 62
    39
  6
CONTINUOUS
 10
1.653350
 20
-1.135496
  0
VERTEX
  8
EBENE_2
 62
    39
  6
CONTINUOUS
 10
1.653350
 20
-1.135496
  0
VERTEX
  8
EBENE_2
 62
    39
  6
CONTINUOUS
 10
1.652054
 20
-1.133792
  0
VERTEX
  8
EBENE_2
 62
    39
  6
CONTINUOUS
 10
1.650313
 20
-1.132533
  0
VERTEX
  8
EBENE_2
 62
    39
  6
CONTINUOUS
 10
1.648350
 20
-1.131496
  0
VERTEX
  8
EBENE_2
 62
    39
  6
CONTINUOUS
 10
1.638496
 20
-1.093096
  0
VERTEX
  8
EBENE_2
 62
    39
  6
CONTINUOUS
 10
1.628198
 20
-1.054696
  0
VERTEX
  8
EBENE_2
 62
    39
  6
CONTINUOUS
 10
1.617552
 20
-1.016296
  0
VERTEX
  8
EBENE_2
 62
    39
  6
CONTINUOUS
 10
1.606654
 20
-0.977896
  0
VERTEX
  8
EBENE_2
 62
    39
  6
CONTINUOUS
 10
1.595600
 20
-0.939496
  0
VERTEX
  8
EBENE_2
 62
    39
  6
CONTINUOUS
 10
1.584486
 20
-0.901096
  0
VERTEX
  8
EBENE_2
 62
    39
  6
CONTINUOUS
 10
1.573408
 20
-0.862696
  0
VERTEX
  8
EBENE_2
 62
    39
  6
CONTINUOUS
 10
1.562462
 20
-0.824296
  0
VERTEX
  8
EBENE_2
 62
    39
  6
CONTINUOUS
 10
1.551744
 20
-0.785896
  0
VERTEX
  8
EBENE_2
 62
    39
  6
CONTINUOUS
 10
1.541350
 20
-0.747496
  0
VERTEX
  8
EBENE_2
 62
    39
  6
CONTINUOUS
 10
1.528180
 20
-0.705871
  0
VERTEX
  8
EBENE_2
 62
    39
  6
CONTINUOUS
 10
1.514929
 20
-0.664246
  0
VERTEX
  8
EBENE_2
 62
    39
  6
CONTINUOUS
 10
1.501606
 20
-0.622621
  0
VERTEX
  8
EBENE_2
 62
    39
  6
CONTINUOUS
 10
1.488225
 20
-0.580996
  0
VERTEX
  8
EBENE_2
 62
    39
  6
CONTINUOUS
 10
1.474798
 20
-0.539371
  0
VERTEX
  8
EBENE_2
 62
    39
  6
CONTINUOUS
 10
1.461335
 20
-0.497746
  0
VERTEX
  8
EBENE_2
 62
    39
  6
CONTINUOUS
 10
1.447848
 20
-0.456121
  0
VERTEX
  8
EBENE_2
 62
    39
  6
CONTINUOUS
 10
1.434350
 20
-0.414496
  0
VERTEX
  8
EBENE_2
 62
    39
  6
CONTINUOUS
 10
1.417592
 20
-0.349878
  0
VERTEX
  8
EBENE_2
 62
    39
  6
CONTINUOUS
 10
1.403123
 20
-0.293401
  0
VERTEX
  8
EBENE_2
 62
    39
  6
CONTINUOUS
 10
1.390655
 20
-0.244132
  0
VERTEX
  8
EBENE_2
 62
    39
  6
CONTINUOUS
 10
1.379901
 20
-0.201138
  0
VERTEX
  8
EBENE_2
 62
    39
  6
CONTINUOUS
 10
1.370571
 20
-0.163486
  0
VERTEX
  8
EBENE_2
 62
    39
  6
CONTINUOUS
 10
1.362377
 20
-0.130242
  0
VERTEX
  8
EBENE_2
 62
    39
  6
CONTINUOUS
 10
1.355031
 20
-0.100474
  0
VERTEX
  8
EBENE_2
 62
    39
  6
CONTINUOUS
 10
1.348244
 20
-0.073249
  0
VERTEX
  8
EBENE_2
 62
    39
  6
CONTINUOUS
 10
1.341727
 20
-0.047633
  0
VERTEX
  8
EBENE_2
 62
    39
  6
CONTINUOUS
 10
1.335192
 20
-0.022693
  0
VERTEX
  8
EBENE_2
 62
    39
  6
CONTINUOUS
 10
1.328350
 20
0.002504
  0
VERTEX
  8
EBENE_2
 62
    39
  6
CONTINUOUS
 10
1.313779
 20
0.040215
  0
VERTEX
  8
EBENE_2
 62
    39
  6
CONTINUOUS
 10
1.299208
 20
0.077909
  0
VERTEX
  8
EBENE_2
 62
    39
  6
CONTINUOUS
 10
1.284636
 20
0.115568
  0
VERTEX
  8
EBENE_2
 62
    39
  6
CONTINUOUS
 10
1.270065
 20
0.153174
  0
VERTEX
  8
EBENE_2
 62
    39
  6
CONTINUOUS
 10
1.255493
 20
0.190711
  0
VERTEX
  8
EBENE_2
 62
    39
  6
CONTINUOUS
 10
1.240922
 20
0.228160
  0
VERTEX
  8
EBENE_2
 62
    39
  6
CONTINUOUS
 10
1.226350
 20
0.265504
  0
VERTEX
  8
EBENE_2
 62
    39
  6
CONTINUOUS
 10
1.266758
 20
0.280763
  0
VERTEX
  8
EBENE_2
 62
    39
  6
CONTINUOUS
 10
1.294943
 20
0.311578
  0
VERTEX
  8
EBENE_2
 62
    39
  6
CONTINUOUS
 10
1.303350
 20
0.353504
  0
VERTEX
  8
EBENE_2
 62
    39
  6
CONTINUOUS
 10
1.285350
 20
0.360208
  0
VERTEX
  8
EBENE_2
 62
    39
  6
CONTINUOUS
 10
1.267350
 20
0.366467
  0
VERTEX
  8
EBENE_2
 62
    39
  6
CONTINUOUS
 10
1.249350
 20
0.372504
  0
VERTEX
  8
EBENE_2
 62
    39
  6
CONTINUOUS
 10
1.249350
 20
0.374504
  0
VERTEX
  8
EBENE_2
 62
    39
  6
CONTINUOUS
 10
1.249350
 20
0.376504
  0
VERTEX
  8
EBENE_2
 62
    39
  6
CONTINUOUS
 10
1.249350
 20
0.378504
  0
VERTEX
  8
EBENE_2
 62
    39
  6
CONTINUOUS
 10
1.216573
 20
0.409245
  0
VERTEX
  8
EBENE_2
 62
    39
  6
CONTINUOUS
 10
1.185795
 20
0.449097
  0
VERTEX
  8
EBENE_2
 62
    39
  6
CONTINUOUS
 10
1.168350
 20
0.488504
  0
VERTEX
  8
EBENE_2
 62
    39
  6
CONTINUOUS
 10
1.181922
 20
0.528225
  0
VERTEX
  8
EBENE_2
 62
    39
  6
CONTINUOUS
 10
1.192927
 20
0.565758
  0
VERTEX
  8
EBENE_2
 62
    39
  6
CONTINUOUS
 10
1.200795
 20
0.601652
  0
VERTEX
  8
EBENE_2
 62
    39
  6
CONTINUOUS
 10
1.204959
 20
0.636460
  0
VERTEX
  8
EBENE_2
 62
    39
  6
CONTINUOUS
 10
1.204852
 20
0.670733
  0
VERTEX
  8
EBENE_2
 62
    39
  6
CONTINUOUS
 10
1.199906
 20
0.705022
  0
VERTEX
  8
EBENE_2
 62
    39
  6
CONTINUOUS
 10
1.189552
 20
0.739880
  0
VERTEX
  8
EBENE_2
 62
    39
  6
CONTINUOUS
 10
1.173223
 20
0.775856
  0
VERTEX
  8
EBENE_2
 62
    39
  6
CONTINUOUS
 10
1.150350
 20
0.813504
  0
VERTEX
  8
EBENE_2
 62
    39
  6
CONTINUOUS
 10
1.116100
 20
0.841419
  0
VERTEX
  8
EBENE_2
 62
    39
  6
CONTINUOUS
 10
1.081569
 20
0.863440
  0
VERTEX
  8
EBENE_2
 62
    39
  6
CONTINUOUS
 10
1.046234
 20
0.879548
  0
VERTEX
  8
EBENE_2
 62
    39
  6
CONTINUOUS
 10
1.009569
 20
0.889726
  0
VERTEX
  8
EBENE_2
 62
    39
  6
CONTINUOUS
 10
0.971050
 20
0.893956
  0
VERTEX
  8
EBENE_2
 62
    39
  6
CONTINUOUS
 10
0.930152
 20
0.892221
  0
VERTEX
  8
EBENE_2
 62
    39
  6
CONTINUOUS
 10
0.886350
 20
0.884504
  0
VERTEX
  8
EBENE_2
 62
    39
  6
CONTINUOUS
 10
0.865313
 20
0.876208
  0
VERTEX
  8
EBENE_2
 62
    39
  6
CONTINUOUS
 10
0.844054
 20
0.867467
  0
VERTEX
  8
EBENE_2
 62
    39
  6
CONTINUOUS
 10
0.822350
 20
0.858504
  0
VERTEX
  8
EBENE_2
 62
    39
  6
CONTINUOUS
 10
0.822350
 20
0.856504
  0
VERTEX
  8
EBENE_2
 62
    39
  6
CONTINUOUS
 10
0.822350
 20
0.854504
  0
VERTEX
  8
EBENE_2
 62
    39
  6
CONTINUOUS
 10
0.822350
 20
0.852504
  0
VERTEX
  8
EBENE_2
 62
    39
  6
CONTINUOUS
 10
0.783554
 20
0.827691
  0
VERTEX
  8
EBENE_2
 62
    39
  6
CONTINUOUS
 10
0.742225
 20
0.798004
  0
VERTEX
  8
EBENE_2
 62
    39
  6
CONTINUOUS
 10
0.707460
 20
0.763066
  0
VERTEX
  8
EBENE_2
 62
    39
  6
CONTINUOUS
 10
0.688350
 20
0.722504
  0
VERTEX
  8
EBENE_2
 62
    39
  6
CONTINUOUS
 10
0.695313
 20
0.711208
  0
VERTEX
  8
EBENE_2
 62
    39
  6
CONTINUOUS
 10
0.702054
 20
0.699467
  0
VERTEX
  8
EBENE_2
 62
    39
  6
CONTINUOUS
 10
0.708350
 20
0.687504
  0
VERTEX
  8
EBENE_2
 62
    39
  6
CONTINUOUS
 10
0.700694
 20
0.643582
  0
VERTEX
  8
EBENE_2
 62
    39
  6
CONTINUOUS
 10
0.701100
 20
0.602379
  0
VERTEX
  8
EBENE_2
 62
    39
  6
CONTINUOUS
 10
0.710882
 20
0.562488
  0
VERTEX
  8
EBENE_2
 62
    39
  6
CONTINUOUS
 10
0.731350
 20
0.522504
  0
VERTEX
  8
EBENE_2
 62
    39
  6
CONTINUOUS
 10
0.729313
 20
0.507393
  0
VERTEX
  8
EBENE_2
 62
    39
  6
CONTINUOUS
 10
0.724387
 20
0.488282
  0
VERTEX
  8
EBENE_2
 62
    39
  6
CONTINUOUS
 10
0.718350
 20
0.462504
  0
VERTEX
  8
EBENE_2
 62
    39
  6
CONTINUOUS
 10
0.721710
 20
0.417488
  0
VERTEX
  8
EBENE_2
 62
    39
  6
CONTINUOUS
 10
0.733225
 20
0.379129
  0
VERTEX
  8
EBENE_2
 62
    39
  6
CONTINUOUS
 10
0.755054
 20
0.346207
  0
VERTEX
  8
EBENE_2
 62
    39
  6
CONTINUOUS
 10
0.789350
 20
0.317504
  0
VERTEX
  8
EBENE_2
 62
    39
  6
CONTINUOUS
 10
0.811054
 20
0.309504
  0
VERTEX
  8
EBENE_2
 62
    39
  6
CONTINUOUS
 10
0.832313
 20
0.301504
  0
VERTEX
  8
EBENE_2
 62
    39
  6
CONTINUOUS
 10
0.853350
 20
0.293504
  0
VERTEX
  8
EBENE_2
 62
    39
  6
CONTINUOUS
 10
0.854054
 20
0.288504
  0
VERTEX
  8
EBENE_2
 62
    39
  6
CONTINUOUS
 10
0.854313
 20
0.283504
  0
VERTEX
  8
EBENE_2
 62
    39
  6
CONTINUOUS
 10
0.854350
 20
0.278504
  0
VERTEX
  8
EBENE_2
 62
    39
  6
CONTINUOUS
 10
0.844353
 20
0.240318
  0
VERTEX
  8
EBENE_2
 62
    39
  6
CONTINUOUS
 10
0.835224
 20
0.202506
  0
VERTEX
  8
EBENE_2
 62
    39
  6
CONTINUOUS
 10
0.826412
 20
0.165265
  0
VERTEX
  8
EBENE_2
 62
    39
  6
CONTINUOUS
 10
0.817365
 20
0.128791
  0
VERTEX
  8
EBENE_2
 62
    39
  6
CONTINUOUS
 10
0.807532
 20
0.093281
  0
VERTEX
  8
EBENE_2
 62
    39
  6
CONTINUOUS
 10
0.796360
 20
0.058932
  0
VERTEX
  8
EBENE_2
 62
    39
  6
CONTINUOUS
 10
0.783299
 20
0.025940
  0
VERTEX
  8
EBENE_2
 62
    39
  6
CONTINUOUS
 10
0.767796
 20
-0.005498
  0
VERTEX
  8
EBENE_2
 62
    39
  6
CONTINUOUS
 10
0.749300
 20
-0.035185
  0
VERTEX
  8
EBENE_2
 62
    39
  6
CONTINUOUS
 10
0.727259
 20
-0.062925
  0
VERTEX
  8
EBENE_2
 62
    39
  6
CONTINUOUS
 10
0.701121
 20
-0.088522
  0
VERTEX
  8
EBENE_2
 62
    39
  6
CONTINUOUS
 10
0.670336
 20
-0.111777
  0
VERTEX
  8
EBENE_2
 62
    39
  6
CONTINUOUS
 10
0.634350
 20
-0.132496
  0
VERTEX
  8
EBENE_2
 62
    39
  6
CONTINUOUS
 10
0.614288
 20
-0.087980
  0
VERTEX
  8
EBENE_2
 62
    39
  6
CONTINUOUS
 10
0.593850
 20
-0.052371
  0
VERTEX
  8
EBENE_2
 62
    39
  6
CONTINUOUS
 10
0.567413
 20
-0.021824
  0
VERTEX
  8
EBENE_2
 62
    39
  6
CONTINUOUS
 10
0.529350
 20
0.007504
  0
VERTEX
  8
EBENE_2
 62
    39
  6
CONTINUOUS
 10
0.491085
 20
0.014953
  0
VERTEX
  8
EBENE_2
 62
    39
  6
CONTINUOUS
 10
0.451350
 20
0.019830
  0
VERTEX
  8
EBENE_2
 62
    39
  6
CONTINUOUS
 10
0.410881
 20
0.021647
  0
VERTEX
  8
EBENE_2
 62
    39
  6
CONTINUOUS
 10
0.370412
 20
0.019912
  0
VERTEX
  8
EBENE_2
 62
    39
  6
CONTINUOUS
 10
0.330677
 20
0.014137
  0
VERTEX
  8
EBENE_2
 62
    39
  6
CONTINUOUS
 10
0.292412
 20
0.003830
  0
VERTEX
  8
EBENE_2
 62
    39
  6
CONTINUOUS
 10
0.256350
 20
-0.011496
  0
VERTEX
  8
EBENE_2
 62
    39
  6
CONTINUOUS
 10
0.256350
 20
-0.013496
  0
VERTEX
  8
EBENE_2
 62
    39
  6
CONTINUOUS
 10
0.256350
 20
-0.015496
  0
VERTEX
  8
EBENE_2
 62
    39
  6
CONTINUOUS
 10
0.256350
 20
-0.017496
  0
VERTEX
  8
EBENE_2
 62
    39
  6
CONTINUOUS
 10
0.254313
 20
-0.017496
  0
VERTEX
  8
EBENE_2
 62
    39
  6
CONTINUOUS
 10
0.252054
 20
-0.017496
  0
VERTEX
  8
EBENE_2
 62
    39
  6
CONTINUOUS
 10
0.249350
 20
-0.017496
  0
VERTEX
  8
EBENE_2
 62
    39
  6
CONTINUOUS
 10
0.244869
 20
-0.025348
  0
VERTEX
  8
EBENE_2
 62
    39
  6
CONTINUOUS
 10
0.241499
 20
-0.028978
  0
VERTEX
  8
EBENE_2
 62
    39
  6
CONTINUOUS
 10
0.236350
 20
-0.031496
  0
VERTEX
  8
EBENE_2
 62
    39
  6
CONTINUOUS
 10
0.227307
 20
0.009192
  0
VERTEX
  8
EBENE_2
 62
    39
  6
CONTINUOUS
 10
0.216531
 20
0.049723
  0
VERTEX
  8
EBENE_2
 62
    39
  6
CONTINUOUS
 10
0.204129
 20
0.089938
  0
VERTEX
  8
EBENE_2
 62
    39
  6
CONTINUOUS
 10
0.190205
 20
0.129682
  0
VERTEX
  8
EBENE_2
 62
    39
  6
CONTINUOUS
 10
0.174864
 20
0.168795
  0
VERTEX
  8
EBENE_2
 62
    39
  6
CONTINUOUS
 10
0.158210
 20
0.207122
  0
VERTEX
  8
EBENE_2
 62
    39
  6
CONTINUOUS
 10
0.140350
 20
0.244504
  0
VERTEX
  8
EBENE_2
 62
    39
  6
CONTINUOUS
 10
0.140313
 20
0.248504
  0
VERTEX
  8
EBENE_2
 62
    39
  6
CONTINUOUS
 10
0.140054
 20
0.252504
  0
VERTEX
  8
EBENE_2
 62
    39
  6
CONTINUOUS
 10
0.139350
 20
0.256504
  0
VERTEX
  8
EBENE_2
 62
    39
  6
CONTINUOUS
 10
0.181147
 20
0.274707
  0
VERTEX
  8
EBENE_2
 62
    39
  6
CONTINUOUS
 10
0.214975
 20
0.297129
  0
VERTEX
  8
EBENE_2
 62
    39
  6
CONTINUOUS
 10
0.240741
 20
0.327238
  0
VERTEX
  8
EBENE_2
 62
    39
  6
CONTINUOUS
 10
0.258350
 20
0.368504
  0
VERTEX
  8
EBENE_2
 62
    39
  6
CONTINUOUS
 10
0.242813
 20
0.399254
  0
VERTEX
  8
EBENE_2
 62
    39
  6
CONTINUOUS
 10
0.223116
 20
0.430754
  0
VERTEX
  8
EBENE_2
 62
    39
  6
CONTINUOUS
 10
0.201380
 20
0.463004
  0
VERTEX
  8
EBENE_2
 62
    39
  6
CONTINUOUS
 10
0.179725
 20
0.496004
  0
VERTEX
  8
EBENE_2
 62
    39
  6
CONTINUOUS
 10
0.160274
 20
0.529754
  0
VERTEX
  8
EBENE_2
 62
    39
  6
CONTINUOUS
 10
0.145147
 20
0.564254
  0
VERTEX
  8
EBENE_2
 62
    39
  6
CONTINUOUS
 10
0.136466
 20
0.599504
  0
VERTEX
  8
EBENE_2
 62
    39
  6
CONTINUOUS
 10
0.136350
 20
0.635504
  0
VERTEX
  8
EBENE_2
 62
    39
  6
CONTINUOUS
 10
0.163299
 20
0.656481
  0
VERTEX
  8
EBENE_2
 62
    39
  6
CONTINUOUS
 10
0.186610
 20
0.688652
  0
VERTEX
  8
EBENE_2
 62
    39
  6
CONTINUOUS
 10
0.205475
 20
0.727879
  0
VERTEX
  8
EBENE_2
 62
    39
  6
CONTINUOUS
 10
0.219091
 20
0.770022
  0
VERTEX
  8
EBENE_2
 62
    39
  6
CONTINUOUS
 10
0.226651
 20
0.810944
  0
VERTEX
  8
EBENE_2
 62
    39
  6
CONTINUOUS
 10
0.227350
 20
0.846504
  0
VERTEX
  8
EBENE_2
 62
    39
  6
CONTINUOUS
 10
0.202684
 20
0.846874
  0
VERTEX
  8
EBENE_2
 62
    39
  6
CONTINUOUS
 10
0.174684
 20
0.844800
  0
VERTEX
  8
EBENE_2
 62
    39
  6
CONTINUOUS
 10
0.119350
 20
0.838504
  0
VERTEX
  8
EBENE_2
 62
    39
  6
CONTINUOUS
 10
0.110350
 20
0.877948
  0
VERTEX
  8
EBENE_2
 62
    39
  6
CONTINUOUS
 10
0.098684
 20
0.922059
  0
VERTEX
  8
EBENE_2
 62
    39
  6
CONTINUOUS
 10
0.080350
 20
0.955504
  0
VERTEX
  8
EBENE_2
 62
    39
  6
CONTINUOUS
 10
0.049350
 20
0.937948
  0
VERTEX
  8
EBENE_2
 62
    39
  6
CONTINUOUS
 10
0.005017
 20
0.912393
  0
VERTEX
  8
EBENE_2
 62
    39
  6
CONTINUOUS
 10
-0.024650
 20
0.901504
  0
VERTEX
  8
EBENE_2
 62
    39
  6
CONTINUOUS
 10
-0.041687
 20
0.936504
  0
VERTEX
  8
EBENE_2
 62
    39
  6
CONTINUOUS
 10
-0.058946
 20
0.971504
  0
VERTEX
  8
EBENE_2
 62
    39
  6
CONTINUOUS
 10
-0.076650
 20
1.006504
  0
VERTEX
  8
EBENE_2
 62
    39
  6
CONTINUOUS
 10
-0.115464
 20
0.993245
  0
VERTEX
  8
EBENE_2
 62
    39
  6
CONTINUOUS
 10
-0.155168
 20
0.964430
  0
VERTEX
  8
EBENE_2
 62
    39
  6
CONTINUOUS
 10
-0.188650
 20
0.936504
  0
VERTEX
  8
EBENE_2
 62
    39
  6
CONTINUOUS
 10
-0.215131
 20
0.954652
  0
VERTEX
  8
EBENE_2
 62
    39
  6
CONTINUOUS
 10
-0.240501
 20
0.991022
  0
VERTEX
  8
EBENE_2
 62
    39
  6
CONTINUOUS
 10
-0.267650
 20
1.018504
  0
VERTEX
  8
EBENE_2
 62
    39
  6
CONTINUOUS
 10
-0.267946
 20
1.021467
  0
VERTEX
  8
EBENE_2
 62
    39
  6
CONTINUOUS
 10
-0.268687
 20
1.024208
  0
VERTEX
  8
EBENE_2
 62
    39
  6
CONTINUOUS
 10
-0.269650
 20
1.026504
  0
VERTEX
  8
EBENE_2
 62
    39
  6
CONTINUOUS
 10
-0.298274
 20
1.013912
  0
VERTEX
  8
EBENE_2
 62
    39
  6
CONTINUOUS
 10
-0.320802
 20
0.982408
  0
VERTEX
  8
EBENE_2
 62
    39
  6
CONTINUOUS
 10
-0.337618
 20
0.941400
  0
VERTEX
  8
EBENE_2
 62
    39
  6
CONTINUOUS
 10
-0.349106
 20
0.900296
  0
VERTEX
  8
EBENE_2
 62
    39
  6
CONTINUOUS
 10
-0.355650
 20
0.868504
  0
VERTEX
  8
EBENE_2
 62
    39
  6
CONTINUOUS
 10
-0.355316
 20
0.847319
  0
VERTEX
  8
EBENE_2
 62
    39
  6
CONTINUOUS
 10
-0.352983
 20
0.820356
  0
VERTEX
  8
EBENE_2
 62
    39
  6
CONTINUOUS
 10
-0.346650
 20
0.764504
  0
VERTEX
  8
EBENE_2
 62
    39
  6
CONTINUOUS
 10
-0.366306
 20
0.720816
  0
VERTEX
  8
EBENE_2
 62
    39
  6
CONTINUOUS
 10
-0.366650
 20
0.676754
  0
VERTEX
  8
EBENE_2
 62
    39
  6
CONTINUOUS
 10
-0.358743
 20
0.632316
  0
VERTEX
  8
EBENE_2
 62
    39
  6
CONTINUOUS
 10
-0.353650
 20
0.587504
  0
VERTEX
  8
EBENE_2
 62
    39
  6
CONTINUOUS
 10
-0.369724
 20
0.548422
  0
VERTEX
  8
EBENE_2
 62
    39
  6
CONTINUOUS
 10
-0.377056
 20
0.511473
  0
VERTEX
  8
EBENE_2
 62
    39
  6
CONTINUOUS
 10
-0.376185
 20
0.476727
  0
VERTEX
  8
EBENE_2
 62
    39
  6
CONTINUOUS
 10
-0.367650
 20
0.444254
  0
VERTEX
  8
EBENE_2
 62
    39
  6
CONTINUOUS
 10
-0.351989
 20
0.414125
  0
VERTEX
  8
EBENE_2
 62
    39
  6
CONTINUOUS
 10
-0.329743
 20
0.386410
  0
VERTEX
  8
EBENE_2
 62
    39
  6
CONTINUOUS
 10
-0.301450
 20
0.361180
  0
VERTEX
  8
EBENE_2
 62
    39
  6
CONTINUOUS
 10
-0.267650
 20
0.338504
  0
VERTEX
  8
EBENE_2
 62
    39
  6
CONTINUOUS
 10
-0.278825
 20
0.299994
  0
VERTEX
  8
EBENE_2
 62
    39
  6
CONTINUOUS
 10
-0.290804
 20
0.261606
  0
VERTEX
  8
EBENE_2
 62
    39
  6
CONTINUOUS
 10
-0.303413
 20
0.223341
  0
VERTEX
  8
EBENE_2
 62
    39
  6
CONTINUOUS
 10
-0.316478
 20
0.185198
  0
VERTEX
  8
EBENE_2
 62
    39
  6
CONTINUOUS
 10
-0.329822
 20
0.147177
  0
VERTEX
  8
EBENE_2
 62
    39
  6
CONTINUOUS
 10
-0.343271
 20
0.109279
  0
VERTEX
  8
EBENE_2
 62
    39
  6
CONTINUOUS
 10
-0.356650
 20
0.071504
  0
VERTEX
  8
EBENE_2
 62
    39
  6
CONTINUOUS
 10
-0.385205
 20
0.078680
  0
VERTEX
  8
EBENE_2
 62
    39
  6
CONTINUOUS
 10
-0.412094
 20
0.095245
  0
VERTEX
  8
EBENE_2
 62
    39
  6
CONTINUOUS
 10
-0.437650
 20
0.113754
  0
VERTEX
  8
EBENE_2
 62
    39
  6
CONTINUOUS
 10
-0.462205
 20
0.126763
  0
VERTEX
  8
EBENE_2
 62
    39
  6
CONTINUOUS
 10
-0.486094
 20
0.126828
  0
VERTEX
  8
EBENE_2
 62
    39
  6
CONTINUOUS
 10
-0.509650
 20
0.106504
  0
VERTEX
  8
EBENE_2
 62
    39
  6
CONTINUOUS
 10
-0.537872
 20
0.125689
  0
VERTEX
  8
EBENE_2
 62
    39
  6
CONTINUOUS
 10
-0.561427
 20
0.145985
  0
VERTEX
  8
EBENE_2
 62
    39
  6
CONTINUOUS
 10
-0.575650
 20
0.174504
  0
VERTEX
  8
EBENE_2
 62
    39
  6
CONTINUOUS
 10
-0.577030
 20
0.212249
  0
VERTEX
  8
EBENE_2
 62
    39
  6
CONTINUOUS
 10
-0.578420
 20
0.249984
  0
VERTEX
  8
EBENE_2
 62
    39
  6
CONTINUOUS
 10
-0.579820
 20
0.287709
  0
VERTEX
  8
EBENE_2
 62
    39
  6
CONTINUOUS
 10
-0.581228
 20
0.325425
  0
VERTEX
  8
EBENE_2
 62
    39
  6
CONTINUOUS
 10
-0.582646
 20
0.363133
  0
VERTEX
  8
EBENE_2
 62
    39
  6
CONTINUOUS
 10
-0.584071
 20
0.400832
  0
VERTEX
  8
EBENE_2
 62
    39
  6
CONTINUOUS
 10
-0.585505
 20
0.438524
  0
VERTEX
  8
EBENE_2
 62
    39
  6
CONTINUOUS
 10
-0.586946
 20
0.476208
  0
VERTEX
  8
EBENE_2
 62
    39
  6
CONTINUOUS
 10
-0.588394
 20
0.513885
  0
VERTEX
  8
EBENE_2
 62
    39
  6
CONTINUOUS
 10
-0.589848
 20
0.551555
  0
VERTEX
  8
EBENE_2
 62
    39
  6
CONTINUOUS
 10
-0.591309
 20
0.589220
  0
VERTEX
  8
EBENE_2
 62
    39
  6
CONTINUOUS
 10
-0.592775
 20
0.626879
  0
VERTEX
  8
EBENE_2
 62
    39
  6
CONTINUOUS
 10
-0.594246
 20
0.664533
  0
VERTEX
  8
EBENE_2
 62
    39
  6
CONTINUOUS
 10
-0.595722
 20
0.702182
  0
VERTEX
  8
EBENE_2
 62
    39
  6
CONTINUOUS
 10
-0.597202
 20
0.739826
  0
VERTEX
  8
EBENE_2
 62
    39
  6
CONTINUOUS
 10
-0.598687
 20
0.777467
  0
VERTEX
  8
EBENE_2
 62
    39
  6
CONTINUOUS
 10
-0.600174
 20
0.815104
  0
VERTEX
  8
EBENE_2
 62
    39
  6
CONTINUOUS
 10
-0.601665
 20
0.852738
  0
VERTEX
  8
EBENE_2
 62
    39
  6
CONTINUOUS
 10
-0.603159
 20
0.890370
  0
VERTEX
  8
EBENE_2
 62
    39
  6
CONTINUOUS
 10
-0.604654
 20
0.927999
  0
VERTEX
  8
EBENE_2
 62
    39
  6
CONTINUOUS
 10
-0.606152
 20
0.965627
  0
VERTEX
  8
EBENE_2
 62
    39
  6
CONTINUOUS
 10
-0.607650
 20
1.003253
  0
VERTEX
  8
EBENE_2
 62
    39
  6
CONTINUOUS
 10
-0.609150
 20
1.040879
  0
VERTEX
  8
EBENE_2
 62
    39
  6
CONTINUOUS
 10
-0.610650
 20
1.078504
  0
VERTEX
  8
EBENE_2
 62
    39
  6
CONTINUOUS
 10
-0.530131
 20
1.039874
  0
VERTEX
  8
EBENE_2
 62
    39
  6
CONTINUOUS
 10
-0.493835
 20
1.021467
  0
VERTEX
  8
EBENE_2
 62
    39
  6
CONTINUOUS
 10
-0.470650
 20
1.007504
  0
VERTEX
  8
EBENE_2
 62
    39
  6
CONTINUOUS
 10
-0.466687
 20
1.009208
  0
VERTEX
  8
EBENE_2
 62
    39
  6
CONTINUOUS
 10
-0.462946
 20
1.010467
  0
VERTEX
  8
EBENE_2
 62
    39
  6
CONTINUOUS
 10
-0.459650
 20
1.011504
  0
VERTEX
  8
EBENE_2
 62
    39
  6
CONTINUOUS
 10
-0.460850
 20
1.055192
  0
VERTEX
  8
EBENE_2
 62
    39
  6
CONTINUOUS
 10
-0.462050
 20
1.098688
  0
VERTEX
  8
EBENE_2
 62
    39
  6
CONTINUOUS
 10
-0.463250
 20
1.142040
  0
VERTEX
  8
EBENE_2
 62
    39
  6
CONTINUOUS
 10
-0.464450
 20
1.185296
  0
VERTEX
  8
EBENE_2
 62
    39
  6
CONTINUOUS
 10
-0.465650
 20
1.228504
  0
VERTEX
  8
EBENE_2
 62
    39
  6
CONTINUOUS
 10
-0.463687
 20
1.232208
  0
VERTEX
  8
EBENE_2
 62
    39
  6
CONTINUOUS
 10
-0.461946
 20
1.235467
  0
VERTEX
  8
EBENE_2
 62
    39
  6
CONTINUOUS
 10
-0.460650
 20
1.238504
  0
VERTEX
  8
EBENE_2
 62
    39
  6
CONTINUOUS
 10
-0.423562
 20
1.261296
  0
VERTEX
  8
EBENE_2
 62
    39
  6
CONTINUOUS
 10
-0.386666
 20
1.284040
  0
VERTEX
  8
EBENE_2
 62
    39
  6
CONTINUOUS
 10
-0.349914
 20
1.306688
  0
VERTEX
  8
EBENE_2
 62
    39
  6
CONTINUOUS
 10
-0.313258
 20
1.329192
  0
VERTEX
  8
EBENE_2
 62
    39
  6
CONTINUOUS
 10
-0.276650
 20
1.351504
  0
VERTEX
  8
EBENE_2
 62
    39
  6
CONTINUOUS
 10
-0.276650
 20
1.356208
  0
VERTEX
  8
EBENE_2
 62
    39
  6
CONTINUOUS
 10
-0.276650
 20
1.360467
  0
VERTEX
  8
EBENE_2
 62
    39
  6
CONTINUOUS
 10
-0.276650
 20
1.364504
  0
VERTEX
  8
EBENE_2
 62
    39
  6
CONTINUOUS
 10
-0.361762
 20
1.410032
  0
VERTEX
  8
EBENE_2
 62
    39
  6
CONTINUOUS
 10
-0.414666
 20
1.438568
  0
VERTEX
  8
EBENE_2
 62
    39
  6
CONTINUOUS
 10
-0.444914
 20
1.455440
  0
VERTEX
  8
EBENE_2
 62
    39
  6
CONTINUOUS
 10
-0.462058
 20
1.465976
  0
VERTEX
  8
EBENE_2
 62
    39
  6
CONTINUOUS
 10
-0.475650
 20
1.475504
  0
VERTEX
  8
EBENE_2
 62
    39
  6
CONTINUOUS
 10
-0.478050
 20
1.518104
  0
VERTEX
  8
EBENE_2
 62
    39
  6
CONTINUOUS
 10
-0.480450
 20
1.560704
  0
VERTEX
  8
EBENE_2
 62
    39
  6
CONTINUOUS
 10
-0.482850
 20
1.603304
  0
VERTEX
  8
EBENE_2
 62
    39
  6
CONTINUOUS
 10
-0.485250
 20
1.645904
  0
VERTEX
  8
EBENE_2
 62
    39
  6
CONTINUOUS
 10
-0.487650
 20
1.688504
  0
VERTEX
  8
EBENE_2
 62
    39
  6
CONTINUOUS
 10
-0.537168
 20
1.666578
  0
VERTEX
  8
EBENE_2
 62
    39
  6
CONTINUOUS
 10
-0.583131
 20
1.634430
  0
VERTEX
  8
EBENE_2
 62
    39
  6
CONTINUOUS
 10
-0.630650
 20
1.612504
  0
VERTEX
  8
EBENE_2
 62
    39
  6
CONTINUOUS
 10
-0.631650
 20
1.647208
  0
VERTEX
  8
EBENE_2
 62
    39
  6
CONTINUOUS
 10
-0.632650
 20
1.681467
  0
VERTEX
  8
EBENE_2
 62
    39
  6
CONTINUOUS
 10
-0.633650
 20
1.715504
  0
SEQEND
  8
0
  0
POLYLINE
  8
EBENE_3
 62
    39
  6
CONTINUOUS
 66
     1
 40
0.003000
 41
0.003000
  0
VERTEX
  8
EBENE_3
 62
    39
  6
CONTINUOUS
 10
-2.670650
 20
-0.224496
  0
VERTEX
  8
EBENE_3
 62
    39
  6
CONTINUOUS
 10
-2.667983
 20
-0.184197
  0
VERTEX
  8
EBENE_3
 62
    39
  6
CONTINUOUS
 10
-2.665047
 20
-0.144056
  0
VERTEX
  8
EBENE_3
 62
    39
  6
CONTINUOUS
 10
-2.661818
 20
-0.104055
  0
VERTEX
  8
EBENE_3
 62
    39
  6
CONTINUOUS
 10
-2.658275
 20
-0.064174
  0
VERTEX
  8
EBENE_3
 62
    39
  6
CONTINUOUS
 10
-2.654396
 20
-0.024394
  0
VERTEX
  8
EBENE_3
 62
    39
  6
CONTINUOUS
 10
-2.650159
 20
0.015305
  0
VERTEX
  8
EBENE_3
 62
    39
  6
CONTINUOUS
 10
-2.645543
 20
0.054940
  0
VERTEX
  8
EBENE_3
 62
    39
  6
CONTINUOUS
 10
-2.640525
 20
0.094532
  0
VERTEX
  8
EBENE_3
 62
    39
  6
CONTINUOUS
 10
-2.635084
 20
0.134099
  0
VERTEX
  8
EBENE_3
 62
    39
  6
CONTINUOUS
 10
-2.629198
 20
0.173661
  0
VERTEX
  8
EBENE_3
 62
    39
  6
CONTINUOUS
 10
-2.622844
 20
0.213236
  0
VERTEX
  8
EBENE_3
 62
    39
  6
CONTINUOUS
 10
-2.616002
 20
0.252844
  0
VERTEX
  8
EBENE_3
 62
    39
  6
CONTINUOUS
 10
-2.608650
 20
0.292504
  0
VERTEX
  8
EBENE_3
 62
    39
  6
CONTINUOUS
 10
-2.588947
 20
0.363096
  0
VERTEX
  8
EBENE_3
 62
    39
  6
CONTINUOUS
 10
-2.574335
 20
0.415198
  0
VERTEX
  8
EBENE_3
 62
    39
  6
CONTINUOUS
 10
-2.563413
 20
0.453586
  0
VERTEX
  8
EBENE_3
 62
    39
  6
CONTINUOUS
 10
-2.554784
 20
0.483035
  0
VERTEX
  8
EBENE_3
 62
    39
  6
CONTINUOUS
 10
-2.547046
 20
0.508320
  0
VERTEX
  8
EBENE_3
 62
    39
  6
CONTINUOUS
 10
-2.538801
 20
0.534218
  0
VERTEX
  8
EBENE_3
 62
    39
  6
CONTINUOUS
 10
-2.528650
 20
0.565504
  0
VERTEX
  8
EBENE_3
 62
    39
  6
CONTINUOUS
 10
-2.501136
 20
0.634777
  0
VERTEX
  8
EBENE_3
 62
    39
  6
CONTINUOUS
 10
-2.478538
 20
0.690356
  0
VERTEX
  8
EBENE_3
 62
    39
  6
CONTINUOUS
 10
-2.460775
 20
0.733379
  0
VERTEX
  8
EBENE_3
 62
    39
  6
CONTINUOUS
 10
-2.447761
 20
0.764985
  0
VERTEX
  8
EBENE_3
 62
    39
  6
CONTINUOUS
 10
-2.439413
 20
0.786314
  0
VERTEX
  8
EBENE_3
 62
    39
  6
CONTINUOUS
 10
-2.435650
 20
0.798504
  0
VERTEX
  8
EBENE_3
 62
    39
  6
CONTINUOUS
 10
-2.419464
 20
0.825430
  0
VERTEX
  8
EBENE_3
 62
    39
  6
CONTINUOUS
 10
-2.392168
 20
0.878578
  0
VERTEX
  8
EBENE_3
 62
    39
  6
CONTINUOUS
 10
-2.376650
 20
0.913504
  0
VERTEX
  8
EBENE_3
 62
    39
  6
CONTINUOUS
 10
-2.366316
 20
0.923652
  0
VERTEX
  8
EBENE_3
 62
    39
  6
CONTINUOUS
 10
-2.355983
 20
0.944022
  0
VERTEX
  8
EBENE_3
 62
    39
  6
CONTINUOUS
 10
-2.349650
 20
0.959504
  0
VERTEX
  8
EBENE_3
 62
    39
  6
CONTINUOUS
 10
-2.324790
 20
0.988504
  0
VERTEX
  8
EBENE_3
 62
    39
  6
CONTINUOUS
 10
-2.290275
 20
1.043754
  0
VERTEX
  8
EBENE_3
 62
    39
  6
CONTINUOUS
 10
-2.258946
 20
1.100129
  0
VERTEX
  8
EBENE_3
 62
    39
  6
CONTINUOUS
 10
-2.243650
 20
1.132504
  0
VERTEX
  8
EBENE_3
 62
    39
  6
CONTINUOUS
 10
-2.241650
 20
1.132504
  0
VERTEX
  8
EBENE_3
 62
    39
  6
CONTINUOUS
 10
-2.239650
 20
1.132504
  0
VERTEX
  8
EBENE_3
 62
    39
  6
CONTINUOUS
 10
-2.237650
 20
1.132504
  0
VERTEX
  8
EBENE_3
 62
    39
  6
CONTINUOUS
 10
-2.212556
 20
1.167580
  0
VERTEX
  8
EBENE_3
 62
    39
  6
CONTINUOUS
 10
-2.187026
 20
1.202498
  0
VERTEX
  8
EBENE_3
 62
    39
  6
CONTINUOUS
 10
-2.161110
 20
1.237224
  0
VERTEX
  8
EBENE_3
 62
    39
  6
CONTINUOUS
 10
-2.134862
 20
1.271723
  0
VERTEX
  8
EBENE_3
 62
    39
  6
CONTINUOUS
 10
-2.108335
 20
1.305959
  0
VERTEX
  8
EBENE_3
 62
    39
  6
CONTINUOUS
 10
-2.081580
 20
1.339898
  0
VERTEX
  8
EBENE_3
 62
    39
  6
CONTINUOUS
 10
-2.054650
 20
1.373504
  0
VERTEX
  8
EBENE_3
 62
    39
  6
CONTINUOUS
 10
-2.046687
 20
1.377652
  0
VERTEX
  8
EBENE_3
 62
    39
  6
CONTINUOUS
 10
-2.041613
 20
1.386689
  0
VERTEX
  8
EBENE_3
 62
    39
  6
CONTINUOUS
 10
-2.037650
 20
1.395504
  0
VERTEX
  8
EBENE_3
 62
    39
  6
CONTINUOUS
 10
-1.999131
 20
1.426356
  0
VERTEX
  8
EBENE_3
 62
    39
  6
CONTINUOUS
 10
-1.965501
 20
1.470319
  0
VERTEX
  8
EBENE_3
 62
    39
  6
CONTINUOUS
 10
-1.927650
 20
1.502504
  0
VERTEX
  8
EBENE_3
 62
    39
  6
CONTINUOUS
 10
-1.927650
 20
1.504504
  0
VERTEX
  8
EBENE_3
 62
    39
  6
CONTINUOUS
 10
-1.927650
 20
1.506504
  0
VERTEX
  8
EBENE_3
 62
    39
  6
CONTINUOUS
 10
-1.927650
 20
1.508504
  0
VERTEX
  8
EBENE_3
 62
    39
  6
CONTINUOUS
 10
-1.873872
 20
1.556430
  0
VERTEX
  8
EBENE_3
 62
    39
  6
CONTINUOUS
 10
-1.852094
 20
1.574578
  0
VERTEX
  8
EBENE_3
 62
    39
  6
CONTINUOUS
 10
-1.843650
 20
1.578504
  0
VERTEX
  8
EBENE_3
 62
    39
  6
CONTINUOUS
 10
-1.843650
 20
1.581208
  0
VERTEX
  8
EBENE_3
 62
    39
  6
CONTINUOUS
 10
-1.843650
 20
1.583467
  0
VERTEX
  8
EBENE_3
 62
    39
  6
CONTINUOUS
 10
-1.843650
 20
1.585504
  0
VERTEX
  8
EBENE_3
 62
    39
  6
CONTINUOUS
 10
-1.806321
 20
1.614676
  0
VERTEX
  8
EBENE_3
 62
    39
  6
CONTINUOUS
 10
-1.769275
 20
1.645629
  0
VERTEX
  8
EBENE_3
 62
    39
  6
CONTINUOUS
 10
-1.732415
 20
1.676770
  0
VERTEX
  8
EBENE_3
 62
    39
  6
CONTINUOUS
 10
-1.695650
 20
1.706504
  0
VERTEX
  8
EBENE_3
 62
    39
  6
CONTINUOUS
 10
-1.692687
 20
1.707467
  0
VERTEX
  8
EBENE_3
 62
    39
  6
CONTINUOUS
 10
-1.689946
 20
1.708208
  0
VERTEX
  8
EBENE_3
 62
    39
  6
CONTINUOUS
 10
-1.687650
 20
1.708504
  0
VERTEX
  8
EBENE_3
 62
    39
  6
CONTINUOUS
 10
-1.687650
 20
1.711208
  0
VERTEX
  8
EBENE_3
 62
    39
  6
CONTINUOUS
 10
-1.687650
 20
1.713467
  0
VERTEX
  8
EBENE_3
 62
    39
  6
CONTINUOUS
 10
-1.687650
 20
1.715504
  0
VERTEX
  8
EBENE_3
 62
    39
  6
CONTINUOUS
 10
-1.662909
 20
1.730022
  0
VERTEX
  8
EBENE_3
 62
    39
  6
CONTINUOUS
 10
-1.628390
 20
1.752985
  0
VERTEX
  8
EBENE_3
 62
    39
  6
CONTINUOUS
 10
-1.607650
 20
1.765504
  0
VERTEX
  8
EBENE_3
 62
    39
  6
CONTINUOUS
 10
-1.607650
 20
1.768208
  0
VERTEX
  8
EBENE_3
 62
    39
  6
CONTINUOUS
 10
-1.607650
 20
1.770467
  0
VERTEX
  8
EBENE_3
 62
    39
  6
CONTINUOUS
 10
-1.607650
 20
1.772504
  0
VERTEX
  8
EBENE_3
 62
    39
  6
CONTINUOUS
 10
-1.563650
 20
1.800504
  0
VERTEX
  8
EBENE_3
 62
    39
  6
CONTINUOUS
 10
-1.519650
 20
1.828504
  0
VERTEX
  8
EBENE_3
 62
    39
  6
CONTINUOUS
 10
-1.475650
 20
1.856504
  0
VERTEX
  8
EBENE_3
 62
    39
  6
CONTINUOUS
 10
-1.442111
 20
1.874958
  0
VERTEX
  8
EBENE_3
 62
    39
  6
CONTINUOUS
 10
-1.408485
 20
1.892987
  0
VERTEX
  8
EBENE_3
 62
    39
  6
CONTINUOUS
 10
-1.374761
 20
1.910592
  0
VERTEX
  8
EBENE_3
 62
    39
  6
CONTINUOUS
 10
-1.340925
 20
1.927774
  0
VERTEX
  8
EBENE_3
 62
    39
  6
CONTINUOUS
 10
-1.306966
 20
1.944535
  0
VERTEX
  8
EBENE_3
 62
    39
  6
CONTINUOUS
 10
-1.272872
 20
1.960874
  0
VERTEX
  8
EBENE_3
 62
    39
  6
CONTINUOUS
 10
-1.238629
 20
1.976794
  0
VERTEX
  8
EBENE_3
 62
    39
  6
CONTINUOUS
 10
-1.204226
 20
1.992295
  0
VERTEX
  8
EBENE_3
 62
    39
  6
CONTINUOUS
 10
-1.169650
 20
2.007379
  0
VERTEX
  8
EBENE_3
 62
    39
  6
CONTINUOUS
 10
-1.134888
 20
2.022046
  0
VERTEX
  8
EBENE_3
 62
    39
  6
CONTINUOUS
 10
-1.099929
 20
2.036297
  0
VERTEX
  8
EBENE_3
 62
    39
  6
CONTINUOUS
 10
-1.064761
 20
2.050134
  0
VERTEX
  8
EBENE_3
 62
    39
  6
CONTINUOUS
 10
-1.029370
 20
2.063557
  0
VERTEX
  8
EBENE_3
 62
    39
  6
CONTINUOUS
 10
-0.993744
 20
2.076567
  0
VERTEX
  8
EBENE_3
 62
    39
  6
CONTINUOUS
 10
-0.957872
 20
2.089166
  0
VERTEX
  8
EBENE_3
 62
    39
  6
CONTINUOUS
 10
-0.921740
 20
2.101354
  0
VERTEX
  8
EBENE_3
 62
    39
  6
CONTINUOUS
 10
-0.885337
 20
2.113133
  0
VERTEX
  8
EBENE_3
 62
    39
  6
CONTINUOUS
 10
-0.848650
 20
2.124504
  0
VERTEX
  8
EBENE_3
 62
    39
  6
CONTINUOUS
 10
-0.800665
 20
2.135582
  0
VERTEX
  8
EBENE_3
 62
    39
  6
CONTINUOUS
 10
-0.752775
 20
2.146379
  0
VERTEX
  8
EBENE_3
 62
    39
  6
CONTINUOUS
 10
-0.705071
 20
2.156988
  0
VERTEX
  8
EBENE_3
 62
    39
  6
CONTINUOUS
 10
-0.657650
 20
2.167504
  0
VERTEX
  8
EBENE_3
 62
    39
  6
CONTINUOUS
 10
-0.619530
 20
2.172616
  0
VERTEX
  8
EBENE_3
 62
    39
  6
CONTINUOUS
 10
-0.581652
 20
2.177440
  0
VERTEX
  8
EBENE_3
 62
    39
  6
CONTINUOUS
 10
-0.543986
 20
2.181958
  0
VERTEX
  8
EBENE_3
 62
    39
  6
CONTINUOUS
 10
-0.506506
 20
2.186152
  0
VERTEX
  8
EBENE_3
 62
    39
  6
CONTINUOUS
 10
-0.469181
 20
2.190004
  0
VERTEX
  8
EBENE_3
 62
    39
  6
CONTINUOUS
 10
-0.431984
 20
2.193496
  0
VERTEX
  8
EBENE_3
 62
    39
  6
CONTINUOUS
 10
-0.394885
 20
2.196610
  0
VERTEX
  8
EBENE_3
 62
    39
  6
CONTINUOUS
 10
-0.357858
 20
2.199328
  0
VERTEX
  8
EBENE_3
 62
    39
  6
CONTINUOUS
 10
-0.320872
 20
2.201632
  0
VERTEX
  8
EBENE_3
 62
    39
  6
CONTINUOUS
 10
-0.283900
 20
2.203504
  0
VERTEX
  8
EBENE_3
 62
    39
  6
CONTINUOUS
 10
-0.246912
 20
2.204926
  0
VERTEX
  8
EBENE_3
 62
    39
  6
CONTINUOUS
 10
-0.209882
 20
2.205880
  0
VERTEX
  8
EBENE_3
 62
    39
  6
CONTINUOUS
 10
-0.172779
 20
2.206348
  0
VERTEX
  8
EBENE_3
 62
    39
  6
CONTINUOUS
 10
-0.135576
 20
2.206312
  0
VERTEX
  8
EBENE_3
 62
    39
  6
CONTINUOUS
 10
-0.098243
 20
2.205754
  0
VERTEX
  8
EBENE_3
 62
    39
  6
CONTINUOUS
 10
-0.060754
 20
2.204656
  0
VERTEX
  8
EBENE_3
 62
    39
  6
CONTINUOUS
 10
-0.023078
 20
2.203000
  0
VERTEX
  8
EBENE_3
 62
    39
  6
CONTINUOUS
 10
0.014812
 20
2.200768
  0
VERTEX
  8
EBENE_3
 62
    39
  6
CONTINUOUS
 10
0.052946
 20
2.197942
  0
VERTEX
  8
EBENE_3
 62
    39
  6
CONTINUOUS
 10
0.091350
 20
2.194504
  0
VERTEX
  8
EBENE_3
 62
    39
  6
CONTINUOUS
 10
0.188397
 20
2.180598
  0
VERTEX
  8
EBENE_3
 62
    39
  6
CONTINUOUS
 10
0.241475
 20
2.173254
  0
VERTEX
  8
EBENE_3
 62
    39
  6
CONTINUOUS
 10
0.269241
 20
2.170035
  0
VERTEX
  8
EBENE_3
 62
    39
  6
CONTINUOUS
 10
0.290350
 20
2.168504
  0
VERTEX
  8
EBENE_3
 62
    39
  6
CONTINUOUS
 10
0.291313
 20
2.166504
  0
VERTEX
  8
EBENE_3
 62
    39
  6
CONTINUOUS
 10
0.292054
 20
2.164504
  0
VERTEX
  8
EBENE_3
 62
    39
  6
CONTINUOUS
 10
0.292350
 20
2.162504
  0
VERTEX
  8
EBENE_3
 62
    39
  6
CONTINUOUS
 10
0.316678
 20
2.158256
  0
VERTEX
  8
EBENE_3
 62
    39
  6
CONTINUOUS
 10
0.340334
 20
2.153480
  0
VERTEX
  8
EBENE_3
 62
    39
  6
CONTINUOUS
 10
0.373926
 20
2.145728
  0
VERTEX
  8
EBENE_3
 62
    39
  6
CONTINUOUS
 10
0.428062
 20
2.132552
  0
VERTEX
  8
EBENE_3
 62
    39
  6
CONTINUOUS
 10
0.513350
 20
2.111504
  0
VERTEX
  8
EBENE_3
 62
    39
  6
CONTINUOUS
 10
0.543585
 20
2.097238
  0
VERTEX
  8
EBENE_3
 62
    39
  6
CONTINUOUS
 10
0.605975
 20
2.075379
  0
VERTEX
  8
EBENE_3
 62
    39
  6
CONTINUOUS
 10
0.669304
 20
2.054832
  0
VERTEX
  8
EBENE_3
 62
    39
  6
CONTINUOUS
 10
0.702350
 20
2.044504
  0
VERTEX
  8
EBENE_3
 62
    39
  6
CONTINUOUS
 10
0.712573
 20
2.038430
  0
VERTEX
  8
EBENE_3
 62
    39
  6
CONTINUOUS
 10
0.737462
 20
2.028578
  0
VERTEX
  8
EBENE_3
 62
    39
  6
CONTINUOUS
 10
0.798350
 20
2.006504
  0
VERTEX
  8
EBENE_3
 62
    39
  6
CONTINUOUS
 10
0.832656
 20
1.989980
  0
VERTEX
  8
EBENE_3
 62
    39
  6
CONTINUOUS
 10
0.866765
 20
1.973191
  0
VERTEX
  8
EBENE_3
 62
    39
  6
CONTINUOUS
 10
0.900670
 20
1.956112
  0
VERTEX
  8
EBENE_3
 62
    39
  6
CONTINUOUS
 10
0.934362
 20
1.938718
  0
VERTEX
  8
EBENE_3
 62
    39
  6
CONTINUOUS
 10
0.967832
 20
1.920985
  0
VERTEX
  8
EBENE_3
 62
    39
  6
CONTINUOUS
 10
1.001070
 20
1.902888
  0
VERTEX
  8
EBENE_3
 62
    39
  6
CONTINUOUS
 10
1.034069
 20
1.884401
  0
VERTEX
  8
EBENE_3
 62
    39
  6
CONTINUOUS
 10
1.066819
 20
1.865500
  0
VERTEX
  8
EBENE_3
 62
    39
  6
CONTINUOUS
 10
1.099310
 20
1.846160
  0
VERTEX
  8
EBENE_3
 62
    39
  6
CONTINUOUS
 10
1.131536
 20
1.826356
  0
VERTEX
  8
EBENE_3
 62
    39
  6
CONTINUOUS
 10
1.163485
 20
1.806063
  0
VERTEX
  8
EBENE_3
 62
    39
  6
CONTINUOUS
 10
1.195150
 20
1.785256
  0
VERTEX
  8
EBENE_3
 62
    39
  6
CONTINUOUS
 10
1.226522
 20
1.763910
  0
VERTEX
  8
EBENE_3
 62
    39
  6
CONTINUOUS
 10
1.257592
 20
1.742001
  0
VERTEX
  8
EBENE_3
 62
    39
  6
CONTINUOUS
 10
1.288350
 20
1.719504
  0
VERTEX
  8
EBENE_3
 62
    39
  6
CONTINUOUS
 10
1.325007
 20
1.695551
  0
VERTEX
  8
EBENE_3
 62
    39
  6
CONTINUOUS
 10
1.361100
 20
1.666629
  0
VERTEX
  8
EBENE_3
 62
    39
  6
CONTINUOUS
 10
1.396069
 20
1.636395
  0
VERTEX
  8
EBENE_3
 62
    39
  6
CONTINUOUS
 10
1.429350
 20
1.608504
  0
VERTEX
  8
EBENE_3
 62
    39
  6
CONTINUOUS
 10
1.429350
 20
1.606504
  0
VERTEX
  8
EBENE_3
 62
    39
  6
CONTINUOUS
 10
1.429350
 20
1.604504
  0
VERTEX
  8
EBENE_3
 62
    39
  6
CONTINUOUS
 10
1.429350
 20
1.602504
  0
VERTEX
  8
EBENE_3
 62
    39
  6
CONTINUOUS
 10
1.463869
 20
1.582097
  0
VERTEX
  8
EBENE_3
 62
    39
  6
CONTINUOUS
 10
1.496165
 20
1.549245
  0
VERTEX
  8
EBENE_3
 62
    39
  6
CONTINUOUS
 10
1.527350
 20
1.519504
  0
VERTEX
  8
EBENE_3
 62
    39
  6
CONTINUOUS
 10
1.553165
 20
1.488504
  0
VERTEX
  8
EBENE_3
 62
    39
  6
CONTINUOUS
 10
1.601869
 20
1.438171
  0
VERTEX
  8
EBENE_3
 62
    39
  6
CONTINUOUS
 10
1.636350
 20
1.408504
  0
VERTEX
  8
EBENE_3
 62
    39
  6
CONTINUOUS
 10
1.659313
 20
1.374578
  0
VERTEX
  8
EBENE_3
 62
    39
  6
CONTINUOUS
 10
1.690054
 20
1.342430
  0
VERTEX
  8
EBENE_3
 62
    39
  6
CONTINUOUS
 10
1.716350
 20
1.308504
  0
VERTEX
  8
EBENE_3
 62
    39
  6
CONTINUOUS
 10
1.746239
 20
1.283837
  0
VERTEX
  8
EBENE_3
 62
    39
  6
CONTINUOUS
 10
1.783462
 20
1.232504
  0
VERTEX
  8
EBENE_3
 62
    39
  6
CONTINUOUS
 10
1.809350
 20
1.188504
  0
VERTEX
  8
EBENE_3
 62
    39
  6
CONTINUOUS
 10
1.812054
 20
1.188504
  0
VERTEX
  8
EBENE_3
 62
    39
  6
CONTINUOUS
 10
1.814313
 20
1.188504
  0
VERTEX
  8
EBENE_3
 62
    39
  6
CONTINUOUS
 10
1.816350
 20
1.188504
  0
VERTEX
  8
EBENE_3
 62
    39
  6
CONTINUOUS
 10
1.851221
 20
1.137425
  0
VERTEX
  8
EBENE_3
 62
    39
  6
CONTINUOUS
 10
1.876647
 20
1.099874
  0
VERTEX
  8
EBENE_3
 62
    39
  6
CONTINUOUS
 10
1.896850
 20
1.069379
  0
VERTEX
  8
EBENE_3
 62
    39
  6
CONTINUOUS
 10
1.916054
 20
1.039467
  0
VERTEX
  8
EBENE_3
 62
    39
  6
CONTINUOUS
 10
1.938480
 20
1.003666
  0
VERTEX
  8
EBENE_3
 62
    39
  6
CONTINUOUS
 10
1.968350
 20
0.955504
  0
VERTEX
  8
EBENE_3
 62
    39
  6
CONTINUOUS
 10
1.987163
 20
0.919714
  0
VERTEX
  8
EBENE_3
 62
    39
  6
CONTINUOUS
 10
2.005464
 20
0.883898
  0
VERTEX
  8
EBENE_3
 62
    39
  6
CONTINUOUS
 10
2.023262
 20
0.848029
  0
VERTEX
  8
EBENE_3
 62
    39
  6
CONTINUOUS
 10
2.040566
 20
0.812081
  0
VERTEX
  8
EBENE_3
 62
    39
  6
CONTINUOUS
 10
2.057385
 20
0.776029
  0
VERTEX
  8
EBENE_3
 62
    39
  6
CONTINUOUS
 10
2.073726
 20
0.739845
  0
VERTEX
  8
EBENE_3
 62
    39
  6
CONTINUOUS
 10
2.089600
 20
0.703504
  0
VERTEX
  8
EBENE_3
 62
    39
  6
CONTINUOUS
 10
2.105015
 20
0.666979
  0
VERTEX
  8
EBENE_3
 62
    39
  6
CONTINUOUS
 10
2.119979
 20
0.630244
  0
VERTEX
  8
EBENE_3
 62
    39
  6
CONTINUOUS
 10
2.134502
 20
0.593274
  0
VERTEX
  8
EBENE_3
 62
    39
  6
CONTINUOUS
 10
2.148592
 20
0.556040
  0
VERTEX
  8
EBENE_3
 62
    39
  6
CONTINUOUS
 10
2.162257
 20
0.518519
  0
VERTEX
  8
EBENE_3
 62
    39
  6
CONTINUOUS
 10
2.175507
 20
0.480682
  0
VERTEX
  8
EBENE_3
 62
    39
  6
CONTINUOUS
 10
2.188350
 20
0.442504
  0
VERTEX
  8
EBENE_3
 62
    39
  6
CONTINUOUS
 10
2.198850
 20
0.397999
  0
VERTEX
  8
EBENE_3
 62
    39
  6
CONTINUOUS
 10
2.209350
 20
0.353467
  0
VERTEX
  8
EBENE_3
 62
    39
  6
CONTINUOUS
 10
2.219850
 20
0.308879
  0
VERTEX
  8
EBENE_3
 62
    39
  6
CONTINUOUS
 10
2.230350
 20
0.264208
  0
VERTEX
  8
EBENE_3
 62
    39
  6
CONTINUOUS
 10
2.240850
 20
0.219425
  0
VERTEX
  8
EBENE_3
 62
    39
  6
CONTINUOUS
 10
2.251350
 20
0.174504
  0
VERTEX
  8
EBENE_3
 62
    39
  6
CONTINUOUS
 10
2.259916
 20
0.117023
  0
VERTEX
  8
EBENE_3
 62
    39
  6
CONTINUOUS
 10
2.266365
 20
0.072941
  0
VERTEX
  8
EBENE_3
 62
    39
  6
CONTINUOUS
 10
2.271397
 20
0.036801
  0
VERTEX
  8
EBENE_3
 62
    39
  6
CONTINUOUS
 10
2.275712
 20
0.003145
  0
VERTEX
  8
EBENE_3
 62
    39
  6
CONTINUOUS
 10
2.280009
 20
-0.033484
  0
VERTEX
  8
EBENE_3
 62
    39
  6
CONTINUOUS
 10
2.284989
 20
-0.078546
  0
VERTEX
  8
EBENE_3
 62
    39
  6
CONTINUOUS
 10
2.291350
 20
-0.137496
  0
VERTEX
  8
EBENE_3
 62
    39
  6
CONTINUOUS
 10
2.291950
 20
-0.184296
  0
VERTEX
  8
EBENE_3
 62
    39
  6
CONTINUOUS
 10
2.292550
 20
-0.231096
  0
VERTEX
  8
EBENE_3
 62
    39
  6
CONTINUOUS
 10
2.293150
 20
-0.277896
  0
VERTEX
  8
EBENE_3
 62
    39
  6
CONTINUOUS
 10
2.293750
 20
-0.324696
  0
VERTEX
  8
EBENE_3
 62
    39
  6
CONTINUOUS
 10
2.294350
 20
-0.371496
  0
VERTEX
  8
EBENE_3
 62
    39
  6
CONTINUOUS
 10
2.292319
 20
-0.407457
  0
VERTEX
  8
EBENE_3
 62
    39
  6
CONTINUOUS
 10
2.289800
 20
-0.443338
  0
VERTEX
  8
EBENE_3
 62
    39
  6
CONTINUOUS
 10
2.286794
 20
-0.479134
  0
VERTEX
  8
EBENE_3
 62
    39
  6
CONTINUOUS
 10
2.283303
 20
-0.514840
  0
VERTEX
  8
EBENE_3
 62
    39
  6
CONTINUOUS
 10
2.279327
 20
-0.550451
  0
VERTEX
  8
EBENE_3
 62
    39
  6
CONTINUOUS
 10
2.274868
 20
-0.585965
  0
VERTEX
  8
EBENE_3
 62
    39
  6
CONTINUOUS
 10
2.269928
 20
-0.621375
  0
VERTEX
  8
EBENE_3
 62
    39
  6
CONTINUOUS
 10
2.264506
 20
-0.656678
  0
VERTEX
  8
EBENE_3
 62
    39
  6
CONTINUOUS
 10
2.258605
 20
-0.691868
  0
VERTEX
  8
EBENE_3
 62
    39
  6
CONTINUOUS
 10
2.252225
 20
-0.726942
  0
VERTEX
  8
EBENE_3
 62
    39
  6
CONTINUOUS
 10
2.245368
 20
-0.761895
  0
VERTEX
  8
EBENE_3
 62
    39
  6
CONTINUOUS
 10
2.238035
 20
-0.796722
  0
VERTEX
  8
EBENE_3
 62
    39
  6
CONTINUOUS
 10
2.230227
 20
-0.831419
  0
VERTEX
  8
EBENE_3
 62
    39
  6
CONTINUOUS
 10
2.221945
 20
-0.865981
  0
VERTEX
  8
EBENE_3
 62
    39
  6
CONTINUOUS
 10
2.213190
 20
-0.900405
  0
VERTEX
  8
EBENE_3
 62
    39
  6
CONTINUOUS
 10
2.203963
 20
-0.934684
  0
VERTEX
  8
EBENE_3
 62
    39
  6
CONTINUOUS
 10
2.194266
 20
-0.968815
  0
VERTEX
  8
EBENE_3
 62
    39
  6
CONTINUOUS
 10
2.184100
 20
-1.002794
  0
VERTEX
  8
EBENE_3
 62
    39
  6
CONTINUOUS
 10
2.173466
 20
-1.036616
  0
VERTEX
  8
EBENE_3
 62
    39
  6
CONTINUOUS
 10
2.162365
 20
-1.070275
  0
VERTEX
  8
EBENE_3
 62
    39
  6
CONTINUOUS
 10
2.150798
 20
-1.103769
  0
VERTEX
  8
EBENE_3
 62
    39
  6
CONTINUOUS
 10
2.138766
 20
-1.137092
  0
VERTEX
  8
EBENE_3
 62
    39
  6
CONTINUOUS
 10
2.126271
 20
-1.170239
  0
VERTEX
  8
EBENE_3
 62
    39
  6
CONTINUOUS
 10
2.113314
 20
-1.203207
  0
VERTEX
  8
EBENE_3
 62
    39
  6
CONTINUOUS
 10
2.099895
 20
-1.235991
  0
VERTEX
  8
EBENE_3
 62
    39
  6
CONTINUOUS
 10
2.086017
 20
-1.268586
  0
VERTEX
  8
EBENE_3
 62
    39
  6
CONTINUOUS
 10
2.071679
 20
-1.300988
  0
VERTEX
  8
EBENE_3
 62
    39
  6
CONTINUOUS
 10
2.056884
 20
-1.333191
  0
VERTEX
  8
EBENE_3
 62
    39
  6
CONTINUOUS
 10
2.041633
 20
-1.365193
  0
VERTEX
  8
EBENE_3
 62
    39
  6
CONTINUOUS
 10
2.025925
 20
-1.396988
  0
VERTEX
  8
EBENE_3
 62
    39
  6
CONTINUOUS
 10
2.009764
 20
-1.428571
  0
VERTEX
  8
EBENE_3
 62
    39
  6
CONTINUOUS
 10
1.993150
 20
-1.459939
  0
VERTEX
  8
EBENE_3
 62
    39
  6
CONTINUOUS
 10
1.976083
 20
-1.491087
  0
VERTEX
  8
EBENE_3
 62
    39
  6
CONTINUOUS
 10
1.958566
 20
-1.522009
  0
VERTEX
  8
EBENE_3
 62
    39
  6
CONTINUOUS
 10
1.940600
 20
-1.552703
  0
VERTEX
  8
EBENE_3
 62
    39
  6
CONTINUOUS
 10
1.922185
 20
-1.583162
  0
VERTEX
  8
EBENE_3
 62
    39
  6
CONTINUOUS
 10
1.903322
 20
-1.613384
  0
VERTEX
  8
EBENE_3
 62
    39
  6
CONTINUOUS
 10
1.884013
 20
-1.643362
  0
VERTEX
  8
EBENE_3
 62
    39
  6
CONTINUOUS
 10
1.864260
 20
-1.673093
  0
VERTEX
  8
EBENE_3
 62
    39
  6
CONTINUOUS
 10
1.844062
 20
-1.702572
  0
VERTEX
  8
EBENE_3
 62
    39
  6
CONTINUOUS
 10
1.823422
 20
-1.731795
  0
VERTEX
  8
EBENE_3
 62
    39
  6
CONTINUOUS
 10
1.802341
 20
-1.760757
  0
VERTEX
  8
EBENE_3
 62
    39
  6
CONTINUOUS
 10
1.780819
 20
-1.789454
  0
VERTEX
  8
EBENE_3
 62
    39
  6
CONTINUOUS
 10
1.758858
 20
-1.817880
  0
VERTEX
  8
EBENE_3
 62
    39
  6
CONTINUOUS
 10
1.736458
 20
-1.846033
  0
VERTEX
  8
EBENE_3
 62
    39
  6
CONTINUOUS
 10
1.713622
 20
-1.873906
  0
VERTEX
  8
EBENE_3
 62
    39
  6
CONTINUOUS
 10
1.690350
 20
-1.901496
  0
VERTEX
  8
EBENE_3
 62
    39
  6
CONTINUOUS
 10
1.690350
 20
-1.901496
  0
VERTEX
  8
EBENE_3
 62
    39
  6
CONTINUOUS
 10
1.658647
 20
-1.928762
  0
VERTEX
  8
EBENE_3
 62
    39
  6
CONTINUOUS
 10
1.630225
 20
-1.963621
  0
VERTEX
  8
EBENE_3
 62
    39
  6
CONTINUOUS
 10
1.601616
 20
-1.998668
  0
VERTEX
  8
EBENE_3
 62
    39
  6
CONTINUOUS
 10
1.569350
 20
-2.026496
  0
VERTEX
  8
EBENE_3
 62
    39
  6
CONTINUOUS
 10
1.538758
 20
-2.057496
  0
VERTEX
  8
EBENE_3
 62
    39
  6
CONTINUOUS
 10
1.493276
 20
-2.101163
  0
VERTEX
  8
EBENE_3
 62
    39
  6
CONTINUOUS
 10
1.463350
 20
-2.131496
  0
VERTEX
  8
EBENE_3
 62
    39
  6
CONTINUOUS
 10
1.434042
 20
-2.154987
  0
VERTEX
  8
EBENE_3
 62
    39
  6
CONTINUOUS
 10
1.404688
 20
-2.178162
  0
VERTEX
  8
EBENE_3
 62
    39
  6
CONTINUOUS
 10
1.375265
 20
-2.201019
  0
VERTEX
  8
EBENE_3
 62
    39
  6
CONTINUOUS
 10
1.345747
 20
-2.223554
  0
VERTEX
  8
EBENE_3
 62
    39
  6
CONTINUOUS
 10
1.316111
 20
-2.245762
  0
VERTEX
  8
EBENE_3
 62
    39
  6
CONTINUOUS
 10
1.286333
 20
-2.267641
  0
VERTEX
  8
EBENE_3
 62
    39
  6
CONTINUOUS
 10
1.256387
 20
-2.289186
  0
VERTEX
  8
EBENE_3
 62
    39
  6
CONTINUOUS
 10
1.226249
 20
-2.310394
  0
VERTEX
  8
EBENE_3
 62
    39
  6
CONTINUOUS
 10
1.195895
 20
-2.331262
  0
VERTEX
  8
EBENE_3
 62
    39
  6
CONTINUOUS
 10
1.165300
 20
-2.351785
  0
VERTEX
  8
EBENE_3
 62
    39
  6
CONTINUOUS
 10
1.134441
 20
-2.371960
  0
VERTEX
  8
EBENE_3
 62
    39
  6
CONTINUOUS
 10
1.103292
 20
-2.391783
  0
VERTEX
  8
EBENE_3
 62
    39
  6
CONTINUOUS
 10
1.071829
 20
-2.411251
  0
VERTEX
  8
EBENE_3
 62
    39
  6
CONTINUOUS
 10
1.040028
 20
-2.430360
  0
VERTEX
  8
EBENE_3
 62
    39
  6
CONTINUOUS
 10
1.007864
 20
-2.449106
  0
VERTEX
  8
EBENE_3
 62
    39
  6
CONTINUOUS
 10
0.975313
 20
-2.467486
  0
VERTEX
  8
EBENE_3
 62
    39
  6
CONTINUOUS
 10
0.942350
 20
-2.485496
  0
VERTEX
  8
EBENE_3
 62
    39
  6
CONTINUOUS
 10
0.889929
 20
-2.509755
  0
VERTEX
  8
EBENE_3
 62
    39
  6
CONTINUOUS
 10
0.850980
 20
-2.527570
  0
VERTEX
  8
EBENE_3
 62
    39
  6
CONTINUOUS
 10
0.818475
 20
-2.541996
  0
VERTEX
  8
EBENE_3
 62
    39
  6
CONTINUOUS
 10
0.785387
 20
-2.556089
  0
VERTEX
  8
EBENE_3
 62
    39
  6
CONTINUOUS
 10
0.744688
 20
-2.572903
  0
VERTEX
  8
EBENE_3
 62
    39
  6
CONTINUOUS
 10
0.689350
 20
-2.595496
  0
VERTEX
  8
EBENE_3
 62
    39
  6
CONTINUOUS
 10
0.652842
 20
-2.607275
  0
VERTEX
  8
EBENE_3
 62
    39
  6
CONTINUOUS
 10
0.616427
 20
-2.618615
  0
VERTEX
  8
EBENE_3
 62
    39
  6
CONTINUOUS
 10
0.580078
 20
-2.629525
  0
VERTEX
  8
EBENE_3
 62
    39
  6
CONTINUOUS
 10
0.543772
 20
-2.640012
  0
VERTEX
  8
EBENE_3
 62
    39
  6
CONTINUOUS
 10
0.507484
 20
-2.650082
  0
VERTEX
  8
EBENE_3
 62
    39
  6
CONTINUOUS
 10
0.471188
 20
-2.659744
  0
VERTEX
  8
EBENE_3
 62
    39
  6
CONTINUOUS
 10
0.434860
 20
-2.669005
  0
VERTEX
  8
EBENE_3
 62
    39
  6
CONTINUOUS
 10
0.398475
 20
-2.677871
  0
VERTEX
  8
EBENE_3
 62
    39
  6
CONTINUOUS
 10
0.362008
 20
-2.686351
  0
VERTEX
  8
EBENE_3
 62
    39
  6
CONTINUOUS
 10
0.325434
 20
-2.694451
  0
VERTEX
  8
EBENE_3
 62
    39
  6
CONTINUOUS
 10
0.288729
 20
-2.702179
  0
VERTEX
  8
EBENE_3
 62
    39
  6
CONTINUOUS
 10
0.251866
 20
-2.709543
  0
VERTEX
  8
EBENE_3
 62
    39
  6
CONTINUOUS
 10
0.214822
 20
-2.716549
  0
VERTEX
  8
EBENE_3
 62
    39
  6
CONTINUOUS
 10
0.177571
 20
-2.723205
  0
VERTEX
  8
EBENE_3
 62
    39
  6
CONTINUOUS
 10
0.140089
 20
-2.729518
  0
VERTEX
  8
EBENE_3
 62
    39
  6
CONTINUOUS
 10
0.102350
 20
-2.735496
  0
VERTEX
  8
EBENE_3
 62
    39
  6
CONTINUOUS
 10
0.051313
 20
-2.739792
  0
VERTEX
  8
EBENE_3
 62
    39
  6
CONTINUOUS
 10
0.000054
 20
-2.744533
  0
VERTEX
  8
EBENE_3
 62
    39
  6
CONTINUOUS
 10
-0.051650
 20
-2.749496
  0
VERTEX
  8
EBENE_3
 62
    39
  6
CONTINUOUS
 10
-0.089290
 20
-2.749341
  0
VERTEX
  8
EBENE_3
 62
    39
  6
CONTINUOUS
 10
-0.126626
 20
-2.748868
  0
VERTEX
  8
EBENE_3
 62
    39
  6
CONTINUOUS
 10
-0.163679
 20
-2.748069
  0
VERTEX
  8
EBENE_3
 62
    39
  6
CONTINUOUS
 10
-0.200472
 20
-2.746932
  0
VERTEX
  8
EBENE_3
 62
    39
  6
CONTINUOUS
 10
-0.237026
 20
-2.745448
  0
VERTEX
  8
EBENE_3
 62
    39
  6
CONTINUOUS
 10
-0.273362
 20
-2.743607
  0
VERTEX
  8
EBENE_3
 62
    39
  6
CONTINUOUS
 10
-0.309504
 20
-2.741399
  0
VERTEX
  8
EBENE_3
 62
    39
  6
CONTINUOUS
 10
-0.345473
 20
-2.738814
  0
VERTEX
  8
EBENE_3
 62
    39
  6
CONTINUOUS
 10
-0.381290
 20
-2.735841
  0
VERTEX
  8
EBENE_3
 62
    39
  6
CONTINUOUS
 10
-0.416978
 20
-2.732472
  0
VERTEX
  8
EBENE_3
 62
    39
  6
CONTINUOUS
 10
-0.452558
 20
-2.728696
  0
VERTEX
  8
EBENE_3
 62
    39
  6
CONTINUOUS
 10
-0.488053
 20
-2.724502
  0
VERTEX
  8
EBENE_3
 62
    39
  6
CONTINUOUS
 10
-0.523483
 20
-2.719882
  0
VERTEX
  8
EBENE_3
 62
    39
  6
CONTINUOUS
 10
-0.558873
 20
-2.714824
  0
VERTEX
  8
EBENE_3
 62
    39
  6
CONTINUOUS
 10
-0.594242
 20
-2.709320
  0
VERTEX
  8
EBENE_3
 62
    39
  6
CONTINUOUS
 10
-0.629613
 20
-2.703359
  0
VERTEX
  8
EBENE_3
 62
    39
  6
CONTINUOUS
 10
-0.665007
 20
-2.696930
  0
VERTEX
  8
EBENE_3
 62
    39
  6
CONTINUOUS
 10
-0.700448
 20
-2.690025
  0
VERTEX
  8
EBENE_3
 62
    39
  6
CONTINUOUS
 10
-0.735956
 20
-2.682633
  0
VERTEX
  8
EBENE_3
 62
    39
  6
CONTINUOUS
 10
-0.771554
 20
-2.674744
  0
VERTEX
  8
EBENE_3
 62
    39
  6
CONTINUOUS
 10
-0.807263
 20
-2.666348
  0
VERTEX
  8
EBENE_3
 62
    39
  6
CONTINUOUS
 10
-0.843105
 20
-2.657435
  0
VERTEX
  8
EBENE_3
 62
    39
  6
CONTINUOUS
 10
-0.879102
 20
-2.647996
  0
VERTEX
  8
EBENE_3
 62
    39
  6
CONTINUOUS
 10
-0.915276
 20
-2.638019
  0
VERTEX
  8
EBENE_3
 62
    39
  6
CONTINUOUS
 10
-0.951650
 20
-2.627496
  0
VERTEX
  8
EBENE_3
 62
    39
  6
CONTINUOUS
 10
-0.951650
 20
-2.627496
  0
VERTEX
  8
EBENE_3
 62
    39
  6
CONTINUOUS
 10
-0.987562
 20
-2.613902
  0
VERTEX
  8
EBENE_3
 62
    39
  6
CONTINUOUS
 10
-1.023306
 20
-2.599904
  0
VERTEX
  8
EBENE_3
 62
    39
  6
CONTINUOUS
 10
-1.058888
 20
-2.585523
  0
VERTEX
  8
EBENE_3
 62
    39
  6
CONTINUOUS
 10
-1.094317
 20
-2.570782
  0
VERTEX
  8
EBENE_3
 62
    39
  6
CONTINUOUS
 10
-1.129601
 20
-2.555703
  0
VERTEX
  8
EBENE_3
 62
    39
  6
CONTINUOUS
 10
-1.164749
 20
-2.540306
  0
VERTEX
  8
EBENE_3
 62
    39
  6
CONTINUOUS
 10
-1.199769
 20
-2.524615
  0
VERTEX
  8
EBENE_3
 62
    39
  6
CONTINUOUS
 10
-1.234668
 20
-2.508650
  0
VERTEX
  8
EBENE_3
 62
    39
  6
CONTINUOUS
 10
-1.269456
 20
-2.492435
  0
VERTEX
  8
EBENE_3
 62
    39
  6
CONTINUOUS
 10
-1.304139
 20
-2.475989
  0
VERTEX
  8
EBENE_3
 62
    39
  6
CONTINUOUS
 10
-1.338727
 20
-2.459337
  0
VERTEX
  8
EBENE_3
 62
    39
  6
CONTINUOUS
 10
-1.373228
 20
-2.442498
  0
VERTEX
  8
EBENE_3
 62
    39
  6
CONTINUOUS
 10
-1.407650
 20
-2.425496
  0
VERTEX
  8
EBENE_3
 62
    39
  6
CONTINUOUS
 10
-1.488089
 20
-2.374968
  0
VERTEX
  8
EBENE_3
 62
    39
  6
CONTINUOUS
 10
-1.547501
 20
-2.337274
  0
VERTEX
  8
EBENE_3
 62
    39
  6
CONTINUOUS
 10
-1.589025
 20
-2.310746
  0
VERTEX
  8
EBENE_3
 62
    39
  6
CONTINUOUS
 10
-1.615798
 20
-2.293718
  0
VERTEX
  8
EBENE_3
 62
    39
  6
CONTINUOUS
 10
-1.630960
 20
-2.284524
  0
VERTEX
  8
EBENE_3
 62
    39
  6
CONTINUOUS
 10
-1.637650
 20
-2.281496
  0
VERTEX
  8
EBENE_3
 62
    39
  6
CONTINUOUS
 10
-1.637650
 20
-2.278792
  0
VERTEX
  8
EBENE_3
 62
    39
  6
CONTINUOUS
 10
-1.637650
 20
-2.276533
  0
VERTEX
  8
EBENE_3
 62
    39
  6
CONTINUOUS
 10
-1.637650
 20
-2.274496
  0
VERTEX
  8
EBENE_3
 62
    39
  6
CONTINUOUS
 10
-1.683608
 20
-2.239991
  0
VERTEX
  8
EBENE_3
 62
    39
  6
CONTINUOUS
 10
-1.717316
 20
-2.214459
  0
VERTEX
  8
EBENE_3
 62
    39
  6
CONTINUOUS
 10
-1.744525
 20
-2.193371
  0
VERTEX
  8
EBENE_3
 62
    39
  6
CONTINUOUS
 10
-1.770983
 20
-2.172200
  0
VERTEX
  8
EBENE_3
 62
    39
  6
CONTINUOUS
 10
-1.802441
 20
-2.146417
  0
VERTEX
  8
EBENE_3
 62
    39
  6
CONTINUOUS
 10
-1.844650
 20
-2.111496
  0
VERTEX
  8
EBENE_3
 62
    39
  6
CONTINUOUS
 10
-1.874909
 20
-2.076533
  0
VERTEX
  8
EBENE_3
 62
    39
  6
CONTINUOUS
 10
-1.916724
 20
-2.044459
  0
VERTEX
  8
EBENE_3
 62
    39
  6
CONTINUOUS
 10
-1.947650
 20
-2.007496
  0
VERTEX
  8
EBENE_3
 62
    39
  6
CONTINUOUS
 10
-1.955835
 20
-2.001978
  0
VERTEX
  8
EBENE_3
 62
    39
  6
CONTINUOUS
 10
-1.965131
 20
-1.992681
  0
VERTEX
  8
EBENE_3
 62
    39
  6
CONTINUOUS
 10
-1.970650
 20
-1.984496
  0
VERTEX
  8
EBENE_3
 62
    39
  6
CONTINUOUS
 10
-1.972687
 20
-1.984496
  0
VERTEX
  8
EBENE_3
 62
    39
  6
CONTINUOUS
 10
-1.974946
 20
-1.984496
  0
VERTEX
  8
EBENE_3
 62
    39
  6
CONTINUOUS
 10
-1.977650
 20
-1.984496
  0
VERTEX
  8
EBENE_3
 62
    39
  6
CONTINUOUS
 10
-1.984094
 20
-1.969941
  0
VERTEX
  8
EBENE_3
 62
    39
  6
CONTINUOUS
 10
-1.998538
 20
-1.958052
  0
VERTEX
  8
EBENE_3
 62
    39
  6
CONTINUOUS
 10
-2.013650
 20
-1.951496
  0
VERTEX
  8
EBENE_3
 62
    39
  6
CONTINUOUS
 10
-2.018576
 20
-1.941866
  0
VERTEX
  8
EBENE_3
 62
    39
  6
CONTINUOUS
 10
-2.039057
 20
-1.916459
  0
VERTEX
  8
EBENE_3
 62
    39
  6
CONTINUOUS
 10
-2.092650
 20
-1.853496
  0
VERTEX
  8
EBENE_3
 62
    39
  6
CONTINUOUS
 10
-2.112131
 20
-1.839200
  0
VERTEX
  8
EBENE_3
 62
    39
  6
CONTINUOUS
 10
-2.129835
 20
-1.811126
  0
VERTEX
  8
EBENE_3
 62
    39
  6
CONTINUOUS
 10
-2.150650
 20
-1.791496
  0
VERTEX
  8
EBENE_3
 62
    39
  6
CONTINUOUS
 10
-2.150687
 20
-1.787792
  0
VERTEX
  8
EBENE_3
 62
    39
  6
CONTINUOUS
 10
-2.150946
 20
-1.784533
  0
VERTEX
  8
EBENE_3
 62
    39
  6
CONTINUOUS
 10
-2.151650
 20
-1.781496
  0
VERTEX
  8
EBENE_3
 62
    39
  6
CONTINUOUS
 10
-2.182250
 20
-1.738172
  0
VERTEX
  8
EBENE_3
 62
    39
  6
CONTINUOUS
 10
-2.205679
 20
-1.704785
  0
VERTEX
  8
EBENE_3
 62
    39
  6
CONTINUOUS
 10
-2.224804
 20
-1.677065
  0
VERTEX
  8
EBENE_3
 62
    39
  6
CONTINUOUS
 10
-2.242495
 20
-1.650744
  0
VERTEX
  8
EBENE_3
 62
    39
  6
CONTINUOUS
 10
-2.261620
 20
-1.621554
  0
VERTEX
  8
EBENE_3
 62
    39
  6
CONTINUOUS
 10
-2.285049
 20
-1.585228
  0
VERTEX
  8
EBENE_3
 62
    39
  6
CONTINUOUS
 10
-2.315650
 20
-1.537496
  0
VERTEX
  8
EBENE_3
 62
    39
  6
CONTINUOUS
 10
-2.315650
 20
-1.537496
  0
VERTEX
  8
EBENE_3
 62
    39
  6
CONTINUOUS
 10
-2.334038
 20
-1.503642
  0
VERTEX
  8
EBENE_3
 62
    39
  6
CONTINUOUS
 10
-2.352008
 20
-1.469673
  0
VERTEX
  8
EBENE_3
 62
    39
  6
CONTINUOUS
 10
-2.369570
 20
-1.435584
  0
VERTEX
  8
EBENE_3
 62
    39
  6
CONTINUOUS
 10
-2.386731
 20
-1.401367
  0
VERTEX
  8
EBENE_3
 62
    39
  6
CONTINUOUS
 10
-2.403501
 20
-1.367015
  0
VERTEX
  8
EBENE_3
 62
    39
  6
CONTINUOUS
 10
-2.419890
 20
-1.332520
  0
VERTEX
  8
EBENE_3
 62
    39
  6
CONTINUOUS
 10
-2.435904
 20
-1.297876
  0
VERTEX
  8
EBENE_3
 62
    39
  6
CONTINUOUS
 10
-2.451555
 20
-1.263076
  0
VERTEX
  8
EBENE_3
 62
    39
  6
CONTINUOUS
 10
-2.466850
 20
-1.228112
  0
VERTEX
  8
EBENE_3
 62
    39
  6
CONTINUOUS
 10
-2.481798
 20
-1.192978
  0
VERTEX
  8
EBENE_3
 62
    39
  6
CONTINUOUS
 10
-2.496408
 20
-1.157665
  0
VERTEX
  8
EBENE_3
 62
    39
  6
CONTINUOUS
 10
-2.510690
 20
-1.122168
  0
VERTEX
  8
EBENE_3
 62
    39
  6
CONTINUOUS
 10
-2.524651
 20
-1.086479
  0
VERTEX
  8
EBENE_3
 62
    39
  6
CONTINUOUS
 10
-2.538301
 20
-1.050591
  0
VERTEX
  8
EBENE_3
 62
    39
  6
CONTINUOUS
 10
-2.551650
 20
-1.014496
  0
VERTEX
  8
EBENE_3
 62
    39
  6
CONTINUOUS
 10
-2.563821
 20
-0.970246
  0
VERTEX
  8
EBENE_3
 62
    39
  6
CONTINUOUS
 10
-2.576275
 20
-0.925996
  0
VERTEX
  8
EBENE_3
 62
    39
  6
CONTINUOUS
 10
-2.588915
 20
-0.881746
  0
VERTEX
  8
EBENE_3
 62
    39
  6
CONTINUOUS
 10
-2.601650
 20
-0.837496
  0
VERTEX
  8
EBENE_3
 62
    39
  6
CONTINUOUS
 10
-2.609445
 20
-0.799136
  0
VERTEX
  8
EBENE_3
 62
    39
  6
CONTINUOUS
 10
-2.616714
 20
-0.760912
  0
VERTEX
  8
EBENE_3
 62
    39
  6
CONTINUOUS
 10
-2.623471
 20
-0.722797
  0
VERTEX
  8
EBENE_3
 62
    39
  6
CONTINUOUS
 10
-2.629728
 20
-0.684762
  0
VERTEX
  8
EBENE_3
 62
    39
  6
CONTINUOUS
 10
-2.635498
 20
-0.646780
  0
VERTEX
  8
EBENE_3
 62
    39
  6
CONTINUOUS
 10
-2.640796
 20
-0.608822
  0
VERTEX
  8
EBENE_3
 62
    39
  6
CONTINUOUS
 10
-2.645634
 20
-0.570862
  0
VERTEX
  8
EBENE_3
 62
    39
  6
CONTINUOUS
 10
-2.650025
 20
-0.532871
  0
VERTEX
  8
EBENE_3
 62
    39
  6
CONTINUOUS
 10
-2.653982
 20
-0.494822
  0
VERTEX
  8
EBENE_3
 62
    39
  6
CONTINUOUS
 10
-2.657519
 20
-0.456686
  0
VERTEX
  8
EBENE_3
 62
    39
  6
CONTINUOUS
 10
-2.660648
 20
-0.418435
  0
VERTEX
  8
EBENE_3
 62
    39
  6
CONTINUOUS
 10
-2.663384
 20
-0.380043
  0
VERTEX
  8
EBENE_3
 62
    39
  6
CONTINUOUS
 10
-2.665739
 20
-0.341481
  0
VERTEX
  8
EBENE_3
 62
    39
  6
CONTINUOUS
 10
-2.667726
 20
-0.302721
  0
VERTEX
  8
EBENE_3
 62
    39
  6
CONTINUOUS
 10
-2.669358
 20
-0.263735
  0
VERTEX
  8
EBENE_3
 62
    39
  6
CONTINUOUS
 10
-2.670650
 20
-0.224496
  0
SEQEND
  8
0
  0
ENDSEC
  0
EOF
