  0
SECTION
  2
HEADER
  9
$ACADVER
  1
AC1014
  9
$ACADMAINTVER
 70
     0
  9
$DWGCODEPAGE
  3
ANSI_1252
  9
$INSBASE
 10
0.0
 20
0.0
 30
0.0
  9
$EXTMIN
 10
1.000000E+20
 20
1.000000E+20
 30
1.000000E+20
  9
$EXTMAX
 10
-1.000000E+20
 20
-1.000000E+20
 30
-1.000000E+20
  9
$LIMMIN
 10
0.0
 20
0.0
  9
$LIMMAX
 10
0.0
 20
0.0
  9
$ORTHOMODE
 70
     0
  9
$REGENMODE
 70
     1
  9
$FILLMODE
 70
     1
  9
$QTEXTMODE
 70
     0
  9
$MIRRTEXT
 70
     1
  9
$DRAGMODE
 70
     2
  9
$LTSCALE
 40
1.0
  9
$OSMODE
 70
     0
  9
$ATTMODE
 70
     1
  9
$TEXTSIZE
 40
0.2
  9
$TRACEWID
 40
0.05
  9
$TEXTSTYLE
  7
STANDARD
  9
$CLAYER
  8
0
  9
$CELTYPE
  6
CONTINUOUS
  9
$CECOLOR
 62
   256
  9
$CELTSCALE
 40
1.0
  9
$DELOBJ
 70
     1
  9
$DISPSILH
 70
     0
  9
$DIMSCALE
 40
1.0
  9
$DIMASZ
 40
0.18
  9
$DIMEXO
 40
0.0625
  9
$DIMDLI
 40
0.38
  9
$DIMRND
 40
0.0
  9
$DIMDLE
 40
0.0
  9
$DIMEXE
 40
0.18
  9
$DIMTP
 40
0.0
  9
$DIMTM
 40
0.0
  9
$DIMTXT
 40
0.18
  9
$DIMCEN
 40
0.09
  9
$DIMTSZ
 40
0.0
  9
$DIMTOL
 70
     0
  9
$DIMLIM
 70
     0
  9
$DIMTIH
 70
     1
  9
$DIMTOH
 70
     1
  9
$DIMSE1
 70
     0
  9
$DIMSE2
 70
     0
  9
$DIMTAD
 70
     0
  9
$DIMZIN
 70
     0
  9
$DIMBLK
  1

  9
$DIMASO
 70
     1
  9
$DIMSHO
 70
     1
  9
$DIMPOST
  1

  9
$DIMAPOST
  1

  9
$DIMALT
 70
     0
  9
$DIMALTD
 70
     2
  9
$DIMALTF
 40
25.4
  9
$DIMLFAC
 40
1.0
  9
$DIMTOFL
 70
     0
  9
$DIMTVP
 40
0.0
  9
$DIMTIX
 70
     0
  9
$DIMSOXD
 70
     0
  9
$DIMSAH
 70
     0
  9
$DIMBLK1
  1

  9
$DIMBLK2
  1

  9
$DIMSTYLE
  2
STANDARD
  9
$DIMCLRD
 70
     0
  9
$DIMCLRE
 70
     0
  9
$DIMCLRT
 70
     0
  9
$DIMTFAC
 40
1.0
  9
$DIMGAP
 40
0.09
  9
$DIMJUST
 70
     0
  9
$DIMSD1
 70
     0
  9
$DIMSD2
 70
     0
  9
$DIMTOLJ
 70
     1
  9
$DIMTZIN
 70
     0
  9
$DIMALTZ
 70
     0
  9
$DIMALTTZ
 70
     0
  9
$DIMFIT
 70
     3
  9
$DIMUPT
 70
     0
  9
$DIMUNIT
 70
     2
  9
$DIMDEC
 70
     4
  9
$DIMTDEC
 70
     4
  9
$DIMALTU
 70
     2
  9
$DIMALTTD
 70
     2
  9
$DIMTXSTY
  7
STANDARD
  9
$DIMAUNIT
 70
     0
  9
$LUNITS
 70
     2
  9
$LUPREC
 70
     4
  9
$SKETCHINC
 40
0.1
  9
$FILLETRAD
 40
0.0
  9
$AUNITS
 70
     0
  9
$AUPREC
 70
     0
  9
$MENU
  1
acad
  9
$ELEVATION
 40
0.0
  9
$PELEVATION
 40
0.0
  9
$THICKNESS
 40
0.0
  9
$LIMCHECK
 70
     0
  9
$BLIPMODE
 70
     1
  9
$CHAMFERA
 40
0.0
  9
$CHAMFERB
 40
0.0
  9
$CHAMFERC
 40
0.0
  9
$CHAMFERD
 40
0.0
  9
$SKPOLY
 70
     0
  9
$TDCREATE
 40
0.000000000
  9
$TDUPDATE
 40
0.000000000
  9
$TDINDWG
 40
0.0000000000
  9
$TDUSRTIMER
 40
0.0000000000
  9
$USRTIMER
 70
     1
  9
$ANGBASE
 50
0.0
  9
$ANGDIR
 70
     0
  9
$PDMODE
 70
     0
  9
$PDSIZE
 40
0.0
  9
$PLINEWID
 40
0.0
  9
$COORDS
 70
     0
  9
$SPLFRAME
 70
     0
  9
$SPLINETYPE
 70
     6
  9
$SPLINESEGS
 70
     8
  9
$ATTDIA
 70
     0
  9
$ATTREQ
 70
     1
  9
$HANDLING
 70
     1
  9
$HANDSEED
  5
4B
  9
$SURFTAB1
 70
     6
  9
$SURFTAB2
 70
     6
  9
$SURFTYPE
 70
     6
  9
$SURFU
 70
     6
  9
$SURFV
 70
     6
  9
$UCSNAME
  2

  9
$UCSORG
 10
0.0
 20
0.0
 30
0.0
  9
$UCSXDIR
 10
1.0
 20
0.0
 30
0.0
  9
$UCSYDIR
 10
0.0
 20
1.0
 30
0.0
  9
$PUCSNAME
  2

  9
$PUCSORG
 10
0.0
 20
0.0
 30
0.0
  9
$PUCSXDIR
 10
1.0
 20
0.0
 30
0.0
  9
$PUCSYDIR
 10
0.0
 20
1.0
 30
0.0
  9
$USERI1
 70
     0
  9
$USERI2
 70
     0
  9
$USERI3
 70
     0
  9
$USERI4
 70
     0
  9
$USERI5
 70
     0
  9
$USERR1
 40
0.0
  9
$USERR2
 40
0.0
  9
$USERR3
 40
0.0
  9
$USERR4
 40
0.0
  9
$USERR5
 40
0.0
  9
$WORLDVIEW
 70
     1
  9
$SHADEDGE
 70
     3
  9
$SHADEDIF
 70
    70
  9
$TILEMODE
 70
     1
  9
$MAXACTVP
 70
    16
  9
$PINSBASE
 10
0.0
 20
0.0
 30
0.0
  9
$PLIMCHECK
 70
     0
  9
$PEXTMIN
 10
1.000000E+20
 20
1.000000E+20
 30
1.000000E+20
  9
$PEXTMAX
 10
-1.000000E+20
 20
-1.000000E+20
 30
-1.000000E+20
  9
$PLIMMIN
 10
0.0
 20
0.0
  9
$PLIMMAX
 10
12.0
 20
9.0
  9
$UNITMODE
 70
     0
  9
$VISRETAIN
 70
     0
  9
$PLINEGEN
 70
     1
  9
$PSLTSCALE
 70
     0
  9
$TREEDEPTH
 70
  3020
  9
$PICKSTYLE
 70
     1
  9
$CMLSTYLE
  2
STANDARD
  9
$CMLJUST
 70
     0
  9
$CMLSCALE
 40
1.0
  9
$PROXYGRAPHICS
 70
     0
  9
$MEASUREMENT
 70
     0
  0
ENDSEC
  0
SECTION
  2
CLASSES
  0
CLASS
  1
LWPOLYLINE
  2
AcDbPolyline
  3
"AutoCAD"
 90
        0
280
     0
281
     1
  0
CLASS
  1
IMAGE
  2
AcDbRasterImage
  3
ISM
 90
      127
280
     0
281
     1
  0
CLASS
  1
OLE2FRAME
  2
AcDbOle2Frame
  3
""
 90
        0
280
     0
281
     1
  0
CLASS
  1
HATCH
  2
AcDbHatch
  3
"ACAD_SEDONA"
 90
        0
280
     0
281
     1
  0
CLASS
  1
DICTIONARYVAR
  2
AcDbDictionaryVar
  3
"AutoCAD"
 90
        0
280
     0
281
     0
  0
CLASS
  1
RASTERVARIABLES
  2
AcDbRasterVariables
  3
ISM
 90
        0
280
     0
281
     0
  0
CLASS
  1
IMAGEDEF
  2
AcDbRasterImageDef
  3
ISM
 90
        0
280
     0
281
     0
  0
CLASS
  1
IMAGEDEF_REACTOR
  2
AcDbRasterImageDefReactor
  3
ISM
 90
        1
280
     0
281
     0
  0
CLASS
  1
IDBUFFER
  2
AcDbIdBuffer
  3
"Acad"
 90
        0
280
     0
281
     0
  0
CLASS
  1
SPATIAL_FILTER
  2
AcDbSpatialFilter
  3
"Acad"
 90
        0
280
     0
281
     0
  0
CLASS
  1
XRECORD
  2
AcDbXrecord
  3
"<Built In>"
 90
        0
280
     0
281
     0
  0
CLASS
  1
SORTENTSTABLE
  2
AcDbSortentsTable
  3
"AutoCAD"
 90
        0
280
     0
281
     0
  0
CLASS
  1
LAYER_INDEX
  2
AcDbLayerIndex
  3
"Acad"
 90
        0
280
     0
281
     0
  0
CLASS
  1
SPATIAL_INDEX
  2
AcDbSpatialIndex
  3
"Acad"
 90
        0
280
     0
281
     0
  0
CLASS
  1
OBJECT_PTR
  2
CAseDLPNTableRecord
  3
"ASE-LPNTableRecord"
 90
        1
280
     0
281
     0
  0
CLASS
  1
LAYOUT
  2
AcDbLayout
  3
"AutoCAD 2000"
 90
        0
280
     0
281
     0
  0
CLASS
  1
PLOTSETTINGS
  2
AcDbPlotSettings
  3
"AutoCAD 2000"
 90
        0
280
     0
281
     0
  0
CLASS
  1
ACDBDICTIONARYWDFLT
  2
AcDbDictionaryWithDefault
  3
"AutoCAD 2000"
 90
        0
280
     0
281
     0
  0
CLASS
  1
ACDBPLACEHOLDER
  2
AcDbPlaceHolder
  3
"AutoCAD 2000"
 90
        0
280
     0
281
     0
  0
CLASS
  1
VBA_PROJECT
  2
AcDbVbaProject
  3
"acadvba"
 90
        0
280
     0
281
     0
  0
CLASS
  1
WIPEOUT
  2
AcDbWipeout
  3
WipeOut|AutoCAD Express Tool|expresstools@autodesk.com
 90
      127
280
     0
281
     1
  0
CLASS
  1
WIPEOUTVARIABLES
  2
AcDbWipeoutVariables
  3
WipeOut|AutoCAD Express Tool|expresstools@autodesk.com
 90
        0
280
     0
281
     0
  0
CLASS
  1
RTEXT
  2
RText
  3
RText|AutoCAD Express Tool|expresstools@autodesk.com
 90
        0
280
     0
281
     1
  0
CLASS
  1
ARCALIGNEDTEXT
  2
AcDbArcAlignedText
  3
ATEXT|AutoCAD Express Tool|expresstools@autodesk.com
 90
        0
280
     0
281
     1
  0
ENDSEC
  0
SECTION
  2
TABLES
  0
TABLE
  2
VPORT
  5
7
100
AcDbSymbolTable
 70
     1
  0
VPORT
  5
15
100
AcDbSymbolTableRecord
100
AcDbViewportTableRecord
  2
*ACTIVE
 70
     0
 10
0.0
 20
0.0
 11
1.0
 21
1.0
 12
117.371976
 22
146.031796
 13
0.0
 23
0.0
 14
1.0
 24
1.0
 15
0.0
 25
0.0
 16
0.0
 26
0.0
 36
1.0
 17
0.0
 27
0.0
 37
0.0
 40
34.936405
 41
1.630742
 42
50.0
 43
0.0
 44
0.0
 50
0.0
 51
0.0
 71
     0
 72
   100
 73
     1
 74
     1
 75
     0
 76
     0
 77
     0
 78
     0
  0
ENDTAB
  0
TABLE
  2
LTYPE
  5
4
100
AcDbSymbolTable
 70
     3
  0
LTYPE
  5
11
100
AcDbSymbolTableRecord
100
AcDbLinetypeTableRecord
  2
BYBLOCK
 70
    64
  3

 72
    65
 73
     0
 40
0.0
  0
LTYPE
  5
12
100
AcDbSymbolTableRecord
100
AcDbLinetypeTableRecord
  2
BYLAYER
 70
    64
  3

 72
    65
 73
     0
 40
0.0
  0
LTYPE
  5
13
100
AcDbSymbolTableRecord
100
AcDbLinetypeTableRecord
  2
CONTINUOUS
 70
    64
  3
Solid line
 72
    65
 73
     0
 40
0.0
  0
ENDTAB
  0
TABLE
  2
LAYER
  5
2
100
AcDbSymbolTable
 70
     2
  0
LAYER
  5
14
100
AcDbSymbolTableRecord
100
AcDbLayerTableRecord
  2
0
 70
     0
 62
     7
  6
CONTINUOUS
  0
LAYER
  5
1D
100
AcDbSymbolTableRecord
100
AcDbLayerTableRecord
  2
LAYER_1
 70
     0
 62
     7
  6
CONTINUOUS
  0
ENDTAB
  0
TABLE
  2
STYLE
  5
3
100
AcDbSymbolTable
 70
     1
  0
STYLE
  5
17
100
AcDbSymbolTableRecord
100
AcDbTextStyleTableRecord
  2
STANDARD
 70
     0
 40
0.0
 41
1.0
 50
0.0
 71
     0
 42
0.0
  3
txt
  4

  0
ENDTAB
  0
TABLE
  2
VIEW
  5
5
100
AcDbSymbolTable
 70
     0
  0
ENDTAB
  0
TABLE
  2
UCS
  5
6
100
AcDbSymbolTable
 70
     0
  0
ENDTAB
  0
TABLE
  2
APPID
  5
8
100
AcDbSymbolTable
 70
     1
  0
APPID
  5
16
100
AcDbSymbolTableRecord
100
AcDbRegAppTableRecord
  2
ACAD
 70
     0
  0
ENDTAB
  0
TABLE
  2
DIMSTYLE
  5
9
100
AcDbSymbolTable
 70
     1
  0
DIMSTYLE
105
18
100
AcDbSymbolTableRecord
100
AcDbDimStyleTableRecord
  2
STANDARD
 70
     0
  3

  4

  5

  6

  7

 40
1.0
 41
0.18
 42
0.0625
 43
0.38
 44
0.18
 45
0.0
 46
0.0
 47
0.0
 48
0.0
 71
     0
 72
     0
 73
     1
 74
     1
 75
     0
 76
     0
 77
     0
 78
     0
140
0.18
141
0.09
142
0.0
143
25.4
144
1.0
145
0.0
146
1.0
147
0.09
170
     0
171
     2
172
     0
173
     0
174
     0
175
     0
176
     0
177
     0
178
     0
270
     2
271
     4
272
     4
273
     2
274
     2
275
     0
280
     0
281
     0
282
     0
283
     1
284
     0
285
     0
286
     0
287
     0
288
     0
340
17
  0
ENDTAB
  0
TABLE
  2
BLOCK_RECORD
  5
1
100
AcDbSymbolTable
 70
     0
  0
BLOCK_RECORD
  5
A
100
AcDbSymbolTableRecord
100
AcDbBlockTableRecord
  2
*MODEL_SPACE
  0
BLOCK_RECORD
  5
B
100
AcDbSymbolTableRecord
100
AcDbBlockTableRecord
  2
*PAPER_SPACE
  0
ENDTAB
  0
ENDSEC
  0
SECTION
  2
BLOCKS
  0
BLOCK
  5
D
100
AcDbEntity
  8
0
100
AcDbBlockBegin
  2
*MODEL_SPACE
 70
     0
 10
0.0
 20
0.0
 30
0.0
  3
*MODEL_SPACE
  1

  0
ENDBLK
  5
E
100
AcDbEntity
  8
0
100
AcDbBlockEnd
  0
BLOCK
  5
F
100
AcDbEntity
 67
     1
  8
0
100
AcDbBlockBegin
  2
*PAPER_SPACE
 70
     0
 10
0.0
 20
0.0
 30
0.0
  3
*PAPER_SPACE
  1

  0
ENDBLK
  5
10
100
AcDbEntity
 67
     1
  8
0
100
AcDbBlockEnd
  0
ENDSEC
  0
SECTION
  2
ENTITIES
  0
LWPOLYLINE
  5
1E
100
AcDbEntity
  8
LAYER_1
100
AcDbPolyline
 90
       12
 70
     1
 10
94.8089
 20
143.926
 10
94.7328
 20
143.875
 10
94.6565
 20
143.773
 10
94.6057
 20
143.646
 10
94.5804
 20
143.519
 10
94.5295
 20
143.596
 10
94.504
 20
143.723
 10
94.5295
 20
143.875
 10
94.6312
 20
144.053
 10
94.682
 20
144.053
 10
94.7328
 20
144.027
 10
94.7834
 20
143.977
  0
LWPOLYLINE
  5
1F
100
AcDbEntity
  8
LAYER_1
100
AcDbPolyline
 90
       13
 70
     1
 10
95.4947
 20
144.231
 10
95.4694
 20
144.383
 10
95.2916
 20
144.434
 10
95.0883
 20
144.408
 10
94.9106
 20
144.332
 10
94.7581
 20
144.205
 10
94.7581
 20
144.154
 10
94.8089
 20
144.104
 10
94.8851
 20
144.078
 10
94.9614
 20
144.078
 10
95.0628
 20
144.154
 10
95.1645
 20
144.231
 10
95.3169
 20
144.256
  0
LWPOLYLINE
  5
20
100
AcDbEntity
  8
LAYER_1
100
AcDbPolyline
 90
       19
 70
     1
 10
94.3518
 20
143.316
 10
94.3771
 20
143.265
 10
94.4026
 20
143.215
 10
94.4534
 20
143.164
 10
94.504
 20
143.113
 10
94.5549
 20
143.062
 10
94.6312
 20
143.011
 10
94.682
 20
142.986
 10
94.7581
 20
142.935
 10
94.7073
 20
142.808
 10
94.6057
 20
142.706
 10
94.4534
 20
142.656
 10
94.2501
 20
142.681
 10
94.1485
 20
142.605
 10
94.0216
 20
142.706
 10
94.0977
 20
142.808
 10
94.0469
 20
142.935
 10
94.0724
 20
143.087
 10
94.174
 20
143.215
  0
LWPOLYLINE
  5
21
100
AcDbEntity
  8
LAYER_1
100
AcDbPolyline
 90
       12
 70
     1
 10
110.049
 20
139.786
 10
110.074
 20
139.684
 10
110.1
 20
139.557
 10
110.1
 20
139.43
 10
110.074
 20
139.328
 10
110.151
 20
139.379
 10
110.227
 20
139.455
 10
110.252
 20
139.582
 10
110.278
 20
139.786
 10
110.227
 20
139.811
 10
110.176
 20
139.811
 10
110.1
 20
139.811
  0
LWPOLYLINE
  5
22
100
AcDbEntity
  8
LAYER_1
100
AcDbPolyline
 90
       13
 70
     1
 10
109.592
 20
140.37
 10
109.719
 20
140.497
 10
109.896
 20
140.446
 10
110.049
 20
140.319
 10
110.151
 20
140.167
 10
110.227
 20
139.989
 10
110.201
 20
139.963
 10
110.151
 20
139.938
 10
110.074
 20
139.938
 10
109.998
 20
139.989
 10
109.947
 20
140.09
 10
109.871
 20
140.217
 10
109.744
 20
140.293
  0
LWPOLYLINE
  5
23
100
AcDbEntity
  8
LAYER_1
100
AcDbPolyline
 90
       19
 70
     1
 10
110.176
 20
139.024
 10
110.125
 20
138.998
 10
110.074
 20
138.973
 10
109.998
 20
138.947
 10
109.947
 20
138.922
 10
109.846
 20
138.896
 10
109.77
 20
138.896
 10
109.694
 20
138.871
 10
109.617
 20
138.871
 10
109.617
 20
138.744
 10
109.643
 20
138.592
 10
109.744
 20
138.49
 10
109.947
 20
138.414
 10
109.998
 20
138.287
 10
110.151
 20
138.338
 10
110.151
 20
138.465
 10
110.252
 20
138.566
 10
110.303
 20
138.693
 10
110.278
 20
138.871
  0
LWPOLYLINE
  5
24
100
AcDbEntity
  8
LAYER_1
 62
   255
100
AcDbPolyline
 90
       56
 70
     1
 10
95.2916
 20
148.041
 10
95.4185
 20
148.117
 10
95.5455
 20
148.193
 10
95.6471
 20
148.269
 10
95.7741
 20
148.345
 10
95.8249
 20
148.32
 10
95.901
 20
148.32
 10
95.9773
 20
148.32
 10
96.0282
 20
148.295
 10
95.8504
 20
148.244
 10
95.7233
 20
148.142
 10
95.6471
 20
147.99
 10
95.6216
 20
147.888
 10
95.6216
 20
147.736
 10
95.6725
 20
147.609
 10
95.7488
 20
147.482
 10
95.8757
 20
147.406
 10
96.0282
 20
147.38
 10
96.1804
 20
147.38
 10
96.2821
 20
147.431
 10
96.3329
 20
147.507
 10
96.3584
 20
147.558
 10
96.3584
 20
147.634
 10
96.3329
 20
147.685
 10
96.2821
 20
147.736
 10
96.2313
 20
147.761
 10
96.1804
 20
147.761
 10
96.1551
 20
147.736
 10
96.1551
 20
147.685
 10
96.1298
 20
147.634
 10
96.079
 20
147.609
 10
96.0282
 20
147.634
 10
95.9773
 20
147.685
 10
95.9519
 20
147.736
 10
95.9773
 20
147.837
 10
96.0535
 20
147.888
 10
96.1804
 20
147.914
 10
96.2821
 20
147.888
 10
96.3837
 20
147.837
 10
96.4598
 20
147.761
 10
96.5107
 20
147.634
 10
96.5615
 20
147.482
 10
96.587
 20
147.329
 10
96.6123
 20
147.202
 10
96.6123
 20
147.101
 10
96.4853
 20
147.152
 10
96.3329
 20
147.202
 10
96.2059
 20
147.253
 10
96.079
 20
147.304
 10
95.9519
 20
147.355
 10
95.7996
 20
147.406
 10
95.6725
 20
147.431
 10
95.5202
 20
147.482
 10
95.4694
 20
147.609
 10
95.4185
 20
147.761
 10
95.3422
 20
147.914
  0
LWPOLYLINE
  5
25
100
AcDbEntity
  8
LAYER_1
 62
   255
100
AcDbPolyline
 90
       56
 70
     1
 10
98.4666
 20
146.11
 10
98.3395
 20
146.186
 10
98.1872
 20
146.262
 10
98.0601
 20
146.339
 10
97.9078
 20
146.415
 10
97.7554
 20
146.491
 10
97.6029
 20
146.567
 10
97.476
 20
146.643
 10
97.3235
 20
146.72
 10
97.2219
 20
146.999
 10
97.0441
 20
147.431
 10
96.8664
 20
147.837
 10
96.7394
 20
148.041
 10
96.8917
 20
147.99
 10
97.0441
 20
147.914
 10
97.1966
 20
147.863
 10
97.3743
 20
147.787
 10
97.5268
 20
147.736
 10
97.6791
 20
147.659
 10
97.8315
 20
147.583
 10
97.984
 20
147.507
 10
97.7807
 20
147.507
 10
97.6284
 20
147.457
 10
97.5268
 20
147.355
 10
97.4252
 20
147.228
 10
97.3743
 20
147.05
 10
97.4252
 20
146.898
 10
97.5013
 20
146.72
 10
97.6284
 20
146.618
 10
97.7807
 20
146.567
 10
97.9078
 20
146.567
 10
98.0093
 20
146.618
 10
98.0601
 20
146.669
 10
98.1109
 20
146.72
 10
98.1109
 20
146.796
 10
98.1109
 20
146.847
 10
98.0856
 20
146.898
 10
98.0348
 20
146.923
 10
97.984
 20
146.948
 10
97.9585
 20
146.923
 10
97.9331
 20
146.872
 10
97.9078
 20
146.847
 10
97.857
 20
146.847
 10
97.8062
 20
146.872
 10
97.7554
 20
146.898
 10
97.7554
 20
146.974
 10
97.7807
 20
147.05
 10
97.857
 20
147.101
 10
97.984
 20
147.101
 10
98.0856
 20
147.05
 10
98.1872
 20
146.974
 10
98.2634
 20
146.847
 10
98.3142
 20
146.694
 10
98.3395
 20
146.542
 10
98.3903
 20
146.364
 10
98.4411
 20
146.212
  0
LWPOLYLINE
  5
26
100
AcDbEntity
  8
LAYER_1
 62
   255
100
AcDbPolyline
 90
       56
 70
     1
 10
100.041
 20
144.891
 10
99.9144
 20
144.993
 10
99.8128
 20
145.094
 10
99.6857
 20
145.196
 10
99.5587
 20
145.297
 10
99.4318
 20
145.399
 10
99.3048
 20
145.501
 10
99.1777
 20
145.602
 10
99.0507
 20
145.704
 10
98.9746
 20
146.009
 10
98.873
 20
146.466
 10
98.7713
 20
146.898
 10
98.6697
 20
147.126
 10
98.8222
 20
147.05
 10
98.9491
 20
146.948
 10
99.1016
 20
146.847
 10
99.254
 20
146.745
 10
99.381
 20
146.643
 10
99.5334
 20
146.542
 10
99.6603
 20
146.44
 10
99.8128
 20
146.339
 10
99.6349
 20
146.364
 10
99.4826
 20
146.339
 10
99.3301
 20
146.262
 10
99.2285
 20
146.161
 10
99.1524
 20
146.034
 10
99.1524
 20
145.856
 10
99.2032
 20
145.679
 10
99.3048
 20
145.551
 10
99.4571
 20
145.475
 10
99.5842
 20
145.45
 10
99.6857
 20
145.475
 10
99.762
 20
145.501
 10
99.7873
 20
145.551
 10
99.8381
 20
145.628
 10
99.8381
 20
145.704
 10
99.8128
 20
145.755
 10
99.762
 20
145.78
 10
99.7112
 20
145.805
 10
99.6857
 20
145.805
 10
99.6603
 20
145.755
 10
99.6349
 20
145.704
 10
99.5842
 20
145.729
 10
99.5334
 20
145.755
 10
99.4826
 20
145.805
 10
99.4826
 20
145.881
 10
99.5334
 20
145.932
 10
99.6349
 20
145.983
 10
99.7365
 20
145.958
 10
99.8636
 20
145.881
 10
99.9397
 20
145.78
 10
99.9651
 20
145.653
 10
99.9906
 20
145.501
 10
100.016
 20
145.323
 10
100.041
 20
145.145
 10
100.041
 20
144.993
  0
LWPOLYLINE
  5
27
100
AcDbEntity
  8
LAYER_1
 62
   255
100
AcDbPolyline
 90
       56
 70
     1
 10
100.549
 20
144.408
 10
100.651
 20
144.282
 10
100.778
 20
144.18
 10
100.88
 20
144.053
 10
101.007
 20
143.926
 10
101.108
 20
143.799
 10
101.21
 20
143.672
 10
101.311
 20
143.57
 10
101.413
 20
143.443
 10
101.438
 20
143.697
 10
101.464
 20
143.951
 10
101.438
 20
144.18
 10
101.413
 20
144.307
 10
101.388
 20
144.408
 10
101.337
 20
144.51
 10
101.261
 20
144.561
 10
101.159
 20
144.612
 10
101.057
 20
144.586
 10
100.981
 20
144.535
 10
100.956
 20
144.434
 10
101.007
 20
144.358
 10
101.083
 20
144.332
 10
101.108
 20
144.358
 10
101.133
 20
144.383
 10
101.133
 20
144.408
 10
101.133
 20
144.434
 10
101.159
 20
144.459
 10
101.184
 20
144.459
 10
101.235
 20
144.434
 10
101.286
 20
144.358
 10
101.286
 20
144.256
 10
101.261
 20
144.129
 10
101.184
 20
144.053
 10
101.057
 20
144.027
 10
100.905
 20
144.104
 10
100.778
 20
144.205
 10
100.676
 20
144.358
 10
100.651
 20
144.535
 10
100.702
 20
144.713
 10
100.753
 20
144.84
 10
100.854
 20
144.916
 10
100.981
 20
144.967
 10
101.133
 20
144.993
 10
101.261
 20
144.993
 10
101.388
 20
144.942
 10
101.261
 20
145.094
 10
101.108
 20
145.221
 10
100.981
 20
145.348
 10
100.829
 20
145.501
 10
100.702
 20
145.628
 10
100.549
 20
145.755
 10
100.397
 20
145.881
 10
100.245
 20
146.009
 10
100.321
 20
145.729
 10
100.422
 20
145.221
 10
100.499
 20
144.713
  0
LWPOLYLINE
  5
28
100
AcDbEntity
  8
LAYER_1
 62
   255
100
AcDbPolyline
 90
       12
 70
     1
 10
94.9614
 20
147.863
 10
94.8598
 20
147.812
 10
94.7581
 20
147.761
 10
94.6312
 20
147.685
 10
94.5295
 20
147.634
 10
94.6565
 20
147.634
 10
94.8089
 20
147.609
 10
94.9614
 20
147.609
 10
95.0883
 20
147.583
 10
95.0883
 20
147.659
 10
95.0628
 20
147.736
 10
95.0122
 20
147.812
  0
LWPOLYLINE
  5
29
100
AcDbEntity
  8
LAYER_1
 62
   255
100
AcDbPolyline
 90
       24
 70
     1
 10
101.845
 20
144.408
 10
101.972
 20
144.231
 10
102.099
 20
144.053
 10
102.226
 20
143.875
 10
102.327
 20
143.697
 10
102.226
 20
143.723
 10
102.124
 20
143.697
 10
102.048
 20
143.646
 10
102.022
 20
143.596
 10
101.997
 20
143.519
 10
102.022
 20
143.367
 10
102.073
 20
143.215
 10
102.226
 20
143.062
 10
102.2
 20
142.885
 10
102.2
 20
142.706
 10
102.175
 20
142.529
 10
102.15
 20
142.376
 10
102.073
 20
142.503
 10
101.997
 20
142.605
 10
101.921
 20
142.732
 10
101.845
 20
142.859
 10
101.845
 20
143.189
 10
101.87
 20
143.697
 10
101.87
 20
144.18
  0
LWPOLYLINE
  5
2A
100
AcDbEntity
  8
LAYER_1
 62
   255
100
AcDbPolyline
 90
       56
 70
     1
 10
111.598
 20
143.646
 10
111.522
 20
143.773
 10
111.446
 20
143.9
 10
111.37
 20
144.002
 10
111.293
 20
144.129
 10
111.243
 20
144.154
 10
111.167
 20
144.154
 10
111.091
 20
144.18
 10
111.014
 20
144.18
 10
111.141
 20
144.053
 10
111.217
 20
143.9
 10
111.217
 20
143.748
 10
111.192
 20
143.646
 10
111.116
 20
143.519
 10
111.014
 20
143.418
 10
110.887
 20
143.342
 10
110.735
 20
143.342
 10
110.582
 20
143.392
 10
110.481
 20
143.468
 10
110.405
 20
143.57
 10
110.379
 20
143.646
 10
110.379
 20
143.697
 10
110.43
 20
143.773
 10
110.455
 20
143.799
 10
110.532
 20
143.824
 10
110.582
 20
143.824
 10
110.608
 20
143.799
 10
110.633
 20
143.773
 10
110.608
 20
143.723
 10
110.608
 20
143.672
 10
110.659
 20
143.621
 10
110.71
 20
143.596
 10
110.786
 20
143.621
 10
110.836
 20
143.672
 10
110.836
 20
143.748
 10
110.811
 20
143.849
 10
110.71
 20
143.926
 10
110.608
 20
143.951
 10
110.506
 20
143.951
 10
110.379
 20
143.9
 10
110.278
 20
143.824
 10
110.176
 20
143.723
 10
110.074
 20
143.621
 10
109.973
 20
143.519
 10
109.922
 20
143.443
 10
110.074
 20
143.418
 10
110.227
 20
143.392
 10
110.379
 20
143.367
 10
110.506
 20
143.342
 10
110.659
 20
143.316
 10
110.786
 20
143.291
 10
110.938
 20
143.265
 10
111.091
 20
143.24
 10
111.192
 20
143.316
 10
111.344
 20
143.443
 10
111.472
 20
143.545
  0
LWPOLYLINE
  5
2B
100
AcDbEntity
  8
LAYER_1
 62
   255
100
AcDbPolyline
 90
       60
 70
     1
 10
107.89
 20
143.443
 10
108.042
 20
143.443
 10
108.195
 20
143.468
 10
108.373
 20
143.468
 10
108.55
 20
143.468
 10
108.703
 20
143.468
 10
108.881
 20
143.468
 10
109.033
 20
143.443
 10
109.185
 20
143.443
 10
109.262
 20
143.519
 10
109.414
 20
143.621
 10
109.592
 20
143.773
 10
109.77
 20
143.926
 10
109.947
 20
144.078
 10
110.125
 20
144.18
 10
110.278
 20
144.282
 10
110.354
 20
144.307
 10
110.176
 20
144.332
 10
110.024
 20
144.358
 10
109.846
 20
144.383
 10
109.668
 20
144.383
 10
109.515
 20
144.408
 10
109.338
 20
144.408
 10
109.16
 20
144.434
 10
108.982
 20
144.434
 10
109.16
 20
144.358
 10
109.262
 20
144.231
 10
109.313
 20
144.078
 10
109.338
 20
143.926
 10
109.287
 20
143.773
 10
109.185
 20
143.646
 10
109.058
 20
143.545
 10
108.881
 20
143.494
 10
108.728
 20
143.519
 10
108.601
 20
143.596
 10
108.525
 20
143.672
 10
108.499
 20
143.748
 10
108.499
 20
143.824
 10
108.525
 20
143.875
 10
108.55
 20
143.926
 10
108.601
 20
143.951
 10
108.677
 20
143.951
 10
108.728
 20
143.951
 10
108.754
 20
143.926
 10
108.728
 20
143.875
 10
108.728
 20
143.849
 10
108.779
 20
143.799
 10
108.855
 20
143.799
 10
108.906
 20
143.799
 10
108.932
 20
143.849
 10
108.932
 20
143.951
 10
108.906
 20
144.053
 10
108.804
 20
144.104
 10
108.677
 20
144.104
 10
108.55
 20
144.078
 10
108.423
 20
144.002
 10
108.322
 20
143.9
 10
108.22
 20
143.773
 10
108.068
 20
143.646
 10
107.966
 20
143.545
  0
LWPOLYLINE
  5
2C
100
AcDbEntity
  8
LAYER_1
 62
   255
100
AcDbPolyline
 90
       60
 70
     1
 10
105.96
 20
143.138
 10
106.112
 20
143.164
 10
106.264
 20
143.215
 10
106.417
 20
143.24
 10
106.595
 20
143.265
 10
106.747
 20
143.291
 10
106.899
 20
143.316
 10
107.052
 20
143.342
 10
107.204
 20
143.367
 10
107.28
 20
143.443
 10
107.382
 20
143.596
 10
107.535
 20
143.773
 10
107.687
 20
143.951
 10
107.865
 20
144.129
 10
108.017
 20
144.282
 10
108.118
 20
144.383
 10
108.22
 20
144.434
 10
108.042
 20
144.434
 10
107.865
 20
144.408
 10
107.687
 20
144.408
 10
107.535
 20
144.383
 10
107.357
 20
144.383
 10
107.179
 20
144.358
 10
107.001
 20
144.332
 10
106.849
 20
144.307
 10
107.001
 20
144.256
 10
107.128
 20
144.154
 10
107.204
 20
144.002
 10
107.255
 20
143.875
 10
107.23
 20
143.723
 10
107.153
 20
143.545
 10
107.052
 20
143.418
 10
106.899
 20
143.367
 10
106.747
 20
143.367
 10
106.62
 20
143.418
 10
106.544
 20
143.468
 10
106.493
 20
143.545
 10
106.468
 20
143.621
 10
106.493
 20
143.672
 10
106.519
 20
143.748
 10
106.569
 20
143.773
 10
106.62
 20
143.773
 10
106.671
 20
143.773
 10
106.696
 20
143.748
 10
106.671
 20
143.697
 10
106.696
 20
143.672
 10
106.747
 20
143.646
 10
106.823
 20
143.646
 10
106.874
 20
143.672
 10
106.899
 20
143.723
 10
106.874
 20
143.824
 10
106.823
 20
143.9
 10
106.721
 20
143.926
 10
106.595
 20
143.926
 10
106.468
 20
143.875
 10
106.366
 20
143.773
 10
106.264
 20
143.646
 10
106.188
 20
143.519
 10
106.087
 20
143.367
 10
105.985
 20
143.24
  0
LWPOLYLINE
  5
2D
100
AcDbEntity
  8
LAYER_1
 62
   255
100
AcDbPolyline
 90
       60
 70
     1
 10
105.274
 20
142.961
 10
105.122
 20
142.91
 10
104.969
 20
142.859
 10
104.791
 20
142.808
 10
104.639
 20
142.757
 10
104.486
 20
142.681
 10
104.334
 20
142.63
 10
104.182
 20
142.58
 10
104.055
 20
142.529
 10
104.156
 20
142.757
 10
104.258
 20
142.986
 10
104.385
 20
143.189
 10
104.461
 20
143.291
 10
104.537
 20
143.342
 10
104.613
 20
143.392
 10
104.715
 20
143.418
 10
104.842
 20
143.418
 10
104.918
 20
143.367
 10
104.943
 20
143.265
 10
104.918
 20
143.189
 10
104.842
 20
143.138
 10
104.791
 20
143.138
 10
104.74
 20
143.189
 10
104.74
 20
143.215
 10
104.766
 20
143.24
 10
104.791
 20
143.265
 10
104.766
 20
143.291
 10
104.74
 20
143.316
 10
104.664
 20
143.316
 10
104.588
 20
143.265
 10
104.537
 20
143.189
 10
104.512
 20
143.062
 10
104.537
 20
142.961
 10
104.639
 20
142.885
 10
104.817
 20
142.859
 10
104.994
 20
142.885
 10
105.147
 20
142.986
 10
105.248
 20
143.113
 10
105.299
 20
143.265
 10
105.299
 20
143.418
 10
105.248
 20
143.545
 10
105.147
 20
143.646
 10
105.045
 20
143.748
 10
104.918
 20
143.799
 10
104.791
 20
143.824
 10
104.969
 20
143.875
 10
105.147
 20
143.926
 10
105.35
 20
143.977
 10
105.528
 20
144.027
 10
105.731
 20
144.078
 10
105.909
 20
144.129
 10
106.112
 20
144.154
 10
106.315
 20
144.205
 10
106.214
 20
144.154
 10
106.087
 20
144.002
 10
105.934
 20
143.824
 10
105.782
 20
143.621
 10
105.604
 20
143.392
 10
105.477
 20
143.189
 10
105.35
 20
143.037
  0
LWPOLYLINE
  5
2E
100
AcDbEntity
  8
LAYER_1
 62
   255
100
AcDbPolyline
 90
       12
 70
     1
 10
111.776
 20
143.316
 10
111.852
 20
143.215
 10
111.929
 20
143.113
 10
111.979
 20
143.011
 10
112.056
 20
142.91
 10
111.929
 20
142.961
 10
111.802
 20
143.011
 10
111.675
 20
143.062
 10
111.548
 20
143.113
 10
111.573
 20
143.189
 10
111.649
 20
143.24
 10
111.7
 20
143.291
  0
LWPOLYLINE
  5
2F
100
AcDbEntity
  8
LAYER_1
 62
   255
100
AcDbPolyline
 90
       28
 70
     1
 10
104.131
 20
143.57
 10
104.029
 20
143.519
 10
103.928
 20
143.494
 10
103.826
 20
143.443
 10
103.75
 20
143.392
 10
103.648
 20
143.342
 10
103.547
 20
143.291
 10
103.445
 20
143.24
 10
103.369
 20
143.189
 10
103.47
 20
143.164
 10
103.547
 20
143.087
 10
103.597
 20
143.011
 10
103.597
 20
142.961
 10
103.547
 20
142.885
 10
103.47
 20
142.757
 10
103.343
 20
142.656
 10
103.14
 20
142.58
 10
103.089
 20
142.402
 10
103.013
 20
142.249
 10
102.937
 20
142.097
 10
102.886
 20
141.945
 10
103.013
 20
141.995
 10
103.14
 20
142.071
 10
103.267
 20
142.148
 10
103.394
 20
142.224
 10
103.547
 20
142.529
 10
103.775
 20
142.961
 10
104.004
 20
143.367
  0
LWPOLYLINE
  5
30
100
AcDbEntity
  8
LAYER_1
 62
   255
100
AcDbPolyline
 90
       88
 70
     1
 10
96.6378
 20
144.891
 10
97.0441
 20
144.663
 10
97.476
 20
144.408
 10
97.857
 20
144.129
 10
98.2379
 20
143.849
 10
98.6189
 20
143.57
 10
98.9491
 20
143.265
 10
99.3048
 20
142.961
 10
99.6095
 20
142.63
 10
99.8889
 20
142.326
 10
100.168
 20
141.995
 10
100.422
 20
141.665
 10
100.651
 20
141.36
 10
100.829
 20
141.03
 10
101.007
 20
140.725
 10
101.159
 20
140.421
 10
101.261
 20
140.116
 10
101.388
 20
140.141
 10
101.489
 20
140.192
 10
101.591
 20
140.243
 10
101.692
 20
140.319
 10
101.438
 20
140.878
 10
101.133
 20
141.437
 10
100.727
 20
141.995
 10
100.27
 20
142.554
 10
99.762
 20
143.087
 10
99.2032
 20
143.596
 10
98.5936
 20
144.104
 10
97.9585
 20
144.561
 10
97.2982
 20
144.967
 10
96.6378
 20
145.348
 10
95.9519
 20
145.679
 10
95.2916
 20
145.958
 10
94.6057
 20
146.161
 10
93.9707
 20
146.313
 10
93.3356
 20
146.364
 10
92.7515
 20
146.364
 10
92.726
 20
146.262
 10
92.7007
 20
146.161
 10
92.7007
 20
146.06
 10
92.726
 20
145.958
 10
93.1834
 20
145.932
 10
93.6405
 20
145.881
 10
94.0977
 20
145.805
 10
94.5549
 20
145.704
 10
95.0122
 20
145.577
 10
95.4694
 20
145.424
 10
95.901
 20
145.246
 10
96.3329
 20
145.043
 10
96.1804
 20
144.916
 10
96.0282
 20
144.789
 10
95.901
 20
144.663
 10
95.7741
 20
144.561
 10
95.6216
 20
144.637
 10
95.4439
 20
144.663
 10
95.2916
 20
144.663
 10
95.1392
 20
144.637
 10
94.9867
 20
144.612
 10
94.8851
 20
144.561
 10
94.7834
 20
144.51
 10
94.7073
 20
144.459
 10
94.5549
 20
144.307
 10
94.3771
 20
144.027
 10
94.2755
 20
143.697
 10
94.3518
 20
143.316
 10
94.3771
 20
143.265
 10
94.4026
 20
143.215
 10
94.4534
 20
143.164
 10
94.504
 20
143.113
 10
94.5549
 20
143.062
 10
94.6312
 20
143.011
 10
94.682
 20
142.986
 10
94.7581
 20
142.935
 10
94.9106
 20
142.885
 10
95.0883
 20
142.859
 10
95.2408
 20
142.859
 10
95.3931
 20
142.91
 10
95.5455
 20
142.961
 10
95.6725
 20
143.011
 10
95.7741
 20
143.087
 10
95.8504
 20
143.164
 10
96.0027
 20
143.392
 10
96.1043
 20
143.672
 10
96.1298
 20
144.002
 10
96.0282
 20
144.358
 10
96.1551
 20
144.484
 10
96.3329
 20
144.637
 10
96.5107
 20
144.764
  0
LWPOLYLINE
  5
31
100
AcDbEntity
  8
LAYER_1
 62
   255
100
AcDbPolyline
 90
       88
 70
     1
 10
108.906
 20
141.488
 10
108.423
 20
141.488
 10
107.966
 20
141.462
 10
107.484
 20
141.411
 10
107.026
 20
141.36
 10
106.569
 20
141.259
 10
106.112
 20
141.183
 10
105.68
 20
141.056
 10
105.248
 20
140.929
 10
104.842
 20
140.802
 10
104.461
 20
140.649
 10
104.08
 20
140.497
 10
103.75
 20
140.319
 10
103.42
 20
140.141
 10
103.115
 20
139.938
 10
102.835
 20
139.735
 10
102.607
 20
139.531
 10
102.505
 20
139.608
 10
102.429
 20
139.709
 10
102.353
 20
139.811
 10
102.327
 20
139.912
 10
102.81
 20
140.293
 10
103.343
 20
140.624
 10
103.953
 20
140.929
 10
104.639
 20
141.183
 10
105.324
 20
141.411
 10
106.061
 20
141.589
 10
106.823
 20
141.741
 10
107.611
 20
141.843
 10
108.373
 20
141.894
 10
109.135
 20
141.919
 10
109.896
 20
141.868
 10
110.608
 20
141.792
 10
111.293
 20
141.665
 10
111.929
 20
141.462
 10
112.513
 20
141.233
 10
113.021
 20
140.929
 10
112.995
 20
140.827
 10
112.97
 20
140.725
 10
112.919
 20
140.649
 10
112.843
 20
140.573
 10
112.437
 20
140.776
 10
112.005
 20
140.954
 10
111.573
 20
141.106
 10
111.116
 20
141.233
 10
110.659
 20
141.335
 10
110.201
 20
141.411
 10
109.719
 20
141.462
 10
109.236
 20
141.488
 10
109.313
 20
141.309
 10
109.389
 20
141.106
 10
109.465
 20
140.929
 10
109.515
 20
140.802
 10
109.694
 20
140.776
 10
109.846
 20
140.725
 10
109.998
 20
140.674
 10
110.125
 20
140.573
 10
110.227
 20
140.471
 10
110.303
 20
140.37
 10
110.354
 20
140.268
 10
110.405
 20
140.192
 10
110.455
 20
139.989
 10
110.481
 20
139.659
 10
110.405
 20
139.328
 10
110.176
 20
139.024
 10
110.125
 20
138.998
 10
110.074
 20
138.973
 10
109.998
 20
138.947
 10
109.947
 20
138.922
 10
109.846
 20
138.896
 10
109.77
 20
138.896
 10
109.694
 20
138.871
 10
109.617
 20
138.871
 10
109.439
 20
138.896
 10
109.287
 20
138.973
 10
109.16
 20
139.049
 10
109.058
 20
139.151
 10
108.957
 20
139.277
 10
108.881
 20
139.379
 10
108.83
 20
139.506
 10
108.779
 20
139.608
 10
108.754
 20
139.862
 10
108.779
 20
140.167
 10
108.906
 20
140.471
 10
109.185
 20
140.725
 10
109.135
 20
140.903
 10
109.058
 20
141.132
 10
108.982
 20
141.335
  0
LWPOLYLINE
  5
32
100
AcDbEntity
  8
LAYER_1
 62
   255
100
AcDbPolyline
 90
        8
 70
     1
 10
99.2285
 20
149.539
 10
99.4571
 20
149.641
 10
99.6603
 20
149.844
 10
99.762
 20
150.047
 10
99.6603
 20
150.2
 10
99.4826
 20
150.225
 10
99.3301
 20
150.098
 10
99.254
 20
149.844
  0
LWPOLYLINE
  5
33
100
AcDbEntity
  8
LAYER_1
 62
   255
100
AcDbPolyline
 90
        8
 70
     1
 10
100.575
 20
148.777
 10
100.803
 20
148.904
 10
101.007
 20
149.082
 10
101.108
 20
149.285
 10
101.007
 20
149.463
 10
100.829
 20
149.488
 10
100.676
 20
149.336
 10
100.6
 20
149.082
  0
LWPOLYLINE
  5
34
100
AcDbEntity
  8
LAYER_1
 62
   255
100
AcDbPolyline
 90
        8
 70
     1
 10
101.972
 20
147.888
 10
102.2
 20
147.99
 10
102.404
 20
148.193
 10
102.505
 20
148.396
 10
102.404
 20
148.574
 10
102.226
 20
148.574
 10
102.073
 20
148.422
 10
101.997
 20
148.168
  0
LWPOLYLINE
  5
35
100
AcDbEntity
  8
LAYER_1
 62
   255
100
AcDbPolyline
 90
        8
 70
     1
 10
108.881
 20
146.821
 10
108.728
 20
147.025
 10
108.627
 20
147.304
 10
108.652
 20
147.533
 10
108.83
 20
147.634
 10
108.982
 20
147.558
 10
109.058
 20
147.355
 10
109.008
 20
147.101
  0
LWPOLYLINE
  5
36
100
AcDbEntity
  8
LAYER_1
 62
   255
100
AcDbPolyline
 90
        8
 70
     1
 10
107.306
 20
146.796
 10
107.179
 20
147.025
 10
107.102
 20
147.279
 10
107.102
 20
147.507
 10
107.255
 20
147.609
 10
107.407
 20
147.533
 10
107.484
 20
147.329
 10
107.433
 20
147.075
  0
LWPOLYLINE
  5
37
100
AcDbEntity
  8
LAYER_1
 62
   255
100
AcDbPolyline
 90
        8
 70
     1
 10
105.68
 20
146.694
 10
105.528
 20
146.898
 10
105.452
 20
147.152
 10
105.477
 20
147.38
 10
105.629
 20
147.507
 10
105.782
 20
147.431
 10
105.858
 20
147.228
 10
105.807
 20
146.974
  0
LWPOLYLINE
  5
38
100
AcDbEntity
  8
LAYER_1
 62
   255
100
AcDbPolyline
 90
       24
 70
     1
 10
100.194
 20
148.574
 10
100.168
 20
148.65
 10
100.092
 20
148.777
 10
99.9906
 20
148.879
 10
99.8889
 20
148.98
 10
99.7365
 20
149.082
 10
99.5842
 20
149.158
 10
99.4063
 20
149.184
 10
99.254
 20
149.158
 10
99.2032
 20
149.107
 10
99.1524
 20
149.082
 10
99.0761
 20
149.031
 10
98.9999
 20
148.955
 10
99.1524
 20
148.955
 10
99.3048
 20
148.955
 10
99.4571
 20
148.904
 10
99.6095
 20
148.853
 10
99.7365
 20
148.752
 10
99.8381
 20
148.65
 10
99.9144
 20
148.549
 10
99.9651
 20
148.422
 10
100.016
 20
148.472
 10
100.092
 20
148.498
 10
100.143
 20
148.549
  0
LWPOLYLINE
  5
39
100
AcDbEntity
  8
LAYER_1
 62
   255
100
AcDbPolyline
 90
       24
 70
     1
 10
101.718
 20
147.659
 10
101.667
 20
147.787
 10
101.565
 20
147.914
 10
101.464
 20
148.041
 10
101.337
 20
148.168
 10
101.184
 20
148.269
 10
101.007
 20
148.32
 10
100.829
 20
148.345
 10
100.625
 20
148.32
 10
100.575
 20
148.269
 10
100.499
 20
148.244
 10
100.422
 20
148.193
 10
100.346
 20
148.142
 10
100.549
 20
148.142
 10
100.727
 20
148.142
 10
100.88
 20
148.091
 10
101.032
 20
148.015
 10
101.184
 20
147.939
 10
101.286
 20
147.812
 10
101.388
 20
147.685
 10
101.464
 20
147.507
 10
101.54
 20
147.558
 10
101.591
 20
147.583
 10
101.667
 20
147.634
  0
LWPOLYLINE
  5
3A
100
AcDbEntity
  8
LAYER_1
 62
   255
100
AcDbPolyline
 90
       25
 70
     1
 10
103.013
 20
146.212
 10
103.064
 20
146.313
 10
103.089
 20
146.415
 10
103.14
 20
146.517
 10
103.166
 20
146.618
 10
103.089
 20
146.72
 10
103.013
 20
146.821
 10
102.937
 20
146.948
 10
102.835
 20
147.075
 10
102.734
 20
147.177
 10
102.607
 20
147.279
 10
102.429
 20
147.355
 10
102.251
 20
147.431
 10
102.175
 20
147.38
 10
102.099
 20
147.329
 10
102.022
 20
147.304
 10
101.946
 20
147.253
 10
102.124
 20
147.202
 10
102.302
 20
147.101
 10
102.48
 20
146.974
 10
102.632
 20
146.821
 10
102.759
 20
146.669
 10
102.886
 20
146.517
 10
102.962
 20
146.364
 10
103.039
 20
146.237
  0
LWPOLYLINE
  5
3B
100
AcDbEntity
  8
LAYER_1
 62
   255
100
AcDbPolyline
 90
       24
 70
     1
 10
97.8062
 20
149.844
 10
97.8823
 20
149.895
 10
97.9331
 20
149.946
 10
98.0093
 20
149.996
 10
98.0601
 20
150.047
 10
98.1617
 20
150.022
 10
98.2887
 20
149.971
 10
98.4411
 20
149.92
 10
98.5936
 20
149.844
 10
98.7205
 20
149.742
 10
98.8222
 20
149.641
 10
98.8983
 20
149.539
 10
98.9491
 20
149.438
 10
98.8983
 20
149.387
 10
98.8222
 20
149.311
 10
98.7713
 20
149.26
 10
98.7205
 20
149.209
 10
98.6952
 20
149.311
 10
98.6189
 20
149.438
 10
98.5173
 20
149.539
 10
98.3903
 20
149.641
 10
98.2379
 20
149.717
 10
98.0856
 20
149.793
 10
97.9331
 20
149.819
  0
LWPOLYLINE
  5
3C
100
AcDbEntity
  8
LAYER_1
 62
   255
100
AcDbPolyline
 90
       24
 70
     1
 10
107.535
 20
146.44
 10
107.611
 20
146.517
 10
107.738
 20
146.567
 10
107.865
 20
146.618
 10
108.042
 20
146.669
 10
108.195
 20
146.669
 10
108.373
 20
146.643
 10
108.525
 20
146.593
 10
108.652
 20
146.491
 10
108.677
 20
146.44
 10
108.728
 20
146.364
 10
108.754
 20
146.288
 10
108.804
 20
146.212
 10
108.677
 20
146.288
 10
108.525
 20
146.339
 10
108.373
 20
146.39
 10
108.22
 20
146.39
 10
108.042
 20
146.39
 10
107.916
 20
146.339
 10
107.788
 20
146.288
 10
107.687
 20
146.186
 10
107.661
 20
146.237
 10
107.611
 20
146.313
 10
107.585
 20
146.39
  0
LWPOLYLINE
  5
3D
100
AcDbEntity
  8
LAYER_1
 62
   255
100
AcDbPolyline
 90
       24
 70
     1
 10
105.807
 20
146.364
 10
105.909
 20
146.44
 10
106.036
 20
146.517
 10
106.214
 20
146.567
 10
106.391
 20
146.618
 10
106.569
 20
146.618
 10
106.747
 20
146.618
 10
106.899
 20
146.542
 10
107.052
 20
146.44
 10
107.102
 20
146.364
 10
107.128
 20
146.288
 10
107.179
 20
146.212
 10
107.204
 20
146.136
 10
107.052
 20
146.237
 10
106.899
 20
146.313
 10
106.721
 20
146.364
 10
106.569
 20
146.364
 10
106.417
 20
146.364
 10
106.239
 20
146.313
 10
106.087
 20
146.237
 10
105.934
 20
146.11
 10
105.909
 20
146.161
 10
105.883
 20
146.237
 10
105.833
 20
146.313
  0
LWPOLYLINE
  5
3E
100
AcDbEntity
  8
LAYER_1
 62
   255
100
AcDbPolyline
 90
       25
 70
     1
 10
103.953
 20
145.729
 10
103.978
 20
145.831
 10
104.004
 20
145.932
 10
104.004
 20
146.034
 10
104.029
 20
146.136
 10
104.131
 20
146.186
 10
104.258
 20
146.262
 10
104.385
 20
146.313
 10
104.537
 20
146.39
 10
104.69
 20
146.415
 10
104.842
 20
146.44
 10
105.02
 20
146.44
 10
105.223
 20
146.415
 10
105.274
 20
146.313
 10
105.324
 20
146.237
 10
105.35
 20
146.186
 10
105.401
 20
146.136
 10
105.223
 20
146.186
 10
105.02
 20
146.186
 10
104.817
 20
146.136
 10
104.613
 20
146.085
 10
104.41
 20
146.009
 10
104.232
 20
145.932
 10
104.08
 20
145.831
 10
103.953
 20
145.755
  0
LWPOLYLINE
  5
3F
100
AcDbEntity
  8
LAYER_1
 62
   255
100
AcDbPolyline
 90
       24
 70
     1
 10
110.252
 20
146.415
 10
110.227
 20
146.491
 10
110.201
 20
146.567
 10
110.151
 20
146.643
 10
110.125
 20
146.72
 10
110.024
 20
146.745
 10
109.896
 20
146.771
 10
109.744
 20
146.771
 10
109.566
 20
146.771
 10
109.414
 20
146.745
 10
109.262
 20
146.72
 10
109.135
 20
146.669
 10
109.058
 20
146.593
 10
109.084
 20
146.517
 10
109.109
 20
146.415
 10
109.135
 20
146.339
 10
109.16
 20
146.288
 10
109.236
 20
146.364
 10
109.338
 20
146.415
 10
109.49
 20
146.466
 10
109.643
 20
146.491
 10
109.82
 20
146.491
 10
109.973
 20
146.491
 10
110.125
 20
146.466
  0
LWPOLYLINE
  5
40
100
AcDbEntity
  8
LAYER_1
100
AcDbPolyline
 90
      116
 70
     1
 10
96.1551
 20
141.818
 10
96.6378
 20
141.513
 10
97.0949
 20
141.233
 10
97.5521
 20
141.005
 10
97.9585
 20
140.802
 10
98.3903
 20
140.624
 10
98.7713
 20
140.497
 10
99.1269
 20
140.37
 10
99.4826
 20
140.293
 10
99.7873
 20
140.217
 10
100.092
 20
140.167
 10
100.372
 20
140.141
 10
100.6
 20
140.116
 10
100.803
 20
140.09
 10
101.007
 20
140.09
 10
101.133
 20
140.116
 10
101.261
 20
140.116
 10
101.388
 20
140.141
 10
101.489
 20
140.192
 10
101.591
 20
140.243
 10
101.692
 20
140.319
 10
101.87
 20
140.649
 10
101.997
 20
141.132
 10
102.073
 20
141.716
 10
102.15
 20
142.376
 10
102.2
 20
142.681
 10
102.226
 20
143.011
 10
102.277
 20
143.342
 10
102.327
 20
143.697
 10
102.353
 20
143.799
 10
102.378
 20
143.875
 10
102.378
 20
143.951
 10
102.404
 20
144.053
 10
102.53
 20
144.586
 10
102.683
 20
145.145
 10
102.835
 20
145.679
 10
103.013
 20
146.212
 10
103.064
 20
146.313
 10
103.089
 20
146.415
 10
103.14
 20
146.517
 10
103.166
 20
146.618
 10
103.293
 20
146.974
 10
103.42
 20
147.304
 10
103.547
 20
147.634
 10
103.674
 20
147.914
 10
103.775
 20
148.193
 10
103.851
 20
148.422
 10
103.928
 20
148.625
 10
104.004
 20
148.803
 10
104.105
 20
149.234
 10
104.156
 20
149.666
 10
104.131
 20
150.073
 10
104.055
 20
150.479
 10
103.877
 20
150.835
 10
103.674
 20
151.19
 10
103.369
 20
151.52
 10
103.013
 20
151.8
 10
102.658
 20
152.003
 10
102.251
 20
152.155
 10
101.845
 20
152.232
 10
101.438
 20
152.232
 10
101.007
 20
152.181
 10
100.6
 20
152.054
 10
100.194
 20
151.851
 10
99.8128
 20
151.597
 10
99.6857
 20
151.47
 10
99.5079
 20
151.317
 10
99.3301
 20
151.165
 10
99.1016
 20
150.962
 10
98.873
 20
150.758
 10
98.6189
 20
150.53
 10
98.3395
 20
150.301
 10
98.0601
 20
150.047
 10
98.0093
 20
149.996
 10
97.9331
 20
149.946
 10
97.8823
 20
149.895
 10
97.8062
 20
149.844
 10
97.6029
 20
149.666
 10
97.3743
 20
149.463
 10
97.1458
 20
149.285
 10
96.9172
 20
149.107
 10
96.6886
 20
148.93
 10
96.4598
 20
148.777
 10
96.2313
 20
148.599
 10
96.0027
 20
148.447
 10
95.9519
 20
148.422
 10
95.901
 20
148.396
 10
95.8504
 20
148.345
 10
95.7996
 20
148.32
 10
95.6471
 20
148.218
 10
95.4694
 20
148.142
 10
95.3169
 20
148.041
 10
95.1645
 20
147.964
 10
95.0122
 20
147.863
 10
94.8598
 20
147.787
 10
94.7073
 20
147.71
 10
94.5549
 20
147.634
 10
94.2246
 20
147.457
 10
93.9199
 20
147.304
 10
93.615
 20
147.126
 10
93.3611
 20
146.974
 10
93.1579
 20
146.821
 10
92.9801
 20
146.669
 10
92.8276
 20
146.517
 10
92.7515
 20
146.364
 10
92.726
 20
146.262
 10
92.7007
 20
146.161
 10
92.7007
 20
146.06
 10
92.726
 20
145.958
 10
92.8023
 20
145.704
 10
92.9548
 20
145.348
 10
93.1834
 20
144.891
 10
93.5136
 20
144.358
 10
93.9707
 20
143.773
 10
94.5295
 20
143.138
 10
95.2661
 20
142.478
  0
LWPOLYLINE
  5
41
100
AcDbEntity
  8
LAYER_1
100
AcDbPolyline
 90
      120
 70
     1
 10
107.865
 20
138.566
 10
107.306
 20
138.515
 10
106.772
 20
138.515
 10
106.264
 20
138.515
 10
105.782
 20
138.541
 10
105.35
 20
138.592
 10
104.943
 20
138.668
 10
104.563
 20
138.744
 10
104.232
 20
138.82
 10
103.902
 20
138.922
 10
103.623
 20
139.024
 10
103.394
 20
139.1
 10
103.166
 20
139.201
 10
102.988
 20
139.303
 10
102.81
 20
139.379
 10
102.708
 20
139.455
 10
102.607
 20
139.531
 10
102.505
 20
139.608
 10
102.429
 20
139.709
 10
102.353
 20
139.811
 10
102.327
 20
139.912
 10
102.327
 20
140.293
 10
102.429
 20
140.776
 10
102.632
 20
141.309
 10
102.886
 20
141.945
 10
103.013
 20
142.224
 10
103.14
 20
142.529
 10
103.242
 20
142.859
 10
103.369
 20
143.189
 10
103.394
 20
143.265
 10
103.42
 20
143.367
 10
103.445
 20
143.443
 10
103.47
 20
143.519
 10
103.623
 20
144.053
 10
103.75
 20
144.612
 10
103.851
 20
145.17
 10
103.953
 20
145.729
 10
103.978
 20
145.831
 10
104.004
 20
145.932
 10
104.004
 20
146.034
 10
104.029
 20
146.136
 10
104.131
 20
146.872
 10
104.232
 20
147.533
 10
104.309
 20
148.066
 10
104.359
 20
148.472
 10
104.461
 20
148.904
 10
104.639
 20
149.285
 10
104.867
 20
149.641
 10
105.147
 20
149.946
 10
105.452
 20
150.2
 10
105.807
 20
150.403
 10
106.214
 20
150.555
 10
106.671
 20
150.631
 10
107.077
 20
150.631
 10
107.484
 20
150.581
 10
107.865
 20
150.428
 10
108.246
 20
150.25
 10
108.576
 20
149.996
 10
108.881
 20
149.692
 10
109.135
 20
149.336
 10
109.338
 20
148.93
 10
109.389
 20
148.777
 10
109.465
 20
148.549
 10
109.566
 20
148.32
 10
109.668
 20
148.041
 10
109.77
 20
147.736
 10
109.871
 20
147.431
 10
109.998
 20
147.075
 10
110.125
 20
146.72
 10
110.151
 20
146.643
 10
110.201
 20
146.567
 10
110.227
 20
146.491
 10
110.252
 20
146.415
 10
110.354
 20
146.136
 10
110.455
 20
145.881
 10
110.582
 20
145.602
 10
110.684
 20
145.348
 10
110.811
 20
145.069
 10
110.938
 20
144.815
 10
111.065
 20
144.561
 10
111.192
 20
144.307
 10
111.217
 20
144.256
 10
111.243
 20
144.205
 10
111.268
 20
144.154
 10
111.293
 20
144.104
 10
111.395
 20
143.951
 10
111.497
 20
143.773
 10
111.573
 20
143.621
 10
111.675
 20
143.468
 10
111.776
 20
143.342
 10
111.878
 20
143.189
 10
111.954
 20
143.037
 10
112.056
 20
142.91
 10
112.259
 20
142.605
 10
112.462
 20
142.3
 10
112.64
 20
142.021
 10
112.792
 20
141.767
 10
112.894
 20
141.538
 10
112.995
 20
141.309
 10
113.021
 20
141.106
 10
113.021
 20
140.929
 10
112.995
 20
140.827
 10
112.97
 20
140.725
 10
112.919
 20
140.649
 10
112.843
 20
140.573
 10
112.767
 20
140.497
 10
112.665
 20
140.395
 10
112.513
 20
140.268
 10
112.36
 20
140.141
 10
112.157
 20
140.014
 10
111.954
 20
139.862
 10
111.7
 20
139.709
 10
111.395
 20
139.557
 10
111.091
 20
139.405
 10
110.735
 20
139.252
 10
110.354
 20
139.1
 10
109.922
 20
138.973
 10
109.465
 20
138.846
 10
108.957
 20
138.744
 10
108.423
 20
138.643
  0
LWPOLYLINE
  5
42
100
AcDbEntity
  8
LAYER_1
100
AcDbPolyline
 90
      132
 70
     1
 10
108.627
 20
150.149
 10
108.804
 20
150.123
 10
108.957
 20
150.098
 10
109.084
 20
150.047
 10
109.211
 20
149.971
 10
109.338
 20
149.92
 10
109.414
 20
149.844
 10
109.49
 20
149.793
 10
109.541
 20
149.742
 10
109.617
 20
149.666
 10
109.719
 20
149.615
 10
109.82
 20
149.539
 10
109.947
 20
149.463
 10
110.1
 20
149.438
 10
110.227
 20
149.412
 10
110.379
 20
149.438
 10
110.532
 20
149.488
 10
110.633
 20
149.692
 10
110.786
 20
149.895
 10
110.938
 20
150.022
 10
111.167
 20
150.047
 10
111.344
 20
150.047
 10
111.548
 20
150.047
 10
111.776
 20
150.073
 10
112.03
 20
150.098
 10
112.284
 20
150.174
 10
112.538
 20
150.25
 10
112.792
 20
150.352
 10
113.021
 20
150.479
 10
112.894
 20
150.352
 10
112.767
 20
150.225
 10
112.64
 20
150.098
 10
112.513
 20
149.946
 10
112.386
 20
149.819
 10
112.259
 20
149.666
 10
112.132
 20
149.514
 10
111.979
 20
149.336
 10
111.802
 20
149.158
 10
111.624
 20
149.006
 10
111.446
 20
148.93
 10
111.268
 20
148.879
 10
111.091
 20
148.879
 10
110.938
 20
148.955
 10
110.76
 20
149.057
 10
110.608
 20
149.234
 10
110.532
 20
149.209
 10
110.455
 20
149.209
 10
110.354
 20
149.209
 10
110.278
 20
149.209
 10
110.379
 20
149.133
 10
110.532
 20
149.006
 10
110.684
 20
148.879
 10
110.887
 20
148.752
 10
111.065
 20
148.599
 10
111.293
 20
148.447
 10
111.497
 20
148.32
 10
111.725
 20
148.193
 10
111.827
 20
148.269
 10
111.954
 20
148.32
 10
112.056
 20
148.371
 10
112.157
 20
148.396
 10
112.284
 20
148.422
 10
112.386
 20
148.422
 10
112.488
 20
148.422
 10
112.589
 20
148.396
 10
112.792
 20
148.295
 10
112.945
 20
148.142
 10
113.072
 20
147.99
 10
113.148
 20
147.837
 10
113.199
 20
147.761
 10
113.275
 20
147.659
 10
113.351
 20
147.583
 10
113.478
 20
147.482
 10
113.605
 20
147.406
 10
113.732
 20
147.304
 10
113.91
 20
147.253
 10
114.088
 20
147.177
 10
113.707
 20
147.152
 10
113.351
 20
147.126
 10
113.021
 20
147.101
 10
112.69
 20
147.101
 10
112.411
 20
147.101
 10
112.132
 20
147.126
 10
111.878
 20
147.177
 10
111.675
 20
147.279
 10
111.522
 20
147.406
 10
111.421
 20
147.583
 10
111.395
 20
147.787
 10
111.548
 20
148.015
 10
111.472
 20
148.066
 10
111.344
 20
148.168
 10
111.217
 20
148.244
 10
111.065
 20
148.345
 10
110.938
 20
148.447
 10
110.786
 20
148.549
 10
110.684
 20
148.625
 10
110.633
 20
148.676
 10
110.735
 20
148.472
 10
110.811
 20
148.269
 10
110.862
 20
148.091
 10
110.887
 20
147.939
 10
111.091
 20
147.812
 10
111.268
 20
147.609
 10
111.37
 20
147.38
 10
111.37
 20
147.126
 10
111.293
 20
146.796
 10
111.141
 20
146.39
 10
110.913
 20
145.958
 10
110.684
 20
145.679
 10
110.76
 20
145.958
 10
110.76
 20
146.212
 10
110.71
 20
146.44
 10
110.608
 20
146.669
 10
110.481
 20
146.948
 10
110.354
 20
147.228
 10
110.252
 20
147.457
 10
110.227
 20
147.609
 10
110.252
 20
147.71
 10
110.303
 20
147.837
 10
110.43
 20
147.939
 10
110.684
 20
147.964
 10
110.659
 20
148.168
 10
110.582
 20
148.422
 10
110.481
 20
148.676
 10
110.328
 20
148.879
 10
110.201
 20
149.006
 10
110.049
 20
149.133
 10
109.871
 20
149.311
 10
109.643
 20
149.488
 10
109.389
 20
149.666
 10
109.135
 20
149.844
 10
108.881
 20
149.996
  0
LWPOLYLINE
  5
43
100
AcDbEntity
  8
LAYER_1
100
AcDbPolyline
 90
       84
 70
     1
 10
98.0093
 20
155.737
 10
98.1364
 20
155.635
 10
98.2634
 20
155.534
 10
98.4158
 20
155.432
 10
98.5681
 20
155.356
 10
98.7205
 20
155.254
 10
98.873
 20
155.178
 10
99.0254
 20
155.127
 10
99.1777
 20
155.051
 10
99.3301
 20
154.975
 10
99.5079
 20
154.899
 10
99.6857
 20
154.797
 10
99.8636
 20
154.645
 10
100.016
 20
154.467
 10
100.143
 20
154.238
 10
100.245
 20
153.959
 10
100.27
 20
153.629
 10
100.397
 20
153.552
 10
100.549
 20
153.476
 10
100.727
 20
153.349
 10
100.905
 20
153.222
 10
100.88
 20
153.349
 10
100.854
 20
153.476
 10
100.854
 20
153.603
 10
100.854
 20
153.705
 10
100.727
 20
153.756
 10
100.6
 20
153.832
 10
100.499
 20
153.933
 10
100.372
 20
154.06
 10
100.27
 20
154.187
 10
100.194
 20
154.314
 10
100.118
 20
154.442
 10
100.067
 20
154.594
 10
100.016
 20
154.822
 10
99.9906
 20
155.051
 10
99.9906
 20
155.28
 10
100.041
 20
155.508
 10
100.092
 20
155.737
 10
100.168
 20
155.94
 10
100.194
 20
156.169
 10
100.219
 20
156.346
 10
100.295
 20
156.169
 10
100.397
 20
155.94
 10
100.524
 20
155.686
 10
100.727
 20
155.457
 10
100.956
 20
155.178
 10
101.108
 20
154.772
 10
101.133
 20
154.289
 10
100.981
 20
153.756
 10
100.981
 20
153.603
 10
101.007
 20
153.451
 10
101.057
 20
153.298
 10
101.159
 20
153.146
 10
101.286
 20
152.968
 10
101.464
 20
152.816
 10
101.718
 20
152.613
 10
102.022
 20
152.409
 10
101.946
 20
152.409
 10
101.896
 20
152.409
 10
101.845
 20
152.409
 10
101.794
 20
152.409
 10
101.616
 20
152.511
 10
101.464
 20
152.613
 10
101.311
 20
152.714
 10
101.184
 20
152.79
 10
101.083
 20
152.867
 10
100.981
 20
152.943
 10
100.905
 20
153.019
 10
100.829
 20
153.095
 10
100.702
 20
153.197
 10
100.499
 20
153.349
 10
100.295
 20
153.451
 10
100.143
 20
153.527
 10
99.8381
 20
153.502
 10
99.5587
 20
153.476
 10
99.2793
 20
153.502
 10
99.0507
 20
153.552
 10
98.8222
 20
153.629
 10
98.6444
 20
153.781
 10
98.4666
 20
153.984
 10
98.3395
 20
154.238
 10
98.1617
 20
154.797
 10
98.0856
 20
155.203
 10
98.0601
 20
155.508
  0
LWPOLYLINE
  5
44
100
AcDbEntity
  8
LAYER_1
 62
   255
100
AcDbPolyline
 90
       24
 70
     1
 10
104.436
 20
151.012
 10
104.385
 20
151.089
 10
104.359
 20
151.139
 10
104.309
 20
151.19
 10
104.258
 20
151.241
 10
104.309
 20
151.419
 10
104.359
 20
151.597
 10
104.461
 20
151.749
 10
104.588
 20
151.901
 10
104.74
 20
152.003
 10
104.918
 20
152.054
 10
105.147
 20
152.105
 10
105.426
 20
152.079
 10
105.477
 20
152.003
 10
105.502
 20
151.927
 10
105.553
 20
151.825
 10
105.579
 20
151.749
 10
105.426
 20
151.825
 10
105.248
 20
151.876
 10
105.045
 20
151.876
 10
104.867
 20
151.825
 10
104.69
 20
151.698
 10
104.563
 20
151.495
 10
104.486
 20
151.266
  0
LWPOLYLINE
  5
45
100
AcDbEntity
  8
LAYER_1
100
AcDbPolyline
 90
       40
 70
     1
 10
113.249
 20
151.952
 10
113.402
 20
152.054
 10
113.58
 20
152.155
 10
113.757
 20
152.282
 10
113.961
 20
152.384
 10
114.164
 20
152.486
 10
114.392
 20
152.587
 10
114.596
 20
152.663
 10
114.773
 20
152.714
 10
114.621
 20
152.765
 10
114.367
 20
152.816
 10
114.011
 20
152.79
 10
113.58
 20
152.714
 10
113.072
 20
152.536
 10
112.513
 20
152.257
 10
111.903
 20
151.876
 10
111.293
 20
151.343
 10
111.091
 20
151.19
 10
110.786
 20
151.038
 10
110.379
 20
150.885
 10
109.922
 20
150.758
 10
109.439
 20
150.657
 10
108.906
 20
150.606
 10
108.373
 20
150.606
 10
107.865
 20
150.682
 10
108.22
 20
150.555
 10
108.55
 20
150.428
 10
108.855
 20
150.327
 10
109.135
 20
150.25
 10
109.389
 20
150.2
 10
109.617
 20
150.149
 10
109.846
 20
150.123
 10
110.049
 20
150.098
 10
110.71
 20
150.123
 10
111.217
 20
150.25
 10
111.675
 20
150.479
 10
112.03
 20
150.758
 10
112.36
 20
151.063
 10
112.64
 20
151.368
 10
112.945
 20
151.673
  0
LWPOLYLINE
  5
46
100
AcDbEntity
  8
LAYER_1
100
AcDbPolyline
 90
       36
 70
     1
 10
113.656
 20
151.901
 10
113.783
 20
151.978
 10
113.91
 20
152.079
 10
114.062
 20
152.155
 10
114.215
 20
152.257
 10
114.392
 20
152.333
 10
114.621
 20
152.409
 10
114.85
 20
152.435
 10
115.104
 20
152.46
 10
115.282
 20
152.333
 10
115.459
 20
152.155
 10
115.637
 20
151.978
 10
115.815
 20
151.8
 10
115.993
 20
151.571
 10
116.145
 20
151.343
 10
116.272
 20
151.089
 10
116.374
 20
150.835
 10
116.247
 20
150.911
 10
116.12
 20
150.962
 10
115.967
 20
151.038
 10
115.84
 20
151.114
 10
115.688
 20
151.165
 10
115.561
 20
151.216
 10
115.408
 20
151.241
 10
115.307
 20
151.266
 10
115.231
 20
151.089
 10
115.18
 20
150.911
 10
115.104
 20
150.708
 10
115.027
 20
150.479
 10
114.951
 20
150.682
 10
114.824
 20
150.911
 10
114.697
 20
151.114
 10
114.545
 20
151.317
 10
114.342
 20
151.52
 10
114.138
 20
151.673
 10
113.91
 20
151.8
  0
LWPOLYLINE
  5
47
100
AcDbEntity
  8
LAYER_1
100
AcDbPolyline
 90
      216
 70
     1
 10
111.472
 20
152.257
 10
111.522
 20
152.562
 10
111.472
 20
152.867
 10
111.319
 20
153.095
 10
111.116
 20
153.197
 10
111.014
 20
153.045
 10
110.862
 20
152.892
 10
110.71
 20
152.74
 10
110.506
 20
152.613
 10
110.303
 20
152.46
 10
110.074
 20
152.308
 10
109.82
 20
152.181
 10
109.541
 20
152.054
 10
109.236
 20
151.952
 10
108.932
 20
151.851
 10
108.576
 20
151.774
 10
108.246
 20
151.724
 10
107.865
 20
151.673
 10
107.484
 20
151.673
 10
107.077
 20
151.673
 10
106.645
 20
151.724
 10
106.925
 20
151.876
 10
107.179
 20
152.003
 10
107.407
 20
152.181
 10
107.611
 20
152.333
 10
107.788
 20
152.511
 10
107.966
 20
152.663
 10
108.144
 20
152.816
 10
108.322
 20
152.968
 10
108.576
 20
153.121
 10
108.881
 20
153.324
 10
109.262
 20
153.502
 10
109.668
 20
153.654
 10
110.1
 20
153.756
 10
110.506
 20
153.781
 10
110.913
 20
153.705
 10
111.268
 20
153.527
 10
111.421
 20
153.375
 10
111.573
 20
153.222
 10
111.7
 20
153.019
 10
111.827
 20
152.74
 10
111.852
 20
152.994
 10
111.827
 20
153.273
 10
111.751
 20
153.578
 10
111.649
 20
153.857
 10
111.497
 20
154.111
 10
111.319
 20
154.365
 10
111.141
 20
154.543
 10
110.913
 20
154.67
 10
110.227
 20
154.721
 10
109.592
 20
154.645
 10
109.008
 20
154.467
 10
108.499
 20
154.238
 10
108.068
 20
153.933
 10
107.712
 20
153.654
 10
107.433
 20
153.375
 10
107.23
 20
153.171
 10
107.128
 20
153.045
 10
107.001
 20
152.917
 10
106.874
 20
152.816
 10
106.721
 20
152.689
 10
106.569
 20
152.587
 10
106.442
 20
152.511
 10
106.315
 20
152.435
 10
106.214
 20
152.384
 10
106.645
 20
152.816
 10
107.001
 20
153.197
 10
107.28
 20
153.578
 10
107.509
 20
153.933
 10
107.687
 20
154.264
 10
107.814
 20
154.543
 10
107.916
 20
154.822
 10
107.992
 20
155.076
 10
108.093
 20
155.737
 10
108.042
 20
156.423
 10
107.89
 20
157.032
 10
107.661
 20
157.464
 10
107.56
 20
157.566
 10
107.407
 20
157.667
 10
107.28
 20
157.769
 10
107.102
 20
157.87
 10
106.925
 20
157.947
 10
106.747
 20
157.997
 10
106.544
 20
158.048
 10
106.34
 20
158.074
 10
106.493
 20
157.947
 10
106.62
 20
157.794
 10
106.772
 20
157.617
 10
106.899
 20
157.413
 10
107.052
 20
157.007
 10
107.128
 20
156.499
 10
107.128
 20
155.889
 10
107.026
 20
155.229
 10
106.849
 20
154.543
 10
106.544
 20
153.832
 10
106.138
 20
153.095
 10
105.579
 20
152.409
 10
105.426
 20
153.171
 10
105.35
 20
153.959
 10
105.375
 20
154.772
 10
105.452
 20
155.508
 10
105.629
 20
156.194
 10
105.858
 20
156.753
 10
106.163
 20
157.159
 10
106.544
 20
157.388
 10
106.519
 20
157.489
 10
106.442
 20
157.591
 10
106.366
 20
157.693
 10
106.239
 20
157.769
 10
106.138
 20
157.845
 10
106.01
 20
157.921
 10
105.883
 20
157.972
 10
105.782
 20
157.997
 10
105.629
 20
157.947
 10
105.477
 20
157.87
 10
105.324
 20
157.794
 10
105.147
 20
157.667
 10
104.994
 20
157.54
 10
104.867
 20
157.388
 10
104.74
 20
157.21
 10
104.639
 20
157.007
 10
104.486
 20
156.423
 10
104.461
 20
155.813
 10
104.512
 20
155.178
 10
104.613
 20
154.518
 10
104.512
 20
154.822
 10
104.385
 20
155.102
 10
104.207
 20
155.381
 10
104.004
 20
155.635
 10
103.775
 20
155.838
 10
103.496
 20
156.016
 10
103.191
 20
156.118
 10
102.861
 20
156.169
 10
102.658
 20
156.067
 10
102.505
 20
155.813
 10
102.404
 20
155.534
 10
102.378
 20
155.331
 10
102.835
 20
155.229
 10
103.293
 20
154.975
 10
103.699
 20
154.619
 10
104.055
 20
154.137
 10
104.334
 20
153.629
 10
104.537
 20
153.121
 10
104.639
 20
152.613
 10
104.639
 20
152.181
 10
103.978
 20
152.333
 10
103.42
 20
152.663
 10
102.962
 20
153.07
 10
102.581
 20
153.552
 10
102.302
 20
154.06
 10
102.124
 20
154.543
 10
102.048
 20
154.975
 10
102.073
 20
155.331
 10
102.2
 20
155.635
 10
102.327
 20
155.864
 10
102.48
 20
156.067
 10
102.607
 20
156.194
 10
102.454
 20
156.143
 10
102.302
 20
156.092
 10
102.124
 20
155.991
 10
101.972
 20
155.864
 10
101.819
 20
155.737
 10
101.667
 20
155.584
 10
101.54
 20
155.432
 10
101.413
 20
155.28
 10
101.235
 20
154.721
 10
101.21
 20
154.086
 10
101.388
 20
153.451
 10
101.692
 20
152.917
 10
101.921
 20
152.663
 10
102.226
 20
152.46
 10
102.556
 20
152.257
 10
102.886
 20
152.079
 10
103.216
 20
151.927
 10
103.496
 20
151.774
 10
103.75
 20
151.647
 10
103.953
 20
151.495
 10
104.055
 20
151.419
 10
104.131
 20
151.343
 10
104.207
 20
151.292
 10
104.258
 20
151.241
 10
104.309
 20
151.19
 10
104.359
 20
151.139
 10
104.385
 20
151.089
 10
104.436
 20
151.012
 10
104.486
 20
150.86
 10
104.588
 20
150.733
 10
104.69
 20
150.631
 10
104.817
 20
150.555
 10
104.918
 20
150.479
 10
105.045
 20
150.428
 10
105.147
 20
150.377
 10
105.248
 20
150.327
 10
105.274
 20
150.403
 10
105.35
 20
150.479
 10
105.452
 20
150.53
 10
105.553
 20
150.606
 10
105.655
 20
150.682
 10
105.731
 20
150.758
 10
105.833
 20
150.86
 10
105.909
 20
151.012
 10
106.163
 20
150.936
 10
106.493
 20
150.885
 10
106.874
 20
150.835
 10
107.28
 20
150.809
 10
107.687
 20
150.809
 10
108.042
 20
150.809
 10
108.373
 20
150.809
 10
108.601
 20
150.835
 10
109.236
 20
150.936
 10
109.77
 20
151.089
 10
110.201
 20
151.266
 10
110.582
 20
151.47
 10
110.862
 20
151.673
 10
111.116
 20
151.901
 10
111.319
 20
152.079
  0
LWPOLYLINE
  5
48
100
AcDbEntity
  8
LAYER_1
100
AcDbPolyline
 90
       32
 70
     1
 10
98.9999
 20
152.359
 10
99.1269
 20
152.409
 10
99.3048
 20
152.486
 10
99.4826
 20
152.562
 10
99.7112
 20
152.638
 10
99.9144
 20
152.689
 10
100.168
 20
152.74
 10
100.397
 20
152.79
 10
100.625
 20
152.79
 10
100.753
 20
152.74
 10
100.854
 20
152.714
 10
100.981
 20
152.663
 10
101.083
 20
152.613
 10
101.21
 20
152.562
 10
101.311
 20
152.511
 10
101.438
 20
152.46
 10
101.54
 20
152.384
 10
101.311
 20
152.384
 10
101.083
 20
152.384
 10
100.88
 20
152.359
 10
100.676
 20
152.333
 10
100.473
 20
152.282
 10
100.295
 20
152.232
 10
100.143
 20
152.181
 10
99.9906
 20
152.13
 10
99.9144
 20
152.155
 10
99.8128
 20
152.181
 10
99.7112
 20
152.206
 10
99.5842
 20
152.232
 10
99.4318
 20
152.257
 10
99.2793
 20
152.308
 10
99.1524
 20
152.333
  0
LWPOLYLINE
  5
49
100
AcDbEntity
  8
LAYER_1
100
AcDbPolyline
 90
       40
 70
     1
 10
93.9452
 20
150.555
 10
93.7422
 20
150.631
 10
93.5644
 20
150.708
 10
93.3611
 20
150.784
 10
93.1834
 20
150.885
 10
93.0054
 20
150.987
 10
92.8276
 20
151.063
 10
92.6499
 20
151.165
 10
92.4721
 20
151.266
 10
92.5483
 20
151.292
 10
92.6499
 20
151.317
 10
92.7768
 20
151.343
 10
92.9293
 20
151.393
 10
93.0817
 20
151.444
 10
93.2342
 20
151.495
 10
93.3611
 20
151.52
 10
93.4373
 20
151.571
 10
93.4373
 20
151.774
 10
93.4373
 20
152.079
 10
93.4373
 20
152.384
 10
93.4373
 20
152.587
 10
93.615
 20
152.308
 10
93.8183
 20
152.079
 10
94.0469
 20
151.876
 10
94.2755
 20
151.698
 10
94.5295
 20
151.571
 10
94.7328
 20
151.47
 10
94.9359
 20
151.393
 10
95.0883
 20
151.368
 10
95.2408
 20
151.368
 10
95.3677
 20
151.393
 10
95.4694
 20
151.419
 10
95.571
 20
151.444
 10
95.4947
 20
151.317
 10
95.3422
 20
151.165
 10
95.19
 20
151.012
 10
94.9867
 20
150.86
 10
94.7581
 20
150.708
 10
94.504
 20
150.606
 10
94.2246
 20
150.53
  0
LWPOLYLINE
  5
4A
100
AcDbEntity
  8
LAYER_1
100
AcDbPolyline
 90
       48
 70
     1
 10
94.5295
 20
150.403
 10
94.7328
 20
150.377
 10
94.9359
 20
150.377
 10
95.1392
 20
150.377
 10
95.3422
 20
150.428
 10
95.571
 20
150.479
 10
95.7741
 20
150.53
 10
95.9773
 20
150.631
 10
96.2059
 20
150.758
 10
96.5615
 20
150.987
 10
96.8664
 20
151.266
 10
97.1711
 20
151.52
 10
97.4505
 20
151.774
 10
97.7299
 20
152.003
 10
97.984
 20
152.206
 10
98.2634
 20
152.333
 10
98.5173
 20
152.384
 10
98.6697
 20
152.46
 10
98.873
 20
152.536
 10
99.0761
 20
152.638
 10
99.3048
 20
152.714
 10
99.5334
 20
152.79
 10
99.762
 20
152.841
 10
100.016
 20
152.892
 10
100.245
 20
152.892
 10
99.8889
 20
152.968
 10
99.5334
 20
153.045
 10
99.1777
 20
153.07
 10
98.8475
 20
153.095
 10
98.5428
 20
153.07
 10
98.2379
 20
153.045
 10
97.9331
 20
152.994
 10
97.6791
 20
152.917
 10
97.3997
 20
152.841
 10
97.1711
 20
152.74
 10
96.9425
 20
152.638
 10
96.7139
 20
152.511
 10
96.5361
 20
152.384
 10
96.3584
 20
152.232
 10
96.2059
 20
152.079
 10
96.079
 20
151.927
 10
95.9519
 20
151.622
 10
95.7741
 20
151.368
 10
95.5963
 20
151.114
 10
95.3931
 20
150.911
 10
95.19
 20
150.733
 10
94.9614
 20
150.606
 10
94.7581
 20
150.479
  0
ENDSEC
  0
SECTION
  2
OBJECTS
  0
DICTIONARY
  5
19
100
AcDbDictionary
  3
ACAD_GROUP
350
1A
  3
ACAD_MLINESTYLE
350
1B
  0
DICTIONARY
  5
1A
102
{ACAD_REACTORS
330
19
102
}
100
AcDbDictionary
  0
DICTIONARY
  5
1B
102
{ACAD_REACTORS
330
19
102
}
100
AcDbDictionary
  3
STANDARD
350
1C
  0
MLINESTYLE
  5
1C
102
{ACAD_REACTORS
330
1B
102
}
100
AcDbMlineStyle
  2
STANDARD
 70
     0
  3

 62
     0
 51
90.0
 52
90.0
 71
     2
 49
0.5
 62
   256
  6
BYLAYER
 49
-0.5
 62
   256
  6
BYLAYER
  0
ENDSEC
  0
EOF
