999
dxflib 2.0.4.8
  0
SECTION
  2
HEADER
  9
$ACADVER
  1
AC1015
  9
$HANDSEED
  5
FFFF
  9
$CLAYER
  8
0
  9
$VIEWSIZE
 40
215.90000000000001
  9
$DIMASZ
 40
0.1875
  9
$EXTMIN
 10
0.0
 20
0.0
 30
0.0
  9
$MEASUREMENT
 70
1
  9
$DIMTFAC
 40
1.0
  9
$DIMGAP
 40
0.625
  9
$LIMMIN
 10
0.0
 20
0.0
  9
$DIMCEN
 40
2.5146000000000002
  9
$DIMEXO
 40
1.7462500000000001
  9
$EXTMAX
 10
279.39999999999998
 20
215.90000000000001
 30
0.0
  9
$INSUNITS
 70
4
  9
$DIMSCALE
 40
1.0
  9
$VIEWCTR
 10
139.69999999999999
 20
107.95
  9
$LIMMAX
 10
279.39999999999998
 20
215.90000000000001
  9
$DIMLIM
 70
0
  9
$DIMTXT
 40
4.0
  9
$DIMLFAC
 40
1.0
  9
$CELTYPE
  6
BYLAYER
  9
$DIMSTYLE
  2
Standard
  9
$DIMDLI
 40
10.6172
  9
$LTSCALE
 40
15.367000000000001
  9
$PLIMMAX
 10
210.0
 20
297.0
  9
$PLIMMIN
 10
0.0
 20
0.0
  9
$DIMEXE
 40
5.0292000000000003
  9
$DIMTOL
 70
0
  0
ENDSEC
  0
SECTION
  2
TABLES
  0
TABLE
  2
VPORT
  5
8
100
AcDbSymbolTable
 70
1
  0
VPORT
  5
30
100
AcDbSymbolTableRecord
100
AcDbViewportTableRecord
  2
*Active
 70
0
 10
0.0
 20
0.0
 11
1.0
 21
1.0
 12
286.30555555555549
 22
148.5
 13
0.0
 23
0.0
 14
10.0
 24
10.0
 15
10.0
 25
10.0
 16
0.0
 26
0.0
 36
1.0
 17
0.0
 27
0.0
 37
0.0
 40
297.0
 41
1.92798353909465
 42
50.0
 43
0.0
 44
0.0
 50
0.0
 51
0.0
 71
0
 72
100
 73
1
 74
3
 75
1
 76
1
 77
0
 78
0
281
0
 65
1
110
0.0
120
0.0
130
0.0
111
1.0
121
0.0
131
0.0
112
0.0
122
1.0
132
0.0
 79
0
146
0.0
  0
ENDTAB
  0
TABLE
  2
LTYPE
  5
5
100
AcDbSymbolTable
 70
21
  0
LTYPE
  5
14
100
AcDbSymbolTableRecord
100
AcDbLinetypeTableRecord
  2
ByBlock
 70
0
  3

 72
65
 73
0
 40
0.0
  0
LTYPE
  5
15
100
AcDbSymbolTableRecord
100
AcDbLinetypeTableRecord
  2
ByLayer
 70
0
  3

 72
65
 73
0
 40
0.0
  0
LTYPE
  5
16
100
AcDbSymbolTableRecord
100
AcDbLinetypeTableRecord
  2
CONTINUOUS
 70
0
  3
Solid line
 72
65
 73
0
 40
0.0
  0
LTYPE
  5
31
100
AcDbSymbolTableRecord
100
AcDbLinetypeTableRecord
  2
DOT
 70
0
  3
Dot . . . . . . . . . . . . . . . . . . . . . .
 72
65
 73
2
 40
6.3499999999999996
 49
0.0
 74
0
 49
-6.3499999999999996
 74
0
  0
LTYPE
  5
32
100
AcDbSymbolTableRecord
100
AcDbLinetypeTableRecord
  2
DOT2
 70
0
  3
Dot (.5x) .....................................
 72
65
 73
2
 40
3.1749999999999998
 49
0.0
 74
0
 49
-3.1749999999999998
 74
0
  0
LTYPE
  5
33
100
AcDbSymbolTableRecord
100
AcDbLinetypeTableRecord
  2
DOTX2
 70
0
  3
Dot (2x) .  .  .  .  .  .  .  .  .  .  .  .  .
 72
65
 73
2
 40
12.699999999999999
 49
0.0
 74
0
 49
-12.699999999999999
 74
0
  0
LTYPE
  5
34
100
AcDbSymbolTableRecord
100
AcDbLinetypeTableRecord
  2
DASHED
 70
0
  3
Dashed __ __ __ __ __ __ __ __ __ __ __ __ __ _
 72
65
 73
2
 40
19.050000000000001
 49
12.699999999999999
 74
0
 49
-6.3499999999999996
 74
0
  0
LTYPE
  5
35
100
AcDbSymbolTableRecord
100
AcDbLinetypeTableRecord
  2
DASHED2
 70
0
  3
Dashed (.5x) _ _ _ _ _ _ _ _ _ _ _ _ _ _ _ _ _
 72
65
 73
2
 40
9.5250000000000004
 49
6.3499999999999996
 74
0
 49
-3.1749999999999998
 74
0
  0
LTYPE
  5
36
100
AcDbSymbolTableRecord
100
AcDbLinetypeTableRecord
  2
DASHEDX2
 70
0
  3
Dashed (2x) ____  ____  ____  ____  ____  ___
 72
65
 73
2
 40
38.100000000000001
 49
25.399999999999999
 74
0
 49
-12.699999999999999
 74
0
  0
LTYPE
  5
37
100
AcDbSymbolTableRecord
100
AcDbLinetypeTableRecord
  2
DASHDOT
 70
0
  3
Dash dot __ . __ . __ . __ . __ . __ . __ . __
 72
65
 73
4
 40
25.399999999999999
 49
12.699999999999999
 74
0
 49
-6.3499999999999996
 74
0
 49
0.0
 74
0
 49
-6.3499999999999996
 74
0
  0
LTYPE
  5
38
100
AcDbSymbolTableRecord
100
AcDbLinetypeTableRecord
  2
DASHDOT2
 70
0
  3
Dash dot (.5x) _._._._._._._._._._._._._._._.
 72
65
 73
4
 40
12.699999999999999
 49
6.3499999999999996
 74
0
 49
-3.1749999999999998
 74
0
 49
0.0
 74
0
 49
-3.1749999999999998
 74
0
  0
LTYPE
  5
39
100
AcDbSymbolTableRecord
100
AcDbLinetypeTableRecord
  2
DASHDOTX2
 70
0
  3
Dash dot (2x) ____  .  ____  .  ____  .  ___
 72
65
 73
4
 40
50.799999999999997
 49
25.399999999999999
 74
0
 49
-12.699999999999999
 74
0
 49
0.0
 74
0
 49
-12.699999999999999
 74
0
  0
LTYPE
  5
3A
100
AcDbSymbolTableRecord
100
AcDbLinetypeTableRecord
  2
DIVIDE
 70
0
  3
Divide ____ . . ____ . . ____ . . ____ . . ____
 72
65
 73
6
 40
31.75
 49
12.699999999999999
 74
0
 49
-6.3499999999999996
 74
0
 49
0.0
 74
0
 49
-6.3499999999999996
 74
0
 49
0.0
 74
0
 49
-6.3499999999999996
 74
0
  0
LTYPE
  5
3B
100
AcDbSymbolTableRecord
100
AcDbLinetypeTableRecord
  2
DIVIDE2
 70
0
  3
Divide (.5x) __..__..__..__..__..__..__..__.._
 72
65
 73
6
 40
15.875
 49
6.3499999999999996
 74
0
 49
-3.1749999999999998
 74
0
 49
0.0
 74
0
 49
-3.1749999999999998
 74
0
 49
0.0
 74
0
 49
-3.1749999999999998
 74
0
  0
LTYPE
  5
3C
100
AcDbSymbolTableRecord
100
AcDbLinetypeTableRecord
  2
DIVIDEX2
 70
0
  3
Divide (2x) ________  .  .  ________  .  .  _
 72
65
 73
6
 40
63.5
 49
25.399999999999999
 74
0
 49
-12.699999999999999
 74
0
 49
0.0
 74
0
 49
-12.699999999999999
 74
0
 49
0.0
 74
0
 49
-12.699999999999999
 74
0
  0
LTYPE
  5
3D
100
AcDbSymbolTableRecord
100
AcDbLinetypeTableRecord
  2
CENTER
 70
0
  3
Center ____ _ ____ _ ____ _ ____ _ ____ _ ____
 72
65
 73
4
 40
50.799999999999997
 49
31.75
 74
0
 49
-6.3499999999999996
 74
0
 49
6.3499999999999996
 74
0
 49
-6.3499999999999996
 74
0
  0
LTYPE
  5
3E
100
AcDbSymbolTableRecord
100
AcDbLinetypeTableRecord
  2
CENTER2
 70
0
  3
Center (.5x) ___ _ ___ _ ___ _ ___ _ ___ _ ___
 72
65
 73
4
 40
28.574999999999999
 49
19.050000000000001
 74
0
 49
-3.1749999999999998
 74
0
 49
3.1749999999999998
 74
0
 49
-3.1749999999999998
 74
0
  0
LTYPE
  5
3F
100
AcDbSymbolTableRecord
100
AcDbLinetypeTableRecord
  2
CENTERX2
 70
0
  3
Center (2x) ________  __  ________  __  _____
 72
65
 73
4
 40
101.59999999999999
 49
63.5
 74
0
 49
-12.699999999999999
 74
0
 49
12.699999999999999
 74
0
 49
-12.699999999999999
 74
0
  0
LTYPE
  5
40
100
AcDbSymbolTableRecord
100
AcDbLinetypeTableRecord
  2
BORDER
 70
0
  3
Border __ __ . __ __ . __ __ . __ __ . __ __ .
 72
65
 73
6
 40
44.450000000000003
 49
12.699999999999999
 74
0
 49
-6.3499999999999996
 74
0
 49
12.699999999999999
 74
0
 49
-6.3499999999999996
 74
0
 49
0.0
 74
0
 49
-6.3499999999999996
 74
0
  0
LTYPE
  5
41
100
AcDbSymbolTableRecord
100
AcDbLinetypeTableRecord
  2
BORDER2
 70
0
  3
Border (.5x) __.__.__.__.__.__.__.__.__.__.__.
 72
65
 73
6
 40
22.225000000000001
 49
6.3499999999999996
 74
0
 49
-3.1749999999999998
 74
0
 49
6.3499999999999996
 74
0
 49
-3.1749999999999998
 74
0
 49
0.0
 74
0
 49
-3.1749999999999998
 74
0
  0
LTYPE
  5
42
100
AcDbSymbolTableRecord
100
AcDbLinetypeTableRecord
  2
BORDERX2
 70
0
  3
Border (2x) ____  ____  .  ____  ____  .  ___
 72
65
 73
6
 40
88.900000000000006
 49
25.399999999999999
 74
0
 49
-12.699999999999999
 74
0
 49
25.399999999999999
 74
0
 49
-12.699999999999999
 74
0
 49
0.0
 74
0
 49
-12.699999999999999
 74
0
  0
ENDTAB
  0
TABLE
  2
LAYER
  5
2
100
AcDbSymbolTable
 70
2
  0
LAYER
  5
10
100
AcDbSymbolTableRecord
100
AcDbLayerTableRecord
  2
0
 70
0
 62
7
  6
CONTINUOUS
390
F
  0
LAYER
  5
43
100
AcDbSymbolTableRecord
100
AcDbLayerTableRecord
  2
DEFAULT_2
 70
0
 62
8
  6
DASHED
390
F
  0
ENDTAB
  0
TABLE
  2
STYLE
  5
3
100
AcDbSymbolTable
 70
1
  0
STYLE
  5
11
100
AcDbSymbolTableRecord
100
AcDbTextStyleTableRecord
  2
Standard
 70
0
 40
0.0
 41
0.75
 50
0.0
 71
0
 42
2.5
  3
txt
  4

  0
ENDTAB
  0
TABLE
  2
VIEW
  5
6
100
AcDbSymbolTable
 70
0
  0
ENDTAB
  0
TABLE
  2
UCS
  5
7
100
AcDbSymbolTable
 70
0
  0
ENDTAB
  0
TABLE
  2
APPID
  5
9
100
AcDbSymbolTable
 70
1
  0
APPID
  5
12
100
AcDbSymbolTableRecord
100
AcDbRegAppTableRecord
  2
ACAD
 70
0
  0
ENDTAB
  0
TABLE
  2
DIMSTYLE
  5
A
100
AcDbSymbolTable
 70
1
100
AcDbDimStyleTable
 71
0
  0
DIMSTYLE
105
27
100
AcDbSymbolTableRecord
100
AcDbDimStyleTableRecord
  2
Standard
 41
0.1875
 42
1.7462500000000001
 43
3.75
 44
5.0292000000000003
 70
0
 73
0
 74
0
 77
1
 78
8
140
4.0
141
2.5
143
0.03937007874016
147
0.625
171
3
172
1
271
2
272
2
274
3
278
44
283
0
284
8
340
11
  0
ENDTAB
  0
TABLE
  2
BLOCK_RECORD
  5
1
100
AcDbSymbolTable
 70
1
  0
BLOCK_RECORD
  5
1F
100
AcDbSymbolTableRecord
100
AcDbBlockTableRecord
  2
*Model_Space
340
22
  0
BLOCK_RECORD
  5
1B
100
AcDbSymbolTableRecord
100
AcDbBlockTableRecord
  2
*Paper_Space
340
1E
  0
BLOCK_RECORD
  5
23
100
AcDbSymbolTableRecord
100
AcDbBlockTableRecord
  2
*Paper_Space0
340
26
  0
ENDTAB
  0
ENDSEC
  0
SECTION
  2
BLOCKS
  0
BLOCK
  5
20
100
AcDbEntity
  8
0
100
AcDbBlockBegin
  2
*Model_Space
 70
0
 10
0.0
 20
0.0
 30
0.0
  3
*Model_Space
  1

  0
ENDBLK
  5
21
100
AcDbEntity
  8
0
100
AcDbBlockEnd
  0
BLOCK
  5
1C
100
AcDbEntity
 67
1
  8
0
100
AcDbBlockBegin
  2
*Paper_Space
 70
0
 10
0.0
 20
0.0
 30
0.0
  3
*Paper_Space
  1

  0
ENDBLK
  5
1D
100
AcDbEntity
 67
1
  8
0
100
AcDbBlockEnd
  0
BLOCK
  5
24
100
AcDbEntity
  8
0
100
AcDbBlockBegin
  2
*Paper_Space0
 70
0
 10
0.0
 20
0.0
 30
0.0
  3
*Paper_Space0
  1

  0
ENDBLK
  5
25
100
AcDbEntity
  8
0
100
AcDbBlockEnd
  0
ENDSEC
  0
SECTION
  2
ENTITIES
  0
LINE
  5
44
100
AcDbEntity
100
AcDbLine
  8
0
 62
7
370
-1
  6
CONTINUOUS
 10
0.0
 20
0.0
 30
0.0
 11
0.0
 21
215.90000000000001
 31
0.0
  0
LINE
  5
45
100
AcDbEntity
100
AcDbLine
  8
0
 62
7
370
-1
  6
CONTINUOUS
 10
0.0
 20
0.0
 30
0.0
 11
279.39999999999998
 21
0.0
 31
0.0
  0
LINE
  5
46
100
AcDbEntity
100
AcDbLine
  8
0
 62
7
370
-1
  6
CONTINUOUS
 10
0.0
 20
215.90000000000001
 30
0.0
 11
279.39999999999998
 21
215.90000000000001
 31
0.0
  0
LINE
  5
47
100
AcDbEntity
100
AcDbLine
  8
0
 62
7
370
-1
  6
CONTINUOUS
 10
279.39999999999998
 20
0.0
 30
0.0
 11
279.39999999999998
 21
215.90000000000001
 31
0.0
  0
ARC
  5
48
100
AcDbEntity
  8
DEFAULT_2
 62
8
370
-1
  6
DASHED
100
AcDbCircle
 10
85.450950105000004
 20
107.28730048920001
 30
0.0
 40
0.254
100
AcDbArc
 50
181.23736359770001
 51
284.01919707439998
  0
ARC
  5
49
100
AcDbEntity
  8
DEFAULT_2
 62
8
370
-1
  6
DASHED
100
AcDbCircle
 10
85.721685331700002
 20
106.2029886351
 30
0.0
 40
0.8636
100
AcDbArc
 50
267.72194303169999
 51
104.01919707419999
  0
ARC
  5
4A
100
AcDbEntity
  8
DEFAULT_2
 62
8
370
-1
  6
DASHED
100
AcDbCircle
 10
85.677261715200004
 20
105.0862718839
 30
0.0
 40
0.254
100
AcDbArc
 50
87.721943031699993
 51
190.50377650830001
  0
ARC
  5
4B
100
AcDbEntity
  8
DEFAULT_2
 62
8
370
-1
  6
DASHED
100
AcDbCircle
 10
99.143756389100005
 20
107.58305725690001
 30
0.0
 40
13.949999999999999
100
AcDbArc
 50
190.50377650830001
 51
193.23736359759999
  0
ARC
  5
4C
100
AcDbEntity
  8
DEFAULT_2
 62
8
370
-1
  6
DASHED
100
AcDbCircle
 10
85.8116620646
 20
104.4468689776
 30
0.0
 40
0.254
100
AcDbArc
 50
193.23736359759999
 51
296.01919707439998
  0
ARC
  5
4D
100
AcDbEntity
  8
DEFAULT_2
 62
8
370
-1
  6
DASHED
100
AcDbCircle
 10
86.301922188000006
 20
103.44254095780001
 30
0.0
 40
0.8636
100
AcDbArc
 50
279.72194303169999
 51
116.01919707419999
  0
ARC
  5
4E
100
AcDbEntity
  8
DEFAULT_2
 62
8
370
-1
  6
DASHED
100
AcDbCircle
 10
86.4906478021
 20
102.3409909578
 30
0.0
 40
0.254
100
AcDbArc
 50
99.721943031699993
 51
202.50377650830001
  0
ARC
  5
4F
100
AcDbEntity
  8
DEFAULT_2
 62
8
370
-1
  6
DASHED
100
AcDbCircle
 10
99.143756389100005
 20
107.58305725690001
 30
0.0
 40
13.949999999999999
100
AcDbArc
 50
202.50377650830001
 51
205.23736359759999
  0
ARC
  5
50
100
AcDbEntity
  8
DEFAULT_2
 62
8
370
-1
  6
DASHED
100
AcDbCircle
 10
86.755050520699996
 20
101.74350394290001
 30
0.0
 40
0.254
100
AcDbArc
 50
205.23736359750001
 51
308.01919707439998
  0
ARC
  5
51
100
AcDbEntity
  8
DEFAULT_2
 62
8
370
-1
  6
DASHED
100
AcDbCircle
 10
87.443408820900004
 20
100.8630537112
 30
0.0
 40
0.8636
100
AcDbArc
 50
291.72194303169999
 51
128.01919707420001
  0
ARC
  5
52
100
AcDbEntity
  8
DEFAULT_2
 62
8
370
-1
  6
DASHED
100
AcDbCircle
 10
87.857035450500007
 20
99.824813483100002
 30
0.0
 40
0.254
100
AcDbArc
 50
111.72194303169999
 51
214.50377650819999
  0
ARC
  5
53
100
AcDbEntity
  8
DEFAULT_2
 62
8
370
-1
  6
DASHED
100
AcDbCircle
 10
99.143756389100005
 20
107.58305725690001
 30
0.0
 40
13.949999999999999
100
AcDbArc
 50
214.50377650830001
 51
217.23736359759999
  0
ARC
  5
54
100
AcDbEntity
  8
DEFAULT_2
 62
8
370
-1
  6
DASHED
100
AcDbCircle
 10
88.239884870899999
 20
99.295355409400003
 30
0.0
 40
0.254
100
AcDbArc
 50
217.23736359770001
 51
320.01919707450003
  0
ARC
  5
55
100
AcDbEntity
  8
DEFAULT_2
 62
8
370
-1
  6
DASHED
100
AcDbCircle
 10
89.096256787000002
 20
98.577262865700007
 30
0.0
 40
0.8636
100
AcDbArc
 50
303.72194303169999
 51
140.01919707420001
  0
ARC
  5
56
100
AcDbEntity
  8
DEFAULT_2
 62
8
370
-1
  6
DASHED
100
AcDbCircle
 10
89.716706963600004
 20
97.647708489500005
 30
0.0
 40
0.254
100
AcDbArc
 50
123.72194303169999
 51
226.50377650830001
  0
ARC
  5
57
100
AcDbEntity
  8
DEFAULT_2
 62
8
370
-1
  6
DASHED
100
AcDbCircle
 10
99.143756389100005
 20
107.58305725690001
 30
0.0
 40
13.949999999999999
100
AcDbArc
 50
226.50377650830001
 51
229.23736359770004
  0
ARC
  5
58
100
AcDbEntity
  8
DEFAULT_2
 62
8
370
-1
  6
DASHED
100
AcDbCircle
 10
90.201270729000001
 20
97.209419215300002
 30
0.0
 40
0.254
100
AcDbArc
 50
229.23736359779997
 51
332.01919707450003
  0
ARC
  5
59
100
AcDbEntity
  8
DEFAULT_2
 62
8
370
-1
  6
DASHED
100
AcDbCircle
 10
91.188228699000007
 20
96.685068449699997
 30
0.0
 40
0.8636
100
AcDbArc
 50
315.72194303169999
 51
152.01919707420001
  0
ARC
  5
5A
100
AcDbEntity
  8
DEFAULT_2
 62
8
370
-1
  6
DASHED
100
AcDbCircle
 10
91.988385772699999
 20
95.904825912099994
 30
0.0
 40
0.254
100
AcDbArc
 50
135.72194303180001
 51
238.50377650839999
  0
ARC
  5
5B
100
AcDbEntity
  8
DEFAULT_2
 62
8
370
-1
  6
DASHED
100
AcDbCircle
 10
99.143756389100005
 20
107.58305725690001
 30
0.0
 40
13.949999999999999
100
AcDbArc
 50
238.50377650830001
 51
241.23736359770001
  0
ARC
  5
5C
100
AcDbEntity
  8
DEFAULT_2
 62
8
370
-1
  6
DASHED
100
AcDbCircle
 10
92.553486121199995
 20
95.576860781899995
 30
0.0
 40
0.254
100
AcDbArc
 50
241.23736359770001
 51
344.01919707439998
  0
ARC
  5
5D
100
AcDbEntity
  8
DEFAULT_2
 62
8
370
-1
  6
DASHED
100
AcDbCircle
 10
93.627895345900001
 20
95.269168438899996
 30
0.0
 40
0.8636
100
AcDbArc
 50
327.72194303169999
 51
164.01919707420001
  0
ARC
  5
5E
100
AcDbEntity
  8
DEFAULT_2
 62
8
370
-1
  6
DASHED
100
AcDbCircle
 10
94.572788612899998
 20
94.672338082899998
 30
0.0
 40
0.254
100
AcDbArc
 50
147.72194303169999
 51
250.50377650839997
  0
ARC
  5
5F
100
AcDbEntity
  8
DEFAULT_2
 62
8
370
-1
  6
DASHED
100
AcDbCircle
 10
99.143756389100005
 20
107.58305725690001
 30
0.0
 40
13.949999999999999
100
AcDbArc
 50
250.50377650830004
 51
253.23736359759997
  0
ARC
  5
60
100
AcDbEntity
  8
DEFAULT_2
 62
8
370
-1
  6
DASHED
100
AcDbCircle
 10
95.193727947799999
 20
94.469030746599998
 30
0.0
 40
0.254
100
AcDbArc
 50
253.23736359770001
 51
356.01919707439998
  0
ARC
  5
61
100
AcDbEntity
  8
DEFAULT_2
 62
8
370
-1
  6
DASHED
100
AcDbCircle
 10
96.308631588400004
 20
94.391444458099997
 30
0.0
 40
0.8636
100
AcDbArc
 50
339.72194303169999
 51
176.01919707420001
  0
ARC
  5
62
100
AcDbEntity
  8
DEFAULT_2
 62
8
370
-1
  6
DASHED
100
AcDbCircle
 10
97.356964679000001
 20
94.004110634100002
 30
0.0
 40
0.254
100
AcDbArc
 50
159.72194303169999
 51
262.50377650830001
  0
ARC
  5
63
100
AcDbEntity
  8
DEFAULT_2
 62
8
370
-1
  6
DASHED
100
AcDbCircle
 10
99.143756389100005
 20
107.58305725690001
 30
0.0
 40
13.949999999999999
100
AcDbArc
 50
262.50377650830001
 51
265.23736359759999
  0
ARC
  5
64
100
AcDbEntity
  8
DEFAULT_2
 62
8
370
-1
  6
DASHED
100
AcDbCircle
 10
98.006604971599998
 20
93.934346597900003
 30
0.0
 40
0.254
100
AcDbArc
 50
265.23736359759999
 51
8.0191970743999992
  0
ARC
  5
65
100
AcDbEntity
  8
DEFAULT_2
 62
8
370
-1
  6
DASHED
100
AcDbCircle
 10
99.113276389099994
 20
94.090257256900003
 30
0.0
 40
0.8636
100
AcDbArc
 50
351.72194303169999
 51
188.01919707420001
  0
ARC
  5
66
100
AcDbEntity
  8
DEFAULT_2
 62
8
370
-1
  6
DASHED
100
AcDbCircle
 10
100.2192321167
 20
93.929348311699997
 30
0.0
 40
0.254
100
AcDbArc
 50
171.72194303169999
 51
274.50377650830001
  0
ARC
  5
67
100
AcDbEntity
  8
DEFAULT_2
 62
8
370
-1
  6
DASHED
100
AcDbCircle
 10
99.143756389100005
 20
107.58305725690001
 30
0.0
 40
13.949999999999999
100
AcDbArc
 50
274.50377650830001
 51
277.23736359759999
  0
ARC
  5
68
100
AcDbEntity
  8
DEFAULT_2
 62
8
370
-1
  6
DASHED
100
AcDbCircle
 10
100.869180969
 20
93.996176598700004
 30
0.0
 40
0.254
100
AcDbArc
 50
277.23736359759999
 51
20.019197074400001
  0
ARC
  5
69
100
AcDbEntity
  8
DEFAULT_2
 62
8
370
-1
  6
DASHED
100
AcDbCircle
 10
101.9192533121
 20
94.378770161399999
 30
0.0
 40
0.8636
100
AcDbArc
 50
3.7219430317
 51
200.01919707420001
  0
ARC
  5
6A
100
AcDbEntity
  8
DEFAULT_2
 62
8
370
-1
  6
DASHED
100
AcDbCircle
 10
103.03449610440001
 20
94.451318588000007
 30
0.0
 40
0.254
100
AcDbArc
 50
183.72194303169999
 51
286.50377650820002
  0
ARC
  5
6B
100
AcDbEntity
  8
DEFAULT_2
 62
8
370
-1
  6
DASHED
100
AcDbCircle
 10
99.143756389100005
 20
107.58305725690001
 30
0.0
 40
13.949999999999999
100
AcDbArc
 50
286.50377650830001
 51
289.23736359759999
  0
ARC
  5
6C
100
AcDbEntity
  8
DEFAULT_2
 62
8
370
-1
  6
DASHED
100
AcDbCircle
 10
103.6563476327
 20
94.651818481399999
 30
0.0
 40
0.254
100
AcDbArc
 50
289.23736359769998
 51
32.019197074499999
  0
ARC
  5
6D
100
AcDbEntity
  8
DEFAULT_2
 62
8
370
-1
  6
DASHED
100
AcDbCircle
 10
104.60392770120001
 20
95.244373773099994
 30
0.0
 40
0.8636
100
AcDbArc
 50
15.7219430317
 51
212.01919707420001
  0
ARC
  5
6E
100
AcDbEntity
  8
DEFAULT_2
 62
8
370
-1
  6
DASHED
100
AcDbCircle
 10
105.67971609670001
 20
95.547208857200005
 30
0.0
 40
0.254
100
AcDbArc
 50
195.72194303169999
 51
298.50377650830001
  0
ARC
  5
6F
100
AcDbEntity
  8
DEFAULT_2
 62
8
370
-1
  6
DASHED
100
AcDbCircle
 10
99.143756389100005
 20
107.58305725690001
 30
0.0
 40
13.949999999999999
100
AcDbArc
 50
298.50377650830001
 51
301.23736359769998
  0
ARC
  5
70
100
AcDbEntity
  8
DEFAULT_2
 62
8
370
-1
  6
DASHED
100
AcDbCircle
 10
106.2462924053
 20
95.872617549599994
 30
0.0
 40
0.254
100
AcDbArc
 50
301.23736359780003
 51
44.019197074499999
  0
ARC
  5
71
100
AcDbEntity
  8
DEFAULT_2
 62
8
370
-1
  6
DASHED
100
AcDbCircle
 10
107.0499664032
 20
96.649237060700003
 30
0.0
 40
0.8636
100
AcDbArc
 50
27.7219430317
 51
224.01919707420001
  0
ARC
  5
72
100
AcDbEntity
  8
DEFAULT_2
 62
8
370
-1
  6
DASHED
100
AcDbCircle
 10
108.0392832868
 20
97.169123455900007
 30
0.0
 40
0.254
100
AcDbArc
 50
207.72194303180001
 51
310.50377650839999
  0
ARC
  5
73
100
AcDbEntity
  8
DEFAULT_2
 62
8
370
-1
  6
DASHED
100
AcDbCircle
 10
99.143756389100005
 20
107.58305725690001
 30
0.0
 40
13.949999999999999
100
AcDbArc
 50
310.50377650830001
 51
313.23736359769998
  0
ARC
  5
74
100
AcDbEntity
  8
DEFAULT_2
 62
8
370
-1
  6
DASHED
100
AcDbCircle
 10
108.5258222722
 20
97.605219025899999
 30
0.0
 40
0.254
100
AcDbArc
 50
313.23736359769998
 51
56.019197074499999
  0
ARC
  5
75
100
AcDbEntity
  8
DEFAULT_2
 62
8
370
-1
  6
DASHED
100
AcDbCircle
 10
109.1504657894
 20
98.531960757099995
 30
0.0
 40
0.8636
100
AcDbArc
 50
39.7219430317
 51
236.01919707420004
  0
ARC
  5
76
100
AcDbEntity
  8
DEFAULT_2
 62
8
370
-1
  6
DASHED
100
AcDbCircle
 10
110.01007326600001
 20
99.246176933300006
 30
0.0
 40
0.254
100
AcDbArc
 50
219.72194303169999
 51
322.50377650839999
  0
ARC
  5
77
100
AcDbEntity
  8
DEFAULT_2
 62
8
370
-1
  6
DASHED
100
AcDbCircle
 10
99.143756389100005
 20
107.58305725690001
 30
0.0
 40
13.949999999999999
100
AcDbArc
 50
322.50377650830001
 51
325.23736359759999
  0
ARC
  5
78
100
AcDbEntity
  8
DEFAULT_2
 62
8
370
-1
  6
DASHED
100
AcDbCircle
 10
110.39531083990001
 20
99.773899911900003
 30
0.0
 40
0.254
100
AcDbArc
 50
325.23736359769998
 51
68.019197074399997
  0
ARC
  5
79
100
AcDbEntity
  8
DEFAULT_2
 62
8
370
-1
  6
DASHED
100
AcDbCircle
 10
110.8136239573
 20
100.8102608026
 30
0.0
 40
0.8636
100
AcDbArc
 50
51.7219430317
 51
248.01919707420001
  0
ARC
  5
7A
100
AcDbEntity
  8
DEFAULT_2
 62
8
370
-1
  6
DASHED
100
AcDbCircle
 10
111.5059530553
 20
101.6875920856
 30
0.0
 40
0.254
100
AcDbArc
 50
231.72194303170002
 51
334.50377650830001
  0
ARC
  5
7B
100
AcDbEntity
  8
DEFAULT_2
 62
8
370
-1
  6
DASHED
100
AcDbCircle
 10
99.143756389100005
 20
107.58305725690001
 30
0.0
 40
13.949999999999999
100
AcDbArc
 50
334.50377650830001
 51
337.23736359759999
  0
ARC
  5
7C
100
AcDbEntity
  8
DEFAULT_2
 62
8
370
-1
  6
DASHED
100
AcDbCircle
 10
111.7730524872
 20
102.28387844629999
 30
0.0
 40
0.254
100
AcDbArc
 50
337.23736359759999
 51
80.019197074399997
  0
ARC
  5
7D
100
AcDbEntity
  8
DEFAULT_2
 62
8
370
-1
  6
DASHED
100
AcDbCircle
 10
111.9667529142
 20
103.3845645526
 30
0.0
 40
0.8636
100
AcDbArc
 50
63.721943031699993
 51
260.01919707420001
  0
ARC
  5
7E
100
AcDbEntity
  8
DEFAULT_2
 62
8
370
-1
  6
DASHED
100
AcDbCircle
 10
112.46154552989999
 20
104.38666735539999
 30
0.0
 40
0.254
100
AcDbArc
 50
243.72194303180004
 51
346.50377650830001
  0
ARC
  5
7F
100
AcDbEntity
  8
DEFAULT_2
 62
8
370
-1
  6
DASHED
100
AcDbCircle
 10
99.143756389100005
 20
107.58305725690001
 30
0.0
 40
13.949999999999999
100
AcDbArc
 50
346.50377650830001
 51
349.23736359759999
  0
ARC
  5
80
100
AcDbEntity
  8
DEFAULT_2
 62
8
370
-1
  6
DASHED
100
AcDbCircle
 10
112.5988332929
 20
105.025456523
 30
0.0
 40
0.254
100
AcDbArc
 50
349.23736359750001
 51
92.019197074399997
  0
ARC
  5
81
100
AcDbEntity
  8
DEFAULT_2
 62
8
370
-1
  6
DASHED
100
AcDbCircle
 10
112.55945539139999
 20
106.1423625804
 30
0.0
 40
0.8636
100
AcDbArc
 50
75.721943031699993
 51
272.01919707420001
  0
ARC
  5
82
100
AcDbEntity
  8
DEFAULT_2
 62
8
370
-1
  6
DASHED
100
AcDbCircle
 10
112.8350867131
 20
107.225440202
 30
0.0
 40
0.254
100
AcDbArc
 50
255.72194303169999
 51
358.50377650820002
  0
ARC
  5
83
100
AcDbEntity
  8
DEFAULT_2
 62
8
370
-1
  6
DASHED
100
AcDbCircle
 10
99.143756389100005
 20
107.58305725690001
 30
0.0
 40
13.949999999999999
100
AcDbArc
 50
358.50377650830001
 51
1.2373635975999999
  0
ARC
  5
84
100
AcDbEntity
  8
DEFAULT_2
 62
8
370
-1
  6
DASHED
100
AcDbCircle
 10
112.83656267320001
 20
107.8788140246
 30
0.0
 40
0.254
100
AcDbArc
 50
1.2373635976999999
 51
104.0191970745
  0
ARC
  5
85
100
AcDbEntity
  8
DEFAULT_2
 62
8
370
-1
  6
DASHED
100
AcDbCircle
 10
112.56582744649999
 20
108.9631258787
 30
0.0
 40
0.8636
100
AcDbArc
 50
87.721943031699993
 51
284.01919707420001
  0
ARC
  5
86
100
AcDbEntity
  8
DEFAULT_2
 62
8
370
-1
  6
DASHED
100
AcDbCircle
 10
112.61025106300001
 20
110.0798426299
 30
0.0
 40
0.254
100
AcDbArc
 50
267.72194303169999
 51
10.5037765083
  0
ARC
  5
87
100
AcDbEntity
  8
DEFAULT_2
 62
8
370
-1
  6
DASHED
100
AcDbCircle
 10
99.143756389100005
 20
107.58305725690001
 30
0.0
 40
13.949999999999999
100
AcDbArc
 50
10.5037765083
 51
13.2373635977
  0
ARC
  5
88
100
AcDbEntity
  8
DEFAULT_2
 62
8
370
-1
  6
DASHED
100
AcDbCircle
 10
112.4758507136
 20
110.71924553620001
 30
0.0
 40
0.254
100
AcDbArc
 50
13.2373635978
 51
116.01919707440001
  0
ARC
  5
89
100
AcDbEntity
  8
DEFAULT_2
 62
8
370
-1
  6
DASHED
100
AcDbCircle
 10
111.9855905902
 20
111.72357355600001
 30
0.0
 40
0.8636
100
AcDbArc
 50
99.721943031699993
 51
296.01919707420001
  0
ARC
  5
8A
100
AcDbEntity
  8
DEFAULT_2
 62
8
370
-1
  6
DASHED
100
AcDbCircle
 10
111.7968649761
 20
112.82512355599999
 30
0.0
 40
0.254
100
AcDbArc
 50
279.72194303169999
 51
22.503776508400001
  0
ARC
  5
8B
100
AcDbEntity
  8
DEFAULT_2
 62
8
370
-1
  6
DASHED
100
AcDbCircle
 10
99.143756389100005
 20
107.58305725690001
 30
0.0
 40
13.949999999999999
100
AcDbArc
 50
22.5037765083
 51
25.2373635977
  0
ARC
  5
8C
100
AcDbEntity
  8
DEFAULT_2
 62
8
370
-1
  6
DASHED
100
AcDbCircle
 10
111.5324622575
 20
113.42261057090001
 30
0.0
 40
0.254
100
AcDbArc
 50
25.2373635977
 51
128.01919707440001
  0
ARC
  5
8D
100
AcDbEntity
  8
DEFAULT_2
 62
8
370
-1
  6
DASHED
100
AcDbCircle
 10
110.84410395730001
 20
114.3030608026
 30
0.0
 40
0.8636
100
AcDbArc
 50
111.72194303169999
 51
308.01919707420001
  0
ARC
  5
8E
100
AcDbEntity
  8
DEFAULT_2
 62
8
370
-1
  6
DASHED
100
AcDbCircle
 10
110.4304773277
 20
115.3413010307
 30
0.0
 40
0.254
100
AcDbArc
 50
291.72194303169999
 51
34.503776508400001
  0
ARC
  5
8F
100
AcDbEntity
  8
DEFAULT_2
 62
8
370
-1
  6
DASHED
100
AcDbCircle
 10
99.143756389100005
 20
107.58305725690001
 30
0.0
 40
13.949999999999999
100
AcDbArc
 50
34.5037765083
 51
37.237363597600002
  0
ARC
  5
90
100
AcDbEntity
  8
DEFAULT_2
 62
8
370
-1
  6
DASHED
100
AcDbCircle
 10
110.0476279073
 20
115.8707591045
 30
0.0
 40
0.254
100
AcDbArc
 50
37.237363597700003
 51
140.0191970745
  0
ARC
  5
91
100
AcDbEntity
  8
DEFAULT_2
 62
8
370
-1
  6
DASHED
100
AcDbCircle
 10
109.19125599119999
 20
116.5888516481
 30
0.0
 40
0.8636
100
AcDbArc
 50
123.72194303169999
 51
320.01919707420001
  0
ARC
  5
92
100
AcDbEntity
  8
DEFAULT_2
 62
8
370
-1
  6
DASHED
100
AcDbCircle
 10
108.57080581460001
 20
117.51840602430001
 30
0.0
 40
0.254
100
AcDbArc
 50
303.72194303169999
 51
46.5037765083
  0
ARC
  5
93
100
AcDbEntity
  8
DEFAULT_2
 62
8
370
-1
  6
DASHED
100
AcDbCircle
 10
99.143756389100005
 20
107.58305725690001
 30
0.0
 40
13.949999999999999
100
AcDbArc
 50
46.5037765083
 51
49.237363597600002
  0
ARC
  5
94
100
AcDbEntity
  8
DEFAULT_2
 62
8
370
-1
  6
DASHED
100
AcDbCircle
 10
108.0862420493
 20
117.95669529849999
 30
0.0
 40
0.254
100
AcDbArc
 50
49.237363597600002
 51
152.0191970745
  0
ARC
  5
95
100
AcDbEntity
  8
DEFAULT_2
 62
8
370
-1
  6
DASHED
100
AcDbCircle
 10
107.0992840792
 20
118.4810460641
 30
0.0
 40
0.8636
100
AcDbArc
 50
135.72194303169999
 51
332.01919707420001
  0
ARC
  5
96
100
AcDbEntity
  8
DEFAULT_2
 62
8
370
-1
  6
DASHED
100
AcDbCircle
 10
106.2991270055
 20
119.2612886017
 30
0.0
 40
0.254
100
AcDbArc
 50
315.72194303179998
 51
58.5037765083
  0
ARC
  5
97
100
AcDbEntity
  8
DEFAULT_2
 62
8
370
-1
  6
DASHED
100
AcDbCircle
 10
99.143756389100005
 20
107.58305725690001
 30
0.0
 40
13.949999999999999
100
AcDbArc
 50
58.5037765083
 51
61.237363597600002
  0
ARC
  5
98
100
AcDbEntity
  8
DEFAULT_2
 62
8
370
-1
  6
DASHED
100
AcDbCircle
 10
105.734026657
 20
119.5892537319
 30
0.0
 40
0.254
100
AcDbArc
 50
61.237363597499993
 51
164.01919707440001
  0
ARC
  5
99
100
AcDbEntity
  8
DEFAULT_2
 62
8
370
-1
  6
DASHED
100
AcDbCircle
 10
104.6596174323
 20
119.8969460749
 30
0.0
 40
0.8636
100
AcDbArc
 50
147.72194303169999
 51
344.01919707420001
  0
ARC
  5
9A
100
AcDbEntity
  8
DEFAULT_2
 62
8
370
-1
  6
DASHED
100
AcDbCircle
 10
103.7147241653
 20
120.4937764309
 30
0.0
 40
0.254
100
AcDbArc
 50
327.72194303169999
 51
70.503776508200005
  0
ARC
  5
9B
100
AcDbEntity
  8
DEFAULT_2
 62
8
370
-1
  6
DASHED
100
AcDbCircle
 10
99.143756389100005
 20
107.58305725690001
 30
0.0
 40
13.949999999999999
100
AcDbArc
 50
70.503776508300007
 51
73.237363597599995
  0
ARC
  5
9C
100
AcDbEntity
  8
DEFAULT_2
 62
8
370
-1
  6
DASHED
100
AcDbCircle
 10
103.0937848304
 20
120.6970837672
 30
0.0
 40
0.254
100
AcDbArc
 50
73.237363597699996
 51
176.01919707440001
  0
ARC
  5
9D
100
AcDbEntity
  8
DEFAULT_2
 62
8
370
-1
  6
DASHED
100
AcDbCircle
 10
101.97888118980001
 20
120.7746700557
 30
0.0
 40
0.8636
100
AcDbArc
 50
159.72194303169999
 51
356.01919707420001
  0
ARC
  5
9E
100
AcDbEntity
  8
DEFAULT_2
 62
8
370
-1
  6
DASHED
100
AcDbCircle
 10
100.9305480992
 20
121.16200387969999
 30
0.0
 40
0.254
100
AcDbArc
 50
339.72194303169999
 51
82.503776508300007
  0
ARC
  5
9F
100
AcDbEntity
  8
DEFAULT_2
 62
8
370
-1
  6
DASHED
100
AcDbCircle
 10
99.143756389100005
 20
107.58305725690001
 30
0.0
 40
13.949999999999999
100
AcDbArc
 50
82.503776508300007
 51
85.237363597699996
  0
ARC
  5
A0
100
AcDbEntity
  8
DEFAULT_2
 62
8
370
-1
  6
DASHED
100
AcDbCircle
 10
100.2809078066
 20
121.23176791589999
 30
0.0
 40
0.254
100
AcDbArc
 50
85.237363597799998
 51
188.01919707440001
  0
ARC
  5
A1
100
AcDbEntity
  8
DEFAULT_2
 62
8
370
-1
  6
DASHED
100
AcDbCircle
 10
99.174236389100002
 20
121.07585725689999
 30
0.0
 40
0.8636
100
AcDbArc
 50
171.72194303169999
 51
8.0191970741999992
  0
ARC
  5
A2
100
AcDbEntity
  8
DEFAULT_2
 62
8
370
-1
  6
DASHED
100
AcDbCircle
 10
98.068280661499998
 20
121.2367662021
 30
0.0
 40
0.254
100
AcDbArc
 50
351.72194303169999
 51
94.503776508399994
  0
ARC
  5
A3
100
AcDbEntity
  8
DEFAULT_2
 62
8
370
-1
  6
DASHED
100
AcDbCircle
 10
99.143756389100005
 20
107.58305725690001
 30
0.0
 40
13.949999999999999
100
AcDbArc
 50
94.503776508300007
 51
97.237363597699996
  0
ARC
  5
A4
100
AcDbEntity
  8
DEFAULT_2
 62
8
370
-1
  6
DASHED
100
AcDbCircle
 10
97.418331809199998
 20
121.16993791509999
 30
0.0
 40
0.254
100
AcDbArc
 50
97.237363597699996
 51
200.01919707440001
  0
ARC
  5
A5
100
AcDbEntity
  8
DEFAULT_2
 62
8
370
-1
  6
DASHED
100
AcDbCircle
 10
96.3682594661
 20
120.7873443524
 30
0.0
 40
0.8636
100
AcDbArc
 50
183.72194303169999
 51
20.019197074200001
  0
ARC
  5
A6
100
AcDbEntity
  8
DEFAULT_2
 62
8
370
-1
  6
DASHED
100
AcDbCircle
 10
95.253016673800005
 20
120.7147959258
 30
0.0
 40
0.254
100
AcDbArc
 50
3.7219430317
 51
106.50377650839999
  0
ARC
  5
A7
100
AcDbEntity
  8
DEFAULT_2
 62
8
370
-1
  6
DASHED
100
AcDbCircle
 10
99.143756389100005
 20
107.58305725690001
 30
0.0
 40
13.949999999999999
100
AcDbArc
 50
106.50377650830001
 51
109.23736359759999
  0
ARC
  5
A8
100
AcDbEntity
  8
DEFAULT_2
 62
8
370
-1
  6
DASHED
100
AcDbCircle
 10
94.631165145500006
 20
120.5142960324
 30
0.0
 40
0.254
100
AcDbArc
 50
109.2373635977
 51
212.0191970745
  0
ARC
  5
A9
100
AcDbEntity
  8
DEFAULT_2
 62
8
370
-1
  6
DASHED
100
AcDbCircle
 10
93.683585077000004
 20
119.9217407407
 30
0.0
 40
0.8636
100
AcDbArc
 50
195.72194303169999
 51
32.019197074200001
  0
ARC
  5
AA
100
AcDbEntity
  8
DEFAULT_2
 62
8
370
-1
  6
DASHED
100
AcDbCircle
 10
92.607796681500005
 20
119.61890565660001
 30
0.0
 40
0.254
100
AcDbArc
 50
15.7219430317
 51
118.50377650830002
  0
ARC
  5
AB
100
AcDbEntity
  8
DEFAULT_2
 62
8
370
-1
  6
DASHED
100
AcDbCircle
 10
99.143756389100005
 20
107.58305725690001
 30
0.0
 40
13.949999999999999
100
AcDbArc
 50
118.50377650830002
 51
121.23736359759998
  0
ARC
  5
AC
100
AcDbEntity
  8
DEFAULT_2
 62
8
370
-1
  6
DASHED
100
AcDbCircle
 10
92.0412203729
 20
119.2934969642
 30
0.0
 40
0.254
100
AcDbArc
 50
121.23736359759998
 51
224.0191970745
  0
ARC
  5
AD
100
AcDbEntity
  8
DEFAULT_2
 62
8
370
-1
  6
DASHED
100
AcDbCircle
 10
91.237546374999994
 20
118.51687745309999
 30
0.0
 40
0.8636
100
AcDbArc
 50
207.72194303169999
 51
44.019197074200001
  0
ARC
  5
AE
100
AcDbEntity
  8
DEFAULT_2
 62
8
370
-1
  6
DASHED
100
AcDbCircle
 10
90.248229491399997
 20
117.9969910579
 30
0.0
 40
0.254
100
AcDbArc
 50
27.7219430317
 51
130.50377650830001
  0
ARC
  5
AF
100
AcDbEntity
  8
DEFAULT_2
 62
8
370
-1
  6
DASHED
100
AcDbCircle
 10
99.143756389100005
 20
107.58305725690001
 30
0.0
 40
13.949999999999999
100
AcDbArc
 50
130.50377650830001
 51
133.23736359759999
  0
ARC
  5
B0
100
AcDbEntity
  8
DEFAULT_2
 62
8
370
-1
  6
DASHED
100
AcDbCircle
 10
89.761690505999994
 20
117.5608954879
 30
0.0
 40
0.254
100
AcDbArc
 50
133.23736359750001
 51
236.01919707450003
  0
ARC
  5
B1
100
AcDbEntity
  8
DEFAULT_2
 62
8
370
-1
  6
DASHED
100
AcDbCircle
 10
89.137046988799995
 20
116.6341537567
 30
0.0
 40
0.8636
100
AcDbArc
 50
219.72194303169999
 51
56.019197074200001
  0
ARC
  5
B2
100
AcDbEntity
  8
DEFAULT_2
 62
8
370
-1
  6
DASHED
100
AcDbCircle
 10
88.277439512200004
 20
115.91993758060001
 30
0.0
 40
0.254
100
AcDbArc
 50
39.7219430317
 51
142.50377650819999
  0
ARC
  5
B3
100
AcDbEntity
  8
DEFAULT_2
 62
8
370
-1
  6
DASHED
100
AcDbCircle
 10
99.143756389100005
 20
107.58305725690001
 30
0.0
 40
13.949999999999999
100
AcDbArc
 50
142.50377650830001
 51
145.23736359759999
  0
ARC
  5
B4
100
AcDbEntity
  8
DEFAULT_2
 62
8
370
-1
  6
DASHED
100
AcDbCircle
 10
87.892201938300005
 20
115.392214602
 30
0.0
 40
0.254
100
AcDbArc
 50
145.23736359770001
 51
248.01919707439998
  0
ARC
  5
B5
100
AcDbEntity
  8
DEFAULT_2
 62
8
370
-1
  6
DASHED
100
AcDbCircle
 10
87.473888820900001
 20
114.3558537112
 30
0.0
 40
0.8636
100
AcDbArc
 50
231.72194303170002
 51
68.019197074199994
  0
ARC
  5
B6
100
AcDbEntity
  8
DEFAULT_2
 62
8
370
-1
  6
DASHED
100
AcDbCircle
 10
86.781559722899999
 20
113.4785224283
 30
0.0
 40
0.254
100
AcDbArc
 50
51.7219430317
 51
154.50377650830001
  0
ARC
  5
B7
100
AcDbEntity
  8
DEFAULT_2
 62
8
370
-1
  6
DASHED
100
AcDbCircle
 10
99.143756389100005
 20
107.58305725690001
 30
0.0
 40
13.949999999999999
100
AcDbArc
 50
154.50377650830001
 51
157.23736359770001
  0
ARC
  5
B8
100
AcDbEntity
  8
DEFAULT_2
 62
8
370
-1
  6
DASHED
100
AcDbCircle
 10
86.514460291000006
 20
112.8822360675
 30
0.0
 40
0.254
100
AcDbArc
 50
157.2373635978
 51
260.01919707439998
  0
ARC
  5
B9
100
AcDbEntity
  8
DEFAULT_2
 62
8
370
-1
  6
DASHED
100
AcDbCircle
 10
86.320759863999996
 20
111.7815499612
 30
0.0
 40
0.8636
100
AcDbArc
 50
243.72194303169999
 51
80.019197074199994
  0
ARC
  5
BA
100
AcDbEntity
  8
DEFAULT_2
 62
8
370
-1
  6
DASHED
100
AcDbCircle
 10
85.825967248300003
 20
110.7794471584
 30
0.0
 40
0.254
100
AcDbArc
 50
63.721943031800002
 51
166.50377650839999
  0
ARC
  5
BB
100
AcDbEntity
  8
DEFAULT_2
 62
8
370
-1
  6
DASHED
100
AcDbCircle
 10
99.143756389100005
 20
107.58305725690001
 30
0.0
 40
13.949999999999999
100
AcDbArc
 50
166.50377650830001
 51
169.23736359770001
  0
ARC
  5
BC
100
AcDbEntity
  8
DEFAULT_2
 62
8
370
-1
  6
DASHED
100
AcDbCircle
 10
85.6886794853
 20
110.14065799079999
 30
0.0
 40
0.254
100
AcDbArc
 50
169.23736359770001
 51
272.01919707439998
  0
ARC
  5
BD
100
AcDbEntity
  8
DEFAULT_2
 62
8
370
-1
  6
DASHED
100
AcDbCircle
 10
85.728057386800003
 20
109.02375193349999
 30
0.0
 40
0.8636
100
AcDbArc
 50
255.72194303169999
 51
92.019197074199994
  0
ARC
  5
BE
100
AcDbEntity
  8
DEFAULT_2
 62
8
370
-1
  6
DASHED
100
AcDbCircle
 10
85.452426065099999
 20
107.9406743118
 30
0.0
 40
0.254
100
AcDbArc
 50
75.721943031699993
 51
178.50377650839999
  0
ARC
  5
BF
100
AcDbEntity
  8
DEFAULT_2
 62
8
370
-1
  6
DASHED
100
AcDbCircle
 10
99.143756389100005
 20
107.58305725690001
 30
0.0
 40
13.949999999999999
100
AcDbArc
 50
178.50377650830001
 51
181.23736359759999
  0
CIRCLE
  5
C0
100
AcDbEntity
100
AcDbCircle
  8
0
 62
7
370
-1
  6
CONTINUOUS
 10
99.143756389100005
 20
107.58305725690001
 30
0.0
 40
9.8499999999999996
  0
CIRCLE
  5
C1
100
AcDbEntity
100
AcDbCircle
  8
0
 62
7
370
-1
  6
CONTINUOUS
 10
99.143756389100005
 20
107.58305725690001
 30
0.0
 40
11.734999999999999
  0
CIRCLE
  5
C2
100
AcDbEntity
100
AcDbCircle
  8
0
 62
7
370
-1
  6
CONTINUOUS
 10
99.143756389100005
 20
107.58305725690001
 30
0.0
 40
3.0
  0
CIRCLE
  5
C3
100
AcDbEntity
100
AcDbCircle
  8
0
 62
7
370
-1
  6
CONTINUOUS
 10
99.143756389100005
 20
107.58305725690001
 30
0.0
 40
15.9
  0
CIRCLE
  5
C4
100
AcDbEntity
100
AcDbCircle
  8
0
 62
7
370
-1
  6
CONTINUOUS
 10
99.143756389100005
 20
107.58305725690001
 30
0.0
 40
3.4500000000000002
  0
CIRCLE
  5
C5
100
AcDbEntity
100
AcDbCircle
  8
0
 62
7
370
-1
  6
CONTINUOUS
 10
99.143756389100005
 20
107.58305725690001
 30
0.0
 40
14.368499999999999
  0
LINE
  5
C6
100
AcDbEntity
100
AcDbLine
  8
0
 62
256
370
-1
  6
ByLayer
 10
117.0
 20
107.5831
 30
0.0
 11
81.0
 21
107.5831
 31
0.0
  0
LINE
  5
C7
100
AcDbEntity
100
AcDbLine
  8
0
 62
256
370
-1
  6
ByLayer
 10
99.143799999999999
 20
125.0
 30
0.0
 11
99.143799999999999
 21
91.0
 31
0.0
  0
ENDSEC
  0
SECTION
  2
OBJECTS
  0
DICTIONARY
  5
C
100
AcDbDictionary
280
0
281
1
  3
ACAD_GROUP
350
D
  3
ACAD_LAYOUT
350
1A
  3
ACAD_MLINESTYLE
350
17
  3
ACAD_PLOTSETTINGS
350
19
  3
ACAD_PLOTSTYLENAME
350
E
  3
AcDbVariableDictionary
350
C8
  0
DICTIONARY
  5
D
100
AcDbDictionary
280
0
281
1
  0
ACDBDICTIONARYWDFLT
  5
E
100
AcDbDictionary
281
1
  3
Normal
350
F
100
AcDbDictionaryWithDefault
340
F
  0
ACDBPLACEHOLDER
  5
F
  0
DICTIONARY
  5
17
100
AcDbDictionary
280
0
281
1
  3
Standard
350
18
  0
MLINESTYLE
  5
18
100
AcDbMlineStyle
  2
STANDARD
 70
0
  3

 62
256
 51
90.0
 52
90.0
 71
2
 49
0.5
 62
256
  6
BYLAYER
 49
-0.5
 62
256
  6
BYLAYER
  0
DICTIONARY
  5
19
100
AcDbDictionary
280
0
281
1
  0
DICTIONARY
  5
1A
100
AcDbDictionary
281
1
  3
Layout1
350
1E
  3
Layout2
350
26
  3
Model
350
22
  0
LAYOUT
  5
1E
100
AcDbPlotSettings
  1

  2
C:\Program Files\AutoCAD 2002\plotters\DWF ePlot (optimized for plotting).pc3
  4

  6

 40
0.0
 41
0.0
 42
0.0
 43
0.0
 44
0.0
 45
0.0
 46
0.0
 47
0.0
 48
0.0
 49
0.0
140
0.0
141
0.0
142
1.0
143
1.0
 70
688
 72
0
 73
0
 74
5
  7

 75
16
147
1.0
148
0.0
149
0.0
100
AcDbLayout
  1
Layout1
 70
1
 71
1
 10
0.0
 20
0.0
 11
420.0
 21
297.0
 12
0.0
 22
0.0
 32
0.0
 14
100000000000000000000.0
 24
100000000000000000000.0
 34
100000000000000000000.0
 15
-100000000000000000000.0
 25
-100000000000000000000.0
 35
-100000000000000000000.0
146
0.0
 13
0.0
 23
0.0
 33
0.0
 16
1.0
 26
0.0
 36
0.0
 17
0.0
 27
1.0
 37
0.0
 76
0
330
1B
  0
LAYOUT
  5
22
100
AcDbPlotSettings
  1

  2
C:\Program Files\AutoCAD 2002\plotters\DWF ePlot (optimized for plotting).pc3
  4

  6

 40
0.0
 41
0.0
 42
0.0
 43
0.0
 44
0.0
 45
0.0
 46
0.0
 47
0.0
 48
0.0
 49
0.0
140
0.0
141
0.0
142
1.0
143
1.0
 70
1712
 72
0
 73
0
 74
0
  7

 75
0
147
1.0
148
0.0
149
0.0
100
AcDbLayout
  1
Model
 70
1
 71
0
 10
0.0
 20
0.0
 11
12.0
 21
9.0
 12
0.0
 22
0.0
 32
0.0
 14
0.0
 24
0.0
 34
0.0
 15
0.0
 25
0.0
 35
0.0
146
0.0
 13
0.0
 23
0.0
 33
0.0
 16
1.0
 26
0.0
 36
0.0
 17
0.0
 27
1.0
 37
0.0
 76
0
330
1F
  0
LAYOUT
  5
26
100
AcDbPlotSettings
  1

  2
C:\Program Files\AutoCAD 2002\plotters\DWF ePlot (optimized for plotting).pc3
  4

  6

 40
0.0
 41
0.0
 42
0.0
 43
0.0
 44
0.0
 45
0.0
 46
0.0
 47
0.0
 48
0.0
 49
0.0
140
0.0
141
0.0
142
1.0
143
1.0
 70
688
 72
0
 73
0
 74
5
  7

 75
16
147
1.0
148
0.0
149
0.0
100
AcDbLayout
  1
Layout2
 70
1
 71
2
 10
0.0
 20
0.0
 11
12.0
 21
9.0
 12
0.0
 22
0.0
 32
0.0
 14
0.0
 24
0.0
 34
0.0
 15
0.0
 25
0.0
 35
0.0
146
0.0
 13
0.0
 23
0.0
 33
0.0
 16
1.0
 26
0.0
 36
0.0
 17
0.0
 27
1.0
 37
0.0
 76
0
330
23
  0
DICTIONARY
  5
C8
100
AcDbDictionary
281
1
  3
DIMASSOC
350
CA
  3
HIDETEXT
350
C9
  0
DICTIONARYVAR
  5
C9
100
DictionaryVariables
280
0
  1
2
  0
DICTIONARYVAR
  5
CA
100
DictionaryVariables
280
0
  1
1
  0
ENDSEC
  0
EOF
